  0
SECTION
  2
HEADER
  9
$ACADVER
  1
AC1015
  9
$ACADMAINTVER
 70
     6
  9
$DWGCODEPAGE
  3
ANSI_1252
  9
$INSBASE
 10
0.0
 20
0.0
 30
0.0
  9
$EXTMIN
 10
0.0
 20
0.0
 30
0.0
  9
$EXTMAX
 10
1317.0
 20
665.0
 30
0.0
  9
$LIMMIN
 10
0.0
 20
0.0
  9
$LIMMAX
 10
1317.0
 20
665.0
  9
$ORTHOMODE
 70
     0
  9
$REGENMODE
 70
     1
  9
$FILLMODE
 70
     1
  9
$QTEXTMODE
 70
     0
  9
$MIRRTEXT
 70
     1
  9
$LTSCALE
 40
1.0
  9
$ATTMODE
 70
     1
  9
$TEXTSIZE
 40
3.5
  9
$TRACEWID
 40
1.0
  9
$TEXTSTYLE
  7
Standard
  9
$CLAYER
  8
0
  9
$CELTYPE
  6
ByLayer
  9
$CECOLOR
 62
   256
  9
$CELTSCALE
 40
1.0
  9
$DISPSILH
 70
     0
  9
$DIMSCALE
 40
1.0
  9
$DIMASZ
 40
3.302
  9
$DIMEXO
 40
1.0
  9
$DIMDLI
 40
3.75
  9
$DIMRND
 40
0.0
  9
$DIMDLE
 40
0.0
  9
$DIMEXE
 40
1.0
  9
$DIMTP
 40
0.0
  9
$DIMTM
 40
0.0
  9
$DIMTXT
 40
2.8
  9
$DIMCEN
 40
2.5
  9
$DIMTSZ
 40
0.0
  9
$DIMTOL
 70
     0
  9
$DIMLIM
 70
     0
  9
$DIMTIH
 70
     1
  9
$DIMTOH
 70
     1
  9
$DIMSE1
 70
     0
  9
$DIMSE2
 70
     0
  9
$DIMTAD
 70
     1
  9
$DIMZIN
 70
     0
  9
$DIMBLK
  1

  9
$DIMASO
 70
     1
  9
$DIMSHO
 70
     1
  9
$DIMPOST
  1

  9
$DIMAPOST
  1

  9
$DIMALT
 70
     0
  9
$DIMALTD
 70
     3
  9
$DIMALTF
 40
0.0393700787
  9
$DIMLFAC
 40
1.0
  9
$DIMTOFL
 70
     1
  9
$DIMTVP
 40
0.0
  9
$DIMTIX
 70
     0
  9
$DIMSOXD
 70
     0
  9
$DIMSAH
 70
     0
  9
$DIMBLK1
  1

  9
$DIMBLK2
  1

  9
$DIMSTYLE
  2
ISO-25
  9
$DIMCLRD
 70
     0
  9
$DIMCLRE
 70
     0
  9
$DIMCLRT
 70
     0
  9
$DIMTFAC
 40
1.0
  9
$DIMGAP
 40
1.524
  9
$DIMJUST
 70
     0
  9
$DIMSD1
 70
     0
  9
$DIMSD2
 70
     0
  9
$DIMTOLJ
 70
     0
  9
$DIMTZIN
 70
     0
  9
$DIMALTZ
 70
     0
  9
$DIMALTTZ
 70
     0
  9
$DIMUPT
 70
     0
  9
$DIMDEC
 70
     2
  9
$DIMTDEC
 70
     2
  9
$DIMALTU
 70
     2
  9
$DIMALTTD
 70
     3
  9
$DIMTXSTY
  7
Standard
  9
$DIMAUNIT
 70
     0
  9
$DIMADEC
 70
     2
  9
$DIMALTRND
 40
0.0
  9
$DIMAZIN
 70
     0
  9
$DIMDSEP
 70
    44
  9
$DIMATFIT
 70
     3
  9
$DIMFRAC
 70
     0
  9
$DIMLDRBLK
  1

  9
$DIMLUNIT
 70
     2
  9
$DIMLWD
 70
    -2
  9
$DIMLWE
 70
    -2
  9
$DIMTMOVE
 70
     0
  9
$LUNITS
 70
     2
  9
$LUPREC
 70
     2
  9
$SKETCHINC
 40
1.0
  9
$FILLETRAD
 40
10.0
  9
$AUNITS
 70
     0
  9
$AUPREC
 70
     2
  9
$MENU
  1
.
  9
$ELEVATION
 40
0.0
  9
$PELEVATION
 40
0.0
  9
$THICKNESS
 40
0.0
  9
$LIMCHECK
 70
     0
  9
$CHAMFERA
 40
0.0
  9
$CHAMFERB
 40
0.0
  9
$CHAMFERC
 40
0.0
  9
$CHAMFERD
 40
0.0
  9
$SKPOLY
 70
     0
  9
$TDCREATE
 40
2460272.54713581
  9
$TDUCREATE
 40
2460272.463802477
  9
$TDUPDATE
 40
2460272.547136354
  9
$TDUUPDATE
 40
2460272.463803021
  9
$TDINDWG
 40
0.0000000116
  9
$TDUSRTIMER
 40
0.0000000116
  9
$USRTIMER
 70
     1
  9
$ANGBASE
 50
0.0
  9
$ANGDIR
 70
     0
  9
$PDMODE
 70
     0
  9
$PDSIZE
 40
-1.0
  9
$PLINEWID
 40
0.0
  9
$SPLFRAME
 70
     0
  9
$SPLINETYPE
 70
     6
  9
$SPLINESEGS
 70
     8
  9
$HANDSEED
  5
192
  9
$SURFTAB1
 70
     6
  9
$SURFTAB2
 70
     6
  9
$SURFTYPE
 70
     6
  9
$SURFU
 70
     6
  9
$SURFV
 70
     6
  9
$UCSBASE
  2

  9
$UCSNAME
  2

  9
$UCSORG
 10
0.0
 20
0.0
 30
0.0
  9
$UCSXDIR
 10
1.0
 20
0.0
 30
0.0
  9
$UCSYDIR
 10
0.0
 20
1.0
 30
0.0
  9
$UCSORTHOREF
  2

  9
$UCSORTHOVIEW
 70
     0
  9
$UCSORGTOP
 10
0.0
 20
0.0
 30
0.0
  9
$UCSORGBOTTOM
 10
0.0
 20
0.0
 30
0.0
  9
$UCSORGLEFT
 10
0.0
 20
0.0
 30
0.0
  9
$UCSORGRIGHT
 10
0.0
 20
0.0
 30
0.0
  9
$UCSORGFRONT
 10
0.0
 20
0.0
 30
0.0
  9
$UCSORGBACK
 10
0.0
 20
0.0
 30
0.0
  9
$PUCSBASE
  2

  9
$PUCSNAME
  2

  9
$PUCSORG
 10
0.0
 20
0.0
 30
0.0
  9
$PUCSXDIR
 10
1.0
 20
0.0
 30
0.0
  9
$PUCSYDIR
 10
0.0
 20
1.0
 30
0.0
  9
$PUCSORTHOREF
  2

  9
$PUCSORTHOVIEW
 70
     0
  9
$PUCSORGTOP
 10
0.0
 20
0.0
 30
0.0
  9
$PUCSORGBOTTOM
 10
0.0
 20
0.0
 30
0.0
  9
$PUCSORGLEFT
 10
0.0
 20
0.0
 30
0.0
  9
$PUCSORGRIGHT
 10
0.0
 20
0.0
 30
0.0
  9
$PUCSORGFRONT
 10
0.0
 20
0.0
 30
0.0
  9
$PUCSORGBACK
 10
0.0
 20
0.0
 30
0.0
  9
$USERI1
 70
     0
  9
$USERI2
 70
     0
  9
$USERI3
 70
     0
  9
$USERI4
 70
     0
  9
$USERI5
 70
     0
  9
$USERR1
 40
0.0
  9
$USERR2
 40
0.0
  9
$USERR3
 40
0.0
  9
$USERR4
 40
0.0
  9
$USERR5
 40
0.0
  9
$WORLDVIEW
 70
     1
  9
$SHADEDGE
 70
     3
  9
$SHADEDIF
 70
    70
  9
$TILEMODE
 70
     1
  9
$MAXACTVP
 70
    64
  9
$PINSBASE
 10
0.0
 20
0.0
 30
0.0
  9
$PLIMCHECK
 70
     0
  9
$PEXTMIN
 10
1.0000000000E+20
 20
1.0000000000E+20
 30
1.0000000000E+20
  9
$PEXTMAX
 10
-1.0000000000E+20
 20
-1.0000000000E+20
 30
-1.0000000000E+20
  9
$PLIMMIN
 10
0.0
 20
0.0
  9
$PLIMMAX
 10
420.0
 20
297.0
  9
$UNITMODE
 70
     0
  9
$VISRETAIN
 70
     1
  9
$PLINEGEN
 70
     0
  9
$PSLTSCALE
 70
     1
  9
$TREEDEPTH
 70
  3020
  9
$CMLSTYLE
  2
Standard
  9
$CMLJUST
 70
     0
  9
$CMLSCALE
 40
20.0
  9
$PROXYGRAPHICS
 70
     1
  9
$MEASUREMENT
 70
     1
  9
$CELWEIGHT
370
    -1
  9
$ENDCAPS
280
     0
  9
$JOINSTYLE
280
     0
  9
$LWDISPLAY
290
     1
  9
$INSUNITS
 70
     4
  9
$HYPERLINKBASE
  1

  9
$STYLESHEET
  1

  9
$XEDIT
290
     1
  9
$CEPSNTYPE
380
     0
  9
$PSTYLEMODE
290
     1
  9
$FINGERPRINTGUID
  2
{9DC1271A-66E1-4B7B-A2AB-E2490227881F}
  9
$VERSIONGUID
  2
{FAEB1C32-E019-11D5-929B-00C0DF256EC4}
  9
$EXTNAMES
290
     1
  9
$PSVPSCALE
 40
0.0
  9
$OLESTARTUP
290
     0
  0
ENDSEC
  0
SECTION
  2
CLASSES
  0
CLASS
  1
ACDBDICTIONARYWDFLT
  2
AcDbDictionaryWithDefault
  3
ObjectDBX Classes
 90
        0
280
     0
281
     0
  0
CLASS
  1
VISUALSTYLE
  2
AcDbVisualStyle
  3
ObjectDBX Classes
 90
     4095
280
     0
281
     0
  0
CLASS
  1
MATERIAL
  2
AcDbMaterial
  3
ObjectDBX Classes
 90
     1153
280
     0
281
     0
  0
CLASS
  1
SCALE
  2
AcDbScale
  3
ObjectDBX Classes
 90
     1153
280
     0
281
     0
  0
CLASS
  1
TABLESTYLE
  2
AcDbTableStyle
  3
ObjectDBX Classes
 90
     4095
280
     0
281
     0
  0
CLASS
  1
MLEADERSTYLE
  2
AcDbMLeaderStyle
  3
ACDB_MLEADERSTYLE_CLASS
 90
     4095
280
     0
281
     0
  0
CLASS
  1
SUN
  2
AcDbSun
  3
SCENEOE
 90
     1153
280
     0
281
     0
  0
CLASS
  1
ACDBPLACEHOLDER
  2
AcDbPlaceHolder
  3
ObjectDBX Classes
 90
        0
280
     0
281
     0
  0
CLASS
  1
LAYOUT
  2
AcDbLayout
  3
ObjectDBX Classes
 90
        0
280
     0
281
     0
  0
ENDSEC
  0
SECTION
  2
TABLES
  0
TABLE
  2
VPORT
  5
8
330
0
100
AcDbSymbolTable
 70
     1
  0
VPORT
  5
29
330
8
100
AcDbSymbolTableRecord
100
AcDbViewportTableRecord
  2
*Active
 70
     0
 10
0.0
 20
0.0
 11
1.0
 21
1.0
 12
658.5
 22
332.5
 13
0.0
 23
0.0
 14
10.0
 24
10.0
 15
10.0
 25
10.0
 16
0.0
 26
0.0
 36
1.0
 17
0.0
 27
0.0
 37
0.0
 40
665.0
 41
1.9804511278
 42
50.0
 43
0.0
 44
0.0
 50
0.0
 51
0.0
 71
     0
 72
  2000
 73
     1
 74
     3
 75
     0
 76
     0
 77
     0
 78
     0
281
     0
 65
     1
110
0.0
120
0.0
130
0.0
111
1.0
121
0.0
131
0.0
112
0.0
122
1.0
132
0.0
 79
     0
146
0.0
  0
ENDTAB
  0
TABLE
  2
LTYPE
  5
5
330
0
100
AcDbSymbolTable
 70
     6
  0
LTYPE
  5
14
330
5
100
AcDbSymbolTableRecord
100
AcDbLinetypeTableRecord
  2
ByBlock
 70
     0
  3

 72
    65
 73
     0
 40
0.0
  0
LTYPE
  5
15
330
5
100
AcDbSymbolTableRecord
100
AcDbLinetypeTableRecord
  2
ByLayer
 70
     0
  3

 72
    65
 73
     0
 40
0.0
  0
LTYPE
  5
16
330
5
100
AcDbSymbolTableRecord
100
AcDbLinetypeTableRecord
  2
Continuous
 70
     0
  3
Solid line
 72
    65
 73
     0
 40
0.0
  0
LTYPE
  5
6E
330
5
100
AcDbSymbolTableRecord
100
AcDbLinetypeTableRecord
  2
HIDDEN
 70
     0
  3
Hidden __ __ __ __ __ __ __ __ __ __ __ __ __ __
 72
    65
 73
     2
 40
1.905
 49
1.27
 74
     0
 49
-0.635
 74
     0
  0
LTYPE
  5
6F
330
5
100
AcDbSymbolTableRecord
100
AcDbLinetypeTableRecord
  2
PHANTOM
 70
     0
  3
Phantom ______  __  __  ______  __  __  ______
 72
    65
 73
     6
 40
12.7
 49
6.35
 74
     0
 49
-1.27
 74
     0
 49
1.27
 74
     0
 49
-1.27
 74
     0
 49
1.27
 74
     0
 49
-1.27
 74
     0
  0
LTYPE
  5
70
330
5
100
AcDbSymbolTableRecord
100
AcDbLinetypeTableRecord
  2
CENTER
 70
     0
  3
Center ____ _ ____ _ ____ _ ____ _ ____ _ ____
 72
    65
 73
     4
 40
10.16
 49
6.35
 74
     0
 49
-1.27
 74
     0
 49
1.27
 74
     0
 49
-1.27
 74
     0
  0
LTYPE
  5
71
330
5
100
AcDbSymbolTableRecord
100
AcDbLinetypeTableRecord
  2
CENTERX2
 70
     0
  3
Center (2x) ________  __  ________  __  _____
 72
    65
 73
     4
 40
20.32
 49
12.7
 74
     0
 49
-2.54
 74
     0
 49
2.54
 74
     0
 49
-2.54
 74
     0
  0
LTYPE
  5
72
330
5
100
AcDbSymbolTableRecord
100
AcDbLinetypeTableRecord
  2
DOT2
 70
     0
  3
Dot (.5x) ........................................
 72
    65
 73
     2
 40
0.635
 49
0.0
 74
     0
 49
-0.635
 74
     0
  0
ENDTAB
  0
TABLE
  2
LAYER
  5
2
330
0
100
AcDbSymbolTable
 70
     2
  0
LAYER
  5
10
330
2
100
AcDbSymbolTableRecord
100
AcDbLayerTableRecord
  2
0
 70
     0
 62
     7
  6
Continuous
370
    -3
390
F
  0
LAYER
  5
73
330
2
100
AcDbSymbolTableRecord
100
AcDbLayerTableRecord
  2
FORMAT
 70
     0
 62
     7
  6
Continuous
370
    -3
390
F
  0
ENDTAB
  0
TABLE
  2
STYLE
  5
3
330
0
100
AcDbSymbolTable
 70
     2
  0
STYLE
  5
11
330
3
100
AcDbSymbolTableRecord
100
AcDbTextStyleTableRecord
  2
Standard
 70
     0
 40
0.0
 41
1.0
 50
0.0
 71
     0
 42
3.5
  3
txt
  4

  0
STYLE
  5
74
330
3
100
AcDbSymbolTableRecord
100
AcDbTextStyleTableRecord
  2
SLDTEXTSTYLE0
 70
     0
 40
0.0
 41
0.605
 50
0.0
 71
     0
 42
3.5
  3
TXT
  4

  0
ENDTAB
  0
TABLE
  2
VIEW
  5
6
330
0
100
AcDbSymbolTable
 70
     0
  0
ENDTAB
  0
TABLE
  2
UCS
  5
7
330
0
100
AcDbSymbolTable
 70
     0
  0
ENDTAB
  0
TABLE
  2
APPID
  5
9
330
0
100
AcDbSymbolTable
 70
     1
  0
APPID
  5
12
330
9
100
AcDbSymbolTableRecord
100
AcDbRegAppTableRecord
  2
ACAD
 70
     0
  0
ENDTAB
  0
TABLE
  2
DIMSTYLE
  5
A
330
0
100
AcDbSymbolTable
 70
     1
100
AcDbDimStyleTable
  0
DIMSTYLE
105
27
330
A
100
AcDbSymbolTableRecord
100
AcDbDimStyleTableRecord
  2
ISO-25
 70
     0
 41
2.5
 42
0.625
 43
3.75
 44
1.25
 73
     0
 74
     0
 77
     1
 78
     8
140
2.5
141
2.5
143
0.0393700787
147
0.625
171
     3
172
     1
178
     0
271
     2
272
     2
274
     3
278
    44
283
     0
284
     8
340
11
  0
ENDTAB
  0
TABLE
  2
BLOCK_RECORD
  5
1
330
0
100
AcDbSymbolTable
 70
     1
  0
BLOCK_RECORD
  5
1F
330
1
100
AcDbSymbolTableRecord
100
AcDbBlockTableRecord
  2
*Model_Space
340
22
  0
BLOCK_RECORD
  5
1B
330
1
100
AcDbSymbolTableRecord
100
AcDbBlockTableRecord
  2
*Paper_Space
340
1E
  0
BLOCK_RECORD
  5
23
330
1
100
AcDbSymbolTableRecord
100
AcDbBlockTableRecord
  2
*Paper_Space0
340
26
  0
ENDTAB
  0
ENDSEC
  0
SECTION
  2
BLOCKS
  0
BLOCK
  5
20
330
1F
100
AcDbEntity
  8
0
100
AcDbBlockBegin
  2
*Model_Space
 70
     0
 10
0.0
 20
0.0
 30
0.0
  3
*Model_Space
  1

  0
ENDBLK
  5
21
330
1F
100
AcDbEntity
  8
0
100
AcDbBlockEnd
  0
BLOCK
  5
1C
330
1B
100
AcDbEntity
 67
     1
  8
0
100
AcDbBlockBegin
  2
*Paper_Space
 70
     0
 10
0.0
 20
0.0
 30
0.0
  3
*Paper_Space
  1

  0
ENDBLK
  5
1D
330
1B
100
AcDbEntity
 67
     1
  8
0
100
AcDbBlockEnd
  0
BLOCK
  5
24
330
23
100
AcDbEntity
  8
0
100
AcDbBlockBegin
  2
*Paper_Space0
 70
     0
 10
0.0
 20
0.0
 30
0.0
  3
*Paper_Space0
  1

  0
ENDBLK
  5
25
330
23
100
AcDbEntity
  8
0
100
AcDbBlockEnd
  0
ENDSEC
  0
SECTION
  2
ENTITIES
  0
MTEXT
  5
75
330
1F
100
AcDbEntity
  8
0
  6
Continuous
 62
     7
370
     0
100
AcDbMText
 10
7.2782978723
 20
22.1884790273
 30
0.0
 40
10.0
 41
0.0
 71
     1
 72
     1
  1
1:1
  7
SLDTEXTSTYLE0
 73
     1
 44
1.0
  0
SPLINE
  5
76
330
1F
100
AcDbEntity
  8
0
  6
Continuous
 62
     7
370
    30
100
AcDbSpline
210
0.0
220
0.0
230
1.0
 70
     8
 71
     3
 72
    35
 73
    31
 74
     0
 42
0.000000001
 43
0.00000001
 40
0.0
 40
0.0
 40
0.0
 40
0.0
 40
0.0555891100072116
 40
0.1033049211304965
 40
0.1432438271860815
 40
0.1682027182963272
 40
0.1890262375805223
 40
0.2059626792684805
 40
0.2194865528431008
 40
0.230534675234385
 40
0.2424817715020886
 40
0.2585240096109796
 40
0.274290133744065
 40
0.2928379878835848
 40
0.330990426907687
 40
0.3692850619911784
 40
0.402052782030861
 40
0.4344594169490849
 40
0.4665051362269053
 40
0.4998806133585078
 40
0.5394897873022539
 40
0.5856426074628529
 40
0.624556254901168
 40
0.6671503280045096
 40
0.7134241765270322
 40
0.7633776154884296
 40
0.8170113104761096
 40
0.8743267246539649
 40
0.9353245946604185
 40
1.0
 40
1.0
 40
1.0
 40
1.0
 10
643.4511034063424
 20
543.1377058453689
 30
0.0
 10
643.4444419018783
 20
543.1373429902595
 30
0.0
 10
643.4320623873801
 20
543.1366686726016
 30
0.0
 10
643.4115602705584
 20
543.1349789019448
 30
0.0
 10
643.3923086328107
 20
543.1329614988978
 30
0.0
 10
643.3742946911526
 20
543.1306845047629
 30
0.0
 10
643.3582718223659
 20
543.1283847019295
 30
0.0
 10
643.3418368150386
 20
543.1257457575003
 30
0.0
 10
643.3248506475853
 20
543.1227394448391
 30
0.0
 10
643.3053100525066
 20
543.1189394951489
 30
0.0
 10
643.2822285571692
 20
543.1140086911038
 30
0.0
 10
643.2571363075837
 20
543.1079690462229
 30
0.0
 10
643.2282450883679
 20
543.1001553056038
 30
0.0
 10
643.187114254117
 20
543.0876616367899
 30
0.0
 10
643.134024122276
 20
543.0685592688267
 30
0.0
 10
643.0746407494346
 20
543.0424949008002
 30
0.0
 10
643.0200649710132
 20
543.014295913932
 30
0.0
 10
642.9704088376977
 20
542.9848689964198
 30
0.0
 10
642.9222227166548
 20
542.9524412627151
 30
0.0
 10
642.8725995042587
 20
542.9146727050704
 30
0.0
 10
642.819195629436
 20
542.8682579575474
 30
0.0
 10
642.7671535302102
 20
542.8155468958016
 30
0.0
 10
642.7181173288011
 20
542.7577236523512
 30
0.0
 10
642.6733462456278
 20
542.6964278722038
 30
0.0
 10
642.6301100526667
 20
542.6261886877139
 30
0.0
 10
642.5901006541627
 20
542.5466301795797
 30
0.0
 10
642.5551416476202
 20
542.4575927237612
 30
0.0
 10
642.5275686701689
 20
542.3592002719231
 30
0.0
 10
642.5085374877546
 20
542.2519375435644
 30
0.0
 10
642.5060710937181
 20
542.1773065484385
 30
0.0
 10
642.5048018100649
 20
542.1388990998593
 30
0.0
  0
LINE
  5
77
330
1F
100
AcDbEntity
  8
0
  6
Continuous
 62
     7
370
    30
100
AcDbLine
 10
674.5
 20
529.4388990999
 30
0.0
 11
674.5
 21
542.1401530948
 31
0.0
  0
LINE
  5
78
330
1F
100
AcDbEntity
  8
0
  6
Continuous
 62
     7
370
    30
100
AcDbLine
 10
642.5
 20
542.1388990999
 30
0.0
 11
642.5
 21
529.4388990999
 31
0.0
  0
SPLINE
  5
79
330
1F
100
AcDbEntity
  8
0
  6
Continuous
 62
     7
370
    30
100
AcDbSpline
210
0.0
220
0.0
230
1.0
 70
     8
 71
     3
 72
    10
 73
     6
 74
     0
 42
0.000000001
 43
0.00000001
 40
0.0
 40
0.0
 40
0.0
 40
0.0
 40
0.0835885760786393
 40
0.5100048954692473
 40
0.9999999999999999
 40
0.9999999999999999
 40
0.9999999999999999
 40
0.9999999999999999
 10
673.621351928158
 20
543.13127732965
 30
0.0
 10
673.6189292596345
 20
543.1316127267006
 30
0.0
 10
673.6041476606995
 20
543.1336591084653
 30
0.0
 10
673.5801305512188
 20
543.1358087903942
 30
0.0
 10
673.5597785726559
 20
543.1370449072747
 30
0.0
 10
673.5488965936637
 20
543.1377058453689
 30
0.0
  0
SPLINE
  5
7A
330
1F
100
AcDbEntity
  8
0
  6
Continuous
 62
     7
370
    30
100
AcDbSpline
210
0.0
220
0.0
230
1.0
 70
     8
 71
     3
 72
    21
 73
    17
 74
     0
 42
0.000000001
 43
0.00000001
 40
0.0
 40
0.0
 40
0.0
 40
0.0
 40
0.0828972198819033
 40
0.1577709244475808
 40
0.2250109682969684
 40
0.2847272501127183
 40
0.3526123251109331
 40
0.4070108525567214
 40
0.4523965887830212
 40
0.5092513088400519
 40
0.5799877078284884
 40
0.6644360748202753
 40
0.7366655552573005
 40
0.8164622800825246
 40
0.9040110168693716
 40
1.0
 40
1.0
 40
1.0
 40
1.0
 10
675.691244767829
 20
524.4388992055437
 30
0.0
 10
675.7042431772255
 20
524.4394599153178
 30
0.0
 10
675.728981896688
 20
524.4405270644878
 30
0.0
 10
675.7635583570681
 20
524.4481310470213
 30
0.0
 10
675.7935964057152
 20
524.458142175864
 30
0.0
 10
675.8214843591481
 20
524.4706739036944
 30
0.0
 10
675.8463150971822
 20
524.4847941510056
 30
0.0
 10
675.8679344746636
 20
524.4997680802483
 30
0.0
 10
675.887081616781
 20
524.5151498435921
 30
0.0
 10
675.9069518640525
 20
524.5336279612195
 30
0.0
 10
675.9291837101968
 20
524.5583961289906
 30
0.0
 10
675.949941254404
 20
524.5874763924941
 30
0.0
 10
675.96787807708
 20
524.6199974361454
 30
0.0
 10
675.9819364795023
 20
524.6548845886206
 30
0.0
 10
675.9924911931123
 20
524.69503863358
 30
0.0
 10
675.9939415595172
 20
524.7238374921063
 30
0.0
 10
675.9947000913135
 20
524.7388990998592
 30
0.0
  0
LINE
  5
7B
330
1F
100
AcDbEntity
  8
0
  6
Continuous
 62
     7
370
    30
100
AcDbLine
 10
641.0
 20
526.9388990999
 30
0.0
 11
641.0
 21
524.7388990999
 31
0.0
  0
LINE
  5
7C
330
1F
100
AcDbEntity
  8
0
  6
Continuous
 62
     7
370
    30
100
AcDbLine
 10
676.0
 20
524.7388990999
 30
0.0
 11
676.0
 21
526.9388990999
 31
0.0
  0
ARC
  5
7D
330
1F
100
AcDbEntity
  8
0
  6
Continuous
 62
     7
370
    30
100
AcDbCircle
 10
658.5
 20
536.9388990999
 30
0.0
 40
12.40000000001767
100
AcDbArc
 50
30.0063282302
 51
46.0883449992
  0
LINE
  5
7E
330
1F
100
AcDbEntity
  8
0
  6
Continuous
 62
     7
370
    30
100
AcDbLine
 10
669.9
 20
550.6842463574
 30
0.0
 11
669.9
 21
561.7946117769
 31
0.0
  0
LINE
  5
7F
330
1F
100
AcDbEntity
  8
0
  6
Continuous
 62
     7
370
    30
100
AcDbLine
 10
647.1
 20
561.7946117769
 30
0.0
 11
647.1
 21
550.6842475712
 31
0.0
  0
LINE
  5
80
330
1F
100
AcDbEntity
  8
0
  6
Continuous
 62
     7
370
    30
100
AcDbLine
 10
647.1
 20
550.6842475712
 30
0.0
 11
649.9
 21
548.7236652504
 31
0.0
  0
LINE
  5
81
330
1F
100
AcDbEntity
  8
0
  6
Continuous
 62
     7
370
    30
100
AcDbLine
 10
667.1
 20
548.7236652504
 30
0.0
 11
669.8999999935
 21
550.6842463574
 31
0.0
  0
LINE
  5
82
330
1F
100
AcDbEntity
  8
0
  6
Continuous
 62
     7
370
    30
100
AcDbLine
 10
667.1
 20
545.8719836736
 30
0.0
 11
667.1
 21
548.7236652504
 31
0.0
  0
LINE
  5
83
330
1F
100
AcDbEntity
  8
0
  6
Continuous
 62
     7
370
    30
100
AcDbLine
 10
649.9
 20
548.7236652504
 30
0.0
 11
649.9
 21
545.8719836736
 31
0.0
  0
LINE
  5
84
330
1F
100
AcDbEntity
  8
0
  6
Continuous
 62
     7
370
    30
100
AcDbLine
 10
647.0
 20
605.6842463574
 30
0.0
 11
647.0
 21
570.6842463574
 31
0.0
  0
LINE
  5
85
330
1F
100
AcDbEntity
  8
0
  6
Continuous
 62
     7
370
    30
100
AcDbLine
 10
670.0
 20
570.6842463574
 30
0.0
 11
670.0
 21
605.6842463574
 31
0.0
  0
LINE
  5
86
330
1F
100
AcDbEntity
  8
0
  6
Continuous
 62
     7
370
    30
100
AcDbLine
 10
670.0
 20
561.7946117769
 30
0.0
 11
670.0
 21
570.6842463574
 31
0.0
  0
LINE
  5
87
330
1F
100
AcDbEntity
  8
0
  6
Continuous
 62
     7
370
    30
100
AcDbLine
 10
647.0
 20
570.6842463574
 30
0.0
 11
647.0
 21
561.7946117769
 31
0.0
  0
LINE
  5
88
330
1F
100
AcDbEntity
  8
0
  6
Continuous
 62
     7
370
    30
100
AcDbLine
 10
558.8
 20
524.4388989944
 30
0.0
 11
560.800000125
 21
524.4388989932
 31
0.0
  0
LINE
  5
89
330
1F
100
AcDbEntity
  8
0
  6
Continuous
 62
     7
370
    30
100
AcDbLine
 10
558.8
 20
516.2388990999
 30
0.0
 11
558.8
 21
524.4388989749
 31
0.0
  0
LINE
  5
8A
330
1F
100
AcDbEntity
  8
0
  6
Continuous
 62
     7
370
    30
100
AcDbLine
 10
756.2
 20
524.4388989932
 30
0.0
 11
560.800000125
 21
524.4388989932
 31
0.0
  0
LINE
  5
8B
330
1F
100
AcDbEntity
  8
0
  6
Continuous
 62
     7
370
    30
100
AcDbLine
 10
758.2
 20
524.4388989749
 30
0.0
 11
758.2
 21
516.2388990999
 31
0.0
  0
LINE
  5
8C
330
1F
100
AcDbEntity
  8
0
  6
Continuous
 62
     7
370
    30
100
AcDbLine
 10
756.2
 20
524.4388989932
 30
0.0
 11
758.2
 21
524.4388989944
 31
0.0
  0
ARC
  5
8D
330
1F
100
AcDbEntity
  8
0
  6
Continuous
 62
     7
370
    30
100
AcDbCircle
 10
756.2
 20
516.2388990999
 30
0.0
 40
2.000000000000004
100
AcDbArc
 50
269.9999999986
 51
0.0000035695
  0
ARC
  5
8E
330
1F
100
AcDbEntity
  8
0
  6
Continuous
 62
     7
370
    30
100
AcDbCircle
 10
560.8
 20
516.2388990999
 30
0.0
 40
2.0
100
AcDbArc
 50
179.9999999986
 51
270.0000000014
  0
LINE
  5
8F
330
1F
100
AcDbEntity
  8
0
  6
Continuous
 62
     7
370
    30
100
AcDbLine
 10
560.8000000001
 20
514.2388990999
 30
0.0
 11
756.2
 21
514.2388990999
 31
0.0
  0
SPLINE
  5
90
330
1F
100
AcDbEntity
  8
0
  6
Continuous
 62
     7
370
    30
100
AcDbSpline
210
0.0
220
0.0
230
1.0
 70
    24
 71
     3
 72
   101
 73
    97
 74
     0
 42
0.000000001
 43
0.00000001
 40
0.0
 40
0.0
 40
0.0
 40
0.0
 40
0.0103407441035857
 40
0.0206605286042971
 40
0.0309695386287971
 40
0.0412779912405203
 40
0.0515961051587654
 40
0.0619340704532725
 40
0.0722790301692283
 40
0.0836328123490475
 40
0.0949727207009297
 40
0.1063123414554236
 40
0.117665261875597
 40
0.1290450215858088
 40
0.1393853370759635
 40
0.1497049376794382
 40
0.1600139987398244
 40
0.1703227268102793
 40
0.1806413294320812
 40
0.19097998489858
 40
0.2013266510536335
 40
0.212681853159468
 40
0.2240222562393611
 40
0.2353614598867901
 40
0.2467130680061125
 40
0.2580906400065363
 40
0.2684290007365334
 40
0.2787472750700385
 40
0.2890556548853058
 40
0.2993643614077816
 40
0.3096836148921032
 40
0.3200236043184636
 40
0.3303695789660994
 40
0.341723874672815
 40
0.3530642554901518
 40
0.364404302770144
 40
0.3757575990618042
 40
0.3871376794746807
 40
0.397478306058456
 40
0.4077981238353732
 40
0.418107306129987
 40
0.4284160577541899
 40
0.4387345847976454
 40
0.4490730643993404
 40
0.4594195231090067
 40
0.4707744747253531
 40
0.482114586774159
 40
0.4934534586784207
 40
0.5048046943184261
 40
0.5161818532239035
 40
0.526519861808668
 40
0.5368377938078828
 40
0.5471458412851024
 40
0.5574542256228757
 40
0.5677731672027243
 40
0.5781128550999409
 40
0.5884586087731243
 40
0.5998127119547508
 40
0.6111529282777014
 40
0.6224928392280181
 40
0.6338460273876678
 40
0.6452260277977395
 40
0.6555667258703964
 40
0.6658866384058435
 40
0.6761959387904684
 40
0.6865048318286816
 40
0.6968235235334468
 40
0.7071621908989424
 40
0.7175089231910134
 40
0.7288642126203657
 40
0.7402046750662613
 40
0.7515439097973439
 40
0.7628955204946782
 40
0.7742730664470598
 40
0.784611452023349
 40
0.7949297275465012
 40
0.8052380849747516
 40
0.8155467456838142
 40
0.8258659301481882
 40
0.8362058276357931
 40
0.8465517888129063
 40
0.8579060246394705
 40
0.8692462530555767
 40
0.8805860573422878
 40
0.8919390223030228
 40
0.9033186856084876
 40
0.9136590948652958
 40
0.9239786725204286
 40
0.9342875953338072
 40
0.9445960716214968
 40
0.9549143110248722
 40
0.9652524942601753
 40
0.9755998011348902
 40
0.9869557976898369
 40
0.9982965909471503
 40
1.0
 40
1.0
 40
1.0
 40
1.0
 10
673.499934617903
 20
543.1388990998593
 30
0.0
 10
673.4980629131674
 20
543.1388990998593
 30
0.0
 10
673.494323297445
 20
543.1388990998593
 30
0.0
 10
673.4700216107198
 20
543.1388990998593
 30
0.0
 10
673.4320260233933
 20
543.1388990998593
 30
0.0
 10
673.3790022779975
 20
543.1388990998593
 30
0.0
 10
673.3113091846218
 20
543.1388990998593
 30
0.0
 10
673.2289066496201
 20
543.1388990998593
 30
0.0
 10
673.128854801816
 20
543.1388990998593
 30
0.0
 10
673.0095576596804
 20
543.1388990998593
 30
0.0
 10
672.8693516466138
 20
543.1388990998591
 30
0.0
 10
672.7119809711778
 20
543.1388990998593
 30
0.0
 10
672.5374447178086
 20
543.1388990998593
 30
0.0
 10
672.3518091060446
 20
543.1388990998593
 30
0.0
 10
672.1572807544029
 20
543.1388990998593
 30
0.0
 10
671.9558053756163
 20
543.1388990998593
 30
0.0
 10
671.7412656227569
 20
543.1388990998593
 30
0.0
 10
671.5136601314796
 20
543.1388990998593
 30
0.0
 10
671.2729913314017
 20
543.1388990998593
 30
0.0
 10
671.019436412256
 20
543.1388990998593
 30
0.0
 10
670.7447432338051
 20
543.1388990998593
 30
0.0
 10
670.4479559728529
 20
543.1388990998593
 30
0.0
 10
670.1279864475439
 20
543.1388990998593
 30
0.0
 10
669.794149780768
 20
543.1388990998593
 30
0.0
 10
669.4464466686311
 20
543.1388990998591
 30
0.0
 10
669.096303031785
 20
543.1388990998593
 30
0.0
 10
668.7458615042128
 20
543.1388990998593
 30
0.0
 10
668.3970179135729
 20
543.1388990998593
 30
0.0
 10
668.0387409609071
 20
543.1388990998591
 30
0.0
 10
667.6710298872288
 20
543.1388990998593
 30
0.0
 10
667.2938871415919
 20
543.1388990998593
 30
0.0
 10
666.9076203517482
 20
543.1388990998593
 30
0.0
 10
666.4999578505648
 20
543.1388990998593
 30
0.0
 10
666.0707354672953
 20
543.1388990998593
 30
0.0
 10
665.6195651927898
 20
543.1388990998593
 30
0.0
 10
665.1599033726212
 20
543.1388990998591
 30
0.0
 10
664.6917521970145
 20
543.1388990998593
 30
0.0
 10
664.2301816951089
 20
543.1388990998593
 30
0.0
 10
663.7769747930774
 20
543.1388990998593
 30
0.0
 10
663.3337154533639
 20
543.1388990998593
 30
0.0
 10
662.886143975917
 20
543.1388990998593
 30
0.0
 10
662.434260338952
 20
543.1388990998593
 30
0.0
 10
661.9780665687432
 20
543.1388990998593
 30
0.0
 10
661.5178905165876
 20
543.1388990998593
 30
0.0
 10
661.0392801567012
 20
543.1388990998593
 30
0.0
 10
660.5428808509844
 20
543.1388990998593
 30
0.0
 10
660.0291304937638
 20
543.1388990998593
 30
0.0
 10
659.5136063450271
 20
543.1388990998593
 30
0.0
 10
658.9963118286361
 20
543.1388990998593
 30
0.0
 10
658.4936426337283
 20
543.1388990998593
 30
0.0
 10
658.0067118335638
 20
543.1388990998593
 30
0.0
 10
657.5365133697654
 20
543.1388990998593
 30
0.0
 10
657.0677145348141
 20
543.1388990998593
 30
0.0
 10
656.6003160533826
 20
543.1388990998593
 30
0.0
 10
656.1343192558298
 20
543.1388990998593
 30
0.0
 10
655.6700977338472
 20
543.1388990998593
 30
0.0
 10
655.19324304968
 20
543.1388990998593
 30
0.0
 10
654.7051117523822
 20
543.1388990998593
 30
0.0
 10
654.2068216743924
 20
543.1388990998593
 30
0.0
 10
653.7136737679132
 20
543.1388990998593
 30
0.0
 10
653.2256721235268
 20
543.1388990998593
 30
0.0
 10
652.7580768581992
 20
543.1388990998593
 30
0.0
 10
652.3112052065275
 20
543.1388990998593
 30
0.0
 10
651.8853537015032
 20
543.1388990998593
 30
0.0
 10
651.4664597999605
 20
543.1388990998593
 30
0.0
 10
651.0545248500651
 20
543.1388990998593
 30
0.0
 10
650.6495492890674
 20
543.1388990998593
 30
0.0
 10
650.2518196818081
 20
543.1388990998593
 30
0.0
 10
649.8491348200707
 20
543.1388990998593
 30
0.0
 10
649.4433646762084
 20
543.1388990998593
 30
0.0
 10
649.0362180317733
 20
543.1388990998593
 30
0.0
 10
648.6404264529274
 20
543.1388990998593
 30
0.0
 10
648.2559940807711
 20
543.1388990998593
 30
0.0
 10
647.8947006577721
 20
543.1388990998593
 30
0.0
 10
647.555979868057
 20
543.1388990998593
 30
0.0
 10
647.2393435954733
 20
543.1388990998593
 30
0.0
 10
646.9341229282453
 20
543.1388990998593
 30
0.0
 10
646.6403196448764
 20
543.1388990998593
 30
0.0
 10
646.3579331798309
 20
543.1388990998593
 30
0.0
 10
646.0871852462875
 20
543.1388990998593
 30
0.0
 10
645.8199563659556
 20
543.1388990998593
 30
0.0
 10
645.5583318376239
 20
543.1388990998593
 30
0.0
 10
645.3042821786685
 20
543.1388990998593
 30
0.0
 10
645.0660063558818
 20
543.1388990998593
 30
0.0
 10
644.8435079712114
 20
543.1388990998593
 30
0.0
 10
644.6433147356304
 20
543.1388990998593
 30
0.0
 10
644.4640923828337
 20
543.1388990998593
 30
0.0
 10
644.3046770624778
 20
543.1388990998593
 30
0.0
 10
644.1594225285451
 20
543.1388990998593
 30
0.0
 10
644.02834037765
 20
543.1388990998593
 30
0.0
 10
643.9113931428628
 20
543.1388990998593
 30
0.0
 10
643.8087906929936
 20
543.1388990998593
 30
0.0
 10
643.7172055850551
 20
543.1388990998593
 30
0.0
 10
643.6406892906751
 20
543.1388990998593
 30
0.0
 10
643.5923397923385
 20
543.1388990998593
 30
0.0
 10
643.5756544537091
 20
543.1388990998593
 30
0.0
 10
643.5734755579671
 20
543.1388990998593
 30
0.0
  0
SPLINE
  5
91
330
1F
100
AcDbEntity
  8
0
  6
Continuous
 62
     7
370
    30
100
AcDbSpline
210
0.0
220
0.0
230
1.0
 70
    24
 71
     3
 72
    10
 73
     6
 74
     0
 42
0.000000001
 43
0.00000001
 40
0.0
 40
0.0
 40
0.0
 40
0.0
 40
0.2680463712220011
 40
0.6336112905691679
 40
1.0
 40
1.0
 40
1.0
 40
1.0
 10
643.5683180123718
 20
543.1388990998593
 30
0.0
 10
643.5566694253336
 20
543.1388990998593
 30
0.0
 10
643.5291343528272
 20
543.1388990998593
 30
0.0
 10
643.5054571160524
 20
543.1388990998593
 30
0.0
 10
643.5018203862268
 20
543.1388990998593
 30
0.0
 10
643.4999999748031
 20
543.1388990998593
 30
0.0
  0
LINE
  5
92
330
1F
100
AcDbEntity
  8
0
  6
Continuous
 62
     7
370
    30
100
AcDbLine
 10
643.4999999748
 20
543.1388990999
 30
0.0
 11
643.3800811173
 21
543.1313673352
 31
0.0
  0
SPLINE
  5
93
330
1F
100
AcDbEntity
  8
0
  6
Continuous
 62
     7
370
    30
100
AcDbSpline
210
0.0
220
0.0
230
1.0
 70
     8
 71
     3
 72
    18
 73
    14
 74
     0
 42
0.000000001
 43
0.00000001
 40
0.0
 40
0.0
 40
0.0
 40
0.0
 40
0.0420510106950129
 40
0.1428775843498687
 40
0.2437047946986436
 40
0.344534279438171
 40
0.4453644161054077
 40
0.5378002325985308
 40
0.6302342859964921
 40
0.7226689410110813
 40
0.8151082835074707
 40
0.9075543650843928
 40
1.0
 40
1.0
 40
1.0
 40
1.0
 10
643.1816631854233
 20
543.084882922831
 30
0.0
 10
643.1649634530179
 20
543.0797523101135
 30
0.0
 10
643.1082224285825
 20
543.0623199217076
 30
0.0
 10
643.017155186373
 20
543.0169556363965
 30
0.0
 10
642.9106252172712
 20
542.9501855275986
 30
0.0
 10
642.8136844318844
 20
542.8697260233951
 30
0.0
 10
642.7298634776827
 20
542.7805389213627
 30
0.0
 10
642.6594772681722
 20
542.6847396493317
 30
0.0
 10
642.6023032261179
 20
542.5845327376254
 30
0.0
 10
642.5569663800536
 20
542.4784091558249
 30
0.0
 10
642.5243964033926
 20
542.3677750599416
 30
0.0
 10
642.5038246880456
 20
542.2541000632779
 30
0.0
 10
642.501274893964
 20
542.1772993591537
 30
0.0
 10
642.5000000000031
 20
542.1388990998593
 30
0.0
  0
SPLINE
  5
94
330
1F
100
AcDbEntity
  8
0
  6
Continuous
 62
     7
370
    30
100
AcDbSpline
210
0.0
220
0.0
230
1.0
 70
    24
 71
     3
 72
    20
 73
    16
 74
     0
 42
0.000000001
 43
0.00000001
 40
0.0
 40
0.0
 40
0.0
 40
0.0
 40
0.0352834509417638
 40
0.0571696564049182
 40
0.0796775008996406
 40
0.1171973000850802
 40
0.1556371294864209
 40
0.207291584509903
 40
0.2594914862695153
 40
0.3660994581332931
 40
0.4440434940660858
 40
0.5222148938255509
 40
0.6796263754964814
 40
0.8395777787824572
 40
1.0
 40
1.0
 40
1.0
 40
1.0
 10
675.0000000000032
 20
529.1388990998593
 30
0.0
 10
675.0000000000031
 20
529.1515915682352
 30
0.0
 10
675.000000000003
 20
529.1721571318809
 30
0.0
 10
675.0000000000008
 20
529.1977928898201
 30
0.0
 10
675.0000000000042
 20
529.2217361020188
 30
0.0
 10
675.0000000000027
 20
529.2467466285723
 30
0.0
 10
675.0000000000033
 20
529.2741771438946
 30
0.0
 10
675.0000000000033
 20
529.299744759036
 30
0.0
 10
675.0000000000022
 20
529.3312481716362
 30
0.0
 10
675.0000000000102
 20
529.3585192338521
 30
0.0
 10
674.9999999999847
 20
529.3818541793931
 30
0.0
 10
675.0000000000138
 20
529.4041059576338
 30
0.0
 10
674.9999999999995
 20
529.4233490098895
 30
0.0
 10
675.0000000000033
 20
529.4365969121351
 30
0.0
 10
675.0000000000032
 20
529.438130952481
 30
0.0
 10
675.0000000000032
 20
529.4388990998592
 30
0.0
  0
SPLINE
  5
95
330
1F
100
AcDbEntity
  8
0
  6
Continuous
 62
     7
370
    30
100
AcDbSpline
210
0.0
220
0.0
230
1.0
 70
    24
 71
     3
 72
    19
 73
    15
 74
     0
 42
0.000000001
 43
0.00000001
 40
0.0
 40
0.0
 40
0.0
 40
0.0
 40
0.1370033719259811
 40
0.2742623752599592
 40
0.4125703264033497
 40
0.5514299362566766
 40
0.6514060243602022
 40
0.7521537629650004
 40
0.8317964743822919
 40
0.8715846330721616
 40
0.9120612439906992
 40
0.9531316270887
 40
0.9878590872487234
 40
1.0
 40
1.0
 40
1.0
 40
1.0
 10
642.0000000000031
 20
529.4388990998592
 30
0.0
 10
642.0000000000034
 20
529.438337087017
 30
0.0
 10
642.0000000000041
 20
529.4372120126857
 30
0.0
 10
641.9999999999989
 20
529.4275491612365
 30
0.0
 10
642.0000000000189
 20
529.4107579856982
 30
0.0
 10
642.0000000000027
 20
529.3868434978933
 30
0.0
 10
642.0000000000032
 20
529.3562704815932
 30
0.0
 10
642.0000000000031
 20
529.3224835364762
 30
0.0
 10
642.0000000000031
 20
529.2868475057076
 30
0.0
 10
642.0000000000031
 20
529.2541253646788
 30
0.0
 10
642.0000000000031
 20
529.2246806920868
 30
0.0
 10
642.0000000000031
 20
529.1905741156497
 30
0.0
 10
642.0000000000031
 20
529.1600434163446
 30
0.0
 10
642.0000000000031
 20
529.1432494541933
 30
0.0
 10
642.0000000000031
 20
529.1388990998593
 30
0.0
  0
SPLINE
  5
96
330
1F
100
AcDbEntity
  8
0
  6
Continuous
 62
     7
370
    30
100
AcDbSpline
210
0.0
220
0.0
230
1.0
 70
    24
 71
     3
 72
    55
 73
    51
 74
     0
 42
0.000000001
 43
0.00000001
 40
0.0
 40
0.0
 40
0.0
 40
0.0
 40
0.0209403572377497
 40
0.0417582939014301
 40
0.0625135953333176
 40
0.0832665882025652
 40
0.1040776192544064
 40
0.1250065331955889
 40
0.1459309409009642
 40
0.166738796279808
 40
0.1874899999884505
 40
0.2082449431946535
 40
0.2290639845239844
 40
0.2500069284072261
 40
0.2709354431396662
 40
0.2917456002468569
 40
0.3124971551200528
 40
0.3332503693625218
 40
0.3540654901654792
 40
0.375002230303307
 40
0.395935212530139
 40
0.4167480139176555
 40
0.4375005219169736
 40
0.4582531459656468
 40
0.4790662944907402
 40
0.4999998519554398
 40
0.5209237552444144
 40
0.5417310777551271
 40
0.5624817541405673
 40
0.5832362098070434
 40
0.6040548372531596
 40
0.6249974738263959
 40
0.6459245561134673
 40
0.6667338487938588
 40
0.6874851146873142
 40
0.7082386179100955
 40
0.7290546031466755
 40
0.7499927757564196
 40
0.7709260644312009
 40
0.7917392792019814
 40
0.8124922745775279
 40
0.8332454261124195
 40
0.8540591080022917
 40
0.8749931707375868
 40
0.8959173600792928
 40
0.9167255144984069
 40
0.9374775371817973
 40
0.9582338173151473
 40
0.979054707039085
 40
1.0
 40
1.0
 40
1.0
 40
1.0
 10
642.0000000000031
 20
529.4388990998592
 30
0.0
 10
642.091591817686
 20
529.4388990998592
 30
0.0
 10
642.2742399930892
 20
529.4388990998592
 30
0.0
 10
642.6064516483008
 20
529.4388990998592
 30
0.0
 10
642.9800678025028
 20
529.4388990998592
 30
0.0
 10
643.3992751266143
 20
529.4388990998592
 30
0.0
 10
643.8629437799627
 20
529.4388990998592
 30
0.0
 10
644.3698815227115
 20
529.4388990998592
 30
0.0
 10
644.9165660399638
 20
529.4388990998592
 30
0.0
 10
645.5005949607537
 20
529.4388990998592
 30
0.0
 10
646.1204511171496
 20
529.4388990998592
 30
0.0
 10
646.7761233327712
 20
529.4388990998592
 30
0.0
 10
647.4675958322058
 20
529.4388990998592
 30
0.0
 10
648.1925565265296
 20
529.4388990998592
 30
0.0
 10
648.9464027816039
 20
529.4388990998592
 30
0.0
 10
649.7252891555778
 20
529.4388990998592
 30
0.0
 10
650.5272313542005
 20
529.4388990998592
 30
0.0
 10
651.3522123977685
 20
529.4388990998592
 30
0.0
 10
652.2002129308554
 20
529.4388990998592
 30
0.0
 10
653.0686487554528
 20
529.4388990998592
 30
0.0
 10
653.9523417938756
 20
529.4388990998592
 30
0.0
 10
654.8465065272718
 20
529.4388990998592
 30
0.0
 10
655.7486403684076
 20
529.4388990998592
 30
0.0
 10
656.6587232920145
 20
529.4388990998592
 30
0.0
 10
657.5767330398673
 20
529.4388990998592
 30
0.0
 10
658.499857400929
 20
529.4388990998592
 30
0.0
 10
659.4228983115806
 20
529.4388990998592
 30
0.0
 10
660.3406538590515
 20
529.4388990998592
 30
0.0
 10
661.2506514718913
 20
529.4388990998592
 30
0.0
 10
662.1528694180652
 20
529.4388990998592
 30
0.0
 10
663.0472855472931
 20
529.4388990998592
 30
0.0
 10
663.9310805853903
 20
529.4388990998592
 30
0.0
 10
664.7994600045782
 20
529.4388990998592
 30
0.0
 10
665.6472294381473
 20
529.4388990998592
 30
0.0
 10
666.4721326617315
 20
529.4388990998592
 30
0.0
 10
667.2741491904706
 20
529.4388990998592
 30
0.0
 10
668.0532585398487
 20
529.4388990998592
 30
0.0
 10
668.8072150332379
 20
529.4388990998592
 30
0.0
 10
669.5321522760576
 20
529.4388990998592
 30
0.0
 10
670.2234405050249
 20
529.4388990998592
 30
0.0
 10
670.8790504266681
 20
529.4388990998592
 30
0.0
 10
671.4989633310697
 20
529.4388990998592
 30
0.0
 10
672.0831645212953
 20
529.4388990998592
 30
0.0
 10
672.6299968102752
 20
529.4388990998592
 30
0.0
 10
673.137014365876
 20
529.4388990998592
 30
0.0
 10
673.6006417972986
 20
529.4388990998592
 30
0.0
 10
674.0198359216196
 20
529.4388990998592
 30
0.0
 10
674.3934625010064
 20
529.4388990998592
 30
0.0
 10
674.725708446902
 20
529.4388990998592
 30
0.0
 10
674.908388107965
 20
529.4388990998592
 30
0.0
 10
675.0000000000032
 20
529.4388990998592
 30
0.0
  0
LINE
  5
97
330
1F
100
AcDbEntity
  8
0
  6
Continuous
 62
     7
370
    30
100
AcDbLine
 10
676.0
 20
524.7388990999
 30
0.0
 11
675.9932753894
 21
524.7388990999
 31
0.0
  0
LINE
  5
98
330
1F
100
AcDbEntity
  8
0
  6
Continuous
 62
     7
370
    30
100
AcDbLine
 10
642.0000021761
 20
526.9388990999
 30
0.0
 11
641.0
 21
526.9388990999
 31
0.0
  0
LINE
  5
99
330
1F
100
AcDbEntity
  8
0
  6
Continuous
 62
     7
370
    30
100
AcDbLine
 10
642.0000033478
 20
529.1388990999
 30
0.0
 11
642.0000021761
 21
526.9388990999
 31
0.0
  0
LINE
  5
9A
330
1F
100
AcDbEntity
  8
0
  6
Continuous
 62
     7
370
    30
100
AcDbLine
 10
674.9999978239
 20
526.9388990999
 30
0.0
 11
674.9999966522
 21
529.1388990999
 31
0.0
  0
LINE
  5
9B
330
1F
100
AcDbEntity
  8
0
  6
Continuous
 62
     7
370
    30
100
AcDbLine
 10
676.0
 20
526.9388990999
 30
0.0
 11
674.9999978239
 21
526.9388990999
 31
0.0
  0
SPLINE
  5
9C
330
1F
100
AcDbEntity
  8
0
  6
Continuous
 62
     7
370
    30
100
AcDbSpline
210
0.0
220
0.0
230
1.0
 70
     8
 71
     3
 72
    15
 73
    11
 74
     0
 42
0.000000001
 43
0.00000001
 40
0.0
 40
0.0
 40
0.0
 40
0.0
 40
0.1251925577514402
 40
0.2500182116331657
 40
0.3752458984543638
 40
0.5007696413414257
 40
0.6260913661072951
 40
0.750796080753129
 40
0.8750323826516251
 40
1.0
 40
1.0
 40
1.0
 40
1.0
 10
641.3000003692032
 20
524.4389260394207
 30
0.0
 10
641.2805335226067
 20
524.4404467722255
 30
0.0
 10
641.2416568812184
 20
524.4434837809988
 30
0.0
 10
641.1861334872914
 20
524.4631596893524
 30
0.0
 10
641.1351071949599
 20
524.4919592537019
 30
0.0
 10
641.0899994910181
 20
524.529616173061
 30
0.0
 10
641.0521289640654
 20
524.5744478265758
 30
0.0
 10
641.0232893643941
 20
524.6252274781526
 30
0.0
 10
641.0038288578698
 20
524.6806490146228
 30
0.0
 10
641.00127878045
 20
524.719444454996
 30
0.0
 10
641.0000000000031
 20
524.7388990998592
 30
0.0
  0
LINE
  5
9D
330
1F
100
AcDbEntity
  8
0
  6
Continuous
 62
     7
370
    30
100
AcDbLine
 10
658.5
 20
545.8719836735
 30
0.0
 11
667.1
 21
545.8719836736
 31
0.0
  0
ARC
  5
9E
330
1F
100
AcDbEntity
  8
0
  6
Continuous
 62
     7
370
    30
100
AcDbCircle
 10
658.5
 20
536.9388990999
 30
0.0
 40
12.40000000002642
100
AcDbArc
 50
133.9116550008
 51
149.9965330782
  0
LINE
  5
9F
330
1F
100
AcDbEntity
  8
0
  6
Continuous
 62
     7
370
    30
100
AcDbLine
 10
649.9
 20
545.8719836736
 30
0.0
 11
658.5
 21
545.8719836735
 31
0.0
  0
LWPOLYLINE
  5
A0
330
1F
100
AcDbEntity
  8
0
  6
Continuous
 62
     7
370
    30
100
AcDbPolyline
 90
       53
 70
   128
 43
0.0
 10
647.1
 20
550.6842475712
 10
647.100602996
 20
550.6842478782
 10
647.105440571
 20
550.6842478665
 10
647.1151135895
 20
550.6842478547
 10
647.1296179466
 20
550.6842478428
 10
647.1489474871
 20
550.6842478308
 10
647.1730940082
 20
550.6842478187
 10
647.2020472631
 20
550.6842478065
 10
647.2357949649
 20
550.6842477942
 10
647.2743227925
 20
550.6842477817
 10
647.3176143959
 20
550.6842477692
 10
647.3656514038
 20
550.6842477566
 10
647.418413431
 20
550.684247744
 10
647.4758780871
 20
550.6842477312
 10
647.5380209861
 20
550.6842477184
 10
647.604815757
 20
550.6842477055
 10
647.6762340544
 20
550.6842476926
 10
647.7522455708
 20
550.6842476796
 10
647.8328180498
 20
550.6842476666
 10
647.9179172992
 20
550.6842476535
 10
648.007507206
 20
550.6842476404
 10
648.1015497514
 20
550.6842476273
 10
648.2000050271
 20
550.6842476141
 10
648.3028312523
 20
550.6842476009
 10
648.4099847911
 20
550.6842475877
 10
648.5214201715
 20
550.6842475745
 10
648.6370901042
 20
550.6842475613
 10
648.756945503
 20
550.6842475481
 10
648.8809355057
 20
550.684247535
 10
649.0090074953
 20
550.6842475218
 10
649.1411071225
 20
550.6842475086
 10
649.2771783292
 20
550.6842474955
 10
649.4171633715
 20
550.6842474824
 10
649.5610028447
 20
550.6842474694
 10
649.7086357086
 20
550.6842474564
 10
649.859999313
 20
550.6842474434
 10
650.0150294247
 20
550.6842474305
 10
650.1736602543
 20
550.6842474177
 10
650.3358244847
 20
550.6842474049
 10
650.5014532992
 20
550.6842473922
 10
650.6704764107
 20
550.6842473795
 10
650.842822092
 20
550.684247367
 10
651.0184172057
 20
550.6842473545
 10
651.1971872356
 20
550.6842473421
 10
651.3790563179
 20
550.6842473299
 10
651.563947274
 20
550.6842473177
 10
651.7517816428
 20
550.6842473056
 10
651.9424797141
 20
550.6842472937
 10
652.1359605624
 20
550.6842472818
 10
652.3321420815
 20
550.6842472701
 10
652.5309410188
 20
550.6842472585
 10
652.7322730112
 20
550.6842472471
 10
652.9360534667
 20
550.6842469981
  0
LWPOLYLINE
  5
A1
330
1F
100
AcDbEntity
  8
0
  6
Continuous
 62
     7
370
    30
100
AcDbPolyline
 90
       53
 70
   128
 43
0.0
 10
664.0639467957
 20
550.6842464808
 10
664.2677264368
 20
550.6842464808
 10
664.4690584597
 20
550.6842464807
 10
664.6678574261
 20
550.6842464806
 10
664.8640389728
 20
550.6842464804
 10
665.0575198473
 20
550.6842464801
 10
665.2482179433
 20
550.6842464798
 10
665.4360523352
 20
550.6842464795
 10
665.6209433127
 20
550.6842464791
 10
665.8028124148
 20
550.6842464787
 10
665.9815824625
 20
550.6842464782
 10
666.1571775924
 20
550.6842464776
 10
666.3295232879
 20
550.684246477
 10
666.4985464117
 20
550.6842464764
 10
666.6641752365
 20
550.6842464757
 10
666.8263394752
 20
550.6842464749
 10
666.9849703111
 20
550.6842464741
 10
667.1400004268
 20
550.6842464733
 10
667.2913640331
 20
550.6842464724
 10
667.4389968967
 20
550.6842464715
 10
667.5828363674
 20
550.6842464705
 10
667.7228214049
 20
550.6842464694
 10
667.8588926045
 20
550.6842464683
 10
667.9909922223
 20
550.6842464672
 10
668.1190642
 20
550.684246466
 10
668.2430541885
 20
550.6842464648
 10
668.3629095707
 20
550.6842464635
 10
668.4785794842
 20
550.6842464622
 10
668.590014843
 20
550.6842464608
 10
668.6971683577
 20
550.6842464594
 10
668.7999945563
 20
550.684246458
 10
668.8984498028
 20
550.6842464565
 10
668.9924923165
 20
550.6842464549
 10
669.0820821891
 20
550.6842464534
 10
669.1671814017
 20
550.6842464517
 10
669.2477538412
 20
550.6842464501
 10
669.3237653157
 20
550.6842464484
 10
669.3951835685
 20
550.6842464466
 10
669.4619782922
 20
550.6842464449
 10
669.5241211416
 20
550.6842464431
 10
669.5815857454
 20
550.6842464412
 10
669.6343477177
 20
550.6842464393
 10
669.6823846682
 20
550.6842464374
 10
669.7256762116
 20
550.6842464354
 10
669.7642039767
 20
550.6842464335
 10
669.7979516136
 20
550.6842464314
 10
669.826904801
 20
550.6842464294
 10
669.8510512522
 20
550.6842464273
 10
669.8703807202
 20
550.6842464252
 10
669.8848850024
 20
550.6842464231
 10
669.8945579437
 20
550.6842464209
 10
669.8993954392
 20
550.6842464187
 10
669.9
 20
550.6842463574
  0
LINE
  5
A2
330
1F
100
AcDbEntity
  8
0
  6
Continuous
 62
     7
370
    30
100
AcDbLine
 10
664.0639464412
 20
553.6842463574
 30
0.0
 11
664.0639467957
 21
550.6842464808
 31
0.0
  0
LINE
  5
A3
330
1F
100
AcDbEntity
  8
0
  6
Continuous
 62
     7
370
    30
100
AcDbLine
 10
652.9360535589
 20
553.6842463574
 30
0.0
 11
664.0639464412
 21
553.6842463574
 31
0.0
  0
LINE
  5
A4
330
1F
100
AcDbEntity
  8
0
  6
Continuous
 62
     7
370
    30
100
AcDbLine
 10
652.9360534667
 20
550.6842469981
 30
0.0
 11
652.9360535589
 21
553.6842463574
 31
0.0
  0
SPLINE
  5
A5
330
1F
100
AcDbEntity
  8
0
  6
Continuous
 62
     7
370
    30
100
AcDbSpline
210
0.0
220
0.0
230
1.0
 70
     8
 71
     3
 72
    34
 73
    30
 74
     0
 42
0.000000001
 43
0.00000001
 40
0.0
 40
0.0
 40
0.0
 40
0.0
 40
0.0423756485343419
 40
0.0847508410359665
 40
0.119592264689713
 40
0.1544367093030777
 40
0.1892772255223453
 40
0.2283037423153281
 40
0.2673362117827172
 40
0.306361174637216
 40
0.3418112975173087
 40
0.3772673595440245
 40
0.4127166665660541
 40
0.4563579942955394
 40
0.4999991298010707
 40
0.527357996783965
 40
0.5547168826468789
 40
0.591390184673267
 40
0.6280712049010971
 40
0.6647452815654925
 40
0.7017760635279969
 40
0.738813665718407
 40
0.7758456744376613
 40
0.8132061455531783
 40
0.8505719694930113
 40
0.8879336973137524
 40
0.9160683436714698
 40
0.9442030888577508
 40
1.0
 40
1.0
 40
1.0
 40
1.0
 10
664.0639471297114
 20
550.6842466640538
 30
0.0
 10
663.9117656247654
 20
550.6331723162664
 30
0.0
 10
663.6074042526005
 20
550.531024170337
 30
0.0
 10
663.1743121888252
 20
550.3979851449425
 30
0.0
 10
662.7662420402413
 20
550.2810128575009
 30
0.0
 10
662.3835222066547
 20
550.1794254056709
 30
0.0
 10
661.9834075397725
 20
550.0819104652676
 30
0.0
 10
661.5656449355303
 20
549.99021716278
 30
0.0
 10
661.130106638118
 20
549.906229962031
 30
0.0
 10
660.7058310398653
 20
549.8361738909899
 30
0.0
 10
660.2932523404312
 20
549.7794216219991
 30
0.0
 10
659.8927808649345
 20
549.7350558391892
 30
0.0
 10
659.4603292989863
 20
549.698977639735
 30
0.0
 10
658.9959617246525
 20
549.674741646991
 30
0.0
 10
658.5616758549455
 20
549.6671306908992
 30
0.0
 10
658.1890891745694
 20
549.6712185116257
 30
0.0
 10
657.8430604493276
 20
549.6825560212925
 30
0.0
 10
657.4621520268242
 20
549.7047706663604
 30
0.0
 10
657.0468818605586
 20
549.7409189821122
 30
0.0
 10
656.6314388222092
 20
549.7888027875861
 30
0.0
 10
656.2161316140979
 20
549.8482608879093
 30
0.0
 10
655.8012053636348
 20
549.9188823481553
 30
0.0
 10
655.3869775991219
 20
550.0002228426579
 30
0.0
 10
654.9736392203727
 20
550.091880490106
 30
0.0
 10
654.5613211061349
 20
550.1933583506649
 30
0.0
 10
654.1850506025197
 20
550.2946754102894
 30
0.0
 10
653.8443136089819
 20
550.3931515738633
 30
0.0
 10
653.4381081704054
 20
550.5165405441204
 30
0.0
 10
653.1365356906421
 20
550.6172775129921
 30
0.0
 10
652.9360533745248
 20
550.684246424923
 30
0.0
  0
LINE
  5
A6
330
1F
100
AcDbEntity
  8
0
  6
Continuous
 62
     7
370
    30
100
AcDbLine
 10
649.9
 20
548.7236652504
 30
0.0
 11
667.1
 21
548.7236652504
 31
0.0
  0
ARC
  5
A7
330
1F
100
AcDbEntity
  8
0
  6
Continuous
 62
     7
370
    30
100
AcDbCircle
 10
658.5
 20
605.6842463574
 30
0.0
 40
32.49999999999998
100
AcDbArc
 50
241.3521102435
 51
249.2772556184
  0
ARC
  5
A8
330
1F
100
AcDbEntity
  8
0
  6
Continuous
 62
     7
370
    30
100
AcDbCircle
 10
658.5
 20
605.6842463574
 30
0.0
 40
32.49999999999999
100
AcDbArc
 50
290.7227443816
 51
241.3521102435
  0
ARC
  5
A9
330
1F
100
AcDbEntity
  8
0
  6
Continuous
 62
     7
370
    30
100
AcDbCircle
 10
658.5
 20
605.6842463574
 30
0.0
 40
11.5
100
AcDbArc
 50
0.0
 51
180.0
  0
LINE
  5
AA
330
1F
100
AcDbEntity
  8
0
  6
Continuous
 62
     7
370
    30
100
AcDbLine
 10
658.5
 20
561.7946117769
 30
0.0
 11
670.0
 21
561.7946117769
 31
0.0
  0
LINE
  5
AB
330
1F
100
AcDbEntity
  8
0
  6
Continuous
 62
     7
370
    30
100
AcDbLine
 10
647.0
 20
561.7946117769
 30
0.0
 11
658.5
 21
561.7946117769
 31
0.0
  0
LINE
  5
AC
330
1F
100
AcDbEntity
  8
0
  6
Continuous
 62
     7
370
    30
100
AcDbLine
 10
1206.3999482569
 20
529.4388990999
 30
0.0
 11
1206.3999482569
 21
542.1401530948
 31
0.0
  0
LINE
  5
AD
330
1F
100
AcDbEntity
  8
0
  6
Continuous
 62
     7
370
    30
100
AcDbLine
 10
1174.3999482569
 20
542.1401530948
 30
0.0
 11
1174.3999482569
 21
529.4388990999
 31
0.0
  0
SPLINE
  5
AE
330
1F
100
AcDbEntity
  8
0
  6
Continuous
 62
     7
370
    30
100
AcDbSpline
210
0.0
220
0.0
230
1.0
 70
     8
 71
     3
 72
    28
 73
    24
 74
     0
 42
0.000000001
 43
0.00000001
 40
0.0
 40
0.0
 40
0.0
 40
0.0
 40
0.0708120076063778
 40
0.1367841234742067
 40
0.1979107882381394
 40
0.2541923340121809
 40
0.305629935098
 40
0.3522240935144495
 40
0.4017395627382923
 40
0.4442803667071417
 40
0.4829734417907938
 40
0.5224578826173369
 40
0.5627764644884643
 40
0.6318054226448178
 40
0.7029887871422936
 40
0.7697366414013198
 40
0.7959337394793174
 40
0.8206789983029958
 40
0.8439723830679913
 40
0.8699620438872553
 40
0.904582009042728
 40
0.9479222718475865
 40
1.0
 40
1.0
 40
1.0
 40
1.0
 10
1206.40010793482
 20
542.1388990998593
 30
0.0
 10
1206.398923410745
 20
542.1760153759537
 30
0.0
 10
1206.396635322993
 20
542.2477110877944
 30
0.0
 10
1206.379139809831
 20
542.3501998479259
 30
0.0
 10
1206.354269968103
 20
542.4431061639202
 30
0.0
 10
1206.323406748063
 20
542.5261377598154
 30
0.0
 10
1206.288924953199
 20
542.5993501137606
 30
0.0
 10
1206.250661239541
 20
542.6665892856944
 30
0.0
 10
1206.210034397091
 20
542.7268916426035
 30
0.0
 10
1206.167727091249
 20
542.7808242131716
 30
0.0
 10
1206.125577204823
 20
542.828022511925
 30
0.0
 10
1206.081436713917
 20
542.8717296674414
 30
0.0
 10
1206.022673596616
 20
542.9230445573526
 30
0.0
 10
1205.946203066261
 20
542.9790315028584
 30
0.0
 10
1205.852016693069
 20
543.0331786800666
 30
0.0
 10
1205.77311172623
 20
543.0677768219101
 30
0.0
 10
1205.71497599729
 20
543.0883471987722
 30
0.0
 10
1205.677812695959
 20
543.0998444127267
 30
0.0
 10
1205.640348810924
 20
543.1098975041963
 30
0.0
 10
1205.597474172489
 20
543.1196488768213
 30
0.0
 10
1205.544021145537
 20
543.129087787362
 30
0.0
 10
1205.476705305296
 20
543.1371362175246
 30
0.0
 10
1205.427135892257
 20
543.1382766620858
 30
0.0
 10
1205.400081639795
 20
543.1388990998593
 30
0.0
  0
SPLINE
  5
AF
330
1F
100
AcDbEntity
  8
0
  6
Continuous
 62
     7
370
    30
100
AcDbSpline
210
0.0
220
0.0
230
1.0
 70
     8
 71
     3
 72
    28
 73
    24
 74
     0
 42
0.000000001
 43
0.00000001
 40
0.0
 40
0.0
 40
0.0
 40
0.0
 40
0.0384045931276032
 40
0.0701048853928876
 40
0.0951299190612933
 40
0.1136945780123047
 40
0.130619621772265
 40
0.1657583017999423
 40
0.2034092186664603
 40
0.2629812663836597
 40
0.3216541026322901
 40
0.3793121721630529
 40
0.413570809932566
 40
0.4522324676804463
 40
0.4975197095090387
 40
0.5494310075499224
 40
0.6079642899980215
 40
0.6618059238181442
 40
0.72024573788095
 40
0.783284250008158
 40
0.8509231678524357
 40
0.923163667821784
 40
1.0
 40
1.0
 40
1.0
 40
1.0
 10
1175.399814873942
 20
543.1388990998593
 30
0.0
 10
1175.379992733555
 20
543.1385656527374
 30
0.0
 10
1175.343808809527
 20
543.1379569684539
 30
0.0
 10
1175.2946366637
 20
543.1336698972738
 30
0.0
 10
1175.255727242665
 20
543.1286867197089
 30
0.0
 10
1175.224419864921
 20
543.1235540167021
 30
0.0
 10
1175.18807992799
 20
543.1165554639227
 30
0.0
 10
1175.142295294849
 20
543.1057745391772
 30
0.0
 10
1175.075774133509
 20
543.0860303419995
 30
0.0
 10
1174.999350744347
 20
543.0568214167041
 30
0.0
 10
1174.916573275483
 20
543.0160014937298
 30
0.0
 10
1174.849189801928
 20
542.9747226491085
 30
0.0
 10
1174.793555007852
 20
542.9348483128367
 30
0.0
 10
1174.745329065621
 20
542.8959202343625
 30
0.0
 10
1174.692957954822
 20
542.8476141692081
 30
0.0
 10
1174.637308570462
 20
542.7878117973985
 30
0.0
 10
1174.584270638501
 20
542.71985098267
 30
0.0
 10
1174.535582472276
 20
542.644624536652
 30
0.0
 10
1174.492613337134
 20
542.5632879082605
 30
0.0
 10
1174.454784366746
 20
542.4715056717732
 30
0.0
 10
1174.424747636718
 20
542.3693566031532
 30
0.0
 10
1174.403895226333
 20
542.2573461611561
 30
0.0
 10
1174.401185309054
 20
542.1791846572524
 30
0.0
 10
1174.399788578916
 20
542.1388990998593
 30
0.0
  0
LINE
  5
B0
330
1F
100
AcDbEntity
  8
0
  6
Continuous
 62
     7
370
    30
100
AcDbLine
 10
1172.8999482569
 20
529.1388990999
 30
0.0
 11
1172.8999482569
 21
524.7388990999
 31
0.0
  0
LINE
  5
B1
330
1F
100
AcDbEntity
  8
0
  6
Continuous
 62
     7
370
    30
100
AcDbLine
 10
1207.8999482569
 20
524.7388990999
 30
0.0
 11
1207.8999482569
 21
529.1388990999
 31
0.0
  0
SPLINE
  5
B2
330
1F
100
AcDbEntity
  8
0
  6
Continuous
 62
     7
370
    30
100
AcDbSpline
210
0.0
220
0.0
230
1.0
 70
     8
 71
     3
 72
    21
 73
    17
 74
     0
 42
0.000000001
 43
0.00000001
 40
0.0
 40
0.0
 40
0.0
 40
0.0
 40
0.0830122380644865
 40
0.1577823654840119
 40
0.2248324205342586
 40
0.2843369408853698
 40
0.3519417566096042
 40
0.4060579830628971
 40
0.4513781564305876
 40
0.5083053093041368
 40
0.5791370190799637
 40
0.6637675617646883
 40
0.7362090525600872
 40
0.8162601547747727
 40
0.90402196339537
 40
1.0
 40
1.0
 40
1.0
 40
1.0
 10
1172.899775774099
 20
524.7388990998592
 30
0.0
 10
1172.900341105888
 20
524.7258828660927
 30
0.0
 10
1172.901415638862
 20
524.7011427530532
 30
0.0
 10
1172.909218565138
 20
524.6666315034283
 30
0.0
 10
1172.919485347767
 20
524.6367603650491
 30
0.0
 10
1172.932313230454
 20
524.6091187745067
 30
0.0
 10
1172.946731434756
 20
524.5845903284343
 30
0.0
 10
1172.961992221624
 20
524.5632793155995
 30
0.0
 10
1172.977669593377
 20
524.5444060193298
 30
0.0
 10
1172.996506018547
 20
524.5248252276496
 30
0.0
 10
1173.021701939346
 20
524.5029698562879
 30
0.0
 10
1173.05118090729
 20
524.4826310014407
 30
0.0
 10
1173.084038527327
 20
524.4650967721828
 30
0.0
 10
1173.119172267621
 20
524.4513784460135
 30
0.0
 10
1173.159449694757
 20
524.4410883274669
 30
0.0
 10
1173.188270981819
 20
524.4396503467389
 30
0.0
 10
1173.203326020866
 20
524.4388992055436
 30
0.0
  0
SPLINE
  5
B3
330
1F
100
AcDbEntity
  8
0
  6
Continuous
 62
     7
370
    30
100
AcDbSpline
210
0.0
220
0.0
230
1.0
 70
     8
 71
     3
 72
    21
 73
    17
 74
     0
 42
0.000000001
 43
0.00000001
 40
0.0
 40
0.0
 40
0.0
 40
0.0
 40
0.0828958471540358
 40
0.1577686769136381
 40
0.2250083034949346
 40
0.2847246361143495
 40
0.3526105785401621
 40
0.4070110322552263
 40
0.4523979502438693
 40
0.5092493080335949
 40
0.5799815009879716
 40
0.6644269477200275
 40
0.7366558573506435
 40
0.8164537838085992
 40
0.9040057248938822
 40
1.0
 40
1.0
 40
1.0
 40
1.0
 10
1207.59657049294
 20
524.4388992055437
 30
0.0
 10
1207.609572945626
 20
524.4394599123384
 30
0.0
 10
1207.634319417584
 20
524.4405270583075
 30
0.0
 10
1207.668906607507
 20
524.4481309882523
 30
0.0
 10
1207.698954020279
 20
524.4581420616719
 30
0.0
 10
1207.726850728232
 20
524.4706737619035
 30
0.0
 10
1207.751689371935
 20
524.4847940743236
 30
0.0
 10
1207.773315281293
 20
524.4997678941492
 30
0.0
 10
1207.792467343287
 20
524.5151488019212
 30
0.0
 10
1207.812344758106
 20
524.5336277073205
 30
0.0
 10
1207.834583671648
 20
524.5583960482251
 30
0.0
 10
1207.855347791911
 20
524.5874763899861
 30
0.0
 10
1207.873290244693
 20
524.6199974140687
 30
0.0
 10
1207.887353130193
 20
524.6548846768629
 30
0.0
 10
1207.897911171689
 20
524.6950388732926
 30
0.0
 10
1207.899361973447
 20
524.7238374870112
 30
0.0
 10
1207.900120739637
 20
524.7388990998592
 30
0.0
  0
SPLINE
  5
B4
330
1F
100
AcDbEntity
  8
0
  6
Continuous
 62
     7
370
    30
100
AcDbSpline
210
0.0
220
0.0
230
1.0
 70
     8
 71
     3
 72
    21
 73
    17
 74
     0
 42
0.000000001
 43
0.00000001
 40
0.0
 40
0.0
 40
0.0
 40
0.0
 40
0.0827703472902614
 40
0.1579620213027265
 40
0.2254619081062572
 40
0.2852419742973697
 40
0.3529505073397323
 40
0.4070235221974771
 40
0.452125027236235
 40
0.5086357170112349
 40
0.5789788609183686
 40
0.6632152305054857
 40
0.7355988222076439
 40
0.8158948857957327
 40
0.9040794363747157
 40
1.0
 40
1.0
 40
1.0
 40
1.0
 10
1207.900427271743
 20
529.1388990998593
 30
0.0
 10
1207.89993347658
 20
529.1519008902028
 30
0.0
 10
1207.898991099454
 20
529.1767139923638
 30
0.0
 10
1207.892030884544
 20
529.2115460622161
 30
0.0
 10
1207.88263490923
 20
529.2419515368873
 30
0.0
 10
1207.870664572442
 20
529.2701725890572
 30
0.0
 10
1207.856965471953
 20
529.2952263185598
 30
0.0
 10
1207.842239363869
 20
529.3169287818079
 30
0.0
 10
1207.826971066159
 20
529.336034774913
 30
0.0
 10
1207.808461981066
 20
529.3557302933577
 30
0.0
 10
1207.783421351903
 20
529.3775332178818
 30
0.0
 10
1207.753815970026
 20
529.3975428608725
 30
0.0
 10
1207.720618798556
 20
529.4144906157075
 30
0.0
 10
1207.685037929503
 20
529.4274889647038
 30
0.0
 10
1207.644416639312
 20
529.4369603463538
 30
0.0
 10
1207.615490080048
 20
529.4382349953013
 30
0.0
 10
1207.600419059993
 20
529.4388990998592
 30
0.0
  0
SPLINE
  5
B5
330
1F
100
AcDbEntity
  8
0
  6
Continuous
 62
     7
370
    30
100
AcDbSpline
210
0.0
220
0.0
230
1.0
 70
     8
 71
     3
 72
    21
 73
    17
 74
     0
 42
0.000000001
 43
0.00000001
 40
0.0
 40
0.0
 40
0.0
 40
0.0
 40
0.0827714594985849
 40
0.1579642008247186
 40
0.2254650579643785
 40
0.2852460022569067
 40
0.352955638624744
 40
0.4070298167424013
 40
0.4521314314833478
 40
0.5086415571220654
 40
0.5789841879452812
 40
0.6632198616043489
 40
0.7356026833366497
 40
0.8158977004700582
 40
0.9040809332379061
 40
0.9999999999999999
 40
0.9999999999999999
 40
0.9999999999999999
 40
0.9999999999999999
 10
1173.199477453743
 20
529.4388990998592
 30
0.0
 10
1173.186475490047
 20
529.4384053323807
 30
0.0
 10
1173.161662048108
 20
529.4374630077485
 30
0.0
 10
1173.126829416359
 20
529.430503159158
 30
0.0
 10
1173.096423328417
 20
529.4211076307978
 30
0.0
 10
1173.068201565705
 20
529.4091377925812
 30
0.0
 10
1173.043147027018
 20
529.3954391479874
 30
0.0
 10
1173.021443822685
 20
529.380713468042
 30
0.0
 10
1173.002337281657
 20
529.3654456790009
 30
0.0
 10
1172.982641290398
 20
529.3469373212941
 30
0.0
 10
1172.960837742039
 20
529.3218976049933
 30
0.0
 10
1172.940827363138
 20
529.2922930913093
 30
0.0
 10
1172.923878894081
 20
529.2590967207449
 30
0.0
 10
1172.910879949126
 20
529.2235165878192
 30
0.0
 10
1172.901408096878
 20
529.1828960067099
 30
0.0
 10
1172.900133381139
 20
529.153969886426
 30
0.0
 10
1172.899469241993
 20
529.1388990998593
 30
0.0
  0
ARC
  5
B6
330
1F
100
AcDbEntity
  8
0
  6
Continuous
 62
     7
370
    30
100
AcDbCircle
 10
1190.3999482569
 20
536.9388990999
 30
0.0
 40
12.40000000001751
100
AcDbArc
 50
133.9116550008
 51
149.9963371753
  0
LINE
  5
B7
330
1F
100
AcDbEntity
  8
0
  6
Continuous
 62
     7
370
    30
100
AcDbLine
 10
1201.7999482569
 20
553.6842463574
 30
0.0
 11
1201.7999482569
 21
561.7946117769
 31
0.0
  0
LINE
  5
B8
330
1F
100
AcDbEntity
  8
0
  6
Continuous
 62
     7
370
    30
100
AcDbLine
 10
1178.9999482569
 20
561.7946117769
 30
0.0
 11
1178.9999482569
 21
553.6842463574
 31
0.0
  0
LINE
  5
B9
330
1F
100
AcDbEntity
  8
0
  6
Continuous
 62
     7
370
    30
100
AcDbLine
 10
1180.4499482569
 20
549.6689454291
 30
0.0
 11
1181.7999482569
 21
548.7236652504
 31
0.0
  0
LINE
  5
BA
330
1F
100
AcDbEntity
  8
0
  6
Continuous
 62
     7
370
    30
100
AcDbLine
 10
1198.9999482569
 20
548.7236652504
 30
0.0
 11
1200.3499482569
 21
549.6689454291
 31
0.0
  0
LINE
  5
BB
330
1F
100
AcDbEntity
  8
0
  6
Continuous
 62
     7
370
    30
100
AcDbLine
 10
1198.9999482569
 20
545.8719836736
 30
0.0
 11
1198.9999482569
 21
548.7236652504
 31
0.0
  0
LINE
  5
BC
330
1F
100
AcDbEntity
  8
0
  6
Continuous
 62
     7
370
    30
100
AcDbLine
 10
1181.7999482569
 20
548.7236652504
 30
0.0
 11
1181.7999482569
 21
545.8719836736
 31
0.0
  0
ARC
  5
BD
330
1F
100
AcDbEntity
  8
0
  6
Continuous
 62
     7
370
    30
100
AcDbCircle
 10
850.8999482569
 20
574.1842463574
 30
0.0
 40
1.0
100
AcDbArc
 50
270.0
 51
0.0
  0
ARC
  5
BE
330
1F
100
AcDbEntity
  8
0
  6
Continuous
 62
     7
370
    30
100
AcDbCircle
 10
850.8999482569
 20
637.1842463574
 30
0.0
 40
1.0
100
AcDbArc
 50
0.0
 51
90.0
  0
LINE
  5
BF
330
1F
100
AcDbEntity
  8
0
  6
Continuous
 62
     7
370
    30
100
AcDbLine
 10
841.8999482569
 20
573.1842463574
 30
0.0
 11
850.8999482569
 21
573.1842463574
 31
0.0
  0
LINE
  5
C0
330
1F
100
AcDbEntity
  8
0
  6
Continuous
 62
     7
370
    30
100
AcDbLine
 10
850.8999482569
 20
638.1842463574
 30
0.0
 11
841.8999482569
 21
638.1842463574
 31
0.0
  0
LINE
  5
C1
330
1F
100
AcDbEntity
  8
0
  6
Continuous
 62
     7
370
    30
100
AcDbLine
 10
1155.3999482569
 20
617.1842463574
 30
0.0
 11
851.8999482569
 21
617.1842463574
 31
0.0
  0
LINE
  5
C2
330
1F
100
AcDbEntity
  8
0
  6
Continuous
 62
     7
370
    30
100
AcDbLine
 10
851.8999482569
 20
594.1842463574
 30
0.0
 11
1155.3999482569
 21
594.1842463574
 31
0.0
  0
ARC
  5
C3
330
1F
100
AcDbEntity
  8
0
  6
Continuous
 62
     7
370
    30
100
AcDbCircle
 10
1155.3999482569
 20
570.6842463574
 30
0.0
 40
46.50000000000023
100
AcDbArc
 50
0.0
 51
90.0
  0
ARC
  5
C4
330
1F
100
AcDbEntity
  8
0
  6
Continuous
 62
     7
370
    30
100
AcDbCircle
 10
1155.3999482569
 20
570.6842463574
 30
0.0
 40
23.50000000000023
100
AcDbArc
 50
0.0
 51
90.0
  0
LINE
  5
C5
330
1F
100
AcDbEntity
  8
0
  6
Continuous
 62
     7
370
    30
100
AcDbLine
 10
1201.8999482569
 20
561.7946117769
 30
0.0
 11
1201.8999482569
 21
570.6842463574
 31
0.0
  0
LINE
  5
C6
330
1F
100
AcDbEntity
  8
0
  6
Continuous
 62
     7
370
    30
100
AcDbLine
 10
1178.8999482569
 20
570.6842463574
 30
0.0
 11
1178.8999482569
 21
561.7946117769
 31
0.0
  0
LINE
  5
C7
330
1F
100
AcDbEntity
  8
0
  6
Continuous
 62
     7
370
    30
100
AcDbLine
 10
1288.0999482568
 20
524.4388989944
 30
0.0
 11
1092.6999482569
 21
524.4388991115
 31
0.0
  0
LINE
  5
C8
330
1F
100
AcDbEntity
  8
0
  6
Continuous
 62
     7
370
    30
100
AcDbLine
 10
1090.6999482569
 20
516.2388990999
 30
0.0
 11
1090.6999482569
 21
524.4388990999
 31
0.0
  0
LINE
  5
C9
330
1F
100
AcDbEntity
  8
0
  6
Continuous
 62
     7
370
    30
100
AcDbLine
 10
1090.6999482569
 20
524.4388991127
 30
0.0
 11
1092.6999482569
 21
524.4388991115
 31
0.0
  0
LINE
  5
CA
330
1F
100
AcDbEntity
  8
0
  6
Continuous
 62
     7
370
    30
100
AcDbLine
 10
1290.0999482569
 20
524.4388989749
 30
0.0
 11
1290.0999482569
 21
516.2388990999
 31
0.0
  0
LINE
  5
CB
330
1F
100
AcDbEntity
  8
0
  6
Continuous
 62
     7
370
    30
100
AcDbLine
 10
1288.0999482568
 20
524.4388989944
 30
0.0
 11
1290.0999482569
 21
524.4388989932
 31
0.0
  0
ARC
  5
CC
330
1F
100
AcDbEntity
  8
0
  6
Continuous
 62
     7
370
    30
100
AcDbCircle
 10
1288.0999482569
 20
516.2388990999
 30
0.0
 40
2.000000000000004
100
AcDbArc
 50
269.9999999986
 51
0.000003581
  0
ARC
  5
CD
330
1F
100
AcDbEntity
  8
0
  6
Continuous
 62
     7
370
    30
100
AcDbCircle
 10
1092.6999482569
 20
516.2388990999
 30
0.0
 40
2.0
100
AcDbArc
 50
179.9999999986
 51
270.0000000057
  0
LINE
  5
CE
330
1F
100
AcDbEntity
  8
0
  6
Continuous
 62
     7
370
    30
100
AcDbLine
 10
1092.6999482571
 20
514.2388990999
 30
0.0
 11
1288.0999482568
 21
514.2388990999
 31
0.0
  0
SPLINE
  5
CF
330
1F
100
AcDbEntity
  8
0
  6
Continuous
 62
     7
370
    30
100
AcDbSpline
210
0.0
220
0.0
230
1.0
 70
    24
 71
     3
 72
    55
 73
    51
 74
     0
 42
0.000000001
 43
0.00000001
 40
0.0
 40
0.0
 40
0.0
 40
0.0
 40
0.0200278391460694
 40
0.0400167838935999
 40
0.0599865793422176
 40
0.0799570273912787
 40
0.0999479280008474
 40
0.1199790204813855
 40
0.1400218641985726
 40
0.1620181848927358
 40
0.1839876025552824
 40
0.2059564286189789
 40
0.2279509766397285
 40
0.2499974680724219
 40
0.2700305175673176
 40
0.2900232992105867
 40
0.3099955219185524
 40
0.3299669554737195
 40
0.3499573719999237
 40
0.3699864874028667
 40
0.3900312269998558
 40
0.4120298458134722
 40
0.4339997402903601
 40
0.4559672563135456
 40
0.4779587483142454
 40
0.5000004847224667
 40
0.5200290542147682
 40
0.5400186644717249
 40
0.5599890603889277
 40
0.5799600438524916
 40
0.5999514150026064
 40
0.6199829135229104
 40
0.640026159237764
 40
0.662022736905159
 40
0.6839921779957937
 40
0.705960797419931
 40
0.727954913037097
 40
0.7500007513965428
 40
0.7700332413680725
 40
0.7900253742472193
 40
0.8099968654858577
 40
0.8299674916696257
 40
0.8499570319516861
 40
0.8699852094484993
 40
0.890031062185284
 40
0.9120310509143484
 40
0.9340015862726798
 40
0.9559690249462542
 40
0.9779597347555249
 40
0.9999999999999999
 40
0.9999999999999999
 40
0.9999999999999999
 40
0.9999999999999999
 10
1205.40008163976
 20
543.1388990998593
 30
0.0
 10
1205.39844006842
 20
543.1388990998593
 30
0.0
 10
1205.395160113699
 20
543.1388990998593
 30
0.0
 10
1205.371539368515
 20
543.1388990998593
 30
0.0
 10
1205.334217598667
 20
543.1388990998593
 30
0.0
 10
1205.281859715873
 20
543.1388990998593
 30
0.0
 10
1205.214824766797
 20
543.1388990998593
 30
0.0
 10
1205.133077064321
 20
543.1388990998593
 30
0.0
 10
1205.033704082232
 20
543.1388990998593
 30
0.0
 10
1204.915107539594
 20
543.1388990998593
 30
0.0
 10
1204.775621688734
 20
543.1388990998593
 30
0.0
 10
1204.618966592278
 20
543.1388990998593
 30
0.0
 10
1204.445141406029
 20
543.1388990998593
 30
0.0
 10
1204.260188949338
 20
543.1388990998593
 30
0.0
 10
1204.066314809347
 20
543.1388990998593
 30
0.0
 10
1203.865463726192
 20
543.1388990998593
 30
0.0
 10
1203.651540446348
 20
543.1388990998593
 30
0.0
 10
1203.424543589162
 20
543.1388990998593
 30
0.0
 10
1203.184475584559
 20
543.1388990998593
 30
0.0
 10
1202.931512115895
 20
543.1388990998593
 30
0.0
 10
1202.657418174032
 20
543.1388990998593
 30
0.0
 10
1202.361234539378
 20
543.1388990998593
 30
0.0
 10
1202.041871153896
 20
543.1388990998593
 30
0.0
 10
1201.70862457147
 20
543.1388990998593
 30
0.0
 10
1201.361495490012
 20
543.1388990998593
 30
0.0
 10
1201.011891369462
 20
543.1388990998593
 30
0.0
 10
1200.661955636691
 20
543.1388990998593
 30
0.0
 10
1200.313584800621
 20
543.1388990998593
 30
0.0
 10
1199.955764285074
 20
543.1388990998591
 30
0.0
 10
1199.588493334494
 20
543.1388990998593
 30
0.0
 10
1199.211774397616
 20
543.1388990998593
 30
0.0
 10
1198.825913510705
 20
543.1388990998593
 30
0.0
 10
1198.418651330918
 20
543.1388990998593
 30
0.0
 10
1197.989821274435
 20
543.1388990998593
 30
0.0
 10
1197.539034501154
 20
543.1388990998593
 30
0.0
 10
1197.079735775758
 20
543.1388990998593
 30
0.0
 10
1196.611927276476
 20
543.1388990998593
 30
0.0
 10
1196.150665484869
 20
543.1388990998591
 30
0.0
 10
1195.697734317974
 20
543.1388990998593
 30
0.0
 10
1195.254718547684
 20
543.1388990998593
 30
0.0
 10
1194.807369985852
 20
543.1388990998593
 30
0.0
 10
1194.355688598881
 20
543.1388990998593
 30
0.0
 10
1193.899676433101
 20
543.1388990998593
 30
0.0
 10
1193.439644109821
 20
543.1388990998591
 30
0.0
 10
1192.961140503838
 20
543.1388990998593
 30
0.0
 10
1192.464813855604
 20
543.1388990998593
 30
0.0
 10
1191.951121336574
 20
543.1388990998593
 30
0.0
 10
1191.435645488775
 20
543.1388990998593
 30
0.0
 10
1190.918388902448
 20
543.1388990998593
 30
0.0
 10
1190.5728914208
 20
543.1388990998593
 30
0.0
 10
1190.399948256868
 20
543.1388990998593
 30
0.0
  0
LINE
  5
D0
330
1F
100
AcDbEntity
  8
0
  6
Continuous
 62
     7
370
    30
100
AcDbLine
 10
1190.3999482569
 20
543.1388990999
 30
0.0
 11
1190.355651362
 21
543.1388990999
 31
0.0
  0
SPLINE
  5
D1
330
1F
100
AcDbEntity
  8
0
  6
Continuous
 62
     7
370
    30
100
AcDbSpline
210
0.0
220
0.0
230
1.0
 70
    24
 71
     3
 72
    53
 73
    49
 74
     0
 42
0.000000001
 43
0.00000001
 40
0.0
 40
0.0
 40
0.0
 40
0.0
 40
0.0213731022420921
 40
0.0427028834493825
 40
0.0640103950811576
 40
0.0853167546062665
 40
0.1066430829160189
 40
0.1280104416864658
 40
0.1493922571034525
 40
0.1728591899402656
 40
0.1962974472060837
 40
0.2197351100420473
 40
0.2432002617233777
 40
0.2667208870616972
 40
0.2880931034099451
 40
0.3094225045230981
 40
0.3307301216399881
 40
0.352037050505945
 40
0.3733643889086353
 40
0.3947331741836955
 40
0.4161185166100462
 40
0.439588384267279
 40
0.4630276640778456
 40
0.4864644648024861
 40
0.5099269041120157
 40
0.533443007711013
 40
0.5548111838001458
 40
0.5761378436693938
 40
0.5974440527327901
 40
0.6187509370615664
 40
0.6400796207204007
 40
0.6614511631333753
 40
0.6828350762949851
 40
0.7063030705316865
 40
0.7297423043281202
 40
0.753180848742101
 40
0.7766467773054646
 40
0.8001680654982455
 40
0.8215409248407145
 40
0.8428707748260136
 40
0.8641786425198638
 40
0.8854856200686075
 40
0.9068128022595925
 40
0.9281812240425198
 40
0.9495661377034623
 40
0.9730354876282761
 40
0.9964741659117656
 40
1.0
 40
1.0
 40
1.0
 40
1.0
 10
1190.355651361999
 20
543.1388990998593
 30
0.0
 10
1190.198463726602
 20
543.1388990998593
 30
0.0
 10
1189.884407058646
 20
543.1388990998593
 30
0.0
 10
1189.414160487954
 20
543.1388990998593
 30
0.0
 10
1188.945371402321
 20
543.1388990998593
 30
0.0
 10
1188.478045016814
 20
543.1388990998593
 30
0.0
 10
1188.01218145395
 20
543.1388990998593
 30
0.0
 10
1187.548127319349
 20
543.1388990998593
 30
0.0
 10
1187.071458642969
 20
543.1388990998593
 30
0.0
 10
1186.583520341069
 20
543.1388990998593
 30
0.0
 10
1186.085446890326
 20
543.1388990998593
 30
0.0
 10
1185.592540650683
 20
543.1388990998593
 30
0.0
 10
1185.104805726616
 20
543.1388990998593
 30
0.0
 10
1184.637495792037
 20
543.1388990998593
 30
0.0
 10
1184.190924025032
 20
543.1388990998593
 30
0.0
 10
1183.765383215434
 20
543.1388990998593
 30
0.0
 10
1183.346816929116
 20
543.1388990998593
 30
0.0
 10
1182.935226510516
 20
543.1388990998593
 30
0.0
 10
1182.530612393696
 20
543.1388990998593
 30
0.0
 10
1182.133262582576
 20
543.1388990998593
 30
0.0
 10
1181.730989293093
 20
543.1388990998593
 30
0.0
 10
1181.325664448461
 20
543.1388990998593
 30
0.0
 10
1180.918997421416
 20
543.1388990998593
 30
0.0
 10
1180.52370527997
 20
543.1388990998591
 30
0.0
 10
1180.139792171924
 20
543.1388990998593
 30
0.0
 10
1179.779021619755
 20
543.1388990998593
 30
0.0
 10
1179.440824153423
 20
543.1388990998593
 30
0.0
 10
1179.124708881325
 20
543.1388990998593
 30
0.0
 10
1178.820022552174
 20
543.1388990998593
 30
0.0
 10
1178.526766951521
 20
543.1388990998593
 30
0.0
 10
1178.244941509408
 20
543.1388990998593
 30
0.0
 10
1177.974768357799
 20
543.1388990998593
 30
0.0
 10
1177.70814599432
 20
543.1388990998593
 30
0.0
 10
1177.447159035425
 20
543.1388990998593
 30
0.0
 10
1177.193776963368
 20
543.1388990998593
 30
0.0
 10
1176.956178327525
 20
543.1388990998593
 30
0.0
 10
1176.734366708955
 20
543.1388990998593
 30
0.0
 10
1176.534849328737
 20
543.1388990998593
 30
0.0
 10
1176.356289189058
 20
543.1388990998593
 30
0.0
 10
1176.197520134791
 20
543.1388990998593
 30
0.0
 10
1176.052915703884
 20
543.1388990998593
 30
0.0
 10
1175.922487456712
 20
543.1388990998593
 30
0.0
 10
1175.806198007466
 20
543.1388990998593
 30
0.0
 10
1175.704260253645
 20
543.1388990998593
 30
0.0
 10
1175.613367403638
 20
543.1388990998593
 30
0.0
 10
1175.537569623357
 20
543.1388990998591
 30
0.0
 10
1175.489747636981
 20
543.1388990998594
 30
0.0
 10
1175.473341900709
 20
543.1388990998593
 30
0.0
 10
1175.471196714347
 20
543.1388990998593
 30
0.0
  0
SPLINE
  5
D2
330
1F
100
AcDbEntity
  8
0
  6
Continuous
 62
     7
370
    30
100
AcDbSpline
210
0.0
220
0.0
230
1.0
 70
    24
 71
     3
 72
    10
 73
     6
 74
     0
 42
0.000000001
 43
0.00000001
 40
0.0
 40
0.0
 40
0.0
 40
0.0
 40
0.2675004338866534
 40
0.6333324843868953
 40
0.9999999999999999
 40
0.9999999999999999
 40
0.9999999999999999
 40
0.9999999999999999
 10
1175.466046002162
 20
543.1388990998593
 30
0.0
 10
1175.454609848404
 20
543.1388990998593
 30
0.0
 10
1175.427533676727
 20
543.1388990998593
 30
0.0
 10
1175.404546805776
 20
543.1388990998593
 30
0.0
 10
1175.401393383473
 20
543.1388990998593
 30
0.0
 10
1175.399814873976
 20
543.1388990998593
 30
0.0
  0
LINE
  5
D3
330
1F
100
AcDbEntity
  8
0
  6
Continuous
 62
     7
370
    30
100
AcDbLine
 10
1184.5689902043
 20
526.9388990999
 30
0.0
 11
1184.5689868886
 21
529.1388990999
 31
0.0
  0
LINE
  5
D4
330
1F
100
AcDbEntity
  8
0
  6
Continuous
 62
     7
370
    30
100
AcDbLine
 10
1196.2309063094
 20
526.9388990999
 30
0.0
 11
1184.5689902043
 21
526.9388990999
 31
0.0
  0
LINE
  5
D5
330
1F
100
AcDbEntity
  8
0
  6
Continuous
 62
     7
370
    30
100
AcDbLine
 10
1196.2309096251
 20
529.1388990999
 30
0.0
 11
1196.2309063094
 21
526.9388990999
 31
0.0
  0
SPLINE
  5
D6
330
1F
100
AcDbEntity
  8
0
  6
Continuous
 62
     7
370
    30
100
AcDbSpline
210
0.0
220
0.0
230
1.0
 70
     8
 71
     3
 72
    19
 73
    15
 74
     0
 42
0.000000001
 43
0.00000001
 40
0.0
 40
0.0
 40
0.0
 40
0.0
 40
0.1370033719259811
 40
0.2742623752599592
 40
0.4125703264033497
 40
0.5514299362566766
 40
0.6514060243602022
 40
0.7521537629650004
 40
0.8317964743822919
 40
0.8715846330721616
 40
0.9120612439906992
 40
0.9531316270887
 40
0.9878590872487234
 40
1.0
 40
1.0
 40
1.0
 40
1.0
 10
1195.256902034698
 20
529.4388990998592
 30
0.0
 10
1195.305972431756
 20
529.438337087017
 30
0.0
 10
1195.404204785186
 20
529.4372120126857
 30
0.0
 10
1195.551723008486
 20
529.4275491612365
 30
0.0
 10
1195.699255955333
 20
529.4107579856982
 30
0.0
 10
1195.832335301452
 20
529.3868434978933
 30
0.0
 10
1195.950158709573
 20
529.3562704815932
 30
0.0
 10
1196.044906359597
 20
529.3224835364762
 30
0.0
 10
1196.115609503736
 20
529.2868475057076
 30
0.0
 10
1196.162737709799
 20
529.2541253646788
 30
0.0
 10
1196.19497126268
 20
529.2246806920868
 30
0.0
 10
1196.219540049443
 20
529.1905741156497
 30
0.0
 10
1196.229992659481
 20
529.1600434163446
 30
0.0
 10
1196.230679994336
 20
529.1432494541933
 30
0.0
 10
1196.230858043455
 20
529.1388990998593
 30
0.0
  0
SPLINE
  5
D7
330
1F
100
AcDbEntity
  8
0
  6
Continuous
 62
     7
370
    30
100
AcDbSpline
210
0.0
220
0.0
230
1.0
 70
    24
 71
     3
 72
    31
 73
    27
 74
     0
 42
0.000000001
 43
0.00000001
 40
0.0
 40
0.0
 40
0.0
 40
0.0
 40
0.041880726875927
 40
0.0835166125312204
 40
0.1250272276858371
 40
0.1665332257138068
 40
0.2081553001413325
 40
0.2500131404173487
 40
0.2918619682190819
 40
0.3334776912987324
 40
0.3749801110044322
 40
0.4164900097074676
 40
0.4581281046947164
 40
0.5000140048631575
 40
0.5418710467214538
 40
0.5834913732591612
 40
0.6249944952941747
 40
0.6665009360687195
 40
0.7081311900008994
 40
0.7500046826748406
 40
0.7918706595245649
 40
0.8334962746244897
 40
0.8750013029123133
 40
0.9165065632989157
 40
0.9581328726741999
 40
1.0
 40
1.0
 40
1.0
 40
1.0
 10
1195.256902034698
 20
529.4388990998592
 30
0.0
 10
1195.55147351843
 20
529.4388990998592
 30
0.0
 10
1196.138894375343
 20
529.4388990998592
 30
0.0
 10
1196.998282907553
 20
529.4388990998592
 30
0.0
 10
1197.837132939871
 20
529.4388990998592
 30
0.0
 10
1198.654189201557
 20
529.4388990998592
 30
0.0
 10
1199.449761443241
 20
529.4388990998592
 30
0.0
 10
1200.221511982166
 20
529.4388990998592
 30
0.0
 10
1200.965571951959
 20
529.4388990998592
 30
0.0
 10
1201.67733177006
 20
529.4388990998592
 30
0.0
 10
1202.354741260192
 20
529.4388990998592
 30
0.0
 10
1202.997782382834
 20
529.4388990998592
 30
0.0
 10
1203.60643896948
 20
529.4388990998592
 30
0.0
 10
1204.178906477072
 20
529.4388990998592
 30
0.0
 10
1204.712536531868
 20
529.4388990998592
 30
0.0
 10
1205.203666431555
 20
529.4388990998592
 30
0.0
 10
1205.650899504047
 20
529.4388990998592
 30
0.0
 10
1206.054222138879
 20
529.4388990998592
 30
0.0
 10
1206.413624391368
 20
529.4388990998592
 30
0.0
 10
1206.728186219473
 20
529.4388990998592
 30
0.0
 10
1206.996822718785
 20
529.4388990998592
 30
0.0
 10
1207.217139559395
 20
529.4388990998592
 30
0.0
 10
1207.388701139919
 20
529.4388990998592
 30
0.0
 10
1207.510328417822
 20
529.4388990998592
 30
0.0
 10
1207.586398620497
 20
529.4388990998592
 30
0.0
 10
1207.595736602395
 20
529.4388990998592
 30
0.0
 10
1207.600419059993
 20
529.4388990998592
 30
0.0
  0
SPLINE
  5
D8
330
1F
100
AcDbEntity
  8
0
  6
Continuous
 62
     7
370
    30
100
AcDbSpline
210
0.0
220
0.0
230
1.0
 70
    24
 71
     3
 72
    31
 73
    27
 74
     0
 42
0.000000001
 43
0.00000001
 40
0.0
 40
0.0
 40
0.0
 40
0.0
 40
0.0418477941871261
 40
0.0834624268868265
 40
0.1249637673695849
 40
0.1664726664122304
 40
0.2081099089762053
 40
0.2499951697210278
 40
0.291849321902372
 40
0.3334678949401992
 40
0.3749704144386161
 40
0.416477408594462
 40
0.4581093667410096
 40
0.4999856995616337
 40
0.5418522645146877
 40
0.5834786817309566
 40
0.624984660192529
 40
0.6664909509728033
 40
0.7081183024272979
 40
0.7499864155014483
 40
0.791834781793634
 40
0.8334510783094989
 40
0.8749551113873102
 40
0.9164676593626753
 40
0.9581094264811146
 40
1.0
 40
1.0
 40
1.0
 40
1.0
 10
1173.199477453743
 20
529.4388990998592
 30
0.0
 10
1173.204135947592
 20
529.4388990998592
 30
0.0
 10
1173.213426979767
 20
529.4388990998592
 30
0.0
 10
1173.289463042269
 20
529.4388990998592
 30
0.0
 10
1173.411080592824
 20
529.4388990998592
 30
0.0
 10
1173.582659606389
 20
529.4388990998592
 30
0.0
 10
1173.803026077404
 20
529.4388990998592
 30
0.0
 10
1174.071620221828
 20
529.4388990998592
 30
0.0
 10
1174.386086984814
 20
529.4388990998592
 30
0.0
 10
1174.745378310829
 20
529.4388990998592
 30
0.0
 10
1175.148664510605
 20
529.4388990998592
 30
0.0
 10
1175.595940693688
 20
529.4388990998592
 30
0.0
 10
1176.087197060153
 20
529.4388990998592
 30
0.0
 10
1176.620819181079
 20
529.4388990998592
 30
0.0
 10
1177.193178754472
 20
529.4388990998592
 30
0.0
 10
1177.801657235926
 20
529.4388990998592
 30
0.0
 10
1178.444639222261
 20
529.4388990998592
 30
0.0
 10
1179.122113171409
 20
529.4388990998592
 30
0.0
 10
1179.834062851707
 20
529.4388990998592
 30
0.0
 10
1180.578210186607
 20
529.4388990998592
 30
0.0
 10
1181.349944973288
 20
529.4388990998592
 30
0.0
 10
1182.145395942799
 20
529.4388990998592
 30
0.0
 10
1182.962411696597
 20
529.4388990998592
 30
0.0
 10
1183.801305135396
 20
529.4388990998592
 30
0.0
 10
1184.660820394418
 20
529.4388990998592
 30
0.0
 10
1185.248353116279
 20
529.4388990998592
 30
0.0
 10
1185.542994479038
 20
529.4388990998592
 30
0.0
  0
SPLINE
  5
D9
330
1F
100
AcDbEntity
  8
0
  6
Continuous
 62
     7
370
    30
100
AcDbSpline
210
0.0
220
0.0
230
1.0
 70
     8
 71
     3
 72
    20
 73
    16
 74
     0
 42
0.000000001
 43
0.00000001
 40
0.0
 40
0.0
 40
0.0
 40
0.0
 40
0.0352834509417766
 40
0.0571696564049196
 40
0.0796775008996105
 40
0.1171973000850687
 40
0.1556371294864174
 40
0.2072915845098998
 40
0.2594914862695124
 40
0.3660994581332864
 40
0.4440434940660827
 40
0.5222148938255482
 40
0.6796263754964283
 40
0.8395777787824565
 40
1.0
 40
1.0
 40
1.0
 40
1.0
 10
1184.569038470281
 20
529.1388990998593
 30
0.0
 10
1184.570475896815
 20
529.1515915682352
 30
0.0
 10
1184.572804954174
 20
529.172157131881
 30
0.0
 10
1184.586088249551
 20
529.1977928898201
 30
0.0
 10
1184.603095100824
 20
529.2217361020188
 30
0.0
 10
1184.628286116561
 20
529.2467466285723
 30
0.0
 10
1184.664945239094
 20
529.2741771438947
 30
0.0
 10
1184.709176957778
 20
529.299744759036
 30
0.0
 10
1184.777732466721
 20
529.3312481716362
 30
0.0
 10
1184.858252849318
 20
529.3585192338521
 30
0.0
 10
1184.949441167649
 20
529.3818541793931
 30
0.0
 10
1185.059557992476
 20
529.4041059576338
 30
0.0
 10
1185.200034600483
 20
529.4233490098895
 30
0.0
 10
1185.370767200668
 20
529.436596912135
 30
0.0
 10
1185.485529168561
 20
529.438130952481
 30
0.0
 10
1185.542994479038
 20
529.4388990998592
 30
0.0
  0
LINE
  5
DA
330
1F
100
AcDbEntity
  8
0
  6
Continuous
 62
     7
370
    30
100
AcDbLine
 10
1185.542994479
 20
529.4388990999
 30
0.0
 11
1195.2569020347
 21
529.4388990999
 31
0.0
  0
ARC
  5
DB
330
1F
100
AcDbEntity
  8
0
  6
Continuous
 62
     7
370
    30
100
AcDbCircle
 10
1190.3999482569
 20
536.9388990999
 30
0.0
 40
12.40000000000857
100
AcDbArc
 50
30.0034669218
 51
46.0883449991
  0
LINE
  5
DC
330
1F
100
AcDbEntity
  8
0
  6
Continuous
 62
     7
370
    30
100
AcDbLine
 10
1181.7999482569
 20
545.8719836736
 30
0.0
 11
1190.3999482569
 21
545.8719836736
 31
0.0
  0
LINE
  5
DD
330
1F
100
AcDbEntity
  8
0
  6
Continuous
 62
     7
370
    30
100
AcDbLine
 10
1190.3999482569
 20
545.8719836736
 30
0.0
 11
1198.9999482569
 21
545.8719836735
 31
0.0
  0
LWPOLYLINE
  5
DE
330
1F
100
AcDbEntity
  8
0
  6
Continuous
 62
     7
370
    30
100
AcDbPolyline
 90
      104
 70
   128
 43
0.0
 10
1180.4499504751
 20
550.6842482119
 10
1180.5666736312
 20
550.6842482118
 10
1180.6875696773
 20
550.6842482114
 10
1180.8125873094
 20
550.6842482107
 10
1180.9416734747
 20
550.6842482098
 10
1181.0747733934
 20
550.6842482085
 10
1181.2118305827
 20
550.6842482071
 10
1181.3527868805
 20
550.6842482053
 10
1181.49758247
 20
550.6842482033
 10
1181.6461559051
 20
550.684248201
 10
1181.7984441366
 20
550.6842481984
 10
1181.9543825387
 20
550.6842481956
 10
1182.1139049368
 20
550.6842481925
 10
1182.2769436353
 20
550.6842481891
 10
1182.4434294463
 20
550.6842481855
 10
1182.6132917194
 20
550.6842481816
 10
1182.786458371
 20
550.6842481775
 10
1182.9628559153
 20
550.6842481731
 10
1183.1424094956
 20
550.6842481684
 10
1183.3250429157
 20
550.6842481635
 10
1183.5106786726
 20
550.6842481583
 10
1183.6992379891
 20
550.6842481529
 10
1183.8906408473
 20
550.6842481473
 10
1184.0848060228
 20
550.6842481414
 10
1184.2816511187
 20
550.6842481352
 10
1184.4810926011
 20
550.6842481288
 10
1184.6830458341
 20
550.6842481222
 10
1184.887425116
 20
550.6842481154
 10
1185.0941437155
 20
550.6842481083
 10
1185.3031139087
 20
550.684248101
 10
1185.514247016
 20
550.6842480934
 10
1185.7274534402
 20
550.6842480857
 10
1185.9426427041
 20
550.6842480777
 10
1186.159723489
 20
550.6842480695
 10
1186.3786036736
 20
550.6842480611
 10
1186.599190373
 20
550.6842480525
 10
1186.8213899781
 20
550.6842480437
 10
1187.0451081953
 20
550.6842480347
 10
1187.2702500867
 20
550.6842480255
 10
1187.49672011
 20
550.684248016
 10
1187.7244221595
 20
550.6842480065
 10
1187.9532596065
 20
550.6842479967
 10
1188.1831353407
 20
550.6842479867
 10
1188.413951811
 20
550.6842479766
 10
1188.6456110672
 20
550.6842479663
 10
1188.8780148013
 20
550.6842479558
 10
1189.1110643895
 20
550.6842479452
 10
1189.3446609339
 20
550.6842479344
 10
1189.5787053045
 20
550.6842479234
 10
1189.8130981813
 20
550.6842479123
 10
1190.0477400962
 20
550.6842479011
 10
1190.2825314757
 20
550.6842478897
 10
1190.5173726827
 20
550.6842478782
 10
1190.7521640589
 20
550.6842478665
 10
1190.9868059673
 20
550.6842478547
 10
1191.2211988344
 20
550.6842478428
 10
1191.455243192
 20
550.6842478308
 10
1191.6888397203
 20
550.6842478187
 10
1191.9218892891
 20
550.6842478065
 10
1192.1542930005
 20
550.6842477942
 10
1192.3859522309
 20
550.6842477817
 10
1192.6167686721
 20
550.6842477692
 10
1192.8466443741
 20
550.6842477566
 10
1193.0754817858
 20
550.684247744
 10
1193.3031837967
 20
550.6842477312
 10
1193.5296537783
 20
550.6842477184
 10
1193.7547956249
 20
550.6842477055
 10
1193.9785137942
 20
550.6842476926
 10
1194.2007133484
 20
550.6842476796
 10
1194.4212999937
 20
550.6842476666
 10
1194.6401801213
 20
550.6842476535
 10
1194.8572608461
 20
550.6842476404
 10
1195.0724500469
 20
550.6842476273
 10
1195.2856564051
 20
550.6842476141
 10
1195.4967894435
 20
550.6842476009
 10
1195.7057595648
 20
550.6842475877
 10
1195.9124780896
 20
550.6842475745
 10
1196.1168572939
 20
550.6842475613
 10
1196.3188104465
 20
550.6842475481
 10
1196.5182518457
 20
550.684247535
 10
1196.7150968558
 20
550.6842475218
 10
1196.9092619426
 20
550.6842475086
 10
1197.1006647096
 20
550.6842474955
 10
1197.2892239322
 20
550.6842474824
 10
1197.4748595926
 20
550.6842474694
 10
1197.6574929138
 20
550.6842474564
 10
1197.8370463926
 20
550.6842474434
 10
1198.0134438329
 20
550.6842474305
 10
1198.1866103781
 20
550.6842474177
 10
1198.3564725424
 20
550.6842474049
 10
1198.5229582424
 20
550.6842473922
 10
1198.6859968276
 20
550.6842473795
 10
1198.8455191101
 20
550.684247367
 10
1199.0014573945
 20
550.6842473545
 10
1199.153745506
 20
550.6842473421
 10
1199.3023188191
 20
550.6842473299
 10
1199.4471142846
 20
550.6842473177
 10
1199.5880704565
 20
550.6842473056
 10
1199.725127518
 20
550.6842472937
 10
1199.8582273069
 20
550.6842472818
 10
1199.9873133406
 20
550.6842472701
 10
1200.1123308394
 20
550.6842472585
 10
1200.2332267505
 20
550.6842472471
 10
1200.3499482569
 20
550.6842469981
  0
LINE
  5
DF
330
1F
100
AcDbEntity
  8
0
  6
Continuous
 62
     7
370
    30
100
AcDbLine
 10
1180.4499509187
 20
553.6842463574
 30
0.0
 11
1180.4499504751
 21
550.6842482119
 31
0.0
  0
LINE
  5
E0
330
1F
100
AcDbEntity
  8
0
  6
Continuous
 62
     7
370
    30
100
AcDbLine
 10
1178.9999482569
 20
553.6842463574
 30
0.0
 11
1180.4499509187
 21
553.6842463574
 31
0.0
  0
LINE
  5
E1
330
1F
100
AcDbEntity
  8
0
  6
Continuous
 62
     7
370
    30
100
AcDbLine
 10
1200.3499482569
 20
553.6842463574
 30
0.0
 11
1201.7999482569
 21
553.6842463574
 31
0.0
  0
LINE
  5
E2
330
1F
100
AcDbEntity
  8
0
  6
Continuous
 62
     7
370
    30
100
AcDbLine
 10
1200.3499482569
 20
550.6842469981
 30
0.0
 11
1200.3499482569
 21
553.6842463574
 31
0.0
  0
SPLINE
  5
E3
330
1F
100
AcDbEntity
  8
0
  6
Continuous
 62
     7
370
    30
100
AcDbSpline
210
0.0
220
0.0
230
1.0
 70
    24
 71
     3
 72
    23
 73
    19
 74
     0
 42
0.000000001
 43
0.00000001
 40
0.0
 40
0.0
 40
0.0
 40
0.0
 40
0.0949076517959201
 40
0.1925051652751522
 40
0.2901674234086221
 40
0.3921511535216467
 40
0.4431957142908762
 40
0.4942401112907681
 40
0.545768757238326
 40
0.5972972364744488
 40
0.6488946668809371
 40
0.7004919460830147
 40
0.750697587862676
 40
0.8009031212931493
 40
0.8511845550014059
 40
0.9014659182378413
 40
0.9507234516271535
 40
1.0
 40
1.0
 40
1.0
 40
1.0
 10
1180.449948256868
 20
550.6842488526638
 30
0.0
 10
1180.449948256868
 20
550.6271688735821
 30
0.0
 10
1180.449948256868
 20
550.5113911612577
 30
0.0
 10
1180.449948256868
 20
550.352232526936
 30
0.0
 10
1180.449948256868
 20
550.2024763347233
 30
0.0
 10
1180.449948256868
 20
550.0896580288266
 30
0.0
 10
1180.449948256868
 20
550.0068212076469
 30
0.0
 10
1180.449948256868
 20
549.9491901303857
 30
0.0
 10
1180.449948256868
 20
549.896319516446
 30
0.0
 10
1180.449948256868
 20
549.8484152996443
 30
0.0
 10
1180.449948256868
 20
549.8058271410612
 30
0.0
 10
1180.449948256868
 20
549.7690454923688
 30
0.0
 10
1180.449948256868
 20
549.7380625748503
 30
0.0
 10
1180.449948256868
 20
549.7128057409514
 30
0.0
 10
1180.449948256869
 20
549.6930725125992
 30
0.0
 10
1180.449948256864
 20
549.6791730836671
 30
0.0
 10
1180.449948256881
 20
549.670538625904
 30
0.0
 10
1180.44994825684
 20
549.6694765630352
 30
0.0
 10
1180.449948256819
 20
549.668945429123
 30
0.0
  0
SPLINE
  5
E4
330
1F
100
AcDbEntity
  8
0
  6
Continuous
 62
     7
370
    30
100
AcDbSpline
210
0.0
220
0.0
230
1.0
 70
    24
 71
     3
 72
    24
 73
    20
 74
     0
 42
0.000000001
 43
0.00000001
 40
0.0
 40
0.0
 40
0.0
 40
0.0
 40
0.0547041620490548
 40
0.1094344159496313
 40
0.164398876452081
 40
0.2193634469778511
 40
0.2744278310662714
 40
0.3294923832616631
 40
0.3850000398242095
 40
0.4405079081598929
 40
0.4961007140184899
 40
0.5516937494472633
 40
0.6077050677521472
 40
0.6637166203084942
 40
0.7197930202874769
 40
0.7758696394265425
 40
0.8321322614021402
 40
0.8884072953143552
 40
1.0
 40
1.0
 40
1.0
 40
1.0
 10
1200.349948256868
 20
549.6689454291487
 30
0.0
 10
1200.349948256868
 20
549.669600062692
 30
0.0
 10
1200.349948256868
 20
549.6709096420145
 30
0.0
 10
1200.349948256868
 20
549.6815005575025
 30
0.0
 10
1200.349948256868
 20
549.6983994100638
 30
0.0
 10
1200.349948256868
 20
549.722180326253
 30
0.0
 10
1200.349948256868
 20
549.7525705373752
 30
0.0
 10
1200.349948256868
 20
549.7895731290461
 30
0.0
 10
1200.349948256868
 20
549.8330683167663
 30
0.0
 10
1200.349948256868
 20
549.8829432136437
 30
0.0
 10
1200.349948256868
 20
549.9388968784029
 30
0.0
 10
1200.349948256868
 20
550.0008655566328
 30
0.0
 10
1200.349948256868
 20
550.0686476822887
 30
0.0
 10
1200.349948256868
 20
550.1420710586497
 30
0.0
 10
1200.349948256868
 20
550.2207410880609
 30
0.0
 10
1200.349948256868
 20
550.3044759922774
 30
0.0
 10
1200.349948256868
 20
550.3931488719061
 30
0.0
 10
1200.349948256868
 20
550.5165365718237
 30
0.0
 10
1200.349948256868
 20
550.6172773902722
 30
0.0
 10
1200.349948256868
 20
550.684246424923
 30
0.0
  0
LINE
  5
E5
330
1F
100
AcDbEntity
  8
0
  6
Continuous
 62
     7
370
    30
100
AcDbLine
 10
1181.7999482569
 20
548.7236652504
 30
0.0
 11
1198.9999482569
 21
548.7236652504
 31
0.0
  0
SPLINE
  5
E6
330
1F
100
AcDbEntity
  8
0
  6
Continuous
 62
     7
370
    30
100
AcDbSpline
210
0.0
220
0.0
230
1.0
 70
    24
 71
     3
 72
   150
 73
   146
 74
     0
 42
0.000000001
 43
0.00000001
 40
0.0
 40
0.0
 40
0.0
 40
0.0
 40
0.0087043620139519
 40
0.0173952319656994
 40
0.0260771839679721
 40
0.0347548062358901
 40
0.0434326938522916
 40
0.0491170622529161
 40
0.0548048024795335
 40
0.0604972004400538
 40
0.066195538889144
 40
0.07205757693231
 40
0.0780986897790178
 40
0.0871477272140859
 40
0.0961863399030637
 40
0.1052197081517614
 40
0.1142530212885317
 40
0.1178030122422231
 40
0.1213541100254941
 40
0.1249066287131557
 40
0.1284608820033402
 40
0.1320171831351568
 40
0.1355758448069518
 40
0.1391371790952791
 40
0.1427014973746838
 40
0.1512877675224229
 40
0.1598591208013397
 40
0.1684199389801718
 40
0.1769746200161332
 40
0.185527571333663
 40
0.19112896394937
 40
0.1967327429232128
 40
0.2023401438776567
 40
0.207952400042867
 40
0.2135707414518426
 40
0.2191963941460204
 40
0.2279664055878229
 40
0.2367205112996591
 40
0.2454633786544342
 40
0.2541996930373371
 40
0.2629341503791051
 40
0.2715153810723209
 40
0.280103800482958
 40
0.2887038448750187
 40
0.2973199325560614
 40
0.3060899441284189
 40
0.3148440499134496
 40
0.3235869173004639
 40
0.3323232316911847
 40
0.3410576890329603
 40
0.3467779988774101
 40
0.3525008453306335
 40
0.3582275448461746
 40
0.3639594112227476
 40
0.3696977547101961
 40
0.3754438811275715
 40
0.3840301516344609
 40
0.3926015051145684
 40
0.4011623233818807
 40
0.4097170044392006
 40
0.4182699557567581
 40
0.4224708417297717
 40
0.4266728961385128
 40
0.4308766405693805
 40
0.435082595980028
 40
0.4392912825070732
 40
0.4435032192753284
 40
0.4477189242088955
 40
0.4519389138444631
 40
0.4611677043728252
 40
0.4703805717440817
 40
0.4795829662941858
 40
0.488780356977562
 40
0.4979782216743798
 40
0.5040036011193566
 40
0.5100330672561048
 40
0.5160681522568927
 40
0.5221103840195429
 40
0.5279994985068726
 40
0.5336970350179839
 40
0.5424068805251983
 40
0.5511077794184042
 40
0.5598043509820388
 40
0.5685012213958391
 40
0.5772030163629037
 40
0.5859143537415503
 40
0.5946398362394851
 40
0.6033435035782947
 40
0.6120338762960715
 40
0.6207155301366835
 40
0.6293930546366581
 40
0.638071045884189
 40
0.6437555915924064
 40
0.6494435958839984
 40
0.6551363447257065
 40
0.6608351208723553
 40
0.6666974308044548
 40
0.6727385436511467
 40
0.6817875810861973
 40
0.6908261937751645
 40
0.6998595620238582
 40
0.708892875160631
 40
0.7124428661143253
 40
0.7159939638976002
 40
0.7195464825852668
 40
0.7231007358754571
 40
0.7266570370072805
 40
0.7302156986790833
 40
0.7337770329674193
 40
0.7373413512468331
 40
0.7459276213947351
 40
0.7544989746737734
 40
0.7630597928526859
 40
0.7716144738886864
 40
0.7801674252062148
 40
0.785768817821899
 40
0.7913725967957019
 40
0.7969799977500888
 40
0.8025922539152249
 40
0.8082105953241098
 40
0.8138362480181798
 40
0.8226062594599044
 40
0.8313603651716834
 40
0.8401032325264212
 40
0.848839546909306
 40
0.8575740042510748
 40
0.8661552349443088
 40
0.8747436543549808
 40
0.8833436987470927
 40
0.8919597864282022
 40
0.900729798000191
 40
0.9094839037849453
 40
0.9182267711717758
 40
0.926963085562406
 40
0.9356975429041853
 40
0.9414178527486882
 40
0.9471406992020049
 40
0.9528673987176798
 40
0.958599265094427
 40
0.9643376085820901
 40
0.9700837349997206
 40
0.97867000550648
 40
0.9872413589864901
 40
0.9958021772537378
 40
0.9999999999999999
 40
0.9999999999999999
 40
0.9999999999999999
 40
0.9999999999999999
 10
851.8999482568681
 20
578.0403956578592
 30
0.0
 10
851.8999482568681
 20
578.1575398157862
 30
0.0
 10
851.899948256868
 20
578.3916465541433
 30
0.0
 10
851.8999482568681
 20
578.7608364680897
 30
0.0
 10
851.899948256868
 20
579.142799731056
 30
0.0
 10
851.8999482568681
 20
579.5388517226788
 30
0.0
 10
851.899948256868
 20
579.9014538497298
 30
0.0
 10
851.899948256868
 20
580.225655977167
 30
0.0
 10
851.8999482568681
 20
580.5073376794109
 30
0.0
 10
851.8999482568681
 20
580.7949386446231
 30
0.0
 10
851.899948256868
 20
581.0911458558693
 30
0.0
 10
851.899948256868
 20
581.3991190500428
 30
0.0
 10
851.8999482568681
 20
581.7727100258555
 30
0.0
 10
851.8999482568681
 20
582.2130723911505
 30
0.0
 10
851.8999482568681
 20
582.7214526477219
 30
0.0
 10
851.8999482568681
 20
583.242672104971
 30
0.0
 10
851.899948256868
 20
583.6685965103482
 30
0.0
 10
851.8999482568681
 20
583.9916822264241
 30
0.0
 10
851.899948256868
 20
584.2069321744115
 30
0.0
 10
851.8999482568681
 20
584.4241624868525
 30
0.0
 10
851.8999482568681
 20
584.6433735062355
 30
0.0
 10
851.899948256868
 20
584.8645651610591
 30
0.0
 10
851.8999482568681
 20
585.0877373594767
 30
0.0
 10
851.899948256868
 20
585.3128905050834
 30
0.0
 10
851.8999482568681
 20
585.6466228726472
 30
0.0
 10
851.8999482568681
 20
586.0926272418515
 30
0.0
 10
851.8999482568681
 20
586.6561866676948
 30
0.0
 10
851.899948256868
 20
587.2288048784768
 30
0.0
 10
851.8999482568681
 20
587.8104780277748
 30
0.0
 10
851.899948256868
 20
588.333208963696
 30
0.0
 10
851.8999482568681
 20
588.7936525283128
 30
0.0
 10
851.899948256868
 20
589.1891689351401
 30
0.0
 10
851.8999482568681
 20
589.5885659849079
 30
0.0
 10
851.8999482568681
 20
589.9918439742678
 30
0.0
 10
851.8999482568681
 20
590.3990034857036
 30
0.0
 10
851.8999482568681
 20
590.8864089684891
 30
0.0
 10
851.899948256868
 20
591.4558995164649
 30
0.0
 10
851.8999482568681
 20
592.1096611544504
 30
0.0
 10
851.8999482568681
 20
592.7698409802595
 30
0.0
 10
851.899948256868
 20
593.4364370097691
 30
0.0
 10
851.8999482568681
 20
594.1054415911439
 30
0.0
 10
851.8999482568681
 20
594.7767153968045
 30
0.0
 10
851.8999482568681
 20
595.4501353235562
 30
0.0
 10
851.8999482568681
 20
596.1297425900593
 30
0.0
 10
851.8999482568681
 20
596.8190763458324
 30
0.0
 10
851.8999482568681
 20
597.5171368178017
 30
0.0
 10
851.8999482568681
 20
598.2229420313812
 30
0.0
 10
851.8999482568681
 20
598.9318320001523
 30
0.0
 10
851.8999482568681
 20
599.6438045708741
 30
0.0
 10
851.8999482568681
 20
600.276550092386
 30
0.0
 10
851.8999482568681
 20
600.8288787419905
 30
0.0
 10
851.899948256868
 20
601.2999901429679
 30
0.0
 10
851.8999482568681
 20
601.7724221388335
 30
0.0
 10
851.899948256868
 20
602.2461751886435
 30
0.0
 10
851.8999482568681
 20
602.7212497946632
 30
0.0
 10
851.899948256868
 20
603.2758752371333
 30
0.0
 10
851.8999482568681
 20
603.9097397655261
 30
0.0
 10
851.8999482568681
 20
604.6224072557478
 30
0.0
 10
851.899948256868
 20
605.3347483958648
 30
0.0
 10
851.8999482568681
 20
606.0467587272708
 30
0.0
 10
851.899948256868
 20
606.637682266886
 30
0.0
 10
851.8999482568681
 20
607.1076143162377
 30
0.0
 10
851.8999482568681
 20
607.4568334015908
 30
0.0
 10
851.8999482568681
 20
607.8059725736592
 30
0.0
 10
851.8999482568681
 20
608.1550323990732
 30
0.0
 10
851.8999482568681
 20
608.5040127472057
 30
0.0
 10
851.8999482568681
 20
608.8529134792798
 30
0.0
 10
851.899948256868
 20
609.2017351890935
 30
0.0
 10
851.8999482568681
 20
609.6883136560242
 30
0.0
 10
851.899948256868
 20
610.3112056462028
 30
0.0
 10
851.8999482568681
 20
611.0683048254697
 30
0.0
 10
851.899948256868
 20
611.8213614430625
 30
0.0
 10
851.8999482568681
 20
612.5703694488278
 30
0.0
 10
851.899948256868
 20
613.22954245893
 30
0.0
 10
851.8999482568681
 20
613.8003078908499
 30
0.0
 10
851.899948256868
 20
614.2840719823221
 30
0.0
 10
851.8999482568681
 20
614.7661007685748
 30
0.0
 10
851.8999482568681
 20
615.2421077727862
 30
0.0
 10
851.8999482568681
 20
615.7068518556573
 30
0.0
 10
851.899948256868
 20
616.2391946836968
 30
0.0
 10
851.8999482568681
 20
616.8412545212241
 30
0.0
 10
851.8999482568681
 20
617.5155427190691
 30
0.0
 10
851.8999482568681
 20
618.1832293373634
 30
0.0
 10
851.8999482568681
 20
618.844312176435
 30
0.0
 10
851.8999482568681
 20
619.4987912064263
 30
0.0
 10
851.8999482568681
 20
620.1466654460055
 30
0.0
 10
851.8999482568681
 20
620.786942734126
 30
0.0
 10
851.899948256868
 20
621.4187762823783
 30
0.0
 10
851.8999482568681
 20
622.0412704591438
 30
0.0
 10
851.899948256868
 20
622.6545222338542
 30
0.0
 10
851.8999482568681
 20
623.2585293682124
 30
0.0
 10
851.899948256868
 20
623.7848052858451
 30
0.0
 10
851.8999482568681
 20
624.2366793195541
 30
0.0
 10
851.899948256868
 20
624.6170817540481
 30
0.0
 10
851.8999482568681
 20
624.9935219385155
 30
0.0
 10
851.8999482568681
 20
625.3694026736877
 30
0.0
 10
851.899948256868
 20
625.7482493045926
 30
0.0
 10
851.8999482568681
 20
626.193426574643
 30
0.0
 10
851.8999482568681
 20
626.6974706851114
 30
0.0
 10
851.899948256868
 20
627.2520168902735
 30
0.0
 10
851.8999482568681
 20
627.7939066837888
 30
0.0
 10
851.8999482568681
 20
628.2159822116992
 30
0.0
 10
851.8999482568681
 20
628.525635975305
 30
0.0
 10
851.899948256868
 20
628.7280866063328
 30
0.0
 10
851.8999482568681
 20
628.9285845433164
 30
0.0
 10
851.899948256868
 20
629.1271301731111
 30
0.0
 10
851.899948256868
 20
629.323723404625
 30
0.0
 10
851.8999482568681
 20
629.5183641927978
 30
0.0
 10
851.8999482568681
 20
629.7110527884028
 30
0.0
 10
851.8999482568681
 20
629.991305837969
 30
0.0
 10
851.899948256868
 20
630.3539105946644
 30
0.0
 10
851.8999482568681
 20
630.7913293122272
 30
0.0
 10
851.899948256868
 20
631.2153544266096
 30
0.0
 10
851.8999482568681
 20
631.6259828200622
 30
0.0
 10
851.899948256868
 20
631.9774899182545
 30
0.0
 10
851.8999482568681
 20
632.274705381817
 30
0.0
 10
851.899948256868
 20
632.5217639497735
 30
0.0
 10
851.8999482568681
 20
632.7630806790573
 30
0.0
 10
851.899948256868
 20
632.9986559397191
 30
0.0
 10
851.8999482568681
 20
633.2284897314189
 30
0.0
 10
851.899948256868
 20
633.4942159596972
 30
0.0
 10
851.8999482568681
 20
633.7909305264961
 30
0.0
 10
851.8999482568681
 20
634.1126080675953
 30
0.0
 10
851.899948256868
 20
634.4186874855912
 30
0.0
 10
851.8999482568681
 20
634.7091672289171
 30
0.0
 10
851.899948256868
 20
634.9824105380228
 30
0.0
 10
851.8999482568681
 20
635.2387385001783
 30
0.0
 10
851.8999482568681
 20
635.4784757456949
 30
0.0
 10
851.8999482568681
 20
635.7031646961565
 30
0.0
 10
851.899948256868
 20
635.9138902722962
 30
0.0
 10
851.8999482568681
 20
636.1100559231763
 30
0.0
 10
851.899948256868
 20
636.2909459875357
 30
0.0
 10
851.8999482568681
 20
636.4552536490916
 30
0.0
 10
851.8999482568681
 20
636.6029777498777
 30
0.0
 10
851.899948256868
 20
636.7190225445703
 30
0.0
 10
851.899948256868
 20
636.8094001894787
 30
0.0
 10
851.8999482568681
 20
636.8791646834528
 30
0.0
 10
851.8999482568681
 20
636.9418222628826
 30
0.0
 10
851.899948256868
 20
636.9973702245703
 30
0.0
 10
851.8999482568681
 20
637.0458193120238
 30
0.0
 10
851.899948256868
 20
637.0939130375649
 30
0.0
 10
851.8999482568681
 20
637.1371359414516
 30
0.0
 10
851.8999482568681
 20
637.1687074060195
 30
0.0
 10
851.8999482568681
 20
637.184180942767
 30
0.0
 10
851.8999482568681
 20
637.1829963904773
 30
0.0
 10
851.8999482568681
 20
637.1826066514337
 30
0.0
  0
SPLINE
  5
E7
330
1F
100
AcDbEntity
  8
0
  6
Continuous
 62
     7
370
    30
100
AcDbSpline
210
0.0
220
0.0
230
1.0
 70
    24
 71
     3
 72
    35
 73
    31
 74
     0
 42
0.000000001
 43
0.00000001
 40
0.0
 40
0.0
 40
0.0
 40
0.0
 40
0.0230180950847836
 40
0.0682049321717376
 40
0.0903989963066928
 40
0.1125992335056523
 40
0.1348083994068471
 40
0.1570292463267265
 40
0.1792645222440567
 40
0.2015169697920475
 40
0.2237893252603299
 40
0.2460843176085725
 40
0.2948417393017594
 40
0.3435150359861065
 40
0.3921330028030429
 40
0.4407245332588536
 40
0.4893185680161994
 40
0.5211517714636569
 40
0.5530065656660333
 40
0.5848910453752016
 40
0.6168132827603392
 40
0.6479278102401639
 40
0.6780313069239376
 40
0.7240497516174433
 40
0.7700198552091951
 40
0.8159660241593139
 40
0.8619127030695314
 40
0.9078843357280921
 40
0.953905326161133
 40
1.0
 40
1.0
 40
1.0
 40
1.0
 10
851.8999482568681
 20
574.1858860632886
 30
0.0
 10
851.8999482568681
 20
574.1854936208626
 30
0.0
 10
851.8999482568681
 20
574.1843307744607
 30
0.0
 10
851.8999482568681
 20
574.1969616459659
 30
0.0
 10
851.8999482568681
 20
574.2153614765343
 30
0.0
 10
851.8999482568681
 20
574.2332069990929
 30
0.0
 10
851.8999482568681
 20
574.2548766755532
 30
0.0
 10
851.8999482568681
 20
574.2804629575849
 30
0.0
 10
851.8999482568681
 20
574.3099410893327
 30
0.0
 10
851.8999482568681
 20
574.3433175644612
 30
0.0
 10
851.8999482568681
 20
574.3805911577839
 30
0.0
 10
851.899948256868
 20
574.438032136525
 30
0.0
 10
851.8999482568681
 20
574.5227033419079
 30
0.0
 10
851.8999482568681
 20
574.6444180692602
 30
0.0
 10
851.8999482568681
 20
574.7843797761669
 30
0.0
 10
851.8999482568681
 20
574.9425884623661
 30
0.0
 10
851.8999482568681
 20
575.0987243629235
 30
0.0
 10
851.8999482568681
 20
575.2461456155797
 30
0.0
 10
851.899948256868
 20
575.3793635942924
 30
0.0
 10
851.8999482568681
 20
575.5204010239268
 30
0.0
 10
851.899948256868
 20
575.6679335873278
 30
0.0
 10
851.8999482568681
 20
575.8199798547456
 30
0.0
 10
851.8999482568681
 20
576.0031491855458
 30
0.0
 10
851.899948256868
 20
576.2231749094925
 30
0.0
 10
851.8999482568681
 20
576.4873399330318
 30
0.0
 10
851.899948256868
 20
576.7668604350408
 30
0.0
 10
851.8999482568681
 20
577.0616407459121
 30
0.0
 10
851.899948256868
 20
577.372034496884
 30
0.0
 10
851.8999482568681
 20
577.6967194823187
 30
0.0
 10
851.8999482568681
 20
577.9257758585427
 30
0.0
 10
851.8999482568681
 20
578.0403956578592
 30
0.0
  0
LINE
  5
E8
330
1F
100
AcDbEntity
  8
0
  6
Continuous
 62
     7
370
    30
100
AcDbLine
 10
841.8999482569
 20
638.1842463574
 30
0.0
 11
841.8999482569
 21
573.1842463574
 31
0.0
  0
LINE
  5
E9
330
1F
100
AcDbEntity
  8
0
  6
Continuous
 62
     7
370
    30
100
AcDbLine
 10
1178.8999482569
 20
561.7946117769
 30
0.0
 11
1201.8999482569
 21
561.7946117769
 31
0.0
  0
LINE
  5
EA
330
1F
100
AcDbEntity
  8
0
  6
Continuous
 62
     7
370
    30
100
AcDbLine
 10
142.6000517431
 20
529.4388990999
 30
0.0
 11
142.6000517431
 21
542.1401530948
 31
0.0
  0
LINE
  5
EB
330
1F
100
AcDbEntity
  8
0
  6
Continuous
 62
     7
370
    30
100
AcDbLine
 10
110.6000517431
 20
542.1401530948
 30
0.0
 11
110.6000517431
 21
529.4388990999
 31
0.0
  0
SPLINE
  5
EC
330
1F
100
AcDbEntity
  8
0
  6
Continuous
 62
     7
370
    30
100
AcDbSpline
210
0.0
220
0.0
230
1.0
 70
     8
 71
     3
 72
    28
 73
    24
 74
     0
 42
0.000000001
 43
0.00000001
 40
0.0
 40
0.0
 40
0.0
 40
0.0
 40
0.0708120076063688
 40
0.1367841234742063
 40
0.197910788238139
 40
0.2541923340121804
 40
0.3056299350979994
 40
0.3522240935144488
 40
0.4017395627382914
 40
0.4442803667071408
 40
0.4829734417907929
 40
0.522457882617336
 40
0.5627764644884631
 40
0.6318054226448113
 40
0.7029887871422913
 40
0.7697366414013139
 40
0.7959337394792784
 40
0.8206789983029931
 40
0.8439723830679862
 40
0.8699620438872522
 40
0.9045820090427255
 40
0.9479222718475845
 40
1.0
 40
1.0
 40
1.0
 40
1.0
 10
142.6002114210839
 20
542.1388990998593
 30
0.0
 10
142.5990268970093
 20
542.1760153759537
 30
0.0
 10
142.5967388092574
 20
542.2477110877943
 30
0.0
 10
142.5792432960949
 20
542.3501998479259
 30
0.0
 10
142.5543734543671
 20
542.4431061639202
 30
0.0
 10
142.5235102343271
 20
542.5261377598154
 30
0.0
 10
142.4890284394626
 20
542.5993501137606
 30
0.0
 10
142.4507647258055
 20
542.6665892856944
 30
0.0
 10
142.410137883355
 20
542.7268916426035
 30
0.0
 10
142.3678305775129
 20
542.7808242131716
 30
0.0
 10
142.3256806910866
 20
542.828022511925
 30
0.0
 10
142.2815402001809
 20
542.8717296674414
 30
0.0
 10
142.2227770828792
 20
542.9230445573526
 30
0.0
 10
142.1463065525244
 20
542.9790315028584
 30
0.0
 10
142.0521201793335
 20
543.0331786800666
 30
0.0
 10
141.9732152124941
 20
543.0677768219101
 30
0.0
 10
141.9150794835544
 20
543.0883471987722
 30
0.0
 10
141.8779161822233
 20
543.0998444127267
 30
0.0
 10
141.840452297188
 20
543.1098975041963
 30
0.0
 10
141.7975776587527
 20
543.1196488768213
 30
0.0
 10
141.7441246318015
 20
543.129087787362
 30
0.0
 10
141.6768087915596
 20
543.1371362175247
 30
0.0
 10
141.6272393785216
 20
543.1382766620858
 30
0.0
 10
141.6001851260585
 20
543.1388990998593
 30
0.0
  0
SPLINE
  5
ED
330
1F
100
AcDbEntity
  8
0
  6
Continuous
 62
     7
370
    30
100
AcDbSpline
210
0.0
220
0.0
230
1.0
 70
     8
 71
     3
 72
    28
 73
    24
 74
     0
 42
0.000000001
 43
0.00000001
 40
0.0
 40
0.0
 40
0.0
 40
0.0
 40
0.0384045931276448
 40
0.0701048853928975
 40
0.0951299190613052
 40
0.1136945780123165
 40
0.1306196217722782
 40
0.1657583017999552
 40
0.2034092186664727
 40
0.2629812663836682
 40
0.3216541026322979
 40
0.3793121721630601
 40
0.4135708099325779
 40
0.4522324676804467
 40
0.4975197095090446
 40
0.5494310075499276
 40
0.6079642899980261
 40
0.6618059238181481
 40
0.7202457378809533
 40
0.7832842500081606
 40
0.8509231678524374
 40
0.9231636678217849
 40
0.9999999999999999
 40
0.9999999999999999
 40
0.9999999999999999
 40
0.9999999999999999
 10
111.5999183602056
 20
543.1388990998593
 30
0.0
 10
111.580096219819
 20
543.1385656527374
 30
0.0
 10
111.5439122957914
 20
543.1379569684539
 30
0.0
 10
111.4947401499645
 20
543.1336698972738
 30
0.0
 10
111.4558307289288
 20
543.1286867197089
 30
0.0
 10
111.4245233511854
 20
543.1235540167021
 30
0.0
 10
111.3881834142537
 20
543.1165554639226
 30
0.0
 10
111.3423987811131
 20
543.1057745391772
 30
0.0
 10
111.2758776197727
 20
543.0860303419994
 30
0.0
 10
111.1994542306108
 20
543.0568214167041
 30
0.0
 10
111.1166767617471
 20
543.0160014937298
 30
0.0
 10
111.0492932881924
 20
542.9747226491085
 30
0.0
 10
110.9936584941161
 20
542.9348483128367
 30
0.0
 10
110.9454325518846
 20
542.8959202343625
 30
0.0
 10
110.8930614410857
 20
542.8476141692081
 30
0.0
 10
110.8374120567266
 20
542.7878117973985
 30
0.0
 10
110.7843741247646
 20
542.71985098267
 30
0.0
 10
110.7356859585404
 20
542.644624536652
 30
0.0
 10
110.6927168233979
 20
542.5632879082605
 30
0.0
 10
110.6548878530097
 20
542.4715056717732
 30
0.0
 10
110.6248511229828
 20
542.3693566031532
 30
0.0
 10
110.6039987125973
 20
542.2573461611561
 30
0.0
 10
110.6012887953178
 20
542.1791846572524
 30
0.0
 10
110.5998920651802
 20
542.1388990998593
 30
0.0
  0
LINE
  5
EE
330
1F
100
AcDbEntity
  8
0
  6
Continuous
 62
     7
370
    30
100
AcDbLine
 10
109.1000517431
 20
529.1388990999
 30
0.0
 11
109.1000517431
 21
524.7388990999
 31
0.0
  0
LINE
  5
EF
330
1F
100
AcDbEntity
  8
0
  6
Continuous
 62
     7
370
    30
100
AcDbLine
 10
144.1000517431
 20
524.7388990999
 30
0.0
 11
144.1000517431
 21
529.1388990999
 31
0.0
  0
SPLINE
  5
F0
330
1F
100
AcDbEntity
  8
0
  6
Continuous
 62
     7
370
    30
100
AcDbSpline
210
0.0
220
0.0
230
1.0
 70
     8
 71
     3
 72
    21
 73
    17
 74
     0
 42
0.000000001
 43
0.00000001
 40
0.0
 40
0.0
 40
0.0
 40
0.0
 40
0.0830122380635323
 40
0.1577823654833825
 40
0.2248324205345428
 40
0.2843369408866926
 40
0.3519417566123816
 40
0.4060579830670596
 40
0.4513781564351662
 40
0.508305309308756
 40
0.5791370190846516
 40
0.6637675617690787
 40
0.7362090525639604
 40
0.8162601547777016
 40
0.9040219633969485
 40
0.9999999999999999
 40
0.9999999999999999
 40
0.9999999999999999
 40
0.9999999999999999
 10
109.0998792603635
 20
524.7388990998592
 30
0.0
 10
109.1004445921523
 20
524.7258828660946
 30
0.0
 10
109.1015191251249
 20
524.7011427530585
 30
0.0
 10
109.1093220513988
 20
524.6666315034381
 30
0.0
 10
109.1195888340248
 20
524.6367603650621
 30
0.0
 10
109.1324167167085
 20
524.6091187745218
 30
0.0
 10
109.1468349210063
 20
524.5845903284508
 30
0.0
 10
109.1620957078702
 20
524.5632793156168
 30
0.0
 10
109.1777730796187
 20
524.5444060193475
 30
0.0
 10
109.1966095047837
 20
524.5248252276674
 30
0.0
 10
109.2218054255766
 20
524.5029698563053
 30
0.0
 10
109.2512843935131
 20
524.4826310014566
 30
0.0
 10
109.2841420135425
 20
524.4650967721965
 30
0.0
 10
109.3192757538295
 20
524.4513784460238
 30
0.0
 10
109.3595531809581
 20
524.4410883274728
 30
0.0
 10
109.3883744680146
 20
524.4396503467409
 30
0.0
 10
109.4034295070603
 20
524.4388992055437
 30
0.0
  0
SPLINE
  5
F1
330
1F
100
AcDbEntity
  8
0
  6
Continuous
 62
     7
370
    30
100
AcDbSpline
210
0.0
220
0.0
230
1.0
 70
     8
 71
     3
 72
    21
 73
    17
 74
     0
 42
0.000000001
 43
0.00000001
 40
0.0
 40
0.0
 40
0.0
 40
0.0
 40
0.0828958471550594
 40
0.1577686769156971
 40
0.225008303497718
 40
0.2847246361178402
 40
0.3526105785444737
 40
0.407011032260344
 40
0.4523979502487991
 40
0.509249308037677
 40
0.5799815009909696
 40
0.6644269477218508
 40
0.7366558573512813
 40
0.8164537838081406
 40
0.9040057248929196
 40
0.9999999999999999
 40
0.9999999999999999
 40
0.9999999999999999
 40
0.9999999999999999
 10
143.7966739791338
 20
524.4388992055436
 30
0.0
 10
143.8096764318225
 20
524.4394599123367
 30
0.0
 10
143.834422903784
 20
524.4405270583023
 30
0.0
 10
143.8690100937129
 20
524.4481309882432
 30
0.0
 10
143.8990575064908
 20
524.4581420616598
 30
0.0
 10
143.9269542144501
 20
524.470673761889
 30
0.0
 10
143.9517928581587
 20
524.4847940743077
 30
0.0
 10
143.9734187675221
 20
524.4997678941321
 30
0.0
 10
143.9925708295211
 20
524.5151488019035
 30
0.0
 10
144.0124482443444
 20
524.5336277073025
 30
0.0
 10
144.0346871578923
 20
524.5583960482072
 30
0.0
 10
144.0554512781614
 20
524.5874763899695
 30
0.0
 10
144.0733937309484
 20
524.6199974140543
 30
0.0
 10
144.0874566164531
 20
524.6548846768518
 30
0.0
 10
144.0980146579525
 20
524.6950388732864
 30
0.0
 10
144.0994654597108
 20
524.7238374870091
 30
0.0
 10
144.1002242259006
 20
524.7388990998592
 30
0.0
  0
SPLINE
  5
F2
330
1F
100
AcDbEntity
  8
0
  6
Continuous
 62
     7
370
    30
100
AcDbSpline
210
0.0
220
0.0
230
1.0
 70
     8
 71
     3
 72
    21
 73
    17
 74
     0
 42
0.000000001
 43
0.00000001
 40
0.0
 40
0.0
 40
0.0
 40
0.0
 40
0.0827714594985847
 40
0.1579642008247183
 40
0.225465057964378
 40
0.2852460022569061
 40
0.3529556386247291
 40
0.4070298167424027
 40
0.4521314314833491
 40
0.5086415571220666
 40
0.5789841879452823
 40
0.6632198616043496
 40
0.7356026833366505
 40
0.8158977004700586
 40
0.9040809332379063
 40
1.0
 40
1.0
 40
1.0
 40
1.0
 10
109.3995809400071
 20
529.4388990998592
 30
0.0
 10
109.3865789763107
 20
529.4384053323807
 30
0.0
 10
109.3617655343718
 20
529.4374630077485
 30
0.0
 10
109.3269329026229
 20
529.430503159158
 30
0.0
 10
109.2965268146812
 20
529.4211076307978
 30
0.0
 10
109.2683050519691
 20
529.4091377925811
 30
0.0
 10
109.243250513282
 20
529.3954391479875
 30
0.0
 10
109.2215473089493
 20
529.380713468042
 30
0.0
 10
109.2024407679209
 20
529.365445679001
 30
0.0
 10
109.1827447766615
 20
529.3469373212943
 30
0.0
 10
109.160941228303
 20
529.3218976049933
 30
0.0
 10
109.1409308494014
 20
529.2922930913091
 30
0.0
 10
109.1239823803446
 20
529.2590967207449
 30
0.0
 10
109.1109834353899
 20
529.2235165878192
 30
0.0
 10
109.1015115831417
 20
529.1828960067099
 30
0.0
 10
109.1002368674032
 20
529.153969886426
 30
0.0
 10
109.099572728257
 20
529.1388990998593
 30
0.0
  0
SPLINE
  5
F3
330
1F
100
AcDbEntity
  8
0
  6
Continuous
 62
     7
370
    30
100
AcDbSpline
210
0.0
220
0.0
230
1.0
 70
     8
 71
     3
 72
    21
 73
    17
 74
     0
 42
0.000000001
 43
0.00000001
 40
0.0
 40
0.0
 40
0.0
 40
0.0
 40
0.0827703472902611
 40
0.157962021302726
 40
0.2254619081062566
 40
0.2852419742973689
 40
0.3529505073397313
 40
0.407023522197476
 40
0.4521250272362338
 40
0.5086357170112549
 40
0.5789788609183691
 40
0.663215230505486
 40
0.7355988222076574
 40
0.8158948857957357
 40
0.9040794363748336
 40
1.0
 40
1.0
 40
1.0
 40
1.0
 10
144.100530758007
 20
529.1388990998593
 30
0.0
 10
144.1000369628444
 20
529.1519008902028
 30
0.0
 10
144.0990945857183
 20
529.1767139923638
 30
0.0
 10
144.0921343708078
 20
529.2115460622161
 30
0.0
 10
144.0827383954942
 20
529.2419515368873
 30
0.0
 10
144.0707680587059
 20
529.2701725890572
 30
0.0
 10
144.057068958217
 20
529.2952263185598
 30
0.0
 10
144.0423428501331
 20
529.3169287818079
 30
0.0
 10
144.0270745524227
 20
529.336034774913
 30
0.0
 10
144.0085654673299
 20
529.3557302933577
 30
0.0
 10
143.9835248381668
 20
529.3775332178818
 30
0.0
 10
143.9539194562893
 20
529.3975428608725
 30
0.0
 10
143.9207222848197
 20
529.4144906157075
 30
0.0
 10
143.8851414157671
 20
529.4274889647038
 30
0.0
 10
143.8445201255758
 20
529.4369603463538
 30
0.0
 10
143.8155935663117
 20
529.4382349953013
 30
0.0
 10
143.800522546257
 20
529.4388990998592
 30
0.0
  0
ARC
  5
F4
330
1F
100
AcDbEntity
  8
0
  6
Continuous
 62
     7
370
    30
100
AcDbCircle
 10
126.6000517431
 20
536.9388990999
 30
0.0
 40
12.40000000001765
100
AcDbArc
 50
30.0059436682
 51
46.0883449992
  0
LINE
  5
F5
330
1F
100
AcDbEntity
  8
0
  6
Continuous
 62
     7
370
    30
100
AcDbLine
 10
138.0000517431
 20
553.6842463574
 30
0.0
 11
138.0000517431
 21
561.7946117769
 31
0.0
  0
LINE
  5
F6
330
1F
100
AcDbEntity
  8
0
  6
Continuous
 62
     7
370
    30
100
AcDbLine
 10
115.2000517431
 20
561.7946117769
 30
0.0
 11
115.2000517431
 21
553.6842463574
 31
0.0
  0
LINE
  5
F7
330
1F
100
AcDbEntity
  8
0
  6
Continuous
 62
     7
370
    30
100
AcDbLine
 10
116.6500517431
 20
549.6689454291
 30
0.0
 11
118.0000517431
 21
548.7236652504
 31
0.0
  0
LINE
  5
F8
330
1F
100
AcDbEntity
  8
0
  6
Continuous
 62
     7
370
    30
100
AcDbLine
 10
135.2000517431
 20
548.7236652504
 30
0.0
 11
136.5500517431
 21
549.6689454291
 31
0.0
  0
LINE
  5
F9
330
1F
100
AcDbEntity
  8
0
  6
Continuous
 62
     7
370
    30
100
AcDbLine
 10
135.2000517431
 20
545.8719836736
 30
0.0
 11
135.2000517431
 21
548.7236652504
 31
0.0
  0
LINE
  5
FA
330
1F
100
AcDbEntity
  8
0
  6
Continuous
 62
     7
370
    30
100
AcDbLine
 10
118.0000517431
 20
548.7236652504
 30
0.0
 11
118.0000517431
 21
545.8719836736
 31
0.0
  0
ARC
  5
FB
330
1F
100
AcDbEntity
  8
0
  6
Continuous
 62
     7
370
    30
100
AcDbCircle
 10
466.1000517431
 20
637.1842463574
 30
0.0
 40
1.0
100
AcDbArc
 50
90.0
 51
180.0
  0
ARC
  5
FC
330
1F
100
AcDbEntity
  8
0
  6
Continuous
 62
     7
370
    30
100
AcDbCircle
 10
466.1000517431
 20
574.1842463574
 30
0.0
 40
1.0
100
AcDbArc
 50
180.0
 51
270.0
  0
LINE
  5
FD
330
1F
100
AcDbEntity
  8
0
  6
Continuous
 62
     7
370
    30
100
AcDbLine
 10
475.1000517431
 20
638.1842463574
 30
0.0
 11
466.1000517431
 21
638.1842463574
 31
0.0
  0
LINE
  5
FE
330
1F
100
AcDbEntity
  8
0
  6
Continuous
 62
     7
370
    30
100
AcDbLine
 10
466.1000517431
 20
573.1842463574
 30
0.0
 11
475.1000517431
 21
573.1842463574
 31
0.0
  0
LINE
  5
FF
330
1F
100
AcDbEntity
  8
0
  6
Continuous
 62
     7
370
    30
100
AcDbLine
 10
161.6000517431
 20
594.1842463574
 30
0.0
 11
465.1000517431
 21
594.1842463574
 31
0.0
  0
LINE
  5
100
330
1F
100
AcDbEntity
  8
0
  6
Continuous
 62
     7
370
    30
100
AcDbLine
 10
465.1000517431
 20
617.1842463574
 30
0.0
 11
161.6000517431
 21
617.1842463574
 31
0.0
  0
ARC
  5
101
330
1F
100
AcDbEntity
  8
0
  6
Continuous
 62
     7
370
    30
100
AcDbCircle
 10
161.6000517431
 20
570.6842463574
 30
0.0
 40
46.50000000000003
100
AcDbArc
 50
90.0
 51
180.0
  0
ARC
  5
102
330
1F
100
AcDbEntity
  8
0
  6
Continuous
 62
     7
370
    30
100
AcDbCircle
 10
161.6000517431
 20
570.6842463574
 30
0.0
 40
23.5
100
AcDbArc
 50
90.0
 51
180.0
  0
LINE
  5
103
330
1F
100
AcDbEntity
  8
0
  6
Continuous
 62
     7
370
    30
100
AcDbLine
 10
138.1000517431
 20
561.7946117769
 30
0.0
 11
138.1000517431
 21
570.6842463574
 31
0.0
  0
LINE
  5
104
330
1F
100
AcDbEntity
  8
0
  6
Continuous
 62
     7
370
    30
100
AcDbLine
 10
115.1000517431
 20
570.6842463574
 30
0.0
 11
115.1000517431
 21
561.7946117769
 31
0.0
  0
LINE
  5
105
330
1F
100
AcDbEntity
  8
0
  6
Continuous
 62
     7
370
    30
100
AcDbLine
 10
226.3000517431
 20
524.4388990999
 30
0.0
 11
226.3000517431
 21
516.2388990999
 31
0.0
  0
LINE
  5
106
330
1F
100
AcDbEntity
  8
0
  6
Continuous
 62
     7
370
    30
100
AcDbLine
 10
226.3000517431
 20
524.4388991127
 30
0.0
 11
224.3000517431
 21
524.4388991115
 31
0.0
  0
LINE
  5
107
330
1F
100
AcDbEntity
  8
0
  6
Continuous
 62
     7
370
    30
100
AcDbLine
 10
224.3000517431
 20
524.4388991115
 30
0.0
 11
28.9000518681
 21
524.4388989944
 31
0.0
  0
LINE
  5
108
330
1F
100
AcDbEntity
  8
0
  6
Continuous
 62
     7
370
    30
100
AcDbLine
 10
26.9000517431
 20
516.2388990999
 30
0.0
 11
26.9000517431
 21
524.4388989749
 31
0.0
  0
LINE
  5
109
330
1F
100
AcDbEntity
  8
0
  6
Continuous
 62
     7
370
    30
100
AcDbLine
 10
26.9000517431
 20
524.4388989932
 30
0.0
 11
28.9000518681
 21
524.4388989944
 31
0.0
  0
ARC
  5
10A
330
1F
100
AcDbEntity
  8
0
  6
Continuous
 62
     7
370
    30
100
AcDbCircle
 10
224.3000517431
 20
516.2388990999
 30
0.0
 40
2.000000000000004
100
AcDbArc
 50
269.9999999986
 51
0.0000035695
  0
LINE
  5
10B
330
1F
100
AcDbEntity
  8
0
  6
Continuous
 62
     7
370
    30
100
AcDbLine
 10
28.9000517433
 20
514.2388990999
 30
0.0
 11
224.3000517431
 21
514.2388990999
 31
0.0
  0
ARC
  5
10C
330
1F
100
AcDbEntity
  8
0
  6
Continuous
 62
     7
370
    30
100
AcDbCircle
 10
28.9000517431
 20
516.2388990999
 30
0.0
 40
2.000000000000004
100
AcDbArc
 50
179.9999999986
 51
270.0000000057
  0
SPLINE
  5
10D
330
1F
100
AcDbEntity
  8
0
  6
Continuous
 62
     7
370
    30
100
AcDbSpline
210
0.0
220
0.0
230
1.0
 70
    24
 71
     3
 72
    55
 73
    51
 74
     0
 42
0.000000001
 43
0.00000001
 40
0.0
 40
0.0
 40
0.0
 40
0.0
 40
0.0200278391460695
 40
0.0400167838936
 40
0.0599865793422178
 40
0.0799570273912786
 40
0.0999479280008473
 40
0.1199790204813854
 40
0.1400218641985944
 40
0.1620181848927789
 40
0.1839876025553344
 40
0.2059564286190262
 40
0.2279509766397592
 40
0.2499974680724228
 40
0.2700305175671882
 40
0.2900232992103767
 40
0.3099955219183113
 40
0.3299669554734984
 40
0.3499573719997688
 40
0.3699864874028282
 40
0.3900312269996538
 40
0.4120298458130736
 40
0.4339997402898829
 40
0.4559672563131102
 40
0.4779587483139688
 40
0.5000004847224656
 40
0.5200290542146694
 40
0.5400186644715664
 40
0.5599890603887429
 40
0.5799600438523226
 40
0.5999514150024907
 40
0.6199829135228833
 40
0.6400261592377431
 40
0.6620227369051203
 40
0.6839921779957443
 40
0.705960797419887
 40
0.7279549130370696
 40
0.7500007513965432
 40
0.7700332413680392
 40
0.7900253742471665
 40
0.8099968654857953
 40
0.8299674916695682
 40
0.8499570319516454
 40
0.86998520944849
 40
0.8900310621852775
 40
0.9120310509143396
 40
0.9340015862726684
 40
0.9559690249462427
 40
0.9779597347555181
 40
1.0
 40
1.0
 40
1.0
 40
1.0
 10
141.6001851260238
 20
543.1388990998593
 30
0.0
 10
141.5985435546841
 20
543.1388990998593
 30
0.0
 10
141.5952635999637
 20
543.1388990998593
 30
0.0
 10
141.5716428547788
 20
543.1388990998591
 30
0.0
 10
141.5343210849314
 20
543.1388990998593
 30
0.0
 10
141.4819632021371
 20
543.1388990998593
 30
0.0
 10
141.4149282530606
 20
543.1388990998593
 30
0.0
 10
141.3331805505851
 20
543.1388990998591
 30
0.0
 10
141.2338075684955
 20
543.1388990998593
 30
0.0
 10
141.1152110258578
 20
543.1388990998593
 30
0.0
 10
140.9757251749981
 20
543.1388990998593
 30
0.0
 10
140.8190700785415
 20
543.1388990998593
 30
0.0
 10
140.6452448922926
 20
543.1388990998593
 30
0.0
 10
140.460292435602
 20
543.1388990998593
 30
0.0
 10
140.2664182956118
 20
543.1388990998593
 30
0.0
 10
140.0655672124574
 20
543.1388990998593
 30
0.0
 10
139.8516439326139
 20
543.1388990998593
 30
0.0
 10
139.6246470754274
 20
543.1388990998593
 30
0.0
 10
139.3845790708243
 20
543.1388990998593
 30
0.0
 10
139.1316156021607
 20
543.1388990998593
 30
0.0
 10
138.8575216602989
 20
543.1388990998593
 30
0.0
 10
138.5613380256474
 20
543.1388990998593
 30
0.0
 10
138.2419746401665
 20
543.1388990998593
 30
0.0
 10
137.9087280577398
 20
543.1388990998593
 30
0.0
 10
137.5615989762792
 20
543.1388990998593
 30
0.0
 10
137.2119948557274
 20
543.1388990998591
 30
0.0
 10
136.8620591229567
 20
543.1388990998593
 30
0.0
 10
136.5136882868877
 20
543.1388990998593
 30
0.0
 10
136.1558677713411
 20
543.1388990998593
 30
0.0
 10
135.7885968207611
 20
543.1388990998593
 30
0.0
 10
135.4118778838822
 20
543.1388990998593
 30
0.0
 10
135.0260169969696
 20
543.1388990998593
 30
0.0
 10
134.6187548171828
 20
543.1388990998593
 30
0.0
 10
134.1899247607001
 20
543.1388990998593
 30
0.0
 10
133.7391379874192
 20
543.1388990998593
 30
0.0
 10
133.2798392620228
 20
543.1388990998593
 30
0.0
 10
132.8120307627402
 20
543.1388990998593
 30
0.0
 10
132.350768971133
 20
543.1388990998593
 30
0.0
 10
131.8978378042389
 20
543.1388990998593
 30
0.0
 10
131.4548220339491
 20
543.1388990998593
 30
0.0
 10
131.0074734721172
 20
543.1388990998593
 30
0.0
 10
130.5557920851461
 20
543.1388990998593
 30
0.0
 10
130.0997799193659
 20
543.1388990998591
 30
0.0
 10
129.6397475960856
 20
543.1388990998593
 30
0.0
 10
129.1612439901027
 20
543.1388990998593
 30
0.0
 10
128.6649173418681
 20
543.1388990998593
 30
0.0
 10
128.1512248228383
 20
543.1388990998593
 30
0.0
 10
127.6357489750397
 20
543.1388990998593
 30
0.0
 10
127.1184923887124
 20
543.1388990998593
 30
0.0
 10
126.7729949070643
 20
543.1388990998593
 30
0.0
 10
126.600051743132
 20
543.1388990998593
 30
0.0
  0
LINE
  5
10E
330
1F
100
AcDbEntity
  8
0
  6
Continuous
 62
     7
370
    30
100
AcDbLine
 10
126.6000517431
 20
543.1388990999
 30
0.0
 11
126.5557548483
 21
543.1388990999
 31
0.0
  0
SPLINE
  5
10F
330
1F
100
AcDbEntity
  8
0
  6
Continuous
 62
     7
370
    30
100
AcDbSpline
210
0.0
220
0.0
230
1.0
 70
    24
 71
     3
 72
    53
 73
    49
 74
     0
 42
0.000000001
 43
0.00000001
 40
0.0
 40
0.0
 40
0.0
 40
0.0
 40
0.021373102242092
 40
0.0427028834493823
 40
0.0640103950811598
 40
0.085316754606266
 40
0.1066430829160183
 40
0.1280104416864651
 40
0.1493922571036724
 40
0.1728591899406983
 40
0.1962974472066032
 40
0.2197351100425209
 40
0.2432002617236809
 40
0.2667208870617023
 40
0.2880931034102269
 40
0.3094225045235506
 40
0.3307301216405045
 40
0.352037050506422
 40
0.3733643889089665
 40
0.3947331741837726
 40
0.4161185166099592
 40
0.4395883842671099
 40
0.4630276640776453
 40
0.4864644648023014
 40
0.5099269041118971
 40
0.5334430077110083
 40
0.5548111838001192
 40
0.5761378436693533
 40
0.597444052732744
 40
0.6187509370615222
 40
0.6400796207203695
 40
0.6614511631333682
 40
0.6828350762950268
 40
0.7063030705317694
 40
0.7297423043282184
 40
0.753180848742192
 40
0.7766467773055218
 40
0.8001680654982445
 40
0.8215409248407057
 40
0.8428707748260007
 40
0.8641786425198491
 40
0.8854856200685941
 40
0.9068128022595828
 40
0.9281812240425171
 40
0.9495661377034788
 40
0.9730354876283092
 40
0.9964741659118054
 40
1.0
 40
1.0
 40
1.0
 40
1.0
 10
126.5557548482628
 20
543.1388990998593
 30
0.0
 10
126.3985672128661
 20
543.1388990998593
 30
0.0
 10
126.0845105449104
 20
543.1388990998593
 30
0.0
 10
125.6142639742182
 20
543.1388990998593
 30
0.0
 10
125.1454748885855
 20
543.1388990998591
 30
0.0
 10
124.6781485030782
 20
543.1388990998593
 30
0.0
 10
124.2122849402143
 20
543.1388990998593
 30
0.0
 10
123.7482308056119
 20
543.1388990998591
 30
0.0
 10
123.2715621292285
 20
543.1388990998593
 30
0.0
 10
122.7836238273242
 20
543.1388990998591
 30
0.0
 10
122.2855503765797
 20
543.1388990998593
 30
0.0
 10
121.7926441369376
 20
543.1388990998591
 30
0.0
 10
121.3049092128748
 20
543.1388990998593
 30
0.0
 10
120.8375992782966
 20
543.1388990998593
 30
0.0
 10
120.3910275112916
 20
543.1388990998593
 30
0.0
 10
119.9654867016907
 20
543.1388990998593
 30
0.0
 10
119.5469204153712
 20
543.1388990998593
 30
0.0
 10
119.1353299967713
 20
543.1388990998591
 30
0.0
 10
118.7307158799544
 20
543.1388990998593
 30
0.0
 10
118.3333660688376
 20
543.1388990998593
 30
0.0
 10
117.9310927793585
 20
543.1388990998593
 30
0.0
 10
117.5257679347275
 20
543.1388990998593
 30
0.0
 10
117.1191009076832
 20
543.1388990998593
 30
0.0
 10
116.7238087662367
 20
543.1388990998593
 30
0.0
 10
116.3398956581898
 20
543.1388990998593
 30
0.0
 10
115.9791251060204
 20
543.1388990998593
 30
0.0
 10
115.6409276396872
 20
543.1388990998591
 30
0.0
 10
115.3248123675892
 20
543.1388990998593
 30
0.0
 10
115.0201260384383
 20
543.1388990998593
 30
0.0
 10
114.7268704377848
 20
543.1388990998593
 30
0.0
 10
114.4450449956717
 20
543.1388990998593
 30
0.0
 10
114.1748718440627
 20
543.1388990998593
 30
0.0
 10
113.9082494805841
 20
543.1388990998593
 30
0.0
 10
113.6472625216882
 20
543.1388990998593
 30
0.0
 10
113.3938804496318
 20
543.1388990998593
 30
0.0
 10
113.1562818137884
 20
543.1388990998593
 30
0.0
 10
112.9344701952189
 20
543.1388990998593
 30
0.0
 10
112.7349528150013
 20
543.1388990998593
 30
0.0
 10
112.556392675322
 20
543.1388990998593
 30
0.0
 10
112.397623621055
 20
543.1388990998593
 30
0.0
 10
112.2530191901475
 20
543.1388990998593
 30
0.0
 10
112.1225909429755
 20
543.1388990998593
 30
0.0
 10
112.0063014937295
 20
543.1388990998591
 30
0.0
 10
111.9043637399091
 20
543.1388990998593
 30
0.0
 10
111.8134708899021
 20
543.1388990998593
 30
0.0
 10
111.7376731096211
 20
543.1388990998593
 30
0.0
 10
111.6898511232452
 20
543.1388990998593
 30
0.0
 10
111.6734453869729
 20
543.1388990998593
 30
0.0
 10
111.6713002006113
 20
543.1388990998593
 30
0.0
  0
SPLINE
  5
110
330
1F
100
AcDbEntity
  8
0
  6
Continuous
 62
     7
370
    30
100
AcDbSpline
210
0.0
220
0.0
230
1.0
 70
    24
 71
     3
 72
    10
 73
     6
 74
     0
 42
0.000000001
 43
0.00000001
 40
0.0
 40
0.0
 40
0.0
 40
0.0
 40
0.2675004338872613
 40
0.6333324843872783
 40
1.0
 40
1.0
 40
1.0
 40
1.0
 10
111.666149488426
 20
543.1388990998593
 30
0.0
 10
111.6547133346676
 20
543.1388990998593
 30
0.0
 10
111.6276371629906
 20
543.1388990998593
 30
0.0
 10
111.6046502920405
 20
543.1388990998593
 30
0.0
 10
111.6014968697371
 20
543.1388990998593
 30
0.0
 10
111.5999183602403
 20
543.1388990998593
 30
0.0
  0
LINE
  5
111
330
1F
100
AcDbEntity
  8
0
  6
Continuous
 62
     7
370
    30
100
AcDbLine
 10
132.4310131114
 20
529.1388990999
 30
0.0
 11
132.4310097957
 21
526.9388990999
 31
0.0
  0
LINE
  5
112
330
1F
100
AcDbEntity
  8
0
  6
Continuous
 62
     7
370
    30
100
AcDbLine
 10
120.7690936906
 20
526.9388990999
 30
0.0
 11
120.7690903749
 21
529.1388990999
 31
0.0
  0
LINE
  5
113
330
1F
100
AcDbEntity
  8
0
  6
Continuous
 62
     7
370
    30
100
AcDbLine
 10
132.4310097957
 20
526.9388990999
 30
0.0
 11
120.7690936906
 21
526.9388990999
 31
0.0
  0
SPLINE
  5
114
330
1F
100
AcDbEntity
  8
0
  6
Continuous
 62
     7
370
    30
100
AcDbSpline
210
0.0
220
0.0
230
1.0
 70
    24
 71
     3
 72
    59
 73
    55
 74
     0
 42
0.000000001
 43
0.00000001
 40
0.0
 40
0.0
 40
0.0
 40
0.0
 40
0.0200308885463335
 40
0.040022455064866
 40
0.059994342239461
 40
0.0799662508188922
 40
0.0999578814886529
 40
0.1199888767436981
 40
0.1400364465811912
 40
0.1583738333597442
 40
0.176687563433189
 40
0.1949928097017349
 40
0.2133047661541093
 40
0.2316386100960544
 40
0.2500094645855417
 40
0.2700438775936541
 40
0.2900368339829311
 40
0.3100080397471333
 40
0.3299772652718589
 40
0.3499642868190347
 40
0.3699888279245356
 40
0.3900286534277342
 40
0.4083606037197434
 40
0.4266708434436723
 40
0.4449746034160978
 40
0.4632871306215398
 40
0.4816236501744282
 40
0.4999993275529177
 40
0.5200281424405859
 40
0.5400184850300519
 40
0.5599900393892056
 40
0.5799625451366927
 40
0.5999557390731984
 40
0.6199892968542937
 40
0.6400357124879773
 40
0.658371479288211
 40
0.6766844372983528
 40
0.6949897596711668
 40
0.7133026385389752
 40
0.7316382472510987
 40
0.750011702843993
 40
0.7700447172048979
 40
0.7900365522934714
 40
0.8100068867125806
 40
0.8299754626305422
 40
0.8499620274266662
 40
0.8699862752598748
 40
0.890027038946262
 40
0.9083600089151709
 40
0.9266710399692589
 40
0.9449753421497272
 40
0.9632881422641608
 40
0.981624645949867
 40
1.0
 40
1.0
 40
1.0
 40
1.0
 10
109.4005678290127
 20
524.4388990998592
 30
0.0
 10
109.4027637211997
 20
524.4388990998592
 30
0.0
 10
109.4071511948848
 20
524.4388990998592
 30
0.0
 10
109.4350974530374
 20
524.4388990998592
 30
0.0
 10
109.4786950897152
 20
524.4388990998592
 30
0.0
 10
109.5394694050875
 20
524.4388990998592
 30
0.0
 10
109.6170102840004
 20
524.4388990998592
 30
0.0
 10
109.7113665011892
 20
524.4388990998592
 30
0.0
 10
109.8191442749326
 20
524.4388990998592
 30
0.0
 10
109.9386473478871
 20
524.4388990998592
 30
0.0
 10
110.0682441123174
 20
524.4388990998592
 30
0.0
 10
110.2114554072712
 20
524.4388990998592
 30
0.0
 10
110.3682810483913
 20
524.4388990998592
 30
0.0
 10
110.5387220055659
 20
524.4388990998593
 30
0.0
 10
110.728152413769
 20
524.4388990998592
 30
0.0
 10
110.9375759213034
 20
524.4388990998593
 30
0.0
 10
111.1681410250311
 20
524.4388990998592
 30
0.0
 10
111.4136580350667
 20
524.4388990998593
 30
0.0
 10
111.6741278534182
 20
524.4388990998592
 30
0.0
 10
111.9495480829817
 20
524.4388990998592
 30
0.0
 10
112.2397203183197
 20
524.4388990998592
 30
0.0
 10
112.5355516120458
 20
524.4388990998592
 30
0.0
 10
112.8351984859095
 20
524.4388990998592
 30
0.0
 10
113.1370629762514
 20
524.4388990998592
 30
0.0
 10
113.4499756454378
 20
524.4388990998592
 30
0.0
 10
113.7739361940927
 20
524.4388990998592
 30
0.0
 10
114.1089449299088
 20
524.4388990998592
 30
0.0
 10
114.4650306498653
 20
524.4388990998592
 30
0.0
 10
114.8425557160782
 20
524.4388990998592
 30
0.0
 10
115.2419523053253
 20
524.4388990998592
 30
0.0
 10
115.6521544146363
 20
524.4388990998592
 30
0.0
 10
116.0731616489944
 20
524.4388990998592
 30
0.0
 10
116.504971809315
 20
524.4388990998592
 30
0.0
 10
116.9472399396198
 20
524.4388990998592
 30
0.0
 10
117.3864692481884
 20
524.4388990998593
 30
0.0
 10
117.8209261255531
 20
524.4388990998592
 30
0.0
 10
118.2492968811787
 20
524.4388990998592
 30
0.0
 10
118.6843962982023
 20
524.4388990998592
 30
0.0
 10
119.1262238843415
 20
524.4388990998592
 30
0.0
 10
119.5747795859926
 20
524.4388990998592
 30
0.0
 10
120.0433256151471
 20
524.4388990998592
 30
0.0
 10
120.5315315878492
 20
524.4388990998592
 30
0.0
 10
121.0390534788457
 20
524.4388990998592
 30
0.0
 10
121.5515077946648
 20
524.4388990998592
 30
0.0
 10
122.0688932292396
 20
524.4388990998592
 30
0.0
 10
122.5912081317373
 20
524.4388990998592
 30
0.0
 10
123.1180937025258
 20
524.4388990998592
 30
0.0
 10
123.6337812366695
 20
524.4388990998592
 30
0.0
 10
124.1369612262536
 20
524.4388990998592
 30
0.0
 10
124.6267684246697
 20
524.4388990998592
 30
0.0
 10
125.1180302804284
 20
524.4388990998592
 30
0.0
 10
125.6107462910065
 20
524.4388990998592
 30
0.0
 10
126.1049153958548
 20
524.4388990998592
 30
0.0
 10
126.4348898954121
 20
524.4388990998592
 30
0.0
 10
126.600051743132
 20
524.4388990998592
 30
0.0
  0
SPLINE
  5
115
330
1F
100
AcDbEntity
  8
0
  6
Continuous
 62
     7
370
    30
100
AcDbSpline
210
0.0
220
0.0
230
1.0
 70
     8
 71
     3
 72
    20
 73
    16
 74
     0
 42
0.000000001
 43
0.00000001
 40
0.0
 40
0.0
 40
0.0
 40
0.0
 40
0.0352834509417638
 40
0.0571696564049182
 40
0.0796775008996406
 40
0.1171973000850802
 40
0.1556371294864209
 40
0.207291584509903
 40
0.2594914862695153
 40
0.3660994581332931
 40
0.4440434940660858
 40
0.5222148938255509
 40
0.6796263754964814
 40
0.8395777787824572
 40
1.0
 40
1.0
 40
1.0
 40
1.0
 10
120.7691419565455
 20
529.1388990998593
 30
0.0
 10
120.7705793830793
 20
529.1515915682352
 30
0.0
 10
120.772908440438
 20
529.1721571318809
 30
0.0
 10
120.7861917358154
 20
529.1977928898201
 30
0.0
 10
120.803198587088
 20
529.2217361020188
 30
0.0
 10
120.8283896028252
 20
529.2467466285723
 30
0.0
 10
120.8650487253584
 20
529.2741771438946
 30
0.0
 10
120.9092804440419
 20
529.299744759036
 30
0.0
 10
120.9778359529852
 20
529.3312481716362
 30
0.0
 10
121.0583563355815
 20
529.3585192338521
 30
0.0
 10
121.1495446539128
 20
529.3818541793931
 30
0.0
 10
121.2596614787403
 20
529.4041059576338
 30
0.0
 10
121.4001380867469
 20
529.4233490098895
 30
0.0
 10
121.5708706869324
 20
529.4365969121351
 30
0.0
 10
121.6856326548253
 20
529.438130952481
 30
0.0
 10
121.743097965302
 20
529.4388990998592
 30
0.0
  0
SPLINE
  5
116
330
1F
100
AcDbEntity
  8
0
  6
Continuous
 62
     7
370
    30
100
AcDbSpline
210
0.0
220
0.0
230
1.0
 70
    24
 71
     3
 72
    31
 73
    27
 74
     0
 42
0.000000001
 43
0.00000001
 40
0.0
 40
0.0
 40
0.0
 40
0.0
 40
0.0418477941872726
 40
0.0834624268870581
 40
0.1249637673698431
 40
0.1664726664124617
 40
0.2081099089763603
 40
0.2499951697210621
 40
0.2918493219026466
 40
0.3334678949406219
 40
0.3749704144390885
 40
0.4164774085948828
 40
0.458109366741273
 40
0.4999856995616333
 40
0.5418522645149615
 40
0.5834786817313934
 40
0.6249846601930178
 40
0.6664909509732398
 40
0.7081183024275783
 40
0.7499864155014757
 40
0.7918347817940417
 40
0.8334510783101374
 40
0.8749551113880254
 40
0.916467659363312
 40
0.9581094264815132
 40
1.0
 40
1.0
 40
1.0
 40
1.0
 10
109.3995809400071
 20
529.4388990998592
 30
0.0
 10
109.4042394338554
 20
529.4388990998592
 30
0.0
 10
109.4135304660295
 20
529.4388990998592
 30
0.0
 10
109.4895665285297
 20
529.4388990998592
 30
0.0
 10
109.6111840790848
 20
529.4388990998592
 30
0.0
 10
109.7827630926497
 20
529.4388990998592
 30
0.0
 10
110.0031295636659
 20
529.4388990998592
 30
0.0
 10
110.2717237080927
 20
529.4388990998592
 30
0.0
 10
110.5861904710827
 20
529.4388990998592
 30
0.0
 10
110.9454817971003
 20
529.4388990998592
 30
0.0
 10
111.3487679968766
 20
529.4388990998592
 30
0.0
 10
111.7960441799591
 20
529.4388990998592
 30
0.0
 10
112.2873005464211
 20
529.4388990998592
 30
0.0
 10
112.8209226673456
 20
529.4388990998592
 30
0.0
 10
113.3932822407389
 20
529.4388990998592
 30
0.0
 10
114.0017607221939
 20
529.4388990998592
 30
0.0
 10
114.64474270853
 20
529.4388990998592
 30
0.0
 10
115.3222166576768
 20
529.4388990998592
 30
0.0
 10
116.0341663379733
 20
529.4388990998592
 30
0.0
 10
116.7783136728752
 20
529.4388990998592
 30
0.0
 10
117.5500484595602
 20
529.4388990998592
 30
0.0
 10
118.3454994290755
 20
529.4388990998592
 30
0.0
 10
119.1625151828757
 20
529.4388990998592
 30
0.0
 10
120.001408621672
 20
529.4388990998592
 30
0.0
 10
120.8609238806895
 20
529.4388990998592
 30
0.0
 10
121.4484566025456
 20
529.4388990998592
 30
0.0
 10
121.7430979653021
 20
529.4388990998592
 30
0.0
  0
SPLINE
  5
117
330
1F
100
AcDbEntity
  8
0
  6
Continuous
 62
     7
370
    30
100
AcDbSpline
210
0.0
220
0.0
230
1.0
 70
     8
 71
     3
 72
    19
 73
    15
 74
     0
 42
0.000000001
 43
0.00000001
 40
0.0
 40
0.0
 40
0.0
 40
0.0
 40
0.137003371925983
 40
0.2742623752599631
 40
0.4125703264033539
 40
0.5514299362566851
 40
0.6514060243602121
 40
0.7521537629650028
 40
0.8317964743822615
 40
0.8715846330721244
 40
0.9120612439906627
 40
0.9531316270887252
 40
0.987859087248749
 40
1.0
 40
1.0
 40
1.0
 40
1.0
 10
131.4570055209621
 20
529.4388990998592
 30
0.0
 10
131.5060759180202
 20
529.438337087017
 30
0.0
 10
131.6043082714499
 20
529.4372120126857
 30
0.0
 10
131.7518264947501
 20
529.4275491612365
 30
0.0
 10
131.8993594415966
 20
529.4107579856982
 30
0.0
 10
132.0324387877161
 20
529.3868434978934
 30
0.0
 10
132.1502621958373
 20
529.3562704815932
 30
0.0
 10
132.2450098458613
 20
529.3224835364762
 30
0.0
 10
132.3157129900001
 20
529.2868475057076
 30
0.0
 10
132.3628411960632
 20
529.2541253646788
 30
0.0
 10
132.3950747489444
 20
529.2246806920867
 30
0.0
 10
132.419643535707
 20
529.1905741156497
 30
0.0
 10
132.4300961457453
 20
529.1600434163446
 30
0.0
 10
132.4307834805998
 20
529.1432494541933
 30
0.0
 10
132.4309615297186
 20
529.1388990998593
 30
0.0
  0
SPLINE
  5
118
330
1F
100
AcDbEntity
  8
0
  6
Continuous
 62
     7
370
    30
100
AcDbSpline
210
0.0
220
0.0
230
1.0
 70
    24
 71
     3
 72
    31
 73
    27
 74
     0
 42
0.000000001
 43
0.00000001
 40
0.0
 40
0.0
 40
0.0
 40
0.0
 40
0.0418807268759683
 40
0.0835166125312872
 40
0.125027227685911
 40
0.1665332257138723
 40
0.2081553001413743
 40
0.2500131404173476
 40
0.2918619682193405
 40
0.3334776912991461
 40
0.3749801110048966
 40
0.4164900097078804
 40
0.4581281046949754
 40
0.5000140048631648
 40
0.5418710467216122
 40
0.5834913732594136
 40
0.6249944952944586
 40
0.6665009360689691
 40
0.7081311900010506
 40
0.750004682674826
 40
0.7918706595247448
 40
0.8334962746247843
 40
0.8750013029126453
 40
0.9165065632992093
 40
0.958132872674382
 40
1.0
 40
1.0
 40
1.0
 40
1.0
 10
131.4570055209621
 20
529.4388990998592
 30
0.0
 10
131.7515770046947
 20
529.4388990998592
 30
0.0
 10
132.3389978616086
 20
529.4388990998592
 30
0.0
 10
133.198386393818
 20
529.4388990998592
 30
0.0
 10
134.0372364261371
 20
529.4388990998592
 30
0.0
 10
134.8542926878217
 20
529.4388990998592
 30
0.0
 10
135.649864929506
 20
529.4388990998593
 30
0.0
 10
136.421615468432
 20
529.4388990998592
 30
0.0
 10
137.1656754382273
 20
529.4388990998592
 30
0.0
 10
137.8774352563304
 20
529.4388990998592
 30
0.0
 10
138.5548447464639
 20
529.4388990998592
 30
0.0
 10
139.1978858691041
 20
529.4388990998592
 30
0.0
 10
139.8065424557489
 20
529.4388990998592
 30
0.0
 10
140.3790099633378
 20
529.4388990998592
 30
0.0
 10
140.9126400181326
 20
529.4388990998592
 30
0.0
 10
141.4037699178201
 20
529.4388990998592
 30
0.0
 10
141.8510029903126
 20
529.4388990998592
 30
0.0
 10
142.254325625144
 20
529.4388990998592
 30
0.0
 10
142.6137278776326
 20
529.4388990998592
 30
0.0
 10
142.9282897057376
 20
529.4388990998592
 30
0.0
 10
143.1969262050508
 20
529.4388990998592
 30
0.0
 10
143.4172430456617
 20
529.4388990998592
 30
0.0
 10
143.5888046261863
 20
529.4388990998593
 30
0.0
 10
143.7104319040889
 20
529.4388990998592
 30
0.0
 10
143.7865021067634
 20
529.4388990998592
 30
0.0
 10
143.7958400886596
 20
529.4388990998592
 30
0.0
 10
143.800522546257
 20
529.4388990998592
 30
0.0
  0
LINE
  5
119
330
1F
100
AcDbEntity
  8
0
  6
Continuous
 62
     7
370
    30
100
AcDbLine
 10
121.7430979653
 20
529.4388990999
 30
0.0
 11
131.457005521
 21
529.4388990999
 31
0.0
  0
ARC
  5
11A
330
1F
100
AcDbEntity
  8
0
  6
Continuous
 62
     7
370
    30
100
AcDbCircle
 10
126.6000517431
 20
536.9388990999
 30
0.0
 40
12.4000000000086
100
AcDbArc
 50
133.9116550009
 51
149.9965330782
  0
LINE
  5
11B
330
1F
100
AcDbEntity
  8
0
  6
Continuous
 62
     7
370
    30
100
AcDbLine
 10
118.0000517431
 20
545.8719836735
 30
0.0
 11
135.2000517431
 21
545.8719836736
 31
0.0
  0
LINE
  5
11C
330
1F
100
AcDbEntity
  8
0
  6
Continuous
 62
     7
370
    30
100
AcDbLine
 10
136.5500517431
 20
553.6842463574
 30
0.0
 11
138.0000517431
 21
553.6842463574
 31
0.0
  0
LINE
  5
11D
330
1F
100
AcDbEntity
  8
0
  6
Continuous
 62
     7
370
    30
100
AcDbLine
 10
136.5500517431
 20
550.6842463594
 30
0.0
 11
136.5500517431
 21
553.6842463574
 31
0.0
  0
LWPOLYLINE
  5
11E
330
1F
100
AcDbEntity
  8
0
  6
Continuous
 62
     7
370
    30
100
AcDbPolyline
 90
      104
 70
   128
 43
0.0
 10
116.6500517431
 20
550.6842464808
 10
116.7667747871
 20
550.6842464808
 10
116.8876707246
 20
550.6842464807
 10
117.0126882517
 20
550.6842464806
 10
117.1417743155
 20
550.6842464804
 10
117.2748741364
 20
550.6842464801
 10
117.4119312316
 20
550.6842464798
 10
117.5528874389
 20
550.6842464795
 10
117.6976829414
 20
550.6842464791
 10
117.8462562932
 20
550.6842464787
 10
117.9985444449
 20
550.6842464782
 10
118.1544827709
 20
550.6842464776
 10
118.3140050966
 20
550.684246477
 10
118.4770437261
 20
550.6842464764
 10
118.6435294719
 20
550.6842464757
 10
118.8133916832
 20
550.6842464749
 10
118.9865582766
 20
550.6842464741
 10
119.1629557662
 20
550.6842464733
 10
119.3425092953
 20
550.6842464724
 10
119.5251426677
 20
550.6842464715
 10
119.7107783804
 20
550.6842464705
 10
119.899337656
 20
550.6842464694
 10
120.0907404767
 20
550.6842464683
 10
120.284905618
 20
550.6842464672
 10
120.4817506832
 20
550.684246466
 10
120.681192138
 20
550.6842464648
 10
120.8831453467
 20
550.6842464635
 10
121.0875246074
 20
550.6842464622
 10
121.294243189
 20
550.6842464608
 10
121.5032133673
 20
550.6842464594
 10
121.7143464628
 20
550.684246458
 10
121.9275528782
 20
550.6842464565
 10
122.1427421362
 20
550.6842464549
 10
122.3598229181
 20
550.6842464534
 10
122.5787031026
 20
550.6842464517
 10
122.7992898046
 20
550.6842464501
 10
123.0214894151
 20
550.6842464484
 10
123.2452076403
 20
550.6842464466
 10
123.4703495423
 20
550.6842464449
 10
123.6968195787
 20
550.6842464431
 10
123.9245216438
 20
550.6842464412
 10
124.1533591089
 20
550.6842464393
 10
124.3832348634
 20
550.6842464374
 10
124.6140513563
 20
550.6842464354
 10
124.8457106373
 20
550.6842464335
 10
125.0781143983
 20
550.6842464314
 10
125.3111640155
 20
550.6842464294
 10
125.5447605909
 20
550.6842464273
 10
125.7788049944
 20
550.6842464252
 10
126.0131979058
 20
550.6842464231
 10
126.2478398572
 20
550.6842464209
 10
126.4826312748
 20
550.6842464187
 10
126.7174725215
 20
550.6842464165
 10
126.9522639389
 20
550.6842464142
 10
127.18690589
 20
550.684246412
 10
127.4212988011
 20
550.6842464097
 10
127.655343204
 20
550.6842464074
 10
127.8889397788
 20
550.684246405
 10
128.1219893952
 20
550.6842464027
 10
128.3543931553
 20
550.6842464003
 10
128.5860524352
 20
550.6842463979
 10
128.816868927
 20
550.6842463955
 10
129.0467446802
 20
550.6842463931
 10
129.2755821438
 20
550.6842463906
 10
129.5032842074
 20
550.6842463882
 10
129.7297542421
 20
550.6842463857
 10
129.9548961423
 20
550.6842463832
 10
130.1786143656
 20
550.6842463807
 10
130.4008139739
 20
550.6842463782
 10
130.6214006738
 20
550.6842463757
 10
130.840280856
 20
550.6842463732
 10
131.0573616354
 20
550.6842463707
 10
131.2725508909
 20
550.6842463682
 10
131.4857573036
 20
550.6842463656
 10
131.6968903963
 20
550.6842463631
 10
131.9058605717
 20
550.6842463605
 10
132.1125791502
 20
550.684246358
 10
132.3169584078
 20
550.6842463555
 10
132.5189116133
 20
550.6842463529
 10
132.7183530647
 20
550.6842463504
 10
132.9151981263
 20
550.6842463478
 10
133.1093632641
 20
550.6842463453
 10
133.3007660811
 20
550.6842463428
 10
133.4893253529
 20
550.6842463403
 10
133.6749610616
 20
550.6842463377
 10
133.85759443
 20
550.6842463352
 10
134.037147955
 20
550.6842463327
 10
134.2135454405
 20
550.6842463302
 10
134.3867120295
 20
550.6842463278
 10
134.5565742364
 20
550.6842463253
 10
134.7230599776
 20
550.6842463229
 10
134.8860986026
 20
550.6842463204
 10
135.0456209236
 20
550.684246318
 10
135.2015592448
 20
550.6842463156
 10
135.3538473917
 20
550.6842463132
 10
135.5024207385
 20
550.6842463109
 10
135.647216236
 20
550.6842463085
 10
135.7881724382
 20
550.6842463062
 10
135.9252295282
 20
550.6842463039
 10
136.0583293438
 20
550.6842463016
 10
136.1874154023
 20
550.6842462994
 10
136.312432924
 20
550.6842462971
 10
136.4333288561
 20
550.6842462949
 10
136.5500517431
 20
550.6842463594
  0
LINE
  5
11F
330
1F
100
AcDbEntity
  8
0
  6
Continuous
 62
     7
370
    30
100
AcDbLine
 10
116.6500517431
 20
553.6842463574
 30
0.0
 11
116.6500517431
 21
550.6842464808
 31
0.0
  0
LINE
  5
120
330
1F
100
AcDbEntity
  8
0
  6
Continuous
 62
     7
370
    30
100
AcDbLine
 10
115.2000517431
 20
553.6842463574
 30
0.0
 11
116.6500517431
 21
553.6842463574
 31
0.0
  0
SPLINE
  5
121
330
1F
100
AcDbEntity
  8
0
  6
Continuous
 62
     7
370
    30
100
AcDbSpline
210
0.0
220
0.0
230
1.0
 70
    24
 71
     3
 72
    24
 73
    20
 74
     0
 42
0.000000001
 43
0.00000001
 40
0.0
 40
0.0
 40
0.0
 40
0.0
 40
0.0569064090857093
 40
0.1138421821482102
 40
0.1686969199599256
 40
0.223551769452196
 40
0.2785055894920488
 40
0.333459578028588
 40
0.3865814439601876
 40
0.4397034878937357
 40
0.4928999998628813
 40
0.5460967041781639
 40
0.6022196813099532
 40
0.6583428950527491
 40
0.7145318797399267
 40
0.7707210863403738
 40
0.8295570722565755
 40
0.8884073263597342
 40
0.9999999999999999
 40
0.9999999999999999
 40
0.9999999999999999
 40
0.9999999999999999
 10
136.5500517431814
 20
549.6689454291229
 30
0.0
 10
136.5500517431605
 20
549.6696537031305
 30
0.0
 10
136.5500517431188
 20
549.6710706166183
 30
0.0
 10
136.5500517431354
 20
549.6823773584697
 30
0.0
 10
136.5500517431311
 20
549.700019229898
 30
0.0
 10
136.5500517431323
 20
549.7242668719186
 30
0.0
 10
136.550051743132
 20
549.7550871360108
 30
0.0
 10
136.5500517431321
 20
549.7919695120704
 30
0.0
 10
136.550051743132
 20
549.8344903466599
 30
0.0
 10
136.5500517431321
 20
549.882258840948
 30
0.0
 10
136.5500517431321
 20
549.9355953547981
 30
0.0
 10
136.5500517431321
 20
549.9953849521673
 30
0.0
 10
136.5500517431319
 20
550.0617447936173
 30
0.0
 10
136.5500517431321
 20
550.1347963202401
 30
0.0
 10
136.550051743132
 20
550.2131394494147
 30
0.0
 10
136.5500517431321
 20
550.2978068138291
 30
0.0
 10
136.5500517431321
 20
550.388924189443
 30
0.0
 10
136.550051743132
 20
550.5150012197993
 30
0.0
 10
136.5500517431321
 20
550.6172813479391
 30
0.0
 10
136.5500517431321
 20
550.6842463614512
 30
0.0
  0
SPLINE
  5
122
330
1F
100
AcDbEntity
  8
0
  6
Continuous
 62
     7
370
    30
100
AcDbSpline
210
0.0
220
0.0
230
1.0
 70
     8
 71
     3
 72
    23
 73
    19
 74
     0
 42
0.000000001
 43
0.00000001
 40
0.0
 40
0.0
 40
0.0
 40
0.0
 40
0.084732691188584
 40
0.1793269381425617
 40
0.2739788554285578
 40
0.3293386810866307
 40
0.3846982905878657
 40
0.4401226949087894
 40
0.4955468717450073
 40
0.5513641049702787
 40
0.6071811094671566
 40
0.6630866068920507
 40
0.7189919006697915
 40
0.7673761970069501
 40
0.8157604047234236
 40
0.8642131496685068
 40
0.912665838739666
 40
1.0
 40
1.0
 40
1.0
 40
1.0
 10
116.6500518527375
 20
550.6842466640538
 30
0.0
 10
116.6500518069024
 20
550.6331907186469
 30
0.0
 10
116.6500517098974
 20
550.5251367168755
 30
0.0
 10
116.6500517526181
 20
550.3733517341109
 30
0.0
 10
116.6500517417315
 20
550.2483077715901
 30
0.0
 10
116.6500517434207
 20
550.1515359244682
 30
0.0
 10
116.6500517430545
 20
550.0782779757759
 30
0.0
 10
116.6500517431528
 20
550.0102966735492
 30
0.0
 10
116.6500517431264
 20
549.9476734895128
 30
0.0
 10
116.6500517431335
 20
549.890721317631
 30
0.0
 10
116.6500517431316
 20
549.8396762050844
 30
0.0
 10
116.6500517431321
 20
549.7949075029851
 30
0.0
 10
116.650051743132
 20
549.7583230861973
 30
0.0
 10
116.6500517431321
 20
549.7291386094041
 30
0.0
 10
116.650051743132
 20
549.7064376659611
 30
0.0
 10
116.6500517431321
 20
549.6890470480222
 30
0.0
 10
116.6500517431321
 20
549.6730384564341
 30
0.0
 10
116.650051743132
 20
549.6705475243635
 30
0.0
 10
116.650051743132
 20
549.6689454291487
 30
0.0
  0
LINE
  5
123
330
1F
100
AcDbEntity
  8
0
  6
Continuous
 62
     7
370
    30
100
AcDbLine
 10
118.0000517431
 20
548.7236652504
 30
0.0
 11
135.2000517431
 21
548.7236652504
 31
0.0
  0
SPLINE
  5
124
330
1F
100
AcDbEntity
  8
0
  6
Continuous
 62
     7
370
    30
100
AcDbSpline
210
0.0
220
0.0
230
1.0
 70
    24
 71
     3
 72
    35
 73
    31
 74
     0
 42
0.000000001
 43
0.00000001
 40
0.0
 40
0.0
 40
0.0
 40
0.0
 40
0.023018095088073
 40
0.0682049321750155
 40
0.0903989963098434
 40
0.1125992335085956
 40
0.1348083994095037
 40
0.1570292463290169
 40
0.1792645222459021
 40
0.2015169697933692
 40
0.2237893252610496
 40
0.2460843176086124
 40
0.2948417393030258
 40
0.3435150359882518
 40
0.3921330028057161
 40
0.4407245332617003
 40
0.4893185680188623
 40
0.5211517714660051
 40
0.5530065656679126
 40
0.5848910453764572
 40
0.6168132827608162
 40
0.6479278102400833
 40
0.6780313069237169
 40
0.7240497516170602
 40
0.770019855208714
 40
0.8159660241587992
 40
0.8619127030690475
 40
0.9078843357277048
 40
0.9539053261609067
 40
1.0
 40
1.0
 40
1.0
 40
1.0
 10
465.100051743132
 20
637.1826066514337
 30
0.0
 10
465.100051743132
 20
637.1829990938598
 30
0.0
 10
465.100051743132
 20
637.1841619402621
 30
0.0
 10
465.1000517431321
 20
637.1715310687567
 30
0.0
 10
465.100051743132
 20
637.1531312381882
 30
0.0
 10
465.100051743132
 20
637.1352857156294
 30
0.0
 10
465.1000517431321
 20
637.1136160391686
 30
0.0
 10
465.100051743132
 20
637.0880297571366
 30
0.0
 10
465.100051743132
 20
637.0585516253881
 30
0.0
 10
465.100051743132
 20
637.0251751502589
 30
0.0
 10
465.1000517431321
 20
636.9879015569354
 30
0.0
 10
465.1000517431321
 20
636.9304605781913
 30
0.0
 10
465.100051743132
 20
636.8457893728037
 30
0.0
 10
465.1000517431321
 20
636.7240746454466
 30
0.0
 10
465.100051743132
 20
636.5841129385371
 30
0.0
 10
465.100051743132
 20
636.425904252337
 30
0.0
 10
465.100051743132
 20
636.2697683517804
 30
0.0
 10
465.1000517431321
 20
636.1223470991259
 30
0.0
 10
465.100051743132
 20
635.9891291204159
 30
0.0
 10
465.100051743132
 20
635.848091690785
 30
0.0
 10
465.100051743132
 20
635.7005591273877
 30
0.0
 10
465.100051743132
 20
635.5485128599726
 30
0.0
 10
465.100051743132
 20
635.3653435291743
 30
0.0
 10
465.100051743132
 20
635.1453178052287
 30
0.0
 10
465.1000517431321
 20
634.8811527816902
 30
0.0
 10
465.100051743132
 20
634.6016322796814
 30
0.0
 10
465.100051743132
 20
634.3068519688098
 30
0.0
 10
465.1000517431321
 20
633.9964582178371
 30
0.0
 10
465.100051743132
 20
633.6717732324012
 30
0.0
 10
465.100051743132
 20
633.4427168561763
 30
0.0
 10
465.100051743132
 20
633.3280970568591
 30
0.0
  0
SPLINE
  5
125
330
1F
100
AcDbEntity
  8
0
  6
Continuous
 62
     7
370
    30
100
AcDbSpline
210
0.0
220
0.0
230
1.0
 70
    24
 71
     3
 72
   150
 73
   146
 74
     0
 42
0.000000001
 43
0.00000001
 40
0.0
 40
0.0
 40
0.0
 40
0.0
 40
0.0087043620137641
 40
0.0173952319653777
 40
0.0260771839675704
 40
0.0347548062354624
 40
0.0434326938518914
 40
0.0491170622525629
 40
0.0548048024792501
 40
0.0604972004398628
 40
0.0661955388890682
 40
0.0720575769322256
 40
0.0780986897787815
 40
0.0871477272136769
 40
0.0961863399025487
 40
0.1052197081512072
 40
0.1142530212880054
 40
0.1178030122417262
 40
0.1213541100250369
 40
0.1249066287127486
 40
0.1284608820029936
 40
0.1320171831348811
 40
0.1355758448067574
 40
0.1391371790951763
 40
0.142701497374683
 40
0.1512877675223861
 40
0.1598591208012759
 40
0.1684199389800901
 40
0.1769746200160425
 40
0.1855275713335725
 40
0.1911289639492848
 40
0.196732742923137
 40
0.2023401438775941
 40
0.2079524000428215
 40
0.2135707414518185
 40
0.2191963941460216
 40
0.2279664055877937
 40
0.2367205112996072
 40
0.2454633786543674
 40
0.2541996930372629
 40
0.2629341503790313
 40
0.2715153810722546
 40
0.2801038004829064
 40
0.288703844874989
 40
0.2973199325560605
 40
0.3060899441281453
 40
0.314844049912972
 40
0.3235869172998511
 40
0.3323232316905056
 40
0.3410576890322837
 40
0.3467779988767721
 40
0.3525008453300635
 40
0.3582275448457017
 40
0.363959411222401
 40
0.3696977547100046
 40
0.3754438811275638
 40
0.3840301516343272
 40
0.3926015051143398
 40
0.4011623233815886
 40
0.4097170044388772
 40
0.4182699557564359
 40
0.4224708417294621
 40
0.4266728961382238
 40
0.4308766405691201
 40
0.4350825959798043
 40
0.4392912825068941
 40
0.4435032192752021
 40
0.4477189242088302
 40
0.4519389138444668
 40
0.4611677043732361
 40
0.4703805717447833
 40
0.4795829662950611
 40
0.4887803569784941
 40
0.497978221675252
 40
0.5040036011201264
 40
0.5100330672567224
 40
0.5160681522573086
 40
0.5221103840197079
 40
0.5279994985069795
 40
0.5336970350182766
 40
0.5424068805257057
 40
0.5511077794190417
 40
0.5598043509827212
 40
0.5685012213964804
 40
0.577203016363418
 40
0.5859143537418514
 40
0.5946398362394867
 40
0.6033435035782765
 40
0.6120338762960391
 40
0.6207155301366426
 40
0.6293930546366144
 40
0.6380710458841482
 40
0.6437555915923705
 40
0.6494435958839698
 40
0.6551363447256878
 40
0.660835120872349
 40
0.6666974308043596
 40
0.6727385436508688
 40
0.6817875810857122
 40
0.6908261937745525
 40
0.6998595620231995
 40
0.7088928751600057
 40
0.7124428661137345
 40
0.7159939638970567
 40
0.7195464825847824
 40
0.7231007358750442
 40
0.7266570370069512
 40
0.7302156986788497
 40
0.7337770329672935
 40
0.7373413512468271
 40
0.7459276213943071
 40
0.7544989746730291
 40
0.7630597928517315
 40
0.771614473887629
 40
0.7801674252051612
 40
0.7857688178209058
 40
0.791372596794815
 40
0.7969799977493539
 40
0.802592253914688
 40
0.8082105953238164
 40
0.8138362480181754
 40
0.8226062594599572
 40
0.8313603651717782
 40
0.8401032325265435
 40
0.8488395469094415
 40
0.8575740042512098
 40
0.8661552349444305
 40
0.8747436543550767
 40
0.8833436987471514
 40
0.8919597864282123
 40
0.9007297980004345
 40
0.9094839037853638
 40
0.9182267711723109
 40
0.9269630855629986
 40
0.9356975429047756
 40
0.9414178527492446
 40
0.947140699202502
 40
0.9528673987180917
 40
0.9585992650947279
 40
0.9643376085822543
 40
0.9700837349997223
 40
0.9786700055062305
 40
0.9872413589860529
 40
0.9958021772531763
 40
1.0
 40
1.0
 40
1.0
 40
1.0
 10
465.100051743132
 20
633.3280970568591
 30
0.0
 10
465.100051743132
 20
633.2109528989347
 30
0.0
 10
465.100051743132
 20
632.9768461605818
 30
0.0
 10
465.100051743132
 20
632.6076562466408
 30
0.0
 10
465.100051743132
 20
632.2256929836776
 30
0.0
 10
465.100051743132
 20
631.8296409920558
 30
0.0
 10
465.1000517431321
 20
631.4670388650042
 30
0.0
 10
465.100051743132
 20
631.1428367375651
 30
0.0
 10
465.100051743132
 20
630.8611550353185
 30
0.0
 10
465.1000517431321
 20
630.5735540701024
 30
0.0
 10
465.100051743132
 20
630.2773468588541
 30
0.0
 10
465.100051743132
 20
629.9693736646832
 30
0.0
 10
465.100051743132
 20
629.595782688878
 30
0.0
 10
465.100051743132
 20
629.1554203235918
 30
0.0
 10
465.100051743132
 20
628.647040067027
 30
0.0
 10
465.100051743132
 20
628.12582060978
 30
0.0
 10
465.100051743132
 20
627.6998962044025
 30
0.0
 10
465.100051743132
 20
627.3768104883245
 30
0.0
 10
465.1000517431321
 20
627.1615605403348
 30
0.0
 10
465.100051743132
 20
626.9443302278905
 30
0.0
 10
465.100051743132
 20
626.7251192085039
 30
0.0
 10
465.100051743132
 20
626.503927553676
 30
0.0
 10
465.100051743132
 20
626.2807553552533
 30
0.0
 10
465.100051743132
 20
626.055602209641
 30
0.0
 10
465.1000517431321
 20
625.7218698420743
 30
0.0
 10
465.100051743132
 20
625.2758654728697
 30
0.0
 10
465.1000517431321
 20
624.7123060470283
 30
0.0
 10
465.100051743132
 20
624.1396878362477
 30
0.0
 10
465.1000517431321
 20
623.5580146869503
 30
0.0
 10
465.100051743132
 20
623.0352837510294
 30
0.0
 10
465.100051743132
 20
622.5748401864121
 30
0.0
 10
465.100051743132
 20
622.1793237795841
 30
0.0
 10
465.1000517431321
 20
621.7799267298153
 30
0.0
 10
465.100051743132
 20
621.376648740454
 30
0.0
 10
465.100051743132
 20
620.9694892290166
 30
0.0
 10
465.100051743132
 20
620.4820837462307
 30
0.0
 10
465.100051743132
 20
619.9125931982554
 30
0.0
 10
465.1000517431321
 20
619.2588315602715
 30
0.0
 10
465.1000517431321
 20
618.5986517344635
 30
0.0
 10
465.100051743132
 20
617.9320557049543
 30
0.0
 10
465.1000517431321
 20
617.2630511235795
 30
0.0
 10
465.100051743132
 20
616.5917773179184
 30
0.0
 10
465.100051743132
 20
615.9183573911657
 30
0.0
 10
465.1000517431321
 20
615.238750124661
 30
0.0
 10
465.100051743132
 20
614.5494163688941
 30
0.0
 10
465.100051743132
 20
613.8513558969369
 30
0.0
 10
465.100051743132
 20
613.1455506833738
 30
0.0
 10
465.1000517431321
 20
612.4366607146136
 30
0.0
 10
465.100051743132
 20
611.724688143897
 30
0.0
 10
465.1000517431321
 20
611.091942622386
 30
0.0
 10
465.100051743132
 20
610.5396139727783
 30
0.0
 10
465.100051743132
 20
610.0685025717955
 30
0.0
 10
465.100051743132
 20
609.596070575922
 30
0.0
 10
465.100051743132
 20
609.1223175261017
 30
0.0
 10
465.100051743132
 20
608.6472429200694
 30
0.0
 10
465.100051743132
 20
608.0926174775936
 30
0.0
 10
465.1000517431321
 20
607.4587529492021
 30
0.0
 10
465.100051743132
 20
606.7460854589884
 30
0.0
 10
465.100051743132
 20
606.0337443188766
 30
0.0
 10
465.1000517431321
 20
605.3217339874734
 30
0.0
 10
465.100051743132
 20
604.7308104478585
 30
0.0
 10
465.1000517431321
 20
604.260878398506
 30
0.0
 10
465.100051743132
 20
603.9116593131513
 30
0.0
 10
465.100051743132
 20
603.5625201410804
 30
0.0
 10
465.100051743132
 20
603.2134603156635
 30
0.0
 10
465.1000517431321
 20
602.8644799675274
 30
0.0
 10
465.1000517431321
 20
602.5155792354491
 30
0.0
 10
465.100051743132
 20
602.1667575256303
 30
0.0
 10
465.1000517431321
 20
601.680179058685
 30
0.0
 10
465.100051743132
 20
601.0572870684854
 30
0.0
 10
465.100051743132
 20
600.3001878891947
 30
0.0
 10
465.100051743132
 20
599.5471312715877
 30
0.0
 10
465.1000517431321
 20
598.7981232658177
 30
0.0
 10
465.100051743132
 20
598.1389502557183
 30
0.0
 10
465.1000517431321
 20
597.5681848238071
 30
0.0
 10
465.1000517431321
 20
597.0844207323473
 30
0.0
 10
465.100051743132
 20
596.6023919461112
 30
0.0
 10
465.1000517431321
 20
596.1263849419141
 30
0.0
 10
465.100051743132
 20
595.6616408590473
 30
0.0
 10
465.100051743132
 20
595.129298031
 30
0.0
 10
465.1000517431321
 20
594.5272381934597
 30
0.0
 10
465.100051743132
 20
593.8529499956051
 30
0.0
 10
465.100051743132
 20
593.1852633773076
 30
0.0
 10
465.100051743132
 20
592.5241805382389
 30
0.0
 10
465.100051743132
 20
591.8697015082569
 30
0.0
 10
465.100051743132
 20
591.2218272686932
 30
0.0
 10
465.1000517431321
 20
590.5815499805856
 30
0.0
 10
465.100051743132
 20
589.9497164323415
 30
0.0
 10
465.1000517431321
 20
589.327222255577
 30
0.0
 10
465.100051743132
 20
588.7139704808671
 30
0.0
 10
465.100051743132
 20
588.1099633465092
 30
0.0
 10
465.100051743132
 20
587.5836874288764
 30
0.0
 10
465.100051743132
 20
587.1318133951669
 30
0.0
 10
465.100051743132
 20
586.7514109606725
 30
0.0
 10
465.1000517431321
 20
586.3749707762042
 30
0.0
 10
465.100051743132
 20
585.9990900410335
 30
0.0
 10
465.100051743132
 20
585.620243410134
 30
0.0
 10
465.1000517431321
 20
585.1750661400937
 30
0.0
 10
465.100051743132
 20
584.6710220296363
 30
0.0
 10
465.1000517431321
 20
584.1164758244826
 30
0.0
 10
465.100051743132
 20
583.5745860309703
 30
0.0
 10
465.1000517431321
 20
583.1525105030594
 30
0.0
 10
465.100051743132
 20
582.842856739451
 30
0.0
 10
465.1000517431321
 20
582.64040610842
 30
0.0
 10
465.100051743132
 20
582.4399081714326
 30
0.0
 10
465.100051743132
 20
582.2413625416333
 30
0.0
 10
465.1000517431321
 20
582.0447693101141
 30
0.0
 10
465.100051743132
 20
581.8501285219351
 30
0.0
 10
465.100051743132
 20
581.6574399263231
 30
0.0
 10
465.100051743132
 20
581.3771868767583
 30
0.0
 10
465.100051743132
 20
581.0145821200713
 30
0.0
 10
465.100051743132
 20
580.5771634025231
 30
0.0
 10
465.100051743132
 20
580.1531382881503
 30
0.0
 10
465.100051743132
 20
579.7425098947025
 30
0.0
 10
465.100051743132
 20
579.3910027965107
 30
0.0
 10
465.100051743132
 20
579.0937873329458
 30
0.0
 10
465.100051743132
 20
578.8467287649845
 30
0.0
 10
465.100051743132
 20
578.6054120356937
 30
0.0
 10
465.100051743132
 20
578.3698367750229
 30
0.0
 10
465.1000517431321
 20
578.1400029833121
 30
0.0
 10
465.100051743132
 20
577.8742767550239
 30
0.0
 10
465.1000517431321
 20
577.5775621882174
 30
0.0
 10
465.100051743132
 20
577.2558846471145
 30
0.0
 10
465.100051743132
 20
576.949805229116
 30
0.0
 10
465.1000517431321
 20
576.659325485789
 30
0.0
 10
465.1000517431321
 20
576.3860821766832
 30
0.0
 10
465.100051743132
 20
576.1297542145289
 30
0.0
 10
465.1000517431321
 20
575.8900169690148
 30
0.0
 10
465.100051743132
 20
575.6653280185568
 30
0.0
 10
465.1000517431321
 20
575.4546024424201
 30
0.0
 10
465.100051743132
 20
575.258436791541
 30
0.0
 10
465.100051743132
 20
575.0775467271804
 30
0.0
 10
465.100051743132
 20
574.9132390656238
 30
0.0
 10
465.1000517431321
 20
574.765514964837
 30
0.0
 10
465.100051743132
 20
574.6494701701444
 30
0.0
 10
465.100051743132
 20
574.5590925252362
 30
0.0
 10
465.100051743132
 20
574.4893280312624
 30
0.0
 10
465.100051743132
 20
574.4266704518332
 30
0.0
 10
465.100051743132
 20
574.3711224901461
 30
0.0
 10
465.100051743132
 20
574.3226734026936
 30
0.0
 10
465.100051743132
 20
574.2745796771537
 30
0.0
 10
465.1000517431321
 20
574.2313567732684
 30
0.0
 10
465.100051743132
 20
574.1997853087017
 30
0.0
 10
465.100051743132
 20
574.184311771955
 30
0.0
 10
465.100051743132
 20
574.185496324245
 30
0.0
 10
465.100051743132
 20
574.1858860632886
 30
0.0
  0
LINE
  5
126
330
1F
100
AcDbEntity
  8
0
  6
Continuous
 62
     7
370
    30
100
AcDbLine
 10
475.1000517431
 20
573.1842463574
 30
0.0
 11
475.1000517431
 21
638.1842463574
 31
0.0
  0
LINE
  5
127
330
1F
100
AcDbEntity
  8
0
  6
Continuous
 62
     7
370
    30
100
AcDbLine
 10
115.1000517431
 20
561.7946117769
 30
0.0
 11
138.1000517431
 21
561.7946117769
 31
0.0
  0
ARC
  5
128
330
1F
100
AcDbEntity
  8
0
  6
Continuous
 62
     7
370
    30
100
AcDbCircle
 10
627.0
 20
451.1000517431
 30
0.0
 40
1.0
100
AcDbArc
 50
180.0
 51
270.0
  0
ARC
  5
129
330
1F
100
AcDbEntity
  8
0
  6
Continuous
 62
     7
370
    30
100
AcDbCircle
 10
690.0
 20
451.1000517431
 30
0.0
 40
1.0
100
AcDbArc
 50
270.0
 51
0.0
  0
LINE
  5
12A
330
1F
100
AcDbEntity
  8
0
  6
Continuous
 62
     7
370
    30
100
AcDbLine
 10
626.0
 20
460.1000517431
 30
0.0
 11
626.0
 21
451.1000517431
 31
0.0
  0
LINE
  5
12B
330
1F
100
AcDbEntity
  8
0
  6
Continuous
 62
     7
370
    30
100
AcDbLine
 10
691.0
 20
451.1000517431
 30
0.0
 11
691.0
 21
460.1000517431
 31
0.0
  0
LINE
  5
12C
330
1F
100
AcDbEntity
  8
0
  6
Continuous
 62
     7
370
    30
100
AcDbLine
 10
670.0
 20
146.6000517431
 30
0.0
 11
670.0
 21
450.1000517431
 31
0.0
  0
LINE
  5
12D
330
1F
100
AcDbEntity
  8
0
  6
Continuous
 62
     7
370
    30
100
AcDbLine
 10
647.0
 20
450.1000517431
 30
0.0
 11
647.0
 21
146.6000517431
 31
0.0
  0
LINE
  5
12E
330
1F
100
AcDbEntity
  8
0
  6
Continuous
 62
     7
370
    30
100
AcDbLine
 10
647.0
 20
146.6000517431
 30
0.0
 11
647.0
 21
111.6000517431
 31
0.0
  0
LINE
  5
12F
330
1F
100
AcDbEntity
  8
0
  6
Continuous
 62
     7
370
    30
100
AcDbLine
 10
670.0
 20
111.6000517431
 30
0.0
 11
670.0
 21
146.6000517431
 31
0.0
  0
LINE
  5
130
330
1F
100
AcDbEntity
  8
0
  6
Continuous
 62
     7
370
    30
100
AcDbLine
 10
560.8000000001
 20
211.3000517431
 30
0.0
 11
647.0
 21
211.3000517431
 31
0.0
  0
LINE
  5
131
330
1F
100
AcDbEntity
  8
0
  6
Continuous
 62
     7
370
    30
100
AcDbLine
 10
670.0
 20
211.3000517431
 30
0.0
 11
756.199999875
 21
211.3000517431
 31
0.0
  0
ARC
  5
132
330
1F
100
AcDbEntity
  8
0
  6
Continuous
 62
     7
370
    30
100
AcDbCircle
 10
756.2
 20
209.3000517431
 30
0.0
 40
2.000000000000004
100
AcDbArc
 50
359.9999999986
 51
90.000003581
  0
LINE
  5
133
330
1F
100
AcDbEntity
  8
0
  6
Continuous
 62
     7
370
    30
100
AcDbLine
 10
758.2
 20
209.3000517431
 30
0.0
 11
758.2
 21
13.9000518681
 31
0.0
  0
ARC
  5
134
330
1F
100
AcDbEntity
  8
0
  6
Continuous
 62
     7
370
    30
100
AcDbCircle
 10
756.2
 20
13.9000517431
 30
0.0
 40
2.000000000000004
100
AcDbArc
 50
269.9999999986
 51
0.000003581
  0
LINE
  5
135
330
1F
100
AcDbEntity
  8
0
  6
Continuous
 62
     7
370
    30
100
AcDbLine
 10
756.2
 20
11.9000517431
 30
0.0
 11
560.800000125
 21
11.9000517431
 31
0.0
  0
ARC
  5
136
330
1F
100
AcDbEntity
  8
0
  6
Continuous
 62
     7
370
    30
100
AcDbCircle
 10
560.8
 20
13.9000517431
 30
0.0
 40
2.000000000000008
100
AcDbArc
 50
179.9999999986
 51
270.000003581
  0
LINE
  5
137
330
1F
100
AcDbEntity
  8
0
  6
Continuous
 62
     7
370
    30
100
AcDbLine
 10
558.8
 20
13.9000517432
 30
0.0
 11
558.8
 21
209.3000517431
 31
0.0
  0
ARC
  5
138
330
1F
100
AcDbEntity
  8
0
  6
Continuous
 62
     7
370
    30
100
AcDbCircle
 10
560.8
 20
209.3000517431
 30
0.0
 40
2.0
100
AcDbArc
 50
89.9999999986
 51
180.0
  0
SPLINE
  5
139
330
1F
100
AcDbEntity
  8
0
  6
Continuous
 62
     7
370
    30
100
AcDbSpline
210
0.0
220
0.0
230
1.0
 70
     8
 71
     3
 72
    33
 73
    29
 74
     0
 42
0.000000001
 43
0.00000001
 40
0.0
 40
0.0
 40
0.0
 40
0.0
 40
0.0409879724573155
 40
0.0819759449146325
 40
0.1229639173719516
 40
0.1639518898292697
 40
0.2049398622865873
 40
0.2459278347439024
 40
0.2869158072012212
 40
0.3244883616145646
 40
0.3620609160279055
 40
0.3996334704412424
 40
0.4372060248545863
 40
0.474778579267926
 40
0.5123511336812682
 40
0.5533391061385843
 40
0.5943270785959028
 40
0.6353150510532178
 40
0.6763030235105361
 40
0.7172909959678547
 40
0.758278968425173
 40
0.7992669408824905
 40
0.8368394952958297
 40
0.8744120497091719
 40
0.9119846041225128
 40
0.9495571585358514
 40
0.987129712949196
 40
1.0
 40
1.0
 40
1.0
 40
1.0
 10
642.500069767812
 20
111.6473017697191
 30
0.0
 10
642.5020808913414
 20
111.8146906675951
 30
0.0
 10
642.5061031384005
 20
112.1494684633471
 30
0.0
 10
642.5321138635423
 20
112.6510814948141
 30
0.0
 10
642.5727218159142
 20
113.151662585271
 30
0.0
 10
642.6293217225381
 20
113.6507143753167
 30
0.0
 10
642.7014734297334
 20
114.147746562171
 30
0.0
 10
642.7892087448449
 20
114.6422687285615
 30
0.0
 10
642.8895475238539
 20
115.1201432498704
 30
0.0
 10
643.0009346774982
 20
115.5812095193843
 30
0.0
 10
643.1218745272066
 20
116.0254221376261
 30
0.0
 10
643.2555429773337
 20
116.4659715230631
 30
0.0
 10
643.4018292983498
 20
116.9024933675744
 30
0.0
 10
643.5606126096629
 20
117.3346266531804
 30
0.0
 10
643.7369466712495
 20
117.7749622477302
 30
0.0
 10
643.9320227312182
 20
118.2225977013963
 30
0.0
 10
644.1470212288589
 20
118.6764969305296
 30
0.0
 10
644.3761579446051
 20
119.1234260714626
 30
0.0
 10
644.6192068642272
 20
119.5629444412213
 30
0.0
 10
644.8759290662853
 20
119.9946190156603
 30
0.0
 10
645.1460700306291
 20
120.4180253815457
 30
0.0
 10
645.4215008744355
 20
120.8212242592732
 30
0.0
 10
645.7006997166486
 20
121.2046809452329
 30
0.0
 10
645.9823289658342
 20
121.5688662476317
 30
0.0
 10
646.2741440672305
 20
121.9249700298329
 30
0.0
 10
646.5767314832236
 20
122.2718932381306
 30
0.0
 10
646.8188099427178
 20
122.5377398185407
 30
0.0
 10
646.9631677015097
 20
122.684706470648
 30
0.0
 10
647.0000000000032
 20
122.7222044177226
 30
0.0
  0
SPLINE
  5
13A
330
1F
100
AcDbEntity
  8
0
  6
Continuous
 62
     7
370
    30
100
AcDbSpline
210
0.0
220
0.0
230
1.0
 70
     8
 71
     3
 72
    33
 73
    29
 74
     0
 42
0.000000001
 43
0.00000001
 40
0.0
 40
0.0
 40
0.0
 40
0.0
 40
0.0200252971582969
 40
0.0608574537478412
 40
0.1016896103373881
 40
0.1425217669269324
 40
0.1833539235164781
 40
0.2241860801060223
 40
0.2650182366955652
 40
0.3024479589603702
 40
0.3398776812251688
 40
0.3773074034899715
 40
0.4147371257547736
 40
0.4521668480195746
 40
0.4895965702843774
 40
0.53042872687392
 40
0.5712608834634635
 40
0.6120930400530117
 40
0.652925196642556
 40
0.6937573532320982
 40
0.7345895098216441
 40
0.7754216664111923
 40
0.8128513886759902
 40
0.8502811109407907
 40
0.8877108332055937
 40
0.9251405554703978
 40
0.9625702777351981
 40
0.9999999999999999
 40
0.9999999999999999
 40
0.9999999999999999
 40
0.9999999999999999
 10
670.0000000000031
 20
122.721516642174
 30
0.0
 10
670.0573522660275
 20
122.6627762108261
 30
0.0
 10
670.2316474512288
 20
122.4842623513001
 30
0.0
 10
670.510556492849
 20
122.1742591025713
 30
0.0
 10
670.8369615606689
 20
121.7925948201311
 30
0.0
 10
671.1506091715199
 20
121.400305172524
 30
0.0
 10
671.4519578472901
 20
120.9985188141419
 30
0.0
 10
671.7405048419827
 20
120.5874330543334
 30
0.0
 10
672.0083693919919
 20
120.1791682673981
 30
0.0
 10
672.2565254132122
 20
119.7749308413886
 30
0.0
 10
672.4859984232208
 20
119.3758150622342
 30
0.0
 10
672.7038947560095
 20
118.9702633236071
 30
0.0
 10
672.9100345216472
 20
118.5586112826668
 30
0.0
 10
673.104247120095
 20
118.1411992753061
 30
0.0
 10
673.2918897233169
 20
117.7055625112183
 30
0.0
 10
673.4714823178264
 20
117.2514934977413
 30
0.0
 10
673.6414578093442
 20
116.7788866895808
 30
0.0
 10
673.7965187569719
 20
116.301178202575
 30
0.0
 10
673.9365122294297
 20
115.8188391234146
 30
0.0
 10
674.0613002736085
 20
115.3323442921564
 30
0.0
 10
674.1707603867422
 20
114.8421734902843
 30
0.0
 10
674.2621715829283
 20
114.3625111579507
 30
0.0
 10
674.3369205062038
 20
113.8941071413973
 30
0.0
 10
674.3963448378394
 20
113.4375785483849
 30
0.0
 10
674.4426798551166
 20
112.9795293757859
 30
0.0
 10
674.4755642810785
 20
112.5203383079738
 30
0.0
 10
674.4961764647026
 20
112.0603855390785
 30
0.0
 10
674.4987254882362
 20
111.7534963417808
 30
0.0
 10
674.500000000003
 20
111.6000517431319
 30
0.0
  0
ARC
  5
13B
330
1F
100
AcDbEntity
  8
0
  6
Continuous
 62
     7
370
    30
100
AcDbCircle
 10
658.5
 20
111.6000517431
 30
0.0
 40
16.0
100
AcDbArc
 50
179.83079806
 51
180.0
  0
SPLINE
  5
13C
330
1F
100
AcDbEntity
  8
0
  6
Continuous
 62
     7
370
    30
100
AcDbSpline
210
0.0
220
0.0
230
1.0
 70
     8
 71
     3
 72
   111
 73
   107
 74
     0
 42
0.000000001
 43
0.00000001
 40
0.0
 40
0.0
 40
0.0
 40
0.0
 40
0.0099999711532839
 40
0.0199999423065672
 40
0.0299999134598498
 40
0.0399998846131333
 40
0.0499998557664166
 40
0.0599998269197005
 40
0.0699997980729831
 40
0.0791664983941531
 40
0.0883331987153226
 40
0.0974998990364922
 40
0.1066665993576613
 40
0.1158332996788305
 40
0.1250000000000002
 40
0.1349999711532833
 40
0.1449999423065669
 40
0.1549999134598506
 40
0.1649998846131341
 40
0.1749998557664167
 40
0.1849998269197003
 40
0.1949997980729836
 40
0.2041664983941535
 40
0.2133331987153224
 40
0.2224998990364918
 40
0.2316665993576618
 40
0.2408332996788312
 40
0.2500000000000001
 40
0.259999971153284
 40
0.2699999423065672
 40
0.2799999134598506
 40
0.2899998846131339
 40
0.2999998557664172
 40
0.3099998269197003
 40
0.3199997980729835
 40
0.3291664983941532
 40
0.3383331987153224
 40
0.3474998990364921
 40
0.3566665993576613
 40
0.3658332996788311
 40
0.3750000000000004
 40
0.3849999711532837
 40
0.3949999423065668
 40
0.4049999134598501
 40
0.4149998846131335
 40
0.4249998557664169
 40
0.4349998269197005
 40
0.4449997980729837
 40
0.454166498394153
 40
0.4633331987153224
 40
0.4724998990364919
 40
0.4816665993576613
 40
0.4908332996788307
 40
0.5000000000000002
 40
0.5099999711532835
 40
0.5199999423065668
 40
0.52999991345985
 40
0.5399998846131334
 40
0.5499998557664167
 40
0.5599998269197001
 40
0.5699997980729835
 40
0.5791664983941529
 40
0.5883331987153224
 40
0.5974998990364917
 40
0.606666599357661
 40
0.6158332996788304
 40
0.6249999999999998
 40
0.6349999711532832
 40
0.6449999423065664
 40
0.6549999134598499
 40
0.6649998846131333
 40
0.6749998557664166
 40
0.6849998269197
 40
0.6949997980729835
 40
0.7041664983941531
 40
0.7133331987153225
 40
0.7224998990364919
 40
0.7316665993576614
 40
0.7408332996788305
 40
0.7500000000000001
 40
0.7599999711532831
 40
0.7699999423065671
 40
0.77999991345985
 40
0.7899998846131331
 40
0.7999998557664167
 40
0.8099998269197
 40
0.8199997980729836
 40
0.8291664983941529
 40
0.8383331987153216
 40
0.8474998990364915
 40
0.856666599357661
 40
0.8658332996788303
 40
0.875
 40
0.8849999711532828
 40
0.8949999423065669
 40
0.9049999134598499
 40
0.9149998846131331
 40
0.9249998557664169
 40
0.9349998269197004
 40
0.9449997980729835
 40
0.9541664983941532
 40
0.9633331987153224
 40
0.9724998990364923
 40
0.9816665993576612
 40
0.9908332996788304
 40
1.0
 40
1.0
 40
1.0
 40
1.0
 10
674.4999302321943
 20
111.5528017165447
 30
0.0
 10
674.4979191086647
 20
111.3854128186687
 30
0.0
 10
674.4938968616057
 20
111.0506350229166
 30
0.0
 10
674.4678861364638
 20
110.5490219914498
 30
0.0
 10
674.427278184092
 20
110.0484409009927
 30
0.0
 10
674.3706782774682
 20
109.5493891109473
 30
0.0
 10
674.2985265702728
 20
109.0523569240926
 30
0.0
 10
674.2107912551612
 20
108.5578347577023
 30
0.0
 10
674.1104524761521
 20
108.0799602363934
 30
0.0
 10
673.9990653225083
 20
107.6188939668795
 30
0.0
 10
673.8781254727986
 20
107.1746813486387
 30
0.0
 10
673.7444570226764
 20
106.7341319631969
 30
0.0
 10
673.5981707016415
 20
106.2976101187039
 30
0.0
 10
673.4393873903988
 20
105.8654768330294
 30
0.0
 10
673.2630533285416
 20
105.4251412387429
 30
0.0
 10
673.0679772696728
 20
104.9775057840076
 30
0.0
 10
672.8529787678544
 20
104.5236065589343
 30
0.0
 10
672.6238420676873
 20
104.0766774028599
 30
0.0
 10
672.3807930899266
 20
103.6371590896077
 30
0.0
 10
672.1240711048442
 20
103.2054843042836
 30
0.0
 10
671.8539293307362
 20
102.7820787254328
 30
0.0
 10
671.5785014250705
 20
102.3788769920361
 30
0.0
 10
671.2992924935562
 20
101.9954301121787
 30
0.0
 10
671.0177001905993
 20
101.6312089006025
 30
0.0
 10
670.725747096868
 20
101.2752392374012
 30
0.0
 10
670.4236747039864
 20
100.927815462282
 30
0.0
 10
670.111732771516
 20
100.5892249325664
 30
0.0
 10
669.780437489764
 20
100.2497656958405
 30
0.0
 10
669.4290331687635
 20
99.91072709594984
 30
0.0
 10
669.0568251925092
 20
99.57351783639001
 30
0.0
 10
668.674218180539
 20
99.2481546972665
 30
0.0
 10
668.281589414772
 20
98.93495858367652
 30
0.0
 10
667.8793254197598
 20
98.63423782246133
 30
0.0
 10
667.4678229293958
 20
98.34628893334302
 30
0.0
 10
667.0591607299066
 20
98.07902992836448
 30
0.0
 10
666.6545579015436
 20
97.8314704640122
 30
0.0
 10
666.2551035760139
 20
97.6025871796461
 30
0.0
 10
665.8492305815031
 20
97.3852898663033
 30
0.0
 10
665.4372745998188
 20
97.17975816749875
 30
0.0
 10
665.0195762828514
 20
96.98616211369298
 30
0.0
 10
664.5836629263862
 20
96.79916296191699
 30
0.0
 10
664.1293292279997
 20
96.62024102490501
 30
0.0
 10
663.6564719551259
 20
96.45096355502031
 30
0.0
 10
663.1785350313322
 20
96.29660813793545
 30
0.0
 10
662.6959897685476
 20
96.1573270457517
 30
0.0
 10
662.2093112098855
 20
96.03325739415352
 30
0.0
 10
661.7189793177412
 20
95.92452148533648
 30
0.0
 10
661.2391825324709
 20
95.83381749491754
 30
0.0
 10
660.7706686592234
 20
95.75976421893168
 30
0.0
 10
660.3140528041512
 20
95.7009996297365
 30
0.0
 10
659.8559357734088
 20
95.65539484706176
 30
0.0
 10
659.3966964292721
 20
95.62298751986376
 30
0.0
 10
658.9367145509999
 20
95.60380451416457
 30
0.0
 10
658.4624238736819
 20
95.59768156398424
 30
0.0
 10
657.9742006798926
 20
95.60606500479629
 30
0.0
 10
657.4725488075744
 20
95.63044248046299
 30
0.0
 10
656.9719085654308
 20
95.67055040804951
 30
0.0
 10
656.4727736755317
 20
95.72634928761842
 30
0.0
 10
655.9756355126982
 20
95.79778418779728
 30
0.0
 10
655.4809843334455
 20
95.88478460839428
 30
0.0
 10
655.0029621776881
 20
95.98441887779342
 30
0.0
 10
654.5417319400989
 20
96.0951248173047
 30
0.0
 10
654.0973412306478
 20
96.2154087040063
 30
0.0
 10
653.6565949552888
 20
96.34842648784092
 30
0.0
 10
653.2198575854113
 20
96.49406810212629
 30
0.0
 10
652.787490316943
 20
96.6522131659247
 30
0.0
 10
652.346894833983
 20
96.82789685186293
 30
0.0
 10
651.8989718247561
 20
97.02231173513776
 30
0.0
 10
651.4447556352386
 20
97.23663979093166
 30
0.0
 10
650.9974886311536
 20
97.46511632138017
 30
0.0
 10
650.557611919431
 20
97.70751605685818
 30
0.0
 10
650.1255585380026
 20
97.9636003662277
 30
0.0
 10
649.7017545388433
 20
98.23311666001483
 30
0.0
 10
649.2981465577966
 20
98.50794891188691
 30
0.0
 10
648.9142878258241
 20
98.7865913548101
 30
0.0
 10
648.5496512219718
 20
99.06764555452513
 30
0.0
 10
648.1932508591183
 20
99.35907271766742
 30
0.0
 10
647.845381433229
 20
99.66063178748708
 30
0.0
 10
647.5063306700974
 20
99.97207342899699
 30
0.0
 10
647.166382624426
 20
100.302867115989
 30
0.0
 10
646.8268255228286
 20
100.6537704414057
 30
0.0
 10
646.4890670416198
 20
101.0254801005372
 30
0.0
 10
646.1631393130822
 20
101.4076062756149
 30
0.0
 10
645.8493637990441
 20
101.7997721589674
 30
0.0
 10
645.5480493967397
 20
102.2015916817298
 30
0.0
 10
645.2594932113708
 20
102.6126685482712
 30
0.0
 10
644.9916310814608
 20
103.0209356769919
 30
0.0
 10
644.7434744646279
 20
103.4251725266624
 30
0.0
 10
644.5140016095196
 20
103.8242884557047
 30
0.0
 10
644.2961052352256
 20
104.2298401541694
 30
0.0
 10
644.0899654807087
 20
104.6414922058708
 30
0.0
 10
643.8957528792834
 20
105.0589042103501
 30
0.0
 10
643.7081102768745
 20
105.4945409752249
 30
0.0
 10
643.5285176821284
 20
105.9486099884728
 30
0.0
 10
643.3585421906758
 20
106.4212167966963
 30
0.0
 10
643.2034812430306
 20
106.8989252836854
 30
0.0
 10
643.0634877705775
 20
107.3812643628503
 30
0.0
 10
642.9386997263975
 20
107.8677591941072
 30
0.0
 10
642.829239613264
 20
108.3579299959798
 30
0.0
 10
642.7378284170778
 20
108.8375923283131
 30
0.0
 10
642.6630794938025
 20
109.3059963448665
 30
0.0
 10
642.6036551621669
 20
109.7625249378789
 30
0.0
 10
642.5573201448896
 20
110.2205741104781
 30
0.0
 10
642.5244357189279
 20
110.67976517829
 30
0.0
 10
642.5038235353037
 20
111.1397179471855
 30
0.0
 10
642.50127451177
 20
111.446607144483
 30
0.0
 10
642.5000000000032
 20
111.6000517431319
 30
0.0
  0
ARC
  5
13D
330
1F
100
AcDbEntity
  8
0
  6
Continuous
 62
     7
370
    30
100
AcDbCircle
 10
658.5
 20
111.6000517431
 30
0.0
 40
16.00000000000008
100
AcDbArc
 50
359.83079806
 51
0.0
  0
LINE
  5
13E
330
1F
100
AcDbEntity
  8
0
  6
Continuous
 62
     7
370
    30
100
AcDbLine
 10
642.0
 20
116.457005521
 30
0.0
 11
642.0
 21
106.7430979653
 31
0.0
  0
LINE
  5
13F
330
1F
100
AcDbEntity
  8
0
  6
Continuous
 62
     7
370
    30
100
AcDbLine
 10
675.0
 20
106.7430979653
 30
0.0
 11
675.0
 21
116.457005521
 31
0.0
  0
SPLINE
  5
140
330
1F
100
AcDbEntity
  8
0
  6
Continuous
 62
     7
370
    30
100
AcDbSpline
210
0.0
220
0.0
230
1.0
 70
     8
 71
     3
 72
    95
 73
    91
 74
     0
 42
0.000000001
 43
0.00000001
 40
0.0
 40
0.0
 40
0.0
 40
0.0
 40
0.0116666470719378
 40
0.0233332941438757
 40
0.0349999412158134
 40
0.0466665882877516
 40
0.0583332353596895
 40
0.0699998824316272
 40
0.0809999059453018
 40
0.0919999294589759
 40
0.102999952972651
 40
0.113999976486326
 40
0.1250000000000003
 40
0.1366666470719375
 40
0.1483332941438756
 40
0.1599999412158135
 40
0.1716665882877512
 40
0.1833332353596888
 40
0.1949998824316271
 40
0.2059999059453009
 40
0.2169999294589761
 40
0.2279999529726504
 40
0.2389999764863254
 40
0.2500000000000003
 40
0.2616666470719382
 40
0.2733332941438762
 40
0.2849999412158134
 40
0.2966665882877518
 40
0.3083332353596894
 40
0.3199998824316267
 40
0.3309999059453016
 40
0.3419999294589762
 40
0.352999952972651
 40
0.3639999764863253
 40
0.3750000000000001
 40
0.3866666470719381
 40
0.3983332941438759
 40
0.4099999412158137
 40
0.4216665882877517
 40
0.4333332353596895
 40
0.4449998824316269
 40
0.4559999059453017
 40
0.4669999294589763
 40
0.477999952972651
 40
0.4889999764863256
 40
0.5000000000000003
 40
0.5116666470719381
 40
0.523333294143876
 40
0.5349999412158138
 40
0.5466665882877517
 40
0.5583332353596894
 40
0.5699998824316272
 40
0.5809999059453019
 40
0.5919999294589766
 40
0.6029999529726513
 40
0.6139999764863261
 40
0.6250000000000006
 40
0.6366666470719385
 40
0.6483332941438762
 40
0.6599999412158142
 40
0.6716665882877516
 40
0.6833332353596898
 40
0.6949998824316271
 40
0.7059999059453019
 40
0.7169999294589765
 40
0.7279999529726512
 40
0.7389999764863258
 40
0.7500000000000007
 40
0.7616666470719382
 40
0.7733332941438762
 40
0.7849999412158142
 40
0.7966665882877517
 40
0.8083332353596894
 40
0.8199998824316279
 40
0.8309999059453018
 40
0.8419999294589765
 40
0.8529999529726514
 40
0.8639999764863263
 40
0.8750000000000008
 40
0.8866666470719383
 40
0.8983332941438763
 40
0.909999941215814
 40
0.9216665882877523
 40
0.9333332353596892
 40
0.9449998824316275
 40
0.9559999059453024
 40
0.9669999294589768
 40
0.9779999529726513
 40
0.9889999764863256
 40
0.9999999999999999
 40
0.9999999999999999
 40
0.9999999999999999
 40
0.9999999999999999
 10
674.999996652186
 20
105.769090374888
 30
0.0
 10
674.9428535373272
 20
105.6115618543634
 30
0.0
 10
674.8285673076098
 20
105.296504813314
 30
0.0
 10
674.6400171224828
 20
104.8304095320182
 30
0.0
 10
674.4391270997302
 20
104.3695545466364
 30
0.0
 10
674.224823572835
 20
103.9147580290258
 30
0.0
 10
673.9976156307736
 20
103.4662781413705
 30
0.0
 10
673.7621725270768
 20
103.0329293954227
 30
0.0
 10
673.5195436494542
 20
102.6146074607544
 30
0.0
 10
673.2707003404611
 20
102.2111592260739
 30
0.0
 10
673.0110230017092
 20
101.8145979868694
 30
0.0
 10
672.7407013883098
 20
101.4252143132971
 30
0.0
 10
672.4542629035268
 20
101.0355796190742
 30
0.0
 10
672.1511743770976
 20
100.6465278377035
 30
0.0
 10
671.8309378029958
 20
100.2589607613239
 30
0.0
 10
671.4997015902122
 20
99.88075115992595
 30
0.0
 10
671.1577391635291
 20
99.51221129785954
 30
0.0
 10
670.805332866198
 20
99.15364539898574
 30
0.0
 10
670.4496780848169
 20
98.81198237868222
 30
0.0
 10
670.0917232427668
 20
98.48682006064108
 30
0.0
 10
669.7323528835173
 20
98.17771431849064
 30
0.0
 10
669.364743652713
 20
97.87845421946089
 30
0.0
 10
668.9891647692496
 20
97.5892589269094
 30
0.0
 10
668.5981502863141
 20
97.30470686461578
 30
0.0
 10
668.1914447447017
 20
97.02575427834908
 30
0.0
 10
667.7688467213882
 20
96.75341145593269
 30
0.0
 10
667.3386006864831
 20
96.49331862509058
 30
0.0
 10
666.9010618131956
 20
96.24569054596915
 30
0.0
 10
666.4565913390189
 20
96.01073161377998
 30
0.0
 10
666.0141455808608
 20
95.7928653840635
 30
0.0
 10
665.5745065602697
 20
95.59142126378556
 30
0.0
 10
665.1383827122647
 20
95.40570803286496
 30
0.0
 10
664.6973897756801
 20
95.2318736768642
 30
0.0
 10
664.251850712023
 20
95.07004550350374
 30
0.0
 10
663.7930079906993
 20
94.91731842958096
 30
0.0
 10
663.3209078414059
 20
94.77468115534937
 30
0.0
 10
662.8356643623292
 20
94.64315751396151
 30
0.0
 10
662.3468432625588
 20
94.52562512001784
 30
0.0
 10
661.8548480849911
 20
94.42218104596245
 30
0.0
 10
661.3600850118946
 20
94.33291064924293
 30
0.0
 10
660.8724295709778
 20
94.2593163973801
 30
0.0
 10
660.3924238871319
 20
94.20052230331838
 30
0.0
 10
659.9205337078188
 20
94.15565501450656
 30
0.0
 10
659.4476018225049
 20
94.1235834492602
 30
0.0
 10
658.973974583211
 20
94.10433109521377
 30
0.0
 10
658.4904259130695
 20
94.09778238348892
 30
0.0
 10
657.9972993859875
 20
94.10486555023357
 30
0.0
 10
657.4950138983522
 20
94.12652175353037
 30
0.0
 10
656.9935574076674
 20
94.1625955550644
 30
0.0
 10
656.493343901336
 20
94.21305721665624
 30
0.0
 10
655.9947863331697
 20
94.27786503604929
 30
0.0
 10
655.5077513341898
 20
94.35545919002774
 30
0.0
 10
655.032490183437
 20
94.44484062325542
 30
0.0
 10
654.5691821696145
 20
94.5450359288616
 30
0.0
 10
654.1087577324695
 20
94.65774125758874
 30
0.0
 10
653.6515540641833
 20
94.78287406960584
 30
0.0
 10
653.1887436133591
 20
94.92311917158341
 30
0.0
 10
652.7209350088502
 20
95.07925709942478
 30
0.0
 10
652.2488125771333
 20
95.25205788559165
 30
0.0
 10
651.7818478504252
 20
95.43834764703185
 30
0.0
 10
651.3204263538723
 20
95.63797262975183
 30
0.0
 10
650.8649290032056
 20
95.85076799099346
 30
0.0
 10
650.4242862613859
 20
96.07225820983962
 30
0.0
 10
649.9984349462621
 20
96.30141505444234
 30
0.0
 10
649.587251038129
 20
96.53725654491818
 30
0.0
 10
649.1826049892403
 20
96.78414665926604
 30
0.0
 10
648.7847931424328
 20
97.04190458732465
 30
0.0
 10
648.3862160898823
 20
97.31576319171926
 30
0.0
 10
647.987690316116
 20
97.60628195291554
 30
0.0
 10
647.5901012643242
 20
97.91398740968499
 30
0.0
 10
647.2015139016656
 20
98.23298551749909
 30
0.0
 10
646.8222490591668
 20
98.5630129564361
 30
0.0
 10
646.4526198158079
 20
98.90379723524678
 30
0.0
 10
646.0997811767064
 20
99.24836774721662
 30
0.0
 10
645.7633614364008
 20
99.59576371776969
 30
0.0
 10
645.442944922258
 20
99.94508688103282
 30
0.0
 10
645.1321061182246
 20
100.3029589131693
 30
0.0
 10
644.8310726678943
 20
100.6691177265274
 30
0.0
 10
644.5341875013866
 20
101.0508524516441
 30
0.0
 10
644.2423982335242
 20
101.4484489361995
 30
0.0
 10
643.9567081780149
 20
101.862140729639
 30
0.0
 10
643.6830179062016
 20
102.2838675936613
 30
0.0
 10
643.4215529578788
 20
102.7132812319034
 30
0.0
 10
643.1725308135293
 20
103.1500277011364
 30
0.0
 10
642.9406524614916
 20
103.58529424318
 30
0.0
 10
642.7252945520618
 20
104.0182855962334
 30
0.0
 10
642.525709172533
 20
104.4482434582498
 30
0.0
 10
642.3380740466191
 20
104.8835293423631
 30
0.0
 10
642.1614249285183
 20
105.3234348551406
 30
0.0
 10
642.0538105413863
 20
105.6205385349722
 30
0.0
 10
642.0000033478201
 20
105.769090374888
 30
0.0
  0
SPLINE
  5
141
330
1F
100
AcDbEntity
  8
0
  6
Continuous
 62
     7
370
    30
100
AcDbSpline
210
0.0
220
0.0
230
1.0
 70
    24
 71
     3
 72
    19
 73
    15
 74
     0
 42
0.000000001
 43
0.00000001
 40
0.0
 40
0.0
 40
0.0
 40
0.0
 40
0.1370033719259811
 40
0.2742623752599592
 40
0.4125703264033497
 40
0.5514299362566766
 40
0.6514060243602022
 40
0.7521537629650004
 40
0.8317964743822919
 40
0.8715846330721616
 40
0.9120612439906992
 40
0.9531316270887
 40
0.9878590872487234
 40
1.0
 40
1.0
 40
1.0
 40
1.0
 10
642.0000000000031
 20
106.7430979653019
 30
0.0
 10
642.0000000000034
 20
106.6940275682438
 30
0.0
 10
642.0000000000041
 20
106.5957952148142
 30
0.0
 10
641.9999999999989
 20
106.4482769915137
 30
0.0
 10
642.0000000000189
 20
106.3007440446674
 30
0.0
 10
642.0000000000027
 20
106.1676646985479
 30
0.0
 10
642.0000000000032
 20
106.0498412904267
 30
0.0
 10
642.0000000000031
 20
105.9550936404027
 30
0.0
 10
642.0000000000031
 20
105.8843904962637
 30
0.0
 10
642.0000000000031
 20
105.8372622902007
 30
0.0
 10
642.0000000000031
 20
105.8050287373194
 30
0.0
 10
642.0000000000031
 20
105.7804599505571
 30
0.0
 10
642.0000000000031
 20
105.7700073405186
 30
0.0
 10
642.0000000000031
 20
105.7693200056642
 30
0.0
 10
642.0000000000031
 20
105.7691419565454
 30
0.0
  0
SPLINE
  5
142
330
1F
100
AcDbEntity
  8
0
  6
Continuous
 62
     7
370
    30
100
AcDbSpline
210
0.0
220
0.0
230
1.0
 70
    24
 71
     3
 72
    20
 73
    16
 74
     0
 42
0.000000001
 43
0.00000001
 40
0.0
 40
0.0
 40
0.0
 40
0.0
 40
0.0352834509417638
 40
0.0571696564049182
 40
0.0796775008996406
 40
0.1171973000850802
 40
0.1556371294864209
 40
0.207291584509903
 40
0.2594914862695153
 40
0.3660994581332931
 40
0.4440434940660858
 40
0.5222148938255509
 40
0.6796263754964814
 40
0.8395777787824572
 40
1.0
 40
1.0
 40
1.0
 40
1.0
 10
675.0000000000032
 20
105.7691419565454
 30
0.0
 10
675.0000000000031
 20
105.7705793830792
 30
0.0
 10
675.000000000003
 20
105.7729084404378
 30
0.0
 10
675.0000000000008
 20
105.7861917358153
 30
0.0
 10
675.0000000000042
 20
105.8031985870879
 30
0.0
 10
675.0000000000027
 20
105.8283896028251
 30
0.0
 10
675.0000000000033
 20
105.8650487253582
 30
0.0
 10
675.0000000000033
 20
105.9092804440417
 30
0.0
 10
675.0000000000022
 20
105.9778359529851
 30
0.0
 10
675.0000000000102
 20
106.0583563355814
 30
0.0
 10
674.9999999999847
 20
106.1495446539126
 30
0.0
 10
675.0000000000138
 20
106.2596614787402
 30
0.0
 10
674.9999999999995
 20
106.4001380867468
 30
0.0
 10
675.0000000000033
 20
106.5708706869323
 30
0.0
 10
675.0000000000032
 20
106.6856326548252
 30
0.0
 10
675.0000000000032
 20
106.7430979653018
 30
0.0
  0
SPLINE
  5
143
330
1F
100
AcDbEntity
  8
0
  6
Continuous
 62
     7
370
    30
100
AcDbSpline
210
0.0
220
0.0
230
1.0
 70
     8
 71
     3
 72
    26
 73
    22
 74
     0
 42
0.000000001
 43
0.00000001
 40
0.0
 40
0.0
 40
0.0
 40
0.0
 40
0.0558842649392844
 40
0.1117685298785627
 40
0.1676527948178517
 40
0.2235370597571317
 40
0.2794213246964165
 40
0.3353055896356992
 40
0.3879966691366103
 40
0.440687748637524
 40
0.4933788281384319
 40
0.5460699076393447
 40
0.5987609871402549
 40
0.6546452520795404
 40
0.7105295170188212
 40
0.7664137819581055
 40
0.8222980468973885
 40
0.8781823118366764
 40
0.9340665767759586
 40
0.9867576562768697
 40
1.0
 40
1.0
 40
1.0
 40
1.0
 10
642.0000033478202
 20
117.4310131113759
 30
0.0
 10
642.057146462679
 20
117.5885416319004
 30
0.0
 10
642.1714326923967
 20
117.9035986729495
 30
0.0
 10
642.3599828775222
 20
118.369693954247
 30
0.0
 10
642.5608729002805
 20
118.8305489396224
 30
0.0
 10
642.7751764271544
 20
119.2853454572574
 30
0.0
 10
643.0023843692952
 20
119.7338253448211
 30
0.0
 10
643.2378274727015
 20
120.1671740911044
 30
0.0
 10
643.4804563513483
 20
120.5854960245888
 30
0.0
 10
643.7292996565677
 20
120.9889442636325
 30
0.0
 10
643.9889770094104
 20
121.3855054865449
 30
0.0
 10
644.2592985702204
 20
121.774889220922
 30
0.0
 10
644.5457372552345
 20
122.1645236836337
 30
0.0
 10
644.8488249903158
 20
122.5535763799768
 30
0.0
 10
645.1690645532614
 20
122.9411400005959
 30
0.0
 10
645.5002896173834
 20
123.3193624922974
 30
0.0
 10
645.842293649869
 20
123.6878542489105
 30
0.0
 10
646.1945446726514
 20
124.0465996792936
 30
0.0
 10
646.5507679091688
 20
124.3876054405067
 30
0.0
 10
646.8196459033778
 20
124.634978170284
 30
0.0
 10
646.9698353292778
 20
124.7635354705429
 30
0.0
 10
647.0000000000032
 20
124.7893554549288
 30
0.0
  0
SPLINE
  5
144
330
1F
100
AcDbEntity
  8
0
  6
Continuous
 62
     7
370
    30
100
AcDbSpline
210
0.0
220
0.0
230
1.0
 70
     8
 71
     3
 72
    26
 73
    22
 74
     0
 42
0.000000001
 43
0.00000001
 40
0.0
 40
0.0
 40
0.0
 40
0.0
 40
0.0259598209242168
 40
0.0818472567738931
 40
0.1377346926235732
 40
0.190428761851411
 40
0.2431228310792428
 40
0.2958169003070812
 40
0.3485109695349189
 40
0.4012050387627546
 40
0.4570924746124295
 40
0.512979910462107
 40
0.5688673463117832
 40
0.6247547821614623
 40
0.68064221801114
 40
0.7365296538608137
 40
0.789223723088652
 40
0.8419177923164879
 40
0.8946118615443239
 40
0.9473059307721589
 40
1.0
 40
1.0
 40
1.0
 40
1.0
 10
670.0000000000031
 20
124.7885750048103
 30
0.0
 10
670.0589189985831
 20
124.7377131138806
 30
0.0
 10
670.2446813896146
 20
124.5773535236093
 30
0.0
 10
670.5470498346729
 20
124.295926999529
 30
0.0
 10
670.9003017276237
 20
123.9518309157792
 30
0.0
 10
671.2366169042451
 20
123.6043149028775
 30
0.0
 10
671.5570608812977
 20
123.2550232678856
 30
0.0
 10
671.8678923269441
 20
122.8971427880928
 30
0.0
 10
672.1689277479127
 20
122.5309862370887
 30
0.0
 10
672.4658123796655
 20
122.1492508980566
 30
0.0
 10
672.7576017991445
 20
121.7516545875618
 30
0.0
 10
673.0432918132395
 20
121.3379627465774
 30
0.0
 10
673.3169820961497
 20
120.9162358952947
 30
0.0
 10
673.578447041499
 20
120.4868222536389
 30
0.0
 10
673.8274691866455
 20
120.0500757853212
 30
0.0
 10
674.0593475384723
 20
119.614809243035
 30
0.0
 10
674.2747054479555
 20
119.1818178900434
 30
0.0
 10
674.4742908274703
 20
118.7518600280105
 30
0.0
 10
674.6619259533878
 20
118.3165741439019
 30
0.0
 10
674.8385750714879
 20
117.8766686311228
 30
0.0
 10
674.94618945862
 20
117.5795649512915
 30
0.0
 10
674.999996652186
 20
117.4310131113758
 30
0.0
  0
SPLINE
  5
145
330
1F
100
AcDbEntity
  8
0
  6
Continuous
 62
     7
370
    30
100
AcDbSpline
210
0.0
220
0.0
230
1.0
 70
    24
 71
     3
 72
    20
 73
    16
 74
     0
 42
0.000000001
 43
0.00000001
 40
0.0
 40
0.0
 40
0.0
 40
0.0
 40
0.0352834509417766
 40
0.0571696564049196
 40
0.0796775008996105
 40
0.1171973000850687
 40
0.1556371294864174
 40
0.2072915845098998
 40
0.2594914862695124
 40
0.3660994581332864
 40
0.4440434940660827
 40
0.5222148938255482
 40
0.6796263754964283
 40
0.8395777787824565
 40
1.0
 40
1.0
 40
1.0
 40
1.0
 10
642.0000000000031
 20
117.4309615297184
 30
0.0
 10
642.0000000000031
 20
117.4295241031845
 30
0.0
 10
642.0000000000032
 20
117.4271950458257
 30
0.0
 10
642.0000000000053
 20
117.4139117504488
 30
0.0
 10
642.000000000002
 20
117.396904899176
 30
0.0
 10
642.0000000000034
 20
117.3717138834385
 30
0.0
 10
642.000000000003
 20
117.3350547609057
 30
0.0
 10
642.000000000003
 20
117.2908230422219
 30
0.0
 10
642.000000000004
 20
117.2222675332789
 30
0.0
 10
641.999999999996
 20
117.1417471506822
 30
0.0
 10
642.0000000000216
 20
117.0505588323514
 30
0.0
 10
641.9999999999924
 20
116.9404420075236
 30
0.0
 10
642.0000000000066
 20
116.7999653995171
 30
0.0
 10
642.000000000003
 20
116.6292327993317
 30
0.0
 10
642.000000000003
 20
116.5144708314387
 30
0.0
 10
642.0000000000031
 20
116.4570055209619
 30
0.0
  0
SPLINE
  5
146
330
1F
100
AcDbEntity
  8
0
  6
Continuous
 62
     7
370
    30
100
AcDbSpline
210
0.0
220
0.0
230
1.0
 70
    24
 71
     3
 72
    19
 73
    15
 74
     0
 42
0.000000001
 43
0.00000001
 40
0.0
 40
0.0
 40
0.0
 40
0.0
 40
0.137003371925983
 40
0.2742623752599631
 40
0.4125703264033539
 40
0.5514299362566851
 40
0.6514060243602121
 40
0.7521537629650028
 40
0.8317964743822615
 40
0.8715846330721244
 40
0.9120612439906627
 40
0.9531316270887252
 40
0.987859087248749
 40
1.0
 40
1.0
 40
1.0
 40
1.0
 10
675.0000000000032
 20
116.4570055209619
 30
0.0
 10
675.0000000000027
 20
116.5060759180201
 30
0.0
 10
675.000000000002
 20
116.6043082714498
 30
0.0
 10
675.0000000000073
 20
116.75182649475
 30
0.0
 10
674.9999999999874
 20
116.8993594415965
 30
0.0
 10
675.0000000000036
 20
117.032438787716
 30
0.0
 10
675.000000000003
 20
117.1502621958372
 30
0.0
 10
675.0000000000031
 20
117.2450098458612
 30
0.0
 10
675.0000000000032
 20
117.31571299
 30
0.0
 10
675.0000000000032
 20
117.3628411960631
 30
0.0
 10
675.0000000000031
 20
117.3950747489442
 30
0.0
 10
675.0000000000031
 20
117.4196435357069
 30
0.0
 10
675.0000000000032
 20
117.4300961457452
 30
0.0
 10
675.0000000000032
 20
117.4307834805997
 30
0.0
 10
675.0000000000032
 20
117.4309615297184
 30
0.0
  0
ARC
  5
147
330
1F
100
AcDbEntity
  8
0
  6
Continuous
 62
     7
370
    30
100
AcDbCircle
 10
658.5
 20
111.6000517431
 30
0.0
 40
17.49999999999935
100
AcDbArc
 50
160.5370276712
 51
199.4629723288
  0
ARC
  5
148
330
1F
100
AcDbEntity
  8
0
  6
Continuous
 62
     7
370
    30
100
AcDbCircle
 10
658.5
 20
111.6000517431
 30
0.0
 40
17.49999999999934
100
AcDbArc
 50
340.5370276712
 51
19.4629723288
  0
SPLINE
  5
149
330
1F
100
AcDbEntity
  8
0
  6
Continuous
 62
     7
370
    30
100
AcDbSpline
210
0.0
220
0.0
230
1.0
 70
    24
 71
     3
 72
   120
 73
   116
 74
     0
 42
0.000000001
 43
0.00000001
 40
0.0
 40
0.0
 40
0.0
 40
0.0
 40
0.0055577874630734
 40
0.016468283560344
 40
0.0218271063002276
 40
0.0271874195447301
 40
0.0325498886508916
 40
0.037915178173698
 40
0.0432839516207887
 40
0.0486568712091026
 40
0.0540345976239027
 40
0.0594177897806109
 40
0.0711904141419263
 40
0.0829427262698376
 40
0.0946816788368129
 40
0.1064142482658068
 40
0.1181474223658217
 40
0.1258336439375548
 40
0.1335250786612126
 40
0.1412236810386896
 40
0.1489314001192217
 40
0.1564437965125567
 40
0.1637118081684781
 40
0.1748224449400469
 40
0.1859216690432163
 40
0.1970153730269972
 40
0.2081094582363274
 40
0.219209825408126
 40
0.2303223652721871
 40
0.2414529492315622
 40
0.2525557048776848
 40
0.2636415013590108
 40
0.2747161756824116
 40
0.285785582449242
 40
0.2968555846184315
 40
0.3041070246724566
 40
0.3113628766375295
 40
0.3186247809456597
 40
0.3258943739316032
 40
0.3333725773330258
 40
0.3410788690783912
 40
0.3526221930087522
 40
0.3641522187047103
 40
0.3756755543771888
 40
0.3871988197466365
 40
0.3917273340579618
 40
0.396257260286574
 40
0.4007889990792058
 40
0.4053229506020828
 40
0.4098595144358821
 40
0.4143990894714616
 40
0.4189420738064949
 40
0.4234888646431439
 40
0.4344418636093006
 40
0.4453758340046777
 40
0.4562963653935014
 40
0.4672090679906833
 40
0.4781195640879167
 40
0.4852649306407751
 40
0.492413341330093
 40
0.4995663723666522
 40
0.5067255969095189
 40
0.5138925840393225
 40
0.5210688977448913
 40
0.532256284654429
 40
0.5434233815613635
 40
0.5545761423583303
 40
0.5657205439151737
 40
0.5768625765540734
 40
0.5878091469848102
 40
0.5987648876388585
 40
0.609735457596842
 40
0.6207264930334067
 40
0.6319138801091146
 40
0.6430809771091395
 40
0.6542337379470452
 40
0.665378139513769
 40
0.6765201721526819
 40
0.6838172344083162
 40
0.6911175324663698
 40
0.6984227456490697
 40
0.7057345498920332
 40
0.7130546166037919
 40
0.7203846115407774
 40
0.7313376109647074
 40
0.7422715816164525
 40
0.7531921131179602
 40
0.7641048157422973
 40
0.7750153118395694
 40
0.780374134579469
 40
0.7857344478239978
 40
0.7910969169301958
 40
0.7964622064530487
 40
0.8018309799001958
 40
0.8072038994885763
 40
0.8125816259034531
 40
0.8179648180602479
 40
0.8297374424217718
 40
0.8414897545498315
 40
0.8532287071168951
 40
0.8649612765459179
 40
0.8766944506459022
 40
0.8843806722175839
 40
0.892072106941165
 40
0.8997707093185409
 40
0.9074784283989473
 40
0.9149911235224817
 40
0.9222597022559098
 40
0.9333709924810524
 40
0.9444706106035359
 40
0.9555644496356855
 40
0.9666584117992321
 40
0.9777583991194876
 40
0.9888703040210844
 40
1.0
 40
1.0
 40
1.0
 40
1.0
 10
627.0016397059069
 20
450.1000517431319
 30
0.0
 10
627.0012472634803
 20
450.1000517431319
 30
0.0
 10
627.0000844170773
 20
450.1000517431319
 30
0.0
 10
627.0127152885821
 20
450.1000517431319
 30
0.0
 10
627.0311151191498
 20
450.1000517431319
 30
0.0
 10
627.0489606417079
 20
450.1000517431319
 30
0.0
 10
627.070630318168
 20
450.1000517431319
 30
0.0
 10
627.0962166001993
 20
450.1000517431319
 30
0.0
 10
627.1256947319471
 20
450.1000517431319
 30
0.0
 10
627.1590712070755
 20
450.1000517431319
 30
0.0
 10
627.1963448003983
 20
450.1000517431319
 30
0.0
 10
627.253785779141
 20
450.1000517431319
 30
0.0
 10
627.3384569845292
 20
450.1000517431319
 30
0.0
 10
627.4601717118766
 20
450.1000517431319
 30
0.0
 10
627.6001334188135
 20
450.1000517431319
 30
0.0
 10
627.7583421049044
 20
450.1000517431319
 30
0.0
 10
627.9144780058158
 20
450.1000517431319
 30
0.0
 10
628.0618992575659
 20
450.1000517431319
 30
0.0
 10
628.195117239304
 20
450.1000517431319
 30
0.0
 10
628.3361546575727
 20
450.1000517431319
 30
0.0
 10
628.4836853401163
 20
450.1000517431319
 30
0.0
 10
628.6357254592489
 20
450.1000517431319
 30
0.0
 10
628.8188849099331
 20
450.1000517431319
 30
0.0
 10
629.0388988576173
 20
450.1000517431319
 30
0.0
 10
629.3030602881431
 20
450.1000517431319
 30
0.0
 10
629.5825624043183
 20
450.1000517431319
 30
0.0
 10
629.8774043436651
 20
450.1000517431319
 30
0.0
 10
630.1875858180731
 20
450.1000517431319
 30
0.0
 10
630.5131072145031
 20
450.1000517431319
 30
0.0
 10
630.8534375362667
 20
450.1000517431319
 30
0.0
 10
631.208011545487
 20
450.1000517431319
 30
0.0
 10
631.5763564084375
 20
450.1000517431319
 30
0.0
 10
631.9585231921545
 20
450.1000517431319
 30
0.0
 10
632.3545113248327
 20
450.1000517431319
 30
0.0
 10
632.7171316637852
 20
450.1000517431319
 30
0.0
 10
633.0413409444343
 20
450.1000517431319
 30
0.0
 10
633.3230371605301
 20
450.1000517431319
 30
0.0
 10
633.610656439101
 20
450.1000517431319
 30
0.0
 10
633.9068824163719
 20
450.1000517431319
 30
0.0
 10
634.2148678315921
 20
450.1000517431319
 30
0.0
 10
634.5884636740242
 20
450.1000517431319
 30
0.0
 10
635.0288260320214
 20
450.1000517431319
 30
0.0
 10
635.5372062907913
 20
450.1000517431319
 30
0.0
 10
636.0584257474484
 20
450.1000517431319
 30
0.0
 10
636.4843501529666
 20
450.1000517431319
 30
0.0
 10
636.8074358690291
 20
450.1000517431319
 30
0.0
 10
637.0226858170192
 20
450.1000517431319
 30
0.0
 10
637.2399161294603
 20
450.1000517431319
 30
0.0
 10
637.4591271488439
 20
450.1000517431319
 30
0.0
 10
637.6803188036679
 20
450.1000517431319
 30
0.0
 10
637.9034910020862
 20
450.1000517431319
 30
0.0
 10
638.1286441476934
 20
450.1000517431319
 30
0.0
 10
638.4623765152612
 20
450.1000517431319
 30
0.0
 10
638.9083808844716
 20
450.1000517431319
 30
0.0
 10
639.471940310323
 20
450.1000517431319
 30
0.0
 10
640.0445585211106
 20
450.1000517431319
 30
0.0
 10
640.6262316704118
 20
450.1000517431319
 30
0.0
 10
641.148962606334
 20
450.1000517431319
 30
0.0
 10
641.60940617095
 20
450.1000517431319
 30
0.0
 10
642.0049225777752
 20
450.1000517431319
 30
0.0
 10
642.40431962754
 20
450.1000517431319
 30
0.0
 10
642.8075976168958
 20
450.1000517431319
 30
0.0
 10
643.2147571283265
 20
450.1000517431319
 30
0.0
 10
643.7021626111072
 20
450.1000517431319
 30
0.0
 10
644.2716531590792
 20
450.1000517431319
 30
0.0
 10
644.9254147970624
 20
450.1000517431319
 30
0.0
 10
645.58559462287
 20
450.1000517431319
 30
0.0
 10
646.2521906523792
 20
450.1000517431319
 30
0.0
 10
646.9211952337545
 20
450.1000517431319
 30
0.0
 10
647.5924690394165
 20
450.1000517431319
 30
0.0
 10
648.2658889661706
 20
450.1000517431319
 30
0.0
 10
648.9454962326771
 20
450.1000517431319
 30
0.0
 10
649.6348299884422
 20
450.1000517431319
 30
0.0
 10
650.332890460395
 20
450.1000517431319
 30
0.0
 10
651.0386956739518
 20
450.1000517431319
 30
0.0
 10
651.7475856427079
 20
450.1000517431319
 30
0.0
 10
652.4595582134227
 20
450.1000517431319
 30
0.0
 10
653.0923037349337
 20
450.1000517431319
 30
0.0
 10
653.6446323845428
 20
450.1000517431319
 30
0.0
 10
654.1157437855279
 20
450.1000517431319
 30
0.0
 10
654.5881757814047
 20
450.1000517431319
 30
0.0
 10
655.0619288312292
 20
450.1000517431319
 30
0.0
 10
655.5370034372668
 20
450.1000517431319
 30
0.0
 10
656.0916288797463
 20
450.1000517431319
 30
0.0
 10
656.7254934081398
 20
450.1000517431319
 30
0.0
 10
657.4381608983535
 20
450.1000517431319
 30
0.0
 10
658.1505020384651
 20
450.1000517431319
 30
0.0
 10
658.8625123698683
 20
450.1000517431319
 30
0.0
 10
659.4534359094832
 20
450.1000517431319
 30
0.0
 10
659.9233679588358
 20
450.1000517431319
 30
0.0
 10
660.2725870441905
 20
450.1000517431319
 30
0.0
 10
660.6217262162612
 20
450.1000517431319
 30
0.0
 10
660.9707860416783
 20
450.1000517431319
 30
0.0
 10
661.3197663898144
 20
450.1000517431319
 30
0.0
 10
661.6686671218927
 20
450.1000517431319
 30
0.0
 10
662.0174888317114
 20
450.1000517431319
 30
0.0
 10
662.5040672986499
 20
450.1000517431319
 30
0.0
 10
663.1269592888389
 20
450.1000517431319
 30
0.0
 10
663.8840584681121
 20
450.1000517431319
 30
0.0
 10
664.6371150857225
 20
450.1000517431319
 30
0.0
 10
665.386123091445
 20
450.1000517431319
 30
0.0
 10
666.0452961016921
 20
450.1000517431319
 30
0.0
 10
666.6160615332371
 20
450.1000517431319
 30
0.0
 10
667.0998256259475
 20
450.1000517431319
 30
0.0
 10
667.5818544075283
 20
450.1000517431319
 30
0.0
 10
668.057867633458
 20
450.1000517431319
 30
0.0
 10
668.522629501452
 20
450.1000517431319
 30
0.0
 10
669.0550038986012
 20
450.1000517431319
 30
0.0
 10
669.6570966171713
 20
450.1000517431319
 30
0.0
 10
670.3314116842558
 20
450.1000517431319
 30
0.0
 10
670.9990981693742
 20
450.1000517431319
 30
0.0
 10
671.6602056659892
 20
450.1000517431319
 30
0.0
 10
672.3145407954095
 20
450.1000517431319
 30
0.0
 10
672.9628251181891
 20
450.1000517431319
 30
0.0
 10
673.3887644469761
 20
450.1000517431319
 30
0.0
 10
673.6019044660031
 20
450.1000517431319
 30
0.0
  0
SPLINE
  5
14A
330
1F
100
AcDbEntity
  8
0
  6
Continuous
 62
     7
370
    30
100
AcDbSpline
210
0.0
220
0.0
230
1.0
 70
    24
 71
     3
 72
    65
 73
    61
 74
     0
 42
0.000000001
 43
0.00000001
 40
0.0
 40
0.0
 40
0.0
 40
0.0
 40
0.0214731568875644
 40
0.0429130296393316
 40
0.0643309023264499
 40
0.0857380938098485
 40
0.1071459398927174
 40
0.1211689474699895
 40
0.135200273146729
 40
0.1492430891832636
 40
0.1633005600610533
 40
0.1777618683548195
 40
0.1926649438156572
 40
0.2149883950018202
 40
0.2372861289433964
 40
0.2595709251547508
 40
0.2818555854083383
 40
0.2906132074578508
 40
0.2993735599918489
 40
0.3081374178146979
 40
0.3169055548015201
 40
0.3256787436950527
 40
0.3344577559040034
 40
0.3432433613031535
 40
0.3520363280354693
 40
0.3732181591299357
 40
0.3943631911730995
 40
0.4154822337346228
 40
0.4365861363202004
 40
0.4576857717906238
 40
0.4715040829127759
 40
0.4853282810422292
 40
0.4991614143880316
 40
0.5130065252575663
 40
0.5268666480709925
 40
0.5407448074015159
 40
0.5623799176252312
 40
0.5839757893344786
 40
0.6055439366678576
 40
0.6270959181992273
 40
0.6486433185177057
 40
0.669812717569881
 40
0.6909998507715457
 40
0.7122156621290228
 40
0.7334710513511278
 40
0.755106161896317
 40
0.7767020337856836
 40
0.7982701811982982
 40
0.8198221627488088
 40
0.8413695630673113
 40
0.8554812361045706
 40
0.8695991668088138
 40
0.8837266027946779
 40
0.8978667851274889
 40
0.9120229461177142
 40
0.9261983071453135
 40
0.9473801391255605
 40
0.9685251716648827
 40
0.9896442144445694
 40
0.9999999999999999
 40
0.9999999999999999
 40
0.9999999999999999
 40
0.9999999999999999
 10
673.6019044660031
 20
450.1000517431319
 30
0.0
 10
673.8130198643389
 20
450.1000517431319
 30
0.0
 10
674.234923424842
 20
450.1000517431319
 30
0.0
 10
674.8570027497924
 20
450.1000517431319
 30
0.0
 10
675.4703936790353
 20
450.1000517431319
 30
0.0
 10
676.0743750602772
 20
450.1000517431319
 30
0.0
 10
676.6006552513775
 20
450.1000517431319
 30
0.0
 10
677.0525162502582
 20
450.1000517431319
 30
0.0
 10
677.4329019745172
 20
450.1000517431319
 30
0.0
 10
677.8093194416373
 20
450.1000517431319
 30
0.0
 10
678.1851775090437
 20
450.1000517431319
 30
0.0
 10
678.5640087149409
 20
450.1000517431319
 30
0.0
 10
679.0091802211203
 20
450.1000517431319
 30
0.0
 10
679.5132243265142
 20
450.1000517431319
 30
0.0
 10
680.0677705331984
 20
450.1000517431319
 30
0.0
 10
680.609660326301
 20
450.1000517431319
 30
0.0
 10
681.0317358543099
 20
450.1000517431319
 30
0.0
 10
681.3413896179078
 20
450.1000517431319
 30
0.0
 10
681.5438402489398
 20
450.1000517431319
 30
0.0
 10
681.7443381859256
 20
450.1000517431319
 30
0.0
 10
681.9428838157238
 20
450.1000517431319
 30
0.0
 10
682.1394770472411
 20
450.1000517431319
 30
0.0
 10
682.3341178354183
 20
450.1000517431319
 30
0.0
 10
682.526806431028
 20
450.1000517431319
 30
0.0
 10
682.8070594805943
 20
450.1000517431319
 30
0.0
 10
683.1696642372857
 20
450.1000517431319
 30
0.0
 10
683.6070829548414
 20
450.1000517431319
 30
0.0
 10
684.0311080692194
 20
450.1000517431319
 30
0.0
 10
684.4417364626704
 20
450.1000517431319
 30
0.0
 10
684.7932435608634
 20
450.1000517431319
 30
0.0
 10
685.0904590244281
 20
450.1000517431319
 30
0.0
 10
685.337517592388
 20
450.1000517431319
 30
0.0
 10
685.5788343216765
 20
450.1000517431319
 30
0.0
 10
685.814409582344
 20
450.1000517431319
 30
0.0
 10
686.0442433740507
 20
450.1000517431319
 30
0.0
 10
686.3099696023364
 20
450.1000517431319
 30
0.0
 10
686.6066841691421
 20
450.1000517431319
 30
0.0
 10
686.9283617102463
 20
450.1000517431319
 30
0.0
 10
687.2344411282461
 20
450.1000517431319
 30
0.0
 10
687.5249208715743
 20
450.1000517431319
 30
0.0
 10
687.7981641806813
 20
450.1000517431319
 30
0.0
 10
688.0544921428367
 20
450.1000517431319
 30
0.0
 10
688.2942293883519
 20
450.1000517431319
 30
0.0
 10
688.518918338811
 20
450.1000517431319
 30
0.0
 10
688.7296439149476
 20
450.1000517431319
 30
0.0
 10
688.9258095658257
 20
450.1000517431319
 30
0.0
 10
689.106699630185
 20
450.1000517431319
 30
0.0
 10
689.271007291741
 20
450.1000517431319
 30
0.0
 10
689.418731392528
 20
450.1000517431319
 30
0.0
 10
689.5347761872218
 20
450.1000517431319
 30
0.0
 10
689.6251538321316
 20
450.1000517431319
 30
0.0
 10
689.694918326107
 20
450.1000517431319
 30
0.0
 10
689.7575759055385
 20
450.1000517431319
 30
0.0
 10
689.8131238672279
 20
450.1000517431319
 30
0.0
 10
689.8615729546834
 20
450.1000517431319
 30
0.0
 10
689.9096666802276
 20
450.1000517431319
 30
0.0
 10
689.9528895841177
 20
450.1000517431319
 30
0.0
 10
689.9844610486887
 20
450.1000517431319
 30
0.0
 10
689.9999345854384
 20
450.1000517431319
 30
0.0
 10
689.9987500331497
 20
450.1000517431319
 30
0.0
 10
689.9983602941065
 20
450.1000517431319
 30
0.0
  0
LINE
  5
14B
330
1F
100
AcDbEntity
  8
0
  6
Continuous
 62
     7
370
    30
100
AcDbLine
 10
691.0
 20
460.1000517431
 30
0.0
 11
626.0
 21
460.1000517431
 31
0.0
  0
ARC
  5
14C
330
1F
100
AcDbEntity
  8
0
  6
Continuous
 62
     7
370
    30
100
AcDbCircle
 10
658.5
 20
111.6000517431
 30
0.0
 40
11.50000000000011
100
AcDbArc
 50
270.0
 51
0.0
  0
ARC
  5
14D
330
1F
100
AcDbEntity
  8
0
  6
Continuous
 62
     7
370
    30
100
AcDbCircle
 10
658.5
 20
111.6000517431
 30
0.0
 40
11.50000000000001
100
AcDbArc
 50
180.0
 51
270.0
  0
SPLINE
  5
14E
330
1F
100
AcDbEntity
  8
0
  6
Continuous
 62
     7
370
    30
100
AcDbSpline
210
0.0
220
0.0
230
1.0
 70
     8
 71
     3
 72
    19
 73
    15
 74
     0
 42
0.000000001
 43
0.00000001
 40
0.0
 40
0.0
 40
0.0
 40
0.0
 40
0.0396563213717553
 40
0.1400168127348295
 40
0.2401306957714999
 40
0.3398798546486669
 40
0.4390572604028803
 40
0.537263259797822
 40
0.6336132433590551
 40
0.7256866728276938
 40
0.806285911372215
 40
0.8662481359728649
 40
0.9340911819046419
 40
1.0
 40
1.0
 40
1.0
 40
1.0
 10
972.036311281683
 20
28.92749248139853
 30
0.0
 10
972.0482131681936
 20
28.92042853751786
 30
0.0
 10
972.0902358308388
 20
28.89548747205106
 30
0.0
 10
972.165141416985
 20
28.85773698074323
 30
0.0
 10
972.2605345507196
 20
28.81437090869399
 30
0.0
 10
972.3578412408004
 20
28.77650890981365
 30
0.0
 10
972.4563107405384
 20
28.74389047231451
 30
0.0
 10
972.5551995579204
 20
28.71673736697588
 30
0.0
 10
972.6529159102088
 20
28.69518059639936
 30
0.0
 10
972.7455131330316
 20
28.67950125841495
 30
0.0
 10
972.826109750293
 20
28.6695591593859
 30
0.0
 10
972.8985790373106
 20
28.66336105784101
 30
0.0
 10
972.9661005062859
 20
28.65968739310398
 30
0.0
 10
973.0127773467381
 20
28.65921766725072
 30
0.0
 10
973.0357782627179
 20
28.65898620075086
 30
0.0
  0
SPLINE
  5
14F
330
1F
100
AcDbEntity
  8
0
  6
Continuous
 62
     7
370
    30
100
AcDbSpline
210
0.0
220
0.0
230
1.0
 70
     8
 71
     3
 72
    19
 73
    15
 74
     0
 42
0.000000001
 43
0.00000001
 40
0.0
 40
0.0
 40
0.0
 40
0.0
 40
0.1066361728657987
 40
0.15083007890525
 40
0.2242379681594285
 40
0.300771725817675
 40
0.3831482606938281
 40
0.4693933333919731
 40
0.5587115851085863
 40
0.6504671016985603
 40
0.744205134417102
 40
0.8395859411086101
 40
0.9363499384444299
 40
1.0
 40
1.0
 40
1.0
 40
1.0
 10
973.0357782627179
 20
28.65898620075086
 30
0.0
 10
973.0730045528134
 20
28.6595498254763
 30
0.0
 10
973.1256587706224
 20
28.66034703677439
 30
0.0
 10
973.2037533001296
 20
28.66574488694879
 30
0.0
 10
973.2712059189248
 20
28.67234269254193
 30
0.0
 10
973.351550380489
 20
28.68346209965161
 30
0.0
 10
973.4357782578772
 20
28.6986945154657
 30
0.0
 10
973.5236065492923
 20
28.71862311989776
 30
0.0
 10
973.6135874607071
 20
28.74343272287244
 30
0.0
 10
973.7047728157471
 20
28.77330550480017
 30
0.0
 10
973.7964062337227
 20
28.80828004768737
 30
0.0
 10
973.8876957382314
 20
28.84862683417272
 30
0.0
 10
973.9678065382203
 20
28.88819871430365
 30
0.0
 10
974.0162777536971
 20
28.91624321537484
 30
0.0
 10
974.0355104560554
 20
28.92737088231251
 30
0.0
  0
LINE
  5
150
330
1F
100
AcDbEntity
  8
0
  6
Continuous
 62
     7
370
    30
100
AcDbLine
 10
833.8673692318
 20
108.6899609934
 30
0.0
 11
972.0360342756
 21
28.9268884684
 31
0.0
  0
LINE
  5
151
330
1F
100
AcDbEntity
  8
0
  6
Continuous
 62
     7
370
    30
100
AcDbLine
 10
974.0358717412
 20
28.9268884685
 30
0.0
 11
1112.2045367847
 21
108.6899609934
 31
0.0
  0
LINE
  5
152
330
1F
100
AcDbEntity
  8
0
  6
Continuous
 62
     7
370
    30
100
AcDbLine
 10
1113.2046180522
 20
110.4220587182
 30
0.0
 11
1113.2046180522
 21
117.1176933859
 31
0.0
  0
LINE
  5
153
330
1F
100
AcDbEntity
  8
0
  6
Continuous
 62
     7
370
    30
100
AcDbLine
 10
832.8672879645
 20
117.1176932889
 30
0.0
 11
832.8672879645
 21
110.4220587182
 31
0.0
  0
ARC
  5
154
330
1F
100
AcDbEntity
  8
0
  6
Continuous
 62
     7
370
    30
100
AcDbCircle
 10
1111.2046180522
 20
110.4220587182
 30
0.0
 40
2.000000000000197
100
AcDbArc
 50
299.9973117261
 51
0.0000000141
  0
ARC
  5
155
330
1F
100
AcDbEntity
  8
0
  6
Continuous
 62
     7
370
    30
100
AcDbCircle
 10
834.8672879645
 20
110.4220587182
 30
0.0
 40
2.000000000000048
100
AcDbArc
 50
180.0000000141
 51
240.0026882623
  0
SPLINE
  5
156
330
1F
100
AcDbEntity
  8
0
  6
Continuous
 62
     7
370
    30
100
AcDbSpline
210
0.0
220
0.0
230
1.0
 70
     8
 71
     3
 72
    90
 73
    86
 74
     0
 42
0.000000001
 43
0.00000001
 40
0.0
 40
0.0
 40
0.0
 40
0.0
 40
0.0041047811461548
 40
0.0251156774435288
 40
0.0458505373643613
 40
0.0655858457430605
 40
0.0839948795980593
 40
0.1014853161186924
 40
0.1188971601379132
 40
0.1365397771785406
 40
0.146725071163544
 40
0.1569858763928575
 40
0.1667298679832479
 40
0.1753792131459272
 40
0.1829333392140026
 40
0.1893917458821853
 40
0.1955573280189294
 40
0.2055329400298814
 40
0.2172632062669651
 40
0.2307494992871566
 40
0.2457341816993638
 40
0.2678150131422963
 40
0.2905526371904875
 40
0.2996653119432098
 40
0.3088686202190901
 40
0.3171445880375565
 40
0.3238273402199405
 40
0.3290034093613066
 40
0.3325338718636677
 40
0.3357008200377874
 40
0.3393319510737769
 40
0.3434273878910031
 40
0.3479872684999508
 40
0.3530117458204652
 40
0.3649723177930491
 40
0.3789518021856806
 40
0.3948814804372704
 40
0.4125263090036199
 40
0.4318692074327279
 40
0.4529123893284746
 40
0.4685220929831613
 40
0.4844673877264482
 40
0.4992823365753321
 40
0.5128872450363356
 40
0.5254240998039933
 40
0.536918753553298
 40
0.5474319478637303
 40
0.5763015601694677
 40
0.6062872958089203
 40
0.6270026956483498
 40
0.6486643359560581
 40
0.6713020393318998
 40
0.6816998059091351
 40
0.6915354543432657
 40
0.7008086166285429
 40
0.7095895449428293
 40
0.7193282953685535
 40
0.7331026287824202
 40
0.7477636837085658
 40
0.7614714128533021
 40
0.7742139838904316
 40
0.7859906796335466
 40
0.7966219950339815
 40
0.80544532395532
 40
0.8131030313703973
 40
0.8195947629048623
 40
0.8261908823178401
 40
0.8343276735484678
 40
0.8446345728589236
 40
0.8564009297295369
 40
0.8694995347682476
 40
0.8807261622228535
 40
0.8923554869588238
 40
0.9020684185543318
 40
0.906575298051159
 40
0.9103490275216041
 40
0.9134077140992474
 40
0.917103658069558
 40
0.9222802804755222
 40
0.928938032718145
 40
0.9388828228193221
 40
0.9509612322416556
 40
0.9651735269868778
 40
0.9815198203370618
 40
0.9999999999999999
 40
0.9999999999999999
 40
0.9999999999999999
 40
0.9999999999999999
 10
961.639895702044
 20
138.3878094160542
 30
0.0
 10
961.628163860436
 20
138.3807563150462
 30
0.0
 10
961.5563809470102
 20
138.3376009302436
 30
0.0
 10
961.427967231119
 20
138.257145200362
 30
0.0
 10
961.257763592599
 20
138.1480924985893
 30
0.0
 10
961.0976242128016
 20
138.0419446691317
 30
0.0
 10
960.9486362064592
 20
137.9402876962488
 30
0.0
 10
960.8080386733013
 20
137.8416129368799
 30
0.0
 10
960.6715501578446
 20
137.7431686255364
 30
0.0
 10
960.5558741606111
 20
137.6573961330729
 30
0.0
 10
960.4597278203756
 20
137.5845139615136
 30
0.0
 10
960.3842486672527
 20
137.5263585610374
 30
0.0
 10
960.3132962769675
 20
137.4708090091798
 30
0.0
 10
960.2496184211707
 20
137.4202126600779
 30
0.0
 10
960.1944374289612
 20
137.3757908267079
 30
0.0
 10
960.1456289023081
 20
137.3360506022281
 30
0.0
 10
960.0912725392174
 20
137.2913367664345
 30
0.0
 10
960.0247619621703
 20
137.2358991469226
 30
0.0
 10
959.9417107390016
 20
137.1654303258314
 30
0.0
 10
959.8481029794317
 20
137.0843319853479
 30
0.0
 10
959.7322227301524
 20
136.9815291322083
 30
0.0
 10
959.5978921141322
 20
136.8585834684131
 30
0.0
 10
959.4798230805184
 20
136.7463060543526
 30
0.0
 10
959.391636494836
 20
136.6600989001383
 30
0.0
 10
959.3351454738184
 20
136.6039840233838
 30
0.0
 10
959.2843760023065
 20
136.5527698615994
 30
0.0
 10
959.2424670271985
 20
136.5099290851538
 30
0.0
 10
959.2106726503646
 20
136.4770820799677
 30
0.0
 10
959.1862611414964
 20
136.4516647181051
 30
0.0
 10
959.1650912452652
 20
136.4294891423925
 30
0.0
 10
959.1428534629738
 20
136.4060512930941
 30
0.0
 10
959.1178898088075
 20
136.3795553083916
 30
0.0
 10
959.0902479338805
 20
136.3499843399974
 30
0.0
 10
959.0469851739864
 20
136.3032944192256
 30
0.0
 10
958.9855104742913
 20
136.2359034186858
 30
0.0
 10
958.9038708185957
 20
136.1442178705182
 30
0.0
 10
958.8131112480515
 20
136.0393694096594
 30
0.0
 10
958.7145000477216
 20
135.9217131289842
 30
0.0
 10
958.6093312165681
 20
135.7915923518046
 30
0.0
 10
958.5110262467373
 20
135.6649250137516
 30
0.0
 10
958.4214385913912
 20
135.5450458721115
 30
0.0
 10
958.34456079838
 20
135.4386941575824
 30
0.0
 10
958.2728728936538
 20
135.3361762214491
 30
0.0
 10
958.2082627094618
 20
135.2408299974306
 30
0.0
 10
958.1503298145186
 20
135.1527723890209
 30
0.0
 10
958.0983643237741
 20
135.0715639445335
 30
0.0
 10
958.0234531898973
 20
134.9514241595075
 30
0.0
 10
957.9252651787193
 20
134.7862681612372
 30
0.0
 10
957.8197350623665
 20
134.5949659598673
 30
0.0
 10
957.7295911626198
 20
134.4200580923507
 30
0.0
 10
957.6524535769215
 20
134.2611539620962
 30
0.0
 10
957.5910625290888
 20
134.1259969324188
 30
0.0
 10
957.5451751918245
 20
134.0195465640929
 30
0.0
 10
957.5145674904169
 20
133.946146943412
 30
0.0
 10
957.4864994238203
 20
133.8766330234489
 30
0.0
 10
957.4593554786685
 20
133.8072720198939
 30
0.0
 10
957.4287454058373
 20
133.7264295013848
 30
0.0
 10
957.3939773076189
 20
133.6305314080687
 30
0.0
 10
957.3575219140727
 20
133.5243034375006
 30
0.0
 10
957.323848118691
 20
133.4203557382338
 30
0.0
 10
957.2941763003403
 20
133.3234201528056
 30
0.0
 10
957.2682894284084
 20
133.2340346669399
 30
0.0
 10
957.2464318548131
 20
133.1544325973946
 30
0.0
 10
957.2283248561564
 20
133.0852109755415
 30
0.0
 10
957.213603587723
 20
133.0264642561612
 30
0.0
 10
957.2007896896431
 20
132.973331615039
 30
0.0
 10
957.1881315884199
 20
132.9188797815179
 30
0.0
 10
957.173806772518
 20
132.8545494925951
 30
0.0
 10
957.1574521987687
 20
132.7768365034072
 30
0.0
 10
957.1396916949168
 20
132.6861489779494
 30
0.0
 10
957.1229564115123
 20
132.5928677040322
 30
0.0
 10
957.1077494157829
 20
132.4997804199693
 30
0.0
 10
957.0952188226904
 20
132.415278864083
 30
0.0
 10
957.0862585452027
 20
132.3485413669203
 30
0.0
 10
957.0804957855238
 20
132.3024549756909
 30
0.0
 10
957.0770376026817
 20
132.2735570660765
 30
0.0
 10
957.074005134703
 20
132.2472486294245
 30
0.0
 10
957.070644888737
 20
132.2169788160595
 30
0.0
 10
957.0664343507709
 20
132.1770042383747
 30
0.0
 10
957.0609275600921
 20
132.1206157686782
 30
0.0
 10
957.0544452903744
 20
132.045954080348
 30
0.0
 10
957.0475808052153
 20
131.9512788064949
 30
0.0
 10
957.0414535226677
 20
131.8395572565554
 30
0.0
 10
957.0367651520504
 20
131.7107948744451
 30
0.0
 10
957.0361272033721
 20
131.6191797478331
 30
0.0
 10
957.0357886848495
 20
131.570565465273
 30
0.0
  0
LINE
  5
157
330
1F
100
AcDbEntity
  8
0
  6
Continuous
 62
     7
370
    30
100
AcDbLine
 10
989.0359530083
 20
121.2003974351
 30
0.0
 11
989.0359530083
 21
131.5714896841
 31
0.0
  0
LINE
  5
158
330
1F
100
AcDbEntity
  8
0
  6
Continuous
 62
     7
370
    30
100
AcDbLine
 10
957.0359530083
 20
131.5714896841
 30
0.0
 11
957.0359530083
 21
121.2003974351
 31
0.0
  0
SPLINE
  5
159
330
1F
100
AcDbEntity
  8
0
  6
Continuous
 62
     7
370
    30
100
AcDbSpline
210
0.0
220
0.0
230
1.0
 70
     8
 71
     3
 72
    92
 73
    88
 74
     0
 42
0.000000001
 43
0.00000001
 40
0.0
 40
0.0
 40
0.0
 40
0.0
 40
0.0092612736714346
 40
0.0193052282166475
 40
0.0302182395543247
 40
0.0411525733542037
 40
0.0517977396349233
 40
0.0621537584014844
 40
0.0777580266752385
 40
0.0922749141300984
 40
0.1058839792903526
 40
0.1248221244440296
 40
0.1444869183610466
 40
0.163954652186276
 40
0.183880491660038
 40
0.2037421972894912
 40
0.2241976130353336
 40
0.2449115538110065
 40
0.2546752167081425
 40
0.2635605651189975
 40
0.271361974054343
 40
0.2780798345839735
 40
0.2849718677636343
 40
0.2935001796212049
 40
0.3036660805370692
 40
0.3148932977108507
 40
0.3259250395520065
 40
0.3367173209951272
 40
0.3504880974634557
 40
0.3638486433319597
 40
0.376535288278008
 40
0.3852581859046301
 40
0.3929189963841749
 40
0.3995182132642914
 40
0.4050562727039272
 40
0.4106113412161871
 40
0.4176463560563012
 40
0.4261688944005393
 40
0.4369653272577933
 40
0.4481436796620399
 40
0.4595950597527155
 40
0.471319234913056
 40
0.4829086888488311
 40
0.4910887452919076
 40
0.497760392649451
 40
0.5029289189007965
 40
0.507985420948062
 40
0.5140310730160248
 40
0.521065480046414
 40
0.530624751925294
 40
0.5415523493683316
 40
0.5530824831182559
 40
0.5646348015344732
 40
0.5821804296281532
 40
0.5997767848782509
 40
0.617423752714218
 40
0.6348897419113305
 40
0.6507874280119699
 40
0.6648875414061418
 40
0.6765371624798528
 40
0.6871554274692119
 40
0.6986517213793978
 40
0.7111819074371303
 40
0.7247932326761769
 40
0.7342809741285388
 40
0.7443022020243787
 40
0.7548566144561456
 40
0.7659438931662879
 40
0.7775637037858776
 40
0.7893586703779861
 40
0.7996864940120307
 40
0.8091175181360026
 40
0.8165282552618974
 40
0.8219219625930424
 40
0.8271995721847815
 40
0.8340125382533125
 40
0.8423602274574038
 40
0.8522418633362668
 40
0.8635242158420203
 40
0.8752022412505444
 40
0.8870676080940084
 40
0.9109193568104185
 40
0.9354927205554389
 40
0.9518356361796401
 40
0.9684822676185558
 40
0.9854312986230755
 40
1.0
 40
1.0
 40
1.0
 40
1.0
 10
989.0361173317806
 20
131.5703662465284
 30
0.0
 10
989.0358982569148
 20
131.6006506435782
 30
0.0
 10
989.0354415929152
 20
131.6637788068516
 30
0.0
 10
989.0330021692496
 20
131.7494063264363
 30
0.0
 10
989.0303317307934
 20
131.8284365074942
 30
0.0
 10
989.026497052006
 20
131.9083342368467
 30
0.0
 10
989.021632927689
 20
131.9872012718419
 30
0.0
 10
989.0148334144642
 20
132.0777074397176
 30
0.0
 10
989.0056368551647
 20
132.1780325766629
 30
0.0
 10
988.9935101087577
 20
132.2873078322085
 30
0.0
 10
988.9782390252168
 20
132.4057342320017
 30
0.0
 10
988.9579847236068
 20
132.5409901184879
 30
0.0
 10
988.931149841027
 20
132.6937625616728
 30
0.0
 10
988.9003806618535
 20
132.8461513748751
 30
0.0
 10
988.8657277723448
 20
132.998206945522
 30
0.0
 10
988.8265263174918
 20
133.1522988925107
 30
0.0
 10
988.7827834784471
 20
133.3077651931555
 30
0.0
 10
988.7428588534683
 20
133.4369500410193
 30
0.0
 10
988.7100604575049
 20
133.5364459443354
 30
0.0
 10
988.6872228568686
 20
133.6031636605294
 30
0.0
 10
988.6663886549516
 20
133.6620740325677
 30
0.0
 10
988.6468340187221
 20
133.7158595074654
 30
0.0
 10
988.6261520513067
 20
133.7713261163159
 30
0.0
 10
988.6016343709302
 20
133.8352686121967
 30
0.0
 10
988.5720780230683
 20
133.9098545124047
 30
0.0
 10
988.538948916961
 20
133.9904560792104
 30
0.0
 10
988.5040219800338
 20
134.0723600842839
 30
0.0
 10
988.4651903240638
 20
134.1602904457241
 30
0.0
 10
988.4223669165038
 20
134.2536302108693
 30
0.0
 10
988.3757341539077
 20
134.3512162521693
 30
0.0
 10
988.3336242793114
 20
134.4360674666536
 30
0.0
 10
988.2974518617267
 20
134.5067856251033
 30
0.0
 10
988.2682775360901
 20
134.5625460034408
 30
0.0
 10
988.242719528212
 20
134.6104580108656
 30
0.0
 10
988.2195619210322
 20
134.6531708444907
 30
0.0
 10
988.1955530176756
 20
134.696809931532
 30
0.0
 10
988.1672033775646
 20
134.7475003737345
 30
0.0
 10
988.1312019913196
 20
134.8105992957896
 30
0.0
 10
988.0886517422276
 20
134.883379788492
 30
0.0
 10
988.0409338746316
 20
134.9628105407913
 30
0.0
 10
987.9907463067715
 20
135.0440940863267
 30
0.0
 10
987.9387760087502
 20
135.125982799295
 30
0.0
 10
987.8906219622031
 20
135.1998304132689
 30
0.0
 10
987.8494217087683
 20
135.2616044244738
 30
0.0
 10
987.8177975808106
 20
135.3082344996762
 30
0.0
 10
987.7908274071289
 20
135.3474815345426
 30
0.0
 10
987.7646508786131
 20
135.3851465830197
 30
0.0
 10
987.7352047976353
 20
135.4270054181649
 30
0.0
 10
987.6980383211638
 20
135.4790966682552
 30
0.0
 10
987.652213987368
 20
135.5421922731235
 30
0.0
 10
987.5979683978182
 20
135.6152851733372
 30
0.0
 10
987.539260115277
 20
135.6925650125827
 30
0.0
 10
987.4678070900956
 20
135.7844236361841
 30
0.0
 10
987.3837793047218
 20
135.8893279306238
 30
0.0
 10
987.2862045469902
 20
136.0069908708545
 30
0.0
 10
987.1862156344142
 20
136.1235244903895
 30
0.0
 10
987.0869992167242
 20
136.2353702579805
 30
0.0
 10
986.9925381604432
 20
136.3385964079527
 30
0.0
 10
986.9080007344157
 20
136.4284715919964
 30
0.0
 10
986.8329782430053
 20
136.5063946105912
 30
0.0
 10
986.762407433835
 20
136.5782494978282
 30
0.0
 10
986.6889436317323
 20
136.6516002213035
 30
0.0
 10
986.6079178751577
 20
136.7308137689413
 30
0.0
 10
986.5299733052541
 20
136.8053024967458
 30
0.0
 10
986.4566565222852
 20
136.8739902089738
 30
0.0
 10
986.3894066776998
 20
136.9359550533615
 30
0.0
 10
986.317801896979
 20
137.000793905751
 30
0.0
 10
986.2417153125077
 20
137.068450534032
 30
0.0
 10
986.161843717835
 20
137.1381414461007
 30
0.0
 10
986.0827753569241
 20
137.2058082758521
 30
0.0
 10
986.0079392231695
 20
137.2686993384966
 30
0.0
 10
985.9428234804745
 20
137.3225446298529
 30
0.0
 10
985.8890680214214
 20
137.3663909011389
 30
0.0
 10
985.8450650305103
 20
137.4019116745877
 30
0.0
 10
985.8023275366744
 20
137.4361145487052
 30
0.0
 10
985.7521005160012
 20
137.4759217240039
 30
0.0
 10
985.6901120802861
 20
137.5244560342157
 30
0.0
 10
985.6164176863973
 20
137.5813204457513
 30
0.0
 10
985.533565605383
 20
137.6441822055421
 30
0.0
 10
985.4447740259986
 20
137.7103343173237
 30
0.0
 10
985.322636197482
 20
137.7996533174881
 30
0.0
 10
985.1647735830663
 20
137.9119018599831
 30
0.0
 10
984.991597852016
 20
138.0304598862085
 30
0.0
 10
984.8350486808725
 20
138.1342969054549
 30
0.0
 10
984.6973528437095
 20
138.2232717542777
 30
0.0
 10
984.5629225889459
 20
138.3080994338154
 30
0.0
 10
984.4735056484959
 20
138.3627413840079
 30
0.0
 10
984.4321737186576
 20
138.3879989832975
 30
0.0
  0
SPLINE
  5
15A
330
1F
100
AcDbEntity
  8
0
  6
Continuous
 62
     7
370
    30
100
AcDbSpline
210
0.0
220
0.0
230
1.0
 70
     8
 71
     3
 72
    57
 73
    53
 74
     0
 42
0.000000001
 43
0.00000001
 40
0.0
 40
0.0
 40
0.0
 40
0.0
 40
0.009027287167729
 40
0.0390173067939435
 40
0.0710413508660439
 40
0.1051000470498496
 40
0.1411940096995773
 40
0.1622960043820384
 40
0.1840365601373778
 40
0.2063304829796051
 40
0.2270456284577256
 40
0.2452576117629666
 40
0.2607074234443767
 40
0.2737418656792804
 40
0.2843606426570021
 40
0.2925635195961708
 40
0.297386252124801
 40
0.3016683503191751
 40
0.3076897067369682
 40
0.3155379284834514
 40
0.3252131451855548
 40
0.3364940905839803
 40
0.3495376856008496
 40
0.3643441213151816
 40
0.3808160113724209
 40
0.4168968684470161
 40
0.4514506297482406
 40
0.4844767950777704
 40
0.5159749098337333
 40
0.5459439305890016
 40
0.5736964830538472
 40
0.5972757491253283
 40
0.6183432677372963
 40
0.6371419043275538
 40
0.654442479304882
 40
0.6706034188428686
 40
0.685920767787788
 40
0.7042181457022694
 40
0.7254956562663163
 40
0.7497534053787908
 40
0.7769914997158586
 40
0.807210044699439
 40
0.8404091421009345
 40
0.8648543394235588
 40
0.8876554820482634
 40
0.908508057489878
 40
0.9274125676025923
 40
0.9443696711363265
 40
0.9628288838474399
 40
0.9782495217197026
 40
0.9906365576509503
 40
1.0
 40
1.0
 40
1.0
 40
1.0
 10
957.035953008315
 20
125.1120942292469
 30
0.0
 10
957.0270415600013
 20
125.1004284797048
 30
0.0
 10
956.9885249263353
 20
125.0500073376265
 30
0.0
 10
956.9208427157558
 20
124.9574920613575
 30
0.0
 10
956.8313661885383
 20
124.8318248252277
 30
0.0
 10
956.739509541809
 20
124.697299589806
 30
0.0
 10
956.6603939125366
 20
124.576424171513
 30
0.0
 10
956.5940826151773
 20
124.4713600712599
 30
0.0
 10
956.5406737040707
 20
124.3843612733866
 30
0.0
 10
956.4889273126491
 20
124.297576010335
 30
0.0
 10
956.4412517147292
 20
124.2152546802455
 30
0.0
 10
956.3999146457692
 20
124.1419276814505
 30
0.0
 10
956.3651664656094
 20
124.0788045681537
 30
0.0
 10
956.3366002261366
 20
124.0258368826642
 30
0.0
 10
956.3136870984737
 20
123.9826104359252
 30
0.0
 10
956.2968906429587
 20
123.950478657409
 30
0.0
 10
956.2847001414721
 20
123.9269298407459
 30
0.0
 10
956.2741039078672
 20
123.9063198269121
 30
0.0
 10
956.2614740617106
 20
123.8815616253936
 30
0.0
 10
956.245247018713
 20
123.8494127660254
 30
0.0
 10
956.2256375186499
 20
123.8100332044912
 30
0.0
 10
956.2028354210648
 20
123.7634854843149
 30
0.0
 10
956.1770538273583
 20
123.7098289449335
 30
0.0
 10
956.1484522080341
 20
123.6489479331707
 30
0.0
 10
956.106014535138
 20
123.5562536986147
 30
0.0
 10
956.0533449763421
 20
123.4359508295303
 30
0.0
 10
955.9942154758264
 20
123.2921031987411
 30
0.0
 10
955.9409577549536
 20
123.1539925642745
 30
0.0
 10
955.8931506081154
 20
123.0217330397218
 30
0.0
 10
955.8506805259142
 20
122.8962819713502
 30
0.0
 10
955.8143612339236
 20
122.7817465345958
 30
0.0
 10
955.7839809909466
 20
122.6798721236296
 30
0.0
 10
955.7588542497367
 20
122.5907386620484
 30
0.0
 10
955.7374402150707
 20
122.5106655055547
 30
0.0
 10
955.7188115419109
 20
122.4374254396102
 30
0.0
 10
955.7022605357967
 20
122.3691021710786
 30
0.0
 10
955.6861731449209
 20
122.2994249420221
 30
0.0
 10
955.6693604446841
 20
122.222575676982
 30
0.0
 10
955.6510735565233
 20
122.1331736513713
 30
0.0
 10
955.6318781103128
 20
122.0311852237651
 30
0.0
 10
955.6124200636251
 20
121.9165784618305
 30
0.0
 10
955.5934261659579
 20
121.7893289570485
 30
0.0
 10
955.5777894591581
 20
121.6658860758396
 30
0.0
 10
955.5657859170694
 20
121.5528253997212
 30
0.0
 10
955.5571353119194
 20
121.456510507097
 30
0.0
 10
955.5504777493934
 20
121.3674578079761
 30
0.0
 10
955.5455011617586
 20
121.2861020936093
 30
0.0
 10
955.5416534196406
 20
121.2074485102684
 30
0.0
 10
955.5388984897423
 20
121.1329700886436
 30
0.0
 10
955.5371741364604
 20
121.063779916371
 30
0.0
 10
955.5362723388386
 20
121.0071122135238
 30
0.0
 10
955.5361501988683
 20
120.9719088120001
 30
0.0
 10
955.5360976183891
 20
120.95675397189
 30
0.0
  0
LINE
  5
15B
330
1F
100
AcDbEntity
  8
0
  6
Continuous
 62
     7
370
    30
100
AcDbLine
 10
955.5359530083
 20
120.9554351915
 30
0.0
 11
955.5359530083
 21
117.3626556192
 31
0.0
  0
LINE
  5
15C
330
1F
100
AcDbEntity
  8
0
  6
Continuous
 62
     7
370
    30
100
AcDbLine
 10
990.5359530083
 20
117.3626556192
 30
0.0
 11
990.5359530083
 21
120.9554351915
 31
0.0
  0
SPLINE
  5
15D
330
1F
100
AcDbEntity
  8
0
  6
Continuous
 62
     7
370
    30
100
AcDbSpline
210
0.0
220
0.0
230
1.0
 70
     8
 71
     3
 72
   144
 73
   140
 74
     0
 42
0.000000001
 43
0.00000001
 40
0.0
 40
0.0
 40
0.0
 40
0.0
 40
0.0049822448240267
 40
0.0108753368381882
 40
0.0174128633812618
 40
0.0245955109025631
 40
0.0294408168013527
 40
0.0345097755133683
 40
0.0393769034850832
 40
0.0439083773532912
 40
0.0481042088900987
 40
0.0529689497127635
 40
0.0572876628172803
 40
0.0610603656440167
 40
0.0642954414175869
 40
0.0673754059395615
 40
0.0705077455289786
 40
0.073695044648046
 40
0.0784603367760716
 40
0.0836802537270438
 40
0.0893547028215079
 40
0.0955635000168262
 40
0.1023812683943146
 40
0.1064743118949051
 40
0.1107590609011214
 40
0.1152354709225104
 40
0.119903494988262
 40
0.1244261849802815
 40
0.1284186105166877
 40
0.1318804564445278
 40
0.1342505596146578
 40
0.1362865051105376
 40
0.138007341530458
 40
0.1398245131157746
 40
0.14190501536089
 40
0.1442488179421846
 40
0.14685588682709
 40
0.1496920640414379
 40
0.1555070981781614
 40
0.16100664250381
 40
0.1661908069405404
 40
0.1701449665402595
 40
0.174452357954389
 40
0.1791184055297008
 40
0.1841430131152627
 40
0.1895260796228134
 40
0.1952674976183335
 40
0.2013247643834733
 40
0.205773254381542
 40
0.2097560256405626
 40
0.213273190977704
 40
0.2163248502758587
 40
0.21891109066441
 40
0.2206166805522675
 40
0.2220614197276298
 40
0.2236118547912652
 40
0.2253853971871936
 40
0.2273820235926931
 40
0.2307661180531248
 40
0.2344901932315272
 40
0.2383820420133633
 40
0.2424414904092677
 40
0.2466684955069406
 40
0.251063011543615
 40
0.2584928712510571
 40
0.265788139738793
 40
0.2727930418352585
 40
0.2795077071813641
 40
0.2859322676898676
 40
0.2921688847988497
 40
0.2973262694989897
 40
0.3027698290899337
 40
0.3084994939504583
 40
0.3145151996491684
 40
0.3208168908768987
 40
0.3273469590482936
 40
0.3312933219075257
 40
0.3346585007530444
 40
0.3374425632374615
 40
0.339645545604347
 40
0.3412675238988417
 40
0.3425936353536276
 40
0.3442967475004584
 40
0.3463631458812869
 40
0.3487325641543128
 40
0.3526412095660247
 40
0.357165964076286
 40
0.3623067244603375
 40
0.3679271129500061
 40
0.3735076793714176
 40
0.3847509653025671
 40
0.3956082720592874
 40
0.4060797887140712
 40
0.4162770103393664
 40
0.4263936351498256
 40
0.4364331742919251
 40
0.4463956616239614
 40
0.4600082154078123
 40
0.4736144213092744
 40
0.4872191215627961
 40
0.500822745096982
 40
0.5162796847149012
 40
0.5317346417532598
 40
0.5471882159821677
 40
0.5626407446955795
 40
0.5780923505212676
 40
0.5935431314562086
 40
0.6089931022784814
 40
0.6244422937908879
 40
0.6398908730537918
 40
0.6553392188748285
 40
0.6707878966280347
 40
0.6862363601650501
 40
0.7016847853223289
 40
0.7171336490911426
 40
0.7325831962446542
 40
0.7480335352222254
 40
0.7634847417317248
 40
0.7789368057613869
 40
0.7943898019833573
 40
0.8098439892589329
 40
0.8252997759155408
 40
0.8407576128268194
 40
0.856216705641851
 40
0.8716775182744767
 40
0.8832232807683466
 40
0.8947703978935397
 40
0.9063189501260078
 40
0.9180767101009044
 40
0.930262025047856
 40
0.9428751499310154
 40
0.9514328721623415
 40
0.9598597991379271
 40
0.9679195495917121
 40
0.9756120637238176
 40
0.9813985480499994
 40
0.9870978492759294
 40
0.9932780563230104
 40
0.9999999999999999
 40
0.9999999999999999
 40
0.9999999999999999
 40
0.9999999999999999
 10
955.5358594103274
 20
117.3553250149088
 30
0.0
 10
955.5361812665097
 20
117.3126847617392
 30
0.0
 10
955.5368838201821
 20
117.2196088225865
 30
0.0
 10
955.542504166588
 20
117.0743313463406
 30
0.0
 10
955.5524739266008
 20
116.9128934328542
 30
0.0
 10
955.5659991836739
 20
116.7622134709777
 30
0.0
 10
955.581589108553
 20
116.6246964153985
 30
0.0
 10
955.5972826774345
 20
116.5067337879795
 30
0.0
 10
955.6149519231673
 20
116.3913903988559
 30
0.0
 10
955.6336131361738
 20
116.2830927306493
 30
0.0
 10
955.6541773604444
 20
116.1749056085124
 30
0.0
 10
955.6763671548532
 20
116.0685066572999
 30
0.0
 10
955.6997666070608
 20
115.9655647750812
 30
0.0
 10
955.7216974565055
 20
115.8756341906032
 30
0.0
 10
955.7423734111017
 20
115.7955671912054
 30
0.0
 10
955.7627085535556
 20
115.7205867340704
 30
0.0
 10
955.7838938205931
 20
115.6459895558312
 30
0.0
 10
955.8100033451564
 20
115.558086865264
 30
0.0
 10
955.84281430371
 20
115.4534101002116
 30
0.0
 10
955.8844744567257
 20
115.3287577470888
 30
0.0
 10
955.9331493916303
 20
115.1924450675624
 30
0.0
 10
955.9899521083322
 20
115.0438666916763
 30
0.0
 10
956.0453889503729
 20
114.9086814207094
 30
0.0
 10
956.0971756779202
 20
114.7892024828267
 30
0.0
 10
956.1426503800634
 20
114.6884801348754
 30
0.0
 10
956.19198035075
 20
114.583624125518
 30
0.0
 10
956.2441105097381
 20
114.4773163649294
 30
0.0
 10
956.2962725075816
 20
114.3751415264696
 30
0.0
 10
956.3452543737013
 20
114.2826039071171
 30
0.0
 10
956.3865699920924
 20
114.2069191158401
 30
0.0
 10
956.4203688591475
 20
114.146448624726
 30
0.0
 10
956.447105941443
 20
114.0994449399365
 30
0.0
 10
956.4717527180882
 20
114.0567517932147
 30
0.0
 10
956.4969011754124
 20
114.0137853794866
 30
0.0
 10
956.525211756821
 20
113.9661368116509
 30
0.0
 10
956.5575832916592
 20
113.9125627506865
 30
0.0
 10
956.5940261111316
 20
113.8533616672188
 30
0.0
 10
956.6476548708456
 20
113.7679803289201
 30
0.0
 10
956.7169348364808
 20
113.6610949075185
 30
0.0
 10
956.8005503819041
 20
113.5371644863248
 30
0.0
 10
956.8771075308399
 20
113.4278060677732
 30
0.0
 10
956.9492724319815
 20
113.3278557724777
 30
0.0
 10
957.0202312815973
 20
113.2322282915613
 30
0.0
 10
957.0989214193717
 20
113.1292208423528
 30
0.0
 10
957.1858053274432
 20
113.0189285955183
 30
0.0
 10
957.2813451009545
 20
112.9014986693549
 30
0.0
 10
957.3857713820125
 20
112.7774006955674
 30
0.0
 10
957.4872799160388
 20
112.660912684715
 30
0.0
 10
957.5799855388808
 20
112.5577191313059
 30
0.0
 10
957.6578737551664
 20
112.4730796655484
 30
0.0
 10
957.7277749245071
 20
112.3987062886229
 30
0.0
 10
957.789267387023
 20
112.3344648005118
 30
0.0
 10
957.8391662118353
 20
112.2831391530199
 30
0.0
 10
957.8784830555278
 20
112.2431701194241
 30
0.0
 10
957.910898221982
 20
112.2104984565689
 30
0.0
 10
957.9439721394041
 20
112.1774321014657
 30
0.0
 10
957.9811136941545
 20
112.1406302466427
 30
0.0
 10
958.0314224860866
 20
112.0912831058275
 30
0.0
 10
958.0961167236495
 20
112.0287292004377
 30
0.0
 10
958.1753398085998
 20
111.9535533405241
 30
0.0
 10
958.2606246466174
 20
111.8742240869042
 30
0.0
 10
958.350882879743
 20
111.7919837590851
 30
0.0
 10
958.4462693095836
 20
111.7069037768848
 30
0.0
 10
958.568844000178
 20
111.5999502120519
 30
0.0
 10
958.7178359073833
 20
111.4737696100932
 30
0.0
 10
958.891327846842
 20
111.3321404253985
 30
0.0
 10
959.0629615614735
 20
111.196884779581
 30
0.0
 10
959.2309782896782
 20
111.0688446969017
 30
0.0
 10
959.3957629264052
 20
110.947205059047
 30
0.0
 10
959.550076906639
 20
110.8367166675837
 30
0.0
 10
959.6982384412547
 20
110.7334920477318
 30
0.0
 10
959.8440409099436
 20
110.6344514172637
 30
0.0
 10
959.9998199970694
 20
110.5314141075973
 30
0.0
 10
960.1659071812247
 20
110.4245853337556
 30
0.0
 10
960.3421060760076
 20
110.3145219854022
 30
0.0
 10
960.5014773756377
 20
110.2179602996617
 30
0.0
 10
960.6346362133366
 20
110.1392672167228
 30
0.0
 10
960.732606263144
 20
110.0823696846737
 30
0.0
 10
960.8142425514616
 20
110.0356490169663
 30
0.0
 10
960.8792096945277
 20
109.9989079552431
 30
0.0
 10
960.9300610496967
 20
109.9704108696063
 30
0.0
 10
960.9761156493786
 20
109.9447825169122
 30
0.0
 10
961.0267385143023
 20
109.9168144975884
 30
0.0
 10
961.0879775042291
 20
109.88328354972
 30
0.0
 10
961.1716151568027
 20
109.8379692474181
 30
0.0
 10
961.2806271087337
 20
109.7797830564735
 30
0.0
 10
961.4188369963385
 20
109.7074777165321
 30
0.0
 10
961.5760512766135
 20
109.6271011638331
 30
0.0
 10
961.7459763173408
 20
109.5424267346253
 30
0.0
 10
961.9819485197451
 20
109.4279462077514
 30
0.0
 10
962.2777127475728
 20
109.2901375827982
 30
0.0
 10
962.6327649790674
 20
109.1333163170084
 30
0.0
 10
962.9827491365463
 20
108.986599076435
 30
0.0
 10
963.3302951722425
 20
108.848199292207
 30
0.0
 10
963.6783918153913
 20
108.7165247300253
 30
0.0
 10
964.0289452067175
 20
108.5906491582879
 30
0.0
 10
964.4256771066094
 20
108.4555355176414
 30
0.0
 10
964.8714092782022
 20
108.3131829068917
 30
0.0
 10
965.3690771367058
 20
108.1660601295622
 30
0.0
 10
965.8744327831198
 20
108.0283148413812
 30
0.0
 10
966.4103446537107
 20
107.8942772376869
 30
0.0
 10
966.9774637338824
 20
107.7657295564579
 30
0.0
 10
967.5761214810911
 20
107.6444696785424
 30
0.0
 10
968.1818715049004
 20
107.5359365360659
 30
0.0
 10
968.7939120173019
 20
107.4402145322501
 30
0.0
 10
969.4114383297074
 20
107.3573895039173
 30
0.0
 10
970.0336517597195
 20
107.2875482348454
 30
0.0
 10
970.6597499552989
 20
107.2307798113236
 30
0.0
 10
971.2889293462767
 20
107.1871746905513
 30
0.0
 10
971.9203869382937
 20
107.1568253374004
 30
0.0
 10
972.5533170728044
 20
107.1398230624256
 30
0.0
 10
973.1868932599499
 20
107.1362702090195
 30
0.0
 10
973.820267818335
 20
107.1462299625736
 30
0.0
 10
974.4525993479956
 20
107.1695908247434
 30
0.0
 10
975.0830737137699
 20
107.2062616737299
 30
0.0
 10
975.7108861220437
 20
107.2561473110466
 30
0.0
 10
976.3352331346363
 20
107.3191553258119
 30
0.0
 10
976.9553145219973
 20
107.3951947778099
 30
0.0
 10
977.5703274903867
 20
107.4841762061046
 30
0.0
 10
978.179470297562
 20
107.5860113982675
 30
0.0
 10
978.7819445936268
 20
107.7006163463172
 30
0.0
 10
979.3769434914814
 20
107.8279011534946
 30
0.0
 10
979.9636266562142
 20
107.9677924500725
 30
0.0
 10
980.5412002425222
 20
108.120122270335
 30
0.0
 10
981.0610192021431
 20
108.2707238018098
 30
0.0
 10
981.5252606210488
 20
108.4160795198228
 30
0.0
 10
981.9362158999112
 20
108.5532117517129
 30
0.0
 10
982.3431731726541
 20
108.6976406007954
 30
0.0
 10
982.7506102755361
 20
108.8512461425659
 30
0.0
 10
983.1625788569406
 20
109.0162569580058
 30
0.0
 10
983.5308989697332
 20
109.1731316129175
 30
0.0
 10
983.8517064000906
 20
109.3170105051823
 30
0.0
 10
984.1189726921986
 20
109.4418939607461
 30
0.0
 10
984.3729803110556
 20
109.5653666743779
 30
0.0
 10
984.5957373586859
 20
109.6778025905502
 30
0.0
 10
984.7913629069345
 20
109.7797486796414
 30
0.0
 10
984.9693391355115
 20
109.8751189337848
 30
0.0
 10
985.1545307355055
 20
109.976974478479
 30
0.0
 10
985.2805993940246
 20
110.0490918843371
 30
0.0
 10
985.346280414199
 20
110.0866646232298
 30
0.0
  0
LINE
  5
15E
330
1F
100
AcDbEntity
  8
0
  6
Continuous
 62
     7
370
    30
100
AcDbLine
 10
985.3481798799
 20
110.0817426155
 30
0.0
 11
985.4248675684
 21
110.1262893051
 31
0.0
  0
SPLINE
  5
15F
330
1F
100
AcDbEntity
  8
0
  6
Continuous
 62
     7
370
    30
100
AcDbSpline
210
0.0
220
0.0
230
1.0
 70
     8
 71
     3
 72
    92
 73
    88
 74
     0
 42
0.000000001
 43
0.00000001
 40
0.0
 40
0.0
 40
0.0
 40
0.0
 40
0.0276045874320065
 40
0.0533036947037956
 40
0.0770969880981823
 40
0.0989839931358991
 40
0.1189641685277762
 40
0.1370369565115771
 40
0.1522980073718867
 40
0.1658699173481348
 40
0.177752304524368
 40
0.1879448301793327
 40
0.1964472011814771
 40
0.2032725560829557
 40
0.2140236841613377
 40
0.2267156794995523
 40
0.241349014351469
 40
0.2538597320974705
 40
0.267508064152358
 40
0.2822942916629734
 40
0.2980348556710088
 40
0.3123928461738602
 40
0.3246588057894479
 40
0.3348322558675327
 40
0.3410513723594676
 40
0.3461086255572466
 40
0.3500039101866024
 40
0.3537180567492476
 40
0.3587573783494444
 40
0.365012785795054
 40
0.3725626538358155
 40
0.3814071657145758
 40
0.391391470141581
 40
0.4087746236844849
 40
0.4249681592973495
 40
0.4399717371946724
 40
0.4537850431654882
 40
0.4669132842856158
 40
0.4812588446932224
 40
0.4970045343682189
 40
0.5141508820839339
 40
0.5256458214158003
 40
0.5376944504539314
 40
0.550296613819528
 40
0.5630515292605072
 40
0.5745054595923205
 40
0.5846743310134201
 40
0.593363476259326
 40
0.600572685004635
 40
0.6063017799992038
 40
0.6105527075193554
 40
0.6149106175441793
 40
0.620867509676067
 40
0.62842354736833
 40
0.63757893655261
 40
0.6505547466243864
 40
0.6641811256476918
 40
0.677274859942576
 40
0.6898358435858579
 40
0.7018639728567672
 40
0.7133591476999143
 40
0.7296231893499026
 40
0.7461412268646608
 40
0.7637859889464618
 40
0.7825575778831503
 40
0.7928401173838266
 40
0.8034237662068936
 40
0.8132946177283974
 40
0.8217486785282647
 40
0.8287858372271245
 40
0.8344060093340026
 40
0.8384488263008623
 40
0.8419366792583421
 40
0.8464492664461265
 40
0.8520396501512979
 40
0.8587078547559587
 40
0.8664539066525733
 40
0.8752778337411429
 40
0.8851796649374042
 40
0.8991014965624786
 40
0.9132754192852268
 40
0.9270948877757028
 40
0.9405598788899237
 40
0.9536703752843486
 40
0.9725236690110329
 40
0.9905919194063048
 40
1.0
 40
1.0
 40
1.0
 40
1.0
 10
985.4230076136206
 20
110.1312340100406
 30
0.0
 10
985.5067854503263
 20
110.1807859628715
 30
0.0
 10
985.6685581354536
 20
110.2764694130291
 30
0.0
 10
985.8964288555876
 20
110.418327586025
 30
0.0
 10
986.1035250570213
 20
110.5517481645224
 30
0.0
 10
986.2903507898402
 20
110.6764062289528
 30
0.0
 10
986.4578672091938
 20
110.7917392402897
 30
0.0
 10
986.6043714939378
 20
110.895553392039
 30
0.0
 10
986.7313315297774
 20
110.9878210561437
 30
0.0
 10
986.8400739487444
 20
111.0686042170919
 30
0.0
 10
986.9341448774093
 20
111.1398620018264
 30
0.0
 10
987.0139934672192
 20
111.20138072925
 30
0.0
 10
987.0800409348931
 20
111.2530052670396
 30
0.0
 10
987.1470492766394
 20
111.3060057819911
 30
0.0
 10
987.224174574481
 20
111.3678469965784
 30
0.0
 10
987.3200595229846
 20
111.4461503523813
 30
0.0
 10
987.4189769592095
 20
111.5286830071895
 30
0.0
 10
987.518826491353
 20
111.6138022025857
 30
0.0
 10
987.6176436510599
 20
111.6998166773561
 30
0.0
 10
987.7225915618278
 20
111.7932797948591
 30
0.0
 10
987.8273950535221
 20
111.8889556417584
 30
0.0
 10
987.9245931979164
 20
111.9799063057091
 30
0.0
 10
988.0076890808884
 20
112.0593960521649
 30
0.0
 10
988.0715299611155
 20
112.1216241042971
 30
0.0
 10
988.1188335671936
 20
112.1683747699949
 30
0.0
 10
988.1520603314668
 20
112.2015289156905
 30
0.0
 10
988.1796496565997
 20
112.2292688499066
 30
0.0
 10
988.2070795359523
 20
112.2570286860707
 30
0.0
 10
988.2394518109164
 20
112.2900377565014
 30
0.0
 10
988.2798055421769
 20
112.3315885389579
 30
0.0
 10
988.327874377438
 20
112.3816803670069
 30
0.0
 10
988.3832533768481
 20
112.440223811379
 30
0.0
 10
988.4583169009313
 20
112.5209063498881
 30
0.0
 10
988.546946121121
 20
112.6185270972492
 30
0.0
 10
988.6434892794323
 20
112.7281577861638
 30
0.0
 10
988.7309507167904
 20
112.83038512418
 30
0.0
 10
988.8107391419634
 20
112.9262121782276
 30
0.0
 10
988.8876959281811
 20
113.0210601809198
 30
0.0
 10
988.9665150803822
 20
113.1208482139605
 30
0.0
 10
989.0505680993932
 20
113.2305043319604
 30
0.0
 10
989.1273776455919
 20
113.3341311446439
 30
0.0
 10
989.1960407423084
 20
113.4295815257027
 30
0.0
 10
989.2557512832011
 20
113.5146982395738
 30
0.0
 10
989.316146921138
 20
113.6031268755547
 30
0.0
 10
989.3741651643129
 20
113.6904896260915
 30
0.0
 10
989.4270817770768
 20
113.7723734069899
 30
0.0
 10
989.4727415541654
 20
113.844802378083
 30
0.0
 10
989.5112580829807
 20
113.9072590398782
 30
0.0
 10
989.5426912132734
 20
113.9591980132111
 30
0.0
 10
989.5673362478474
 20
114.0005572080781
 30
0.0
 10
989.5876805901922
 20
114.0351143198727
 30
0.0
 10
989.6081631491165
 20
114.0702742728348
 30
0.0
 10
989.6330092178813
 20
114.1134706013686
 30
0.0
 10
989.664054310447
 20
114.1683615938941
 30
0.0
 10
989.7039472497635
 20
114.2404042214442
 30
0.0
 10
989.7507683040645
 20
114.3274071818904
 30
0.0
 10
989.8011330576987
 20
114.4243469262199
 30
0.0
 10
989.8493820008177
 20
114.52065753763
 30
0.0
 10
989.8941971758977
 20
114.6133964692593
 30
0.0
 10
989.9357635802123
 20
114.7025325656558
 30
0.0
 10
989.980162580287
 20
114.8011478645196
 30
0.0
 10
990.0277396963372
 20
114.9114666746528
 30
0.0
 10
990.0792194789076
 20
115.0373301474557
 30
0.0
 10
990.1302444677332
 20
115.1694885135544
 30
0.0
 10
990.1724771892973
 20
115.2861961889881
 30
0.0
 10
990.2064503284292
 20
115.3853354664378
 30
0.0
 10
990.2317523991735
 20
115.4622511226798
 30
0.0
 10
990.2546015406022
 20
115.5346621051445
 30
0.0
 10
990.2739044118136
 20
115.5982496023234
 30
0.0
 10
990.2894448735042
 20
115.6512060729701
 30
0.0
 10
990.3013932809201
 20
115.6930984388429
 30
0.0
 10
990.3105897833029
 20
115.7260684779985
 30
0.0
 10
990.3188468405865
 20
115.7561986325267
 30
0.0
 10
990.3279865414285
 20
115.7901928573011
 30
0.0
 10
990.3389907662171
 20
115.8321430649777
 30
0.0
 10
990.3517241390635
 20
115.8821982986658
 30
0.0
 10
990.365981617689
 20
115.9403745828745
 30
0.0
 10
990.3815249539291
 20
116.0066904882463
 30
0.0
 10
990.3997218052425
 20
116.0885407848765
 30
0.0
 10
990.419460572021
 20
116.1838991169407
 30
0.0
 10
990.4393558260799
 20
116.2891964795385
 30
0.0
 10
990.4571811679949
 20
116.393436814739
 30
0.0
 10
990.4727776256066
 20
116.4950775950384
 30
0.0
 10
990.488408981668
 20
116.6094516817997
 30
0.0
 10
990.5029129955064
 20
116.7354880181071
 30
0.0
 10
990.5140718965603
 20
116.8522445611735
 30
0.0
 10
990.5186662443442
 20
116.9214978068298
 30
0.0
 10
990.5202393799367
 20
116.9452105840842
 30
0.0
  0
SPLINE
  5
160
330
1F
100
AcDbEntity
  8
0
  6
Continuous
 62
     7
370
    30
100
AcDbSpline
210
0.0
220
0.0
230
1.0
 70
     8
 71
     3
 72
    11
 73
     7
 74
     0
 42
0.000000001
 43
0.00000001
 40
0.0
 40
0.0
 40
0.0
 40
0.0
 40
0.0536542235229494
 40
0.3993187905924563
 40
0.714600627915982
 40
1.0
 40
1.0
 40
1.0
 40
1.0
 10
990.5230638785079
 20
116.9857473989638
 30
0.0
 10
990.5235130136568
 20
116.992078619028
 30
0.0
 10
990.5268556788333
 20
117.0391983977337
 30
0.0
 10
990.53056836632
 20
117.1250646715519
 30
0.0
 10
990.5351068698525
 20
117.2438707445793
 30
0.0
 10
990.5358004769874
 20
117.3247306182644
 30
0.0
 10
990.5361300279002
 20
117.3631492616565
 30
0.0
  0
SPLINE
  5
161
330
1F
100
AcDbEntity
  8
0
  6
Continuous
 62
     7
370
    30
100
AcDbSpline
210
0.0
220
0.0
230
1.0
 70
     8
 71
     3
 72
    49
 73
    45
 74
     0
 42
0.000000001
 43
0.00000001
 40
0.0
 40
0.0
 40
0.0
 40
0.0
 40
0.0139155601697791
 40
0.0309904034466927
 40
0.0512403312915343
 40
0.0746747127159508
 40
0.1012996511448359
 40
0.1378638141797308
 40
0.1726411737480986
 40
0.2056125661672424
 40
0.2245286555911885
 40
0.2427946322722778
 40
0.2604105146099927
 40
0.2773558540999415
 40
0.2923983642043036
 40
0.3023742538636511
 40
0.3107281495721504
 40
0.3174600917134767
 40
0.3225701145589265
 40
0.3272644586510866
 40
0.3362811956127645
 40
0.3480812466420458
 40
0.3626644429714507
 40
0.3800305453142397
 40
0.4001792398942379
 40
0.4230656417374419
 40
0.4466251307772354
 40
0.4697327308064047
 40
0.516682867991223
 40
0.5616496858368474
 40
0.6046335680629868
 40
0.632806434867375
 40
0.6575424123859561
 40
0.678639329098106
 40
0.696249441465541
 40
0.7145841201880533
 40
0.7355511954917446
 40
0.7591501360699867
 40
0.8061246366124126
 40
0.8553259004345622
 40
0.9067500363728658
 40
0.946907031870621
 40
0.9851474989875564
 40
0.9999999999999999
 40
0.9999999999999999
 40
0.9999999999999999
 40
0.9999999999999999
 10
990.5358083982409
 20
120.9541164111534
 30
0.0
 10
990.5356956246444
 20
120.9765764208733
 30
0.0
 10
990.5354444741905
 20
121.02659559036
 30
0.0
 10
990.5336829760911
 20
121.1045190239445
 30
0.0
 10
990.5306266674229
 20
121.1946105703204
 30
0.0
 10
990.525678640594
 20
121.2962881079479
 30
0.0
 10
990.5177463412778
 20
121.419070058488
 30
0.0
 10
990.5058886165775
 20
121.5565560541624
 30
0.0
 10
990.4894860511547
 20
121.7033161550469
 30
0.0
 10
990.4729434311785
 20
121.8250859300744
 30
0.0
 10
990.4577332075826
 20
121.9236256380793
 30
0.0
 10
990.4448356156262
 20
122.0005642286122
 30
0.0
 10
990.4314554634288
 20
122.0747064693304
 30
0.0
 10
990.418034615259
 20
122.1443004015053
 30
0.0
 10
990.40601207523
 20
122.2031435720003
 30
0.0
 10
990.3960348961623
 20
122.2499193250513
 30
0.0
 10
990.3883128324089
 20
122.2850376621054
 30
0.0
 10
990.3819357613287
 20
122.3133401970565
 30
0.0
 10
990.3766162209038
 20
122.3365108264908
 30
0.0
 10
990.3704534166269
 20
122.3629461600532
 30
0.0
 10
990.3618943838321
 20
122.3988947444547
 30
0.0
 10
990.3496298899208
 20
122.4488251249894
 30
0.0
 10
990.3338753543698
 20
122.5105577163466
 30
0.0
 10
990.3142650835711
 20
122.5840509587428
 30
0.0
 10
990.2903806977567
 20
122.669194718299
 30
0.0
 10
990.2625974613659
 20
122.7629699668944
 30
0.0
 10
990.2319651856137
 20
122.8607296054004
 30
0.0
 10
990.1885628173627
 20
122.9920327437314
 30
0.0
 10
990.1312353789314
 20
123.1528338270281
 30
0.0
 10
990.0578851007306
 20
123.34052109873
 30
0.0
 10
989.9897366773185
 20
123.501281644912
 30
0.0
 10
989.9301379560912
 20
123.6334561615232
 30
0.0
 10
989.8822391469753
 20
123.7351259720423
 30
0.0
 10
989.8397733733206
 20
123.8220159416005
 30
0.0
 10
989.8005371378043
 20
123.8999159355225
 30
0.0
 10
989.7604243287225
 20
123.9774119440518
 30
0.0
 10
989.7149159349365
 20
124.0628071989305
 30
0.0
 10
989.646745134687
 20
124.1866707934337
 30
0.0
 10
989.5535448144107
 20
124.3478657815541
 30
0.0
 10
989.431998171099
 20
124.5449500647855
 30
0.0
 10
989.3095418514745
 20
124.7313584288211
 30
0.0
 10
989.1908488974112
 20
124.901773479417
 30
0.0
 10
989.1029517317154
 20
125.0234695180007
 30
0.0
 10
989.050598555983
 20
125.092082996524
 30
0.0
 10
989.035953008315
 20
125.1112772852432
 30
0.0
  0
LINE
  5
162
330
1F
100
AcDbEntity
  8
0
  6
Continuous
 62
     7
370
    30
100
AcDbLine
 10
984.4359530083
 20
138.5480905335
 30
0.0
 11
984.4359530083
 21
146.7465625048
 31
0.0
  0
LINE
  5
163
330
1F
100
AcDbEntity
  8
0
  6
Continuous
 62
     7
370
    30
100
AcDbLine
 10
961.6359530083
 20
146.7465625048
 30
0.0
 11
961.6359530083
 21
138.5480915247
 31
0.0
  0
SPLINE
  5
164
330
1F
100
AcDbEntity
  8
0
  6
Continuous
 62
     7
370
    30
100
AcDbSpline
210
0.0
220
0.0
230
1.0
 70
     8
 71
     3
 72
     9
 73
     5
 74
     0
 42
0.000000001
 43
0.00000001
 40
0.0
 40
0.0
 40
0.0
 40
0.0
 40
0.0727731538601607
 40
1.0
 40
1.0
 40
1.0
 40
1.0
 10
982.8398004091199
 20
134.9166415235821
 30
0.0
 10
982.8368596061547
 20
134.9205114474442
 30
0.0
 10
982.7964490590074
 20
134.9736893524382
 30
0.0
 10
982.7545041657343
 20
135.0256759141033
 30
0.0
 10
982.715611734633
 20
135.0738792497178
 30
0.0
  0
LINE
  5
165
330
1F
100
AcDbEntity
  8
0
  6
Continuous
 62
     7
370
    30
100
AcDbLine
 10
964.4359530083
 20
134.701969747
 30
0.0
 11
964.4359530083
 21
134.6186816547
 31
0.0
  0
SPLINE
  5
166
330
1F
100
AcDbEntity
  8
0
  6
Continuous
 62
     7
370
    30
100
AcDbSpline
210
0.0
220
0.0
230
1.0
 70
     8
 71
     3
 72
    10
 73
     6
 74
     0
 42
0.000000001
 43
0.00000001
 40
0.0
 40
0.0
 40
0.0
 40
0.0
 40
0.2049944433584776
 40
0.6854543469421054
 40
1.0
 40
1.0
 40
1.0
 40
1.0
 10
963.5995018733532
 20
135.3677324196463
 30
0.0
 10
963.5736188083204
 20
135.3376278384602
 30
0.0
 10
963.4870717822239
 20
135.2369650317087
 30
0.0
 10
963.364693415903
 20
135.0867979760878
 30
0.0
 10
963.270383479473
 20
134.9650926625127
 30
0.0
 10
963.2330695509146
 20
134.9169396942482
 30
0.0
  0
SPLINE
  5
167
330
1F
100
AcDbEntity
  8
0
  6
Continuous
 62
     7
370
    30
100
AcDbSpline
210
0.0
220
0.0
230
1.0
 70
     8
 71
     3
 72
    93
 73
    89
 74
     0
 42
0.000000001
 43
0.00000001
 40
0.0
 40
0.0
 40
0.0
 40
0.0
 40
0.0036475953701547
 40
0.0149502506001082
 40
0.0262635820220126
 40
0.0375887167210066
 40
0.0489267552092116
 40
0.0602787619871848
 40
0.0716457563802613
 40
0.0830287037661914
 40
0.094428507315929
 40
0.1058460003642211
 40
0.1172819395198639
 40
0.1287369986152338
 40
0.1402117635834898
 40
0.1517067283370713
 40
0.1632222917057034
 40
0.1747587554737821
 40
0.1863163235377485
 40
0.1978951021839474
 40
0.2094951014666134
 40
0.2211162376450853
 40
0.2327583366197961
 40
0.2444211382881122
 40
0.2561043017253699
 40
0.2678074110822612
 40
0.2795299820803112
 40
0.2912714689789505
 40
0.303031271885075
 40
0.3148087442757259
 40
0.3266032006075075
 40
0.3384139238938299
 40
0.3502401731392192
 40
0.3620811905321865
 40
0.3739362083109435
 40
0.3858044552302719
 40
0.3976851625728967
 40
0.4095775696631271
 40
0.4214809288547016
 40
0.4333945099784972
 40
0.445317604247032
 40
0.4572495276246582
 40
0.4691896236800498
 40
0.48113726594653
 40
0.4930918598206898
 40
0.5050528440350885
 40
0.517019691743063
 40
0.5289919112562824
 40
0.540969046475919
 40
0.5529506770580954
 40
0.56493641835398
 40
0.5769259211621728
 40
0.5889188713307573
 40
0.6009149892425155
 40
0.6129140292157659
 40
0.6249157788500966
 40
0.6369200149361395
 40
0.6489265729749033
 40
0.6609353417131127
 40
0.672946240529995
 40
0.6849592185596857
 40
0.6969742542064687
 40
0.7089913547636855
 40
0.72101055614873
 40
0.733031922770302
 40
0.7450555475451182
 40
0.7570815520817565
 40
0.7691100870510688
 40
0.7811413327642702
 40
0.793175499983045
 40
0.8052128309888142
 40
0.817253600944048
 40
0.8292981195822223
 40
0.8413467332722635
 40
0.8533998275100949
 40
0.8654578299023176
 40
0.8775212137193352
 40
0.8895905021132404
 40
0.9016662731159453
 40
0.913749165561297
 40
0.9258398861073136
 40
0.9379392175799469
 40
0.9500480289154078
 40
0.9621672870513793
 40
0.974298071213988
 40
0.9864415901754726
 40
0.9985992032277953
 40
1.0
 40
1.0
 40
1.0
 40
1.0
 10
1196.767283839722
 20
350.1406817776391
 30
0.0
 10
1196.742321588252
 20
350.1262133257893
 30
0.0
 10
1196.640009824705
 20
350.0669120714012
 30
0.0
 10
1196.463491097346
 20
349.957233060281
 30
0.0
 10
1196.237770165961
 20
349.8115642642938
 30
0.0
 10
1196.015335159501
 20
349.6600253366029
 30
0.0
 10
1195.79594847235
 20
349.5031143257201
 30
0.0
 10
1195.579732774286
 20
349.3407109867076
 30
0.0
 10
1195.366714854328
 20
349.1728619311955
 30
0.0
 10
1195.156948103521
 20
348.9995700907902
 30
0.0
 10
1194.950479666475
 20
348.820851439496
 30
0.0
 10
1194.747359267358
 20
348.6367199810525
 30
0.0
 10
1194.547636823352
 20
348.4471920003809
 30
0.0
 10
1194.351363044447
 20
348.2522851434232
 30
0.0
 10
1194.158589206962
 20
348.052018882807
 30
0.0
 10
1193.96936712515
 20
347.8464146043179
 30
0.0
 10
1193.783749046782
 20
347.6354957842366
 30
0.0
 10
1193.60178754782
 20
347.4192881274494
 30
0.0
 10
1193.423535407959
 20
347.1978196976979
 30
0.0
 10
1193.249045474314
 20
346.9711210283223
 30
0.0
 10
1193.078370514065
 20
346.7392252138537
 30
0.0
 10
1192.911563058898
 20
346.5021679801217
 30
0.0
 10
1192.748675243795
 20
346.2599877318623
 30
0.0
 10
1192.58975864293
 20
346.0127255771021
 30
0.0
 10
1192.434864105425
 20
345.7604253281846
 30
0.0
 10
1192.28404159368
 20
345.5031334798122
 30
0.0
 10
1192.137340026858
 20
345.2408991649874
 30
0.0
 10
1191.994807131921
 20
344.9737740901951
 30
0.0
 10
1191.856489304345
 20
344.7018124515785
 30
0.0
 10
1191.722431480353
 20
344.4250708341928
 30
0.0
 10
1191.592677022161
 20
344.1436080966859
 30
0.0
 10
1191.467267617372
 20
343.857485243929
 30
0.0
 10
1191.346243193277
 20
343.5667652902127
 30
0.0
 10
1191.229641846473
 20
343.2715131156361
 30
0.0
 10
1191.117499787851
 20
342.9717953182525
 30
0.0
 10
1191.009851302677
 20
342.6676800644024
 30
0.0
 10
1190.906728725245
 20
342.3592369394808
 30
0.0
 10
1190.808162427288
 20
342.046536801156
 30
0.0
 10
1190.714180819189
 20
341.7296516367934
 30
0.0
 10
1190.624810362844
 20
341.4086544265635
 30
0.0
 10
1190.540075594971
 20
341.0836190134212
 30
0.0
 10
1190.459999159559
 20
340.7546199808688
 30
0.0
 10
1190.384601848164
 20
340.4217325391317
 30
0.0
 10
1190.313902646768
 20
340.0850324201377
 30
0.0
 10
1190.247918787956
 20
339.7445957814465
 30
0.0
 10
1190.186665807255
 20
339.4004991190886
 30
0.0
 10
1190.130157602542
 20
339.0528191890846
 30
0.0
 10
1190.078406495567
 20
338.7016329372854
 30
0.0
 10
1190.031423294702
 20
338.347017437045
 30
0.0
 10
1189.989217358188
 20
337.9890498341542
 30
0.0
 10
1189.95179665723
 20
337.6278072983988
 30
0.0
 10
1189.91916783842
 20
337.2633669810509
 30
0.0
 10
1189.891336285076
 20
336.895805977591
 30
0.0
 10
1189.868306177179
 20
336.5252012949281
 30
0.0
 10
1189.850080549682
 20
336.1516298224079
 30
0.0
 10
1189.836661365247
 20
335.7751687597342
 30
0.0
 10
1189.82804953069
 20
335.3958953293821
 30
0.0
 10
1189.824244935431
 20
335.013886526934
 30
0.0
 10
1189.825246516638
 20
334.6292186284962
 30
0.0
 10
1189.831052334978
 20
334.2419674448695
 30
0.0
 10
1189.841659627812
 20
333.8522085363019
 30
0.0
 10
1189.857064855684
 20
333.4600171948909
 30
0.0
 10
1189.8772637479
 20
333.0654684220999
 30
0.0
 10
1189.902251347545
 20
332.6686369040939
 30
0.0
 10
1189.932022056324
 20
332.2695969843388
 30
0.0
 10
1189.96656967963
 20
331.8684226328468
 30
0.0
 10
1190.0058874723
 20
331.4651874114075
 30
0.0
 10
1190.049968185563
 20
331.0599644341013
 30
0.0
 10
1190.098804115761
 20
330.6528263223149
 30
0.0
 10
1190.152387155461
 20
330.2438451533996
 30
0.0
 10
1190.210708847683
 20
329.8330924019816
 30
0.0
 10
1190.273760444074
 20
329.4206388728068
 30
0.0
 10
1190.341532967911
 20
329.0065546238013
 30
0.0
 10
1190.414017283194
 20
328.5909088778092
 30
0.0
 10
1190.491204170377
 20
328.1737699212028
 30
0.0
 10
1190.57308441297
 20
327.7552049870665
 30
0.0
 10
1190.659648886395
 20
327.3352801207732
 30
0.0
 10
1190.750888690021
 20
326.9140600230647
 30
0.0
 10
1190.846795179905
 20
326.4916078730836
 30
0.0
 10
1190.947360446966
 20
326.0679851028327
 30
0.0
 10
1191.052576221179
 20
325.6432512057694
 30
0.0
 10
1191.162438764452
 20
325.2174632409502
 30
0.0
 10
1191.276931521482
 20
324.7906762606981
 30
0.0
 10
1191.396091038819
 20
324.3629400270077
 30
0.0
 10
1191.519761914732
 20
323.9343092769873
 30
0.0
 10
1191.648514220372
 20
323.504802954261
 30
0.0
 10
1191.741318762334
 20
323.201624750474
 30
0.0
 10
1191.792501952688
 20
323.0415865118155
 30
0.0
 10
1191.79778998047
 20
323.0250520471516
 30
0.0
  0
SPLINE
  5
168
330
1F
100
AcDbEntity
  8
0
  6
Continuous
 62
     7
370
    30
100
AcDbSpline
210
0.0
220
0.0
230
1.0
 70
     8
 71
     3
 72
    96
 73
    92
 74
     0
 42
0.000000001
 43
0.00000001
 40
0.0
 40
0.0
 40
0.0
 40
0.0
 40
0.005171051646395
 40
0.0163369903634143
 40
0.0275155385781542
 40
0.0387058652757762
 40
0.0499072179449604
 40
0.0611189133394331
 40
0.0723403295195181
 40
0.0835708989632411
 40
0.0948101025758942
 40
0.1060574644568326
 40
0.1173125473069435
 40
0.1285749483803637
 40
0.1398442958996879
 40
0.151120245866853
 40
0.1624024792129444
 40
0.1736906992384987
 40
0.1849846293032652
 40
0.1962840107308594
 40
0.2075886008975763
 40
0.2188981714803265
 40
0.2302125068412165
 40
0.2415314025291667
 40
0.2528546638826534
 40
0.2641821047185205
 40
0.2755135460947455
 40
0.2868488151361077
 40
0.2981877439135696
 40
0.3095301683695189
 40
0.3208759272820488
 40
0.3322248612628376
 40
0.3435768117843091
 40
0.3549316202326095
 40
0.3662891269846347
 40
0.3776491705075285
 40
0.38901158648093
 40
0.4003762069432128
 40
0.4117428322164682
 40
0.4231112523187635
 40
0.4344812786187573
 40
0.445852715152548
 40
0.4572253583283523
 40
0.4685989963270952
 40
0.4799734085826892
 40
0.491348365350018
 40
0.5027236273762521
 40
0.5140989456906498
 40
0.52547406153147
 40
0.5368487064282443
 40
0.5482226024599296
 40
0.5595954627092582
 40
0.5709669919347115
 40
0.5823368874809808
 40
0.5937048404483539
 40
0.6050705371401126
 40
0.6164336608051533
 40
0.6277938936899605
 40
0.6391509194105292
 40
0.6505044256505194
 40
0.6618541071858447
 40
0.6731996692301471
 40
0.6845408310879423
 40
0.6958773300944378
 40
0.7072089258128232
 40
0.7185354044504763
 40
0.729856583446821
 40
0.7411723161768224
 40
0.7524824967056742
 40
0.763787064522273
 40
0.77508600917318
 40
0.7863793747133436
 40
0.7976672638860485
 40
0.8089498419439763
 40
0.8202273400226578
 40
0.8315000579810905
 40
0.8427683666286842
 40
0.8540327092646894
 40
0.865293602465113
 40
0.8765516360628228
 40
0.887807472278013
 40
0.8990618439703859
 40
0.9103155519971041
 40
0.9215694616761553
 40
0.932824498368712
 40
0.9440816422089083
 40
0.9553419220230983
 40
0.9666064084945865
 40
0.9778762066421545
 40
0.9891524476922301
 40
0.9999999999999999
 40
0.9999999999999999
 40
0.9999999999999999
 40
0.9999999999999999
 10
1203.297054206534
 20
303.1060429776256
 30
0.0
 10
1203.340229725146
 20
303.0587660958701
 30
0.0
 10
1203.47663486664
 20
302.9094034488755
 30
0.0
 10
1203.708200551548
 20
302.6614293841934
 30
0.0
 10
1203.991715545184
 20
302.3619394369509
 30
0.0
 10
1204.277232457103
 20
302.0658104493593
 30
0.0
 10
1204.564565017445
 20
301.7728883132069
 30
0.0
 10
1204.853682963514
 20
301.4833171764423
 30
0.0
 10
1205.144515187292
 20
301.1971575280331
 30
0.0
 10
1205.437002425695
 20
300.9144889881158
 30
0.0
 10
1205.731083006932
 20
300.635382987503
 30
0.0
 10
1206.026696576425
 20
300.3599103242291
 30
0.0
 10
1206.323783013122
 20
300.0881393333537
 30
0.0
 10
1206.622282648148
 20
299.8201365502055
 30
0.0
 10
1206.922136144257
 20
299.5559666835853
 30
0.0
 10
1207.223284474843
 20
299.2956927559825
 30
0.0
 10
1207.525668883505
 20
299.0393761834781
 30
0.0
 10
1207.829230854969
 20
298.7870768584708
 30
0.0
 10
1208.133912088128
 20
298.5388532201147
 30
0.0
 10
1208.439654472889
 20
298.2947623180646
 30
0.0
 10
1208.746400069648
 20
298.0548598693345
 30
0.0
 10
1209.054091091113
 20
297.8192003094334
 30
0.0
 10
1209.362669886015
 20
297.5878368384107
 30
0.0
 10
1209.672078924371
 20
297.3608214624414
 30
0.0
 10
1209.982260783982
 20
297.1382050314678
 30
0.0
 10
1210.2931581379
 20
296.9200372733319
 30
0.0
 10
1210.604713742612
 20
296.7063668247718
 30
0.0
 10
1210.916870426738
 20
296.49724125959
 30
0.0
 10
1211.229571080052
 20
296.2927071142494
 30
0.0
 10
1211.542758642661
 20
296.0928099111075
 30
0.0
 10
1211.856376094203
 20
295.8975941794541
 30
0.0
 10
1212.170366442935
 20
295.7071034744868
 30
0.0
 10
1212.484672714618
 20
295.5213803943172
 30
0.0
 10
1212.799237941115
 20
295.3404665950738
 30
0.0
 10
1213.114005148629
 20
295.1644028041424
 30
0.0
 10
1213.428917345565
 20
294.9932288315549
 30
0.0
 10
1213.743917509972
 20
294.8269835795203
 30
0.0
 10
1214.058948324823
 20
294.665705178958
 30
0.0
 10
1214.373952118493
 20
294.5094309961872
 30
0.0
 10
1214.688871105212
 20
294.3581974885099
 30
0.0
 10
1215.003647618323
 20
294.2120400930237
 30
0.0
 10
1215.318224140809
 20
294.070993224817
 30
0.0
 10
1215.632543036937
 20
293.9350903997455
 30
0.0
 10
1215.946546542651
 20
293.8043642270474
 30
0.0
 10
1216.260176753212
 20
293.6788464011732
 30
0.0
 10
1216.57337561175
 20
293.5585676911532
 30
0.0
 10
1216.886084898989
 20
293.4435579274893
 30
0.0
 10
1217.198246224477
 20
293.3338459865629
 30
0.0
 10
1217.509801019686
 20
293.2294597725815
 30
0.0
 10
1217.82069053339
 20
293.1304261971318
 30
0.0
 10
1218.130855829722
 20
293.0367711564489
 30
0.0
 10
1218.440237789345
 20
292.9485195065707
 30
0.0
 10
1218.748777114178
 20
292.8656950366091
 30
0.0
 10
1219.056414336104
 20
292.7883204404333
 30
0.0
 10
1219.363089830069
 20
292.7164172871439
 30
0.0
 10
1219.668743831965
 20
292.650005990783
 30
0.0
 10
1219.97331646161
 20
292.5891057798185
 30
0.0
 10
1220.276747751108
 20
292.5337346670078
 30
0.0
 10
1220.578977678757
 20
292.4839094203338
 30
0.0
 10
1220.879946208585
 20
292.4396455357659
 30
0.0
 10
1221.179593335474
 20
292.400957212665
 30
0.0
 10
1221.477859135679
 20
292.3678573326919
 30
0.0
 10
1221.774683822412
 20
292.340357443108
 30
0.0
 10
1222.07000780599
 20
292.3184677453577
 30
0.0
 10
1222.363771757866
 20
292.302197089807
 30
0.0
 10
1222.655916677715
 20
292.291552977452
 30
0.0
 10
1222.946383962543
 20
292.2865415693424
 30
0.0
 10
1223.235115476661
 20
292.2871677043414
 30
0.0
 10
1223.52205362121
 20
292.2934349257027
 30
0.0
 10
1223.807141401818
 20
292.3053455167704
 30
0.0
 10
1224.090322492881
 20
292.3229005458999
 30
0.0
 10
1224.371541296926
 20
292.3460999204759
 30
0.0
 10
1224.650742997499
 20
292.374942449656
 30
0.0
 10
1224.927873604091
 20
292.4094259152159
 30
0.0
 10
1225.202879987666
 20
292.4495471496169
 30
0.0
 10
1225.475709905548
 20
292.495302120148
 30
0.0
 10
1225.746312014532
 20
292.5466860178261
 30
0.0
 10
1226.01463587147
 20
292.6036933492745
 30
0.0
 10
1226.280631920308
 20
292.6663180305279
 30
0.0
 10
1226.544251466781
 20
292.7345534781782
 30
0.0
 10
1226.805446635037
 20
292.8083927057842
 30
0.0
 10
1227.064170327707
 20
292.8878283863668
 30
0.0
 10
1227.320376110889
 20
292.9728530173086
 30
0.0
 10
1227.574018320119
 20
293.0634586690994
 30
0.0
 10
1227.825051286981
 20
293.1596382436002
 30
0.0
 10
1228.073431799328
 20
293.2613810449923
 30
0.0
 10
1228.31910944831
 20
293.3686895208992
 30
0.0
 10
1228.562062168275
 20
293.481516892693
 30
0.0
 10
1228.80216299419
 20
293.6000001238473
 30
0.0
 10
1229.036614104132
 20
293.721995951867
 30
0.0
 10
1229.189412402694
 20
293.8073304822868
 30
0.0
 10
1229.264331179477
 20
293.8491709916161
 30
0.0
  0
LINE
  5
169
330
1F
100
AcDbEntity
  8
0
  6
Continuous
 62
     7
370
    30
100
AcDbLine
 10
1203.2139868465
 20
353.8635366997
 30
0.0
 11
1196.8500258158
 21
350.1897001965
 31
0.0
  0
LINE
  5
16A
330
1F
100
AcDbEntity
  8
0
  6
Continuous
 62
     7
370
    30
100
AcDbLine
 10
1229.3473846265
 20
293.8965241418
 30
0.0
 11
1235.7113456572
 21
297.570360645
 31
0.0
  0
SPLINE
  5
16B
330
1F
100
AcDbEntity
  8
0
  6
Continuous
 62
     7
370
    30
100
AcDbSpline
210
0.0
220
0.0
230
1.0
 70
     8
 71
     3
 72
    73
 73
    69
 74
     0
 42
0.000000001
 43
0.00000001
 40
0.0
 40
0.0
 40
0.0
 40
0.0
 40
0.0168635564219
 40
0.0236272844782172
 40
0.0348683872259515
 40
0.0465369188259318
 40
0.0590551598142413
 40
0.0721247922616732
 40
0.0856261579018282
 40
0.0994637347883271
 40
0.1135696471315685
 40
0.1278936841025188
 40
0.1423980301119802
 40
0.1570536654607533
 40
0.1718379458084368
 40
0.1867329354805405
 40
0.2017242377762091
 40
0.2168001586985108
 40
0.2319510985983288
 40
0.2471691024102015
 40
0.2624475221334808
 40
0.2777807600159463
 40
0.2931640706295572
 40
0.3085934065124625
 40
0.3240652964479179
 40
0.3395767484902902
 40
0.3551251719503345
 40
0.3707083140597355
 40
0.3863242081033498
 40
0.4019711305892075
 40
0.4176475655938753
 40
0.4333521748500793
 40
0.4490837724553811
 40
0.4648413033269105
 40
0.4806238247016617
 40
0.4964304901305475
 40
0.5122605355203158
 40
0.5281132668619345
 40
0.5439880493516697
 40
0.5598842976652277
 40
0.5758014671876387
 40
0.5917390460348307
 40
0.6076965477315607
 40
0.6236735044321793
 40
0.6396694605914597
 40
0.6556839670057059
 40
0.6717165751603935
 40
0.687766831828382
 40
0.7038342738798494
 40
0.7199184232615257
 40
0.7360187821257257
 40
0.7521348280847522
 40
0.7682660095790397
 40
0.7844117413537244
 40
0.8005714000416949
 40
0.8167443198617116
 40
0.8329297884405109
 40
0.8491270427810611
 40
0.8653352653968956
 40
0.8815535806461536
 40
0.8977810512987329
 40
0.9140166753783404
 40
0.9302593833258728
 40
0.9465080355342983
 40
0.9627614203101181
 40
0.9790178564033907
 40
0.9952759329406985
 40
1.0
 40
1.0
 40
1.0
 40
1.0
 10
970.3237063691656
 20
185.0189373419593
 30
0.0
 10
970.230856289002
 20
184.8573123781508
 30
0.0
 10
970.1007653874765
 20
184.6308619839904
 30
0.0
 10
969.9112820825588
 20
184.2952791087505
 30
0.0
 10
969.7511341378784
 20
184.0090966021979
 30
0.0
 10
969.5617901297136
 20
183.6664333108203
 30
0.0
 10
969.364704662224
 20
183.3050477000703
 30
0.0
 10
969.1602095265998
 20
182.9247560665331
 30
0.0
 10
968.9512812306428
 20
182.530455237464
 30
0.0
 10
968.7396221215715
 20
182.1248411461022
 30
0.0
 10
968.5265216756061
 20
181.7099638864148
 30
0.0
 10
968.3129348080379
 20
181.2873320725039
 30
0.0
 10
968.0995895372639
 20
180.8580908003363
 30
0.0
 10
967.887052673518
 20
180.4231275158348
 30
0.0
 10
967.6757744145452
 20
179.9831441416378
 30
0.0
 10
967.4661189435639
 20
179.5387063302021
 30
0.0
 10
967.2583858387355
 20
179.0902778392033
 30
0.0
 10
967.0528253479773
 20
178.6382449688048
 30
0.0
 10
966.8496494806991
 20
178.1829342459855
 30
0.0
 10
966.6490401975776
 20
177.7246254342109
 30
0.0
 10
966.4511555509965
 20
177.2635612514297
 30
0.0
 10
966.2561343547002
 20
176.7999547322029
 30
0.0
 10
966.0640997816496
 20
176.3339948781673
 30
0.0
 10
965.8751621697558
 20
175.8658510473297
 30
0.0
 10
965.6894212344212
 20
175.3956764019517
 30
0.0
 10
965.5069678314636
 20
174.9236106452829
 30
0.0
 10
965.327885375333
 20
174.4497822150308
 30
0.0
 10
965.1522509902834
 20
173.9743100576114
 30
0.0
 10
964.9801364526012
 20
173.4973050757803
 30
0.0
 10
964.8116089678566
 20
173.0188713196111
 30
0.0
 10
964.6467318167411
 20
172.5391069741623
 30
0.0
 10
964.4855648953885
 20
172.0581051849409
 30
0.0
 10
964.3281651702756
 20
171.5759547530476
 30
0.0
 10
964.1745870634868
 20
171.0927407250577
 30
0.0
 10
964.0248827807643
 20
170.6085448973787
 30
0.0
 10
963.8791025922293
 20
170.1234462508289
 30
0.0
 10
963.7372950736523
 20
169.6375213280217
 30
0.0
 10
963.5995073146066
 20
169.1508445637403
 30
0.0
 10
963.4657850986113
 20
168.6634885765716
 30
0.0
 10
963.3361730593836
 20
168.1755244285374
 30
0.0
 10
963.2107148165468
 20
167.6870218582606
 30
0.0
 10
963.0894530935008
 20
167.1980494922304
 30
0.0
 10
962.9724298196636
 20
166.7086750379576
 30
0.0
 10
962.8596862188512
 20
166.2189654621431
 30
0.0
 10
962.7512628852392
 20
165.728987156471
 30
0.0
 10
962.6471998480439
 20
165.2388060931708
 30
0.0
 10
962.5475366258391
 20
164.7484879721561
 30
0.0
 10
962.4523122712061
 20
164.2580983611589
 30
0.0
 10
962.3615654062671
 20
163.7677028300889
 30
0.0
 10
962.2753342494972
 20
163.2773670804996
 30
0.0
 10
962.1936566340947
 20
162.787157070916
 30
0.0
 10
962.1165700181102
 20
162.2971391384887
 30
0.0
 10
962.0441114863925
 20
161.8073801173022
 30
0.0
 10
961.9763177445697
 20
161.3179474535081
 30
0.0
 10
961.9132251044241
 20
160.8289093170534
 30
0.0
 10
961.8548694630142
 20
160.3403347104807
 30
0.0
 10
961.801286266587
 20
159.8522935719237
 30
0.0
 10
961.7525104925186
 20
159.3648568810482
 30
0.0
 10
961.7085765249027
 20
158.8780967326706
 30
0.0
 10
961.6695183883209
 20
158.3920865063174
 30
0.0
 10
961.6353686045705
 20
157.9069006485829
 30
0.0
 10
961.606162154117
 20
157.422615868129
 30
0.0
 10
961.581921334121
 20
156.9393070157752
 30
0.0
 10
961.5627119204072
 20
156.4570627680992
 30
0.0
 10
961.5484331559519
 20
155.9759312189668
 30
0.0
 10
961.5396015155153
 20
155.496134333934
 30
0.0
 10
961.5356478973214
 20
155.1305038742816
 30
0.0
 10
961.5363282064993
 20
154.9252926491876
 30
0.0
 10
961.5364813760821
 20
154.8790899538242
 30
0.0
  0
SPLINE
  5
16C
330
1F
100
AcDbEntity
  8
0
  6
Continuous
 62
     7
370
    30
100
AcDbSpline
210
0.0
220
0.0
230
1.0
 70
     8
 71
     3
 72
    70
 73
    66
 74
     0
 42
0.000000001
 43
0.00000001
 40
0.0
 40
0.0
 40
0.0
 40
0.0
 40
0.0071041241929378
 40
0.0241481099281433
 40
0.041202012918197
 40
0.0582641669511176
 40
0.0753330175322091
 40
0.0924069534392684
 40
0.1094843596762212
 40
0.1265640580235332
 40
0.1436449910022604
 40
0.1607262171721625
 40
0.1778069100093413
 40
0.1948863564960735
 40
0.211963955470347
 40
0.2290392158365364
 40
0.2461117547272868
 40
0.2631812957146277
 40
0.2802476671571227
 40
0.2973108007750996
 40
0.3143707305416165
 40
0.3314275919825288
 40
0.3484816219797296
 40
0.3655331591786811
 40
0.3825826451152686
 40
0.3996306261823111
 40
0.4166777565850166
 40
0.4337248024506369
 40
0.4507726472970891
 40
0.4678222991028063
 40
0.4848748992802174
 40
0.5019317339266787
 40
0.5189942478218915
 40
0.5360640617680688
 40
0.5531429940379257
 40
0.5702330869193816
 40
0.5873366396531615
 40
0.6044562494752934
 40
0.6215948630640122
 40
0.6387558415001817
 40
0.6541830541610278
 40
0.6713504557482975
 40
0.6867572525208417
 40
0.7021556542794543
 40
0.7175441838366698
 40
0.7329225587402411
 40
0.7482903629397682
 40
0.7636470034644465
 40
0.7789916478010407
 40
0.7943231333926786
 40
0.8096398333346414
 40
0.8249394510063262
 40
0.8402186950361774
 40
0.8554727437880248
 40
0.8706943200539972
 40
0.8858719976569214
 40
0.900986874655817
 40
0.9160054228249815
 40
0.9308621895644658
 40
0.9454104878430892
 40
0.9592414950546888
 40
0.9711777898492444
 40
0.9803187275811784
 40
0.9908026860532207
 40
1.0
 40
1.0
 40
1.0
 40
1.0
 10
992.0352947882895
 20
207.7038284184752
 30
0.0
 10
991.9750126091261
 20
207.6692188582882
 30
0.0
 10
991.7701033691392
 20
207.5515751570711
 30
0.0
 10
991.4220309488694
 20
207.344905075195
 30
0.0
 10
990.9910092115967
 20
207.0839720726562
 30
0.0
 10
990.5614039612876
 20
206.8170187660215
 30
0.0
 10
990.1331747348036
 20
206.5445469500837
 30
0.0
 10
989.7064233731305
 20
206.2665083031259
 30
0.0
 10
989.2812103402777
 20
205.9830024009474
 30
0.0
 10
988.8576018509668
 20
205.6940878728876
 30
0.0
 10
988.4356559722476
 20
205.3998317129119
 30
0.0
 10
988.015428847146
 20
205.1002973843529
 30
0.0
 10
987.5969738722872
 20
204.7955483201098
 30
0.0
 10
987.1803420329574
 20
204.4856468290938
 30
0.0
 10
986.7655819241357
 20
204.1706542395247
 30
0.0
 10
986.3527398583884
 20
203.8506307210656
 30
0.0
 10
985.9418599506511
 20
203.5256352013033
 30
0.0
 10
985.5329842068971
 20
203.1957252630304
 30
0.0
 10
985.126152607105
 20
202.8609570503003
 30
0.0
 10
984.721403182899
 20
202.5213851731421
 30
0.0
 10
984.3187720876514
 20
202.1770626107809
 30
0.0
 10
983.9182936575896
 20
201.8280406103002
 30
0.0
 10
983.5200004622715
 20
201.4743685781639
 30
0.0
 10
983.1239233427624
 20
201.1160939614963
 30
0.0
 10
982.7300914357729
 20
200.7532621157275
 30
0.0
 10
982.3385321817784
 20
200.3859161546604
 30
0.0
 10
981.9492713149422
 20
200.0140967784654
 30
0.0
 10
981.5623328322225
 20
199.6378420742602
 30
0.0
 10
981.1777389386039
 20
199.2571872829826
 30
0.0
 10
980.795509964664
 20
198.8721645249187
 30
0.0
 10
980.4156642518384
 20
198.4828024746112
 30
0.0
 10
980.0382179995073
 20
198.0891259736237
 30
0.0
 10
979.663185066608
 20
197.6911555669369
 30
0.0
 10
979.2905767179744
 20
197.2889069444579
 30
0.0
 10
978.9204013044048
 20
196.8823902660052
 30
0.0
 10
978.5526638559251
 20
196.4716093342787
 30
0.0
 10
978.1873655842878
 20
196.0565605977112
 30
0.0
 10
977.8245032029668
 20
195.6372318533508
 30
0.0
 10
977.4640682649054
 20
195.2136008728
 30
0.0
 10
977.1182839760887
 20
194.8002621302043
 30
0.0
 10
976.7749930273975
 20
194.3832734108865
 30
0.0
 10
976.4464392038312
 20
193.9777440193856
 30
0.0
 10
976.120756478007
 20
193.5692800863062
 30
0.0
 10
975.80961787023
 20
193.1731147632604
 30
0.0
 10
975.5011690478124
 20
192.7743972187586
 30
0.0
 10
975.1954531505977
 20
192.3731997165268
 30
0.0
 10
974.8925070386256
 20
191.9695875287442
 30
0.0
 10
974.5923706595381
 20
191.563631219332
 30
0.0
 10
974.2950881654593
 20
191.1554085579984
 30
0.0
 10
974.0007094955561
 20
190.7450072517953
 30
0.0
 10
973.709292764577
 20
190.3325290534449
 30
0.0
 10
973.4209079555031
 20
189.918096104986
 30
0.0
 10
973.1356428514193
 20
189.5018611110334
 30
0.0
 10
972.8536129864209
 20
189.0840243804408
 30
0.0
 10
972.5749792481419
 20
188.6648639160001
 30
0.0
 10
972.2999810869868
 20
188.2447921211551
 30
0.0
 10
972.0290046410396
 20
187.8244718062559
 30
0.0
 10
971.7627382290452
 20
187.405080928921
 30
0.0
 10
971.5025867437342
 20
186.9890147797113
 30
0.0
 10
971.2520618910168
 20
186.5822424351858
 30
0.0
 10
971.0208917471539
 20
186.2013390301118
 30
0.0
 10
970.8226475493242
 20
185.8702971705755
 30
0.0
 10
970.6448733517811
 20
185.5700903928549
 30
0.0
 10
970.4836673641692
 20
185.2952413286855
 30
0.0
 10
970.3746510889541
 20
185.1069352265681
 30
0.0
 10
970.3237063691656
 20
185.0189373419593
 30
0.0
  0
SPLINE
  5
16D
330
1F
100
AcDbEntity
  8
0
  6
Continuous
 62
     7
370
    30
100
AcDbSpline
210
0.0
220
0.0
230
1.0
 70
     8
 71
     3
 72
    70
 73
    66
 74
     0
 42
0.000000001
 43
0.00000001
 40
0.0
 40
0.0
 40
0.0
 40
0.0
 40
0.0183777049021687
 40
0.0257609955212345
 40
0.0380294781761165
 40
0.0507650162784485
 40
0.0644271446422579
 40
0.0786889923467696
 40
0.0934188100468231
 40
0.1085112048883125
 40
0.1238909754764038
 40
0.1395022069714124
 40
0.1553025150555397
 40
0.1712591151308772
 40
0.1873461795449813
 40
0.2035430183835615
 40
0.2198328031727493
 40
0.2362016547619781
 40
0.2526379801158234
 40
0.2691319823038416
 40
0.2856752930635583
 40
0.3022606935069079
 40
0.3188818991505836
 40
0.3355333925512623
 40
0.3522102916215685
 40
0.3689082450188669
 40
0.3856233483023904
 40
0.4023520761922477
 40
0.4190912274391125
 40
0.4358378796565783
 40
0.4525893520992345
 40
0.4693431748268323
 40
0.4860970630473014
 40
0.502848895685844
 40
0.5195966974351676
 40
0.5363386236886997
 40
0.5530729478830182
 40
0.5697980508656415
 40
0.586512411979273
 40
0.60321460161036
 40
0.6199032749970107
 40
0.6365771671286907
 40
0.653235088599079
 40
0.669875922298592
 40
0.6864986208533238
 40
0.7031022047320294
 40
0.719685760958556
 40
0.7362484423767154
 40
0.7527894674241912
 40
0.7693081203810879
 40
0.7858037520649747
 40
0.8022757809490035
 40
0.8187236946873127
 40
0.8351470520324771
 40
0.8515454851392537
 40
0.8679187022460191
 40
0.8842664907327399
 40
0.9005887205570466
 40
0.9168853480711431
 40
0.9331564202265238
 40
0.9494020791740165
 40
0.965622567274563
 40
0.9818182325320804
 40
0.9979895344693304
 40
0.9999999999999999
 40
0.9999999999999999
 40
0.9999999999999999
 40
0.9999999999999999
 10
990.2428302039208
 20
173.5198719166437
 30
0.0
 10
990.3105438384607
 20
173.6365630366621
 30
0.0
 10
990.4054616013366
 20
173.8001351168627
 30
0.0
 10
990.5474633979312
 20
174.0404546235499
 30
0.0
 10
990.6692124484954
 20
174.2445946774362
 30
0.0
 10
990.8159135424839
 20
174.4874046126661
 30
0.0
 10
990.9716162216674
 20
174.7417144120625
 30
0.0
 10
991.136537199037
 20
175.007320294175
 30
0.0
 10
991.3086527331031
 20
175.2805250193198
 30
0.0
 10
991.4868567620832
 20
175.5592285826506
 30
0.0
 10
991.6702959237731
 20
175.8418250428865
 30
0.0
 10
991.858333080139
 20
176.1271152718637
 30
0.0
 10
992.0504748565651
 20
176.4141749056237
 30
0.0
 10
992.2463292010996
 20
176.702274766851
 30
0.0
 10
992.4455764223745
 20
176.9908267857472
 30
0.0
 10
992.6479494810874
 20
177.2793470048325
 30
0.0
 10
992.8532202660349
 20
177.5674297475526
 30
0.0
 10
993.0611898679668
 20
177.8547292398383
 30
0.0
 10
993.2716815636009
 20
178.140946303954
 30
0.0
 10
993.4845356728168
 20
178.425818566602
 30
0.0
 10
993.6996057323581
 20
178.7091131448403
 30
0.0
 10
993.9167556100474
 20
178.9906211075833
 30
0.0
 10
994.1358573011322
 20
179.270153229047
 30
0.0
 10
994.3567892263729
 20
179.5475366955869
 30
0.0
 10
994.5794349041003
 20
179.8226125254609
 30
0.0
 10
994.8036819044125
 20
180.0952335282285
 30
0.0
 10
995.0294210186979
 20
180.3652626773181
 30
0.0
 10
995.256545595256
 20
180.6325718023012
 30
0.0
 10
995.4849510043388
 20
180.8970405310227
 30
0.0
 10
995.7145342050117
 20
181.1585554288232
 30
0.0
 10
995.9451933928159
 20
181.4170092945698
 30
0.0
 10
996.1768277121532
 20
181.6723005825049
 30
0.0
 10
996.409337020904
 20
181.9243329257936
 30
0.0
 10
996.6426216975813
 20
182.1730147429078
 30
0.0
 10
996.8765824833624
 20
182.4182589119166
 30
0.0
 10
997.1111203529772
 20
182.6599825008384
 30
0.0
 10
997.3461364096337
 20
182.8981065445394
 30
0.0
 10
997.5815318001415
 20
183.132555860522
 30
0.0
 10
997.8172076471348
 20
183.3632588973743
 30
0.0
 10
998.0530649958913
 20
183.5901476107989
 30
0.0
 10
998.2890047737121
 20
183.8131573630396
 30
0.0
 10
998.5249277602142
 20
184.0322268422556
 30
0.0
 10
998.7607345671705
 20
184.2472979989633
 30
0.0
 10
998.9963256267939
 20
184.4583159971448
 30
0.0
 10
999.2316011875437
 20
184.6652291779929
 30
0.0
 10
999.4664613167029
 20
184.8679890345811
 30
0.0
 10
999.7008059091007
 20
185.0665501959907
 30
0.0
 10
999.9345347014645
 20
185.2608704196444
 30
0.0
 10
1000.167547291963
 20
185.4509105907453
 30
0.0
 10
1000.39974316461
 20
185.6366347279277
 30
0.0
 10
1000.631021718126
 20
185.8180099940919
 30
0.0
 10
1000.861282299374
 20
185.9950067124256
 30
0.0
 10
1001.090424239813
 20
186.1675983842034
 30
0.0
 10
1001.3183468997
 20
186.3357617180175
 30
0.0
 10
1001.544949701689
 20
186.4994766317688
 30
0.0
 10
1001.770132221333
 20
186.6587263689123
 30
0.0
 10
1001.993794082485
 20
186.8134971998199
 30
0.0
 10
1002.215835595355
 20
186.9637796763251
 30
0.0
 10
1002.436155645009
 20
187.1095641097261
 30
0.0
 10
1002.65465983241
 20
187.2508575611444
 30
0.0
 10
1002.871230456718
 20
187.3876207378185
 30
0.0
 10
1003.085838589357
 20
187.5200031075425
 30
0.0
 10
1003.298127096119
 20
187.6474676253359
 30
0.0
 10
1003.447526150517
 20
187.7357468786917
 30
0.0
 10
1003.525520966395
 20
187.7802771822087
 30
0.0
 10
1003.53414531434
 20
187.785201161159
 30
0.0
  0
SPLINE
  5
16E
330
1F
100
AcDbEntity
  8
0
  6
Continuous
 62
     7
370
    30
100
AcDbSpline
210
0.0
220
0.0
230
1.0
 70
     8
 71
     3
 72
    67
 73
    63
 74
     0
 42
0.000000001
 43
0.00000001
 40
0.0
 40
0.0
 40
0.0
 40
0.0
 40
0.0098386754843624
 40
0.0268848029036849
 40
0.043964818606717
 40
0.061079669799209
 40
0.0782301907331115
 40
0.0954171126262481
 40
0.1126410731350244
 40
0.1299026254352898
 40
0.1472022469621179
 40
0.1645403478608373
 40
0.1819172792019401
 40
0.1993333410116407
 40
0.2167887901732301
 40
0.2342838482563726
 40
0.2518187093400861
 40
0.2693935478929331
 40
0.2870085267921922
 40
0.3046638055656786
 40
0.3223595489561593
 40
0.3400959359227156
 40
0.3578731692168691
 40
0.3756914856913263
 40
0.3935511675328765
 40
0.4114525546575797
 40
0.429396058544485
 40
0.4473821778664046
 40
0.4654115163478739
 40
0.4834848034020178
 40
0.5016029182389676
 40
0.5197669183369961
 40
0.5379780734252098
 40
0.5562379064859896
 40
0.5745482437695465
 40
0.5929112764887967
 40
0.6113296378289887
 40
0.627910939261035
 40
0.6463927316554184
 40
0.6629988106903786
 40
0.6796164543804419
 40
0.6962430449049614
 40
0.7128772493015376
 40
0.7295175716420954
 40
0.7461623027834554
 40
0.7628094470300941
 40
0.7794566151367811
 40
0.7961008641087125
 40
0.8127384500518603
 40
0.8293644333000363
 40
0.8459720209467009
 40
0.8625514168144438
 40
0.8790876855452723
 40
0.8955564789111549
 40
0.9119146307392649
 40
0.9280766684298847
 40
0.9438446870724645
 40
0.9586297182790323
 40
0.9707445964990862
 40
0.9809138807555405
 40
0.9934011544235265
 40
1.0
 40
1.0
 40
1.0
 40
1.0
 10
984.5363188568608
 20
154.8793303044321
 30
0.0
 10
984.5362725380415
 20
154.9282013625476
 30
0.0
 10
984.536145968939
 20
155.0617446191799
 30
0.0
 10
984.5393028154806
 20
155.2848815598695
 30
0.0
 10
984.545572951662
 20
155.5483569318041
 30
0.0
 10
984.5551634131496
 20
155.8166120544405
 30
0.0
 10
984.5679654435838
 20
156.0893112329652
 30
0.0
 10
984.584089991972
 20
156.3664360657966
 30
0.0
 10
984.6035853535994
 20
156.6478802920274
 30
0.0
 10
984.6265130899161
 20
156.9335588604163
 30
0.0
 10
984.6529276548462
 20
157.2233787850212
 30
0.0
 10
984.6828819113973
 20
157.517247154521
 30
0.0
 10
984.7164256952071
 20
157.8150691561825
 30
0.0
 10
984.7536062539997
 20
158.1167487865714
 30
0.0
 10
984.794468189679
 20
158.4221888428704
 30
0.0
 10
984.8390535413554
 20
158.7312911111374
 30
0.0
 10
984.8874018380602
 20
159.0439565059401
 30
0.0
 10
984.939550167668
 20
159.3600852284017
 30
0.0
 10
984.995533250122
 20
159.6795769258586
 30
0.0
 10
985.0553835189484
 20
160.0023308591803
 30
0.0
 10
985.1191312109626
 20
160.3282460779662
 30
0.0
 10
985.1868044654267
 20
160.6572216058364
 30
0.0
 10
985.2584294338589
 20
160.9891566379848
 30
0.0
 10
985.3340304020896
 20
161.3239507537871
 30
0.0
 10
985.413629926532
 20
161.6615041478729
 30
0.0
 10
985.4972489871251
 20
162.0017178838406
 30
0.0
 10
985.5849071600354
 20
162.3444941758496
 30
0.0
 10
985.6766228139844
 20
162.6897367045351
 30
0.0
 10
985.7724133351123
 20
163.0373509754732
 30
0.0
 10
985.8722953865347
 20
163.3872447303177
 30
0.0
 10
985.9762852107887
 20
163.7393284244354
 30
0.0
 10
986.0843989845193
 20
164.0935157855637
 30
0.0
 10
986.1966532421569
 20
164.4497244845718
 30
0.0
 10
986.3130653733576
 20
164.8078769134671
 30
0.0
 10
986.4336542652923
 20
165.1679012358963
 30
0.0
 10
986.5584409419373
 20
165.5297322870494
 30
0.0
 10
986.6830244331993
 20
165.8808419808227
 30
0.0
 10
986.811398292175
 20
166.2332298613959
 30
0.0
 10
986.9387988987843
 20
166.5740698440877
 30
0.0
 10
987.06964036224
 20
166.9154380356915
 30
0.0
 10
987.1988226862446
 20
167.2447410615952
 30
0.0
 10
987.3310911459031
 20
167.5743308664943
 30
0.0
 10
987.466409412412
 20
167.9040904850307
 30
0.0
 10
987.6047414395782
 20
168.2339091732397
 30
0.0
 10
987.7460473265751
 20
168.563672341131
 30
0.0
 10
987.8902824668253
 20
168.8932600404394
 30
0.0
 10
988.0373963284887
 20
169.2225448373389
 30
0.0
 10
988.1873305943961
 20
169.5513885547947
 30
0.0
 10
988.3400162579104
 20
169.8796371862323
 30
0.0
 10
988.4953689128791
 20
170.2071126368705
 30
0.0
 10
988.6532807684698
 20
170.533598706826
 30
0.0
 10
988.8136063579886
 20
170.8588159638136
 30
0.0
 10
988.9761351541299
 20
171.1823735361449
 30
0.0
 10
989.1405343755953
 20
171.5036681740397
 30
0.0
 10
989.3062146375422
 20
171.8216469408434
 30
0.0
 10
989.4719587309377
 20
172.1341487393686
 30
0.0
 10
989.6345816392464
 20
172.4355241869409
 30
0.0
 10
989.7850804364981
 20
172.7099077753144
 30
0.0
 10
989.9173071335597
 20
172.9475770298927
 30
0.0
 10
990.042489586624
 20
173.1699264702623
 30
0.0
 10
990.1487245215425
 20
173.3565221532418
 30
0.0
 10
990.2186530687676
 20
173.4779049577182
 30
0.0
 10
990.2428302039208
 20
173.5198719166437
 30
0.0
  0
LINE
  5
16F
330
1F
100
AcDbEntity
  8
0
  6
Continuous
 62
     7
370
    30
100
AcDbLine
 10
984.5359530083
 20
147.6201573336
 30
0.0
 11
984.5359530083
 21
154.8789067712
 31
0.0
  0
LINE
  5
170
330
1F
100
AcDbEntity
  8
0
  6
Continuous
 62
     7
370
    30
100
AcDbLine
 10
961.5359530083
 20
154.8789067712
 30
0.0
 11
961.5359530083
 21
147.6201573336
 31
0.0
  0
LINE
  5
171
330
1F
100
AcDbEntity
  8
0
  6
Continuous
 62
     7
370
    30
100
AcDbLine
 10
1003.5342230625
 20
187.7854152268
 30
0.0
 11
1218.1411311526
 21
311.6753461959
 31
0.0
  0
LINE
  5
172
330
1F
100
AcDbEntity
  8
0
  6
Continuous
 62
     7
370
    30
100
AcDbLine
 10
1206.6420657273
 20
331.5944700306
 30
0.0
 11
992.0351576372
 21
207.7045390615
 31
0.0
  0
LINE
  5
173
330
1F
100
AcDbEntity
  8
0
  6
Continuous
 62
     7
370
    30
100
AcDbLine
 10
974.4501665707
 20
197.697174023
 30
0.0
 11
977.889805186
 21
195.7115129164
 31
0.0
  0
LINE
  5
174
330
1F
100
AcDbEntity
  8
0
  6
Continuous
 62
     7
370
    30
100
AcDbLine
 10
998.3705534716
 20
183.8882285968
 30
0.0
 11
1112.6188315262
 21
117.934101549
 31
0.0
  0
ARC
  5
175
330
1F
100
AcDbEntity
  8
0
  6
Continuous
 62
     7
370
    30
100
AcDbCircle
 10
1112.3036526605
 20
117.1176933941
 30
0.0
 40
0.8751342712571439
100
AcDbArc
 50
291.1093624384
 51
68.8906437622
  0
LINE
  5
176
330
1F
100
AcDbEntity
  8
0
  6
Continuous
 62
     7
370
    30
100
AcDbLine
 10
1112.6188316145
 20
116.3012852733
 30
0.0
 11
974.4501666591
 21
36.5382127037
 31
0.0
  0
ARC
  5
177
330
1F
100
AcDbEntity
  8
0
  6
Continuous
 62
     7
370
    30
100
AcDbCircle
 10
973.0359530025
 20
39.2584108239
 30
0.0
 40
3.065856826310418
100
AcDbArc
 50
242.5303683433
 51
297.4696337628
  0
LINE
  5
178
330
1F
100
AcDbEntity
  8
0
  6
Continuous
 62
     7
370
    30
100
AcDbLine
 10
971.6217394459
 20
36.5382126517
 30
0.0
 11
833.4530744905
 21
116.3012851258
 31
0.0
  0
ARC
  5
179
330
1F
100
AcDbEntity
  8
0
  6
Continuous
 62
     7
370
    30
100
AcDbCircle
 10
833.7682533561
 20
117.1176932806
 30
0.0
 40
0.8751342712570046
100
AcDbArc
 50
111.1093624384
 51
248.8906437622
  0
LINE
  5
17A
330
1F
100
AcDbEntity
  8
0
  6
Continuous
 62
     7
370
    30
100
AcDbLine
 10
833.4530744021
 20
117.9341014014
 30
0.0
 11
971.6217394459
 21
197.6971740221
 31
0.0
  0
ARC
  5
17B
330
1F
100
AcDbEntity
  8
0
  6
Continuous
 62
     7
370
    30
100
AcDbCircle
 10
973.0359530093
 20
194.9769758201
 30
0.0
 40
3.065856855922291
100
AcDbArc
 50
62.5303685282
 51
117.4696315106
  0
LINE
  5
17C
330
1F
100
AcDbEntity
  8
0
  6
Continuous
 62
     7
370
    30
100
AcDbLine
 10
989.0355733611
 20
131.5767562797
 30
0.0
 11
989.0357534916
 21
131.5704638426
 31
0.0
  0
SPLINE
  5
17D
330
1F
100
AcDbEntity
  8
0
  6
Continuous
 62
     7
370
    30
100
AcDbSpline
210
0.0
220
0.0
230
1.0
 70
     8
 71
     3
 72
    20
 73
    16
 74
     0
 42
0.000000001
 43
0.00000001
 40
0.0
 40
0.0
 40
0.0
 40
0.0
 40
0.0352834509417638
 40
0.0571696564049182
 40
0.0796775008996406
 40
0.1171973000850802
 40
0.1556371294864209
 40
0.207291584509903
 40
0.2594914862695153
 40
0.3660994581332931
 40
0.4440434940660858
 40
0.5222148938255509
 40
0.6796263754964814
 40
0.8395777787824572
 40
1.0
 40
1.0
 40
1.0
 40
1.0
 10
980.5801390473108
 20
111.8398672444465
 30
0.0
 10
980.5811554613601
 20
111.8508179262203
 30
0.0
 10
980.5828023536121
 20
111.8685612789168
 30
0.0
 10
980.5921950618485
 20
111.8949162165676
 30
0.0
 10
980.6042207217124
 20
111.9214090921618
 30
0.0
 10
980.6220334597642
 20
111.9521142826165
 30
0.0
 10
980.6479553739
 20
111.9894768203722
 30
0.0
 10
980.6792319221247
 20
112.0284093885642
 30
0.0
 10
980.7277079873854
 20
112.0821178474722
 30
0.0
 10
980.7846444959487
 20
112.137254529511
 30
0.0
 10
980.8491243741877
 20
112.1935319062934
 30
0.0
 10
980.9269887277666
 20
112.2566515258706
 30
0.0
 10
981.0263206898761
 20
112.3297073845375
 30
0.0
 10
981.1470468692395
 20
112.4102185772633
 30
0.0
 10
981.2281958349588
 20
112.4583174845711
 30
0.0
 10
981.2688299456797
 20
112.4824022810659
 30
0.0
  0
LINE
  5
17E
330
1F
100
AcDbEntity
  8
0
  6
Continuous
 62
     7
370
    30
100
AcDbLine
 10
988.826324855
 20
116.600291716
 30
0.0
 11
988.8263233389
 21
114.803900098
 31
0.0
  0
LINE
  5
17F
330
1F
100
AcDbEntity
  8
0
  6
Continuous
 62
     7
370
    30
100
AcDbLine
 10
980.5801033794
 20
110.0434586442
 30
0.0
 11
980.5801002063
 21
111.8398475552
 31
0.0
  0
ARC
  5
180
330
1F
100
AcDbEntity
  8
0
  6
Continuous
 62
     7
370
    30
100
AcDbCircle
 10
976.9254611598
 20
125.8966011683
 30
0.0
 40
16.2689439621374
100
AcDbArc
 50
282.9816615218
 51
317.0129619455
  0
LINE
  5
181
330
1F
100
AcDbEntity
  8
0
  6
Continuous
 62
     7
370
    30
100
AcDbLine
 10
990.5343543996
 20
117.3626715775
 30
0.0
 11
990.5338308344
 21
117.3451928106
 31
0.0
  0
LINE
  5
182
330
1F
100
AcDbEntity
  8
0
  6
Continuous
 62
     7
370
    30
100
AcDbLine
 10
981.2688299457
 20
112.4824022811
 30
0.0
 11
988.1375998501
 21
116.447658744
 31
0.0
  0
SPLINE
  5
183
330
1F
100
AcDbEntity
  8
0
  6
Continuous
 62
     7
370
    30
100
AcDbSpline
210
0.0
220
0.0
230
1.0
 70
     8
 71
     3
 72
    19
 73
    15
 74
     0
 42
0.000000001
 43
0.00000001
 40
0.0
 40
0.0
 40
0.0
 40
0.0
 40
0.137003371925983
 40
0.2742623752599631
 40
0.4125703264033539
 40
0.5514299362566851
 40
0.6514060243602121
 40
0.7521537629650028
 40
0.8317964743822615
 40
0.8715846330721244
 40
0.9120612439906627
 40
0.9531316270887252
 40
0.987859087248749
 40
1.0
 40
1.0
 40
1.0
 40
1.0
 10
988.1375998501063
 20
116.4476587440343
 30
0.0
 10
988.1722978606214
 20
116.4672305727162
 30
0.0
 10
988.241758623863
 20
116.5064107487003
 30
0.0
 10
988.3460697599108
 20
116.5587381732027
 30
0.0
 10
988.4503913070604
 20
116.6052510403875
 30
0.0
 10
988.5444926151488
 20
116.640047413937
 30
0.0
 10
988.6278063460134
 20
116.6631792914622
 30
0.0
 10
988.6948030518467
 20
116.6742672468929
 30
0.0
 10
988.7447977245187
 20
116.6740302835998
 30
0.0
 10
988.7781223986111
 20
116.6665492448603
 30
0.0
 10
988.800914962435
 20
116.6556643350189
 30
0.0
 10
988.8182877181604
 20
116.6378440018097
 30
0.0
 10
988.8256788295996
 20
116.6171812376241
 30
0.0
 10
988.8261648487362
 20
116.6037488550097
 30
0.0
 10
988.8262907484753
 20
116.6002692935221
 30
0.0
  0
LINE
  5
184
330
1F
100
AcDbEntity
  8
0
  6
Continuous
 62
     7
370
    30
100
AcDbLine
 10
988.8263233389
 20
114.803900098
 30
0.0
 11
980.5801033794
 21
110.0434586442
 31
0.0
  0
ARC
  5
185
330
1F
100
AcDbEntity
  8
0
  6
Continuous
 62
     7
370
    30
100
AcDbCircle
 10
965.6810142977
 20
138.5727172873
 30
0.0
 40
4.045136247772559
100
AcDbArc
 50
180.3488043151
 51
206.6599656763
  0
LWPOLYLINE
  5
186
330
1F
100
AcDbEntity
  8
0
  6
Continuous
 62
     7
370
    30
100
AcDbPolyline
 90
       76
 70
   128
 43
0.0
 10
969.9345450449
 20
132.2152346291
 10
970.2061210114
 20
132.1729924984
 10
970.4794195229
 20
132.1346309488
 10
970.75427422
 20
132.1001733316
 10
971.0305177962
 20
132.0696406213
 10
971.3079820993
 20
132.0430514035
 10
971.5864982344
 20
132.0204218633
 10
971.865896666
 20
132.0017657755
 10
972.1460073217
 20
131.9870944963
 10
972.4266596956
 20
131.9764169561
 10
972.707682952
 20
131.9697396546
 10
972.9889060294
 20
131.9670666561
 10
973.2701577448
 20
131.9683995879
 10
973.5512668976
 20
131.9737376386
 10
973.832062374
 20
131.9830775588
 10
974.1123732513
 20
131.9964136632
 10
974.3920289016
 20
132.013737834
 10
974.6708590959
 20
132.0350395259
 10
974.9486941078
 20
132.0603057722
 10
975.2253648164
 20
132.0895211933
 10
975.5007028098
 20
132.1226680054
 10
975.7745404871
 20
132.1597260317
 10
976.0467111609
 20
132.2006727147
 10
976.3170491582
 20
132.2454831297
 10
976.585389922
 20
132.2941300003
 10
976.8515701106
 20
132.3465837146
 10
977.1154276977
 20
132.4028123435
 10
977.3768020707
 20
132.4627816602
 10
977.6355341287
 20
132.5264551609
 10
977.8914663791
 20
132.5937940868
 10
978.1444430335
 20
132.6647574481
 10
978.3943101026
 20
132.7393020487
 10
978.6409154902
 20
132.8173825128
 10
978.8841090851
 20
132.8989513119
 10
979.1237428533
 20
132.9839587944
 10
979.3596709273
 20
133.0723532155
 10
979.5917496957
 20
133.1640807686
 10
979.8198378898
 20
133.2590856184
 10
980.0437966704
 20
133.3573099344
 10
980.2634897116
 20
133.4586939267
 10
980.4787832843
 20
133.5631758819
 10
980.6895463371
 20
133.6706922008
 10
980.8956505768
 20
133.7811774373
 10
981.0969705458
 20
133.894564338
 10
981.2933836987
 20
134.0107838831
 10
981.484770477
 20
134.1297653289
 10
981.6710143818
 20
134.2514362502
 10
981.8520020448
 20
134.3757225847
 10
982.027623297
 20
134.5025486783
 10
982.1977712361
 20
134.6318373307
 10
982.3623422917
 20
134.7635098427
 10
982.5212362876
 20
134.8974860641
 10
982.6743565037
 20
135.0336844422
 10
982.8216097343
 20
135.1720220719
 10
982.962906345
 20
135.3124147457
 10
983.0981603272
 20
135.4547770054
 10
983.2272893505
 20
135.5990221936
 10
983.350214813
 20
135.7450625071
 10
983.4668618887
 20
135.8928090498
 10
983.5771595736
 20
136.0421718868
 10
983.6810407283
 20
136.1930600998
 10
983.7784421195
 20
136.3453818417
 10
983.869304458
 20
136.4990443927
 10
983.9535724351
 20
136.6539542171
 10
984.0311947561
 20
136.8100170198
 10
984.1021241716
 20
136.967137804
 10
984.1663175061
 20
137.1252209287
 10
984.2237356846
 20
137.2841701674
 10
984.2743437561
 20
137.4438887661
 10
984.3181109151
 20
137.6042795026
 10
984.3550105199
 20
137.7652447457
 10
984.3850201096
 20
137.9266865142
 10
984.408121417
 20
138.0885065372
 10
984.4243003801
 20
138.2506063132
 10
984.4335471506
 20
138.4128871705
 10
984.4359530083
 20
138.5480905335
  0
LINE
  5
187
330
1F
100
AcDbEntity
  8
0
  6
Continuous
 62
     7
370
    30
100
AcDbLine
 10
969.9345447942
 20
134.6648571087
 30
0.0
 11
969.9345450449
 21
132.2152346291
 31
0.0
  0
LWPOLYLINE
  5
188
330
1F
100
AcDbEntity
  8
0
  6
Continuous
 62
     7
370
    30
100
AcDbPolyline
 90
       42
 70
   128
 43
0.0
 10
962.0659362768
 20
139.207308117
 10
962.1464588217
 20
139.0503685694
 10
962.2337173315
 20
138.8946335996
 10
962.3276578303
 20
138.7401995413
 10
962.428222209
 20
138.5871619237
 10
962.5353482608
 20
138.4356154117
 10
962.6489697205
 20
138.2856537484
 10
962.7690163046
 20
138.137369696
 10
962.8954137553
 20
137.9908549795
 10
963.0280838865
 20
137.8462002291
 10
963.1669446317
 20
137.7034949245
 10
963.3119100951
 20
137.5628273397
 10
963.4628906049
 20
137.424284488
 10
963.6197927683
 20
137.2879520686
 10
963.7825195296
 20
137.1539144131
 10
963.9509702301
 20
137.0222544339
 10
964.1250406706
 20
136.8930535726
 10
964.3046231755
 20
136.7663917495
 10
964.4896066596
 20
136.6423473143
 10
964.6798766968
 20
136.5209969979
 10
964.8753155908
 20
136.4024158645
 10
965.0758024482
 20
136.2866772653
 10
965.2812132528
 20
136.1738527933
 10
965.4914209428
 20
136.0640122388
 10
965.706295489
 20
135.9572235465
 10
965.9257039754
 20
135.8535527732
 10
966.1495106815
 20
135.7530640468
 10
966.3775771662
 20
135.6558195273
 10
966.6097623534
 20
135.5618793676
 10
966.8459226191
 20
135.4713016766
 10
967.0859118806
 20
135.3841424836
 10
967.3295816866
 20
135.3004557029
 10
967.5767813092
 20
135.220293101
 10
967.827357837
 20
135.1437042645
 10
968.0811562696
 20
135.0707365694
 10
968.3380196139
 20
135.0014351515
 10
968.5977889806
 20
134.935842879
 10
968.860303683
 20
134.8740003256
 10
969.1254013361
 20
134.8159457455
 10
969.3929179574
 20
134.7617150499
 10
969.6626880677
 20
134.7113417844
 10
969.9345447942
 20
134.6648571087
  0
LINE
  5
189
330
1F
100
AcDbEntity
  8
0
  6
Continuous
 62
     7
370
    30
100
AcDbLine
 10
962.0659362116
 20
136.7576862421
 30
0.0
 11
962.0659362768
 21
139.207308117
 31
0.0
  0
LWPOLYLINE
  5
18A
330
1F
100
AcDbEntity
  8
0
  6
Continuous
 62
     7
370
    30
100
AcDbPolyline
 90
       82
 70
   128
 43
0.0
 10
966.9548346901
 20
131.1081267738
 10
967.1298917319
 20
131.0098973627
 10
967.3097079837
 20
130.9145759747
 10
967.4941385463
 20
130.8222394214
 10
967.6830348024
 20
130.7329621093
 10
967.8762445359
 20
130.6468159796
 10
968.0736120549
 20
130.5638704505
 10
968.2749783172
 20
130.4841923609
 10
968.4801810582
 20
130.4078459169
 10
968.689054922
 20
130.3348926398
 10
968.9014315941
 20
130.2653913166
 10
969.1171399376
 20
130.1993979529
 10
969.3360061309
 20
130.1369657271
 10
969.5578538078
 20
130.0781449483
 10
969.7825041993
 20
130.0229830154
 10
970.0097762782
 20
129.9715243788
 10
970.2394869045
 20
129.9238105048
 10
970.4714509733
 20
129.8798798421
 10
970.7054815638
 20
129.8397677909
 10
970.94139009
 20
129.8035066741
 10
971.1789864525
 20
129.7711257116
 10
971.4180791919
 20
129.7426509965
 10
971.6584756431
 20
129.7181054743
 10
971.8999820902
 20
129.6975089243
 10
972.142403923
 20
129.6808779434
 10
972.3855457937
 20
129.6682259332
 10
972.6292117742
 20
129.659563089
 10
972.873205514
 20
129.6548963914
 10
973.1173303987
 20
129.6542296009
 10
973.3613897081
 20
129.6575632548
 10
973.6051867747
 20
129.6648946669
 10
973.8485251426
 20
129.6762179293
 10
974.0912087252
 20
129.6915239175
 10
974.3330419639
 20
129.7108002977
 10
974.5738299851
 20
129.7340315367
 10
974.8133787574
 20
129.7611989143
 10
975.0514952482
 20
129.7922805386
 10
975.287987579
 20
129.8272513633
 10
975.5226651799
 20
129.8660832085
 10
975.7553389436
 20
129.9087447826
 10
975.9858213774
 20
129.9552017083
 10
976.2139267544
 20
130.0054165497
 10
976.4394712632
 20
130.0593488428
 10
976.662273156
 20
130.116955128
 10
976.882152895
 20
130.1781889851
 10
977.0989332972
 20
130.2430010708
 10
977.3124396771
 20
130.3113391583
 10
977.5224999874
 20
130.3831481796
 10
977.7289449578
 20
130.4583702696
 10
977.9316082311
 20
130.5369448132
 10
978.1303264977
 20
130.6188084934
 10
978.3249396269
 20
130.7038953431
 10
978.5152907958
 20
130.7921367978
 10
978.7012266162
 20
130.8834617509
 10
978.8825972575
 20
130.9777966111
 10
979.0592565682
 20
131.0750653617
 10
979.2310621929
 20
131.1751896219
 10
979.3978756876
 20
131.2780887097
 10
979.559562631
 20
131.3836797071
 10
979.7159927328
 20
131.491877527
 10
979.8670399389
 20
131.6025949818
 10
980.0125825328
 20
131.7157428533
 10
980.1525032335
 20
131.8312299648
 10
980.2866892906
 20
131.9489632549
 10
980.4150325744
 20
132.0688478519
 10
980.5374296636
 20
132.1907871507
 10
980.6537819285
 20
132.3146828904
 10
980.7639956104
 20
132.4404352336
 10
980.867981897
 20
132.5679428468
 10
980.9656569944
 20
132.6971029821
 10
981.0569421942
 20
132.8278115599
 10
981.1417639372
 20
132.9599632529
 10
981.2200538725
 20
133.093451571
 10
981.2917489126
 20
133.2281689468
 10
981.3567912845
 20
133.3640068226
 10
981.4151285757
 20
133.5008557379
 10
981.4667137771
 20
133.6386054174
 10
981.5115053204
 20
133.7771448598
 10
981.5494671117
 20
133.9163624277
 10
981.5805685608
 20
134.056145937
 10
981.6047846055
 20
134.1963827477
 10
981.6065721046
 20
134.208649547
  0
SPLINE
  5
18B
330
1F
100
AcDbEntity
  8
0
  6
Continuous
 62
     7
370
    30
100
AcDbSpline
210
0.0
220
0.0
230
1.0
 70
     8
 71
     3
 72
    26
 73
    22
 74
     0
 42
0.000000001
 43
0.00000001
 40
0.0
 40
0.0
 40
0.0
 40
0.0
 40
0.0448335002421051
 40
0.0896664252557158
 40
0.1410106610187881
 40
0.1923536656827869
 40
0.2479746499602254
 40
0.3035938013745472
 40
0.3557383530893087
 40
0.4078817931613476
 40
0.4539422103133537
 40
0.5000023764175275
 40
0.5547900587268493
 40
0.6098543417002171
 40
0.6649197503348953
 40
0.7204669592157719
 40
0.7760159427281542
 40
0.8320075912836981
 40
0.8880010506700735
 40
0.9442016441667263
 40
1.0
 40
1.0
 40
1.0
 40
1.0
 10
969.9345453585918
 20
132.2152346871499
 30
0.0
 10
969.8206850896863
 20
132.2368857285883
 30
0.0
 10
969.5929660127401
 20
132.2801875336752
 30
0.0
 10
969.2316786413613
 20
132.3614440851038
 30
0.0
 10
968.8510573169631
 20
132.4584894026457
 30
0.0
 10
968.4393510713893
 20
132.5786904262121
 30
0.0
 10
968.0132613716743
 20
132.7203381512304
 30
0.0
 10
967.5819594346467
 20
132.8830308362231
 30
0.0
 10
967.1573211599414
 20
133.0627077072627
 30
0.0
 10
966.7562715276217
 20
133.250792129264
 30
0.0
 10
966.3703694033354
 20
133.44902784527
 30
0.0
 10
965.9768656803672
 20
133.6677896066235
 30
0.0
 10
965.5592268019839
 20
133.9194664747802
 30
0.0
 10
965.1183202434212
 20
134.207457679686
 30
0.0
 10
964.6770240237032
 20
134.51748858046
 30
0.0
 10
964.2367956521703
 20
134.8480421581364
 30
0.0
 10
963.7970437357149
 20
135.1985057096275
 30
0.0
 10
963.3594608093712
 20
135.5664039936328
 30
0.0
 10
962.923878647087
 20
135.9508075707036
 30
0.0
 10
962.4922906914253
 20
136.347281976564
 30
0.0
 10
962.2077136475316
 20
136.6212124684686
 30
0.0
 10
962.0659361464732
 20
136.7576858117662
 30
0.0
  0
ARC
  5
18C
330
1F
100
AcDbEntity
  8
0
  6
Continuous
 62
     7
370
    30
100
AcDbCircle
 10
968.727613185
 20
135.039072164
 30
0.0
 40
4.312200743529246
100
AcDbArc
 50
185.5945724177
 51
245.7255685399
  0
LWPOLYLINE
  5
18D
330
1F
100
AcDbEntity
  8
0
  6
Continuous
 62
     7
370
    30
100
AcDbPolyline
 90
        3
 70
   128
 43
0.0
 10
1229.2692011588
 20
293.8518219863
 10
1229.306707234
 20
293.8731588445
 10
1229.4249714307
 20
293.9417437772
  0
LWPOLYLINE
  5
18E
330
1F
100
AcDbEntity
  8
0
  6
Continuous
 62
     7
370
    30
100
AcDbPolyline
 90
        3
 70
   128
 43
0.0
 10
1196.9193970619
 20
350.2294069195
 10
1196.8907032083
 20
350.2130654938
 10
1196.7717564012
 20
350.1440788851
  0
LWPOLYLINE
  5
18F
330
1F
100
AcDbEntity
  8
0
  6
Continuous
 62
     7
370
    30
100
AcDbPolyline
 90
      122
 70
   128
 43
0.0
 10
1235.7113456572
 20
297.570360645
 10
1235.7126662518
 20
297.571123132
 10
1236.1324731927
 20
297.8264118292
 10
1236.5408554805
 20
298.1008153073
 10
1236.9375332306
 20
298.3941455037
 10
1237.3222345797
 20
298.7062013846
 10
1237.6946958727
 20
299.0367690825
 10
1238.0546618434
 20
299.3856220427
 10
1238.401885789
 20
299.752521179
 10
1238.7361297395
 20
300.1372150369
 10
1239.0571646209
 20
300.5394399665
 10
1239.3647704119
 20
300.9589203029
 10
1239.6587362949
 20
301.3953685553
 10
1239.9388608002
 20
301.8484856038
 10
1240.2049519446
 20
302.3179609046
 10
1240.4568273625
 20
302.8034727029
 10
1240.6943144311
 20
303.304688253
 10
1240.9172503885
 20
303.8212640469
 10
1241.1254824456
 20
304.3528460493
 10
1241.3188678907
 20
304.8990699405
 10
1241.4972741868
 20
305.4595613659
 10
1241.6605790633
 20
306.0339361927
 10
1241.8086705992
 20
306.621800773
 10
1241.9414472999
 20
307.2227522139
 10
1242.058818167
 20
307.8363786533
 10
1242.1607027602
 20
308.4622595422
 10
1242.247031253
 20
309.0999659331
 10
1242.3177444801
 20
309.7490607739
 10
1242.3727939782
 20
310.4090992075
 10
1242.4121420192
 20
311.0796288765
 10
1242.4357616358
 20
311.7601902333
 10
1242.4436366404
 20
312.4503168552
 10
1242.4357616358
 20
313.1495357639
 10
1242.4121420192
 20
313.8573677496
 10
1242.3727939782
 20
314.5733276997
 10
1242.3177444801
 20
315.2969249309
 10
1242.247031253
 20
316.027663526
 10
1242.1607027602
 20
316.7650426731
 10
1242.058818167
 20
317.5085570094
 10
1241.9414472999
 20
318.2576969673
 10
1241.8086705992
 20
319.0119491237
 10
1241.6605790633
 20
319.770796552
 10
1241.4972741868
 20
320.5337191758
 10
1241.3188678907
 20
321.3001941263
 10
1241.1254824456
 20
322.0696960997
 10
1240.9172503885
 20
322.8416977178
 10
1240.6943144311
 20
323.6156698893
 10
1240.4568273625
 20
324.3910821723
 10
1240.2049519446
 20
325.167403138
 10
1239.9388608002
 20
325.9441007348
 10
1239.6587362949
 20
326.7206426528
 10
1239.3647704119
 20
327.4964966892
 10
1239.0571646209
 20
328.2711311122
 10
1238.7361297395
 20
329.0440150262
 10
1238.401885789
 20
329.8146187351
 10
1238.0546618434
 20
330.5824141056
 10
1237.6946958727
 20
331.3468749292
 10
1237.3222345797
 20
332.1074772825
 10
1236.9375332306
 20
332.8636998867
 10
1236.5408554805
 20
333.6150244646
 10
1236.1324731927
 20
334.3609360959
 10
1235.7126662518
 20
335.10092357
 10
1235.2817223727
 20
335.8344797364
 10
1234.8399369026
 20
336.5611018524
 10
1234.3876126194
 20
337.2802919275
 10
1233.9250595235
 20
337.9915570647
 10
1233.4525946256
 20
338.6944097985
 10
1232.9705417296
 20
339.3883684287
 10
1232.4792312105
 20
340.0729573506
 10
1231.978999788
 20
340.7477073814
 10
1231.4701902956
 20
341.4121560808
 10
1230.9531514461
 20
342.0658480692
 10
1230.428237592
 20
342.7083353385
 10
1229.895808483
 20
343.3391775602
 10
1229.3562290195
 20
343.9579423864
 10
1228.8098690023
 20
344.5642057467
 10
1228.2571028792
 20
345.1575521384
 10
1227.6983094885
 20
345.7375749116
 10
1227.1338717994
 20
346.3038765476
 10
1226.5641766491
 20
346.8560689316
 10
1225.9896144784
 20
347.3937736185
 10
1225.4105790633
 20
347.9166220923
 10
1224.8274672459
 20
348.4242560189
 10
1224.2406786619
 20
348.9163274913
 10
1223.6506154669
 20
349.3924992683
 10
1223.0576820607
 20
349.8524450055
 10
1222.4622848102
 20
350.2958494792
 10
1221.8648317709
 20
350.7224088019
 10
1221.2657324075
 20
351.1318306314
 10
1220.6653973125
 20
351.5238343702
 10
1220.0642379258
 20
351.8981513587
 10
1219.4626662518
 20
352.2545250586
 10
1218.8610945779
 20
352.5927112293
 10
1218.2599351912
 20
352.9124780948
 10
1217.6596000962
 20
353.2136065028
 10
1217.0605007327
 20
353.4958900751
 10
1216.4630476935
 20
353.7591353485
 10
1215.867650443
 20
354.0031619079
 10
1215.2747170367
 20
354.2278025097
 10
1214.6846538417
 20
354.4329031964
 10
1214.0978652577
 20
354.6183234023
 10
1213.5147534403
 20
354.7839360496
 10
1212.9357180253
 20
354.9296276357
 10
1212.3611558545
 20
355.0552983108
 10
1211.7914607043
 20
355.1608619466
 10
1211.2270230151
 20
355.2462461949
 10
1210.6682296245
 20
355.3113925378
 10
1210.1154635014
 20
355.3562563271
 10
1209.5691034841
 20
355.3808068155
 10
1209.0295240206
 20
355.3850271772
 10
1208.4970949117
 20
355.3689145199
 10
1207.9721810575
 20
355.3324798863
 10
1207.455142208
 20
355.275748247
 10
1206.9463327157
 20
355.1987584829
 10
1206.4461012932
 20
355.101563359
 10
1205.9547907741
 20
354.9842294881
 10
1205.4727378781
 20
354.8468372848
 10
1205.0002729802
 20
354.6894809109
 10
1204.5377198842
 20
354.5122682106
 10
1204.085395601
 20
354.3153206367
 10
1203.643610131
 20
354.0987731671
 10
1203.2139868465
 20
353.8635366997
  0
LWPOLYLINE
  5
190
330
1F
100
AcDbEntity
  8
0
  6
Continuous
 62
     7
370
    30
100
AcDbPolyline
 90
       91
 70
   128
 43
0.0
 10
964.9042250247
 20
142.9258106906
 10
965.1198753878
 20
142.8045356565
 10
965.3409510352
 20
142.686561009
 10
965.5673004525
 20
142.571967602
 10
965.7987685112
 20
142.460833972
 10
966.0351965747
 20
142.3532362846
 10
966.276422607
 20
142.2492482818
 10
966.5222812837
 20
142.1489412317
 10
966.7726041056
 20
142.0523838799
 10
967.0272195141
 20
141.9596424019
 10
967.2859530083
 20
141.870780358
 10
967.5486272653
 20
141.78585865
 10
967.8150622613
 20
141.7049354788
 10
968.085075395
 20
141.6280663053
 10
968.3584816129
 20
141.5553038116
 10
968.6350935361
 20
141.4866978656
 10
968.9147215885
 20
141.4222954863
 10
969.1971741271
 20
141.3621408119
 10
969.482257573
 20
141.3062750695
 10
969.7697765442
 20
141.2547365466
 10
970.0595339896
 20
141.2075605651
 10
970.351331324
 20
141.1647794571
 10
970.6449685639
 20
141.1264225427
 10
970.9402444652
 20
141.0925161097
 10
971.2369566604
 20
141.063083396
 10
971.5349017978
 20
141.0381445732
 10
971.8338756807
 20
141.0177167332
 10
972.1336734074
 20
141.0018138762
 10
972.4340895115
 20
140.9904469012
 10
972.7349181028
 20
140.9836235985
 10
973.0359530083
 20
140.9813486446
 10
973.3369879139
 20
140.9836235985
 10
973.6378165051
 20
140.9904469012
 10
973.9382326092
 20
141.0018138762
 10
974.2380303359
 20
141.0177167332
 10
974.5370042188
 20
141.0381445732
 10
974.8349493563
 20
141.063083396
 10
975.1316615515
 20
141.0925161097
 10
975.4269374527
 20
141.1264225427
 10
975.7205746927
 20
141.1647794571
 10
976.012372027
 20
141.2075605651
 10
976.3021294724
 20
141.2547365466
 10
976.5896484436
 20
141.3062750695
 10
976.8747318895
 20
141.3621408119
 10
977.1571844281
 20
141.4222954863
 10
977.4368124805
 20
141.4866978656
 10
977.7134244037
 20
141.5553038116
 10
977.9868306216
 20
141.6280663053
 10
978.2568437553
 20
141.7049354788
 10
978.5232787513
 20
141.78585865
 10
978.7859530083
 20
141.870780358
 10
979.0446865025
 20
141.9596424019
 10
979.299301911
 20
142.0523838799
 10
979.549624733
 20
142.1489412317
 10
979.7954834097
 20
142.2492482818
 10
980.0367094419
 20
142.3532362846
 10
980.2731375054
 20
142.460833972
 10
980.5046055641
 20
142.571967602
 10
980.7309549814
 20
142.686561009
 10
980.9520306288
 20
142.8045356565
 10
981.167680992
 20
142.9258106906
 10
981.377758275
 20
143.0503029953
 10
981.5821185013
 20
143.17792725
 10
981.7806216127
 20
143.3085959873
 10
981.9731315651
 20
143.4422196533
 10
982.1595164217
 20
143.5787066691
 10
982.3396484436
 20
143.7179634934
 10
982.5134041775
 20
143.8598946864
 10
982.6806645397
 20
144.0044029755
 10
982.8413148984
 20
144.1513893221
 10
982.9952451518
 20
144.3007529891
 10
983.1423498039
 20
144.4523916099
 10
983.2825280365
 20
144.6062012592
 10
983.4156837783
 20
144.7620765234
 10
983.5417257712
 20
144.9199105734
 10
983.6605676322
 20
145.0795952376
 10
983.772127913
 20
145.2410210763
 10
983.8763301559
 20
145.404077456
 10
983.9731029457
 20
145.5686526263
 10
984.0623799593
 20
145.7346337953
 10
984.1441000106
 20
145.9019072081
 10
984.2182070929
 20
146.0703582236
 10
984.2846504168
 20
146.239871394
 10
984.3433844453
 20
146.4103305435
 10
984.3943689252
 20
146.5816188478
 10
984.4375689141
 20
146.7536189145
 10
984.4729548051
 20
146.9262128634
 10
984.5005023462
 20
147.0992824071
 10
984.520192658
 20
147.2727089325
 10
984.5320122455
 20
147.4463735817
 10
984.5359530083
 20
147.6201573336
  0
ARC
  5
191
330
1F
100
AcDbEntity
  8
0
  6
Continuous
 62
     7
370
    30
100
AcDbCircle
 10
967.2956133027
 20
148.1972406657
 30
0.0
 40
5.788498240370409
100
AcDbArc
 50
185.7215975507
 51
245.5985434069
  0
ENDSEC
  0
SECTION
  2
OBJECTS
  0
DICTIONARY
  5
C
330
0
100
AcDbDictionary
281
     1
  3
ACAD_GROUP
350
D
  3
ACAD_LAYOUT
350
1A
  3
ACAD_MLINESTYLE
350
17
  3
ACAD_PLOTSETTINGS
350
19
  3
ACAD_PLOTSTYLENAME
350
E
  3
ACAD_SCALELIST
350
47
  0
DICTIONARY
  5
D
102
{ACAD_REACTORS
330
C
102
}
330
C
100
AcDbDictionary
281
     1
  0
DICTIONARY
  5
1A
102
{ACAD_REACTORS
330
C
102
}
330
C
100
AcDbDictionary
281
     1
  3
Layout1
350
1E
  3
Layout2
350
26
  3
Model
350
22
  0
DICTIONARY
  5
17
102
{ACAD_REACTORS
330
C
102
}
330
C
100
AcDbDictionary
281
     1
  3
Standard
350
18
  0
DICTIONARY
  5
19
102
{ACAD_REACTORS
330
C
102
}
330
C
100
AcDbDictionary
281
     1
  0
ACDBDICTIONARYWDFLT
  5
E
102
{ACAD_REACTORS
330
C
102
}
330
C
100
AcDbDictionary
281
     1
  3
Normal
350
F
100
AcDbDictionaryWithDefault
340
F
  0
DICTIONARY
  5
47
102
{ACAD_REACTORS
330
C
102
}
330
C
100
AcDbDictionary
281
     1
  3
A0
350
48
  3
A1
350
49
  3
A2
350
4A
  3
A3
350
4B
  3
A4
350
4C
  3
A5
350
4D
  3
A6
350
4E
  3
A7
350
4F
  3
A8
350
50
  3
A9
350
51
  3
B0
350
52
  3
B1
350
53
  3
B2
350
54
  3
B3
350
55
  3
B4
350
56
  3
B5
350
57
  3
B6
350
58
  3
B7
350
59
  3
B8
350
5A
  3
B9
350
5B
  3
C0
350
5C
  3
C1
350
5D
  3
C2
350
5E
  3
C3
350
5F
  3
C4
350
60
  3
C5
350
61
  3
C6
350
62
  3
C7
350
63
  3
C8
350
64
  3
C9
350
65
  3
D0
350
66
  3
D1
350
67
  3
D2
350
68
  0
LAYOUT
  5
1E
102
{ACAD_REACTORS
330
1A
102
}
330
1A
100
AcDbPlotSettings
  1

  2
none_device
  4

  6

 40
0.0
 41
0.0
 42
0.0
 43
0.0
 44
0.0
 45
0.0
 46
0.0
 47
0.0
 48
0.0
 49
0.0
140
0.0
141
0.0
142
1.0
143
1.0
 70
   688
 72
     1
 73
     0
 74
     5
  7

 75
    16
147
1.0
148
0.0
149
0.0
100
AcDbLayout
  1
Layout1
 70
     1
 71
     1
 10
0.0
 20
0.0
 11
420.0
 21
297.0
 12
0.0
 22
0.0
 32
0.0
 14
1.0000000000E+20
 24
1.0000000000E+20
 34
1.0000000000E+20
 15
-1.0000000000E+20
 25
-1.0000000000E+20
 35
-1.0000000000E+20
146
0.0
 13
0.0
 23
0.0
 33
0.0
 16
1.0
 26
0.0
 36
0.0
 17
0.0
 27
1.0
 37
0.0
 76
     0
330
1B
  0
LAYOUT
  5
26
102
{ACAD_REACTORS
330
1A
102
}
330
1A
100
AcDbPlotSettings
  1

  2
none_device
  4

  6

 40
0.0
 41
0.0
 42
0.0
 43
0.0
 44
0.0
 45
0.0
 46
0.0
 47
0.0
 48
0.0
 49
0.0
140
0.0
141
0.0
142
1.0
143
1.0
 70
   688
 72
     1
 73
     0
 74
     5
  7

 75
    16
147
1.0
148
0.0
149
0.0
100
AcDbLayout
  1
Layout2
 70
     1
 71
     2
 10
0.0
 20
0.0
 11
0.0
 21
0.0
 12
0.0
 22
0.0
 32
0.0
 14
0.0
 24
0.0
 34
0.0
 15
0.0
 25
0.0
 35
0.0
146
0.0
 13
0.0
 23
0.0
 33
0.0
 16
1.0
 26
0.0
 36
0.0
 17
0.0
 27
1.0
 37
0.0
 76
     0
330
23
  0
LAYOUT
  5
22
102
{ACAD_REACTORS
330
1A
102
}
330
1A
100
AcDbPlotSettings
  1

  2
none_device
  4
Letter_(8.50_x_11.00_Inches)
  6

 40
6.35
 41
6.35
 42
6.35000508
 43
6.35000508
 44
215.9
 45
279.4
 46
0.0
 47
0.0
 48
0.0
 49
0.0
140
0.0
141
0.0
142
1.0
143
1.0
 70
  1712
 72
     1
 73
     0
 74
     0
  7

 75
     0
147
1.0
148
0.0
149
0.0
100
AcDbLayout
  1
Model
 70
     1
 71
     0
 10
0.0
 20
0.0
 11
1317.0
 21
665.0
 12
0.0
 22
0.0
 32
0.0
 14
0.0
 24
0.0
 34
0.0
 15
1317.0
 25
665.0
 35
0.0
146
0.0
 13
0.0
 23
0.0
 33
0.0
 16
1.0
 26
0.0
 36
0.0
 17
0.0
 27
1.0
 37
0.0
 76
     0
330
1F
331
29
  0
MLINESTYLE
  5
18
102
{ACAD_REACTORS
330
17
102
}
330
17
100
AcDbMlineStyle
  2
Standard
 70
     0
  3

 62
   256
 51
90.0
 52
90.0
 71
     2
 49
0.5
 62
   256
  6
BYLAYER
 49
-0.5
 62
   256
  6
BYLAYER
  0
ACDBPLACEHOLDER
  5
F
102
{ACAD_REACTORS
330
E
102
}
330
E
  0
SCALE
  5
48
102
{ACAD_REACTORS
330
47
102
}
330
47
100
AcDbScale
 70
     0
300
1:1
140
1.0
141
1.0
290
     1
  0
SCALE
  5
49
102
{ACAD_REACTORS
330
47
102
}
330
47
100
AcDbScale
 70
     0
300
1:2
140
1.0
141
2.0
290
     0
  0
SCALE
  5
4A
102
{ACAD_REACTORS
330
47
102
}
330
47
100
AcDbScale
 70
     0
300
1:4
140
1.0
141
4.0
290
     0
  0
SCALE
  5
4B
102
{ACAD_REACTORS
330
47
102
}
330
47
100
AcDbScale
 70
     0
300
1:5
140
1.0
141
5.0
290
     0
  0
SCALE
  5
4C
102
{ACAD_REACTORS
330
47
102
}
330
47
100
AcDbScale
 70
     0
300
1:8
140
1.0
141
8.0
290
     0
  0
SCALE
  5
4D
102
{ACAD_REACTORS
330
47
102
}
330
47
100
AcDbScale
 70
     0
300
1:10
140
1.0
141
10.0
290
     0
  0
SCALE
  5
4E
102
{ACAD_REACTORS
330
47
102
}
330
47
100
AcDbScale
 70
     0
300
1:16
140
1.0
141
16.0
290
     0
  0
SCALE
  5
4F
102
{ACAD_REACTORS
330
47
102
}
330
47
100
AcDbScale
 70
     0
300
1:20
140
1.0
141
20.0
290
     0
  0
SCALE
  5
50
102
{ACAD_REACTORS
330
47
102
}
330
47
100
AcDbScale
 70
     0
300
1:30
140
1.0
141
30.0
290
     0
  0
SCALE
  5
51
102
{ACAD_REACTORS
330
47
102
}
330
47
100
AcDbScale
 70
     0
300
1:40
140
1.0
141
40.0
290
     0
  0
SCALE
  5
52
102
{ACAD_REACTORS
330
47
102
}
330
47
100
AcDbScale
 70
     0
300
1:50
140
1.0
141
50.0
290
     0
  0
SCALE
  5
53
102
{ACAD_REACTORS
330
47
102
}
330
47
100
AcDbScale
 70
     0
300
1:100
140
1.0
141
100.0
290
     0
  0
SCALE
  5
54
102
{ACAD_REACTORS
330
47
102
}
330
47
100
AcDbScale
 70
     0
300
2:1
140
2.0
141
1.0
290
     0
  0
SCALE
  5
55
102
{ACAD_REACTORS
330
47
102
}
330
47
100
AcDbScale
 70
     0
300
4:1
140
4.0
141
1.0
290
     0
  0
SCALE
  5
56
102
{ACAD_REACTORS
330
47
102
}
330
47
100
AcDbScale
 70
     0
300
8:1
140
8.0
141
1.0
290
     0
  0
SCALE
  5
57
102
{ACAD_REACTORS
330
47
102
}
330
47
100
AcDbScale
 70
     0
300
10:1
140
10.0
141
1.0
290
     0
  0
SCALE
  5
58
102
{ACAD_REACTORS
330
47
102
}
330
47
100
AcDbScale
 70
     0
300
100:1
140
100.0
141
1.0
290
     0
  0
SCALE
  5
59
102
{ACAD_REACTORS
330
47
102
}
330
47
100
AcDbScale
 70
     0
300
1/128" = 1'-0"
140
0.0078125
141
12.0
290
     0
  0
SCALE
  5
5A
102
{ACAD_REACTORS
330
47
102
}
330
47
100
AcDbScale
 70
     0
300
1/64" = 1'-0"
140
0.015625
141
12.0
290
     0
  0
SCALE
  5
5B
102
{ACAD_REACTORS
330
47
102
}
330
47
100
AcDbScale
 70
     0
300
1/32" = 1'-0"
140
0.03125
141
12.0
290
     0
  0
SCALE
  5
5C
102
{ACAD_REACTORS
330
47
102
}
330
47
100
AcDbScale
 70
     0
300
1/16" = 1'-0"
140
0.0625
141
12.0
290
     0
  0
SCALE
  5
5D
102
{ACAD_REACTORS
330
47
102
}
330
47
100
AcDbScale
 70
     0
300
3/32" = 1'-0"
140
0.09375
141
12.0
290
     0
  0
SCALE
  5
5E
102
{ACAD_REACTORS
330
47
102
}
330
47
100
AcDbScale
 70
     0
300
1/8" = 1'-0"
140
0.125
141
12.0
290
     0
  0
SCALE
  5
5F
102
{ACAD_REACTORS
330
47
102
}
330
47
100
AcDbScale
 70
     0
300
3/16" = 1'-0"
140
0.1875
141
12.0
290
     0
  0
SCALE
  5
60
102
{ACAD_REACTORS
330
47
102
}
330
47
100
AcDbScale
 70
     0
300
1/4" = 1'-0"
140
0.25
141
12.0
290
     0
  0
SCALE
  5
61
102
{ACAD_REACTORS
330
47
102
}
330
47
100
AcDbScale
 70
     0
300
3/8" = 1'-0"
140
0.375
141
12.0
290
     0
  0
SCALE
  5
62
102
{ACAD_REACTORS
330
47
102
}
330
47
100
AcDbScale
 70
     0
300
1/2" = 1'-0"
140
0.5
141
12.0
290
     0
  0
SCALE
  5
63
102
{ACAD_REACTORS
330
47
102
}
330
47
100
AcDbScale
 70
     0
300
3/4" = 1'-0"
140
0.75
141
12.0
290
     0
  0
SCALE
  5
64
102
{ACAD_REACTORS
330
47
102
}
330
47
100
AcDbScale
 70
     0
300
1" = 1'-0"
140
1.0
141
12.0
290
     0
  0
SCALE
  5
65
102
{ACAD_REACTORS
330
47
102
}
330
47
100
AcDbScale
 70
     0
300
1-1/2" = 1'-0"
140
1.5
141
12.0
290
     0
  0
SCALE
  5
66
102
{ACAD_REACTORS
330
47
102
}
330
47
100
AcDbScale
 70
     0
300
3" = 1'-0"
140
3.0
141
12.0
290
     0
  0
SCALE
  5
67
102
{ACAD_REACTORS
330
47
102
}
330
47
100
AcDbScale
 70
     0
300
6" = 1'-0"
140
6.0
141
12.0
290
     0
  0
SCALE
  5
68
102
{ACAD_REACTORS
330
47
102
}
330
47
100
AcDbScale
 70
     0
300
1'-0" = 1'-0"
140
12.0
141
12.0
290
     0
  0
ENDSEC
  0
EOF
