  0
SECTION
  2
HEADER
  9
$ACADVER
  1
AC1015
  9
$ACADMAINTVER
 70
     6
  9
$DWGCODEPAGE
  3
ANSI_1252
  9
$INSBASE
 10
0.0
 20
0.0
 30
0.0
  9
$EXTMIN
 10
0.0
 20
0.0
 30
0.0
  9
$EXTMAX
 10
428.0
 20
325.0
 30
0.0
  9
$LIMMIN
 10
0.0
 20
0.0
  9
$LIMMAX
 10
428.0
 20
325.0
  9
$ORTHOMODE
 70
     0
  9
$REGENMODE
 70
     1
  9
$FILLMODE
 70
     1
  9
$QTEXTMODE
 70
     0
  9
$MIRRTEXT
 70
     1
  9
$LTSCALE
 40
1.0
  9
$ATTMODE
 70
     1
  9
$TEXTSIZE
 40
3.5
  9
$TRACEWID
 40
1.0
  9
$TEXTSTYLE
  7
Standard
  9
$CLAYER
  8
0
  9
$CELTYPE
  6
ByLayer
  9
$CECOLOR
 62
   256
  9
$CELTSCALE
 40
1.0
  9
$DISPSILH
 70
     0
  9
$DIMSCALE
 40
1.0
  9
$DIMASZ
 40
3.302
  9
$DIMEXO
 40
1.0
  9
$DIMDLI
 40
3.75
  9
$DIMRND
 40
0.0
  9
$DIMDLE
 40
0.0
  9
$DIMEXE
 40
1.0
  9
$DIMTP
 40
0.0
  9
$DIMTM
 40
0.0
  9
$DIMTXT
 40
2.8
  9
$DIMCEN
 40
2.5
  9
$DIMTSZ
 40
0.0
  9
$DIMTOL
 70
     0
  9
$DIMLIM
 70
     0
  9
$DIMTIH
 70
     1
  9
$DIMTOH
 70
     1
  9
$DIMSE1
 70
     0
  9
$DIMSE2
 70
     0
  9
$DIMTAD
 70
     1
  9
$DIMZIN
 70
     0
  9
$DIMBLK
  1

  9
$DIMASO
 70
     1
  9
$DIMSHO
 70
     1
  9
$DIMPOST
  1

  9
$DIMAPOST
  1

  9
$DIMALT
 70
     0
  9
$DIMALTD
 70
     3
  9
$DIMALTF
 40
0.0393700787
  9
$DIMLFAC
 40
1.0
  9
$DIMTOFL
 70
     1
  9
$DIMTVP
 40
0.0
  9
$DIMTIX
 70
     0
  9
$DIMSOXD
 70
     0
  9
$DIMSAH
 70
     0
  9
$DIMBLK1
  1

  9
$DIMBLK2
  1

  9
$DIMSTYLE
  2
ISO-25
  9
$DIMCLRD
 70
     0
  9
$DIMCLRE
 70
     0
  9
$DIMCLRT
 70
     0
  9
$DIMTFAC
 40
1.0
  9
$DIMGAP
 40
1.524
  9
$DIMJUST
 70
     0
  9
$DIMSD1
 70
     0
  9
$DIMSD2
 70
     0
  9
$DIMTOLJ
 70
     0
  9
$DIMTZIN
 70
     0
  9
$DIMALTZ
 70
     0
  9
$DIMALTTZ
 70
     0
  9
$DIMUPT
 70
     0
  9
$DIMDEC
 70
     2
  9
$DIMTDEC
 70
     2
  9
$DIMALTU
 70
     2
  9
$DIMALTTD
 70
     3
  9
$DIMTXSTY
  7
Standard
  9
$DIMAUNIT
 70
     0
  9
$DIMADEC
 70
     2
  9
$DIMALTRND
 40
0.0
  9
$DIMAZIN
 70
     0
  9
$DIMDSEP
 70
    44
  9
$DIMATFIT
 70
     3
  9
$DIMFRAC
 70
     0
  9
$DIMLDRBLK
  1

  9
$DIMLUNIT
 70
     2
  9
$DIMLWD
 70
    -2
  9
$DIMLWE
 70
    -2
  9
$DIMTMOVE
 70
     0
  9
$LUNITS
 70
     2
  9
$LUPREC
 70
     2
  9
$SKETCHINC
 40
1.0
  9
$FILLETRAD
 40
10.0
  9
$AUNITS
 70
     0
  9
$AUPREC
 70
     2
  9
$MENU
  1
.
  9
$ELEVATION
 40
0.0
  9
$PELEVATION
 40
0.0
  9
$THICKNESS
 40
0.0
  9
$LIMCHECK
 70
     0
  9
$CHAMFERA
 40
0.0
  9
$CHAMFERB
 40
0.0
  9
$CHAMFERC
 40
0.0
  9
$CHAMFERD
 40
0.0
  9
$SKPOLY
 70
     0
  9
$TDCREATE
 40
2460355.444612327
  9
$TDUCREATE
 40
2460355.361278993
  9
$TDUPDATE
 40
2460355.444612511
  9
$TDUUPDATE
 40
2460355.361279178
  9
$TDINDWG
 40
0.0000000116
  9
$TDUSRTIMER
 40
0.0000000116
  9
$USRTIMER
 70
     1
  9
$ANGBASE
 50
0.0
  9
$ANGDIR
 70
     0
  9
$PDMODE
 70
     0
  9
$PDSIZE
 40
-1.0
  9
$PLINEWID
 40
0.0
  9
$SPLFRAME
 70
     0
  9
$SPLINETYPE
 70
     6
  9
$SPLINESEGS
 70
     8
  9
$HANDSEED
  5
D4
  9
$SURFTAB1
 70
     6
  9
$SURFTAB2
 70
     6
  9
$SURFTYPE
 70
     6
  9
$SURFU
 70
     6
  9
$SURFV
 70
     6
  9
$UCSBASE
  2

  9
$UCSNAME
  2

  9
$UCSORG
 10
0.0
 20
0.0
 30
0.0
  9
$UCSXDIR
 10
1.0
 20
0.0
 30
0.0
  9
$UCSYDIR
 10
0.0
 20
1.0
 30
0.0
  9
$UCSORTHOREF
  2

  9
$UCSORTHOVIEW
 70
     0
  9
$UCSORGTOP
 10
0.0
 20
0.0
 30
0.0
  9
$UCSORGBOTTOM
 10
0.0
 20
0.0
 30
0.0
  9
$UCSORGLEFT
 10
0.0
 20
0.0
 30
0.0
  9
$UCSORGRIGHT
 10
0.0
 20
0.0
 30
0.0
  9
$UCSORGFRONT
 10
0.0
 20
0.0
 30
0.0
  9
$UCSORGBACK
 10
0.0
 20
0.0
 30
0.0
  9
$PUCSBASE
  2

  9
$PUCSNAME
  2

  9
$PUCSORG
 10
0.0
 20
0.0
 30
0.0
  9
$PUCSXDIR
 10
1.0
 20
0.0
 30
0.0
  9
$PUCSYDIR
 10
0.0
 20
1.0
 30
0.0
  9
$PUCSORTHOREF
  2

  9
$PUCSORTHOVIEW
 70
     0
  9
$PUCSORGTOP
 10
0.0
 20
0.0
 30
0.0
  9
$PUCSORGBOTTOM
 10
0.0
 20
0.0
 30
0.0
  9
$PUCSORGLEFT
 10
0.0
 20
0.0
 30
0.0
  9
$PUCSORGRIGHT
 10
0.0
 20
0.0
 30
0.0
  9
$PUCSORGFRONT
 10
0.0
 20
0.0
 30
0.0
  9
$PUCSORGBACK
 10
0.0
 20
0.0
 30
0.0
  9
$USERI1
 70
     0
  9
$USERI2
 70
     0
  9
$USERI3
 70
     0
  9
$USERI4
 70
     0
  9
$USERI5
 70
     0
  9
$USERR1
 40
0.0
  9
$USERR2
 40
0.0
  9
$USERR3
 40
0.0
  9
$USERR4
 40
0.0
  9
$USERR5
 40
0.0
  9
$WORLDVIEW
 70
     1
  9
$SHADEDGE
 70
     3
  9
$SHADEDIF
 70
    70
  9
$TILEMODE
 70
     1
  9
$MAXACTVP
 70
    64
  9
$PINSBASE
 10
0.0
 20
0.0
 30
0.0
  9
$PLIMCHECK
 70
     0
  9
$PEXTMIN
 10
1.0000000000E+20
 20
1.0000000000E+20
 30
1.0000000000E+20
  9
$PEXTMAX
 10
-1.0000000000E+20
 20
-1.0000000000E+20
 30
-1.0000000000E+20
  9
$PLIMMIN
 10
0.0
 20
0.0
  9
$PLIMMAX
 10
420.0
 20
297.0
  9
$UNITMODE
 70
     0
  9
$VISRETAIN
 70
     1
  9
$PLINEGEN
 70
     0
  9
$PSLTSCALE
 70
     1
  9
$TREEDEPTH
 70
  3020
  9
$CMLSTYLE
  2
Standard
  9
$CMLJUST
 70
     0
  9
$CMLSCALE
 40
20.0
  9
$PROXYGRAPHICS
 70
     1
  9
$MEASUREMENT
 70
     1
  9
$CELWEIGHT
370
    -1
  9
$ENDCAPS
280
     0
  9
$JOINSTYLE
280
     0
  9
$LWDISPLAY
290
     1
  9
$INSUNITS
 70
     4
  9
$HYPERLINKBASE
  1

  9
$STYLESHEET
  1

  9
$XEDIT
290
     1
  9
$CEPSNTYPE
380
     0
  9
$PSTYLEMODE
290
     1
  9
$FINGERPRINTGUID
  2
{4B427C0D-B17A-4EB1-9908-5AF82D80FD5B}
  9
$VERSIONGUID
  2
{FAEB1C32-E019-11D5-929B-00C0DF256EC4}
  9
$EXTNAMES
290
     1
  9
$PSVPSCALE
 40
0.0
  9
$OLESTARTUP
290
     0
  0
ENDSEC
  0
SECTION
  2
CLASSES
  0
CLASS
  1
ACDBDICTIONARYWDFLT
  2
AcDbDictionaryWithDefault
  3
ObjectDBX Classes
 90
        0
280
     0
281
     0
  0
CLASS
  1
VISUALSTYLE
  2
AcDbVisualStyle
  3
ObjectDBX Classes
 90
     4095
280
     0
281
     0
  0
CLASS
  1
MATERIAL
  2
AcDbMaterial
  3
ObjectDBX Classes
 90
     1153
280
     0
281
     0
  0
CLASS
  1
SCALE
  2
AcDbScale
  3
ObjectDBX Classes
 90
     1153
280
     0
281
     0
  0
CLASS
  1
TABLESTYLE
  2
AcDbTableStyle
  3
ObjectDBX Classes
 90
     4095
280
     0
281
     0
  0
CLASS
  1
MLEADERSTYLE
  2
AcDbMLeaderStyle
  3
ACDB_MLEADERSTYLE_CLASS
 90
     4095
280
     0
281
     0
  0
CLASS
  1
SUN
  2
AcDbSun
  3
SCENEOE
 90
     1153
280
     0
281
     0
  0
CLASS
  1
ACDBPLACEHOLDER
  2
AcDbPlaceHolder
  3
ObjectDBX Classes
 90
        0
280
     0
281
     0
  0
CLASS
  1
LAYOUT
  2
AcDbLayout
  3
ObjectDBX Classes
 90
        0
280
     0
281
     0
  0
ENDSEC
  0
SECTION
  2
TABLES
  0
TABLE
  2
VPORT
  5
8
330
0
100
AcDbSymbolTable
 70
     1
  0
VPORT
  5
29
330
8
100
AcDbSymbolTableRecord
100
AcDbViewportTableRecord
  2
*Active
 70
     0
 10
0.0
 20
0.0
 11
1.0
 21
1.0
 12
214.0
 22
162.5
 13
0.0
 23
0.0
 14
10.0
 24
10.0
 15
10.0
 25
10.0
 16
0.0
 26
0.0
 36
1.0
 17
0.0
 27
0.0
 37
0.0
 40
325.0
 41
1.3169230769
 42
50.0
 43
0.0
 44
0.0
 50
0.0
 51
0.0
 71
     0
 72
  2000
 73
     1
 74
     3
 75
     0
 76
     0
 77
     0
 78
     0
281
     0
 65
     1
110
0.0
120
0.0
130
0.0
111
1.0
121
0.0
131
0.0
112
0.0
122
1.0
132
0.0
 79
     0
146
0.0
  0
ENDTAB
  0
TABLE
  2
LTYPE
  5
5
330
0
100
AcDbSymbolTable
 70
     6
  0
LTYPE
  5
14
330
5
100
AcDbSymbolTableRecord
100
AcDbLinetypeTableRecord
  2
ByBlock
 70
     0
  3

 72
    65
 73
     0
 40
0.0
  0
LTYPE
  5
15
330
5
100
AcDbSymbolTableRecord
100
AcDbLinetypeTableRecord
  2
ByLayer
 70
     0
  3

 72
    65
 73
     0
 40
0.0
  0
LTYPE
  5
16
330
5
100
AcDbSymbolTableRecord
100
AcDbLinetypeTableRecord
  2
Continuous
 70
     0
  3
Solid line
 72
    65
 73
     0
 40
0.0
  0
LTYPE
  5
6E
330
5
100
AcDbSymbolTableRecord
100
AcDbLinetypeTableRecord
  2
HIDDEN
 70
     0
  3
Hidden __ __ __ __ __ __ __ __ __ __ __ __ __ __
 72
    65
 73
     2
 40
1.905
 49
1.27
 74
     0
 49
-0.635
 74
     0
  0
LTYPE
  5
6F
330
5
100
AcDbSymbolTableRecord
100
AcDbLinetypeTableRecord
  2
PHANTOM
 70
     0
  3
Phantom ______  __  __  ______  __  __  ______
 72
    65
 73
     6
 40
12.7
 49
6.35
 74
     0
 49
-1.27
 74
     0
 49
1.27
 74
     0
 49
-1.27
 74
     0
 49
1.27
 74
     0
 49
-1.27
 74
     0
  0
LTYPE
  5
70
330
5
100
AcDbSymbolTableRecord
100
AcDbLinetypeTableRecord
  2
CENTER
 70
     0
  3
Center ____ _ ____ _ ____ _ ____ _ ____ _ ____
 72
    65
 73
     4
 40
10.16
 49
6.35
 74
     0
 49
-1.27
 74
     0
 49
1.27
 74
     0
 49
-1.27
 74
     0
  0
LTYPE
  5
71
330
5
100
AcDbSymbolTableRecord
100
AcDbLinetypeTableRecord
  2
CENTERX2
 70
     0
  3
Center (2x) ________  __  ________  __  _____
 72
    65
 73
     4
 40
20.32
 49
12.7
 74
     0
 49
-2.54
 74
     0
 49
2.54
 74
     0
 49
-2.54
 74
     0
  0
LTYPE
  5
72
330
5
100
AcDbSymbolTableRecord
100
AcDbLinetypeTableRecord
  2
DOT2
 70
     0
  3
Dot (.5x) ........................................
 72
    65
 73
     2
 40
0.635
 49
0.0
 74
     0
 49
-0.635
 74
     0
  0
ENDTAB
  0
TABLE
  2
LAYER
  5
2
330
0
100
AcDbSymbolTable
 70
     2
  0
LAYER
  5
10
330
2
100
AcDbSymbolTableRecord
100
AcDbLayerTableRecord
  2
0
 70
     0
 62
     7
  6
Continuous
370
    -3
390
F
  0
LAYER
  5
73
330
2
100
AcDbSymbolTableRecord
100
AcDbLayerTableRecord
  2
FORMAT
 70
     0
 62
     7
  6
Continuous
370
    -3
390
F
  0
ENDTAB
  0
TABLE
  2
STYLE
  5
3
330
0
100
AcDbSymbolTable
 70
     2
  0
STYLE
  5
11
330
3
100
AcDbSymbolTableRecord
100
AcDbTextStyleTableRecord
  2
Standard
 70
     0
 40
0.0
 41
1.0
 50
0.0
 71
     0
 42
3.5
  3
txt
  4

  0
STYLE
  5
74
330
3
100
AcDbSymbolTableRecord
100
AcDbTextStyleTableRecord
  2
SLDTEXTSTYLE0
 70
     0
 40
0.0
 41
0.605
 50
0.0
 71
     0
 42
3.5
  3
TXT
  4

  0
ENDTAB
  0
TABLE
  2
VIEW
  5
6
330
0
100
AcDbSymbolTable
 70
     0
  0
ENDTAB
  0
TABLE
  2
UCS
  5
7
330
0
100
AcDbSymbolTable
 70
     0
  0
ENDTAB
  0
TABLE
  2
APPID
  5
9
330
0
100
AcDbSymbolTable
 70
     1
  0
APPID
  5
12
330
9
100
AcDbSymbolTableRecord
100
AcDbRegAppTableRecord
  2
ACAD
 70
     0
  0
ENDTAB
  0
TABLE
  2
DIMSTYLE
  5
A
330
0
100
AcDbSymbolTable
 70
     1
100
AcDbDimStyleTable
  0
DIMSTYLE
105
27
330
A
100
AcDbSymbolTableRecord
100
AcDbDimStyleTableRecord
  2
ISO-25
 70
     0
 41
2.5
 42
0.625
 43
3.75
 44
1.25
 73
     0
 74
     0
 77
     1
 78
     8
140
2.5
141
2.5
143
0.0393700787
147
0.625
171
     3
172
     1
178
     0
271
     2
272
     2
274
     3
278
    44
283
     0
284
     8
340
11
  0
ENDTAB
  0
TABLE
  2
BLOCK_RECORD
  5
1
330
0
100
AcDbSymbolTable
 70
     1
  0
BLOCK_RECORD
  5
1F
330
1
100
AcDbSymbolTableRecord
100
AcDbBlockTableRecord
  2
*Model_Space
340
22
  0
BLOCK_RECORD
  5
1B
330
1
100
AcDbSymbolTableRecord
100
AcDbBlockTableRecord
  2
*Paper_Space
340
1E
  0
BLOCK_RECORD
  5
23
330
1
100
AcDbSymbolTableRecord
100
AcDbBlockTableRecord
  2
*Paper_Space0
340
26
  0
ENDTAB
  0
ENDSEC
  0
SECTION
  2
BLOCKS
  0
BLOCK
  5
20
330
1F
100
AcDbEntity
  8
0
100
AcDbBlockBegin
  2
*Model_Space
 70
     0
 10
0.0
 20
0.0
 30
0.0
  3
*Model_Space
  1

  0
ENDBLK
  5
21
330
1F
100
AcDbEntity
  8
0
100
AcDbBlockEnd
  0
BLOCK
  5
1C
330
1B
100
AcDbEntity
 67
     1
  8
0
100
AcDbBlockBegin
  2
*Paper_Space
 70
     0
 10
0.0
 20
0.0
 30
0.0
  3
*Paper_Space
  1

  0
ENDBLK
  5
1D
330
1B
100
AcDbEntity
 67
     1
  8
0
100
AcDbBlockEnd
  0
BLOCK
  5
24
330
23
100
AcDbEntity
  8
0
100
AcDbBlockBegin
  2
*Paper_Space0
 70
     0
 10
0.0
 20
0.0
 30
0.0
  3
*Paper_Space0
  1

  0
ENDBLK
  5
25
330
23
100
AcDbEntity
  8
0
100
AcDbBlockEnd
  0
ENDSEC
  0
SECTION
  2
ENTITIES
  0
MTEXT
  5
75
330
1F
100
AcDbEntity
  8
0
  6
Continuous
 62
     7
370
     0
100
AcDbMText
 10
7.2782978723
 20
22.1884790273
 30
0.0
 40
10.0
 41
0.0
 71
     1
 72
     1
  1
1:1
  7
SLDTEXTSTYLE0
 73
     1
 44
1.0
  0
LINE
  5
76
330
1F
100
AcDbEntity
  8
0
  6
Continuous
 62
     7
370
    30
100
AcDbLine
 10
203.5
 20
240.2878573572
 30
0.0
 11
203.5
 21
233.7249319686
 31
0.0
  0
LINE
  5
77
330
1F
100
AcDbEntity
  8
0
  6
Continuous
 62
     7
370
    30
100
AcDbLine
 10
224.5
 20
233.7249319686
 30
0.0
 11
224.5
 21
240.2878573572
 31
0.0
  0
LINE
  5
78
330
1F
100
AcDbEntity
  8
0
  6
Continuous
 62
     7
370
    30
100
AcDbLine
 10
203.5225
 20
226.4088033625
 30
0.0
 11
204.6845
 21
225.7249319686
 31
0.0
  0
LINE
  5
79
330
1F
100
AcDbEntity
  8
0
  6
Continuous
 62
     7
370
    30
100
AcDbLine
 10
223.3155
 20
225.7249319686
 30
0.0
 11
224.4775
 21
226.4088033625
 31
0.0
  0
LINE
  5
7A
330
1F
100
AcDbEntity
  8
0
  6
Continuous
 62
     7
370
    30
100
AcDbLine
 10
203.5225
 20
233.7249319686
 30
0.0
 11
203.5225
 21
226.4088033625
 31
0.0
  0
LINE
  5
7B
330
1F
100
AcDbEntity
  8
0
  6
Continuous
 62
     7
370
    30
100
AcDbLine
 10
224.4775
 20
226.4088033625
 30
0.0
 11
224.4775
 21
233.7249319686
 31
0.0
  0
LINE
  5
7C
330
1F
100
AcDbEntity
  8
0
  6
Continuous
 62
     7
370
    30
100
AcDbLine
 10
203.5
 20
233.7249319686
 30
0.0
 11
224.5
 21
233.7249319686
 31
0.0
  0
LINE
  5
7D
330
1F
100
AcDbEntity
  8
0
  6
Continuous
 62
     7
370
    30
100
AcDbLine
 10
224.4775
 20
226.4088033625
 30
0.0
 11
203.5225
 21
226.4088033625
 31
0.0
  0
LINE
  5
7E
330
1F
100
AcDbEntity
  8
0
  6
Continuous
 62
     7
370
    30
100
AcDbLine
 10
204.6845
 20
225.7249319686
 30
0.0
 11
223.3155
 21
225.7249319686
 31
0.0
  0
CIRCLE
  5
7F
330
1F
100
AcDbEntity
  8
0
  6
Continuous
 62
     7
370
    30
100
AcDbCircle
 10
214.0
 20
251.0
 30
0.0
 40
15.0
  0
CIRCLE
  5
80
330
1F
100
AcDbEntity
  8
0
  6
Continuous
 62
     7
370
    30
100
AcDbCircle
 10
214.0
 20
251.0
 30
0.0
 40
37.49999999999999
  0
LINE
  5
81
330
1F
100
AcDbEntity
  8
0
  6
Continuous
 62
     7
370
    30
100
AcDbLine
 10
375.4993730032
 20
236.0
 30
0.0
 11
375.4993730032
 21
233.7249319686
 31
0.0
  0
LINE
  5
82
330
1F
100
AcDbEntity
  8
0
  6
Continuous
 62
     7
370
    30
100
AcDbLine
 10
396.4993730032
 20
233.7249319686
 30
0.0
 11
396.4993730032
 21
236.0
 31
0.0
  0
LINE
  5
83
330
1F
100
AcDbEntity
  8
0
  6
Continuous
 62
     7
370
    30
100
AcDbLine
 10
375.5218730032
 20
226.4088033625
 30
0.0
 11
376.6838730032
 21
225.7249319686
 31
0.0
  0
LINE
  5
84
330
1F
100
AcDbEntity
  8
0
  6
Continuous
 62
     7
370
    30
100
AcDbLine
 10
395.3148730032
 20
225.7249319686
 30
0.0
 11
396.4768730032
 21
226.4088033625
 31
0.0
  0
LINE
  5
85
330
1F
100
AcDbEntity
  8
0
  6
Continuous
 62
     7
370
    30
100
AcDbLine
 10
375.5218730032
 20
233.7249319686
 30
0.0
 11
375.5218730032
 21
226.4088033625
 31
0.0
  0
LINE
  5
86
330
1F
100
AcDbEntity
  8
0
  6
Continuous
 62
     7
370
    30
100
AcDbLine
 10
396.4768730032
 20
226.4088033625
 30
0.0
 11
396.4768730032
 21
233.7249319686
 31
0.0
  0
ARC
  5
87
330
1F
100
AcDbEntity
  8
0
  6
Continuous
 62
     7
370
    30
100
AcDbCircle
 10
399.9993730032
 20
237.0
 30
0.0
 40
1.0
100
AcDbArc
 50
270.0
 51
0.0
  0
ARC
  5
88
330
1F
100
AcDbEntity
  8
0
  6
Continuous
 62
     7
370
    30
100
AcDbCircle
 10
399.9993730032
 20
265.0
 30
0.0
 40
1.0
100
AcDbArc
 50
0.0
 51
90.0
  0
LINE
  5
89
330
1F
100
AcDbEntity
  8
0
  6
Continuous
 62
     7
370
    30
100
AcDbLine
 10
352.9993730032
 20
236.0
 30
0.0
 11
375.4993730032
 21
236.0
 31
0.0
  0
LINE
  5
8A
330
1F
100
AcDbEntity
  8
0
  6
Continuous
 62
     7
370
    30
100
AcDbLine
 10
396.4993730032
 20
236.0
 30
0.0
 11
399.9993730032
 21
236.0
 31
0.0
  0
LINE
  5
8B
330
1F
100
AcDbEntity
  8
0
  6
Continuous
 62
     7
370
    30
100
AcDbLine
 10
399.9993730032
 20
266.0
 30
0.0
 11
352.9993730032
 21
266.0
 31
0.0
  0
LINE
  5
8C
330
1F
100
AcDbEntity
  8
0
  6
Continuous
 62
     7
370
    30
100
AcDbLine
 10
351.9993730032
 20
288.5
 30
0.0
 11
344.9993730032
 21
288.5
 31
0.0
  0
LINE
  5
8D
330
1F
100
AcDbEntity
  8
0
  6
Continuous
 62
     7
370
    30
100
AcDbLine
 10
344.9993730032
 20
213.5
 30
0.0
 11
351.9993730032
 21
213.5
 31
0.0
  0
ARC
  5
8E
330
1F
100
AcDbEntity
  8
0
  6
Continuous
 62
     7
370
    30
100
AcDbCircle
 10
351.9993730032
 20
287.5
 30
0.0
 40
1.0
100
AcDbArc
 50
0.0
 51
90.0
  0
ARC
  5
8F
330
1F
100
AcDbEntity
  8
0
  6
Continuous
 62
     7
370
    30
100
AcDbCircle
 10
351.9993730032
 20
214.5
 30
0.0
 40
1.0
100
AcDbArc
 50
270.0
 51
0.0
  0
LINE
  5
90
330
1F
100
AcDbEntity
  8
0
  6
Continuous
 62
     7
370
    30
100
AcDbLine
 10
375.4993730032
 20
233.7249319686
 30
0.0
 11
396.4993730032
 21
233.7249319686
 31
0.0
  0
LINE
  5
91
330
1F
100
AcDbEntity
  8
0
  6
Continuous
 62
     7
370
    30
100
AcDbLine
 10
396.4768730032
 20
226.4088033625
 30
0.0
 11
375.5218730032
 21
226.4088033625
 31
0.0
  0
LINE
  5
92
330
1F
100
AcDbEntity
  8
0
  6
Continuous
 62
     7
370
    30
100
AcDbLine
 10
376.6838730032
 20
225.7249319686
 30
0.0
 11
395.3148730032
 21
225.7249319686
 31
0.0
  0
SPLINE
  5
93
330
1F
100
AcDbEntity
  8
0
  6
Continuous
 62
     7
370
    30
100
AcDbSpline
210
0.0
220
0.0
230
1.0
 70
    24
 71
     3
 72
    42
 73
    38
 74
     0
 42
0.000000001
 43
0.00000001
 40
0.0
 40
0.0
 40
0.0
 40
0.0
 40
0.0305283800808274
 40
0.0681842865918167
 40
0.1013304905197469
 40
0.1344946204040909
 40
0.1676858427754947
 40
0.178870293697658
 40
0.1900592020557657
 40
0.2012529158675376
 40
0.2124517827026889
 40
0.2236561496513799
 40
0.234866363292888
 40
0.2460827696645151
 40
0.2809127608968343
 40
0.3156969708175022
 40
0.3504458778176873
 40
0.3851699922477302
 40
0.4198798469799915
 40
0.4545859878697447
 40
0.4892989641570757
 40
0.5165852410964471
 40
0.5438873541945007
 40
0.5712104020658557
 40
0.5985594716166911
 40
0.6259396352496404
 40
0.6522277422476089
 40
0.678026043463929
 40
0.7141067820052098
 40
0.7501553794383491
 40
0.786183592145734
 40
0.8222031964697744
 40
0.8582259771954784
 40
0.8936200026100701
 40
0.9290396046967047
 40
0.9644959073579346
 40
1.0
 40
1.0
 40
1.0
 40
1.0
 10
400.9993730031875
 20
237.0002108276402
 30
0.0
 10
400.9993730031875
 20
237.0003656607911
 30
0.0
 10
400.9993730031875
 20
237.0007114763211
 30
0.0
 10
400.9993730031875
 20
237.0069492842549
 30
0.0
 10
400.9993730031875
 20
237.0171560609633
 30
0.0
 10
400.9993730031875
 20
237.0309041266168
 30
0.0
 10
400.9993730031875
 20
237.0445910136541
 30
0.0
 10
400.9993730031875
 20
237.0558350818293
 30
0.0
 10
400.9993730031875
 20
237.0630625813295
 30
0.0
 10
400.9993730031875
 20
237.0707281346128
 30
0.0
 10
400.9993730031875
 20
237.0788316162279
 30
0.0
 10
400.9993730031875
 20
237.0873730342349
 30
0.0
 10
400.9993730031875
 20
237.096352481517
 30
0.0
 10
400.9993730031875
 20
237.1123761959279
 30
0.0
 10
400.9993730031875
 20
237.1371333078371
 30
0.0
 10
400.9993730031875
 20
237.1732792544717
 30
0.0
 10
400.9993730031875
 20
237.213563566097
 30
0.0
 10
400.9993730031875
 20
237.2579864500771
 30
0.0
 10
400.9993730031875
 20
237.3065478591826
 30
0.0
 10
400.9993730031875
 20
237.3592477402715
 30
0.0
 10
400.9993730031875
 20
237.4120237579661
 30
0.0
 10
400.9993730031875
 20
237.4639033575682
 30
0.0
 10
400.9993730031875
 20
237.514016834749
 30
0.0
 10
400.9993730031875
 20
237.5666848833701
 30
0.0
 10
400.9993730031875
 20
237.6219074315144
 30
0.0
 10
400.9993730031875
 20
237.6788912633018
 30
0.0
 10
400.9993730031875
 20
237.7371284407993
 30
0.0
 10
400.9993730031875
 20
237.8042665371542
 30
0.0
 10
400.9993730031875
 20
237.8821640228533
 30
0.0
 10
400.9993730031875
 20
237.9724664256397
 30
0.0
 10
400.9993730031875
 20
238.066960363582
 30
0.0
 10
400.9993730031875
 20
238.1656438815538
 30
0.0
 10
400.9993730031875
 20
238.2679111312848
 30
0.0
 10
400.9993730031875
 20
238.3736495734843
 30
0.0
 10
400.9993730031875
 20
238.4828675497397
 30
0.0
 10
400.9993730031875
 20
238.5958530741313
 30
0.0
 10
400.9993730031875
 20
238.6744961256937
 30
0.0
 10
400.9993730031875
 20
238.7138441335
 30
0.0
  0
SPLINE
  5
94
330
1F
100
AcDbEntity
  8
0
  6
Continuous
 62
     7
370
    30
100
AcDbSpline
210
0.0
220
0.0
230
1.0
 70
    24
 71
     3
 72
   183
 73
   179
 74
     0
 42
0.000000001
 43
0.00000001
 40
0.0
 40
0.0
 40
0.0
 40
0.0
 40
0.0072542144262092
 40
0.0144987060987705
 40
0.0217361195901273
 40
0.0289691072366402
 40
0.0362003262447342
 40
0.0434324357703224
 40
0.04769574862789
 40
0.051960837231094
 40
0.0562282442999747
 40
0.0604985116705917
 40
0.0647721800910766
 40
0.0690497890197441
 40
0.0735703610339377
 40
0.0780998258424027
 40
0.0853393115911881
 40
0.0925717682679803
 40
0.0997998469389356
 40
0.1070262034885666
 40
0.1142534956999209
 40
0.1195556806812996
 40
0.124860844125931
 40
0.1301700307748992
 40
0.1322571253756148
 40
0.1343450648783237
 40
0.1364339122883368
 40
0.1385237305288487
 40
0.140614582435404
 40
0.1427065307504027
 40
0.1498618390035217
 40
0.1570065553030549
 40
0.1641432137387047
 40
0.1712743569903933
 40
0.1784025336399812
 40
0.1855302954515188
 40
0.1897314618606879
 40
0.1939338924819551
 40
0.198138108816292
 40
0.2023446317005218
 40
0.2065539811152769
 40
0.2107666759945381
 40
0.2149832340371022
 40
0.2192041715203131
 40
0.2265126534290276
 40
0.2338098293920992
 40
0.2410983985487801
 40
0.2483810696080191
 40
0.255660557862842
 40
0.2629395821681178
 40
0.2698046924458056
 40
0.276674085090852
 40
0.2835500331784019
 40
0.2904348032905697
 40
0.2973306533103985
 40
0.3046391354735873
 40
0.3119363115973759
 40
0.3192248808423377
 40
0.3265075519388984
 40
0.3337870402016697
 40
0.341066064507168
 40
0.3459694104744155
 40
0.3508746095724649
 40
0.3557824909865059
 40
0.3606938825431708
 40
0.3656096102957292
 40
0.3705304981137423
 40
0.3754573672781782
 40
0.3826126762330258
 40
0.3897573929757415
 40
0.3968940516548392
 40
0.4040251950094643
 40
0.411153371680989
 40
0.4182811334931357
 40
0.4245552686412678
 40
0.4308327969343176
 40
0.4371154534745079
 40
0.439232521142228
 40
0.4413504325432341
 40
0.4434692535526473
 40
0.4455890499607879
 40
0.4477098874672024
 40
0.4498318316747345
 40
0.4519549480836387
 40
0.4585478017532018
 40
0.4651319896299355
 40
0.4717094951337956
 40
0.4782823077341835
 40
0.4848524211636194
 40
0.4914218316121159
 40
0.4979925359103861
 40
0.5031574648892624
 40
0.5083253914421646
 40
0.5134972806689653
 40
0.518674095453285
 40
0.5238567959334168
 40
0.5288321027710623
 40
0.5337145322491279
 40
0.5405431932110792
 40
0.5473660516531524
 40
0.5541853326217938
 40
0.5610032646659985
 40
0.5678220776573428
 40
0.5745221436005556
 40
0.581227318296224
 40
0.5879397058005938
 40
0.5946614033965563
 40
0.6019142847117273
 40
0.6091577512868126
 40
0.6163944499179324
 40
0.6236270348314865
 40
0.6308581647837651
 40
0.6380905001356802
 40
0.6423540938901362
 40
0.6466195731552208
 40
0.6508874807277191
 40
0.655158358478557
 40
0.6594327471490581
 40
0.663711186149337
 40
0.6682318042824648
 40
0.6727612690909502
 40
0.6800007548397621
 40
0.6872332115165727
 40
0.6944612901875387
 40
0.7016876467371723
 40
0.7089149389485218
 40
0.7142171239298918
 40
0.7195222873745104
 40
0.7248314740234616
 40
0.7269185686241695
 40
0.7290065081268698
 40
0.7310953555368739
 40
0.7331851737773764
 40
0.7352760256839211
 40
0.7373679739989087
 40
0.7445232822520987
 40
0.7516679985516883
 40
0.7588046569873801
 40
0.7659358002390959
 40
0.7730639768886965
 40
0.780191738700232
 40
0.7843929051093929
 40
0.788595335730647
 40
0.7927995520649656
 40
0.797006074949172
 40
0.8012154243638986
 40
0.8054281192431263
 40
0.8096446772856518
 40
0.8138656147688195
 40
0.8211740966775396
 40
0.8284712726406158
 40
0.8357598417973002
 40
0.8430425128565416
 40
0.8503220011113655
 40
0.8576010254166408
 40
0.8644661356943273
 40
0.8713355283393711
 40
0.878211476426917
 40
0.8850962465390796
 40
0.8919920965589022
 40
0.8993005787219794
 40
0.9065977548456796
 40
0.9138863240905758
 40
0.9211689951870938
 40
0.9284484834498454
 40
0.9357275077553472
 40
0.9406308537226097
 40
0.9455360528206843
 40
0.9504439342347611
 40
0.955355325791472
 40
0.9602710535440867
 40
0.9651919413621664
 40
0.9701188105266794
 40
0.9772741194813548
 40
0.9844188362239337
 40
0.9915554949029297
 40
0.9986866382574889
 40
1.0
 40
1.0
 40
1.0
 40
1.0
 10
400.9993730031875
 20
238.7138441335
 30
0.0
 10
400.9993730031875
 20
238.7571466979376
 30
0.0
 10
400.9993730031875
 20
238.8436937888033
 30
0.0
 10
400.9993730031875
 20
238.9790816527279
 30
0.0
 10
400.9993730031875
 20
239.1184140466956
 30
0.0
 10
400.9993730031875
 20
239.2620975201867
 30
0.0
 10
400.9993730031875
 20
239.4100228827809
 30
0.0
 10
400.9993730031875
 20
239.5413723747926
 30
0.0
 10
400.9993730031875
 20
239.6543311740524
 30
0.0
 10
400.9993730031875
 20
239.7474843700499
 30
0.0
 10
400.9993730031875
 20
239.842118153805
 30
0.0
 10
400.9993730031875
 20
239.9382326702359
 30
0.0
 10
400.9993730031875
 20
240.0358279201557
 30
0.0
 10
400.9993730031875
 20
240.1367448631138
 30
0.0
 10
400.9993730031875
 20
240.2411055114657
 30
0.0
 10
400.9993730031875
 20
240.370493471242
 30
0.0
 10
400.9993730031875
 20
240.524187750834
 30
0.0
 10
400.9993730031875
 20
240.7035391725208
 30
0.0
 10
400.9993730031875
 20
240.8865503889149
 30
0.0
 10
400.9993730031875
 20
241.0732207910135
 30
0.0
 10
400.9993730031875
 20
241.246622637074
 30
0.0
 10
400.9993730031875
 20
241.4056992186464
 30
0.0
 10
400.9993730031875
 20
241.5495552700539
 30
0.0
 10
400.9993730031875
 20
241.6658352538416
 30
0.0
 10
400.9993730031875
 20
241.7534181962395
 30
0.0
 10
400.9993730031875
 20
241.8115429214159
 30
0.0
 10
400.9993730031875
 20
241.8699712456292
 30
0.0
 10
400.9993730031875
 20
241.9287031791349
 30
0.0
 10
400.9993730031875
 20
241.9877388002092
 30
0.0
 10
400.9993730031875
 20
242.0949411173997
 30
0.0
 10
400.9993730031875
 20
242.2514951578695
 30
0.0
 10
400.9993730031875
 20
242.4593345503683
 30
0.0
 10
400.9993730031875
 20
242.669977636953
 30
0.0
 10
400.9993730031875
 20
242.8834239059694
 30
0.0
 10
400.9993730031876
 20
243.0996729967026
 30
0.0
 10
400.9993730031875
 20
243.2887276338068
 30
0.0
 10
400.9993730031875
 20
243.4493904705854
 30
0.0
 10
400.9993730031875
 20
243.5807452626652
 30
0.0
 10
400.9993730031875
 20
243.713073070712
 30
0.0
 10
400.9993730031875
 20
243.8463740260807
 30
0.0
 10
400.9993730031875
 20
243.9806481019879
 30
0.0
 10
400.9993730031875
 20
244.1158952341093
 30
0.0
 10
400.9993730031875
 20
244.2521156663734
 30
0.0
 10
400.9993730031875
 20
244.422705462981
 30
0.0
 10
400.9993730031875
 20
244.6283259205086
 30
0.0
 10
400.9993730031875
 20
244.8698097072111
 30
0.0
 10
400.9993730031875
 20
245.1132835541034
 30
0.0
 10
400.9993730031875
 20
245.3587470630471
 30
0.0
 10
400.9993730031875
 20
245.6062001515911
 30
0.0
 10
400.9993730031875
 20
245.8508896903348
 30
0.0
 10
400.9993730031875
 20
246.0926812697883
 30
0.0
 10
400.9993730031875
 20
246.3314556800608
 30
0.0
 10
400.9993730031875
 20
246.5719983160552
 30
0.0
 10
400.9993730031875
 20
246.8143093698188
 30
0.0
 10
400.9993730031875
 20
247.0630985675577
 30
0.0
 10
400.9993730031875
 20
247.3181391945593
 30
0.0
 10
400.9993730031875
 20
247.5792026090479
 30
0.0
 10
400.9993730031875
 20
247.8412279434961
 30
0.0
 10
400.9993730031875
 20
248.1042152936025
 30
0.0
 10
400.9993730031875
 20
248.3681641026227
 30
0.0
 10
400.9993730031875
 20
248.60423205993
 30
0.0
 10
400.9993730031875
 20
248.8120729429878
 30
0.0
 10
400.9993730031875
 20
248.9914419605076
 30
0.0
 10
400.9993730031875
 20
249.1712468616688
 30
0.0
 10
400.9993730031875
 20
249.3514878376553
 30
0.0
 10
400.9993730031875
 20
249.532164764528
 30
0.0
 10
400.9993730031875
 20
249.7132778542136
 30
0.0
 10
400.9993730031875
 20
249.9221129194439
 30
0.0
 10
400.9993730031875
 20
250.1585604261742
 30
0.0
 10
400.9993730031875
 20
250.4224820166435
 30
0.0
 10
400.9993730031875
 20
250.6863127469906
 30
0.0
 10
400.9993730031875
 20
250.950052222619
 30
0.0
 10
400.9993730031875
 20
251.2137002963696
 30
0.0
 10
400.9993730031875
 20
251.466710991979
 30
0.0
 10
400.9993730031875
 20
251.7090896484751
 30
0.0
 10
400.9993730031875
 20
251.9408633597745
 30
0.0
 10
400.9993730031875
 20
252.1212790818482
 30
0.0
 10
400.9993730031875
 20
252.2504411040685
 30
0.0
 10
400.9993730031875
 20
252.3284301397413
 30
0.0
 10
400.9993730031875
 20
252.4064110955838
 30
0.0
 10
400.9993730031875
 20
252.4843840387039
 30
0.0
 10
400.9993730031875
 20
252.5623489369322
 30
0.0
 10
400.9993730031875
 20
252.6403058505574
 30
0.0
 10
400.9993730031875
 20
252.7729399435943
 30
0.0
 10
400.9993730031875
 20
252.9599224915812
 30
0.0
 10
400.9993730031875
 20
253.2007495471989
 30
0.0
 10
400.9993730031875
 20
253.4406690678334
 30
0.0
 10
400.9993730031875
 20
253.6796802960515
 30
0.0
 10
400.9993730031875
 20
253.9177833991189
 30
0.0
 10
400.9993730031875
 20
254.1549780633213
 30
0.0
 10
400.9993730031875
 20
254.3743763838461
 30
0.0
 10
400.9993730031875
 20
254.576189773588
 30
0.0
 10
400.9993730031876
 20
254.7606348631283
 30
0.0
 10
400.9993730031875
 20
254.9445191014612
 30
0.0
 10
400.9993730031875
 20
255.1278426237034
 30
0.0
 10
400.9993730031875
 20
255.3080871607646
 30
0.0
 10
400.9993730031875
 20
255.4841130153859
 30
0.0
 10
400.9993730031875
 20
255.6785481793154
 30
0.0
 10
400.9993730031875
 20
255.8933418524507
 30
0.0
 10
400.9993730031875
 20
256.1289900789396
 30
0.0
 10
400.9993730031875
 20
256.3628456601984
 30
0.0
 10
400.9993730031875
 20
256.5949082041274
 30
0.0
 10
400.9993730031875
 20
256.8238062389322
 30
0.0
 10
400.9993730031875
 20
257.0495762439288
 30
0.0
 10
400.9993730031875
 20
257.2722575424288
 30
0.0
 10
400.9993730031875
 20
257.4932089576182
 30
0.0
 10
400.9993730031875
 20
257.7180812545579
 30
0.0
 10
400.9993730031875
 20
257.9464320421884
 30
0.0
 10
400.9993730031875
 20
258.1777866408908
 30
0.0
 10
400.9993730031875
 20
258.406299837852
 30
0.0
 10
400.9993730031875
 20
258.6319713082856
 30
0.0
 10
400.9993730031875
 20
258.8548006262587
 30
0.0
 10
400.9993730031875
 20
259.0446533249925
 30
0.0
 10
400.9993730031875
 20
259.2027308759198
 30
0.0
 10
400.9993730031875
 20
259.3300340650038
 30
0.0
 10
400.9993730031875
 20
259.4563504718858
 30
0.0
 10
400.9993730031875
 20
259.5816802539065
 30
0.0
 10
400.9993730031875
 20
259.7060233425353
 30
0.0
 10
400.9993730031875
 20
259.8316631457378
 30
0.0
 10
400.9993730031875
 20
259.9585612012091
 30
0.0
 10
400.9993730031875
 20
260.1121224872772
 30
0.0
 10
400.9993730031875
 20
260.2888944993963
 30
0.0
 10
400.9993730031875
 20
260.4873759928471
 30
0.0
 10
400.9993730031875
 20
260.6822667912642
 30
0.0
 10
400.9993730031875
 20
260.8735662044953
 30
0.0
 10
400.9993730031875
 20
261.0445795907556
 30
0.0
 10
400.9993730031875
 20
261.1963358850597
 30
0.0
 10
400.9993730031875
 20
261.3297641347962
 30
0.0
 10
400.9993730031875
 20
261.4346202458427
 30
0.0
 10
400.9993730031875
 20
261.5120641698355
 30
0.0
 10
400.9993730031875
 20
261.5628936712466
 30
0.0
 10
400.9993730031875
 20
261.6134251824776
 30
0.0
 10
400.9993730031875
 20
261.6636587328443
 30
0.0
 10
400.9993730031875
 20
261.7135943252698
 30
0.0
 10
400.9993730031875
 20
261.8032700262732
 30
0.0
 10
400.9993730031875
 20
261.9310413525711
 30
0.0
 10
400.9993730031875
 20
262.0942525961826
 30
0.0
 10
400.9993730031875
 20
262.2533363239592
 30
0.0
 10
400.9993730031875
 20
262.4082918627627
 30
0.0
 10
400.9993730031875
 20
262.5591190603413
 30
0.0
 10
400.9993730031875
 20
262.685728663599
 30
0.0
 10
400.9993730031875
 20
262.7898600075116
 30
0.0
 10
400.9993730031875
 20
262.8729318344663
 30
0.0
 10
400.9993730031875
 20
262.9545703378844
 30
0.0
 10
400.9993730031875
 20
263.0347756214658
 30
0.0
 10
400.9993730031875
 20
263.113547648943
 30
0.0
 10
400.9993730031875
 20
263.1908864458161
 30
0.0
 10
400.9993730031875
 20
263.2667919322844
 30
0.0
 10
400.9993730031875
 20
263.3593933183199
 30
0.0
 10
400.9993730031875
 20
263.4670298950506
 30
0.0
 10
400.9993730031875
 20
263.5875874235995
 30
0.0
 10
400.9993730031875
 20
263.7033355507416
 30
0.0
 10
400.9993730031875
 20
263.8142736800747
 30
0.0
 10
400.9993730031875
 20
263.9204018765968
 30
0.0
 10
400.9993730031875
 20
264.0197894640461
 30
0.0
 10
400.9993730031875
 20
264.1127506142311
 30
0.0
 10
400.9993730031875
 20
264.1995959841769
 30
0.0
 10
400.9993730031875
 20
264.2821655410283
 30
0.0
 10
400.9993730031875
 20
264.3604588623297
 30
0.0
 10
400.9993730031875
 20
264.4359061071546
 30
0.0
 10
400.9993730031875
 20
264.508107614852
 30
0.0
 10
400.9993730031875
 20
264.5766247608256
 30
0.0
 10
400.9993730031875
 20
264.6400267857712
 30
0.0
 10
400.9993730031875
 20
264.6983131565252
 30
0.0
 10
400.9993730031875
 20
264.751483917037
 30
0.0
 10
400.9993730031876
 20
264.7943069164105
 30
0.0
 10
400.9993730031875
 20
264.828547700148
 30
0.0
 10
400.9993730031875
 20
264.8557062930179
 30
0.0
 10
400.9993730031875
 20
264.8805451019837
 30
0.0
 10
400.9993730031875
 20
264.9030640291409
 30
0.0
 10
400.9993730031875
 20
264.9232635938496
 30
0.0
 10
400.9993730031875
 20
264.9411418193533
 30
0.0
 10
400.9993730031875
 20
264.9590454209573
 30
0.0
 10
400.9993730031875
 20
264.975529473705
 30
0.0
 10
400.9993730031875
 20
264.989066903034
 30
0.0
 10
400.9993730031875
 20
264.9971657630258
 30
0.0
 10
400.9993730031875
 20
265.0006503448774
 30
0.0
 10
400.9993730031875
 20
264.9999117858216
 30
0.0
 10
400.9993730031875
 20
264.9997969187929
 30
0.0
  0
LINE
  5
95
330
1F
100
AcDbEntity
  8
0
  6
Continuous
 62
     7
370
    30
100
AcDbLine
 10
344.9993730032
 20
288.5
 30
0.0
 11
344.9993730032
 21
213.5
 31
0.0
  0
LINE
  5
96
330
1F
100
AcDbEntity
  8
0
  6
Continuous
 62
     7
370
    30
100
AcDbLine
 10
352.9993730032
 20
287.5
 30
0.0
 11
352.9993730032
 21
214.5
 31
0.0
  0
LINE
  5
97
330
1F
100
AcDbEntity
  8
0
  6
Continuous
 62
     7
370
    30
100
AcDbLine
 10
31.5006269968
 20
236.0
 30
0.0
 11
31.5006269968
 21
233.7249319686
 31
0.0
  0
LINE
  5
98
330
1F
100
AcDbEntity
  8
0
  6
Continuous
 62
     7
370
    30
100
AcDbLine
 10
52.5006269968
 20
233.7249319686
 30
0.0
 11
52.5006269968
 21
236.0
 31
0.0
  0
LINE
  5
99
330
1F
100
AcDbEntity
  8
0
  6
Continuous
 62
     7
370
    30
100
AcDbLine
 10
31.5231269968
 20
226.4088033625
 30
0.0
 11
32.6851269968
 21
225.7249319686
 31
0.0
  0
LINE
  5
9A
330
1F
100
AcDbEntity
  8
0
  6
Continuous
 62
     7
370
    30
100
AcDbLine
 10
51.3161269968
 20
225.7249319686
 30
0.0
 11
52.4781269968
 21
226.4088033625
 31
0.0
  0
LINE
  5
9B
330
1F
100
AcDbEntity
  8
0
  6
Continuous
 62
     7
370
    30
100
AcDbLine
 10
31.5231269968
 20
233.7249319686
 30
0.0
 11
31.5231269968
 21
226.4088033625
 31
0.0
  0
LINE
  5
9C
330
1F
100
AcDbEntity
  8
0
  6
Continuous
 62
     7
370
    30
100
AcDbLine
 10
52.4781269968
 20
226.4088033625
 30
0.0
 11
52.4781269968
 21
233.7249319686
 31
0.0
  0
ARC
  5
9D
330
1F
100
AcDbEntity
  8
0
  6
Continuous
 62
     7
370
    30
100
AcDbCircle
 10
28.0006269968
 20
265.0
 30
0.0
 40
1.0
100
AcDbArc
 50
90.0
 51
180.0
  0
ARC
  5
9E
330
1F
100
AcDbEntity
  8
0
  6
Continuous
 62
     7
370
    30
100
AcDbCircle
 10
28.0006269968
 20
237.0
 30
0.0
 40
1.0
100
AcDbArc
 50
180.0
 51
270.0
  0
LINE
  5
9F
330
1F
100
AcDbEntity
  8
0
  6
Continuous
 62
     7
370
    30
100
AcDbLine
 10
75.0006269968
 20
266.0
 30
0.0
 11
28.0006269968
 21
266.0
 31
0.0
  0
LINE
  5
A0
330
1F
100
AcDbEntity
  8
0
  6
Continuous
 62
     7
370
    30
100
AcDbLine
 10
28.0006269968
 20
236.0
 30
0.0
 11
31.5006269968
 21
236.0
 31
0.0
  0
LINE
  5
A1
330
1F
100
AcDbEntity
  8
0
  6
Continuous
 62
     7
370
    30
100
AcDbLine
 10
52.5006269968
 20
236.0
 30
0.0
 11
75.0006269968
 21
236.0
 31
0.0
  0
LINE
  5
A2
330
1F
100
AcDbEntity
  8
0
  6
Continuous
 62
     7
370
    30
100
AcDbLine
 10
76.0006269968
 20
213.5
 30
0.0
 11
83.0006269968
 21
213.5
 31
0.0
  0
LINE
  5
A3
330
1F
100
AcDbEntity
  8
0
  6
Continuous
 62
     7
370
    30
100
AcDbLine
 10
83.0006269968
 20
288.5
 30
0.0
 11
76.0006269968
 21
288.5
 31
0.0
  0
ARC
  5
A4
330
1F
100
AcDbEntity
  8
0
  6
Continuous
 62
     7
370
    30
100
AcDbCircle
 10
76.0006269968
 20
214.5
 30
0.0
 40
1.0
100
AcDbArc
 50
180.0
 51
270.0
  0
ARC
  5
A5
330
1F
100
AcDbEntity
  8
0
  6
Continuous
 62
     7
370
    30
100
AcDbCircle
 10
76.0006269968
 20
287.5
 30
0.0
 40
1.0
100
AcDbArc
 50
90.0
 51
180.0
  0
LINE
  5
A6
330
1F
100
AcDbEntity
  8
0
  6
Continuous
 62
     7
370
    30
100
AcDbLine
 10
52.4357635939
 20
233.7249319686
 30
0.0
 11
52.5006269968
 21
233.7249319686
 31
0.0
  0
LINE
  5
A7
330
1F
100
AcDbEntity
  8
0
  6
Continuous
 62
     7
370
    30
100
AcDbLine
 10
31.5006269968
 20
233.7249319686
 30
0.0
 11
52.4357635939
 21
233.7249319686
 31
0.0
  0
LINE
  5
A8
330
1F
100
AcDbEntity
  8
0
  6
Continuous
 62
     7
370
    30
100
AcDbLine
 10
45.9723219278
 20
226.4088033625
 30
0.0
 11
31.5231269968
 21
226.4088033625
 31
0.0
  0
LINE
  5
A9
330
1F
100
AcDbEntity
  8
0
  6
Continuous
 62
     7
370
    30
100
AcDbLine
 10
52.4781269968
 20
226.4088033625
 30
0.0
 11
45.9723219278
 21
226.4088033625
 31
0.0
  0
LINE
  5
AA
330
1F
100
AcDbEntity
  8
0
  6
Continuous
 62
     7
370
    30
100
AcDbLine
 10
51.2585808035
 20
225.7249319686
 30
0.0
 11
51.3161269968
 21
225.7249319686
 31
0.0
  0
LINE
  5
AB
330
1F
100
AcDbEntity
  8
0
  6
Continuous
 62
     7
370
    30
100
AcDbLine
 10
32.6851269968
 20
225.7249319686
 30
0.0
 11
51.2585808035
 21
225.7249319686
 31
0.0
  0
SPLINE
  5
AC
330
1F
100
AcDbEntity
  8
0
  6
Continuous
 62
     7
370
    30
100
AcDbSpline
210
0.0
220
0.0
230
1.0
 70
    24
 71
     3
 72
   183
 73
   179
 74
     0
 42
0.000000001
 43
0.00000001
 40
0.0
 40
0.0
 40
0.0
 40
0.0
 40
0.0072542144261637
 40
0.0144987060986902
 40
0.0217361195900227
 40
0.028969107236522
 40
0.036200326244613
 40
0.0434324357702088
 40
0.0476957486277856
 40
0.0519608372310026
 40
0.0562282442999
 40
0.0604985116705372
 40
0.064772180091046
 40
0.0690497890197409
 40
0.0735703610340092
 40
0.0780998258425414
 40
0.0853393115914132
 40
0.092571768268266
 40
0.0997998469392561
 40
0.1070262034888961
 40
0.114253495700234
 40
0.1195556806815845
 40
0.1248608441261742
 40
0.1301700307750872
 40
0.1322571253757774
 40
0.1343450648784588
 40
0.1364339122884424
 40
0.138523730528923
 40
0.1406145824354447
 40
0.1427065307504078
 40
0.1498618390036399
 40
0.1570065553032632
 40
0.1641432137389801
 40
0.1712743569907124
 40
0.1784025336403206
 40
0.1855302954518548
 40
0.1897314618610106
 40
0.1939338924822565
 40
0.1981381088165636
 40
0.2023446317007553
 40
0.2065539811154639
 40
0.2107666759946702
 40
0.214983234037171
 40
0.2192041715203104
 40
0.2265126534288882
 40
0.233809829391851
 40
0.2410983985484514
 40
0.2483810696076381
 40
0.2556605578624367
 40
0.2629395821677166
 40
0.2698046924454338
 40
0.2766740850905347
 40
0.2835500331781638
 40
0.2904348032904355
 40
0.2973306533103928
 40
0.3046391354734307
 40
0.3119363115970994
 40
0.319224880841972
 40
0.3265075519384746
 40
0.3337870402012191
 40
0.3410660645067219
 40
0.34596941047399
 40
0.3508746095720742
 40
0.3557824909861642
 40
0.3606938825428923
 40
0.365609610295528
 40
0.3705304981136325
 40
0.3754573672781739
 40
0.38261267623297
 40
0.3897573929756445
 40
0.3968940516547116
 40
0.4040251950093168
 40
0.4111533716808323
 40
0.4182811334929805
 40
0.4245552686411228
 40
0.4308327969341912
 40
0.4371154534744086
 40
0.4392325211421398
 40
0.4413504325431578
 40
0.4434692535525839
 40
0.4455890499607383
 40
0.4477098874671677
 40
0.4498318316747155
 40
0.4519549480836363
 40
0.458547801753248
 40
0.4651319896300207
 40
0.4717094951339101
 40
0.4782823077343179
 40
0.4848524211637641
 40
0.4914218316122613
 40
0.4979925359105227
 40
0.5031574648893856
 40
0.5083253914422685
 40
0.513497280669044
 40
0.5186740954533329
 40
0.5238567959334279
 40
0.528832102771089
 40
0.5337145322491891
 40
0.5405431932111787
 40
0.5473660516532788
 40
0.5541853326219357
 40
0.5610032646661444
 40
0.5678220776574813
 40
0.5745221436006755
 40
0.5812273182963142
 40
0.5879397058006433
 40
0.5946614033965536
 40
0.6019142847116876
 40
0.6091577512867447
 40
0.6163944499178446
 40
0.6236270348313878
 40
0.6308581647836639
 40
0.6380905001355853
 40
0.6423540938900489
 40
0.6466195731551441
 40
0.6508874807276559
 40
0.6551583584785103
 40
0.6594327471490309
 40
0.6637111861493321
 40
0.6682318042824892
 40
0.6727612690910005
 40
0.6800007548398457
 40
0.6872332115166797
 40
0.694461290187659
 40
0.701687646737296
 40
0.7089149389486392
 40
0.7142171239299986
 40
0.7195222873746013
 40
0.7248314740235314
 40
0.7269185686242297
 40
0.7290065081269196
 40
0.7310953555369125
 40
0.7331851737774028
 40
0.7352760256839349
 40
0.737367973998909
 40
0.744523282251951
 40
0.7516679985514233
 40
0.7588046569870284
 40
0.7659358002386881
 40
0.7730639768882627
 40
0.7801917386998023
 40
0.7843929051089796
 40
0.7885953357302605
 40
0.792799552064616
 40
0.7970060749488698
 40
0.8012154243636538
 40
0.8054281192429488
 40
0.8096446772855518
 40
0.8138656147688067
 40
0.8211740966773581
 40
0.8284712726402996
 40
0.8357598417968837
 40
0.8430425128560596
 40
0.8503220011108531
 40
0.8576010254161336
 40
0.8644661356938572
 40
0.8713355283389703
 40
0.8782114764266173
 40
0.885096246538913
 40
0.8919920965589005
 40
0.8993005787221312
 40
0.9065977548459531
 40
0.9138863240909394
 40
0.9211689951875162
 40
0.9284484834502947
 40
0.9357275077557919
 40
0.9406308537230336
 40
0.9455360528210733
 40
0.9504439342351008
 40
0.9553553257917481
 40
0.9602710535442851
 40
0.9651919413622729
 40
0.97011881052668
 40
0.9772741194815653
 40
0.9844188362243108
 40
0.9915554949034308
 40
0.9986866382580704
 40
1.0
 40
1.0
 40
1.0
 40
1.0
 10
27.00062699681244
 20
263.2861558665
 30
0.0
 10
27.00062699681243
 20
263.2428533020627
 30
0.0
 10
27.00062699681243
 20
263.1563062111974
 30
0.0
 10
27.00062699681244
 20
263.0209183472735
 30
0.0
 10
27.00062699681243
 20
262.8815859533061
 30
0.0
 10
27.00062699681243
 20
262.7379024798153
 30
0.0
 10
27.00062699681244
 20
262.5899771172212
 30
0.0
 10
27.00062699681245
 20
262.4586276252094
 30
0.0
 10
27.00062699681243
 20
262.3456688259495
 30
0.0
 10
27.00062699681245
 20
262.2525156299517
 30
0.0
 10
27.00062699681243
 20
262.1578818461963
 30
0.0
 10
27.00062699681243
 20
262.061767329765
 30
0.0
 10
27.00062699681245
 20
261.9641720798447
 30
0.0
 10
27.00062699681244
 20
261.8632551368859
 30
0.0
 10
27.00062699681244
 20
261.7588944885328
 30
0.0
 10
27.00062699681245
 20
261.6295065287549
 30
0.0
 10
27.00062699681246
 20
261.4758122491614
 30
0.0
 10
27.00062699681243
 20
261.2964608274733
 30
0.0
 10
27.00062699681244
 20
261.1134496110784
 30
0.0
 10
27.00062699681245
 20
260.9267792089797
 30
0.0
 10
27.00062699681243
 20
260.7533773629195
 30
0.0
 10
27.00062699681243
 20
260.5943007813477
 30
0.0
 10
27.00062699681246
 20
260.450444729941
 30
0.0
 10
27.00062699681244
 20
260.3341647461542
 30
0.0
 10
27.00062699681245
 20
260.2465818037571
 30
0.0
 10
27.00062699681243
 20
260.1884570785812
 30
0.0
 10
27.00062699681246
 20
260.1300287543685
 30
0.0
 10
27.00062699681243
 20
260.0712968208636
 30
0.0
 10
27.00062699681245
 20
260.01226119979
 30
0.0
 10
27.00062699681243
 20
259.9050588825987
 30
0.0
 10
27.00062699681243
 20
259.7485048421267
 30
0.0
 10
27.00062699681246
 20
259.5406654496248
 30
0.0
 10
27.00062699681244
 20
259.3300223630379
 30
0.0
 10
27.00062699681243
 20
259.1165760940199
 30
0.0
 10
27.00062699681245
 20
258.9003270032861
 30
0.0
 10
27.00062699681243
 20
258.7112723661818
 30
0.0
 10
27.00062699681243
 20
258.5506095294037
 30
0.0
 10
27.00062699681245
 20
258.4192547373246
 30
0.0
 10
27.00062699681243
 20
258.2869269292789
 30
0.0
 10
27.00062699681246
 20
258.1536259739114
 30
0.0
 10
27.00062699681242
 20
258.0193518980058
 30
0.0
 10
27.00062699681245
 20
257.8841047658863
 30
0.0
 10
27.00062699681244
 20
257.7478843336243
 30
0.0
 10
27.00062699681244
 20
257.5772945370197
 30
0.0
 10
27.00062699681243
 20
257.3716740794956
 30
0.0
 10
27.00062699681245
 20
257.1301902927968
 30
0.0
 10
27.00062699681243
 20
256.8867164459072
 30
0.0
 10
27.00062699681245
 20
256.6412529369652
 30
0.0
 10
27.00062699681245
 20
256.3937998484221
 30
0.0
 10
27.00062699681243
 20
256.1491103096782
 30
0.0
 10
27.00062699681242
 20
255.9073187302238
 30
0.0
 10
27.00062699681245
 20
255.6685443199495
 30
0.0
 10
27.00062699681243
 20
255.4280016839523
 30
0.0
 10
27.00062699681246
 20
255.1856906301853
 30
0.0
 10
27.00062699681244
 20
254.9369014324456
 30
0.0
 10
27.00062699681243
 20
254.6818608054459
 30
0.0
 10
27.00062699681245
 20
254.4207973909616
 30
0.0
 10
27.00062699681243
 20
254.1587720565168
 30
0.0
 10
27.00062699681243
 20
253.8957847064124
 30
0.0
 10
27.00062699681244
 20
253.6318358973932
 30
0.0
 10
27.00062699681245
 20
253.395767940086
 30
0.0
 10
27.00062699681245
 20
253.1879270570274
 30
0.0
 10
27.00062699681243
 20
253.0085580395064
 30
0.0
 10
27.00062699681245
 20
252.8287531383434
 30
0.0
 10
27.00062699681244
 20
252.6485121623546
 30
0.0
 10
27.00062699681245
 20
252.467835235479
 30
0.0
 10
27.00062699681243
 20
252.2867221457901
 30
0.0
 10
27.00062699681243
 20
252.0778870805581
 30
0.0
 10
27.00062699681244
 20
251.8414395738276
 30
0.0
 10
27.00062699681242
 20
251.5775179833599
 30
0.0
 10
27.00062699681245
 20
251.3136872530139
 30
0.0
 10
27.00062699681243
 20
251.0499477773863
 30
0.0
 10
27.00062699681245
 20
250.786299703636
 30
0.0
 10
27.00062699681243
 20
250.5332890080265
 30
0.0
 10
27.00062699681243
 20
250.2909103515301
 30
0.0
 10
27.00062699681244
 20
250.0591366402301
 30
0.0
 10
27.00062699681243
 20
249.8787209181555
 30
0.0
 10
27.00062699681244
 20
249.7495588959347
 30
0.0
 10
27.00062699681244
 20
249.6715698602614
 30
0.0
 10
27.00062699681243
 20
249.5935889044185
 30
0.0
 10
27.00062699681245
 20
249.5156159612978
 30
0.0
 10
27.00062699681245
 20
249.437651063069
 30
0.0
 10
27.00062699681244
 20
249.3596941494432
 30
0.0
 10
27.00062699681245
 20
249.2270600564053
 30
0.0
 10
27.00062699681245
 20
249.0400775084171
 30
0.0
 10
27.00062699681243
 20
248.799250452798
 30
0.0
 10
27.00062699681243
 20
248.5593309321625
 30
0.0
 10
27.00062699681243
 20
248.3203197039436
 30
0.0
 10
27.00062699681247
 20
248.0822166008759
 30
0.0
 10
27.00062699681241
 20
247.8450219366733
 30
0.0
 10
27.00062699681243
 20
247.6256236161489
 30
0.0
 10
27.00062699681243
 20
247.4238102264075
 30
0.0
 10
27.00062699681244
 20
247.2393651368679
 30
0.0
 10
27.00062699681244
 20
247.0554808985359
 30
0.0
 10
27.00062699681245
 20
246.8721573762949
 30
0.0
 10
27.00062699681244
 20
246.6919128392343
 30
0.0
 10
27.00062699681245
 20
246.5158869846129
 30
0.0
 10
27.00062699681243
 20
246.3214518206825
 30
0.0
 10
27.00062699681245
 20
246.1066581475462
 30
0.0
 10
27.00062699681244
 20
245.8710099210563
 30
0.0
 10
27.00062699681244
 20
245.637154339797
 30
0.0
 10
27.00062699681245
 20
245.4050917958678
 30
0.0
 10
27.00062699681243
 20
245.1761937610633
 30
0.0
 10
27.00062699681244
 20
244.9504237560674
 30
0.0
 10
27.00062699681244
 20
244.7277424575683
 30
0.0
 10
27.00062699681244
 20
244.5067910423802
 30
0.0
 10
27.00062699681243
 20
244.2819187454419
 30
0.0
 10
27.00062699681245
 20
244.0535679578127
 30
0.0
 10
27.00062699681243
 20
243.8222133591113
 30
0.0
 10
27.00062699681245
 20
243.5937001621507
 30
0.0
 10
27.00062699681245
 20
243.3680286917174
 30
0.0
 10
27.00062699681243
 20
243.1451993737443
 30
0.0
 10
27.00062699681245
 20
242.9553466750105
 30
0.0
 10
27.00062699681243
 20
242.7972691240829
 30
0.0
 10
27.00062699681245
 20
242.6699659349985
 30
0.0
 10
27.00062699681244
 20
242.5436495281161
 30
0.0
 10
27.00062699681242
 20
242.4183197460949
 30
0.0
 10
27.00062699681244
 20
242.2939766574654
 30
0.0
 10
27.00062699681244
 20
242.1683368542622
 30
0.0
 10
27.00062699681243
 20
242.04143879879
 30
0.0
 10
27.00062699681245
 20
241.887877512721
 30
0.0
 10
27.00062699681241
 20
241.7111055006009
 30
0.0
 10
27.00062699681243
 20
241.5126240071494
 30
0.0
 10
27.00062699681243
 20
241.3177332087319
 30
0.0
 10
27.00062699681245
 20
241.1264337955007
 30
0.0
 10
27.00062699681243
 20
240.9554204092405
 30
0.0
 10
27.00062699681244
 20
240.8036641149367
 30
0.0
 10
27.00062699681245
 20
240.6702358652009
 30
0.0
 10
27.0006269968124
 20
240.5653797541548
 30
0.0
 10
27.00062699681246
 20
240.4879358301625
 30
0.0
 10
27.00062699681244
 20
240.4371063287517
 30
0.0
 10
27.00062699681245
 20
240.3865748175212
 30
0.0
 10
27.00062699681244
 20
240.3363412671548
 30
0.0
 10
27.00062699681244
 20
240.2864056747298
 30
0.0
 10
27.00062699681244
 20
240.196729973728
 30
0.0
 10
27.00062699681244
 20
240.0689586474327
 30
0.0
 10
27.00062699681243
 20
239.9057474038242
 30
0.0
 10
27.00062699681243
 20
239.74666367605
 30
0.0
 10
27.00062699681243
 20
239.591708137248
 30
0.0
 10
27.00062699681244
 20
239.4408809396701
 30
0.0
 10
27.00062699681242
 20
239.3142713364124
 30
0.0
 10
27.00062699681244
 20
239.2101399924994
 30
0.0
 10
27.00062699681243
 20
239.127068165544
 30
0.0
 10
27.00062699681245
 20
239.0454296621248
 30
0.0
 10
27.00062699681244
 20
238.9652243785421
 30
0.0
 10
27.00062699681243
 20
238.8864523510634
 30
0.0
 10
27.00062699681245
 20
238.8091135541883
 30
0.0
 10
27.00062699681244
 20
238.733208067718
 30
0.0
 10
27.00062699681244
 20
238.6406066816814
 30
0.0
 10
27.00062699681245
 20
238.5329701049506
 30
0.0
 10
27.00062699681243
 20
238.4124125764029
 30
0.0
 10
27.00062699681246
 20
238.2966644492616
 30
0.0
 10
27.00062699681243
 20
238.1857263199291
 30
0.0
 10
27.00062699681245
 20
238.0795981234072
 30
0.0
 10
27.00062699681244
 20
237.9802105359579
 30
0.0
 10
27.00062699681244
 20
237.8872493857727
 30
0.0
 10
27.00062699681245
 20
237.8004040158263
 30
0.0
 10
27.00062699681243
 20
237.717834458974
 30
0.0
 10
27.00062699681243
 20
237.6395411376716
 30
0.0
 10
27.00062699681244
 20
237.5640938928455
 30
0.0
 10
27.00062699681244
 20
237.4918923851469
 30
0.0
 10
27.00062699681243
 20
237.4233752391724
 30
0.0
 10
27.00062699681244
 20
237.359973214226
 30
0.0
 10
27.00062699681245
 20
237.3016868434715
 30
0.0
 10
27.00062699681243
 20
237.2485160829594
 30
0.0
 10
27.00062699681244
 20
237.205693083586
 30
0.0
 10
27.00062699681244
 20
237.1714522998486
 30
0.0
 10
27.00062699681246
 20
237.144293706979
 30
0.0
 10
27.00062699681242
 20
237.1194548980136
 30
0.0
 10
27.00062699681245
 20
237.0969359708569
 30
0.0
 10
27.00062699681246
 20
237.0767364061488
 30
0.0
 10
27.00062699681243
 20
237.0588581806458
 30
0.0
 10
27.00062699681245
 20
237.0409545790425
 30
0.0
 10
27.00062699681243
 20
237.0244705262952
 30
0.0
 10
27.00062699681243
 20
237.0109330969664
 30
0.0
 10
27.00062699681243
 20
237.0028342369746
 30
0.0
 10
27.00062699681245
 20
236.9993496551231
 30
0.0
 10
27.00062699681245
 20
237.0000882141788
 30
0.0
 10
27.00062699681244
 20
237.0002030812074
 30
0.0
  0
SPLINE
  5
AD
330
1F
100
AcDbEntity
  8
0
  6
Continuous
 62
     7
370
    30
100
AcDbSpline
210
0.0
220
0.0
230
1.0
 70
    24
 71
     3
 72
    42
 73
    38
 74
     0
 42
0.000000001
 43
0.00000001
 40
0.0
 40
0.0
 40
0.0
 40
0.0
 40
0.0305283800775522
 40
0.0681842865885739
 40
0.1013304905167223
 40
0.1344946204014617
 40
0.167685842773438
 40
0.1788702936958337
 40
0.1900592020541938
 40
0.2012529158662383
 40
0.212451782701682
 40
0.2236561496506852
 40
0.2348663632925255
 40
0.2460827696645048
 40
0.2809127608967587
 40
0.3156969708173724
 40
0.3504458778175153
 40
0.3851699922475286
 40
0.4198798469797737
 40
0.4545859878695249
 40
0.4892989641568687
 40
0.5165852410962608
 40
0.5438873541943451
 40
0.571210402065741
 40
0.5985594716166276
 40
0.6259396352496391
 40
0.6522277422478984
 40
0.678026043464554
 40
0.71410678200621
 40
0.7501553794396134
 40
0.7861835921471505
 40
0.8222031964712306
 40
0.8582259771968613
 40
0.8936200026112713
 40
0.9290396046976148
 40
0.9644959073584441
 40
0.9999999999999999
 40
0.9999999999999999
 40
0.9999999999999999
 40
0.9999999999999999
 10
27.00062699681244
 20
264.9997891723601
 30
0.0
 10
27.00062699681245
 20
264.9996343392092
 30
0.0
 10
27.00062699681245
 20
264.9992885236792
 30
0.0
 10
27.00062699681241
 20
264.9930507157455
 30
0.0
 10
27.00062699681243
 20
264.982843939037
 30
0.0
 10
27.00062699681245
 20
264.9690958733835
 30
0.0
 10
27.00062699681243
 20
264.9554089863462
 30
0.0
 10
27.00062699681245
 20
264.9441649181709
 30
0.0
 10
27.00062699681243
 20
264.9369374186707
 30
0.0
 10
27.00062699681244
 20
264.9292718653874
 30
0.0
 10
27.00062699681243
 20
264.9211683837722
 30
0.0
 10
27.00062699681243
 20
264.9126269657652
 30
0.0
 10
27.00062699681244
 20
264.9036475184831
 30
0.0
 10
27.00062699681245
 20
264.8876238040724
 30
0.0
 10
27.00062699681243
 20
264.8628666921636
 30
0.0
 10
27.00062699681245
 20
264.8267207455297
 30
0.0
 10
27.00062699681243
 20
264.786436433905
 30
0.0
 10
27.00062699681245
 20
264.7420135499251
 30
0.0
 10
27.00062699681243
 20
264.6934521408197
 30
0.0
 10
27.00062699681245
 20
264.640752259731
 30
0.0
 10
27.00062699681244
 20
264.5879762420362
 30
0.0
 10
27.00062699681244
 20
264.5360966424338
 30
0.0
 10
27.00062699681243
 20
264.4859831652527
 30
0.0
 10
27.00062699681245
 20
264.4333151166313
 30
0.0
 10
27.00062699681243
 20
264.3780925684864
 30
0.0
 10
27.00062699681243
 20
264.3211087366982
 30
0.0
 10
27.00062699681245
 20
264.2628715591997
 30
0.0
 10
27.00062699681245
 20
264.1957334628436
 30
0.0
 10
27.00062699681242
 20
264.1178359771434
 30
0.0
 10
27.00062699681245
 20
264.0275335743561
 30
0.0
 10
27.00062699681243
 20
263.9330396364134
 30
0.0
 10
27.00062699681244
 20
263.8343561184413
 30
0.0
 10
27.00062699681245
 20
263.7320888687107
 30
0.0
 10
27.00062699681243
 20
263.6263504265119
 30
0.0
 10
27.00062699681244
 20
263.5171324502573
 30
0.0
 10
27.00062699681243
 20
263.4041469258672
 30
0.0
 10
27.00062699681244
 20
263.3255038743057
 30
0.0
 10
27.00062699681244
 20
263.2861558665
 30
0.0
  0
LINE
  5
AE
330
1F
100
AcDbEntity
  8
0
  6
Continuous
 62
     7
370
    30
100
AcDbLine
 10
83.0006269968
 20
286.7745500044
 30
0.0
 11
83.0006269968
 21
288.5
 31
0.0
  0
LINE
  5
AF
330
1F
100
AcDbEntity
  8
0
  6
Continuous
 62
     7
370
    30
100
AcDbLine
 10
83.0006269968
 20
213.5
 30
0.0
 11
83.0006269968
 21
286.7745500044
 31
0.0
  0
LINE
  5
B0
330
1F
100
AcDbEntity
  8
0
  6
Continuous
 62
     7
370
    30
100
AcDbLine
 10
75.0006269968
 20
285.8205620043
 30
0.0
 11
75.0006269968
 21
287.5
 31
0.0
  0
LINE
  5
B1
330
1F
100
AcDbEntity
  8
0
  6
Continuous
 62
     7
370
    30
100
AcDbLine
 10
75.0006269968
 20
214.5
 30
0.0
 11
75.0006269968
 21
285.8205620043
 31
0.0
  0
ARC
  5
B2
330
1F
100
AcDbEntity
  8
0
  6
Continuous
 62
     7
370
    30
100
AcDbCircle
 10
200.0
 20
95.0006269968
 30
0.0
 40
1.0
100
AcDbArc
 50
180.0
 51
270.0
  0
ARC
  5
B3
330
1F
100
AcDbEntity
  8
0
  6
Continuous
 62
     7
370
    30
100
AcDbCircle
 10
228.0
 20
95.0006269968
 30
0.0
 40
1.0
100
AcDbArc
 50
270.0
 51
0.0
  0
LINE
  5
B4
330
1F
100
AcDbEntity
  8
0
  6
Continuous
 62
     7
370
    30
100
AcDbLine
 10
199.0
 20
142.0006269968
 30
0.0
 11
199.0
 21
95.0006269968
 31
0.0
  0
LINE
  5
B5
330
1F
100
AcDbEntity
  8
0
  6
Continuous
 62
     7
370
    30
100
AcDbLine
 10
229.0
 20
95.0006269968
 30
0.0
 11
229.0
 21
142.0006269968
 31
0.0
  0
LINE
  5
B6
330
1F
100
AcDbEntity
  8
0
  6
Continuous
 62
     7
370
    30
100
AcDbLine
 10
251.5
 20
143.0006269968
 30
0.0
 11
251.5
 21
150.0006269968
 31
0.0
  0
LINE
  5
B7
330
1F
100
AcDbEntity
  8
0
  6
Continuous
 62
     7
370
    30
100
AcDbLine
 10
176.5
 20
150.0006269968
 30
0.0
 11
176.5
 21
143.0006269968
 31
0.0
  0
ARC
  5
B8
330
1F
100
AcDbEntity
  8
0
  6
Continuous
 62
     7
370
    30
100
AcDbCircle
 10
250.5
 20
143.0006269968
 30
0.0
 40
1.0
100
AcDbArc
 50
270.0
 51
0.0
  0
ARC
  5
B9
330
1F
100
AcDbEntity
  8
0
  6
Continuous
 62
     7
370
    30
100
AcDbCircle
 10
177.5
 20
143.0006269968
 30
0.0
 40
1.0
100
AcDbArc
 50
180.0
 51
270.0
  0
SPLINE
  5
BA
330
1F
100
AcDbEntity
  8
0
  6
Continuous
 62
     7
370
    30
100
AcDbSpline
210
0.0
220
0.0
230
1.0
 70
    24
 71
     3
 72
    78
 73
    74
 74
     0
 42
0.000000001
 43
0.00000001
 40
0.0
 40
0.0
 40
0.0
 40
0.0
 40
0.0178966799613017
 40
0.0357693731750431
 40
0.0536246039957403
 40
0.0714689159320643
 40
0.0893088645074918
 40
0.1071510100550306
 40
0.1176689161031021
 40
0.1281912030461332
 40
0.1387192098143369
 40
0.149254273157081
 40
0.1597977271397359
 40
0.1703509026455974
 40
0.181503485934228
 40
0.1926780083996673
 40
0.2105383516319641
 40
0.2283813536271594
 40
0.2462135547602366
 40
0.2640415072934175
 40
0.2818717681727507
 40
0.2949526480767975
 40
0.3080408760684847
 40
0.3211390296008251
 40
0.3262880453209556
 40
0.3314391454763738
 40
0.336592485505811
 40
0.3417482206454118
 40
0.3469065059150801
 40
0.3520674961049274
 40
0.3697201672709045
 40
0.3873467073091307
 40
0.4049533680050834
 40
0.4225464223369418
 40
0.4401321578434017
 40
0.4577168699138547
 40
0.4680814561077308
 40
0.4784491612057154
 40
0.4888212717890196
 40
0.4991990728003529
 40
0.5095838470701385
 40
0.5199768748466334
 40
0.5303794333308052
 40
0.5407927962167924
 40
0.5588233580442775
 40
0.5768260272732755
 40
0.5948074628786293
 40
0.6127743474443262
 40
0.6307333797977552
 40
0.6486912675536346
 40
0.6656279989929784
 40
0.682575295347286
 40
0.6995387644599435
 40
0.7165239981555542
 40
0.7335365667974735
 40
0.7515671292527306
 40
0.7695697988782014
 40
0.7875512347013294
 40
0.8055181193590876
 40
0.8234771517321195
 40
0.8414350394885489
 40
0.8535319542418869
 40
0.8656334408050986
 40
0.8777415448389685
 40
0.8898583086526188
 40
0.9019857701801566
 40
0.9141259619683194
 40
0.9262809101775955
 40
0.9439335830743824
 40
0.9615601242056487
 40
0.979166785501964
 40
0.9967598400876175
 40
1.0
 40
1.0
 40
1.0
 40
1.0
 10
220.71195754046
 20
94.00062699681244
 30
0.0
 10
220.7901987504611
 20
94.00062699681244
 30
0.0
 10
220.9465763045242
 20
94.00062699681244
 30
0.0
 10
221.1778226874774
 20
94.00062699681243
 30
0.0
 10
221.4063935274061
 20
94.00062699681246
 30
0.0
 10
221.6320667777781
 20
94.00062699681244
 30
0.0
 10
221.8549013657575
 20
94.00062699681244
 30
0.0
 10
222.0447495465027
 20
94.00062699681244
 30
0.0
 10
222.202818681345
 20
94.00062699681244
 30
0.0
 10
222.3301106388267
 20
94.00062699681244
 30
0.0
 10
222.4564126965255
 20
94.00062699681244
 30
0.0
 10
222.5817249710301
 20
94.00062699681244
 30
0.0
 10
222.706047421303
 20
94.00062699681244
 30
0.0
 10
222.8316719761104
 20
94.00062699681244
 30
0.0
 10
222.9585616232139
 20
94.00062699681244
 30
0.0
 10
223.1121224930552
 20
94.00062699681244
 30
0.0
 10
223.2888944975792
 20
94.00062699681243
 30
0.0
 10
223.4873759933542
 20
94.00062699681244
 30
0.0
 10
223.6822667911496
 20
94.00062699681244
 30
0.0
 10
223.8735662045475
 20
94.00062699681243
 30
0.0
 10
224.0445795907648
 20
94.00062699681244
 30
0.0
 10
224.1963358850763
 20
94.00062699681247
 30
0.0
 10
224.3297641348095
 20
94.0006269968124
 30
0.0
 10
224.4346202458553
 20
94.00062699681247
 30
0.0
 10
224.5120641698471
 20
94.00062699681241
 30
0.0
 10
224.5628936712575
 20
94.00062699681247
 30
0.0
 10
224.6134251824877
 20
94.00062699681241
 30
0.0
 10
224.6636587328536
 20
94.00062699681244
 30
0.0
 10
224.7135943252782
 20
94.00062699681244
 30
0.0
 10
224.8032700262809
 20
94.00062699681241
 30
0.0
 10
224.9310413525783
 20
94.00062699681244
 30
0.0
 10
225.0942525961897
 20
94.00062699681244
 30
0.0
 10
225.253336323966
 20
94.00062699681244
 30
0.0
 10
225.4082918627691
 20
94.00062699681243
 30
0.0
 10
225.5591190603473
 20
94.00062699681244
 30
0.0
 10
225.6857286636046
 20
94.00062699681246
 30
0.0
 10
225.7898600075169
 20
94.00062699681244
 30
0.0
 10
225.8729318344712
 20
94.00062699681243
 30
0.0
 10
225.954570337889
 20
94.00062699681247
 30
0.0
 10
226.0347756214699
 20
94.00062699681244
 30
0.0
 10
226.1135476489467
 20
94.00062699681244
 30
0.0
 10
226.1908864458194
 20
94.00062699681244
 30
0.0
 10
226.2667919322872
 20
94.00062699681244
 30
0.0
 10
226.3593933183215
 20
94.00062699681244
 30
0.0
 10
226.4670298950506
 20
94.00062699681244
 30
0.0
 10
226.5875874235973
 20
94.00062699681244
 30
0.0
 10
226.7033355507376
 20
94.00062699681244
 30
0.0
 10
226.8142736800695
 20
94.00062699681243
 30
0.0
 10
226.9204018765907
 20
94.00062699681244
 30
0.0
 10
227.0197894640394
 20
94.00062699681244
 30
0.0
 10
227.1127506142243
 20
94.00062699681244
 30
0.0
 10
227.1995959841703
 20
94.00062699681244
 30
0.0
 10
227.2821655410225
 20
94.00062699681244
 30
0.0
 10
227.3604588623247
 20
94.00062699681244
 30
0.0
 10
227.4359061071503
 20
94.00062699681244
 30
0.0
 10
227.5081076148479
 20
94.00062699681243
 30
0.0
 10
227.576624760821
 20
94.00062699681247
 30
0.0
 10
227.6400267857661
 20
94.00062699681243
 30
0.0
 10
227.6983131565195
 20
94.00062699681246
 30
0.0
 10
227.7514839170309
 20
94.00062699681244
 30
0.0
 10
227.7943069164038
 20
94.00062699681244
 30
0.0
 10
227.8285477001408
 20
94.00062699681244
 30
0.0
 10
227.8557062930103
 20
94.00062699681244
 30
0.0
 10
227.8805451019756
 20
94.00062699681241
 30
0.0
 10
227.9030640291324
 20
94.00062699681244
 30
0.0
 10
227.9232635938407
 20
94.00062699681244
 30
0.0
 10
227.9411418193439
 20
94.00062699681246
 30
0.0
 10
227.9590454209473
 20
94.00062699681244
 30
0.0
 10
227.9755294736946
 20
94.00062699681243
 30
0.0
 10
227.989066903023
 20
94.00062699681247
 30
0.0
 10
227.9971657630144
 20
94.0006269968124
 30
0.0
 10
228.0006503448656
 20
94.0006269968125
 30
0.0
 10
227.9999117858095
 20
94.00062699681243
 30
0.0
 10
227.9997969187809
 20
94.00062699681244
 30
0.0
  0
SPLINE
  5
BB
330
1F
100
AcDbEntity
  8
0
  6
Continuous
 62
     7
370
    30
100
AcDbSpline
210
0.0
220
0.0
230
1.0
 70
    24
 71
     3
 72
   147
 73
   143
 74
     0
 42
0.000000001
 43
0.00000001
 40
0.0
 40
0.0
 40
0.0
 40
0.0
 40
0.0073711712746814
 40
0.0164633057305788
 40
0.0244665586260494
 40
0.0324741397988438
 40
0.0404882625359824
 40
0.0431887826142968
 40
0.0458903789542319
 40
0.0485931355857366
 40
0.0512971364305877
 40
0.0540024652947721
 40
0.0567092058609223
 40
0.0594174416808094
 40
0.0678272502001642
 40
0.0762260046810077
 40
0.0846162351631188
 40
0.0930004794029168
 40
0.1013812805948322
 40
0.1097611850680596
 40
0.1181427399690674
 40
0.1247310954681357
 40
0.1313232746564352
 40
0.137920508610149
 40
0.1445240255784211
 40
0.1511350503084701
 40
0.1574815248287227
 40
0.1637095254909165
 40
0.1724201285183625
 40
0.1811233298828032
 40
0.1898219678414635
 40
0.1985188851194007
 40
0.2072169261287495
 40
0.2157634940450983
 40
0.2243165786584767
 40
0.2328788638916635
 40
0.2414530250273827
 40
0.2507047612453105
 40
0.2599444880716535
 40
0.2691755817452415
 40
0.2784014279829294
 40
0.2876254182798754
 40
0.2968509461780851
 40
0.3022895633348449
 40
0.3077305856387749
 40
0.3131747054785216
 40
0.3186226140617103
 40
0.3240750011550517
 40
0.3295325548271735
 40
0.3352990308926506
 40
0.3410767917294148
 40
0.3503114406352718
 40
0.3595371232948626
 40
0.3687572213938525
 40
0.3779751227641757
 40
0.3871942176595279
 40
0.3939576561737756
 40
0.4007248939996502
 40
0.4074972638032338
 40
0.4101595503992134
 40
0.4128229147476096
 40
0.4154874372176569
 40
0.4181531980738423
 40
0.4208202774688466
 40
0.4234887554365365
 40
0.4326160279837938
 40
0.4417297894922674
 40
0.4508332724330898
 40
0.4599297202350315
 40
0.4690223838553436
 40
0.4781145183104612
 40
0.4834735034828608
 40
0.4888341012773759
 40
0.4941969769178278
 40
0.4995627947808542
 40
0.5049322181509402
 40
0.5103059089774681
 40
0.5156845276342258
 40
0.5210687326818042
 40
0.5303913927164503
 40
0.5396996309479196
 40
0.5489968903836587
 40
0.558286626238167
 40
0.5675723021245574
 40
0.5768573861994105
 40
0.5856144837770705
 40
0.5943770439193938
 40
0.6031479661487534
 40
0.611930141705048
 40
0.6207264507316885
 40
0.6300491110907914
 40
0.6393573495271517
 40
0.6486546090754132
 40
0.6579443449774715
 40
0.6672300208739743
 40
0.676515104949116
 40
0.6827697865719166
 40
0.6890268320383685
 40
0.69528729905262
 40
0.7015522435858501
 40
0.7078227193471464
 40
0.7140997772600696
 40
0.7203844649461856
 40
0.7295117383882539
 40
0.738625500461802
 40
0.7477289837129821
 40
0.7568254316461103
 40
0.7659180952943496
 40
0.7750102297502536
 40
0.7830134826457674
 40
0.7910210638186402
 40
0.7990351865558921
 40
0.8017357066342526
 40
0.8044373029742377
 40
0.8071400596057964
 40
0.8098440604507053
 40
0.8125493893149516
 40
0.8152561298811676
 40
0.8179643657011244
 40
0.8263741742205106
 40
0.8347729287013792
 40
0.8431631591835088
 40
0.8515474034233192
 40
0.859928204615241
 40
0.8683081090884689
 40
0.8766896639894711
 40
0.8832780194885312
 40
0.8898701986768194
 40
0.8964674326305184
 40
0.9030709495987728
 40
0.9096819743288008
 40
0.9160293186252235
 40
0.9222583978090452
 40
0.9309702031135605
 40
0.9396742478486227
 40
0.9483733706289216
 40
0.9570704148885555
 40
0.9657682261001144
 40
0.9743142224077403
 40
0.9828663942814778
 40
0.9914274276218152
 40
1.0
 40
1.0
 40
1.0
 40
1.0
 10
200.0002108276526
 20
94.00062699681244
 30
0.0
 10
200.0003656608036
 20
94.00062699681241
 30
0.0
 10
200.000711476334
 20
94.00062699681241
 30
0.0
 10
200.0069492842682
 20
94.00062699681247
 30
0.0
 10
200.0171560609772
 20
94.00062699681241
 30
0.0
 10
200.0309041266312
 20
94.00062699681244
 30
0.0
 10
200.0445910136689
 20
94.00062699681246
 30
0.0
 10
200.0558350818444
 20
94.00062699681244
 30
0.0
 10
200.0630625813448
 20
94.00062699681244
 30
0.0
 10
200.0707281346283
 20
94.00062699681243
 30
0.0
 10
200.0788316162435
 20
94.00062699681246
 30
0.0
 10
200.0873730342507
 20
94.00062699681244
 30
0.0
 10
200.096352481533
 20
94.00062699681244
 30
0.0
 10
200.1123761959441
 20
94.00062699681246
 30
0.0
 10
200.1371333078536
 20
94.00062699681244
 30
0.0
 10
200.1732792544884
 20
94.00062699681244
 30
0.0
 10
200.2135635661142
 20
94.00062699681244
 30
0.0
 10
200.2579864500941
 20
94.00062699681243
 30
0.0
 10
200.3065478592027
 20
94.00062699681246
 30
0.0
 10
200.3592477402823
 20
94.00062699681243
 30
0.0
 10
200.4120237580113
 20
94.00062699681244
 30
0.0
 10
200.4639033575129
 20
94.00062699681244
 30
0.0
 10
200.5140168350513
 20
94.00062699681244
 30
0.0
 10
200.5666848823355
 20
94.00062699681244
 30
0.0
 10
200.6219074354799
 20
94.00062699681246
 30
0.0
 10
200.6788887151742
 20
94.00062699681244
 30
0.0
 10
200.7371198876874
 20
94.00062699681244
 30
0.0
 10
200.8042486485355
 20
94.00062699681244
 30
0.0
 10
200.8821368029522
 20
94.00062699681244
 30
0.0
 10
200.9724317485035
 20
94.00062699681244
 30
0.0
 10
201.0669210705173
 20
94.00062699681244
 30
0.0
 10
201.1656046639422
 20
94.00062699681247
 30
0.0
 10
201.2678697738802
 20
94.00062699681241
 30
0.0
 10
201.3736290938314
 20
94.00062699681246
 30
0.0
 10
201.4827973528108
 20
94.00062699681244
 30
0.0
 10
201.5960116410303
 20
94.00062699681244
 30
0.0
 10
201.7162922556977
 20
94.00062699681244
 30
0.0
 10
201.8438631882153
 20
94.00062699681243
 30
0.0
 10
201.9789742305967
 20
94.00062699681244
 30
0.0
 10
202.1183575144598
 20
94.00062699681244
 30
0.0
 10
202.2620135278356
 20
94.00062699681244
 30
0.0
 10
202.4099417793051
 20
94.00062699681244
 30
0.0
 10
202.5412935453706
 20
94.00062699681244
 30
0.0
 10
202.6542596387132
 20
94.00062699681244
 30
0.0
 10
202.7474219422052
 20
94.00062699681243
 30
0.0
 10
202.8420674465859
 20
94.00062699681244
 30
0.0
 10
202.9381962252395
 20
94.00062699681244
 30
0.0
 10
203.0358083187079
 20
94.00062699681244
 30
0.0
 10
203.1367377015688
 20
94.00062699681244
 30
0.0
 10
203.2411051294702
 20
94.00062699681244
 30
0.0
 10
203.3704934783487
 20
94.00062699681243
 30
0.0
 10
203.5241877486045
 20
94.00062699681246
 30
0.0
 10
203.7035391731468
 20
94.00062699681244
 30
0.0
 10
203.8865503887762
 20
94.00062699681244
 30
0.0
 10
204.0732207910798
 20
94.00062699681244
 30
0.0
 10
204.2466226370877
 20
94.00062699681244
 30
0.0
 10
204.4056992186698
 20
94.00062699681247
 30
0.0
 10
204.5495552700743
 20
94.00062699681241
 30
0.0
 10
204.665835253862
 20
94.00062699681244
 30
0.0
 10
204.7534181962594
 20
94.00062699681244
 30
0.0
 10
204.8115429214355
 20
94.00062699681244
 30
0.0
 10
204.8699712456486
 20
94.00062699681246
 30
0.0
 10
204.9287031791539
 20
94.00062699681243
 30
0.0
 10
204.9877388002278
 20
94.00062699681244
 30
0.0
 10
205.0949411174187
 20
94.00062699681244
 30
0.0
 10
205.2514951578895
 20
94.00062699681247
 30
0.0
 10
205.4593345503896
 20
94.00062699681241
 30
0.0
 10
205.6699776369752
 20
94.00062699681244
 30
0.0
 10
205.8834239059921
 20
94.00062699681244
 30
0.0
 10
206.0996729967254
 20
94.00062699681244
 30
0.0
 10
206.2887276338293
 20
94.00062699681244
 30
0.0
 10
206.4493904706075
 20
94.00062699681244
 30
0.0
 10
206.5807452626867
 20
94.00062699681244
 30
0.0
 10
206.7130730707327
 20
94.00062699681244
 30
0.0
 10
206.8463740261005
 20
94.00062699681244
 30
0.0
 10
206.9806481020067
 20
94.00062699681244
 30
0.0
 10
207.1158952341269
 20
94.00062699681243
 30
0.0
 10
207.2521156663896
 20
94.00062699681244
 30
0.0
 10
207.4227054629963
 20
94.00062699681244
 30
0.0
 10
207.6283259205235
 20
94.00062699681244
 30
0.0
 10
207.8698097072259
 20
94.00062699681246
 30
0.0
 10
208.1132835541181
 20
94.00062699681243
 30
0.0
 10
208.3587470630617
 20
94.00062699681244
 30
0.0
 10
208.6062001516054
 20
94.00062699681244
 30
0.0
 10
208.850889690349
 20
94.00062699681244
 30
0.0
 10
209.0926812698021
 20
94.00062699681244
 30
0.0
 10
209.3314556800744
 20
94.00062699681244
 30
0.0
 10
209.5719983160684
 20
94.00062699681246
 30
0.0
 10
209.8143093698316
 20
94.00062699681243
 30
0.0
 10
210.0630985675688
 20
94.00062699681244
 30
0.0
 10
210.3181391945678
 20
94.00062699681246
 30
0.0
 10
210.5792026090531
 20
94.00062699681244
 30
0.0
 10
210.8412279434988
 20
94.00062699681244
 30
0.0
 10
211.1042152936035
 20
94.00062699681244
 30
0.0
 10
211.3681641026228
 20
94.00062699681244
 30
0.0
 10
211.6042320599301
 20
94.00062699681244
 30
0.0
 10
211.8120729429883
 20
94.00062699681246
 30
0.0
 10
211.991441960509
 20
94.00062699681244
 30
0.0
 10
212.1712468616714
 20
94.00062699681244
 30
0.0
 10
212.3514878376595
 20
94.00062699681243
 30
0.0
 10
212.5321647645341
 20
94.00062699681244
 30
0.0
 10
212.7132778542222
 20
94.00062699681244
 30
0.0
 10
212.922112919452
 20
94.00062699681244
 30
0.0
 10
213.1585604261794
 20
94.00062699681244
 30
0.0
 10
213.4224820166436
 20
94.00062699681244
 30
0.0
 10
213.6863127469869
 20
94.00062699681244
 30
0.0
 10
213.9500522226128
 20
94.00062699681244
 30
0.0
 10
214.2137002963623
 20
94.00062699681244
 30
0.0
 10
214.4667109919719
 20
94.00062699681244
 30
0.0
 10
214.7090896484692
 20
94.00062699681244
 30
0.0
 10
214.9408633597708
 20
94.00062699681241
 30
0.0
 10
215.121279081847
 20
94.00062699681246
 30
0.0
 10
215.2504411040693
 20
94.00062699681244
 30
0.0
 10
215.3284301397436
 20
94.00062699681244
 30
0.0
 10
215.4064110955876
 20
94.00062699681244
 30
0.0
 10
215.4843840387095
 20
94.00062699681246
 30
0.0
 10
215.5623489369395
 20
94.00062699681244
 30
0.0
 10
215.6403058505667
 20
94.00062699681246
 30
0.0
 10
215.7729399436053
 20
94.00062699681244
 30
0.0
 10
215.9599224915935
 20
94.00062699681241
 30
0.0
 10
216.200749547212
 20
94.00062699681244
 30
0.0
 10
216.4406690678473
 20
94.00062699681244
 30
0.0
 10
216.6796802960658
 20
94.00062699681244
 30
0.0
 10
216.9177833991342
 20
94.00062699681244
 30
0.0
 10
217.1549780633339
 20
94.00062699681244
 30
0.0
 10
217.3743763838685
 20
94.00062699681246
 30
0.0
 10
217.5761897735808
 20
94.00062699681244
 30
0.0
 10
217.7606348632247
 20
94.00062699681243
 30
0.0
 10
217.9445191011686
 20
94.00062699681246
 30
0.0
 10
218.1278426248628
 20
94.00062699681244
 30
0.0
 10
218.3080951711002
 20
94.00062699681244
 30
0.0
 10
218.4841388694298
 20
94.00062699681244
 30
0.0
 10
218.6786030188373
 20
94.00062699681244
 30
0.0
 10
218.8934254193774
 20
94.00062699681244
 30
0.0
 10
219.129096990879
 20
94.00062699681244
 30
0.0
 10
219.362965834022
 20
94.00062699681244
 30
0.0
 10
219.5950325655401
 20
94.00062699681244
 30
0.0
 10
219.8239220912963
 20
94.00062699681244
 30
0.0
 10
220.0496848041952
 20
94.00062699681246
 30
0.0
 10
220.2723090492306
 20
94.00062699681244
 30
0.0
 10
220.4933442458567
 20
94.00062699681244
 30
0.0
 10
220.6390537317425
 20
94.00062699681244
 30
0.0
 10
220.71195754046
 20
94.00062699681244
 30
0.0
  0
LINE
  5
BC
330
1F
100
AcDbEntity
  8
0
  6
Continuous
 62
     7
370
    30
100
AcDbLine
 10
225.2441794712
 20
150.0006269968
 30
0.0
 11
176.5
 21
150.0006269968
 31
0.0
  0
LINE
  5
BD
330
1F
100
AcDbEntity
  8
0
  6
Continuous
 62
     7
370
    30
100
AcDbLine
 10
251.5
 20
150.0006269968
 30
0.0
 11
225.2441794712
 21
150.0006269968
 31
0.0
  0
LINE
  5
BE
330
1F
100
AcDbEntity
  8
0
  6
Continuous
 62
     7
370
    30
100
AcDbLine
 10
224.9443346853
 20
142.0006269968
 30
0.0
 11
177.5
 21
142.0006269968
 31
0.0
  0
LINE
  5
BF
330
1F
100
AcDbEntity
  8
0
  6
Continuous
 62
     7
370
    30
100
AcDbLine
 10
250.5
 20
142.0006269968
 30
0.0
 11
224.9443346853
 21
142.0006269968
 31
0.0
  0
LINE
  5
C0
330
1F
100
AcDbEntity
  8
0
  6
Continuous
 62
     7
370
    30
100
AcDbLine
 10
349.3080551983
 20
76.5878051401
 30
0.0
 11
349.3080551983
 21
79.4350852762
 31
0.0
  0
LINE
  5
C1
330
1F
100
AcDbEntity
  8
0
  6
Continuous
 62
     7
370
    30
100
AcDbLine
 10
328.3305551983
 20
72.7265626271
 30
0.0
 11
328.3305551983
 21
70.6138875481
 31
0.0
  0
LINE
  5
C2
330
1F
100
AcDbEntity
  8
0
  6
Continuous
 62
     7
370
    30
100
AcDbLine
 10
349.2855551983
 20
70.6138875481
 30
0.0
 11
349.2855551983
 21
76.1911980832
 31
0.0
  0
SPLINE
  5
C3
330
1F
100
AcDbEntity
  8
0
  6
Continuous
 62
     7
370
    30
100
AcDbSpline
210
0.0
220
0.0
230
1.0
 70
     8
 71
     3
 72
   159
 73
   155
 74
     0
 42
0.000000001
 43
0.00000001
 40
0.0
 40
0.0
 40
0.0
 40
0.0
 40
0.0028360532687523
 40
0.0091432885752091
 40
0.0154535677447113
 40
0.0217674713899846
 40
0.0280855873732325
 40
0.0344084986273364
 40
0.0407367812249016
 40
0.0470710024565299
 40
0.0534117189231691
 40
0.0597594746494491
 40
0.0661147992245355
 40
0.0724782059785032
 40
0.0788501902018451
 40
0.0852312274163797
 40
0.0916217717067671
 40
0.0980222541213154
 40
0.1044330811521255
 40
0.1108546333037666
 40
0.1172872637612146
 40
0.1237312971664022
 40
0.1301870285138079
 40
0.1366547221746121
 40
0.1431346110589334
 40
0.1496268959246712
 40
0.1561317448411746
 40
0.1626492928147666
 40
0.1691796415818879
 40
0.175722859574518
 40
0.1822789820609629
 40
0.1888480114633897
 40
0.1954299178518258
 40
0.2020246396121403
 40
0.2086320842844689
 40
0.2152521295653108
 40
0.2218846244657601
 40
0.2285293906161495
 40
0.2351862237052009
 40
0.2418548950409416
 40
0.2485351532188895
 40
0.2552267258815992
 40
0.2619293215535177
 40
0.268642631533931
 40
0.2753663318301466
 40
0.282100085114198
 40
0.2888435426851022
 40
0.2955963464205151
 40
0.3023581307014295
 40
0.3091285242953996
 40
0.315907152184113
 40
0.3226936373232929
 40
0.3294876023237465
 40
0.3362886710445452
 40
0.3430964700903882
 40
0.3499106302070349
 40
0.356730787570629
 40
0.3635565849678284
 40
0.3703876728650634
 40
0.3772237103674722
 40
0.3840643660681944
 40
0.3909093187904819
 40
0.3977582582260277
 40
0.4046108854739767
 40
0.4114669134845638
 40
0.4183260674141423
 40
0.4251880848962157
 40
0.4320527162356084
 40
0.4389197245315896
 40
0.445788885736757
 40
0.4526599886579128
 40
0.4595328349055599
 40
0.4664072387980991
 40
0.4732830272268647
 40
0.4801600394880352
 40
0.4870381270864932
 40
0.493917148023226
 40
0.5007969399935256
 40
0.5076773922846515
 40
0.5145584057576165
 40
0.5214398921583855
 40
0.5283217738482678
 40
0.5352039835424492
 40
0.542086464055212
 40
0.5489691680548058
 40
0.5558520578304889
 40
0.5627351050745927
 40
0.5696182906814896
 40
0.5765016045662837
 40
0.5833850455049477
 40
0.5902686209984462
 40
0.5971523471628031
 40
0.604036248647383
 40
0.6109203585836622
 40
0.6178047185671613
 40
0.6246893786747011
 40
0.6315743975203313
 40
0.6384598423528901
 40
0.6453457891986797
 40
0.652232323053605
 40
0.6591195381288611
 40
0.6660075381561028
 40
0.6728964367574825
 40
0.6797863578880265
 40
0.6866774363584502
 40
0.6935698184478282
 40
0.7004636626173621
 40
0.7073591403384195
 40
0.7142564370503675
 40
0.7211557532663656
 40
0.7280573058492786
 40
0.734961329483363
 40
0.7418680783730791
 40
0.7487778282067149
 40
0.7556908784299896
 40
0.7626075548846835
 40
0.7695282128801936
 40
0.7764532407802792
 40
0.7833830642078338
 40
0.7903181509948868
 40
0.7972590170380586
 40
0.8042062332610534
 40
0.8111604339414951
 40
0.8181223267326256
 40
0.82509270480844
 40
0.8320724616938229
 40
0.8390626095245433
 40
0.8460643017349965
 40
0.8530788615320204
 40
0.8601078180264188
 40
0.8664211858843587
 40
0.8727333261874186
 40
0.8790436221167001
 40
0.8853518928719935
 40
0.8916579115449755
 40
0.8979613915032909
 40
0.9042619669357066
 40
0.9105591651682071
 40
0.9168523663432169
 40
0.9231407431204932
 40
0.9294231677212356
 40
0.9356980634893579
 40
0.9419631578307331
 40
0.9482150501835435
 40
0.9544484098334549
 40
0.9606543712761282
 40
0.9668170040400873
 40
0.9729045000770463
 40
0.9788428797582115
 40
0.9844116377199471
 40
0.9889769535091189
 40
0.9928038860456239
 40
0.9974968111109136
 40
1.0
 40
1.0
 40
1.0
 40
1.0
 10
321.4094420609535
 20
97.96940777229331
 30
0.0
 10
321.3970490873755
 20
97.96230531755891
 30
0.0
 10
321.3570947836337
 20
97.9394073720427
 30
0.0
 10
321.2904222426759
 20
97.8992313427816
 30
0.0
 10
321.2093964381416
 20
97.84893426369848
 30
0.0
 10
321.1292078071054
 20
97.79716019446181
 30
0.0
 10
321.0498060956199
 20
97.7440124914763
 30
0.0
 10
320.9712149328342
 20
97.68946645842945
 30
0.0
 10
320.8934382424765
 20
97.63353170956555
 30
0.0
 10
320.8164853679045
 20
97.57620864697779
 30
0.0
 10
320.740364343329
 20
97.51750015416692
 30
0.0
 10
320.6650837086126
 20
97.4574084793488
 30
0.0
 10
320.5906520305466
 20
97.39593609376554
 30
0.0
 10
320.5170780380805
 20
97.33308548489136
 30
0.0
 10
320.4443705912558
 20
97.26885923684793
 30
0.0
 10
320.3725386931594
 20
97.20326003498865
 30
0.0
 10
320.3015914886408
 20
97.13629069195055
 30
0.0
 10
320.2315382648222
 20
97.06795416889439
 30
0.0
 10
320.1623884493057
 20
96.99825359881092
 30
0.0
 10
320.0941516071151
 20
96.92719230984801
 30
0.0
 10
320.0268374360518
 20
96.85477384899357
 30
0.0
 10
319.9604557605115
 20
96.78100200579196
 30
0.0
 10
319.8950165237295
 20
96.70588083593319
 30
0.0
 10
319.8305297784582
 20
96.62941468449738
 30
0.0
 10
319.7670056760858
 20
96.5516082086416
 30
0.0
 10
319.7044544542297
 20
96.47246639950794
 30
0.0
 10
319.6428864228454
 20
96.39199460312929
 30
0.0
 10
319.582311948919
 20
96.31019854011114
 30
0.0
 10
319.5227414398216
 20
96.22708432387124
 30
0.0
 10
319.4641853254296
 20
96.1426584772287
 30
0.0
 10
319.4066540391283
 20
96.05692794714498
 30
0.0
 10
319.3501579978343
 20
95.96990011743591
 30
0.0
 10
319.2947075811938
 20
95.8815828192948
 30
0.0
 10
319.2403131101208
 20
95.79198433948802
 30
0.0
 10
319.1869848248577
 20
95.7011134261138
 30
0.0
 10
319.1347328627491
 20
95.60897929184193
 30
0.0
 10
319.0835672359272
 20
95.51559161458562
 30
0.0
 10
319.0334978091103
 20
95.42096053558811
 30
0.0
 10
318.9845342777185
 20
95.32509665494162
 30
0.0
 10
318.9366861465066
 20
95.22801102458983
 30
0.0
 10
318.8899627089099
 20
95.12971513889809
 30
0.0
 10
318.8443730272859
 20
95.03022092290716
 30
0.0
 10
318.7999259142268
 20
94.92954071841491
 30
0.0
 10
318.7566299150978
 20
94.82768726805836
 30
0.0
 10
318.7144932919404
 20
94.72467369758908
 30
0.0
 10
318.673524008861
 20
94.62051349655728
 30
0.0
 10
318.6337297189989
 20
94.51522049762973
 30
0.0
 10
318.5951177531508
 20
94.40880885478211
 30
0.0
 10
318.5576951101
 20
94.30129302060747
 30
0.0
 10
318.5214684486802
 20
94.19268772298672
 30
0.0
 10
318.486444081576
 20
94.08300794136157
 30
0.0
 10
318.4526279708464
 20
93.97226888284536
 30
0.0
 10
318.4200257251298
 20
93.86048595839341
 30
0.0
 10
318.3886425984779
 20
93.74767475924291
 30
0.0
 10
318.3584834907442
 20
93.63385103381442
 30
0.0
 10
318.3295529494404
 20
93.51903066524892
 30
0.0
 10
318.3018551729626
 20
93.40322964973252
 30
0.0
 10
318.2753940150791
 20
93.28646407574199
 30
0.0
 10
318.2501729905642
 20
93.16875010431949
 30
0.0
 10
318.2261952818598
 20
93.05010395046607
 30
0.0
 10
318.2034637466417
 20
92.9305418657193
 30
0.0
 10
318.1819809261697
 20
92.81008012196355
 30
0.0
 10
318.1617490543008
 20
92.68873499649695
 30
0.0
 10
318.1427700670491
 20
92.56652275836775
 30
0.0
 10
318.1250456125795
 20
92.44345965596912
 30
0.0
 10
318.1085770615312
 20
92.31956190587569
 30
0.0
 10
318.0933655175686
 20
92.19484568288208
 30
0.0
 10
318.0794118280726
 20
92.06932711120335
 30
0.0
 10
318.0667165948852
 20
91.94302225677852
 30
0.0
 10
318.0552801850345
 20
91.81594712061879
 30
0.0
 10
318.0451027413748
 20
91.68811763313077
 30
0.0
 10
318.0361841930814
 20
91.55954964934412
 30
0.0
 10
318.0285242659541
 20
91.43025894496792
 30
0.0
 10
318.0221224924862
 20
91.30026121319912
 30
0.0
 10
318.016978221666
 20
91.16957206220603
 30
0.0
 10
318.0130906295215
 20
91.03820704818834
 30
0.0
 10
318.0104587305647
 20
90.90618188002364
 30
0.0
 10
318.0090813714373
 20
90.77351216690641
 30
0.0
 10
318.0089572408047
 20
90.64021337913675
 30
0.0
 10
318.0100848850456
 20
90.50630063754464
 30
0.0
 10
318.0124627213019
 20
90.37178897062176
 30
0.0
 10
318.0160890449636
 20
90.23669331755447
 30
0.0
 10
318.0209620368123
 20
90.10102852862578
 30
0.0
 10
318.0270797698682
 20
89.96480936562172
 30
0.0
 10
318.0344402159629
 20
89.82805050221718
 30
0.0
 10
318.0430412520578
 20
89.69076652428576
 30
0.0
 10
318.0528806663356
 20
89.5529719300856
 30
0.0
 10
318.0639561640905
 20
89.41468113026869
 30
0.0
 10
318.0762653734477
 20
89.27590844766837
 30
0.0
 10
318.0898058509443
 20
89.13666811681499
 30
0.0
 10
318.1045750870057
 20
88.99697428313353
 30
0.0
 10
318.1205705113528
 20
88.85684100177475
 30
0.0
 10
318.1377894983797
 20
88.7162822360314
 30
0.0
 10
318.1562293725435
 20
88.57531185528703
 30
0.0
 10
318.1758874138088
 20
88.43394363244532
 30
0.0
 10
318.1967608631956
 20
88.29219124078107
 30
0.0
 10
318.2188469284808
 20
88.15006825015163
 30
0.0
 10
318.2421427901089
 20
88.00758812249991
 30
0.0
 10
318.2666456073716
 20
87.86476420657303
 30
0.0
 10
318.292352524923
 20
87.72160973177387
 30
0.0
 10
318.3192606797028
 20
87.57813780104705
 30
0.0
 10
318.3473672083491
 20
87.43436138269428
 30
0.0
 10
318.376669255191
 20
87.29029330099198
 30
0.0
 10
318.4071639809239
 20
87.14594622547068
 30
0.0
 10
318.438848572083
 20
87.00133265868922
 30
0.0
 10
318.4717202514485
 20
86.85646492231228
 30
0.0
 10
318.5057762895328
 20
86.71135514126746
 30
0.0
 10
318.5410140173287
 20
86.56601522571783
 30
0.0
 10
318.5774308405191
 20
86.42045685054092
 30
0.0
 10
318.6150242553909
 20
86.27469143194644
 30
0.0
 10
318.6537918667321
 20
86.12873010079909
 30
0.0
 10
318.6937314080455
 20
85.98258367212608
 30
0.0
 10
318.7348407644728
 20
85.83626261018718
 30
0.0
 10
318.7771179989051
 20
85.68977698835758
 30
0.0
 10
318.8205613818436
 20
85.54313644291737
 30
0.0
 10
318.8651694257043
 20
85.39635011964337
 30
0.0
 10
318.9109409244004
 20
85.24942661185436
 30
0.0
 10
318.957874999232
 20
85.10237388824608
 30
0.0
 10
319.0059711523492
 20
84.95519920846144
 30
0.0
 10
319.0552293293641
 20
84.80790902382559
 30
0.0
 10
319.1056499930827
 20
84.66050886002651
 30
0.0
 10
319.1572342108457
 20
84.513003177653
 30
0.0
 10
319.209983758637
 20
84.36539520540398
 30
0.0
 10
319.2639012460597
 20
84.21768673917518
 30
0.0
 10
319.3189902673258
 20
84.06987789860891
 30
0.0
 10
319.3752555856656
 20
83.92196682846411
 30
0.0
 10
319.4327033584781
 20
83.77394933393131
 30
0.0
 10
319.4913414224544
 20
83.62581841299233
 30
0.0
 10
319.551179629544
 20
83.477563719009
 30
0.0
 10
319.6101119209616
 20
83.33431985759243
 30
0.0
 10
319.6679683488599
 20
83.1961827819579
 30
0.0
 10
319.7245769795846
 20
83.06325857360545
 30
0.0
 10
319.7820321048397
 20
82.930544602051
 30
0.0
 10
319.8403242723415
 20
82.79806040668393
 30
0.0
 10
319.8994448187945
 20
82.66582317625435
 30
0.0
 10
319.9593843045382
 20
82.53385131950104
 30
0.0
 10
320.0201322760977
 20
82.4021648789539
 30
0.0
 10
320.0816769305636
 20
82.27078611353463
 30
0.0
 10
320.1440046219168
 20
82.13974035788576
 30
0.0
 10
320.2070991170552
 20
82.0090573188581
 30
0.0
 10
320.2709404369118
 20
81.87877309772367
 30
0.0
 10
320.335502981614
 20
81.74893346595977
 30
0.0
 10
320.4007523565134
 20
81.61959941753692
 30
0.0
 10
320.4666396964064
 20
81.49085711208406
 30
0.0
 10
320.5330907957045
 20
81.3628369370401
 30
0.0
 10
320.5999834099069
 20
81.23575339447751
 30
0.0
 10
320.6670939568473
 20
81.10999882244325
 30
0.0
 10
320.7339502328248
 20
80.98640322778965
 30
0.0
 10
320.7993002028788
 20
80.86717239860683
 30
0.0
 10
320.8595836202547
 20
80.75855376124125
 30
0.0
 10
320.9123912941261
 20
80.66443708447233
 30
0.0
 10
320.962233964574
 20
80.57641272375996
 30
0.0
 10
321.0044976650623
 20
80.50241213535617
 30
0.0
 10
321.0322788196237
 20
80.45421145220362
 30
0.0
 10
321.0419425739591
 20
80.43744470625174
 30
0.0
  0
SPLINE
  5
C4
330
1F
100
AcDbEntity
  8
0
  6
Continuous
 62
     7
370
    30
100
AcDbSpline
210
0.0
220
0.0
230
1.0
 70
     8
 71
     3
 72
   164
 73
   160
 74
     0
 42
0.000000001
 43
0.00000001
 40
0.0
 40
0.0
 40
0.0
 40
0.0
 40
0.0066712513812842
 40
0.0094364198446771
 40
0.0140208431236758
 40
0.0187930654705806
 40
0.0239211988088225
 40
0.0292803129914363
 40
0.0348199037365262
 40
0.0404997093451334
 40
0.0462911327868397
 40
0.052173018249583
 40
0.058129424316758
 40
0.0641481043905312
 40
0.0702194863132983
 40
0.0763359707807104
 40
0.0824914396665021
 40
0.0886809049875437
 40
0.0949002538819115
 40
0.1011460603202626
 40
0.1074154439950337
 40
0.1137059630984567
 40
0.1200155318091484
 40
0.1263423560435591
 40
0.1326848828851668
 40
0.1390417603780991
 40
0.1454118052630924
 40
0.1517939768626439
 40
0.1581873557725018
 40
0.1645911263448403
 40
0.1710045621867629
 40
0.1774270140763881
 40
0.1838578998308881
 40
0.1902966957619236
 40
0.196742929430145
 40
0.2031961734689933
 40
0.2096560402943864
 40
0.2161221775513401
 40
0.2225942641777076
 40
0.2290720069861431
 40
0.2355551376841746
 40
0.2420434102651676
 40
0.2485365987156504
 40
0.2550344949922635
 40
0.2615369072302258
 40
0.2680436581508905
 40
0.2745545836406195
 40
0.2810695314782452
 40
0.2875883601910665
 40
0.2941109380223901
 40
0.3006371419963974
 40
0.3071668570676066
 40
0.313699975344127
 40
0.3202363953756393
 40
0.3267760214974222
 40
0.3333187632238658
 40
0.3398645346848512
 40
0.346413254099736
 40
0.3529648432840171
 40
0.3595192271844541
 40
0.3660763334387336
 40
0.3726360919567627
 40
0.3791984345199699
 40
0.3857632943966794
 40
0.3923306059704846
 40
0.3989003043801515
 40
0.4054723251688752
 40
0.4120466039411508
 40
0.418623076026323
 40
0.4252016761466778
 40
0.4317823380900032
 40
0.4383649943849197
 40
0.4449495759785166
 40
0.4515360119157677
 40
0.4581242290199495
 40
0.4647141515743634
 40
0.4713057010044681
 40
0.4778987955611558
 40
0.4844933500048745
 40
0.4910892752913842
 40
0.4976864782592648
 40
0.5042848613205652
 40
0.5108843221547844
 40
0.5174847534081962
 40
0.5240860423991087
 40
0.5306880496442565
 40
0.5372906307604451
 40
0.5438936528761426
 40
0.5504969764647643
 40
0.5571004552948984
 40
0.5637039362219894
 40
0.5703072590060204
 40
0.5769102561567881
 40
0.5835127528103532
 40
0.5901145666405665
 40
0.59671550780981
 40
0.6033153789628257
 40
0.6099139752683692
 40
0.6165110845125651
 40
0.623106487248497
 40
0.6296999570065411
 40
0.6362912605690473
 40
0.642880158313925
 40
0.6494664046303927
 40
0.6560497484101968
 40
0.6626299336173553
 40
0.6692066999383738
 40
0.6757797835147415
 40
0.6823489177582791
 40
0.6889138342497007
 40
0.6954742637188384
 40
0.7020299371052675
 40
0.7085805866956817
 40
0.7151259473342607
 40
0.7216657577007778
 40
0.728199761649525
 40
0.7347277096023767
 40
0.7412493599866513
 40
0.7477644807084199
 40
0.7542728506508172
 40
0.7607742611860563
 40
0.7672685176886247
 40
0.7737554410380405
 40
0.7802348690974287
 40
0.7867066581556081
 40
0.7931706843194479
 40
0.7996268448436317
 40
0.8060750593862003
 40
0.8125152711773777
 40
0.8189474480916814
 40
0.8253715836128452
 40
0.8317876976830878
 40
0.838195837428873
 40
0.8445960777571337
 40
0.8509885218167187
 40
0.857373301321362
 40
0.8637505767321819
 40
0.870120537298302
 40
0.8764834009562341
 40
0.8828394140891973
 40
0.8891888511489823
 40
0.8955320141439111
 40
0.9018692319972123
 40
0.908200859780841
 40
0.9145272778305634
 40
0.9208488907481629
 40
0.9271661262976802
 40
0.9334794342020089
 40
0.9397892848470015
 40
0.9460961678997021
 40
0.9524005908478308
 40
0.958703077467
 40
0.9650041662223933
 40
0.9713044086111611
 40
0.9776043674520162
 40
0.9839046151275179
 40
0.9902057317852982
 40
0.9965083035035052
 40
1.0
 40
1.0
 40
1.0
 40
1.0
 10
321.0419425739591
 20
80.43744470625174
 30
0.0
 10
321.0678030922525
 20
80.39282046257428
 30
0.0
 10
321.1043825425041
 20
80.3296999062461
 30
0.0
 10
321.1592838299007
 20
80.2362421237149
 30
0.0
 10
321.2069988554996
 20
80.15559541631336
 30
0.0
 10
321.2644312136089
 20
80.05948847651179
 30
0.0
 10
321.3253841820689
 20
79.95853092658201
 30
0.0
 10
321.3899009754527
 20
79.852827316525
 30
0.0
 10
321.4571689862815
 20
79.74384803604327
 30
0.0
 10
321.5267465196133
 20
79.63241872071877
 30
0.0
 10
321.5982978128847
 20
79.51916467979734
 30
0.0
 10
321.6715768761126
 20
79.40454638499223
 30
0.0
 10
321.7463976332842
 20
79.28891327009515
 30
0.0
 10
321.8226163548631
 20
79.17253607225524
 30
0.0
 10
321.9001196866834
 20
79.05562880408998
 30
0.0
 10
321.9788165019029
 20
78.93836376969898
 30
0.0
 10
322.0586322276648
 20
78.82088204293409
 30
0.0
 10
322.1395048230375
 20
78.7033009189931
 30
0.0
 10
322.2213818760925
 20
78.58571930858677
 30
0.0
 10
322.3042184741221
 20
78.46822170810398
 30
0.0
 10
322.387975617077
 20
78.35088116677767
 30
0.0
 10
322.4726190189934
 20
78.23376153577416
 30
0.0
 10
322.5581181907613
 20
78.11691919528269
 30
0.0
 10
322.6444457298084
 20
78.00040439671932
 30
0.0
 10
322.7315767639708
 20
77.88426231738721
 30
0.0
 10
322.8194885116698
 20
77.76853389767028
 30
0.0
 10
322.9081599308157
 20
77.65325651188459
 30
0.0
 10
322.9975714361176
 20
77.53846451054628
 30
0.0
 10
323.0877046696496
 20
77.42418966226067
 30
0.0
 10
323.1785423132577
 20
77.3104615165365
 30
0.0
 10
323.2700679341227
 20
77.19730770376887
 30
0.0
 10
323.3622658568012
 20
77.08475418490413
 30
0.0
 10
323.4551210565754
 20
76.97282546050401
 30
0.0
 10
323.5486190700655
 20
76.86154474682039
 30
0.0
 10
323.6427459199215
 20
76.75093412489042
 30
0.0
 10
323.7374880510692
 20
76.64101466742918
 30
0.0
 10
323.8328322764876
 20
76.53180654734807
 30
0.0
 10
323.9287657308975
 20
76.42332913097954
 30
0.0
 10
324.0252758310444
 20
76.31560105851315
 30
0.0
 10
324.1223502415069
 20
76.20864031367844
 30
0.0
 10
324.2199768451532
 20
76.10246428435298
 30
0.0
 10
324.318143717526
 20
75.99708981546988
 30
0.0
 10
324.416839104557
 20
75.8925332553731
 30
0.0
 10
324.5160514031156
 20
75.78881049656864
 30
0.0
 10
324.6157691439766
 20
75.6859370116702
 30
0.0
 10
324.7159809768584
 20
75.58392788520695
 30
0.0
 10
324.8166756572385
 20
75.48279784185729
 30
0.0
 10
324.9178420346955
 20
75.38256127158633
 30
0.0
 10
325.019469042569
 20
75.28323225209225
 30
0.0
 10
325.1215456887532
 20
75.1848245689074
 30
0.0
 10
325.224061047471
 20
75.08735173344995
 30
0.0
 10
325.3270042518935
 20
74.99082699927945
 30
0.0
 10
325.4303644874909
 20
74.89526337677438
 30
0.0
 10
325.5341309860112
 20
74.80067364642015
 30
0.0
 10
325.6382930200028
 20
74.70707037086981
 30
0.0
 10
325.7428398978001
 20
74.61446590591828
 30
0.0
 10
325.8477609589083
 20
74.52287241051184
 30
0.0
 10
325.9530455697246
 20
74.43230185589935
 30
0.0
 10
326.0586831195451
 20
74.34276603401688
 30
0.0
 10
326.1646630168081
 20
74.25427656518654
 30
0.0
 10
326.2709746855343
 20
74.16684490519815
 30
0.0
 10
326.3776075619233
 20
74.08048235183485
 30
0.0
 10
326.4845510910762
 20
73.99520005089391
 30
0.0
 10
326.5917947238094
 20
73.91100900174966
 30
0.0
 10
326.6993279135363
 20
73.82792006249592
 30
0.0
 10
326.8071401131885
 20
73.74594395470172
 30
0.0
 10
326.9152207721565
 20
73.66509126780866
 30
0.0
 10
327.0235593332292
 20
73.5853724631921
 30
0.0
 10
327.1321452295123
 20
73.50679787790841
 30
0.0
 10
327.2409678813125
 20
73.42937772814004
 30
0.0
 10
327.3500166929695
 20
73.35312211235426
 30
0.0
 10
327.4592810496277
 20
73.27804101418155
 30
0.0
 10
327.5687503139327
 20
73.20414430502115
 30
0.0
 10
327.6784138226449
 20
73.1314417463772
 30
0.0
 10
327.7882608831663
 20
73.05994299192415
 30
0.0
 10
327.8982807699705
 20
72.98965758930187
 30
0.0
 10
328.0084627209378
 20
72.92059498163466
 30
0.0
 10
328.1187959335895
 20
72.85276450876954
 30
0.0
 10
328.229269561228
 20
72.78617540822418
 30
0.0
 10
328.3398727089814
 20
72.72083681583658
 30
0.0
 10
328.4505944297635
 20
72.65675776610267
 30
0.0
 10
328.561423720154
 20
72.59394719219219
 30
0.0
 10
328.6723495162151
 20
72.53241392562514
 30
0.0
 10
328.7833606892538
 20
72.4721666955981
 30
0.0
 10
328.8944459227096
 20
72.4132141910106
 30
0.0
 10
329.0055937131331
 20
72.35556504845006
 30
0.0
 10
329.1167924650115
 20
72.2992277926233
 30
0.0
 10
329.2280306043868
 20
72.24421077697835
 30
0.0
 10
329.3392965690536
 20
72.19052219046966
 30
0.0
 10
329.4505787050697
 20
72.13817010587748
 30
0.0
 10
329.5618652640093
 20
72.087162475578
 30
0.0
 10
329.673144399434
 20
72.03750712734528
 30
0.0
 10
329.7844041636375
 20
71.98921175966763
 30
0.0
 10
329.8956325047037
 20
71.94228393657914
 30
0.0
 10
330.0068172639341
 20
71.89673108200489
 30
0.0
 10
330.1179461737012
 20
71.85256047362354
 30
0.0
 10
330.2290068557872
 20
71.80977923625498
 30
0.0
 10
330.3399868202683
 20
71.76839433478663
 30
0.0
 10
330.4508734650072
 20
71.72841256665838
 30
0.0
 10
330.561654075814
 20
71.68984055393116
 30
0.0
 10
330.672315827338
 20
71.65268473497383
 30
0.0
 10
330.7828457847472
 20
71.616951355807
 30
0.0
 10
330.893230906253
 20
71.582646461154
 30
0.0
 10
331.0034580465303
 20
71.54977588525408
 30
0.0
 10
331.1135139610782
 20
71.5183452425028
 30
0.0
 10
331.2233853115599
 20
71.48835991799251
 30
0.0
 10
331.3330586721542
 20
71.45982505803255
 30
0.0
 10
331.4425205369344
 20
71.43274556073764
 30
0.0
 10
331.5517573282886
 20
71.40712606677899
 30
0.0
 10
331.6607554063736
 20
71.38297095039864
 30
0.0
 10
331.7695010795896
 20
71.36028431079286
 30
0.0
 10
331.8779806160412
 20
71.33906996397407
 30
0.0
 10
331.9861802559404
 20
71.31933143522275
 30
0.0
 10
332.0940862248894
 20
71.30107195224184
 30
0.0
 10
332.2016847479636
 20
71.28429443912498
 30
0.0
 10
332.3089620645034
 20
71.26900151124676
 30
0.0
 10
332.4159044435056
 20
71.25519547117798
 30
0.0
 10
332.5224981994907
 20
71.2428783057224
 30
0.0
 10
332.6287297087117
 20
71.23205168416135
 30
0.0
 10
332.734585425558
 20
71.22271695778318
 30
0.0
 10
332.8400518989948
 20
71.21487516075939
 30
0.0
 10
332.94511578888
 20
71.20852701241684
 30
0.0
 10
333.0497638819858
 20
71.20367292093819
 30
0.0
 10
333.1539831075592
 20
71.20031298850557
 30
0.0
 10
333.2577605522524
 20
71.19844701788625
 30
0.0
 10
333.3610834742574
 20
71.19807452043727
 30
0.0
 10
333.4639393164921
 20
71.19919472549243
 30
0.0
 10
333.5663157186847
 20
71.2018065910715
 30
0.0
 10
333.6682005282293
 20
71.205908815839
 30
0.0
 10
333.7695818096865
 20
71.21149985222023
 30
0.0
 10
333.8704478528308
 20
71.21857792056876
 30
0.0
 10
333.9707871791583
 20
71.22714102426625
 30
0.0
 10
334.0705885467912
 20
71.23718696562365
 30
0.0
 10
334.1698409537341
 20
71.24871336244465
 30
0.0
 10
334.2685336394612
 20
71.26171766510383
 30
0.0
 10
334.3666560848286
 20
71.27619717398923
 30
0.0
 10
334.464198010331
 20
71.29214905715428
 30
0.0
 10
334.5611493727401
 20
71.30957036802724
 30
0.0
 10
334.6575003601763
 20
71.32845806302394
 30
0.0
 10
334.7532413856857
 20
71.34880901891815
 30
0.0
 10
334.8483630794058
 20
71.37062004982505
 30
0.0
 10
334.942856279417
 20
71.39388792366361
 30
0.0
 10
335.0367120213829
 20
71.41860937797104
 30
0.0
 10
335.1299215271025
 20
71.44478113494435
 30
0.0
 10
335.2224761920701
 20
71.47239991562901
 30
0.0
 10
335.3143675722357
 20
71.50146245304528
 30
0.0
 10
335.4055873698478
 20
71.53196550457945
 30
0.0
 10
335.4961274193996
 20
71.56390586200895
 30
0.0
 10
335.5859796704588
 20
71.5972803648831
 30
0.0
 10
335.6751361799643
 20
71.6320858956037
 30
0.0
 10
335.7635890676311
 20
71.66831943669838
 30
0.0
 10
335.8513306079039
 20
71.70597788982704
 30
0.0
 10
335.9383528120085
 20
71.74505877712242
 30
0.0
 10
336.0246489123278
 20
71.78555764403508
 30
0.0
 10
336.1102077490228
 20
71.8274777631569
 30
0.0
 10
336.1950346450945
 20
71.87079392607308
 30
0.0
 10
336.2790734190829
 20
71.91558758696898
 30
0.0
 10
336.3500867469551
 20
71.95470584205756
 30
0.0
 10
336.3927660784424
 20
71.9794413364003
 30
0.0
 10
336.4079814338891
 20
71.98825964084554
 30
0.0
  0
LINE
  5
C5
330
1F
100
AcDbEntity
  8
0
  6
Continuous
 62
     7
370
    30
100
AcDbLine
 10
354.6431884827
 20
117.1550699966
 30
0.0
 11
321.4091697669
 21
97.9694793687
 31
0.0
  0
LINE
  5
C6
330
1F
100
AcDbEntity
  8
0
  6
Continuous
 62
     7
370
    30
100
AcDbLine
 10
336.4079507564
 20
71.9880134973
 30
0.0
 11
369.6419694722
 21
91.1736041252
 31
0.0
  0
SPLINE
  5
C7
330
1F
100
AcDbEntity
  8
0
  6
Continuous
 62
     7
370
    30
100
AcDbSpline
210
0.0
220
0.0
230
1.0
 70
     8
 71
     3
 72
   184
 73
   180
 74
     0
 42
0.000000001
 43
0.00000001
 40
0.0
 40
0.0
 40
0.0
 40
0.0
 40
0.0032747851910404
 40
0.0088271764464992
 40
0.014379620934168
 40
0.0199322281502165
 40
0.0254851072500291
 40
0.0310383668356896
 40
0.0365921147456107
 40
0.0421464578461728
 40
0.0477015018270346
 40
0.0532573509996526
 40
0.0588141081004011
 40
0.0643718740985354
 40
0.0699307480097538
 40
0.0754908267157547
 40
0.0810522047904869
 40
0.0866149743333968
 40
0.092179224810517
 40
0.097745042903419
 40
0.1033125123666979
 40
0.1088817138944017
 40
0.114452724995629
 40
0.1200256198796774
 40
0.1256004693510512
 40
0.1311773407145238
 40
0.1367562976903768
 40
0.1423374003403399
 40
0.1479207050035709
 40
0.1535062642438512
 40
0.1590941268067425
 40
0.1646843375882239
 40
0.1702769376128498
 40
0.1758719640233261
 40
0.1814694500799973
 40
0.1870694251702293
 40
0.1926719148283512
 40
0.198276940764698
 40
0.2038845209043285
 40
0.2094946694347471
 40
0.2151073968622683
 40
0.220722710076672
 40
0.2263406124237511
 40
0.2319611037854713
 40
0.2375841806667455
 40
0.2432098362890507
 40
0.248838060689809
 40
0.2544688408273663
 40
0.2601021606909308
 40
0.2657380014148395
 40
0.2713763413968023
 40
0.2770171564195469
 40
0.2826604197752829
 40
0.2883061023922815
 40
0.2939541729635988
 40
0.299604598076722
 40
0.3052573423443722
 40
0.3109123685353937
 40
0.3165696377054213
 40
0.322229109327264
 40
0.3278907414200085
 40
0.3335544906769319
 40
0.3392203125914011
 40
0.3448881615809393
 40
0.3505579911086221
 40
0.3562297538018141
 40
0.3619034015679863
 40
0.3675788857070231
 40
0.3732561570204315
 40
0.3789351659164411
 40
0.3846158625118067
 40
0.3902981967290262
 40
0.3959821183900543
 40
0.401667577305502
 40
0.4073545233596558
 40
0.4130429065912737
 40
0.4187326772700344
 40
0.4244237859686217
 40
0.4301161836305632
 40
0.435809821633821
 40
0.4415046518500521
 40
0.4472006266997118
 40
0.4528976992031984
 40
0.4585958230277292
 40
0.4642949525306341
 40
0.469995042798407
 40
0.475696049682527
 40
0.481397929831324
 40
0.4871006407185633
 40
0.492804140668663
 40
0.4985083888787685
 40
0.5042133454376978
 40
0.5099189713419614
 40
0.5156252285092277
 40
0.521332079788802
 40
0.527039488969854
 40
0.5327474207872281
 40
0.5384558409251466
 40
0.5441647160185332
 40
0.5498740136527694
 40
0.5555837023613927
 40
0.5612937516220676
 40
0.5670041318512818
 40
0.5727148143972213
 40
0.5784257715316086
 40
0.5841369764401511
 40
0.5898484032120356
 40
0.5955600268282022
 40
0.601271823148842
 40
0.6069837689001734
 40
0.6126958416601136
 40
0.6184080198439197
 40
0.6241202826886486
 40
0.6298326102373455
 40
0.635544983323185
 40
0.6412573835525822
 40
0.6469697913995098
 40
0.6526821863819959
 40
0.6583945525623368
 40
0.6641068747018846
 40
0.6698191382437373
 40
0.6755313292951187
 40
0.6812434346100751
 40
0.6869554415720841
 40
0.6926673381767344
 40
0.6983791130144311
 40
0.7040907552536465
 40
0.7098022546237837
 40
0.7155136013987538
 40
0.721224786380314
 40
0.726935800882138
 40
0.7326466367135467
 40
0.7383572861641347
 40
0.7440677419882157
 40
0.749777997389653
 40
0.7554880460071284
 40
0.7611978818996294
 40
0.7669074995322549
 40
0.7726168937622212
 40
0.7783260598253877
 40
0.7840349933231006
 40
0.7897436902090207
 40
0.7954521467767942
 40
0.8011603596476128
 40
0.8068683257584152
 40
0.8125760423500774
 40
0.8182835069563446
 40
0.8239907173926685
 40
0.8296976717455904
 40
0.8354043683625217
 40
0.8411108058414557
 40
0.8468169830215165
 40
0.8525228989732757
 40
0.8582285529897677
 40
0.863933944577522
 40
0.869639073448125
 40
0.8753439395097806
 40
0.881048542859419
 40
0.8867528837748903
 40
0.8924569627073844
 40
0.8981607802744145
 40
0.9038643372525987
 40
0.9095676345710464
 40
0.9152706733048256
 40
0.9209734546686734
 40
0.9266759800109371
 40
0.9323782508077557
 40
0.9380802686574873
 40
0.9437820352751222
 40
0.9494835524873109
 40
0.9551848222271594
 40
0.9608858465294748
 40
0.9665866275261464
 40
0.9722871674415884
 40
0.9779874685885687
 40
0.9836875333639561
 40
0.9893873642448405
 40
0.9950869637847101
 40
1.0
 40
1.0
 40
1.0
 40
1.0
 10
344.0778742602349
 20
137.0356464096334
 30
0.0
 10
344.0531639006766
 20
137.0213390799883
 30
0.0
 10
343.986557179578
 20
136.9827737036696
 30
0.0
 10
343.8789513478615
 20
136.9184054546629
 30
0.0
 10
343.7549790730158
 20
136.8426932566548
 30
0.0
 10
343.6318596200018
 20
136.7655410381122
 30
0.0
 10
343.5095518635606
 20
136.6870305229323
 30
0.0
 10
343.3880725927365
 20
136.6071433910348
 30
0.0
 10
343.2674230769239
 20
136.5258881485246
 30
0.0
 10
343.1476087466619
 20
136.4432661335018
 30
0.0
 10
343.0286339224107
 20
136.3592806286685
 30
0.0
 10
342.9105032296685
 20
136.2739344225256
 30
0.0
 10
342.7932212220384
 20
136.1872304663472
 30
0.0
 10
342.6767924843188
 20
136.0991717016765
 30
0.0
 10
342.5612216067114
 20
136.0097611102694
 30
0.0
 10
342.4465131933243
 20
135.9190017045525
 30
0.0
 10
342.3326718612336
 20
135.8268965341371
 30
0.0
 10
342.2197022418185
 20
135.7334486881246
 30
0.0
 10
342.1076089812259
 20
135.6386612986164
 30
0.0
 10
341.9963967408066
 20
135.5425375439563
 30
0.0
 10
341.8860701972944
 20
135.4450806520836
 30
0.0
 10
341.7766340427891
 20
135.3462939038729
 30
0.0
 10
341.6680929845294
 20
135.2461806364756
 30
0.0
 10
341.5604517444597
 20
135.1447442466396
 30
0.0
 10
341.4537150585955
 20
135.0419881939932
 30
0.0
 10
341.3478876761893
 20
134.9379160042788
 30
0.0
 10
341.2429743587012
 20
134.8325312725202
 30
0.0
 10
341.1389798785847
 20
134.7258376661115
 30
0.0
 10
341.0359090178858
 20
134.6178389278109
 30
0.0
 10
340.9337665666739
 20
134.5085388786307
 30
0.0
 10
340.832557321299
 20
134.3979414206028
 30
0.0
 10
340.7322860824988
 20
134.286050539419
 30
0.0
 10
340.6329576533518
 20
134.172870306924
 30
0.0
 10
340.5345768370965
 20
134.058404883459
 30
0.0
 10
340.4371484348213
 20
133.9426585200418
 30
0.0
 10
340.340677243039
 20
133.8256355603766
 30
0.0
 10
340.2451680511576
 20
133.7073404426877
 30
0.0
 10
340.1506256388568
 20
133.5877777013668
 30
0.0
 10
340.0570547733856
 20
133.4669519684328
 30
0.0
 10
339.964460206791
 20
133.3448679747966
 30
0.0
 10
339.8728466730913
 20
133.2215305513297
 30
0.0
 10
339.7822188854066
 20
133.0969446297345
 30
0.0
 10
339.6925815330588
 20
132.9711152432136
 30
0.0
 10
339.6039392786527
 20
132.8440475269396
 30
0.0
 10
339.5162967551517
 20
132.7157467183261
 30
0.0
 10
339.42965856296
 20
132.5862181571032
 30
0.0
 10
339.344029267021
 20
132.4554672851982
 30
0.0
 10
339.2594133939461
 20
132.3234996464276
 30
0.0
 10
339.1758154291824
 20
132.1903208860041
 30
0.0
 10
339.0932398142303
 20
132.055936749866
 30
0.0
 10
339.0116909439214
 20
131.9203530838341
 30
0.0
 10
338.9311731637652
 20
131.7835758326024
 30
0.0
 10
338.8516907673731
 20
131.6456110385743
 30
0.0
 10
338.7732479939683
 20
131.5064648405484
 30
0.0
 10
338.6958490259889
 20
131.3661434722678
 30
0.0
 10
338.6194979867885
 20
131.2246532608347
 30
0.0
 10
338.5441989384432
 20
131.082000625009
 30
0.0
 10
338.4699558796676
 20
130.9381920733937
 30
0.0
 10
338.3967727438463
 20
130.7932342025228
 30
0.0
 10
338.3246533971827
 20
130.6471336948577
 30
0.0
 10
338.2536016369675
 20
130.4998973167043
 30
0.0
 10
338.1836211899721
 20
130.3515319160624
 30
0.0
 10
338.1147157109643
 20
130.2020444204146
 30
0.0
 10
338.0468887813504
 20
130.0514418344683
 30
0.0
 10
337.9801439079421
 20
129.8997312378578
 30
0.0
 10
337.914484521847
 20
129.7469197828175
 30
0.0
 10
337.8499139774852
 20
129.5930146918367
 30
0.0
 10
337.7864355517249
 20
129.4380232553011
 30
0.0
 10
337.7240524431404
 20
129.2819528291365
 30
0.0
 10
337.6627677713851
 20
129.1248108324528
 30
0.0
 10
337.6025845766811
 20
128.9666047452087
 30
0.0
 10
337.5435058194176
 20
128.8073421058913
 30
0.0
 10
337.4855343798572
 20
128.6470305092288
 30
0.0
 10
337.4286730579451
 20
128.4856776039336
 30
0.0
 10
337.3729245732171
 20
128.3232910904879
 30
0.0
 10
337.3182915648012
 20
128.1598787189742
 30
0.0
 10
337.2647765915096
 20
127.995448286955
 30
0.0
 10
337.2123821320145
 20
127.8300076374085
 30
0.0
 10
337.1611105851028
 20
127.6635646567202
 30
0.0
 10
337.1109642700075
 20
127.4961272727379
 30
0.0
 10
337.0619454268063
 20
127.3277034528891
 30
0.0
 10
337.0140562168861
 20
127.1583012023664
 30
0.0
 10
336.9672987234662
 20
126.9879285623806
 30
0.0
 10
336.921674952176
 20
126.8165936084819
 30
0.0
 10
336.8771868316824
 20
126.6443044489549
 30
0.0
 10
336.8338362143618
 20
126.4710692232818
 30
0.0
 10
336.7916248770114
 20
126.2968961006796
 30
0.0
 10
336.7505545215965
 20
126.1217932787068
 30
0.0
 10
336.7106267760288
 20
125.9457689819436
 30
0.0
 10
336.6718431949711
 20
125.7688314607403
 30
0.0
 10
336.634205260664
 20
125.5909889900368
 30
0.0
 10
336.5977143837728
 20
125.4122498682504
 30
0.0
 10
336.5623719042473
 20
125.2326224162291
 30
0.0
 10
336.5281790921952
 20
125.0521149762728
 30
0.0
 10
336.4951371487616
 20
124.870735911216
 30
0.0
 10
336.463247207015
 20
124.6884936035752
 30
0.0
 10
336.4325103328342
 20
124.5053964547524
 30
0.0
 10
336.4029275257953
 20
124.3214528842998
 30
0.0
 10
336.374499720055
 20
124.1366713292373
 30
0.0
 10
336.3472277852285
 20
123.9510602434255
 30
0.0
 10
336.3211125272593
 20
123.7646280969887
 30
0.0
 10
336.29615468928
 20
123.5773833757862
 30
0.0
 10
336.2723549524613
 20
123.3893345809311
 30
0.0
 10
336.2497139368472
 20
123.2004902283505
 30
0.0
 10
336.228232202177
 20
123.0108588483908
 30
0.0
 10
336.20791024869
 20
122.8204489854578
 30
0.0
 10
336.188748517915
 20
122.6292691976969
 30
0.0
 10
336.1707473934395
 20
122.4373280567065
 30
0.0
 10
336.1539072016625
 20
122.244634147283
 30
0.0
 10
336.1382282125268
 20
122.0511960671979
 30
0.0
 10
336.1237106402303
 20
121.8570224269984
 30
0.0
 10
336.1103546439186
 20
121.6621218498384
 30
0.0
 10
336.0981603283552
 20
121.4665029713299
 30
0.0
 10
336.0871277445708
 20
121.2701744394168
 30
0.0
 10
336.0772568904924
 20
121.0731449142694
 30
0.0
 10
336.0685477125089
 20
120.8754230899889
 30
0.0
 10
336.0610001061
 20
120.6770177145806
 30
0.0
 10
336.0546139136393
 20
120.4779375462596
 30
0.0
 10
336.0493889246448
 20
120.2781913312606
 30
0.0
 10
336.045324876863
 20
120.077787783477
 30
0.0
 10
336.0424214584505
 20
119.8767356287596
 30
0.0
 10
336.0406783084484
 20
119.6750436049049
 30
0.0
 10
336.040095017237
 20
119.4727204616528
 30
0.0
 10
336.0406711269715
 20
119.2697749606862
 30
0.0
 10
336.0424061319965
 20
119.0662158756388
 30
0.0
 10
336.0452994792441
 20
118.8620519921023
 30
0.0
 10
336.0493505686116
 20
118.6572921076387
 30
0.0
 10
336.0545587533229
 20
118.4519450317891
 30
0.0
 10
336.0609233402713
 20
118.2460195860889
 30
0.0
 10
336.0684435903469
 20
118.0395246040759
 30
0.0
 10
336.0771187187468
 20
117.8324689313024
 30
0.0
 10
336.0869478952702
 20
117.62486142534
 30
0.0
 10
336.097930244598
 20
117.4167109557863
 30
0.0
 10
336.1100648465591
 20
117.2080264042637
 30
0.0
 10
336.123350736381
 20
116.998816664419
 30
0.0
 10
336.1377869049286
 20
116.7890906419152
 30
0.0
 10
336.1533722989295
 20
116.5788572544177
 30
0.0
 10
336.1701058211875
 20
116.3681254315788
 30
0.0
 10
336.1879863307838
 20
116.1569041150137
 30
0.0
 10
336.2070126432682
 20
115.9452022582709
 30
0.0
 10
336.2271835308385
 20
115.7330288267972
 30
0.0
 10
336.2484977225113
 20
115.5203927978948
 30
0.0
 10
336.2709539042815
 20
115.3073031606741
 30
0.0
 10
336.2945507192751
 20
115.0937689159951
 30
0.0
 10
336.3192867678914
 20
114.8797990764067
 30
0.0
 10
336.3451606079382
 20
114.6654026660749
 30
0.0
 10
336.3721707547602
 20
114.4505887207061
 30
0.0
 10
336.4003156813586
 20
114.2353662874616
 30
0.0
 10
336.4295938185056
 20
114.0197444248644
 30
0.0
 10
336.4600035548521
 20
113.8037322027
 30
0.0
 10
336.4915432370299
 20
113.5873387019067
 30
0.0
 10
336.5242111697484
 20
113.3705730144621
 30
0.0
 10
336.5580056158864
 20
113.1534442432577
 30
0.0
 10
336.5929247965793
 20
112.9359615019707
 30
0.0
 10
336.6289668913026
 20
112.7181339149236
 30
0.0
 10
336.6661300379507
 20
112.4999706169396
 30
0.0
 10
336.704412332913
 20
112.2814807531883
 30
0.0
 10
336.7438118311467
 20
112.0626734790261
 30
0.0
 10
336.7843265462461
 20
111.8435579598278
 30
0.0
 10
336.8259544505106
 20
111.6241433708113
 30
0.0
 10
336.868693475009
 20
111.4044388968562
 30
0.0
 10
336.9125415096433
 20
111.184453732313
 30
0.0
 10
336.9574964032101
 20
110.9641970808085
 30
0.0
 10
337.0035559634586
 20
110.7436781550423
 30
0.0
 10
337.0507179571574
 20
110.5229061765763
 30
0.0
 10
337.0989801101223
 20
110.3018903756224
 30
0.0
 10
337.1483401073848
 20
110.0806399908063
 30
0.0
 10
337.198795592836
 20
109.8591642689881
 30
0.0
 10
337.2503441708176
 20
109.6374724648467
 30
0.0
 10
337.3029834004552
 20
109.4155738413091
 30
0.0
 10
337.3567108170677
 20
109.1934776668063
 30
0.0
 10
337.4115238525405
 20
108.9711932243346
 30
0.0
 10
337.4674201327427
 20
108.748729776444
 30
0.0
 10
337.524396367892
 20
108.526096694668
 30
0.0
 10
337.5824524937794
 20
108.3033029752592
 30
0.0
 10
337.6415762177518
 20
108.080359045104
 30
0.0
 10
337.7018006905919
 20
107.8572700210683
 30
0.0
 10
337.7601753626332
 20
107.6443257402508
 30
0.0
 10
337.7989986367911
 20
107.5056845690377
 30
0.0
 10
337.8169715660741
 20
107.4415017297493
 30
0.0
  0
SPLINE
  5
C8
330
1F
100
AcDbEntity
  8
0
  6
Continuous
 62
     7
370
    30
100
AcDbSpline
210
0.0
220
0.0
230
1.0
 70
     8
 71
     3
 72
   185
 73
   181
 74
     0
 42
0.000000001
 43
0.00000001
 40
0.0
 40
0.0
 40
0.0
 40
0.0
 40
0.0011704654607311
 40
0.006869977421288
 40
0.0125697198096492
 40
0.0182696953944022
 40
0.0239699068775342
 40
0.0296703568908638
 40
0.0353710479926117
 40
0.0410719826636032
 40
0.0467731633033328
 40
0.0524745922261196
 40
0.0581762716567682
 40
0.0638782037261356
 40
0.0695803904668037
 40
0.075282833808173
 40
0.0809855355716934
 40
0.0866884974655428
 40
0.0923917210795684
 40
0.0980952078796518
 40
0.1037989592020862
 40
0.1095029762474208
 40
0.115207260074636
 40
0.1209118115944503
 40
0.1266166315629499
 40
0.1323217205746099
 40
0.1380270790551726
 40
0.1437327072543993
 40
0.1494386052383357
 40
0.1551447728814781
 40
0.1608512098587019
 40
0.1665579156367179
 40
0.1722648894654842
 40
0.1779721303690667
 40
0.1836796371364745
 40
0.1893874083120557
 40
0.1950954421854832
 40
0.200803736781787
 40
0.2065122898506393
 40
0.2122210988556413
 40
0.2179301609631205
 40
0.2236394730306125
 40
0.2293490315952789
 40
0.2350588328615644
 40
0.2407688726887943
 40
0.2464791465785117
 40
0.2521896496612569
 40
0.2579003766831113
 40
0.2636113219920587
 40
0.269322479523767
 40
0.2750338427872103
 40
0.2807454048501409
 40
0.2864571583237538
 40
0.2921690953475614
 40
0.2978812075737401
 40
0.3035934861511956
 40
0.3093059217095211
 40
0.3150185043424051
 40
0.320731223591109
 40
0.3264440684276266
 40
0.3321570272374995
 40
0.3378700878026855
 40
0.3435832372842063
 40
0.349296462204554
 40
0.3550097484301956
 40
0.360723081153875
 40
0.3664364448769735
 40
0.3721498233364555
 40
0.3778631938485859
 40
0.3835765384838418
 40
0.3892898385460337
 40
0.3950030745551423
 40
0.4007162262307962
 40
0.4064292724756671
 40
0.4121421913599445
 40
0.4178549601058231
 40
0.4235675550726945
 40
0.4292799517433076
 40
0.4349921247100195
 40
0.440704047662721
 40
0.4464156933769273
 40
0.4521270337035335
 40
0.4578380395592306
 40
0.4635486809184171
 40
0.4692589268065894
 40
0.4749687452948979
 40
0.4806781034965292
 40
0.4863869675647389
 40
0.4920953026929212
 40
0.497803073116281
 40
0.5035102421160909
 40
0.5092167720258889
 40
0.5149226242402497
 40
0.5206277592259999
 40
0.5263321365362499
 40
0.5320357148271113
 40
0.5377384518775677
 40
0.5434403046122457
 40
0.5491412291275597
 40
0.5548411807214509
 40
0.560540113926155
 40
0.5662379825451046
 40
0.5719347396933177
 40
0.5776303378418699
 40
0.5833247288660665
 40
0.5890178640980595
 40
0.5947096943833697
 40
0.6004001701416702
 40
0.6060892414319937
 40
0.6117768580222329
 40
0.6174629694629094
 40
0.6231475251654256
 40
0.628830474484631
 40
0.6345117668057624
 40
0.6401913516356119
 40
0.6458691786978925
 40
0.6515451980328577
 40
0.6572193601006638
 40
0.6628916158888117
 40
0.6685619170230842
 40
0.6742302158820273
 40
0.6798964657146672
 40
0.6855606207611424
 40
0.6912226363760977
 40
0.6968824691545108
 40
0.702540077059463
 40
0.7081954195516162
 40
0.7138484577201082
 40
0.7194991544142886
 40
0.7251474743757456
 40
0.730793384370702
 40
0.7364368533216301
 40
0.7420778524379747
 40
0.7477163553455739
 40
0.7533523382139069
 40
0.7589857798809185
 40
0.7646166619747337
 40
0.7702449690320038
 40
0.7758706886117672
 40
0.7814938114048723
 40
0.7871143313382452
 40
0.7927322456731749
 40
0.7983475550975988
 40
0.8039602638114797
 40
0.8095703796049879
 40
0.8151779139289826
 40
0.8207828819573995
 40
0.8263853026409274
 40
0.831985198751874
 40
0.8375825969197537
 40
0.8431775276571003
 40
0.8487700253756282
 40
0.854360128391899
 40
0.859947878923083
 40
0.8655333230717841
 40
0.8711165108005307
 40
0.8766974958953947
 40
0.882276335918897
 40
0.8878530921522331
 40
0.8934278295267825
 40
0.8990006165449705
 40
0.9045715251908144
 40
0.9101406308300113
 40
0.9157080121002525
 40
0.9212737507915144
 40
0.9268379317171161
 40
0.9324006425753641
 40
0.9379619738028225
 40
0.9435220184189405
 40
0.9490808718629666
 40
0.9546386318234312
 40
0.9601953980607819
 40
0.9657512722235119
 40
0.9713063576586738
 40
0.9768607592170025
 40
0.9824145830536212
 40
0.9879679364244757
 40
0.9935209274797072
 40
0.9990736650538315
 40
1.0
 40
1.0
 40
1.0
 40
1.0
 10
352.8157722017652
 20
81.46004719980986
 30
0.0
 10
352.8268563779279
 20
81.44865688863182
 30
0.0
 10
352.8919142908066
 20
81.38180213448484
 30
0.0
 10
353.0113651496556
 20
81.26044532243192
 30
0.0
 10
353.1741398881838
 20
81.09603320862524
 30
0.0
 10
353.3373696456612
 20
80.93270146827739
 30
0.0
 10
353.5010007171466
 20
80.77034881020536
 30
0.0
 10
353.6650390017302
 20
80.60901125471217
 30
0.0
 10
353.8294744079383
 20
80.44868797921889
 30
0.0
 10
353.9943011107768
 20
80.28938798543425
 30
0.0
 10
354.1595121238082
 20
80.1311175939047
 30
0.0
 10
354.3251007539209
 20
79.97388379481943
 30
0.0
 10
354.4910602117647
 20
79.81769334987996
 30
0.0
 10
354.6573837164004
 20
79.66255303274552
 30
0.0
 10
354.8240644675107
 20
79.50846956438275
 30
0.0
 10
354.991095653096
 20
79.35544963017335
 30
0.0
 10
355.1584704476523
 20
79.20349987512087
 30
0.0
 10
355.3261820128959
 20
79.05262690492724
 30
0.0
 10
355.4942234977966
 20
78.90283728550183
 30
0.0
 10
355.662588038793
 20
78.75413754289232
 30
0.0
 10
355.8312687599472
 20
78.60653416310944
 30
0.0
 10
356.0002587731115
 20
78.46003359198065
 30
0.0
 10
356.1695511780812
 20
78.31464223500213
 30
0.0
 10
356.3391390627471
 20
78.17036645719105
 30
0.0
 10
356.5090155032358
 20
78.02721258294382
 30
0.0
 10
356.6791735640467
 20
77.88518689589388
 30
0.0
 10
356.8496062981803
 20
77.7442956387727
 30
0.0
 10
357.0203067472588
 20
77.60454501327297
 30
0.0
 10
357.1912679416396
 20
77.46594117991216
 30
0.0
 10
357.3624829005216
 20
77.32849025789862
 30
0.0
 10
357.5339446320421
 20
77.19219832499805
 30
0.0
 10
357.7056461333669
 20
77.05707141740083
 30
0.0
 10
357.8775803907692
 20
76.92311552959183
 30
0.0
 10
358.0497403797021
 20
76.79033661421812
 30
0.0
 10
358.2221190648611
 20
76.6587405819588
 30
0.0
 10
358.3947094002364
 20
76.52833330139352
 30
0.0
 10
358.5675043291578
 20
76.39912059887043
 30
0.0
 10
358.7404967843277
 20
76.2711082583741
 30
0.0
 10
358.9136796878455
 20
76.14430202139097
 30
0.0
 10
359.0870459512205
 20
76.01870758677454
 30
0.0
 10
359.2605884753748
 20
75.89433061060818
 30
0.0
 10
359.4343001506369
 20
75.77117670606407
 30
0.0
 10
359.608173856723
 20
75.64925144326043
 30
0.0
 10
359.7822024627083
 20
75.52856034911521
 30
0.0
 10
359.956378826986
 20
75.4091089071956
 30
0.0
 10
360.1306957972168
 20
75.29090255756282
 30
0.0
 10
360.3051462102656
 20
75.17394669661236
 30
0.0
 10
360.4797228921277
 20
75.05824667690803
 30
0.0
 10
360.6544186578424
 20
74.94380780701034
 30
0.0
 10
360.8292263113965
 20
74.83063535129749
 30
0.0
 10
361.0041386456163
 20
74.71873452977815
 30
0.0
 10
361.1791484420466
 20
74.60811051789749
 30
0.0
 10
361.3542484708196
 20
74.49876844633275
 30
0.0
 10
361.5294314905109
 20
74.39071340078071
 30
0.0
 10
361.7046902479862
 20
74.28395042173283
 30
0.0
 10
361.8800174782361
 20
74.17848450423956
 30
0.0
 10
362.0554059041996
 20
74.07432059766342
 30
0.0
 10
362.2308482365773
 20
73.97146360541804
 30
0.0
 10
362.406337173634
 20
73.86991838469379
 30
0.0
 10
362.5818654009923
 20
73.76968974616851
 30
0.0
 10
362.7574255914157
 20
73.6707824537022
 30
0.0
 10
362.9330104045827
 20
73.57320122401565
 30
0.0
 10
363.1086124868538
 20
73.47695072635062
 30
0.0
 10
363.2842244710291
 20
73.38203558211207
 30
0.0
 10
363.4598389760985
 20
73.2884603644908
 30
0.0
 10
363.635448606987
 20
73.19622959806509
 30
0.0
 10
363.8110459537249
 20
73.10534775867501
 30
0.0
 10
363.986623532854
 20
73.01581930269812
 30
0.0
 10
364.1621738435201
 20
72.92764863579542
 30
0.0
 10
364.3376893677507
 20
72.84084011204432
 30
0.0
 10
364.5131626284262
 20
72.75539800564235
 30
0.0
 10
364.6885861326359
 20
72.67132653910272
 30
0.0
 10
364.8639523714091
 20
72.58862988267545
 30
0.0
 10
365.0392538194553
 20
72.50731215373746
 30
0.0
 10
365.2144829349082
 20
72.42737741615427
 30
0.0
 10
365.389632159078
 20
72.3488296796096
 30
0.0
 10
365.5646939162134
 20
72.27167289890424
 30
0.0
 10
365.7396606132709
 20
72.19591097322362
 30
0.0
 10
365.914524639704
 20
72.1215477453706
 30
0.0
 10
366.0892783672591
 20
72.04858700096723
 30
0.0
 10
366.2639141497988
 20
71.97703246761964
 30
0.0
 10
366.4384243231373
 20
71.90688781405099
 30
0.0
 10
366.6128012049027
 20
71.83815664919832
 30
0.0
 10
366.7870370944244
 20
71.7708425212743
 30
0.0
 10
366.9611242726482
 20
71.7049489167942
 30
0.0
 10
367.1350550020833
 20
71.64047925956729
 30
0.0
 10
367.3088215267811
 20
71.57743690965407
 30
0.0
 10
367.4824160723545
 20
71.51582516228775
 30
0.0
 10
367.6558308460353
 20
71.4556472467625
 30
0.0
 10
367.8290580367763
 20
71.3969063252875
 30
0.0
 10
368.0020898153986
 20
71.33960549180954
 30
0.0
 10
368.1749183347914
 20
71.28374777080265
 30
0.0
 10
368.3475357301629
 20
71.22933611602905
 30
0.0
 10
368.51993411935
 20
71.17637340927071
 30
0.0
 10
368.6921056031866
 20
71.12486245903425
 30
0.0
 10
368.8640422659369
 20
71.07480599923113
 30
0.0
 10
369.0357361757945
 20
71.02620668783577
 30
0.0
 10
369.2071793854512
 20
70.97906710552348
 30
0.0
 10
369.3783639327411
 20
70.93338975429157
 30
0.0
 10
369.5492818413589
 20
70.88917705606667
 30
0.0
 10
369.7199251216585
 20
70.84643135130173
 30
0.0
 10
369.8902857715326
 20
70.80515489756672
 30
0.0
 10
370.0603557773788
 20
70.76534986813627
 30
0.0
 10
370.2301271151504
 20
70.7270183505797
 30
0.0
 10
370.3995917514974
 20
70.69016234535697
 30
0.0
 10
370.5687416449985
 20
70.65478376442668
 30
0.0
 10
370.7375687474844
 20
70.62088442986999
 30
0.0
 10
370.9060650054551
 20
70.58846607253716
 30
0.0
 10
371.0742223615917
 20
70.5575303307217
 30
0.0
 10
371.2420327563628
 20
70.52807874886824
 30
0.0
 10
371.4094881297255
 20
70.50011277632035
 30
0.0
 10
371.5765804229192
 20
70.47363376611534
 30
0.0
 10
371.7433015803545
 20
70.44864297383127
 30
0.0
 10
371.9096435515919
 20
70.42514155649411
 30
0.0
 10
372.0755982934107
 20
70.4031305715515
 30
0.0
 10
372.2411577719643
 20
70.3826109759196
 30
0.0
 10
372.4063139650185
 20
70.3635836251108
 30
0.0
 10
372.571058864271
 20
70.3460492724483
 30
0.0
 10
372.7353844777439
 20
70.33000856837522
 30
0.0
 10
372.899282832248
 20
70.31546205986491
 30
0.0
 10
373.0627459759105
 20
70.30241018993834
 30
0.0
 10
373.2257659807608
 20
70.29085329729645
 30
0.0
 10
373.3883349453681
 20
70.28079161607226
 30
0.0
 10
373.5504449975215
 20
70.27222527570953
 30
0.0
 10
373.7120882969475
 20
70.26515430097321
 30
0.0
 10
373.8732570380515
 20
70.259578612097
 30
0.0
 10
374.0339434526791
 20
70.25549802507236
 30
0.0
 10
374.1941398128844
 20
70.25291225208355
 30
0.0
 10
374.3538384336966
 20
70.25182090209198
 30
0.0
 10
374.5130316758732
 20
70.25222348157293
 30
0.0
 10
374.6717119486298
 20
70.25411939540719
 30
0.0
 10
374.8298717123361
 20
70.25750794792835
 30
0.0
 10
374.9875034811634
 20
70.26238834412815
 30
0.0
 10
375.1445998256765
 20
70.2687596910178
 30
0.0
 10
375.3011533753552
 20
70.2766209991468
 30
0.0
 10
375.4571568210343
 20
70.28597118427521
 30
0.0
 10
375.6126029172518
 20
70.29680906919938
 30
0.0
 10
375.7674844844921
 20
70.30913338572545
 30
0.0
 10
375.9217944113146
 20
70.32294277678777
 30
0.0
 10
376.0755256563546
 20
70.33823579870688
 30
0.0
 10
376.2286712501879
 20
70.35501092358008
 30
0.0
 10
376.3812242970492
 20
70.37326654179907
 30
0.0
 10
376.5331779763914
 20
70.39300096468551
 30
0.0
 10
376.6845255442822
 20
70.41421242723683
 30
0.0
 10
376.8352603346241
 20
70.43689909097242
 30
0.0
 10
376.985375760195
 20
70.4610590468701
 30
0.0
 10
377.1348653134995
 20
70.48669031838217
 30
0.0
 10
377.283722567426
 20
70.51379086451931
 30
0.0
 10
377.431941175705
 20
70.54235858299015
 30
0.0
 10
377.5795148731654
 20
70.57239131338424
 30
0.0
 10
377.726437475784
 20
70.60388684038537
 30
0.0
 10
377.8727028805266
 20
70.63684289700065
 30
0.0
 10
378.0183050649821
 20
70.67125716779336
 30
0.0
 10
378.1632380867863
 20
70.70712729210382
 30
0.0
 10
378.30749608284
 20
70.74445086724565
 30
0.0
 10
378.4510732683208
 20
70.7832254516615
 30
0.0
 10
378.5939639354938
 20
70.82344856802555
 30
0.0
 10
378.736162452326
 20
70.86511770627801
 30
0.0
 10
378.8776632609081
 20
70.90823032657728
 30
0.0
 10
379.0184608756917
 20
70.95278386215709
 30
0.0
 10
379.1585498815494
 20
70.99877572207417
 30
0.0
 10
379.2979249316633
 20
71.04620329383442
 30
0.0
 10
379.4365807452567
 20
71.09506394588392
 30
0.0
 10
379.5745121051714
 20
71.14535502995697
 30
0.0
 10
379.7117138553152
 20
71.197073883255
 30
0.0
 10
379.8481808979525
 20
71.25021783050201
 30
0.0
 10
379.9839081909797
 20
71.30478418565333
 30
0.0
 10
380.1188907447296
 20
71.36077025405218
 30
0.0
 10
380.2531236200556
 20
71.41817333202056
 30
0.0
 10
380.386601921231
 20
71.47699071509493
 30
0.0
 10
380.5193208078455
 20
71.53721967304621
 30
0.0
 10
380.6512754355449
 20
71.5988575478362
 30
0.0
 10
380.7824611620454
 20
71.66190139187387
 30
0.0
 10
380.9128727632266
 20
71.72634932045268
 30
0.0
 10
381.0425073427969
 20
71.79219546707816
 30
0.0
 10
381.1713534598903
 20
71.85944880770262
 30
0.0
 10
381.29943168414
 20
71.9280629176984
 30
0.0
 10
381.4266432450746
 20
71.99819808951125
 30
0.0
 10
381.5181507217701
 20
72.04951292598791
 30
0.0
 10
381.5670102441059
 20
72.07786662717675
 30
0.0
 10
381.5739958555264
 20
72.08192045188424
 30
0.0
  0
LINE
  5
C9
330
1F
100
AcDbEntity
  8
0
  6
Continuous
 62
     7
370
    30
100
AcDbLine
 10
381.5981619955
 20
72.0957087775
 30
0.0
 11
386.5479094638
 21
74.9531371689
 31
0.0
  0
LINE
  5
CA
330
1F
100
AcDbEntity
  8
0
  6
Continuous
 62
     7
370
    30
100
AcDbLine
 10
349.05095699
 20
139.9068018474
 30
0.0
 11
344.1012095217
 21
137.0493734561
 31
0.0
  0
LWPOLYLINE
  5
CB
330
1F
100
AcDbEntity
  8
0
  6
Continuous
 62
     7
370
    30
100
AcDbPolyline
 90
       81
 70
   128
 43
0.0
 10
333.9211941313
 20
71.2227989738
 10
333.9805353774
 20
71.2049244972
 10
334.2262748508
 20
71.1338173797
 10
334.4751544475
 20
71.066448153
 10
334.727003598
 20
71.0028629886
 10
334.9816496974
 20
70.9431054646
 10
335.238918224
 20
70.8872165357
 10
335.4986328588
 20
70.8352345056
 10
335.7606156064
 20
70.7871949999
 10
336.0246869169
 20
70.7431309428
 10
336.2906658089
 20
70.7030725334
 10
336.5583699939
 20
70.6670472257
 10
336.8276160007
 20
70.6350797098
 10
337.0982193016
 20
70.6071918946
 10
337.3699944387
 20
70.5834028929
 10
337.6427551507
 20
70.5637290086
 10
337.9163145013
 20
70.5481837252
 10
338.1904850063
 20
70.5367776966
 10
338.4650787631
 20
70.52951874
 10
338.7399075788
 20
70.5264118302
 10
339.0147830995
 20
70.5274590967
 10
339.2895169392
 20
70.5326598216
 10
339.5639208091
 20
70.5420104406
 10
339.8378066465
 20
70.5555045454
 10
340.1109867436
 20
70.5731328876
 10
340.3832738766
 20
70.5948833858
 10
340.6544814333
 20
70.6207411332
 10
340.9244235417
 20
70.6506884082
 10
341.192915197
 20
70.6847046864
 10
341.4597723884
 20
70.7227666548
 10
341.7248122253
 20
70.7648482277
 10
341.9878530626
 20
70.8109205643
 10
342.2487146253
 20
70.8609520891
 10
342.5072181318
 20
70.9149085129
 10
342.7631864169
 20
70.9727528566
 10
343.0164440526
 20
71.0344454767
 10
343.2668174688
 20
71.0999440922
 10
343.5141350721
 20
71.1692038135
 10
343.7582273632
 20
71.2421771734
 10
343.9989270537
 20
71.3188141598
 10
344.2360691799
 20
71.3990622493
 10
344.4694912164
 20
71.4828664441
 10
344.6990331874
 20
71.5701693089
 10
344.9245377765
 20
71.6609110106
 10
345.1458504338
 20
71.7550293594
 10
345.3628194829
 20
71.8524598514
 10
345.575296224
 20
71.9531357125
 10
345.7831350361
 20
72.0569879445
 10
345.9861934769
 20
72.1639453723
 10
346.1843323803
 20
72.2739346926
 10
346.3774159518
 20
72.3868805242
 10
346.5653118615
 20
72.5027054597
 10
346.7478913349
 20
72.6213301185
 10
346.9250292413
 20
72.7426732011
 10
347.0966041791
 20
72.8666515451
 10
347.2624985595
 20
72.9931801819
 10
347.4225986867
 20
73.1221723951
 10
347.5767948361
 20
73.2535397799
 10
347.7249813294
 20
73.3871923035
 10
347.8670566069
 20
73.5230383674
 10
348.0029232973
 20
73.6609848693
 10
348.1324882845
 20
73.8009372676
 10
348.2556627709
 20
73.942799646
 10
348.3723623391
 20
74.086474779
 10
348.4825070089
 20
74.2318641988
 10
348.5860212927
 20
74.378868263
 10
348.6828342469
 20
74.5273862221
 10
348.7728795208
 20
74.6773162894
 10
348.8560954019
 20
74.8285557103
 10
348.9324248582
 20
74.981000833
 10
349.0018155772
 20
75.134547179
 10
349.064220002
 20
75.2890895155
 10
349.1195953638
 20
75.4445219268
 10
349.167903711
 20
75.6007378872
 10
349.2091119355
 20
75.7576303343
 10
349.2431917953
 20
75.9150917417
 10
349.2701199337
 20
76.0730141933
 10
349.2898778956
 20
76.2312894569
 10
349.3024521397
 20
76.3898090585
 10
349.3078340484
 20
76.5484643567
 10
349.3080551983
 20
76.5878051401
  0
LWPOLYLINE
  5
CC
330
1F
100
AcDbEntity
  8
0
  6
Continuous
 62
     7
370
    30
100
AcDbPolyline
 90
      106
 70
   128
 43
0.0
 10
348.4722551582
 20
68.2773876235
 10
348.3629955488
 20
68.1321464638
 10
348.2471874607
 20
67.9886061656
 10
348.1249102628
 20
67.846865104
 10
347.9962477578
 20
67.7070204214
 10
347.8612881245
 20
67.5691679604
 10
347.7201238577
 20
67.433402198
 10
347.5728517041
 20
67.2998161815
 10
347.4195725969
 20
67.1685014639
 10
347.2603915858
 20
67.0395480418
 10
347.0954177655
 20
66.9130442935
 10
346.9247642009
 20
66.7890769184
 10
346.7485478493
 20
66.6677308773
 10
346.5668894808
 20
66.5490893349
 10
346.3799135948
 20
66.4332336022
 10
346.1877483352
 20
66.3202430809
 10
345.9905254026
 20
66.210195209
 10
345.7883799637
 20
66.1031654079
 10
345.5814505589
 20
65.9992270304
 10
345.3698790073
 20
65.8984513107
 10
345.1538103094
 20
65.8009073155
 10
344.9333925479
 20
65.7066618965
 10
344.7087767861
 20
65.6157796448
 10
344.4801169645
 20
65.5283228467
 10
344.2475697951
 20
65.4443514406
 10
344.0112946542
 20
65.3639229762
 10
343.7714534728
 20
65.2870925754
 10
343.5282106261
 20
65.2139128938
 10
343.2817328207
 20
65.144434085
 10
343.0321889801
 20
65.0787037665
 10
342.7797501293
 20
65.0167669864
 10
342.5245892771
 20
64.9586661932
 10
342.2668812981
 20
64.9044412062
 10
342.0068028124
 20
64.8541291885
 10
341.744532065
 20
64.8077646216
 10
341.4802488029
 20
64.7653792812
 10
341.2141341529
 20
64.7270022163
 10
340.9463704965
 20
64.6926597285
 10
340.6771413456
 20
64.6623753545
 10
340.4066312165
 20
64.6361698497
 10
340.1350255032
 20
64.614061174
 10
339.8625103507
 20
64.5960644796
 10
339.5892725273
 20
64.5821921005
 10
339.3154992966
 20
64.5724535442
 10
339.0413782891
 20
64.5668554849
 10
338.7670973736
 20
64.5654017594
 10
338.4928445285
 20
64.568093364
 10
338.218807713
 20
64.5749284539
 10
337.9451747384
 20
64.5859023446
 10
337.6721331389
 20
64.6010075154
 10
337.3998700437
 20
64.6202336137
 10
337.1285720482
 20
64.6435674631
 10
336.8584250866
 20
64.6709930717
 10
336.5896143041
 20
64.7024916432
 10
336.3223239301
 20
64.7380415902
 10
336.0567371522
 20
64.7776185486
 10
335.7930359903
 20
64.8211953942
 10
335.5314011719
 20
64.8687422616
 10
335.2720120085
 20
64.9202265647
 10
335.0150462725
 20
64.9756130186
 10
334.7606800754
 20
65.0348636642
 10
334.509087747
 20
65.097937894
 10
334.2604417161
 20
65.1647924803
 10
334.0149123924
 20
65.2353816041
 10
333.7726680493
 20
65.3096568873
 10
333.533874709
 20
65.3875674252
 10
333.2986960286
 20
65.4690598218
 10
333.0672931878
 20
65.5540782264
 10
332.8398247785
 20
65.6425643715
 10
332.6164466962
 20
65.7344576132
 10
332.3973120331
 20
65.8296949725
 10
332.1825709731
 20
65.9282111784
 10
331.9723706891
 20
66.0299387128
 10
331.7668552418
 20
66.1348078567
 10
331.5661654812
 20
66.2427467382
 10
331.3704389501
 20
66.3536813812
 10
331.1798097897
 20
66.4675357567
 10
330.9944086476
 20
66.5842318347
 10
330.8143625886
 20
66.7036896373
 10
330.6397950071
 20
66.8258272943
 10
330.4708255433
 20
66.9505610986
 10
330.3075700001
 20
67.0778055638
 10
330.1501402649
 20
67.207473483
 10
329.9986442321
 20
67.3394759883
 10
329.8531857296
 20
67.4737226117
 10
329.7138644473
 20
67.6101213472
 10
329.5807758691
 20
67.7485787141
 10
329.4540112072
 20
67.8889998205
 10
329.3336573398
 20
68.0312884289
 10
329.2197967514
 20
68.1753470217
 10
329.1125074765
 20
68.3210768683
 10
329.0118630456
 20
68.4683780929
 10
328.9179324355
 20
68.6171497425
 10
328.8307800216
 20
68.7672898564
 10
328.7504655337
 20
68.9186955362
 10
328.6770440153
 20
69.0712630159
 10
328.6105657859
 20
69.2248877333
 10
328.5510764065
 20
69.3794644019
 10
328.4986166479
 20
69.5348870824
 10
328.4532224635
 20
69.691049256
 10
328.4149249643
 20
69.8478438968
 10
328.3837503974
 20
70.0051635457
 10
328.3597201283
 20
70.1629003836
 10
328.3428506261
 20
70.3209463056
 10
328.3331534524
 20
70.4791929949
 10
328.3305551983
 20
70.6138875481
  0
ARC
  5
CD
330
1F
100
AcDbEntity
  8
0
  6
Continuous
 62
     7
370
    30
100
AcDbCircle
 10
345.3269239252
 20
70.6820281652
 30
0.0
 40
3.959217687901736
100
AcDbArc
 50
322.6016873093
 51
359.0138550483
  0
ARC
  5
CE
330
1F
100
AcDbEntity
  8
0
  6
Continuous
 62
     7
370
    30
100
AcDbCircle
 10
357.7480815264
 20
110.2721943694
 30
0.0
 40
7.55078391374688
100
AcDbArc
 50
54.4092132707
 51
114.2803283002
  0
LWPOLYLINE
  5
CF
330
1F
100
AcDbEntity
  8
0
  6
Continuous
 62
     7
370
    30
100
AcDbPolyline
 90
       92
 70
   128
 43
0.0
 10
369.6419694722
 20
91.1736041252
 10
369.6425789774
 20
91.1739560422
 10
369.8363360271
 20
91.2917815948
 10
370.0248201599
 20
91.4184293539
 10
370.2079021984
 20
91.5538125215
 10
370.3854566672
 20
91.6978383127
 10
370.5573618794
 20
91.8504080194
 10
370.7235000197
 20
92.011417078
 10
370.8837572253
 20
92.1807551409
 10
371.0380236641
 20
92.3583061522
 10
371.1861936093
 20
92.5439484274
 10
371.3281655129
 20
92.7375547365
 10
371.4638420742
 20
92.9389923915
 10
371.5931303075
 20
93.1481233369
 10
371.7159416049
 20
93.364804245
 10
371.8321917977
 20
93.5888866134
 10
371.941801214
 20
93.8202168673
 10
372.0446947328
 20
94.0586364645
 10
372.1408018361
 20
94.3039820041
 10
372.2300566569
 20
94.5560853385
 10
372.3123980243
 20
94.8147736887
 10
372.3877695058
 20
95.0798697626
 10
372.4561194455
 20
95.3511918766
 10
372.5174009996
 20
95.6285540801
 10
372.571572169
 20
95.9117662828
 10
372.6185958274
 20
96.2006343854
 10
372.6584397472
 20
96.494960412
 10
372.6910766212
 20
96.7945426462
 10
372.7164840819
 20
97.0991757694
 10
372.7346447162
 20
97.4086510013
 10
372.7455460777
 20
97.7227562429
 10
372.7491806952
 20
98.0412762222
 10
372.7455460777
 20
98.3639926416
 10
372.7346447162
 20
98.6906843273
 10
372.7164840819
 20
99.0211273812
 10
372.6910766212
 20
99.3550953341
 10
372.6584397472
 20
99.692359301
 10
372.6185958274
 20
100.0326881381
 10
372.571572169
 20
100.375848601
 10
372.5174009996
 20
100.7216055047
 10
372.4561194455
 20
101.0697218846
 10
372.3877695058
 20
101.4199591592
 10
372.3123980243
 20
101.7720772932
 10
372.2300566569
 20
102.1258349627
 10
372.1408018361
 20
102.4809897196
 10
372.0446947328
 20
102.8372981588
 10
371.941801214
 20
103.1945160841
 10
371.8321917977
 20
103.5523986762
 10
371.7159416049
 20
103.9107006604
 10
371.5931303075
 20
104.2691764743
 10
371.4638420742
 20
104.6275804365
 10
371.3281655129
 20
104.9856669148
 10
371.1861936093
 20
105.3431904947
 10
371.0380236641
 20
105.6999061473
 10
370.8837572253
 20
106.0555693975
 10
370.7235000197
 20
106.4099364916
 10
370.5573618794
 20
106.762764564
 10
370.3854566672
 20
107.113811804
 10
370.2079021984
 20
107.4628376213
 10
370.0248201599
 20
107.8096028111
 10
369.8363360271
 20
108.1538697179
 10
369.6425789774
 20
108.4954023982
 10
369.4436818024
 20
108.8339667827
 10
369.2397808163
 20
109.1693308363
 10
369.0310157625
 20
109.5012647171
 10
368.8175297182
 20
109.8295409343
 10
368.5994689961
 20
110.1539345037
 10
368.3769830441
 20
110.4742231023
 10
368.150224343
 20
110.7901872201
 10
367.9193483018
 20
111.1016103112
 10
367.6845131515
 20
111.4082789417
 10
367.4458798363
 20
111.7099829363
 10
367.2036119037
 20
112.0065155222
 10
366.9578753918
 20
112.2976734706
 10
366.7088387164
 20
112.5832572366
 10
366.4566725546
 20
112.8630710952
 10
366.2015497285
 20
113.136923276
 10
365.9436450867
 20
113.4046260944
 10
365.683135384
 20
113.6659960802
 10
365.4201991608
 20
113.9208541036
 10
365.1550166204
 20
114.1690254976
 10
364.8877695058
 20
114.4103401778
 10
364.6186409747
 20
114.6446327593
 10
364.3478154744
 20
114.8717426696
 10
364.0754786152
 20
115.091514259
 10
363.801817043
 20
115.303796907
 10
363.527018312
 20
115.5084451256
 10
363.2512707555
 20
115.7053186591
 10
362.974763357
 20
115.8942825804
 10
362.6976856208
 20
116.075207383
 10
362.4202274423
 20
116.24796907
 10
362.1425789774
 20
116.4124492392
  0
LINE
  5
D0
330
1F
100
AcDbEntity
  8
0
  6
Continuous
 62
     7
370
    30
100
AcDbLine
 10
381.6217580035
 20
72.1093647879
 30
0.0
 11
381.5752722039
 21
72.0825270031
 31
0.0
  0
LINE
  5
D1
330
1F
100
AcDbEntity
  8
0
  6
Continuous
 62
     7
370
    30
100
AcDbLine
 10
344.0789633955
 20
137.036500533
 30
0.0
 11
344.1220477447
 21
137.0613763991
 31
0.0
  0
LWPOLYLINE
  5
D2
330
1F
100
AcDbEntity
  8
0
  6
Continuous
 62
     7
370
    30
100
AcDbPolyline
 90
       43
 70
   128
 43
0.0
 10
375.7502687799
 20
132.0514299481
 10
375.0853609678
 20
132.6656022856
 10
374.4154597447
 20
133.2624793811
 10
373.7410242275
 20
133.8416521646
 10
373.0625166406
 20
134.4027237001
 10
372.3804019993
 20
134.9453094573
 10
371.6951477908
 20
135.4690375748
 10
371.0072236541
 20
135.9735491157
 10
370.3171010581
 20
136.4584983129
 10
369.6252529783
 20
136.9235528065
 10
368.9321535729
 20
137.3683938713
 10
368.2382778575
 20
137.7927166355
 10
367.5441013799
 20
138.1962302894
 10
366.850099894
 20
138.5786582851
 10
366.1567490338
 20
138.9397385254
 10
365.4645239873
 20
139.2792235439
 10
364.7738991709
 20
139.5968806746
 10
364.0853479044
 20
139.8924922112
 10
363.3993420865
 20
140.1658555563
 10
362.7163518713
 20
140.4167833602
 10
362.0368453461
 20
140.6451036497
 10
361.3612882108
 20
140.8506599454
 10
360.6901434586
 20
141.0333113692
 10
360.0238710584
 20
141.1929327411
 10
359.3629276401
 20
141.3294146644
 10
358.7077661813
 20
141.4426636014
 10
358.058835697
 20
141.5326019368
 10
357.4165809317
 20
141.5991680314
 10
356.7814420547
 20
141.6423162641
 10
356.1538543585
 20
141.6620170633
 10
355.5342479603
 20
141.658256927
 10
354.9230475075
 20
141.6310384323
 10
354.3206718863
 20
141.5803802333
 10
353.7275339347
 20
141.5063170487
 10
353.1440401601
 20
141.4088996376
 10
352.5705904598
 20
141.288194765
 10
352.0075778477
 20
141.1442851562
 10
351.4553881844
 20
140.9772694394
 10
350.9143999132
 20
140.7872620791
 10
350.3849838003
 20
140.5743932966
 10
349.8675026813
 20
140.3388089816
 10
349.3623112117
 20
140.080670592
 10
349.05095699
 20
139.9068018474
  0
LWPOLYLINE
  5
D3
330
1F
100
AcDbEntity
  8
0
  6
Continuous
 62
     7
370
    30
100
AcDbPolyline
 90
       80
 70
   128
 43
0.0
 10
386.5479094638
 20
74.9531371689
 10
386.7291108292
 20
75.0597839736
 10
387.2086929609
 20
75.3624844311
 10
387.6749729554
 20
75.6871623411
 10
388.1276312478
 20
76.0335951855
 10
388.5663576087
 20
76.4015455366
 10
388.9908513569
 20
76.7907612196
 10
389.4008215657
 20
77.2009754855
 10
389.795987262
 20
77.6319071939
 10
390.1760776188
 20
78.0832610057
 10
390.5408321414
 20
78.5547275857
 10
390.890000845
 20
79.0459838142
 10
391.2233444271
 20
79.5566930086
 10
391.5406344304
 20
80.0865051544
 10
391.8416534003
 20
80.6350571449
 10
392.1261950335
 20
81.2019730298
 10
392.3940643193
 20
81.7868642735
 10
392.6450776734
 20
82.3893300205
 10
392.879063064
 20
83.0089573711
 10
393.0958601289
 20
83.6453216635
 10
393.2953202865
 20
84.2979867655
 10
393.4773068366
 20
84.966505373
 10
393.6416950548
 20
85.6504193167
 10
393.7883722776
 20
86.3492598762
 10
393.9172379797
 20
87.0625481011
 10
394.0282038431
 20
87.7897951393
 10
394.1211938173
 20
88.5305025719
 10
394.1961441715
 20
89.2841627551
 10
394.2530035386
 20
90.0502591678
 10
394.29173295
 20
90.8282667659
 10
394.3123058625
 20
91.6176523418
 10
394.3147081764
 20
92.41787489
 10
394.2989382454
 20
93.228385978
 10
394.2650068773
 20
94.0486301219
 10
394.212937327
 20
94.8780451675
 10
394.1427652803
 20
95.716062675
 10
394.0545388298
 20
96.5621083091
 10
393.9483184413
 20
97.4156022325
 10
393.8241769131
 20
98.2759595029
 10
393.6821993255
 20
99.1425904746
 10
393.522482983
 20
100.0149012019
 10
393.345137347
 20
100.8922938466
 10
393.1502839614
 20
101.7741670876
 10
392.9380563691
 20
102.6599165331
 10
392.7086000201
 20
103.5489351346
 10
392.4620721725
 20
104.4406136033
 10
392.1986417841
 20
105.3343408271
 10
391.9184893969
 20
106.2295042902
 10
391.6218070133
 20
107.1254904922
 10
391.3087979648
 20
108.0216853688
 10
390.9796767719
 20
108.917474713
 10
390.634668998
 20
109.8122445954
 10
390.2740110942
 20
110.7053817855
 10
389.8979502373
 20
111.5962741716
 10
389.5067441607
 20
112.4843111806
 10
389.1006609775
 20
113.3688841963
 10
388.6799789968
 20
114.2493869765
 10
388.244986533
 20
115.1252160687
 10
387.7959817083
 20
115.9957712232
 10
387.3332722481
 20
116.8604558051
 10
386.8571752704
 20
117.7186772027
 10
386.3680170683
 20
118.569847234
 10
385.8661328863
 20
119.4133825496
 10
385.3518666908
 20
120.2487050325
 10
384.8255709341
 20
121.0752421943
 10
384.2876063132
 20
121.8924275679
 10
383.738341522
 20
122.6997010951
 10
383.1781529993
 20
123.496509511
 10
382.6074246702
 20
124.2823067229
 10
382.0265476834
 20
125.0565541848
 10
381.4359201431
 20
125.8187212659
 10
380.8359468358
 20
126.5682856151
 10
380.2270389532
 20
127.3047335185
 10
379.6096138105
 20
128.0275602513
 10
378.9840945599
 20
128.7362704244
 10
378.3509099011
 20
129.430378323
 10
377.7104937872
 20
130.1094082404
 10
377.0632851276
 20
130.7728948034
 10
376.4097274865
 20
131.4203832913
 10
375.7502687799
 20
132.0514299481
  0
ENDSEC
  0
SECTION
  2
OBJECTS
  0
DICTIONARY
  5
C
330
0
100
AcDbDictionary
281
     1
  3
ACAD_GROUP
350
D
  3
ACAD_LAYOUT
350
1A
  3
ACAD_MLINESTYLE
350
17
  3
ACAD_PLOTSETTINGS
350
19
  3
ACAD_PLOTSTYLENAME
350
E
  3
ACAD_SCALELIST
350
47
  0
DICTIONARY
  5
D
102
{ACAD_REACTORS
330
C
102
}
330
C
100
AcDbDictionary
281
     1
  0
DICTIONARY
  5
1A
102
{ACAD_REACTORS
330
C
102
}
330
C
100
AcDbDictionary
281
     1
  3
Layout1
350
1E
  3
Layout2
350
26
  3
Model
350
22
  0
DICTIONARY
  5
17
102
{ACAD_REACTORS
330
C
102
}
330
C
100
AcDbDictionary
281
     1
  3
Standard
350
18
  0
DICTIONARY
  5
19
102
{ACAD_REACTORS
330
C
102
}
330
C
100
AcDbDictionary
281
     1
  0
ACDBDICTIONARYWDFLT
  5
E
102
{ACAD_REACTORS
330
C
102
}
330
C
100
AcDbDictionary
281
     1
  3
Normal
350
F
100
AcDbDictionaryWithDefault
340
F
  0
DICTIONARY
  5
47
102
{ACAD_REACTORS
330
C
102
}
330
C
100
AcDbDictionary
281
     1
  3
A0
350
48
  3
A1
350
49
  3
A2
350
4A
  3
A3
350
4B
  3
A4
350
4C
  3
A5
350
4D
  3
A6
350
4E
  3
A7
350
4F
  3
A8
350
50
  3
A9
350
51
  3
B0
350
52
  3
B1
350
53
  3
B2
350
54
  3
B3
350
55
  3
B4
350
56
  3
B5
350
57
  3
B6
350
58
  3
B7
350
59
  3
B8
350
5A
  3
B9
350
5B
  3
C0
350
5C
  3
C1
350
5D
  3
C2
350
5E
  3
C3
350
5F
  3
C4
350
60
  3
C5
350
61
  3
C6
350
62
  3
C7
350
63
  3
C8
350
64
  3
C9
350
65
  3
D0
350
66
  3
D1
350
67
  3
D2
350
68
  0
LAYOUT
  5
1E
102
{ACAD_REACTORS
330
1A
102
}
330
1A
100
AcDbPlotSettings
  1

  2
none_device
  4

  6

 40
0.0
 41
0.0
 42
0.0
 43
0.0
 44
0.0
 45
0.0
 46
0.0
 47
0.0
 48
0.0
 49
0.0
140
0.0
141
0.0
142
1.0
143
1.0
 70
   688
 72
     1
 73
     0
 74
     5
  7

 75
    16
147
1.0
148
0.0
149
0.0
100
AcDbLayout
  1
Layout1
 70
     1
 71
     1
 10
0.0
 20
0.0
 11
420.0
 21
297.0
 12
0.0
 22
0.0
 32
0.0
 14
1.0000000000E+20
 24
1.0000000000E+20
 34
1.0000000000E+20
 15
-1.0000000000E+20
 25
-1.0000000000E+20
 35
-1.0000000000E+20
146
0.0
 13
0.0
 23
0.0
 33
0.0
 16
1.0
 26
0.0
 36
0.0
 17
0.0
 27
1.0
 37
0.0
 76
     0
330
1B
  0
LAYOUT
  5
26
102
{ACAD_REACTORS
330
1A
102
}
330
1A
100
AcDbPlotSettings
  1

  2
none_device
  4

  6

 40
0.0
 41
0.0
 42
0.0
 43
0.0
 44
0.0
 45
0.0
 46
0.0
 47
0.0
 48
0.0
 49
0.0
140
0.0
141
0.0
142
1.0
143
1.0
 70
   688
 72
     1
 73
     0
 74
     5
  7

 75
    16
147
1.0
148
0.0
149
0.0
100
AcDbLayout
  1
Layout2
 70
     1
 71
     2
 10
0.0
 20
0.0
 11
0.0
 21
0.0
 12
0.0
 22
0.0
 32
0.0
 14
0.0
 24
0.0
 34
0.0
 15
0.0
 25
0.0
 35
0.0
146
0.0
 13
0.0
 23
0.0
 33
0.0
 16
1.0
 26
0.0
 36
0.0
 17
0.0
 27
1.0
 37
0.0
 76
     0
330
23
  0
LAYOUT
  5
22
102
{ACAD_REACTORS
330
1A
102
}
330
1A
100
AcDbPlotSettings
  1

  2
none_device
  4
Letter_(8.50_x_11.00_Inches)
  6

 40
6.35
 41
6.35
 42
6.35000508
 43
6.35000508
 44
215.9
 45
279.4
 46
0.0
 47
0.0
 48
0.0
 49
0.0
140
0.0
141
0.0
142
1.0
143
1.0
 70
  1712
 72
     1
 73
     0
 74
     0
  7

 75
     0
147
1.0
148
0.0
149
0.0
100
AcDbLayout
  1
Model
 70
     1
 71
     0
 10
0.0
 20
0.0
 11
428.0
 21
325.0
 12
0.0
 22
0.0
 32
0.0
 14
0.0
 24
0.0
 34
0.0
 15
428.0
 25
325.0
 35
0.0
146
0.0
 13
0.0
 23
0.0
 33
0.0
 16
1.0
 26
0.0
 36
0.0
 17
0.0
 27
1.0
 37
0.0
 76
     0
330
1F
331
29
  0
MLINESTYLE
  5
18
102
{ACAD_REACTORS
330
17
102
}
330
17
100
AcDbMlineStyle
  2
Standard
 70
     0
  3

 62
   256
 51
90.0
 52
90.0
 71
     2
 49
0.5
 62
   256
  6
BYLAYER
 49
-0.5
 62
   256
  6
BYLAYER
  0
ACDBPLACEHOLDER
  5
F
102
{ACAD_REACTORS
330
E
102
}
330
E
  0
SCALE
  5
48
102
{ACAD_REACTORS
330
47
102
}
330
47
100
AcDbScale
 70
     0
300
1:1
140
1.0
141
1.0
290
     1
  0
SCALE
  5
49
102
{ACAD_REACTORS
330
47
102
}
330
47
100
AcDbScale
 70
     0
300
1:2
140
1.0
141
2.0
290
     0
  0
SCALE
  5
4A
102
{ACAD_REACTORS
330
47
102
}
330
47
100
AcDbScale
 70
     0
300
1:4
140
1.0
141
4.0
290
     0
  0
SCALE
  5
4B
102
{ACAD_REACTORS
330
47
102
}
330
47
100
AcDbScale
 70
     0
300
1:5
140
1.0
141
5.0
290
     0
  0
SCALE
  5
4C
102
{ACAD_REACTORS
330
47
102
}
330
47
100
AcDbScale
 70
     0
300
1:8
140
1.0
141
8.0
290
     0
  0
SCALE
  5
4D
102
{ACAD_REACTORS
330
47
102
}
330
47
100
AcDbScale
 70
     0
300
1:10
140
1.0
141
10.0
290
     0
  0
SCALE
  5
4E
102
{ACAD_REACTORS
330
47
102
}
330
47
100
AcDbScale
 70
     0
300
1:16
140
1.0
141
16.0
290
     0
  0
SCALE
  5
4F
102
{ACAD_REACTORS
330
47
102
}
330
47
100
AcDbScale
 70
     0
300
1:20
140
1.0
141
20.0
290
     0
  0
SCALE
  5
50
102
{ACAD_REACTORS
330
47
102
}
330
47
100
AcDbScale
 70
     0
300
1:30
140
1.0
141
30.0
290
     0
  0
SCALE
  5
51
102
{ACAD_REACTORS
330
47
102
}
330
47
100
AcDbScale
 70
     0
300
1:40
140
1.0
141
40.0
290
     0
  0
SCALE
  5
52
102
{ACAD_REACTORS
330
47
102
}
330
47
100
AcDbScale
 70
     0
300
1:50
140
1.0
141
50.0
290
     0
  0
SCALE
  5
53
102
{ACAD_REACTORS
330
47
102
}
330
47
100
AcDbScale
 70
     0
300
1:100
140
1.0
141
100.0
290
     0
  0
SCALE
  5
54
102
{ACAD_REACTORS
330
47
102
}
330
47
100
AcDbScale
 70
     0
300
2:1
140
2.0
141
1.0
290
     0
  0
SCALE
  5
55
102
{ACAD_REACTORS
330
47
102
}
330
47
100
AcDbScale
 70
     0
300
4:1
140
4.0
141
1.0
290
     0
  0
SCALE
  5
56
102
{ACAD_REACTORS
330
47
102
}
330
47
100
AcDbScale
 70
     0
300
8:1
140
8.0
141
1.0
290
     0
  0
SCALE
  5
57
102
{ACAD_REACTORS
330
47
102
}
330
47
100
AcDbScale
 70
     0
300
10:1
140
10.0
141
1.0
290
     0
  0
SCALE
  5
58
102
{ACAD_REACTORS
330
47
102
}
330
47
100
AcDbScale
 70
     0
300
100:1
140
100.0
141
1.0
290
     0
  0
SCALE
  5
59
102
{ACAD_REACTORS
330
47
102
}
330
47
100
AcDbScale
 70
     0
300
1/128" = 1'-0"
140
0.0078125
141
12.0
290
     0
  0
SCALE
  5
5A
102
{ACAD_REACTORS
330
47
102
}
330
47
100
AcDbScale
 70
     0
300
1/64" = 1'-0"
140
0.015625
141
12.0
290
     0
  0
SCALE
  5
5B
102
{ACAD_REACTORS
330
47
102
}
330
47
100
AcDbScale
 70
     0
300
1/32" = 1'-0"
140
0.03125
141
12.0
290
     0
  0
SCALE
  5
5C
102
{ACAD_REACTORS
330
47
102
}
330
47
100
AcDbScale
 70
     0
300
1/16" = 1'-0"
140
0.0625
141
12.0
290
     0
  0
SCALE
  5
5D
102
{ACAD_REACTORS
330
47
102
}
330
47
100
AcDbScale
 70
     0
300
3/32" = 1'-0"
140
0.09375
141
12.0
290
     0
  0
SCALE
  5
5E
102
{ACAD_REACTORS
330
47
102
}
330
47
100
AcDbScale
 70
     0
300
1/8" = 1'-0"
140
0.125
141
12.0
290
     0
  0
SCALE
  5
5F
102
{ACAD_REACTORS
330
47
102
}
330
47
100
AcDbScale
 70
     0
300
3/16" = 1'-0"
140
0.1875
141
12.0
290
     0
  0
SCALE
  5
60
102
{ACAD_REACTORS
330
47
102
}
330
47
100
AcDbScale
 70
     0
300
1/4" = 1'-0"
140
0.25
141
12.0
290
     0
  0
SCALE
  5
61
102
{ACAD_REACTORS
330
47
102
}
330
47
100
AcDbScale
 70
     0
300
3/8" = 1'-0"
140
0.375
141
12.0
290
     0
  0
SCALE
  5
62
102
{ACAD_REACTORS
330
47
102
}
330
47
100
AcDbScale
 70
     0
300
1/2" = 1'-0"
140
0.5
141
12.0
290
     0
  0
SCALE
  5
63
102
{ACAD_REACTORS
330
47
102
}
330
47
100
AcDbScale
 70
     0
300
3/4" = 1'-0"
140
0.75
141
12.0
290
     0
  0
SCALE
  5
64
102
{ACAD_REACTORS
330
47
102
}
330
47
100
AcDbScale
 70
     0
300
1" = 1'-0"
140
1.0
141
12.0
290
     0
  0
SCALE
  5
65
102
{ACAD_REACTORS
330
47
102
}
330
47
100
AcDbScale
 70
     0
300
1-1/2" = 1'-0"
140
1.5
141
12.0
290
     0
  0
SCALE
  5
66
102
{ACAD_REACTORS
330
47
102
}
330
47
100
AcDbScale
 70
     0
300
3" = 1'-0"
140
3.0
141
12.0
290
     0
  0
SCALE
  5
67
102
{ACAD_REACTORS
330
47
102
}
330
47
100
AcDbScale
 70
     0
300
6" = 1'-0"
140
6.0
141
12.0
290
     0
  0
SCALE
  5
68
102
{ACAD_REACTORS
330
47
102
}
330
47
100
AcDbScale
 70
     0
300
1'-0" = 1'-0"
140
12.0
141
12.0
290
     0
  0
ENDSEC
  0
EOF
