  0
SECTION
  2
HEADER
  9
$ACADVER
  1
AC1015
  9
$ACADMAINTVER
 70
     6
  9
$DWGCODEPAGE
  3
ANSI_1252
  9
$INSBASE
 10
0.0
 20
0.0
 30
0.0
  9
$EXTMIN
 10
0.0
 20
0.0
 30
0.0
  9
$EXTMAX
 10
548.0
 20
503.0
 30
0.0
  9
$LIMMIN
 10
0.0
 20
0.0
  9
$LIMMAX
 10
548.0
 20
503.0
  9
$ORTHOMODE
 70
     0
  9
$REGENMODE
 70
     1
  9
$FILLMODE
 70
     1
  9
$QTEXTMODE
 70
     0
  9
$MIRRTEXT
 70
     1
  9
$LTSCALE
 40
1.0
  9
$ATTMODE
 70
     1
  9
$TEXTSIZE
 40
3.5
  9
$TRACEWID
 40
1.0
  9
$TEXTSTYLE
  7
Standard
  9
$CLAYER
  8
0
  9
$CELTYPE
  6
ByLayer
  9
$CECOLOR
 62
   256
  9
$CELTSCALE
 40
1.0
  9
$DISPSILH
 70
     0
  9
$DIMSCALE
 40
1.0
  9
$DIMASZ
 40
3.302
  9
$DIMEXO
 40
1.0
  9
$DIMDLI
 40
3.75
  9
$DIMRND
 40
0.0
  9
$DIMDLE
 40
0.0
  9
$DIMEXE
 40
1.0
  9
$DIMTP
 40
0.0
  9
$DIMTM
 40
0.0
  9
$DIMTXT
 40
2.8
  9
$DIMCEN
 40
2.5
  9
$DIMTSZ
 40
0.0
  9
$DIMTOL
 70
     0
  9
$DIMLIM
 70
     0
  9
$DIMTIH
 70
     1
  9
$DIMTOH
 70
     1
  9
$DIMSE1
 70
     0
  9
$DIMSE2
 70
     0
  9
$DIMTAD
 70
     1
  9
$DIMZIN
 70
     0
  9
$DIMBLK
  1

  9
$DIMASO
 70
     1
  9
$DIMSHO
 70
     1
  9
$DIMPOST
  1

  9
$DIMAPOST
  1

  9
$DIMALT
 70
     0
  9
$DIMALTD
 70
     3
  9
$DIMALTF
 40
0.0393700787
  9
$DIMLFAC
 40
1.0
  9
$DIMTOFL
 70
     1
  9
$DIMTVP
 40
0.0
  9
$DIMTIX
 70
     0
  9
$DIMSOXD
 70
     0
  9
$DIMSAH
 70
     0
  9
$DIMBLK1
  1

  9
$DIMBLK2
  1

  9
$DIMSTYLE
  2
ISO-25
  9
$DIMCLRD
 70
     0
  9
$DIMCLRE
 70
     0
  9
$DIMCLRT
 70
     0
  9
$DIMTFAC
 40
1.0
  9
$DIMGAP
 40
1.524
  9
$DIMJUST
 70
     0
  9
$DIMSD1
 70
     0
  9
$DIMSD2
 70
     0
  9
$DIMTOLJ
 70
     0
  9
$DIMTZIN
 70
     0
  9
$DIMALTZ
 70
     0
  9
$DIMALTTZ
 70
     0
  9
$DIMUPT
 70
     0
  9
$DIMDEC
 70
     2
  9
$DIMTDEC
 70
     2
  9
$DIMALTU
 70
     2
  9
$DIMALTTD
 70
     3
  9
$DIMTXSTY
  7
Standard
  9
$DIMAUNIT
 70
     0
  9
$DIMADEC
 70
     2
  9
$DIMALTRND
 40
0.0
  9
$DIMAZIN
 70
     0
  9
$DIMDSEP
 70
    44
  9
$DIMATFIT
 70
     3
  9
$DIMFRAC
 70
     0
  9
$DIMLDRBLK
  1

  9
$DIMLUNIT
 70
     2
  9
$DIMLWD
 70
    -2
  9
$DIMLWE
 70
    -2
  9
$DIMTMOVE
 70
     0
  9
$LUNITS
 70
     2
  9
$LUPREC
 70
     2
  9
$SKETCHINC
 40
1.0
  9
$FILLETRAD
 40
10.0
  9
$AUNITS
 70
     0
  9
$AUPREC
 70
     2
  9
$MENU
  1
.
  9
$ELEVATION
 40
0.0
  9
$PELEVATION
 40
0.0
  9
$THICKNESS
 40
0.0
  9
$LIMCHECK
 70
     0
  9
$CHAMFERA
 40
0.0
  9
$CHAMFERB
 40
0.0
  9
$CHAMFERC
 40
0.0
  9
$CHAMFERD
 40
0.0
  9
$SKPOLY
 70
     0
  9
$TDCREATE
 40
2460094.535484849
  9
$TDUCREATE
 40
2460094.410484849
  9
$TDUPDATE
 40
2460094.53548559
  9
$TDUUPDATE
 40
2460094.41048559
  9
$TDINDWG
 40
0.0000000116
  9
$TDUSRTIMER
 40
0.0000000116
  9
$USRTIMER
 70
     1
  9
$ANGBASE
 50
0.0
  9
$ANGDIR
 70
     0
  9
$PDMODE
 70
     0
  9
$PDSIZE
 40
-1.0
  9
$PLINEWID
 40
0.0
  9
$SPLFRAME
 70
     0
  9
$SPLINETYPE
 70
     6
  9
$SPLINESEGS
 70
     8
  9
$HANDSEED
  5
12F
  9
$SURFTAB1
 70
     6
  9
$SURFTAB2
 70
     6
  9
$SURFTYPE
 70
     6
  9
$SURFU
 70
     6
  9
$SURFV
 70
     6
  9
$UCSBASE
  2

  9
$UCSNAME
  2

  9
$UCSORG
 10
0.0
 20
0.0
 30
0.0
  9
$UCSXDIR
 10
1.0
 20
0.0
 30
0.0
  9
$UCSYDIR
 10
0.0
 20
1.0
 30
0.0
  9
$UCSORTHOREF
  2

  9
$UCSORTHOVIEW
 70
     0
  9
$UCSORGTOP
 10
0.0
 20
0.0
 30
0.0
  9
$UCSORGBOTTOM
 10
0.0
 20
0.0
 30
0.0
  9
$UCSORGLEFT
 10
0.0
 20
0.0
 30
0.0
  9
$UCSORGRIGHT
 10
0.0
 20
0.0
 30
0.0
  9
$UCSORGFRONT
 10
0.0
 20
0.0
 30
0.0
  9
$UCSORGBACK
 10
0.0
 20
0.0
 30
0.0
  9
$PUCSBASE
  2

  9
$PUCSNAME
  2

  9
$PUCSORG
 10
0.0
 20
0.0
 30
0.0
  9
$PUCSXDIR
 10
1.0
 20
0.0
 30
0.0
  9
$PUCSYDIR
 10
0.0
 20
1.0
 30
0.0
  9
$PUCSORTHOREF
  2

  9
$PUCSORTHOVIEW
 70
     0
  9
$PUCSORGTOP
 10
0.0
 20
0.0
 30
0.0
  9
$PUCSORGBOTTOM
 10
0.0
 20
0.0
 30
0.0
  9
$PUCSORGLEFT
 10
0.0
 20
0.0
 30
0.0
  9
$PUCSORGRIGHT
 10
0.0
 20
0.0
 30
0.0
  9
$PUCSORGFRONT
 10
0.0
 20
0.0
 30
0.0
  9
$PUCSORGBACK
 10
0.0
 20
0.0
 30
0.0
  9
$USERI1
 70
     0
  9
$USERI2
 70
     0
  9
$USERI3
 70
     0
  9
$USERI4
 70
     0
  9
$USERI5
 70
     0
  9
$USERR1
 40
0.0
  9
$USERR2
 40
0.0
  9
$USERR3
 40
0.0
  9
$USERR4
 40
0.0
  9
$USERR5
 40
0.0
  9
$WORLDVIEW
 70
     1
  9
$SHADEDGE
 70
     3
  9
$SHADEDIF
 70
    70
  9
$TILEMODE
 70
     1
  9
$MAXACTVP
 70
    64
  9
$PINSBASE
 10
0.0
 20
0.0
 30
0.0
  9
$PLIMCHECK
 70
     0
  9
$PEXTMIN
 10
1.0000000000E+20
 20
1.0000000000E+20
 30
1.0000000000E+20
  9
$PEXTMAX
 10
-1.0000000000E+20
 20
-1.0000000000E+20
 30
-1.0000000000E+20
  9
$PLIMMIN
 10
0.0
 20
0.0
  9
$PLIMMAX
 10
420.0
 20
297.0
  9
$UNITMODE
 70
     0
  9
$VISRETAIN
 70
     1
  9
$PLINEGEN
 70
     0
  9
$PSLTSCALE
 70
     1
  9
$TREEDEPTH
 70
  3020
  9
$CMLSTYLE
  2
Standard
  9
$CMLJUST
 70
     0
  9
$CMLSCALE
 40
20.0
  9
$PROXYGRAPHICS
 70
     1
  9
$MEASUREMENT
 70
     1
  9
$CELWEIGHT
370
    -1
  9
$ENDCAPS
280
     0
  9
$JOINSTYLE
280
     0
  9
$LWDISPLAY
290
     1
  9
$INSUNITS
 70
     4
  9
$HYPERLINKBASE
  1

  9
$STYLESHEET
  1

  9
$XEDIT
290
     1
  9
$CEPSNTYPE
380
     0
  9
$PSTYLEMODE
290
     1
  9
$FINGERPRINTGUID
  2
{1E060084-7372-410B-9EA2-5749E174AE4D}
  9
$VERSIONGUID
  2
{FAEB1C32-E019-11D5-929B-00C0DF256EC4}
  9
$EXTNAMES
290
     1
  9
$PSVPSCALE
 40
0.0
  9
$OLESTARTUP
290
     0
  0
ENDSEC
  0
SECTION
  2
CLASSES
  0
CLASS
  1
ACDBDICTIONARYWDFLT
  2
AcDbDictionaryWithDefault
  3
ObjectDBX Classes
 90
        0
280
     0
281
     0
  0
CLASS
  1
VISUALSTYLE
  2
AcDbVisualStyle
  3
ObjectDBX Classes
 90
     4095
280
     0
281
     0
  0
CLASS
  1
MATERIAL
  2
AcDbMaterial
  3
ObjectDBX Classes
 90
     1153
280
     0
281
     0
  0
CLASS
  1
SCALE
  2
AcDbScale
  3
ObjectDBX Classes
 90
     1153
280
     0
281
     0
  0
CLASS
  1
TABLESTYLE
  2
AcDbTableStyle
  3
ObjectDBX Classes
 90
     4095
280
     0
281
     0
  0
CLASS
  1
MLEADERSTYLE
  2
AcDbMLeaderStyle
  3
ACDB_MLEADERSTYLE_CLASS
 90
     4095
280
     0
281
     0
  0
CLASS
  1
SUN
  2
AcDbSun
  3
SCENEOE
 90
     1153
280
     0
281
     0
  0
CLASS
  1
ACDBPLACEHOLDER
  2
AcDbPlaceHolder
  3
ObjectDBX Classes
 90
        0
280
     0
281
     0
  0
CLASS
  1
LAYOUT
  2
AcDbLayout
  3
ObjectDBX Classes
 90
        0
280
     0
281
     0
  0
ENDSEC
  0
SECTION
  2
TABLES
  0
TABLE
  2
VPORT
  5
8
330
0
100
AcDbSymbolTable
 70
     1
  0
VPORT
  5
29
330
8
100
AcDbSymbolTableRecord
100
AcDbViewportTableRecord
  2
*Active
 70
     0
 10
0.0
 20
0.0
 11
1.0
 21
1.0
 12
274.0
 22
251.5
 13
0.0
 23
0.0
 14
10.0
 24
10.0
 15
10.0
 25
10.0
 16
0.0
 26
0.0
 36
1.0
 17
0.0
 27
0.0
 37
0.0
 40
503.0
 41
1.0894632207
 42
50.0
 43
0.0
 44
0.0
 50
0.0
 51
0.0
 71
     0
 72
  2000
 73
     1
 74
     3
 75
     0
 76
     0
 77
     0
 78
     0
281
     0
 65
     1
110
0.0
120
0.0
130
0.0
111
1.0
121
0.0
131
0.0
112
0.0
122
1.0
132
0.0
 79
     0
146
0.0
  0
ENDTAB
  0
TABLE
  2
LTYPE
  5
5
330
0
100
AcDbSymbolTable
 70
     6
  0
LTYPE
  5
14
330
5
100
AcDbSymbolTableRecord
100
AcDbLinetypeTableRecord
  2
ByBlock
 70
     0
  3

 72
    65
 73
     0
 40
0.0
  0
LTYPE
  5
15
330
5
100
AcDbSymbolTableRecord
100
AcDbLinetypeTableRecord
  2
ByLayer
 70
     0
  3

 72
    65
 73
     0
 40
0.0
  0
LTYPE
  5
16
330
5
100
AcDbSymbolTableRecord
100
AcDbLinetypeTableRecord
  2
Continuous
 70
     0
  3
Solid line
 72
    65
 73
     0
 40
0.0
  0
LTYPE
  5
6E
330
5
100
AcDbSymbolTableRecord
100
AcDbLinetypeTableRecord
  2
HIDDEN
 70
     0
  3
Hidden __ __ __ __ __ __ __ __ __ __ __ __ __ __
 72
    65
 73
     2
 40
1.905
 49
1.27
 74
     0
 49
-0.635
 74
     0
  0
LTYPE
  5
6F
330
5
100
AcDbSymbolTableRecord
100
AcDbLinetypeTableRecord
  2
PHANTOM
 70
     0
  3
Phantom ______  __  __  ______  __  __  ______
 72
    65
 73
     6
 40
12.7
 49
6.35
 74
     0
 49
-1.27
 74
     0
 49
1.27
 74
     0
 49
-1.27
 74
     0
 49
1.27
 74
     0
 49
-1.27
 74
     0
  0
LTYPE
  5
70
330
5
100
AcDbSymbolTableRecord
100
AcDbLinetypeTableRecord
  2
CENTER
 70
     0
  3
Center ____ _ ____ _ ____ _ ____ _ ____ _ ____
 72
    65
 73
     4
 40
10.16
 49
6.35
 74
     0
 49
-1.27
 74
     0
 49
1.27
 74
     0
 49
-1.27
 74
     0
  0
LTYPE
  5
71
330
5
100
AcDbSymbolTableRecord
100
AcDbLinetypeTableRecord
  2
CENTERX2
 70
     0
  3
Center (2x) ________  __  ________  __  _____
 72
    65
 73
     4
 40
20.32
 49
12.7
 74
     0
 49
-2.54
 74
     0
 49
2.54
 74
     0
 49
-2.54
 74
     0
  0
LTYPE
  5
72
330
5
100
AcDbSymbolTableRecord
100
AcDbLinetypeTableRecord
  2
DOT2
 70
     0
  3
Dot (.5x) ........................................
 72
    65
 73
     2
 40
0.635
 49
0.0
 74
     0
 49
-0.635
 74
     0
  0
ENDTAB
  0
TABLE
  2
LAYER
  5
2
330
0
100
AcDbSymbolTable
 70
     2
  0
LAYER
  5
10
330
2
100
AcDbSymbolTableRecord
100
AcDbLayerTableRecord
  2
0
 70
     0
 62
     7
  6
Continuous
370
    -3
390
F
  0
LAYER
  5
73
330
2
100
AcDbSymbolTableRecord
100
AcDbLayerTableRecord
  2
FORMAT
 70
     0
 62
     7
  6
Continuous
370
    -3
390
F
  0
ENDTAB
  0
TABLE
  2
STYLE
  5
3
330
0
100
AcDbSymbolTable
 70
     2
  0
STYLE
  5
11
330
3
100
AcDbSymbolTableRecord
100
AcDbTextStyleTableRecord
  2
Standard
 70
     0
 40
0.0
 41
1.0
 50
0.0
 71
     0
 42
3.5
  3
txt
  4

  0
STYLE
  5
74
330
3
100
AcDbSymbolTableRecord
100
AcDbTextStyleTableRecord
  2
SLDTEXTSTYLE0
 70
     0
 40
0.0
 41
0.605
 50
0.0
 71
     0
 42
3.5
  3
TXT
  4

  0
ENDTAB
  0
TABLE
  2
VIEW
  5
6
330
0
100
AcDbSymbolTable
 70
     0
  0
ENDTAB
  0
TABLE
  2
UCS
  5
7
330
0
100
AcDbSymbolTable
 70
     0
  0
ENDTAB
  0
TABLE
  2
APPID
  5
9
330
0
100
AcDbSymbolTable
 70
     1
  0
APPID
  5
12
330
9
100
AcDbSymbolTableRecord
100
AcDbRegAppTableRecord
  2
ACAD
 70
     0
  0
ENDTAB
  0
TABLE
  2
DIMSTYLE
  5
A
330
0
100
AcDbSymbolTable
 70
     1
100
AcDbDimStyleTable
  0
DIMSTYLE
105
27
330
A
100
AcDbSymbolTableRecord
100
AcDbDimStyleTableRecord
  2
ISO-25
 70
     0
 41
2.5
 42
0.625
 43
3.75
 44
1.25
 73
     0
 74
     0
 77
     1
 78
     8
140
2.5
141
2.5
143
0.0393700787
147
0.625
171
     3
172
     1
178
     0
271
     2
272
     2
274
     3
278
    44
283
     0
284
     8
340
11
  0
ENDTAB
  0
TABLE
  2
BLOCK_RECORD
  5
1
330
0
100
AcDbSymbolTable
 70
     1
  0
BLOCK_RECORD
  5
1F
330
1
100
AcDbSymbolTableRecord
100
AcDbBlockTableRecord
  2
*Model_Space
340
22
  0
BLOCK_RECORD
  5
1B
330
1
100
AcDbSymbolTableRecord
100
AcDbBlockTableRecord
  2
*Paper_Space
340
1E
  0
BLOCK_RECORD
  5
23
330
1
100
AcDbSymbolTableRecord
100
AcDbBlockTableRecord
  2
*Paper_Space0
340
26
  0
ENDTAB
  0
ENDSEC
  0
SECTION
  2
BLOCKS
  0
BLOCK
  5
20
330
1F
100
AcDbEntity
  8
0
100
AcDbBlockBegin
  2
*Model_Space
 70
     0
 10
0.0
 20
0.0
 30
0.0
  3
*Model_Space
  1

  0
ENDBLK
  5
21
330
1F
100
AcDbEntity
  8
0
100
AcDbBlockEnd
  0
BLOCK
  5
1C
330
1B
100
AcDbEntity
 67
     1
  8
0
100
AcDbBlockBegin
  2
*Paper_Space
 70
     0
 10
0.0
 20
0.0
 30
0.0
  3
*Paper_Space
  1

  0
ENDBLK
  5
1D
330
1B
100
AcDbEntity
 67
     1
  8
0
100
AcDbBlockEnd
  0
BLOCK
  5
24
330
23
100
AcDbEntity
  8
0
100
AcDbBlockBegin
  2
*Paper_Space0
 70
     0
 10
0.0
 20
0.0
 30
0.0
  3
*Paper_Space0
  1

  0
ENDBLK
  5
25
330
23
100
AcDbEntity
  8
0
100
AcDbBlockEnd
  0
ENDSEC
  0
SECTION
  2
ENTITIES
  0
MTEXT
  5
75
330
1F
100
AcDbEntity
  8
0
  6
Continuous
 62
     7
370
     0
100
AcDbMText
 10
7.2782978723
 20
22.1884790273
 30
0.0
 40
10.0
 41
0.0
 71
     1
 72
     1
  1
1:1
  7
SLDTEXTSTYLE0
 73
     1
 44
1.0
  0
SPLINE
  5
76
330
1F
100
AcDbEntity
  8
0
  6
Continuous
 62
     7
370
    30
100
AcDbSpline
210
0.0
220
0.0
230
1.0
 70
     8
 71
     3
 72
    27
 73
    23
 74
     0
 42
0.000000001
 43
0.00000001
 40
0.0
 40
0.0
 40
0.0
 40
0.0
 40
0.01822328400853
 40
0.0441500296961262
 40
0.0721628790328011
 40
0.1082314095080153
 40
0.147256243306928
 40
0.1892372391838174
 40
0.2341742336541658
 40
0.2820670426768809
 40
0.3329154627534629
 40
0.3867192716397408
 40
0.4434782287960671
 40
0.5031920756596255
 40
0.5658605357963443
 40
0.6314833149732475
 40
0.7000601011810115
 40
0.7674235476021919
 40
0.8374124620838755
 40
0.910026539644236
 40
0.9852654612327463
 40
0.9999999999999999
 40
0.9999999999999999
 40
0.9999999999999999
 40
0.9999999999999999
 10
267.2641252289364
 20
389.7743932125135
 30
0.0
 10
267.2617486259711
 20
389.7733779235251
 30
0.0
 10
267.2559907674288
 20
389.7709181561764
 30
0.0
 10
267.2467086454885
 20
389.767003471818
 30
0.0
 10
267.2352139948761
 20
389.7622020370095
 30
0.0
 10
267.2221592147549
 20
389.7568208414255
 30
0.0
 10
267.2074428192238
 20
389.7508450145726
 30
0.0
 10
267.1917106325178
 20
389.7445604185136
 30
0.0
 10
267.1749598145097
 20
389.7379855539089
 30
0.0
 10
267.1571886036015
 20
389.7311407907272
 30
0.0
 10
267.1383951724724
 20
389.7240474291615
 30
0.0
 10
267.1185780508462
 20
389.7167279623501
 30
0.0
 10
267.0977360838709
 20
389.7092059743538
 30
0.0
 10
267.0758685313676
 20
389.7015061569413
 30
0.0
 10
267.0529751169584
 20
389.693654223558
 30
0.0
 10
267.0290561353301
 20
389.6856771032934
 30
0.0
 10
267.0046176066948
 20
389.6777655886175
 30
0.0
 10
266.9796976654409
 20
389.6699442001729
 30
0.0
 10
266.9543336497771
 20
389.6622259512503
 30
0.0
 10
266.9280686766244
 20
389.6545224707145
 30
0.0
 10
266.908488371199
 20
389.6489125838059
 30
0.0
 10
266.8976786899597
 20
389.645968377603
 30
0.0
 10
266.8959084383026
 20
389.6454862185278
 30
0.0
  0
SPLINE
  5
77
330
1F
100
AcDbEntity
  8
0
  6
Continuous
 62
     7
370
    30
100
AcDbSpline
210
0.0
220
0.0
230
1.0
 70
     8
 71
     3
 72
    29
 73
    25
 74
     0
 42
0.000000001
 43
0.00000001
 40
0.0
 40
0.0
 40
0.0
 40
0.0
 40
0.0282098167895288
 40
0.0995412421151725
 40
0.1684832623525235
 40
0.2350355969121763
 40
0.2991979770579973
 40
0.3609701459109121
 40
0.417023018133195
 40
0.4709506276186042
 40
0.522752787988835
 40
0.5724293222225001
 40
0.6199800626716543
 40
0.6654048511003083
 40
0.708703538755408
 40
0.7498759864838671
 40
0.7889220649139729
 40
0.8258416547262147
 40
0.8600319926749304
 40
0.8921709120880275
 40
0.9222583311611896
 40
0.9502941801581879
 40
0.976731852743738
 40
1.0
 40
1.0
 40
1.0
 40
1.0
 10
281.1101674464128
 20
389.6438233049827
 30
0.0
 10
281.1067216988218
 20
389.64475942923
 30
0.0
 10
281.094563023784
 20
389.6480626399902
 30
0.0
 10
281.073936909917
 20
389.6539420314411
 30
0.0
 10
281.0485844241234
 20
389.6613592320763
 30
0.0
 10
281.0240666127632
 20
389.6687862426582
 30
0.0
 10
281.0003892649004
 20
389.6761789482198
 30
0.0
 10
280.9779635201134
 20
389.6833886164166
 30
0.0
 10
280.9567607167703
 20
389.6903896631817
 30
0.0
 10
280.9367515764498
 20
389.6971609794168
 30
0.0
 10
280.91749275423
 20
389.7038319248865
 30
0.0
 10
280.8989842822339
 20
389.7103859984452
 30
0.0
 10
280.8812259176422
 20
389.7168072343551
 30
0.0
 10
280.8642171676299
 20
389.7230802470566
 30
0.0
 10
280.8479573225022
 20
389.7291902332157
 30
0.0
 10
280.8324454811151
 20
389.7351229867759
 30
0.0
 10
280.8176805946673
 20
389.7408648954051
 30
0.0
 10
280.8037377263864
 20
389.7463728536697
 30
0.0
 10
280.7906073657614
 20
389.7516361986499
 30
0.0
 10
280.778279755909
 20
389.7566454985532
 30
0.0
 10
280.7666685823967
 20
389.761423790688
 30
0.0
 10
280.7557095765615
 20
389.7659887920402
 30
0.0
 10
280.7455597216133
 20
389.7702604127263
 30
0.0
 10
280.7389823626031
 20
389.7730653298964
 30
0.0
 10
280.7359033879781
 20
389.774378359758
 30
0.0
  0
ARC
  5
78
330
1F
100
AcDbEntity
  8
0
  6
Continuous
 62
     7
370
    30
100
AcDbCircle
 10
274.0
 20
363.0
 30
0.0
 40
27.57612749525063
100
AcDbArc
 50
104.9795769946
 51
262.3200882197
  0
ARC
  5
79
330
1F
100
AcDbEntity
  8
0
  6
Continuous
 62
     7
370
    30
100
AcDbCircle
 10
274.0
 20
363.0
 30
0.0
 40
27.57612749525066
100
AcDbArc
 50
277.6799117803
 51
75.020840838
  0
LINE
  5
7A
330
1F
100
AcDbEntity
  8
0
  6
Continuous
 62
     7
370
    30
100
AcDbLine
 10
277.6753107406
 20
332.8270769194
 30
0.0
 11
277.6852388066
 21
335.6712467759
 31
0.0
  0
LINE
  5
7B
330
1F
100
AcDbEntity
  8
0
  6
Continuous
 62
     7
370
    30
100
AcDbLine
 10
270.3246892594
 20
332.8270769194
 30
0.0
 11
270.3147611934
 21
335.6712467759
 31
0.0
  0
ARC
  5
7C
330
1F
100
AcDbEntity
  8
0
  6
Continuous
 62
     7
370
    30
100
AcDbCircle
 10
270.8246862132
 20
332.8288222451
 30
0.0
 40
0.4999999999999244
100
AcDbArc
 50
180.1999999998
 51
263.8208396496
  0
ARC
  5
7D
330
1F
100
AcDbEntity
  8
0
  6
Continuous
 62
     7
370
    30
100
AcDbCircle
 10
277.1753137868
 20
332.8288222451
 30
0.0
 40
0.5000000000000252
100
AcDbArc
 50
276.1791603504
 51
359.8
  0
ARC
  5
7E
330
1F
100
AcDbEntity
  8
0
  6
Continuous
 62
     7
370
    30
100
AcDbCircle
 10
274.0
 20
362.157432549
 30
0.0
 40
30.00000000000002
100
AcDbArc
 50
263.8208396496
 51
276.1791603504
  0
SPLINE
  5
7F
330
1F
100
AcDbEntity
  8
0
  6
Continuous
 62
     7
370
    30
100
AcDbSpline
210
0.0
220
0.0
230
1.0
 70
     8
 71
     3
 72
    14
 73
    10
 74
     0
 42
0.000000001
 43
0.00000001
 40
0.0
 40
0.0
 40
0.0
 40
0.0
 40
0.0424079304080998
 40
0.2013254302086337
 40
0.3599368468008882
 40
0.5186323986873249
 40
0.677810858930767
 40
0.8380048658591165
 40
1.0
 40
1.0
 40
1.0
 40
1.0
 10
267.5197164744553
 20
389.9070502210102
 30
0.0
 10
267.5530890075266
 20
389.9238220968396
 30
0.0
 10
267.7115202139794
 20
390.003444117633
 30
0.0
 10
267.9654598242086
 20
390.196962922304
 30
0.0
 10
268.2727395830246
 20
390.4824240241945
 30
0.0
 10
268.5359643239185
 20
390.8110756389231
 30
0.0
 10
268.7517513291886
 20
391.1731248232466
 30
0.0
 10
268.9200812489993
 20
391.5640856979348
 30
0.0
 10
268.9831158669646
 20
391.8408528629095
 30
0.0
 10
269.0148093665
 20
391.980010048242
 30
0.0
  0
SPLINE
  5
80
330
1F
100
AcDbEntity
  8
0
  6
Continuous
 62
     7
370
    30
100
AcDbSpline
210
0.0
220
0.0
230
1.0
 70
     8
 71
     3
 72
    14
 73
    10
 74
     0
 42
0.000000001
 43
0.00000001
 40
0.0
 40
0.0
 40
0.0
 40
0.0
 40
0.1619951341408724
 40
0.3221891410692112
 40
0.4813676013126425
 40
0.6400631531990686
 40
0.7986745697913128
 40
0.9575920695918361
 40
1.0
 40
1.0
 40
1.0
 40
1.0
 10
278.9851906335
 20
391.980010048242
 30
0.0
 10
279.0168841330354
 20
391.8408528629095
 30
0.0
 10
279.0799187510007
 20
391.5640856979348
 30
0.0
 10
279.2482486708116
 20
391.1731248232466
 30
0.0
 10
279.4640356760816
 20
390.8110756389231
 30
0.0
 10
279.7272604169755
 20
390.4824240241945
 30
0.0
 10
280.0345401757916
 20
390.196962922304
 30
0.0
 10
280.2884797860207
 20
390.003444117633
 30
0.0
 10
280.4469109924736
 20
389.9238220968395
 30
0.0
 10
280.4802835255449
 20
389.9070502210101
 30
0.0
  0
SPLINE
  5
81
330
1F
100
AcDbEntity
  8
0
  6
Continuous
 62
     7
370
    30
100
AcDbSpline
210
0.0
220
0.0
230
1.0
 70
     8
 71
     3
 72
    15
 73
    11
 74
     0
 42
0.000000001
 43
0.00000001
 40
0.0
 40
0.0
 40
0.0
 40
0.0
 40
0.1250028114494831
 40
0.2500048196276808
 40
0.3750060245345955
 40
0.500006426170229
 40
0.6250060245345834
 40
0.7500048196276623
 40
0.8750028114494672
 40
1.0
 40
1.0
 40
1.0
 40
1.0
 10
269.0148093665723
 20
391.9800100482415
 30
0.0
 10
269.0449152276827
 20
392.1236100611906
 30
0.0
 10
269.1051267564426
 20
392.4108091643116
 30
0.0
 10
269.2423770998219
 20
392.8296168894456
 30
0.0
 10
269.4127572106543
 20
393.2356336714031
 30
0.0
 10
269.6184443055138
 20
393.6251224606989
 30
0.0
 10
269.8568129823613
 20
393.9955095268092
 30
0.0
 10
270.1269088333208
 20
394.3432447132862
 30
0.0
 10
270.4244065817896
 20
394.6683911002052
 30
0.0
 10
270.6450595573385
 20
394.8618190541437
 30
0.0
 10
270.7553856906177
 20
394.9585327203567
 30
0.0
  0
SPLINE
  5
82
330
1F
100
AcDbEntity
  8
0
  6
Continuous
 62
     7
370
    30
100
AcDbSpline
210
0.0
220
0.0
230
1.0
 70
     8
 71
     3
 72
    15
 73
    11
 74
     0
 42
0.000000001
 43
0.00000001
 40
0.0
 40
0.0
 40
0.0
 40
0.0
 40
0.1296290108988182
 40
0.2579343571293133
 40
0.3849165675935608
 40
0.5105761836159886
 40
0.634913759559698
 40
0.7579298634753129
 40
0.8796250777844483
 40
1.0
 40
1.0
 40
1.0
 40
1.0
 10
270.7553856906177
 20
394.9585327203567
 30
0.0
 10
270.8747763932501
 20
395.0528702942385
 30
0.0
 10
271.1123386790161
 20
395.2405821444147
 30
0.0
 10
271.4968592042611
 20
395.479023778274
 30
0.0
 10
271.8951310023405
 20
395.6827297468523
 30
0.0
 10
272.3058432976812
 20
395.8483346034063
 30
0.0
 10
272.7247951285605
 20
395.9766927909869
 30
0.0
 10
273.1486743679782
 20
396.0669066689644
 30
0.0
 10
273.5740955256168
 20
396.1228306460403
 30
0.0
 10
273.858170221815
 20
396.1297284779293
 30
0.0
 10
273.9994328738265
 20
396.1331585828939
 30
0.0
  0
SPLINE
  5
83
330
1F
100
AcDbEntity
  8
0
  6
Continuous
 62
     7
370
    30
100
AcDbSpline
210
0.0
220
0.0
230
1.0
 70
     8
 71
     3
 72
    13
 73
     9
 74
     0
 42
0.000000001
 43
0.00000001
 40
0.0
 40
0.0
 40
0.0
 40
0.0
 40
0.1666652591400325
 40
0.3333310812907182
 40
0.4999974664520579
 40
0.6666644146240516
 40
0.8333319258066987
 40
1.0
 40
1.0
 40
1.0
 40
1.0
 10
274.0
 20
396.1331586146226
 30
0.0
 10
274.1955418325012
 20
396.1266271536384
 30
0.0
 10
274.5866261580622
 20
396.1135642096062
 30
0.0
 10
275.1653500338329
 20
396.0081685749199
 30
0.0
 10
275.7287050810061
 20
395.8417583116876
 30
0.0
 10
276.2680950401464
 20
395.6091167565108
 30
0.0
 10
276.780252316554
 20
395.3197528042983
 30
0.0
 10
277.0891344296708
 20
395.0795163176008
 30
0.0
 10
277.2435757470833
 20
394.9593978713699
 30
0.0
  0
SPLINE
  5
84
330
1F
100
AcDbEntity
  8
0
  6
Continuous
 62
     7
370
    30
100
AcDbSpline
210
0.0
220
0.0
230
1.0
 70
     8
 71
     3
 72
    17
 73
    13
 74
     0
 42
0.000000001
 43
0.00000001
 40
0.0
 40
0.0
 40
0.0
 40
0.0
 40
0.0820237631072688
 40
0.1680422938697056
 40
0.2580555990966992
 40
0.3520636690475493
 40
0.4500664796698395
 40
0.5520639943994105
 40
0.6580561656210737
 40
0.7680429358639946
 40
0.882024238787513
 40
1.0
 40
1.0
 40
1.0
 40
1.0
 10
277.2435757470833
 20
394.9593978713699
 30
0.0
 10
277.3165444051716
 20
394.8965600123759
 30
0.0
 10
277.4660354821625
 20
394.7678239294752
 30
0.0
 10
277.6805644942242
 20
394.553650489209
 30
0.0
 10
277.8918463390195
 20
394.3171997685674
 30
0.0
 10
278.096026748547
 20
394.0563731984277
 30
0.0
 10
278.2903781772165
 20
393.7709491506985
 30
0.0
 10
278.4714915143364
 20
393.4605220538066
 30
0.0
 10
278.6360812174226
 20
393.125206799276
 30
0.0
 10
278.7797362124371
 20
392.7653125415654
 30
0.0
 10
278.9014668378629
 20
392.3822659897407
 30
0.0
 10
278.9569641345175
 20
392.1156259363862
 30
0.0
 10
278.9851906334277
 20
391.9800100482415
 30
0.0
  0
LINE
  5
85
330
1F
100
AcDbEntity
  8
0
  6
Continuous
 62
     7
370
    30
100
AcDbLine
 10
266.8723528647
 20
389.6382167943
 30
0.0
 11
266.8724811935
 21
389.6382468135
 31
0.0
  0
LINE
  5
86
330
1F
100
AcDbEntity
  8
0
  6
Continuous
 62
     7
370
    30
100
AcDbLine
 10
281.1273955533
 20
389.6387617644
 30
0.0
 11
281.1274469952
 21
389.6387441387
 31
0.0
  0
CIRCLE
  5
87
330
1F
100
AcDbEntity
  8
0
  6
Continuous
 62
     7
370
    30
100
AcDbCircle
 10
274.0
 20
391.0
 30
0.0
 40
85.01343569450285
  0
SPLINE
  5
88
330
1F
100
AcDbEntity
  8
0
  6
Continuous
 62
     7
370
    30
100
AcDbSpline
210
0.0
220
0.0
230
1.0
 70
     8
 71
     3
 72
   279
 73
   275
 74
     0
 42
0.000000001
 43
0.00000001
 40
0.0
 40
0.0
 40
0.0
 40
0.0
 40
0.0029709816647998
 40
0.0059421560907542
 40
0.008913137755554
 40
0.0127422706109721
 40
0.016572229084929
 40
0.0204021875588859
 40
0.024231320414304
 40
0.0285227440853555
 40
0.0328147488399491
 40
0.0371061725110005
 40
0.0410539009076065
 40
0.0450025340668807
 40
0.0489511672261549
 40
0.0528988956227609
 40
0.056007322579481
 40
0.0591159703120715
 40
0.0622243972687916
 40
0.0657253013977259
 40
0.0692268364554294
 40
0.072728371513133
 40
0.0762292756420673
 40
0.0797505665955044
 40
0.083272499567671
 40
0.0867944325398377
 40
0.0903157234932747
 40
0.0942324808897003
 40
0.0981510051479196
 40
0.1020704152256162
 40
0.1059898253033128
 40
0.1099083495615321
 40
0.1138251069579577
 40
0.1173662348097845
 40
0.1209076890907125
 40
0.1244488169425393
 40
0.1279497210714736
 40
0.1314512561291771
 40
0.1349527911868805
 40
0.1384536953158148
 40
0.141974986269252
 40
0.1454969192414186
 40
0.1490188522135853
 40
0.1525401431670225
 40
0.156456900563448
 40
0.1603754248216673
 40
0.1642948348993638
 40
0.1682142449770603
 40
0.1721327692352797
 40
0.1760495266317052
 40
0.179590654483532
 40
0.1831321087644598
 40
0.1866732366162866
 40
0.1901741407452208
 40
0.1936756758029244
 40
0.1971772108606279
 40
0.2006781149895623
 40
0.2041994059429995
 40
0.2077213389151663
 40
0.2112432718873331
 40
0.2147645628407703
 40
0.2186813202371957
 40
0.2225998444954151
 40
0.2265192545731116
 40
0.2304386646508081
 40
0.2343571889090275
 40
0.2382739463054529
 40
0.2418150741572799
 40
0.2453565284382079
 40
0.2488976562900349
 40
0.2523985604189691
 40
0.2559000954766726
 40
0.2594016305343759
 40
0.2629025346633103
 40
0.2664238256167473
 40
0.2699457585889141
 40
0.2734676915610808
 40
0.2769889825145179
 40
0.2809057399109433
 40
0.2848242641691626
 40
0.2887436742468591
 40
0.2926630843245556
 40
0.2965816085827748
 40
0.3004983659792003
 40
0.3040394938310271
 40
0.3075809481119551
 40
0.311122075963782
 40
0.3146229800927162
 40
0.3181245151504197
 40
0.3216260502081232
 40
0.3251269543370574
 40
0.3286482452904945
 40
0.3321701782626613
 40
0.335692111234828
 40
0.3392134021882651
 40
0.3431301595846906
 40
0.3470486838429099
 40
0.3509680939206065
 40
0.3548875039983029
 40
0.3588060282565222
 40
0.3627227856529477
 40
0.3662639135047746
 40
0.3698053677857024
 40
0.3733464956375293
 40
0.3768473997664635
 40
0.380348934824167
 40
0.3838504698818705
 40
0.3873513740108047
 40
0.3908726649642418
 40
0.3943945979364085
 40
0.3979165309085752
 40
0.4014378218620123
 40
0.4053545792584378
 40
0.4092731035166571
 40
0.4131925135943536
 40
0.4171119236720502
 40
0.4210304479302695
 40
0.424947205326695
 40
0.4284883331785219
 40
0.4320297874594499
 40
0.4355709153112768
 40
0.4390718194402111
 40
0.4425733544979146
 40
0.4460748895556181
 40
0.4495757936845523
 40
0.4530970846379894
 40
0.4566190176101561
 40
0.4601409505823227
 40
0.4636622415357598
 40
0.4675789989321853
 40
0.4714975231904047
 40
0.4754169332681011
 40
0.4793363433457976
 40
0.4832548676040169
 40
0.4871716250004424
 40
0.4907127528522693
 40
0.4942542071331973
 40
0.4977953349850243
 40
0.5012962391139586
 40
0.504797774171662
 40
0.5082993092293655
 40
0.5118002133582998
 40
0.5153215043117368
 40
0.5188434372839035
 40
0.5223653702560701
 40
0.5258866612095072
 40
0.5298034186059326
 40
0.5337219428641519
 40
0.5376413529418483
 40
0.5415607630195448
 40
0.5454792872777641
 40
0.5493960446741895
 40
0.5529371725260163
 40
0.556478626806944
 40
0.5600197546587707
 40
0.563520658787705
 40
0.5670221938454085
 40
0.570523728903112
 40
0.5740246330320462
 40
0.5775459239854833
 40
0.5810678569576501
 40
0.5845897899298168
 40
0.5881110808832539
 40
0.5920278382796794
 40
0.5959463625378987
 40
0.5998657726155951
 40
0.6037851826932916
 40
0.6077037069515109
 40
0.6116204643479364
 40
0.6151615921997633
 40
0.6187030464806911
 40
0.6222441743325179
 40
0.6257450784614521
 40
0.6292466135191556
 40
0.6327481485768591
 40
0.6362490527057932
 40
0.6397703436592305
 40
0.6432922766313973
 40
0.6468142096035642
 40
0.6503355005570014
 40
0.6542522579534269
 40
0.6581707822116463
 40
0.6620901922893427
 40
0.6660096023670392
 40
0.6699281266252585
 40
0.673844884021684
 40
0.6773860118735109
 40
0.6809274661544389
 40
0.6844685940062657
 40
0.6879694981351999
 40
0.6914710331929034
 40
0.6949725682506067
 40
0.6984734723795409
 40
0.7019947633329781
 40
0.7055166963051448
 40
0.7090386292773115
 40
0.7125599202307488
 40
0.7164766776271742
 40
0.7203952018853934
 40
0.7243146119630899
 40
0.7282340220407864
 40
0.7321525462990056
 40
0.736069303695431
 40
0.7396104315472578
 40
0.7431518858281857
 40
0.7466930136800125
 40
0.7501939178089467
 40
0.7536954528666502
 40
0.7571969879243537
 40
0.760697892053288
 40
0.7642191830067251
 40
0.7677411159788918
 40
0.7712630489510585
 40
0.7747843399044956
 40
0.7787010973009212
 40
0.7826196215591406
 40
0.7865390316368372
 40
0.7904584417145338
 40
0.7943769659727533
 40
0.7982937233691788
 40
0.8018348512210057
 40
0.8053763055019337
 40
0.8089174333537605
 40
0.8124183374826949
 40
0.8159198725403983
 40
0.8194214075981018
 40
0.8229223117270361
 40
0.8264436026804732
 40
0.8299655356526399
 40
0.8334874686248066
 40
0.8370087595782437
 40
0.8409255169746691
 40
0.8448440412328884
 40
0.8487634513105848
 40
0.8526828613882813
 40
0.8566013856465006
 40
0.8605181430429261
 40
0.864059270894753
 40
0.8676007251756809
 40
0.8711418530275078
 40
0.874642757156442
 40
0.8781442922141455
 40
0.881645827271849
 40
0.8851467314007833
 40
0.8886680223542204
 40
0.8921899553263871
 40
0.8957118882985537
 40
0.899233179251991
 40
0.9031499366484165
 40
0.9070684609066357
 40
0.9109878709843322
 40
0.9149072810620287
 40
0.9188258053202482
 40
0.9227425627166735
 40
0.9262836905685002
 40
0.9298251448494282
 40
0.9333662727012549
 40
0.9370984179525903
 40
0.9408320917704769
 40
0.9445665317479895
 40
0.9483009717255023
 40
0.9520346455433891
 40
0.9557667907947244
 40
0.9599126216246937
 40
0.9640600243784072
 40
0.9682079521643805
 40
0.9723553549180941
 40
0.9765011857480633
 40
0.98041618359473
 40
0.9843329459224957
 40
0.9882505928740316
 40
0.9921682398255676
 40
0.9960850021533334
 40
1.0
 40
1.0
 40
1.0
 40
1.0
 10
280.8878611916988
 20
443.9914603265857
 30
0.0
 10
280.9681832562264
 20
443.9541025813733
 30
0.0
 10
281.1288325966813
 20
443.8793846671294
 30
0.0
 10
281.3674759502806
 20
443.7624067419991
 30
0.0
 10
281.6271396570456
 20
443.6302727062364
 30
0.0
 10
281.9068911726204
 20
443.4812432566016
 30
0.0
 10
282.2058523622246
 20
443.3139593097347
 30
0.0
 10
282.5012760751828
 20
443.1405021283867
 30
0.0
 10
282.8047548763874
 20
442.953741039371
 30
0.0
 10
283.1156214587083
 20
442.7528535091596
 30
0.0
 10
283.4331325474855
 20
442.5370434347681
 30
0.0
 10
283.7372006209056
 20
442.3198646564638
 30
0.0
 10
284.0281339722033
 20
442.1020793281603
 30
0.0
 10
284.3062908951991
 20
441.8844167874336
 30
0.0
 10
284.5797293816532
 20
441.6608562945478
 30
0.0
 10
284.8292698346355
 20
441.4477637500941
 30
0.0
 10
285.0559436849713
 20
441.2465653745033
 30
0.0
 10
285.2607628839747
 20
441.0585022137751
 30
0.0
 10
285.4708698032242
 20
440.8589565282745
 30
0.0
 10
285.6857159856365
 20
440.6474532701306
 30
0.0
 10
285.9047046432767
 20
440.423530766647
 30
0.0
 10
286.1194067302421
 20
440.1954947620144
 30
0.0
 10
286.3301383760104
 20
439.9629890092602
 30
0.0
 10
286.5367998517723
 20
439.7260501102938
 30
0.0
 10
286.7393043034648
 20
439.4847296591719
 30
0.0
 10
286.937167505761
 20
439.2395892032048
 30
0.0
 10
287.1375352118013
 20
438.9814180462504
 30
0.0
 10
287.3397059359816
 20
438.7097573463283
 30
0.0
 10
287.5429388171075
 20
438.4241889400555
 30
0.0
 10
287.7401126883359
 20
438.1343081011592
 30
0.0
 10
287.9310954695327
 20
437.8403114853922
 30
0.0
 10
288.115757089948
 20
437.542397046864
 30
0.0
 10
288.2883061812386
 20
437.2503349260732
 30
0.0
 10
288.4493767417128
 20
436.9646350445225
 30
0.0
 10
288.599624678756
 20
436.6857579142873
 30
0.0
 10
288.7439440282353
 20
436.4051151087876
 30
0.0
 10
288.8823501692452
 20
436.1228350203052
 30
0.0
 10
289.0148746372038
 20
435.839048731694
 30
0.0
 10
289.141992498227
 20
435.5527998267001
 30
0.0
 10
289.2638842473879
 20
435.2636473439837
 30
0.0
 10
289.3804678647455
 20
434.9716588747289
 30
0.0
 10
289.4916784778565
 20
434.6769118425307
 30
0.0
 10
289.5972450310066
 20
434.3800964239095
 30
0.0
 10
289.7008616712374
 20
434.0701558557316
 30
0.0
 10
289.8017145771249
 20
433.7468893573696
 30
0.0
 10
289.8989662363388
 20
433.4101475669507
 30
0.0
 10
289.9890730000453
 20
433.0713420070966
 30
0.0
 10
290.0719753277842
 20
432.7307019670957
 30
0.0
 10
290.1476160049666
 20
432.3884572962924
 30
0.0
 10
290.2137641008035
 20
432.055744355872
 30
0.0
 10
290.2711866612218
 20
431.7328344654621
 30
0.0
 10
290.3206550513872
 20
431.4199450685045
 30
0.0
 10
290.3639446072418
 20
431.1073519251589
 30
0.0
 10
290.4011123395051
 20
430.7951710995125
 30
0.0
 10
290.4322313950631
 20
430.4835158467208
 30
0.0
 10
290.457433480854
 20
430.1713264153283
 30
0.0
 10
290.4767429565569
 20
429.8581269566401
 30
0.0
 10
290.4901047988536
 20
429.5440084007024
 30
0.0
 10
290.4974834198817
 20
429.2290652797902
 30
0.0
 10
290.4988514959518
 20
428.9140385852972
 30
0.0
 10
290.4940350801621
 20
428.5872720538499
 30
0.0
 10
290.4821997676745
 20
428.2488456025086
 30
0.0
 10
290.4625058181247
 20
427.8988955103733
 30
0.0
 10
290.4353866202306
 20
427.5493629863369
 30
0.0
 10
290.4008618859359
 20
427.200484102599
 30
0.0
 10
290.3589537073252
 20
426.8524946899678
 30
0.0
 10
290.3112431116864
 20
426.5166417900697
 30
0.0
 10
290.2585437139552
 20
426.1929275314276
 30
0.0
 10
290.2016553715068
 20
425.881301773751
 30
0.0
 10
290.1390345646981
 20
425.5720007982151
 30
0.0
 10
290.0707735083477
 20
425.2651152553676
 30
0.0
 10
289.9969787140527
 20
424.960727804006
 30
0.0
 10
289.9174236806155
 20
424.6577948364106
 30
0.0
 10
289.831973885952
 20
424.3558592648619
 30
0.0
 10
289.7406075068287
 20
424.0550251065955
 30
0.0
 10
289.6433222522256
 20
423.7553933447694
 30
0.0
 10
289.5403376110165
 20
423.4576722444921
 30
0.0
 10
289.4276311535505
 20
423.1509201974238
 30
0.0
 10
289.3044419643909
 20
422.8354888082701
 30
0.0
 10
289.1700227494957
 20
422.5117846326694
 30
0.0
 10
289.0287350738438
 20
422.1909322850661
 30
0.0
 10
288.8806756794108
 20
421.8731480052214
 30
0.0
 10
288.72594347424
 20
421.5586470172724
 30
0.0
 10
288.5697531948625
 20
421.2575190246611
 30
0.0
 10
288.4128732963112
 20
420.96949672483
 30
0.0
 10
288.2560419503188
 20
420.6942680466944
 30
0.0
 10
288.0945708017883
 20
420.4231305776771
 30
0.0
 10
287.9285768731157
 20
420.1561393346248
 30
0.0
 10
287.7581880322348
 20
419.8933370608242
 30
0.0
 10
287.5828451061041
 20
419.6338139511456
 30
0.0
 10
287.402269857221
 20
419.3771832120178
 30
0.0
 10
287.2164761228403
 20
419.1235502207117
 30
0.0
 10
287.0254951670798
 20
418.8730110261832
 30
0.0
 10
286.8297685456713
 20
418.6261613157371
 30
0.0
 10
286.6218788446441
 20
418.3740077194075
 30
0.0
 10
286.4012244254068
 20
418.117133888782
 30
0.0
 10
286.1672346919737
 20
417.8561708199729
 30
0.0
 10
285.9277076522193
 20
417.6001723170862
 30
0.0
 10
285.6828061712275
 20
417.349310408052
 30
0.0
 10
285.4326948218682
 20
417.1037554454477
 30
0.0
 10
285.1856341279301
 20
416.8713022570055
 30
0.0
 10
284.9422607470671
 20
416.6514442454235
 30
0.0
 10
284.7031679421066
 20
416.4436425924702
 30
0.0
 10
284.4610510989698
 20
416.2412373228196
 30
0.0
 10
284.2160388542427
 20
416.0442416168851
 30
0.0
 10
283.9682660160565
 20
415.8526534834618
 30
0.0
 10
283.7169037820441
 20
415.6657994936365
 30
0.0
 10
283.4615615684525
 20
415.4834067560273
 30
0.0
 10
283.2022873129795
 20
415.3055701274523
 30
0.0
 10
282.939142310088
 20
415.1323698938743
 30
0.0
 10
282.6727404003089
 20
414.9642220055697
 30
0.0
 10
282.39310544251
 20
414.7950952651884
 30
0.0
 10
282.0998629051326
 20
414.6257395689109
 30
0.0
 10
281.7926832206164
 20
414.4569392132986
 30
0.0
 10
281.4819216734974
 20
414.294656444386
 30
0.0
 10
281.1677888901647
 20
414.1389996834278
 30
0.0
 10
280.8504965539728
 20
413.990075205481
 30
0.0
 10
280.5404196645726
 20
413.8525041548708
 30
0.0
 10
280.2379913039182
 20
413.7255977545538
 30
0.0
 10
279.9435929400484
 20
413.6086511868198
 30
0.0
 10
279.6481272397287
 20
413.4977977752914
 30
0.0
 10
279.3517199509362
 20
413.3930073779568
 30
0.0
 10
279.054497623405
 20
413.2942334936128
 30
0.0
 10
278.7554552666226
 20
413.201114993564
 30
0.0
 10
278.4541339859402
 20
413.1135236550512
 30
0.0
 10
278.1506104148873
 20
413.0315331200534
 30
0.0
 10
277.8449689677863
 20
412.9551988599067
 30
0.0
 10
277.5379265641031
 20
412.8847101926204
 30
0.0
 10
277.218073069781
 20
412.8176780652107
 30
0.0
 10
276.8853032858854
 20
412.754934073345
 30
0.0
 10
276.5395658295241
 20
412.6973273905458
 30
0.0
 10
276.1926057821158
 20
412.647056506764
 30
0.0
 10
275.8446577848274
 20
412.6041540129052
 30
0.0
 10
275.4959567658051
 20
412.568650124799
 30
0.0
 10
275.1578224980539
 20
412.5414713043962
 30
0.0
 10
274.8304356611232
 20
412.5218242492986
 30
0.0
 10
274.5139229206351
 20
412.5089176051674
 30
0.0
 10
274.198419879512
 20
412.5021139330037
 30
0.0
 10
273.884035219991
 20
412.5013431666538
 30
0.0
 10
273.570872965887
 20
412.5065195375739
 30
0.0
 10
273.2578652435982
 20
412.5176349318077
 30
0.0
 10
272.9445365844714
 20
412.534720251362
 30
0.0
 10
272.6309836780179
 20
412.5578196208018
 30
0.0
 10
272.3173045413453
 20
412.5869574428644
 30
0.0
 10
272.0042383456237
 20
412.622075059123
 30
0.0
 10
271.6802273699315
 20
412.6646949085606
 30
0.0
 10
271.3454476083404
 20
412.7156365302287
 30
0.0
 10
271.0001316556575
 20
412.7757182367379
 30
0.0
 10
270.6560902213498
 20
412.8431268988906
 30
0.0
 10
270.31355550735
 20
412.9178156028656
 30
0.0
 10
269.97275920023
 20
412.9997350986601
 30
0.0
 10
269.6446896278116
 20
413.0860127142931
 30
0.0
 10
269.3292546969907
 20
413.1758400608392
 30
0.0
 10
269.026311990385
 20
413.2684284665299
 30
0.0
 10
268.7263421830147
 20
413.3664415961562
 30
0.0
 10
268.42942463828
 20
413.4697773588501
 30
0.0
 10
268.1356291261797
 20
413.5783203884798
 30
0.0
 10
267.8439452846714
 20
413.6924165006149
 30
0.0
 10
267.5539346765809
 20
413.8122522380616
 30
0.0
 10
267.2657031463924
 20
413.937837233261
 30
0.0
 10
266.9793512633138
 20
414.069162069128
 30
0.0
 10
266.6955571142764
 20
414.2059267240921
 30
0.0
 10
266.403918436854
 20
414.353393485657
 30
0.0
 10
266.104872576128
 20
414.5122774394467
 30
0.0
 10
265.7989098813048
 20
414.6832737786206
 30
0.0
 10
265.4965751220003
 20
414.8607621713959
 30
0.0
 10
265.1980718819068
 20
415.0446214884022
 30
0.0
 10
264.9036024851181
 20
415.2347285663682
 30
0.0
 10
264.6225849636658
 20
415.4247354713557
 30
0.0
 10
264.3546648345912
 20
415.613909867631
 30
0.0
 10
264.0994466539869
 20
415.8015546827553
 30
0.0
 10
263.8488294006518
 20
415.9933343773104
 30
0.0
 10
263.6028541715269
 20
416.1891263456846
 30
0.0
 10
263.3615486167576
 20
416.3887986308142
 30
0.0
 10
263.1240737965165
 20
416.5930119897131
 30
0.0
 10
262.8900777355735
 20
416.8020875747002
 30
0.0
 10
262.659663500224
 20
417.0159994401081
 30
0.0
 10
262.4329228733599
 20
417.234705410734
 30
0.0
 10
262.2103964085167
 20
417.4576979270204
 30
0.0
 10
261.9840100779426
 20
417.6933858419934
 30
0.0
 10
261.7544132703887
 20
417.9422991673704
 30
0.0
 10
261.522298806307
 20
418.2049315991043
 30
0.0
 10
261.2957566726785
 20
418.4724892526011
 30
0.0
 10
261.0749388824379
 20
418.7447904393587
 30
0.0
 10
260.8599955866944
 20
419.0216519685621
 30
0.0
 10
260.6577127100206
 20
419.2939663257133
 30
0.0
 10
260.4675133448679
 20
419.5611597935695
 30
0.0
 10
260.2887936041046
 20
419.8227054886506
 30
0.0
 10
260.115784098996
 20
420.0866300423681
 30
0.0
 10
259.9484830266559
 20
420.3528041572191
 30
0.0
 10
259.786872800032
 20
420.6210941623664
 30
0.0
 10
259.6303804856132
 20
420.8924012609268
 30
0.0
 10
259.4787802526515
 20
421.167145007244
 30
0.0
 10
259.3321607693094
 20
421.4452668027195
 30
0.0
 10
259.1905946843389
 20
421.7266964689671
 30
0.0
 10
259.0544240745687
 20
422.0107761319318
 30
0.0
 10
258.9188134323029
 20
422.3081131757716
 30
0.0
 10
258.7845509763065
 20
422.6189927834963
 30
0.0
 10
258.6524538880273
 20
422.9436514933786
 30
0.0
 10
258.5272452871471
 20
423.2711133117931
 30
0.0
 10
258.4090084775385
 20
423.6011564751066
 30
0.0
 10
258.2978245089271
 20
423.9335584183344
 30
0.0
 10
258.1970821369076
 20
424.2574788495918
 30
0.0
 10
258.106047071291
 20
424.5725673523933
 30
0.0
 10
258.0239750654147
 20
424.8785266343336
 30
0.0
 10
257.948078817825
 20
425.1848405558499
 30
0.0
 10
257.8783138290705
 20
425.4913877048612
 30
0.0
 10
257.8146192577074
 20
425.7980477671294
 30
0.0
 10
257.7567527704488
 20
426.1058607880587
 30
0.0
 10
257.7046401417318
 20
426.4152974224489
 30
0.0
 10
257.6583456449239
 20
426.7262730253172
 30
0.0
 10
257.6179146040411
 20
427.0386973271749
 30
0.0
 10
257.5834520526377
 20
427.3518363097786
 30
0.0
 10
257.553906169886
 20
427.6772999863196
 30
0.0
 10
257.5301151388782
 20
428.0150965588788
 30
0.0
 10
257.512928371048
 20
428.3651787401533
 30
0.0
 10
257.5031696228632
 20
428.7156258875059
 30
0.0
 10
257.5008440972539
 20
429.0662011643396
 30
0.0
 10
257.5059546048208
 20
429.4166677240143
 30
0.0
 10
257.5181106756933
 20
429.7556746579361
 30
0.0
 10
257.5365034226911
 20
430.0831343571777
 30
0.0
 10
257.560332147786
 20
430.3990126378719
 30
0.0
 10
257.5901058839004
 20
430.7131813561599
 30
0.0
 10
257.6257424519929
 20
431.0255406736732
 30
0.0
 10
257.6671446156402
 20
431.3359971972909
 30
0.0
 10
257.7144279630188
 20
431.6456125574751
 30
0.0
 10
257.7676782421205
 20
431.9548554467225
 30
0.0
 10
257.826928085183
 20
432.2636247167464
 30
0.0
 10
257.8921903815473
 20
432.5718201841553
 30
0.0
 10
257.9633212797571
 20
432.8787144415065
 30
0.0
 10
258.0431712306717
 20
433.1956111901079
 30
0.0
 10
258.1325338829254
 20
433.5222407263892
 30
0.0
 10
258.2321951132424
 20
433.8582772687564
 30
0.0
 10
258.3389864425833
 20
434.1921994875908
 30
0.0
 10
258.4528343863449
 20
434.5237821748614
 30
0.0
 10
258.5736631991289
 20
434.8528009049347
 30
0.0
 10
258.6973472081156
 20
435.1686738813463
 30
0.0
 10
258.8230941250266
 20
435.4715861799689
 30
0.0
 10
258.9501370730972
 20
435.7617705794455
 30
0.0
 10
259.0822240300251
 20
436.0483739547263
 30
0.0
 10
259.2192444022428
 20
436.3313292971749
 30
0.0
 10
259.3610755210161
 20
436.6105806641526
 30
0.0
 10
259.5081778642951
 20
436.8870915803986
 30
0.0
 10
259.6607874861907
 20
437.1612759345828
 30
0.0
 10
259.8189016987731
 20
437.4330274788165
 30
0.0
 10
259.9824995035341
 20
437.7022474107226
 30
0.0
 10
260.1512043821635
 20
437.9682969433327
 30
0.0
 10
260.3314476905103
 20
438.2408990594856
 30
0.0
 10
260.5238890648305
 20
438.5195365570331
 30
0.0
 10
260.7291622457242
 20
438.8036418893316
 30
0.0
 10
260.9404637397732
 20
439.0833919829072
 30
0.0
 10
261.157649662839
 20
439.3585986465159
 30
0.0
 10
261.3805742414304
 20
439.6290751863102
 30
0.0
 10
261.6018417812843
 20
439.8862019041871
 30
0.0
 10
261.8207657672011
 20
440.1304158029736
 30
0.0
 10
262.0367001378011
 20
440.3621899955128
 30
0.0
 10
262.2610033560794
 20
440.5938703519873
 30
0.0
 10
262.4939097167635
 20
440.8251137787486
 30
0.0
 10
262.7356239460586
 20
441.055569360372
 30
0.0
 10
262.9819979208149
 20
441.2811378291753
 30
0.0
 10
263.2328796938193
 20
441.5016816336011
 30
0.0
 10
263.4881166792271
 20
441.7170644081943
 30
0.0
 10
263.757195644999
 20
441.9349539087416
 30
0.0
 10
264.0406380725984
 20
442.1545887971207
 30
0.0
 10
264.3389136644427
 20
442.3751679234715
 30
0.0
 10
264.6421050549923
 20
442.5890215866133
 30
0.0
 10
264.9499824684062
 20
442.795987866527
 30
0.0
 10
265.2565851845918
 20
442.9922366681872
 30
0.0
 10
265.5615404735415
 20
443.1781364965092
 30
0.0
 10
265.8644970614461
 20
443.3540892259031
 30
0.0
 10
266.1711696961944
 20
443.523651386091
 30
0.0
 10
266.4814265778483
 20
443.6865450157882
 30
0.0
 10
266.7947756514682
 20
443.8432757653393
 30
0.0
 10
267.006366979274
 20
443.9420728923966
 30
0.0
 10
267.1121388076092
 20
443.9914603265202
 30
0.0
  0
SPLINE
  5
89
330
1F
100
AcDbEntity
  8
0
  6
Continuous
 62
     7
370
    30
100
AcDbSpline
210
0.0
220
0.0
230
1.0
 70
     8
 71
     3
 72
    31
 73
    27
 74
     0
 42
0.000000001
 43
0.00000001
 40
0.0
 40
0.0
 40
0.0
 40
0.0
 40
0.0488726252387884
 40
0.0977828591458695
 40
0.1466554840918189
 40
0.1843698328346196
 40
0.2221187270810461
 40
0.2598676211908267
 40
0.2975819697471183
 40
0.3464545985319616
 40
0.3953648366861167
 40
0.4442374653011546
 40
0.4819518335902289
 40
0.5197007478550959
 40
0.5574496620783009
 40
0.5951640303105136
 40
0.6440364135356569
 40
0.6929464058540342
 40
0.7418187891080076
 40
0.7795329595539616
 40
0.8172816753840658
 40
0.8550303912861279
 40
0.8927445618302949
 40
0.9284914754802374
 40
0.9642530862913684
 40
0.9999999999999999
 40
0.9999999999999999
 40
0.9999999999999999
 40
0.9999999999999999
 10
268.8595780967992
 20
446.698251743577
 30
0.0
 10
268.8583310936148
 20
446.6428506405538
 30
0.0
 10
268.8558361276468
 20
446.5320058020173
 30
0.0
 10
268.840435877463
 20
446.3663469260649
 30
0.0
 10
268.8183951985193
 20
446.2142754947103
 30
0.0
 10
268.7911599400885
 20
446.0759404479392
 30
0.0
 10
268.7610363175864
 20
445.9511524294585
 30
0.0
 10
268.7256148264154
 20
445.8277614719828
 30
0.0
 10
268.6809642830565
 20
445.6940335808188
 30
0.0
 10
268.6251544189425
 20
445.550846461039
 30
0.0
 10
268.5562844827772
 20
445.3994469243029
 30
0.0
 10
268.4850229847339
 20
445.263288632618
 30
0.0
 10
268.4135594393081
 20
445.1417574039403
 30
0.0
 10
268.3438218270042
 20
445.0339772256879
 30
0.0
 10
268.2695555156752
 20
444.9292661165729
 30
0.0
 10
268.1831567685138
 20
444.8178567097294
 30
0.0
 10
268.0830975523799
 20
444.7012151082062
 30
0.0
 10
267.9679961267853
 20
444.5811473279814
 30
0.0
 10
267.8556830425779
 20
444.4762529545781
 30
0.0
 10
267.7480207829826
 20
444.3852284271826
 30
0.0
 10
267.6465394122904
 20
444.3066065953549
 30
0.0
 10
267.5417984832519
 20
444.2323864790776
 30
0.0
 10
267.4358987751148
 20
444.1639157552719
 30
0.0
 10
267.3291330774127
 20
444.10116988852
 30
0.0
 10
267.2220297911408
 20
444.0435206939402
 30
0.0
 10
267.1487641160368
 20
444.0088114044007
 30
0.0
 10
267.1121388076091
 20
443.9914603265203
 30
0.0
  0
SPLINE
  5
8A
330
1F
100
AcDbEntity
  8
0
  6
Continuous
 62
     7
370
    30
100
AcDbSpline
210
0.0
220
0.0
230
1.0
 70
     8
 71
     3
 72
    31
 73
    27
 74
     0
 42
0.000000001
 43
0.00000001
 40
0.0
 40
0.0
 40
0.0
 40
0.0
 40
0.048872378385476
 40
0.0977823654799531
 40
0.1466547436712755
 40
0.1843689056360226
 40
0.2221176129748129
 40
0.2598663202559029
 40
0.2975804821418975
 40
0.346452862092047
 40
0.395362851118026
 40
0.4442352310669611
 40
0.4819493994015421
 40
0.5196981131516104
 40
0.5574468269580799
 40
0.5951609953696425
 40
0.6440333223355108
 40
0.6929432580910575
 40
0.741815585249018
 40
0.7795297000512775
 40
0.8172783596845679
 40
0.8550270194631894
 40
0.8927411344638043
 40
0.928489190161461
 40
0.9642519442172613
 40
1.0
 40
1.0
 40
1.0
 40
1.0
 10
280.8878611916988
 20
443.9914603265856
 30
0.0
 10
280.8378857337208
 20
444.0154031714781
 30
0.0
 10
280.737896360204
 20
444.0633072859747
 30
0.0
 10
280.5932658025757
 20
444.145537167521
 30
0.0
 10
280.4637515218568
 20
444.2282252912462
 30
0.0
 10
280.3488940515887
 20
444.3099926909007
 30
0.0
 10
280.2475714446997
 20
444.3888155832465
 30
0.0
 10
280.1497029476534
 20
444.4718914796331
 30
0.0
 10
280.0462133122429
 20
444.5676334050181
 30
0.0
 10
279.938697029361
 20
444.677439153431
 30
0.0
 10
279.8290728119873
 20
444.8025276700187
 30
0.0
 10
279.7343229236149
 20
444.9235214580542
 30
0.0
 10
279.6529863014268
 20
445.038677978097
 30
0.0
 10
279.5834709363132
 20
445.1466008226035
 30
0.0
 10
279.5186167669576
 20
445.257387387999
 30
0.0
 10
279.4526525119452
 20
445.381988232234
 30
0.0
 10
279.3875433233218
 20
445.5211923785266
 30
0.0
 10
279.325503908561
 20
445.6755156012275
 30
0.0
 10
279.2761446822722
 20
445.8210513916375
 30
0.0
 10
279.2375109520719
 20
445.9566390303575
 30
0.0
 10
279.2076357913013
 20
446.0814880862764
 30
0.0
 10
279.1831138611579
 20
446.2074956805257
 30
0.0
 10
279.164308337766
 20
446.3321938560749
 30
0.0
 10
279.1510765312479
 20
446.4553259145704
 30
0.0
 10
279.1426285968394
 20
446.5766689081555
 30
0.0
 10
279.1411573668543
 20
446.6577296854096
 30
0.0
 10
279.1404219030594
 20
446.698251743454
 30
0.0
  0
SPLINE
  5
8B
330
1F
100
AcDbEntity
  8
0
  6
Continuous
 62
     7
370
    30
100
AcDbSpline
210
0.0
220
0.0
230
1.0
 70
     8
 71
     3
 72
    54
 73
    50
 74
     0
 42
0.000000001
 43
0.00000001
 40
0.0
 40
0.0
 40
0.0
 40
0.0
 40
0.0114913575660772
 40
0.0229827734302457
 40
0.0346759464503274
 40
0.0463794645453002
 40
0.0580831251070292
 40
0.0697764925714026
 40
0.0816863949501229
 40
0.0935962830780131
 40
0.1050872355821298
 40
0.1165781517864019
 40
0.1282725448901944
 40
0.1399776321977492
 40
0.1516827410328161
 40
0.1633771635191417
 40
0.175293745532745
 40
0.1872103657515539
 40
0.1986314792721156
 40
0.2100526006533613
 40
0.2216686387022229
 40
0.2332948068350338
 40
0.2449208072141488
 40
0.2565366163078731
 40
0.268367107994921
 40
0.2801975310521719
 40
0.2916719068499498
 40
0.3031463486408381
 40
0.314821000590577
 40
0.326505895844047
 40
0.33819097713706
 40
0.3498658829989305
 40
0.3617547730992755
 40
0.3736436568034591
 40
0.3819394481348193
 40
0.3902370494218839
 40
0.398532810906045
 40
0.4068952419756348
 40
0.4152596770895193
 40
0.4236224909055384
 40
0.4363090706188111
 40
0.448997000661466
 40
0.4905989251048457
 40
0.5322012894627366
 40
0.5738035366914961
 40
0.6732329434836871
 40
0.7791582589147319
 40
0.8895786502242491
 40
1.0
 40
1.0
 40
1.0
 40
1.0
 10
274.0
 20
461.8956365667615
 30
0.0
 10
273.9308512449142
 20
461.8947894928889
 30
0.0
 10
273.7925533839363
 20
461.8930953408465
 30
0.0
 10
273.5842627481241
 20
461.8794273273504
 30
0.0
 10
273.3754396264603
 20
461.8575013314801
 30
0.0
 10
273.1664681920303
 20
461.8264435358026
 30
0.0
 10
272.9589759065795
 20
461.7867209048912
 30
0.0
 10
272.7521156890024
 20
461.7380670174828
 30
0.0
 10
272.5462971912015
 20
461.6803881875799
 30
0.0
 10
272.3442729040377
 20
461.6143936185009
 30
0.0
 10
272.1475646790297
 20
461.5408590598419
 30
0.0
 10
271.9552510669351
 20
461.4597760574804
 30
0.0
 10
271.7653751499183
 20
461.3700684076651
 30
0.0
 10
271.5783700655031
 20
461.2717215131304
 30
0.0
 10
271.3957156105185
 20
461.1655120233798
 30
0.0
 10
271.2166930933865
 20
461.0509093863467
 30
0.0
 10
271.0417276241876
 20
460.927973594515
 30
0.0
 10
270.8734807719161
 20
460.7986757848777
 30
0.0
 10
270.713082987921
 20
460.6643691763438
 30
0.0
 10
270.5596302137951
 20
460.5248544403936
 30
0.0
 10
270.4111830496281
 20
460.3782596250608
 30
0.0
 10
270.268117016246
 20
460.2247192862253
 30
0.0
 10
270.1315680030039
 20
460.0653562088254
 30
0.0
 10
270.0010622603356
 20
459.8994388590976
 30
0.0
 10
269.8770477199965
 20
459.7270928334638
 30
0.0
 10
269.7610899137376
 20
459.5502412997668
 30
0.0
 10
269.653972275561
 20
459.3703952249021
 30
0.0
 10
269.5549222731893
 20
459.187049429739
 30
0.0
 10
269.463110083044
 20
458.9985619572901
 30
0.0
 10
269.3787805008168
 20
458.8052278143948
 30
0.0
 10
269.3025718119727
 20
458.6085498441249
 30
0.0
 10
269.2342033688313
 20
458.4077135448865
 30
0.0
 10
269.1739696791828
 20
458.2030092222262
 30
0.0
 10
269.1273309121658
 20
458.0156800030575
 30
0.0
 10
269.0919232356698
 20
457.84797547125
 30
0.0
 10
269.0653368623061
 20
457.7005733465601
 30
0.0
 10
269.0430485227513
 20
457.5520544078587
 30
0.0
 10
269.0252823895917
 20
457.4025208124235
 30
0.0
 10
269.011984661868
 20
457.2521201925137
 30
0.0
 10
269.001563924456
 20
457.0754197195467
 30
0.0
 10
268.9960403695182
 20
456.8724681697863
 30
0.0
 10
268.9913987751328
 20
456.4695003068938
 30
0.0
 10
268.9813584280037
 20
455.8925938383421
 30
0.0
 10
268.965141535363
 20
455.1418071041007
 30
0.0
 10
268.9441142057532
 20
454.0430935004861
 30
0.0
 10
268.9218669744488
 20
452.5573116037498
 30
0.0
 10
268.8955984653991
 20
450.6574681861473
 30
0.0
 10
268.8740409149287
 20
448.6914172072343
 30
0.0
 10
268.8643990501245
 20
447.3626421537836
 30
0.0
 10
268.8595780967992
 20
446.698251743577
 30
0.0
  0
SPLINE
  5
8C
330
1F
100
AcDbEntity
  8
0
  6
Continuous
 62
     7
370
    30
100
AcDbSpline
210
0.0
220
0.0
230
1.0
 70
     8
 71
     3
 72
    51
 73
    47
 74
     0
 42
0.000000001
 43
0.00000001
 40
0.0
 40
0.0
 40
0.0
 40
0.0
 40
0.1222132331214463
 40
0.2444270810636961
 40
0.3666408049017513
 40
0.4888538687893227
 40
0.5346433808650607
 40
0.5575382603112305
 40
0.5689876847912811
 40
0.5804357656577481
 40
0.5919759041557344
 40
0.6035259655956515
 40
0.6150761266269995
 40
0.6266164010480443
 40
0.6381339678459604
 40
0.6496612080317314
 40
0.6611884115291756
 40
0.6727059282555069
 40
0.6845522154495045
 40
0.6964093931101624
 40
0.7082662302281331
 40
0.7201120526163872
 40
0.7316321716276981
 40
0.7431625112913247
 40
0.7546931435709558
 40
0.7662136619562491
 40
0.7780702043268243
 40
0.789937446543434
 40
0.8018047156611946
 40
0.8136612947482469
 40
0.8251681616113328
 40
0.836685010810058
 40
0.8482016097192373
 40
0.8597081349809532
 40
0.8715534798623552
 40
0.8834098469505824
 40
0.895266506488123
 40
0.9071122505333227
 40
0.9185558937303466
 40
0.9300091338313489
 40
0.9414623749039321
 40
0.9529060194269505
 40
0.9646743337338674
 40
0.976453344298081
 40
0.9882320719013375
 40
1.0
 40
1.0
 40
1.0
 40
1.0
 10
279.1404219030594
 20
446.698251743454
 30
0.0
 10
279.1350787488699
 20
447.4335911944548
 30
0.0
 10
279.124392413611
 20
448.9042737957448
 30
0.0
 10
279.1002595184417
 20
451.1102315353286
 30
0.0
 10
279.0681480002378
 20
453.3160774509894
 30
0.0
 10
279.0406351036217
 20
455.0621067495773
 30
0.0
 10
279.0130997934357
 20
456.2104237243004
 30
0.0
 10
279.0063224931221
 20
456.6925428515515
 30
0.0
 10
279.0019052140781
 20
456.9680438383459
 30
0.0
 10
278.9938197053007
 20
457.1751345993827
 30
0.0
 10
278.9774913392996
 20
457.3823722956537
 30
0.0
 10
278.9523942333298
 20
457.58934743563
 30
0.0
 10
278.9188128944035
 20
457.7951162079239
 30
0.0
 10
278.8768015766403
 20
457.9991318952839
 30
0.0
 10
278.8264425043978
 20
458.2011056405418
 30
0.0
 10
278.7678982577927
 20
458.4007778802705
 30
0.0
 10
278.7012490601262
 20
458.5978928334736
 30
0.0
 10
278.6258950285193
 20
458.7939060176406
 30
0.0
 10
278.541602744169
 20
458.9884163735237
 30
0.0
 10
278.4482214649729
 20
459.1810026478728
 30
0.0
 10
278.3466829945772
 20
459.3694135539141
 30
0.0
 10
278.2381282371434
 20
459.5515165621873
 30
0.0
 10
278.1228480737641
 20
459.7270873959557
 30
0.0
 10
278.0013581396486
 20
459.8960868840936
 30
0.0
 10
277.8729058310295
 20
460.0598588560734
 30
0.0
 10
277.7364785098441
 20
460.2196391047601
 30
0.0
 10
277.5920532777753
 20
460.3750110902492
 30
0.0
 10
277.439685851978
 20
460.5255850635403
 30
0.0
 10
277.2810876687196
 20
460.6695816890751
 30
0.0
 10
277.1181991099367
 20
460.8053447886738
 30
0.0
 10
276.9514281335622
 20
460.932859764143
 30
0.0
 10
276.7811995062257
 20
461.0521916375923
 30
0.0
 10
276.606158537031
 20
461.1643431669463
 30
0.0
 10
276.4248598576737
 20
461.2700537162322
 30
0.0
 10
276.2373486577471
 20
461.3687856653781
 30
0.0
 10
276.0438383695433
 20
461.4602119751578
 30
0.0
 10
275.8465885501747
 20
461.5432670983175
 30
0.0
 10
275.6483058626724
 20
461.6169732389025
 30
0.0
 10
275.4494234167861
 20
461.6815546568339
 30
0.0
 10
275.2503430840226
 20
461.7373168840978
 30
0.0
 10
275.0491541053926
 20
461.7849164350068
 30
0.0
 10
274.8443262254526
 20
461.8246036974211
 30
0.0
 10
274.6360761533388
 20
461.8560436499101
 30
0.0
 10
274.4246783361824
 20
461.8786765946911
 30
0.0
 10
274.2125044737413
 20
461.8929614851851
 30
0.0
 10
274.0708131626795
 20
461.8947451455903
 30
0.0
 10
274.0
 20
461.8956365667614
 30
0.0
  0
LINE
  5
8D
330
1F
100
AcDbEntity
  8
0
  6
Continuous
 62
     7
370
    30
100
AcDbLine
 10
456.1423373012
 20
335.45
 30
0.0
 11
479.458
 21
335.45
 31
0.0
  0
LINE
  5
8E
330
1F
100
AcDbEntity
  8
0
  6
Continuous
 62
     7
370
    30
100
AcDbLine
 10
479.458
 20
390.55
 30
0.0
 11
456.9579465252
 21
390.55
 31
0.0
  0
ARC
  5
8F
330
1F
100
AcDbEntity
  8
0
  6
Continuous
 62
     7
370
    30
100
AcDbCircle
 10
479.458
 20
336.95
 30
0.0
 40
1.5
100
AcDbArc
 50
270.0
 51
0.0
  0
ARC
  5
90
330
1F
100
AcDbEntity
  8
0
  6
Continuous
 62
     7
370
    30
100
AcDbCircle
 10
479.458
 20
389.05
 30
0.0
 40
1.5
100
AcDbArc
 50
360.0
 51
90.0
  0
ARC
  5
91
330
1F
100
AcDbEntity
  8
0
  6
Continuous
 62
     7
370
    30
100
AcDbCircle
 10
481.958
 20
340.0
 30
0.0
 40
1.000000000000057
100
AcDbArc
 50
90.0000006378
 51
180.0
  0
ARC
  5
92
330
1F
100
AcDbEntity
  8
0
  6
Continuous
 62
     7
370
    30
100
AcDbCircle
 10
481.958
 20
386.0
 30
0.0
 40
1.000000000000057
100
AcDbArc
 50
180.0
 51
269.9999993622
  0
LINE
  5
93
330
1F
100
AcDbEntity
  8
0
  6
Continuous
 62
     7
370
    30
100
AcDbLine
 10
493.0225226682
 20
335.4531011722
 30
0.0
 11
493.0316892593
 21
332.8270769194
 31
0.0
  0
LINE
  5
94
330
1F
100
AcDbEntity
  8
0
  6
Continuous
 62
     7
370
    30
100
AcDbLine
 10
515.1823107406
 20
332.8270769194
 30
0.0
 11
515.1913807116
 21
335.4254216405
 31
0.0
  0
ARC
  5
95
330
1F
100
AcDbEntity
  8
0
  6
Continuous
 62
     7
370
    30
100
AcDbCircle
 10
493.5316862132
 20
332.8288222452
 30
0.0
 40
0.5000000000000374
100
AcDbArc
 50
180.2
 51
263.8208396496
  0
ARC
  5
96
330
1F
100
AcDbEntity
  8
0
  6
Continuous
 62
     7
370
    30
100
AcDbCircle
 10
514.6823137868
 20
332.8288222451
 30
0.0
 40
0.5000000000000457
100
AcDbArc
 50
276.1791603504
 51
359.8
  0
LINE
  5
97
330
1F
100
AcDbEntity
  8
0
  6
Continuous
 62
     7
370
    30
100
AcDbLine
 10
496.707
 20
332.157432549
 30
0.0
 11
511.507
 21
332.157432549
 31
0.0
  0
ARC
  5
98
330
1F
100
AcDbEntity
  8
0
  6
Continuous
 62
     7
370
    30
100
AcDbCircle
 10
511.507
 20
362.157432549
 30
0.0
 40
30.00000000000006
100
AcDbArc
 50
270.0
 51
276.1791603504
  0
ARC
  5
99
330
1F
100
AcDbEntity
  8
0
  6
Continuous
 62
     7
370
    30
100
AcDbCircle
 10
496.707
 20
362.157432549
 30
0.0
 40
30.00000000000011
100
AcDbArc
 50
263.8208396496
 51
270.0
  0
ARC
  5
9A
330
1F
100
AcDbEntity
  8
0
  6
Continuous
 62
     7
370
    30
100
AcDbCircle
 10
511.0427790829
 20
5890.4238779314
 30
0.0
 40
5555.000005426565
100
AcDbArc
 50
269.7000000003
 51
269.8141338527
  0
LWPOLYLINE
  5
9B
330
1F
100
AcDbEntity
  8
0
  6
Continuous
 62
     7
370
    30
100
AcDbPolyline
 90
        3
 70
   128
 43
0.0
 10
515.1913807116
 20
335.4254216405
 10
515.8814458954
 20
335.4259798586
 10
519.6508407743
 20
335.4305420611
  0
ARC
  5
9C
330
1F
100
AcDbEntity
  8
0
  6
Continuous
 62
     7
370
    30
100
AcDbCircle
 10
511.0427790801
 20
-5164.4238779313
 30
0.0
 40
5555.000005426565
100
AcDbArc
 50
90.2148245124
 51
90.2999999997
  0
ARC
  5
9D
330
1F
100
AcDbEntity
  8
0
  6
Continuous
 62
     7
370
    30
100
AcDbCircle
 10
519.6492912241
 20
336.4305408605
 30
0.0
 40
1.000000000000035
100
AcDbArc
 50
270.0887859192
 51
358.3064075887
  0
ARC
  5
9E
330
1F
100
AcDbEntity
  8
0
  6
Continuous
 62
     7
370
    30
100
AcDbCircle
 10
-378.958
 20
363.0000000003
 30
0.0
 40
900.0
100
AcDbArc
 50
358.3064699198
 51
360.0
  0
ARC
  5
9F
330
1F
100
AcDbEntity
  8
0
  6
Continuous
 62
     7
370
    30
100
AcDbCircle
 10
-378.958
 20
363.0000000003
 30
0.0
 40
900.0000000000002
100
AcDbArc
 50
360.0
 51
2.0483609187
  0
SPLINE
  5
A0
330
1F
100
AcDbEntity
  8
0
  6
Continuous
 62
     7
370
    30
100
AcDbSpline
210
0.0
220
0.0
230
1.0
 70
     8
 71
     3
 72
    44
 73
    40
 74
     0
 42
0.000000001
 43
0.00000001
 40
0.0
 40
0.0
 40
0.0
 40
0.0
 40
0.03588904490743
 40
0.0707853959963883
 40
0.1046075417197694
 40
0.1372805416670832
 40
0.1687362269512212
 40
0.1983859820516046
 40
0.2267505350573572
 40
0.253784213685058
 40
0.2794471844107831
 40
0.3041329389243161
 40
0.3273313200883332
 40
0.3490165486552865
 40
0.3691673686353429
 40
0.387766538871712
 40
0.4045099567755572
 40
0.4197332148001137
 40
0.4344706260533484
 40
0.4507195252362154
 40
0.4688676768006558
 40
0.4886322234588358
 40
0.5100087130351634
 40
0.532989522563404
 40
0.5575632200530569
 40
0.5832332505676191
 40
0.6104045720881704
 40
0.6390518826960029
 40
0.6691438790763987
 40
0.6977224914980361
 40
0.7274304045645945
 40
0.758229054036368
 40
0.7900746002132732
 40
0.8229178019729144
 40
0.8567039747587983
 40
0.8913730428014013
 40
0.9268596938284429
 40
0.9630936418148688
 40
0.9999999999999999
 40
0.9999999999999999
 40
0.9999999999999999
 40
0.9999999999999999
 10
493.063803287755
 20
392.63400758434
 30
0.0
 10
493.0496221013364
 20
392.5910209573181
 30
0.0
 10
493.0216519812361
 20
392.5062367167749
 30
0.0
 10
492.9732493845128
 20
392.38345248568
 30
0.0
 10
492.921602936685
 20
392.2664563726628
 30
0.0
 10
492.8669094988943
 20
392.1556623507972
 30
0.0
 10
492.8103189130881
 20
392.0517888468053
 30
0.0
 10
492.7525396176311
 20
391.9548502044611
 30
0.0
 10
492.694279319192
 20
391.8647781805441
 30
0.0
 10
492.6357811684486
 20
391.7809257188158
 30
0.0
 10
492.5773059759955
 20
391.7027832183549
 30
0.0
 10
492.5193961546495
 20
391.6303194589102
 30
0.0
 10
492.4625717023147
 20
391.5634641485977
 30
0.0
 10
492.4077022692618
 20
391.5024988744001
 30
0.0
 10
492.3552351663128
 20
391.4472130128185
 30
0.0
 10
492.3058313714217
 20
391.3976428967301
 30
0.0
 10
492.2598185046664
 20
391.3534912387793
 30
0.0
 10
492.2165058719847
 20
391.3135782879062
 30
0.0
 10
492.172912936164
 20
391.2749061657398
 30
0.0
 10
492.1257651897564
 20
391.2347010220355
 30
0.0
 10
492.072843142307
 20
391.1915212075942
 30
0.0
 10
492.0137959929223
 20
391.1456534204425
 30
0.0
 10
491.9486688986212
 20
391.0977218524895
 30
0.0
 10
491.8772417416038
 20
391.048175399646
 30
0.0
 10
491.7998195988713
 20
390.9978432546188
 30
0.0
 10
491.7163208303033
 20
390.9472524971278
 30
0.0
 10
491.626701084446
 20
390.8969590250429
 30
0.0
 10
491.5304092090615
 20
390.8472958672298
 30
0.0
 10
491.4307359228135
 20
390.8004791495864
 30
0.0
 10
491.3281727755938
 20
390.7568608584228
 30
0.0
 10
491.2232430543609
 20
390.7167226867999
 30
0.0
 10
491.1129576223635
 20
390.6792919798132
 30
0.0
 10
490.9974892488486
 20
390.6451235967756
 30
0.0
 10
490.8770714215255
 20
390.6147678647056
 30
0.0
 10
490.7520003658412
 20
390.5887772356417
 30
0.0
 10
490.6226362028227
 20
390.5676367617655
 30
0.0
 10
490.4894017332942
 20
390.5519875211822
 30
0.0
 10
490.3527821365113
 20
390.5417159772359
 30
0.0
 10
490.2605837604027
 20
390.5401908726646
 30
0.0
 10
490.2140607627444
 20
390.5394213099088
 30
0.0
  0
LINE
  5
A1
330
1F
100
AcDbEntity
  8
0
  6
Continuous
 62
     7
370
    30
100
AcDbLine
 10
519.4640535381
 20
396.1331586121
 30
0.0
 11
497.7198958081
 21
396.0572568749
 31
0.0
  0
SPLINE
  5
A2
330
1F
100
AcDbEntity
  8
0
  6
Continuous
 62
     7
370
    30
100
AcDbSpline
210
0.0
220
0.0
230
1.0
 70
     8
 71
     3
 72
    31
 73
    27
 74
     0
 42
0.000000001
 43
0.00000001
 40
0.0
 40
0.0
 40
0.0
 40
0.0
 40
0.0515677138490618
 40
0.1013659108624517
 40
0.1490477271268924
 40
0.194302686901051
 40
0.2368608111929484
 40
0.2764941376294824
 40
0.3130159310419956
 40
0.3462780289650421
 40
0.3761668442118337
 40
0.4025985490705942
 40
0.4256563233505932
 40
0.4500620153539678
 40
0.4781263847015602
 40
0.5098352956329613
 40
0.5451523943926806
 40
0.5840120133582691
 40
0.6263119073795063
 40
0.6719063424228745
 40
0.7206002048721347
 40
0.7721449066354446
 40
0.8262368841471234
 40
0.8825193879099278
 40
0.9405880092311741
 40
1.0
 40
1.0
 40
1.0
 40
1.0
 10
520.4668732731245
 20
395.1699522630689
 30
0.0
 10
520.4653240172871
 20
395.1963652057709
 30
0.0
 10
520.4622786674471
 20
395.2482847460356
 30
0.0
 10
520.4502533868622
 20
395.3238826709684
 30
0.0
 10
520.4337575967746
 20
395.3952462437462
 30
0.0
 10
520.4132015646015
 20
395.4616835952213
 30
0.0
 10
520.3897212018151
 20
395.5227240100742
 30
0.0
 10
520.3642985577145
 20
395.5780809149732
 30
0.0
 10
520.3379243731491
 20
395.6276395299497
 30
0.0
 10
520.3115140418842
 20
395.6714268610815
 30
0.0
 10
520.2858969542375
 20
395.7095795261946
 30
0.0
 10
520.2617571175269
 20
395.7423691666935
 30
0.0
 10
520.238141218637
 20
395.7720144602952
 30
0.0
 10
520.2129130571919
 20
395.8014144844538
 30
0.0
 10
520.1834937634218
 20
395.8330233850726
 30
0.0
 10
520.1486521462083
 20
395.8671672508698
 30
0.0
 10
520.1079433225641
 20
395.9031407887937
 30
0.0
 10
520.0609737831044
 20
395.9400978887791
 30
0.0
 10
520.0074439331228
 20
395.9770521770077
 30
0.0
 10
519.947194900933
 20
396.0128880278365
 30
0.0
 10
519.880255835743
 20
396.0463917585658
 30
0.0
 10
519.806886490431
 20
396.0762772073354
 30
0.0
 10
519.7276081765978
 20
396.1013173146292
 30
0.0
 10
519.6432178561266
 20
396.1201283524233
 30
0.0
 10
519.5547736406318
 20
396.1323857922271
 30
0.0
 10
519.4945020466699
 20
396.1337622251746
 30
0.0
 10
519.4640216523276
 20
396.1344583112786
 30
0.0
  0
ARC
  5
A3
330
1F
100
AcDbEntity
  8
0
  6
Continuous
 62
     7
370
    30
100
AcDbCircle
 10
497.737
 20
391.1572867274
 30
0.0
 40
4.899999999982415
100
AcDbArc
 50
90.2
 51
162.4638631004
  0
LINE
  5
A4
330
1F
100
AcDbEntity
  8
0
  6
Continuous
 62
     7
370
    30
100
AcDbLine
 10
442.958
 20
305.9865643055
 30
0.0
 11
453.1981369268
 21
306.2547117279
 31
0.0
  0
LINE
  5
A5
330
1F
100
AcDbEntity
  8
0
  6
Continuous
 62
     7
370
    30
100
AcDbLine
 10
453.1981369268
 20
475.7452882721
 30
0.0
 11
442.958
 21
476.0134356945
 31
0.0
  0
ARC
  5
A6
330
1F
100
AcDbEntity
  8
0
  6
Continuous
 62
     7
370
    30
100
AcDbCircle
 10
453.1457830304
 20
308.2540263778
 30
0.0
 40
2.000000000000035
100
AcDbArc
 50
271.5000000174
 51
357.4907349571
  0
ARC
  5
A7
330
1F
100
AcDbEntity
  8
0
  6
Continuous
 62
     7
370
    30
100
AcDbCircle
 10
453.1457830288
 20
473.7459736222
 30
0.0
 40
2.000000000000014
100
AcDbArc
 50
2.5092650441
 51
88.4999999838
  0
ARC
  5
A8
330
1F
100
AcDbEntity
  8
0
  6
Continuous
 62
     7
370
    30
100
AcDbCircle
 10
-1435.04199996
 20
390.9999999813
 30
0.0
 40
1892.0
100
AcDbArc
 50
357.490734954
 51
358.3175274802
  0
ARC
  5
A9
330
1F
100
AcDbEntity
  8
0
  6
Continuous
 62
     7
370
    30
100
AcDbCircle
 10
-1435.04199996
 20
390.9999999813
 30
0.0
 40
1892.0
100
AcDbArc
 50
359.9863725687
 51
0.7162891044
  0
ARC
  5
AA
330
1F
100
AcDbEntity
  8
0
  6
Continuous
 62
     7
370
    30
100
AcDbCircle
 10
-1435.04199996
 20
390.9999999813
 30
0.0
 40
1892.0
100
AcDbArc
 50
1.5854536775
 51
2.5092650471
  0
ARC
  5
AB
330
1F
100
AcDbEntity
  8
0
  6
Continuous
 62
     7
370
    30
100
AcDbCircle
 10
454.0607973092
 20
1112.4957353604
 30
0.0
 40
700.0
100
AcDbArc
 50
270.240926326
 51
272.2544817326
  0
ARC
  5
AC
330
1F
100
AcDbEntity
  8
0
  6
Continuous
 62
     7
370
    30
100
AcDbCircle
 10
481.5580423827
 20
414.0367877627
 30
0.0
 40
1.000000000000057
100
AcDbArc
 50
272.2541100636
 51
358.7748457393
  0
SPLINE
  5
AD
330
1F
100
AcDbEntity
  8
0
  6
Continuous
 62
     7
370
    30
100
AcDbSpline
210
0.0
220
0.0
230
1.0
 70
     8
 71
     3
 72
    27
 73
    23
 74
     0
 42
0.000000001
 43
0.00000001
 40
0.0
 40
0.0
 40
0.0
 40
0.0
 40
0.0468915315086083
 40
0.0997856692403482
 40
0.1526798265952931
 40
0.2055739989959068
 40
0.2584681817858732
 40
0.3113623702547318
 40
0.3612340374648873
 40
0.4111057015323264
 40
0.4609773584941283
 40
0.5108490044202327
 40
0.5607206354317994
 40
0.6105922477195622
 40
0.6604638375621877
 40
0.710335401344631
 40
0.7602069355764927
 40
0.8100784369103764
 40
0.8590593414102552
 40
0.9080402082532059
 40
0.9570210347734424
 40
1.0
 40
1.0
 40
1.0
 40
1.0
 10
482.5573789700455
 20
414.0154619382571
 30
0.0
 10
482.5724754463558
 20
414.7431363553288
 30
0.0
 10
482.6046009057583
 20
416.291635121748
 30
0.0
 10
482.6431409867715
 20
418.661160515269
 30
0.0
 10
482.6753460072655
 20
421.1239550453339
 30
0.0
 10
482.6986705032555
 20
423.5868523231983
 30
0.0
 10
482.7133905445872
 20
426.049815797259
 30
0.0
 10
482.7193170420707
 20
428.4659021745786
 30
0.0
 10
482.7170377804442
 20
430.8350796624381
 30
0.0
 10
482.7071015715215
 20
433.1573225468556
 30
0.0
 10
482.6894645852539
 20
435.4795193597786
 30
0.0
 10
482.6641264661558
 20
437.8016444055973
 30
0.0
 10
482.6310873322925
 20
440.1236719549175
 30
0.0
 10
482.5903470667764
 20
442.4455762826811
 30
0.0
 10
482.5419060189465
 20
444.7673316802675
 30
0.0
 10
482.4857629081552
 20
447.0889123689704
 30
0.0
 10
482.4219225074365
 20
449.4102928339859
 30
0.0
 10
482.3507929298396
 20
451.7176302108958
 30
0.0
 10
482.272599182385
 20
454.0109068373899
 30
0.0
 10
482.1872576936001
 20
456.2900927244853
 30
0.0
 10
482.0989585562086
 20
458.4759368471949
 30
0.0
 10
482.0354234802481
 20
459.901883831897
 30
0.0
 10
482.0057292870741
 20
460.5683242914313
 30
0.0
  0
LINE
  5
AE
330
1F
100
AcDbEntity
  8
0
  6
Continuous
 62
     7
370
    30
100
AcDbLine
 10
457.0042540162
 20
443.3475827938
 30
0.0
 11
456.2336887162
 21
443.3475827555
 31
0.0
  0
LINE
  5
AF
330
1F
100
AcDbEntity
  8
0
  6
Continuous
 62
     7
370
    30
100
AcDbLine
 10
456.8101515459
 20
414.6524172461
 30
0.0
 11
457.0042554425
 21
414.6524172558
 31
0.0
  0
LINE
  5
B0
330
1F
100
AcDbEntity
  8
0
  6
Continuous
 62
     7
370
    30
100
AcDbLine
 10
480.958
 20
362.9654686179
 30
0.0
 11
480.958
 21
389.05
 31
0.0
  0
LINE
  5
B1
330
1F
100
AcDbEntity
  8
0
  6
Continuous
 62
     7
370
    30
100
AcDbLine
 10
480.958
 20
336.95
 30
0.0
 11
480.958
 21
362.9654686179
 31
0.0
  0
LINE
  5
B2
330
1F
100
AcDbEntity
  8
0
  6
Continuous
 62
     7
370
    30
100
AcDbLine
 10
481.957
 20
335.5000190703
 30
0.0
 11
481.957
 21
390.4999809298
 31
0.0
  0
LINE
  5
B3
330
1F
100
AcDbEntity
  8
0
  6
Continuous
 62
     7
370
    30
100
AcDbLine
 10
442.958
 20
305.9865643055
 30
0.0
 11
442.958
 21
476.0134356945
 31
0.0
  0
SPLINE
  5
B4
330
1F
100
AcDbEntity
  8
0
  6
Continuous
 62
     7
370
    30
100
AcDbSpline
210
0.0
220
0.0
230
1.0
 70
     8
 71
     3
 72
   137
 73
   133
 74
     0
 42
0.000000001
 43
0.00000001
 40
0.0
 40
0.0
 40
0.0
 40
0.0
 40
0.0025879206877295
 40
0.0095853241578585
 40
0.0165928243225105
 40
0.0236003244871626
 40
0.0306384240447025
 40
0.0376765236022423
 40
0.0447248973474978
 40
0.0517732710927532
 40
0.0602687890226059
 40
0.0687665614010103
 40
0.0772643337794148
 40
0.0857598517092674
 40
0.0943285552529072
 40
0.1028995720386703
 40
0.1114705888244334
 40
0.1200392923680732
 40
0.1270366958382022
 40
0.1340340993083313
 40
0.1410415994729833
 40
0.1480490996376354
 40
0.1550871991951754
 40
0.1621252987527155
 40
0.169173672497971
 40
0.1762220462432264
 40
0.1847175641730792
 40
0.1932153365514837
 40
0.2017131089298881
 40
0.2102086268597408
 40
0.2187773304033807
 40
0.227348347189144
 40
0.2359193639749073
 40
0.2444880675185472
 40
0.2514854709886762
 40
0.2584828744588053
 40
0.2654903746234571
 40
0.2724978747881089
 40
0.2795359743456491
 40
0.2865740739031893
 40
0.293622447648445
 40
0.3006708213937007
 40
0.3091663393235535
 40
0.317664111701958
 40
0.3261618840803625
 40
0.3346574020102152
 40
0.3432261055538552
 40
0.3517971223396187
 40
0.3603681391253821
 40
0.3689368426690222
 40
0.3759342461391512
 40
0.3829316496092801
 40
0.389939149773932
 40
0.3969466499385839
 40
0.403984749496124
 40
0.411022849053664
 40
0.4180712227989196
 40
0.4251195965441752
 40
0.433615114474028
 40
0.4421128868524323
 40
0.4506106592308366
 40
0.4591061771606894
 40
0.4676748807043292
 40
0.4762458974900924
 40
0.4848169142758557
 40
0.4933856178194956
 40
0.5003830212896246
 40
0.5073804247597536
 40
0.5143879249244057
 40
0.5213954250890577
 40
0.5284335246465977
 40
0.5354716242041376
 40
0.5425199979493931
 40
0.5495683716946487
 40
0.5580638896245015
 40
0.5665616620029061
 40
0.5750594343813107
 40
0.5835549523111635
 40
0.5921236558548035
 40
0.6006946726405668
 40
0.6092656894263301
 40
0.61783439296997
 40
0.624831796440099
 40
0.6318291999102279
 40
0.6388367000748799
 40
0.6458442002395317
 40
0.6528822997970717
 40
0.6599203993546118
 40
0.6669687730998672
 40
0.6740171468451228
 40
0.6825126647749755
 40
0.69101043715338
 40
0.6995082095317845
 40
0.7080037274616374
 40
0.7165724310052771
 40
0.7251434477910405
 40
0.7337144645768036
 40
0.7422831681204434
 40
0.7492805715905724
 40
0.7562779750607015
 40
0.7632854752253534
 40
0.7702929753900055
 40
0.7773310749475457
 40
0.7843691745050856
 40
0.7914175482503413
 40
0.7984659219955969
 40
0.8069614399254496
 40
0.815459212303854
 40
0.8239569846822585
 40
0.8324525026121113
 40
0.8410212061557512
 40
0.8495922229415145
 40
0.8581632397272777
 40
0.8667319432709177
 40
0.8741847682208851
 40
0.8816383539900862
 40
0.8890911789400536
 40
0.8965715603561379
 40
0.9040527110641583
 40
0.9115330924802426
 40
0.9184334898434384
 40
0.9253344910402592
 40
0.9322348884034549
 40
0.9391571372460288
 40
0.9460799956781589
 40
0.9530022445207327
 40
0.9608190021891329
 40
0.9686366376973924
 40
0.9764533953657926
 40
0.9843019673755065
 40
0.9921514279902862
 40
1.0
 40
1.0
 40
1.0
 40
1.0
 10
457.0042555493731
 20
412.5026158620844
 30
0.0
 10
457.0042555492292
 20
412.502434287657
 30
0.0
 10
457.0042555486962
 20
412.5017617594169
 30
0.0
 10
457.0042555474678
 20
412.5067493077063
 30
0.0
 10
457.0042555456896
 20
412.517555704146
 30
0.0
 10
457.0042555435936
 20
412.5347289884473
 30
0.0
 10
457.0042555412044
 20
412.5577959129134
 30
0.0
 10
457.0042555385135
 20
412.5869222161754
 30
0.0
 10
457.0042555355266
 20
412.6220420459152
 30
0.0
 10
457.0042555320193
 20
412.6659708278142
 30
0.0
 10
457.004255527919
 20
412.7202044445683
 30
0.0
 10
457.004255523148
 20
412.7863432561603
 30
0.0
 10
457.0042555179563
 20
412.8610746318725
 30
0.0
 10
457.0042555123308
 20
412.9445970354762
 30
0.0
 10
457.0042555062687
 20
413.0369782684192
 30
0.0
 10
457.0042554997697
 20
413.1382439979114
 30
0.0
 10
457.0042554928553
 20
413.2480610008253
 30
0.0
 10
457.0042554859774
 20
413.359137212596
 30
0.0
 10
457.0042554792222
 20
413.469703908494
 30
0.0
 10
457.0042554726646
 20
413.5782084585114
 30
0.0
 10
457.0042554658359
 20
413.6923254464559
 30
0.0
 10
457.0042554587278
 20
413.8121938187435
 30
0.0
 10
457.0042554513448
 20
413.9377466873505
 30
0.0
 10
457.0042554436846
 20
414.0690269223078
 30
0.0
 10
457.0042554357601
 20
414.2058174189523
 30
0.0
 10
457.0042554270138
 20
414.3578079689131
 30
0.0
 10
457.0042554173864
 20
414.5262658591684
 30
0.0
 10
457.0042554068136
 20
414.7125564515744
 30
0.0
 10
457.0042553958817
 20
414.9064189574155
 30
0.0
 10
457.0042553845649
 20
415.108316258506
 30
0.0
 10
457.004255372864
 20
415.318250248607
 30
0.0
 10
457.0042553607814
 20
415.5361840437638
 30
0.0
 10
457.0042553483584
 20
415.7613762330249
 30
0.0
 10
457.0042553363822
 20
415.9794933706085
 30
0.0
 10
457.0042553249257
 20
416.1889896078627
 30
0.0
 10
457.0042553140477
 20
416.3886004871248
 30
0.0
 10
457.0042553029535
 20
416.5928542685014
 30
0.0
 10
457.0042552916307
 20
416.8019861151963
 30
0.0
 10
457.0042552800874
 20
417.0158475591545
 30
0.0
 10
457.0042552683213
 20
417.2344868428526
 30
0.0
 10
457.0042552563527
 20
417.4575243169367
 30
0.0
 10
457.0042552433536
 20
417.7004413006817
 30
0.0
 10
457.0042552292842
 20
417.9641309722247
 30
0.0
 10
457.0042552141016
 20
418.2495705349309
 30
0.0
 10
457.0042551986621
 20
418.5407076330769
 30
0.0
 10
457.0042551829301
 20
418.8382174454217
 30
0.0
 10
457.0042551669094
 20
419.1420357270164
 30
0.0
 10
457.0042551506054
 20
419.4520672058393
 30
0.0
 10
457.0042551340745
 20
419.7672458703052
 30
0.0
 10
457.0042551183502
 20
420.0678128810381
 30
0.0
 10
457.0042551034841
 20
420.3526195480828
 30
0.0
 10
457.0042550895119
 20
420.6208321441534
 30
0.0
 10
457.0042550754032
 20
420.892194654532
 30
0.0
 10
457.0042550611421
 20
421.1670119463437
 30
0.0
 10
457.00425504674
 20
421.4450707101481
 30
0.0
 10
457.0042550321945
 20
421.7264191218949
 30
0.0
 10
457.0042550175313
 20
422.0105577901243
 30
0.0
 10
457.0042550017446
 20
422.3170141604461
 30
0.0
 10
457.0042549848198
 20
422.6462066030965
 30
0.0
 10
457.0042549667391
 20
422.9986139906837
 30
0.0
 10
457.0042549485326
 20
423.3542021818148
 30
0.0
 10
457.0042549301589
 20
423.7137825309097
 30
0.0
 10
457.0042549116247
 20
424.0772318974408
 30
0.0
 10
457.0042548929376
 20
424.4444073625167
 30
0.0
 10
457.0042548741623
 20
424.8140384986384
 30
0.0
 10
457.0042548564628
 20
425.1631687320894
 30
0.0
 10
457.0042548398631
 20
425.4911760376903
 30
0.0
 10
457.0042548243721
 20
425.7977514149588
 30
0.0
 10
457.0042548088395
 20
426.1056285897849
 30
0.0
 10
457.0042547932481
 20
426.4151477617594
 30
0.0
 10
457.0042547776108
 20
426.726054829078
 30
0.0
 10
457.0042547619256
 20
427.0383924696905
 30
0.0
 10
457.0042547462209
 20
427.3515978526298
 30
0.0
 10
457.0042547294267
 20
427.6870429784789
 30
0.0
 10
457.0042547115544
 20
428.0446242415027
 30
0.0
 10
457.0042546926142
 20
428.4242681942981
 30
0.0
 10
457.0042546736933
 20
428.8042176072707
 30
0.0
 10
457.0042546547495
 20
429.1853285364455
 30
0.0
 10
457.0042546357914
 20
429.5674328288758
 30
0.0
 10
457.0042546168279
 20
429.9503560318224
 30
0.0
 10
457.0042545979251
 20
430.332766532935
 30
0.0
 10
457.0042545802457
 20
430.6910982037006
 30
0.0
 10
457.0042545637839
 20
431.0253258123356
 30
0.0
 10
457.0042545485207
 20
431.3356999226222
 30
0.0
 10
457.0042545333154
 20
431.6453809459162
 30
0.0
 10
457.0042545181513
 20
431.9547060593512
 30
0.0
 10
457.0042545030419
 20
432.2634090168101
 30
0.0
 10
457.0042544879856
 20
432.5715221866275
 30
0.0
 10
457.00425447301
 20
432.878482753251
 30
0.0
 10
457.0042544571016
 20
433.2050977412941
 30
0.0
 10
457.0042544402968
 20
433.5507532498107
 30
0.0
 10
457.0042544226324
 20
433.9148317920244
 30
0.0
 10
457.0042544051304
 20
434.2763060127305
 30
0.0
 10
457.0042543877522
 20
434.6359801557365
 30
0.0
 10
457.0042543705075
 20
434.993660013646
 30
0.0
 10
457.0042543534057
 20
435.3491592680941
 30
0.0
 10
457.0042543365065
 20
435.7012352510714
 30
0.0
 10
457.0042543208406
 20
436.0283691814906
 30
0.0
 10
457.0042543063727
 20
436.3311354656564
 30
0.0
 10
457.0042542930578
 20
436.6103159824495
 30
0.0
 10
457.004254279894
 20
436.8868866680008
 30
0.0
 10
457.0042542668671
 20
437.1611436628226
 30
0.0
 10
457.004254253989
 20
437.4328385937147
 30
0.0
 10
457.0042542412589
 20
437.7019898701125
 30
0.0
 10
457.0042542287009
 20
437.9680981450621
 30
0.0
 10
457.0042542154719
 20
438.2490596330214
 30
0.0
 10
457.0042542016293
 20
438.5438193504989
 30
0.0
 10
457.004254187232
 20
438.8512853883329
 30
0.0
 10
457.0042541731222
 20
439.1535309403536
 30
0.0
 10
457.0042541592688
 20
439.4512177663087
 30
0.0
 10
457.0042541456818
 20
439.7441474977111
 30
0.0
 10
457.0042541323697
 20
440.0321429642411
 30
0.0
 10
457.0042541193794
 20
440.3141905149009
 30
0.0
 10
457.0042541072689
 20
440.578132760481
 30
0.0
 10
457.004254095996
 20
440.8247329475212
 30
0.0
 10
457.0042540855173
 20
441.0547873603404
 30
0.0
 10
457.0042540752889
 20
441.2801999432062
 30
0.0
 10
457.0042540653162
 20
441.5008518449729
 30
0.0
 10
457.0042540556041
 20
441.7166361200166
 30
0.0
 10
457.0042540464129
 20
441.9217515671644
 30
0.0
 10
457.0042540377219
 20
442.1165736303712
 30
0.0
 10
457.0042540295097
 20
442.3014981563191
 30
0.0
 10
457.0042540215339
 20
442.4819598385163
 30
0.0
 10
457.0042540137984
 20
442.6578734922761
 30
0.0
 10
457.0042540063067
 20
442.829164528539
 30
0.0
 10
457.0042539987579
 20
443.0027548176852
 30
0.0
 10
457.0042539911947
 20
443.1778155668588
 30
0.0
 10
457.0042539836634
 20
443.3534447353618
 30
0.0
 10
457.0042539764552
 20
443.5228957765734
 30
0.0
 10
457.004253969584
 20
443.6858878390073
 30
0.0
 10
457.0042539630222
 20
443.8429425030785
 30
0.0
 10
457.0042539589413
 20
443.9419562536351
 30
0.0
 10
457.0042539569009
 20
443.9914603265202
 30
0.0
  0
LINE
  5
B5
330
1F
100
AcDbEntity
  8
0
  6
Continuous
 62
     7
370
    30
100
AcDbLine
 10
482.5578126055
 20
414.0154532464
 30
0.0
 11
482.5578132287
 21
414.015400991
 31
0.0
  0
LINE
  5
B6
330
1F
100
AcDbEntity
  8
0
  6
Continuous
 62
     7
370
    30
100
AcDbLine
 10
482.0061248607
 20
460.568426788
 30
0.0
 11
482.0061279884
 21
460.5683417977
 31
0.0
  0
SPLINE
  5
B7
330
1F
100
AcDbEntity
  8
0
  6
Continuous
 62
     7
370
    30
100
AcDbSpline
210
0.0
220
0.0
230
1.0
 70
     8
 71
     3
 72
    31
 73
    27
 74
     0
 42
0.000000001
 43
0.00000001
 40
0.0
 40
0.0
 40
0.0
 40
0.0
 40
0.0488726252387884
 40
0.0977828591458695
 40
0.1466554840918189
 40
0.1843698328346196
 40
0.2221187270810461
 40
0.2598676211908267
 40
0.2975819697471183
 40
0.3464545985319614
 40
0.3953648366861168
 40
0.4442374653011547
 40
0.481951833590229
 40
0.519700747855096
 40
0.557449662078301
 40
0.5951640303105136
 40
0.6440364135356569
 40
0.6929464058540342
 40
0.7418187891080076
 40
0.7795329595539616
 40
0.8172816753840659
 40
0.8550303912861278
 40
0.8927445618302948
 40
0.9284914754802375
 40
0.9642530862913682
 40
0.9999999999999999
 40
0.9999999999999999
 40
0.9999999999999999
 40
0.9999999999999999
 10
457.0042538292856
 20
446.698251743577
 30
0.0
 10
457.0042538320344
 20
446.6428506405538
 30
0.0
 10
457.004253837534
 20
446.5320058020173
 30
0.0
 10
457.0042538457071
 20
446.3663469260649
 30
0.0
 10
457.0042538531786
 20
446.2142754947103
 30
0.0
 10
457.0042538599466
 20
446.0759404479392
 30
0.0
 10
457.0042538660298
 20
445.9511524294585
 30
0.0
 10
457.0042538720227
 20
445.8277614719828
 30
0.0
 10
457.0042538784926
 20
445.6940335808188
 30
0.0
 10
457.0042538853886
 20
445.550846461039
 30
0.0
 10
457.004253892641
 20
445.3994469243029
 30
0.0
 10
457.0042538991263
 20
445.263288632618
 30
0.0
 10
457.0042539048838
 20
445.1417574039403
 30
0.0
 10
457.0042539099646
 20
445.0339772256879
 30
0.0
 10
457.0042539148749
 20
444.9292661165729
 30
0.0
 10
457.0042539200701
 20
444.8178567097295
 30
0.0
 10
457.0042539254712
 20
444.7012151082062
 30
0.0
 10
457.0042539309829
 20
444.5811473279814
 30
0.0
 10
457.0042539357515
 20
444.4762529545781
 30
0.0
 10
457.0042539398491
 20
444.3852284271825
 30
0.0
 10
457.0042539433548
 20
444.3066065953549
 30
0.0
 10
457.0042539466288
 20
444.2323864790776
 30
0.0
 10
457.0042539496123
 20
444.1639157552718
 30
0.0
 10
457.0042539523079
 20
444.10116988852
 30
0.0
 10
457.0042539547489
 20
444.0435206939401
 30
0.0
 10
457.0042539561837
 20
444.0088114044007
 30
0.0
 10
457.0042539569009
 20
443.9914603265203
 30
0.0
  0
ARC
  5
B8
330
1F
100
AcDbEntity
  8
0
  6
Continuous
 62
     7
370
    30
100
AcDbCircle
 10
481.0071421759
 20
460.5233313836
 30
0.0
 40
0.9999999999999678
100
AcDbArc
 50
2.5846528749
 51
88.4229716477
  0
SPLINE
  5
B9
330
1F
100
AcDbEntity
  8
0
  6
Continuous
 62
     7
370
    30
100
AcDbSpline
210
0.0
220
0.0
230
1.0
 70
     8
 71
     3
 72
    20
 73
    16
 74
     0
 42
0.000000001
 43
0.00000001
 40
0.0
 40
0.0
 40
0.0
 40
0.0
 40
0.0650310738895244
 40
0.1300624655622651
 40
0.1950940161174828
 40
0.2601266788250204
 40
0.3251595003995492
 40
0.3901932752330305
 40
0.4552275266545556
 40
0.5202619369349768
 40
0.6197950121416032
 40
0.7193286568422783
 40
0.8188640101697732
 40
0.9183999330980714
 40
1.0
 40
1.0
 40
1.0
 40
1.0
 10
457.0042530942692
 20
461.8956365667615
 30
0.0
 10
457.5252320366388
 20
461.8935829008364
 30
0.0
 10
458.5671924672127
 20
461.8894755589508
 30
0.0
 10
460.1301210267064
 20
461.8802168300231
 30
0.0
 10
461.6930467618757
 20
461.868690499804
 30
0.0
 10
463.2559638049473
 20
461.8546742349182
 30
0.0
 10
464.8188749109674
 20
461.838227599178
 30
0.0
 10
466.381771110289
 20
461.8193348047236
 30
0.0
 10
467.9446486170548
 20
461.7979998189492
 30
0.0
 10
469.7838428906935
 20
461.7700186061182
 30
0.0
 10
471.899323389191
 20
461.7336434368712
 30
0.0
 10
474.2910557858368
 20
461.6868223885754
 30
0.0
 10
476.6826893709255
 20
461.6341797995107
 30
0.0
 10
478.9305716134701
 20
461.579671668021
 30
0.0
 10
480.3811783082064
 20
461.5405683096566
 30
0.0
 10
481.0346630378276
 20
461.5229526129548
 30
0.0
  0
SPLINE
  5
BA
330
1F
100
AcDbEntity
  8
0
  6
Continuous
 62
     7
370
    30
100
AcDbSpline
210
0.0
220
0.0
230
1.0
 70
     8
 71
     3
 72
    54
 73
    50
 74
     0
 42
0.000000001
 43
0.00000001
 40
0.0
 40
0.0
 40
0.0
 40
0.0
 40
0.0114913575660772
 40
0.0229827734302457
 40
0.0346759464503274
 40
0.0463794645453002
 40
0.0580831251070292
 40
0.0697764925714026
 40
0.0816863949501229
 40
0.093596283078013
 40
0.1050872355821297
 40
0.1165781517864018
 40
0.1282725448901943
 40
0.1399776321977491
 40
0.151682741032816
 40
0.1633771635191416
 40
0.1752937455327449
 40
0.1872103657515538
 40
0.1986314792721156
 40
0.2100526006533612
 40
0.2216686387022228
 40
0.2332948068350338
 40
0.2449208072141487
 40
0.2565366163078729
 40
0.2683671079949209
 40
0.2801975310521718
 40
0.2916719068499496
 40
0.3031463486408379
 40
0.3148210005905768
 40
0.3265058958440468
 40
0.3381909771370598
 40
0.3498658829989303
 40
0.3617547730992753
 40
0.373643656803459
 40
0.3819394481348192
 40
0.3902370494218837
 40
0.3985328109060449
 40
0.4068952419756346
 40
0.4152596770895191
 40
0.4236224909055383
 40
0.436309070618811
 40
0.448997000661466
 40
0.4905989251048456
 40
0.5322012894627366
 40
0.5738035366914961
 40
0.673232943483687
 40
0.7791582589147318
 40
0.889578650224249
 40
1.0
 40
1.0
 40
1.0
 40
1.0
 10
457.0042530942692
 20
461.8956365667615
 30
0.0
 10
457.0042530940373
 20
461.894789492889
 30
0.0
 10
457.0042530935732
 20
461.8930953408465
 30
0.0
 10
457.0042530934269
 20
461.8794273273504
 30
0.0
 10
457.004253093689
 20
461.8575013314801
 30
0.0
 10
457.0042530944043
 20
461.8264435358025
 30
0.0
 10
457.0042530955562
 20
461.7867209048913
 30
0.0
 10
457.0042530971546
 20
461.7380670174828
 30
0.0
 10
457.0042530992057
 20
461.6803881875799
 30
0.0
 10
457.0042531016852
 20
461.6143936185009
 30
0.0
 10
457.0042531045604
 20
461.5408590598419
 30
0.0
 10
457.0042531078283
 20
461.4597760574804
 30
0.0
 10
457.0042531115346
 20
461.3700684076651
 30
0.0
 10
457.0042531156817
 20
461.2717215131305
 30
0.0
 10
457.0042531202369
 20
461.1655120233798
 30
0.0
 10
457.0042531252235
 20
461.0509093863467
 30
0.0
 10
457.0042531306406
 20
460.927973594515
 30
0.0
 10
457.0042531364004
 20
460.7986757848778
 30
0.0
 10
457.0042531424403
 20
460.6643691763438
 30
0.0
 10
457.0042531487667
 20
460.5248544403936
 30
0.0
 10
457.0042531554648
 20
460.3782596250608
 30
0.0
 10
457.0042531625295
 20
460.2247192862253
 30
0.0
 10
457.0042531699095
 20
460.0653562088253
 30
0.0
 10
457.0042531776391
 20
459.8994388590976
 30
0.0
 10
457.004253185714
 20
459.7270928334638
 30
0.0
 10
457.0042531940448
 20
459.5502412997669
 30
0.0
 10
457.0042532025595
 20
459.370395224902
 30
0.0
 10
457.0042532112802
 20
459.187049429739
 30
0.0
 10
457.0042532202851
 20
458.99856195729
 30
0.0
 10
457.0042532295606
 20
458.8052278143948
 30
0.0
 10
457.0042532390345
 20
458.6085498441249
 30
0.0
 10
457.0042532487462
 20
458.4077135448865
 30
0.0
 10
457.0042532586823
 20
458.2030092222262
 30
0.0
 10
457.0042532678087
 20
458.0156800030575
 30
0.0
 10
457.0042532760042
 20
457.84797547125
 30
0.0
 10
457.0042532832255
 20
457.7005733465601
 30
0.0
 10
457.0042532905193
 20
457.5520544078587
 30
0.0
 10
457.0042532978815
 20
457.4025208124236
 30
0.0
 10
457.0042533053046
 20
457.2521201925136
 30
0.0
 10
457.0042533140463
 20
457.0754197195468
 30
0.0
 10
457.0042533241121
 20
456.8724681697863
 30
0.0
 10
457.0042533441235
 20
456.4695003068939
 30
0.0
 10
457.0042533727591
 20
455.8925938383421
 30
0.0
 10
457.004253410013
 20
455.1418071041007
 30
0.0
 10
457.0042534645418
 20
454.0430935004861
 30
0.0
 10
457.004253538305
 20
452.5573116037498
 30
0.0
 10
457.0042536326335
 20
450.6574681861473
 30
0.0
 10
457.0042537302716
 20
448.6914172072343
 30
0.0
 10
457.0042537962808
 20
447.3626421537836
 30
0.0
 10
457.0042538292856
 20
446.698251743577
 30
0.0
  0
LINE
  5
BB
330
1F
100
AcDbEntity
  8
0
  6
Continuous
 62
     7
370
    30
100
AcDbLine
 10
91.0420534748
 20
390.55
 30
0.0
 11
68.542
 21
390.55
 31
0.0
  0
LINE
  5
BC
330
1F
100
AcDbEntity
  8
0
  6
Continuous
 62
     7
370
    30
100
AcDbLine
 10
68.542
 20
335.45
 30
0.0
 11
91.8576626988
 21
335.45
 31
0.0
  0
ARC
  5
BD
330
1F
100
AcDbEntity
  8
0
  6
Continuous
 62
     7
370
    30
100
AcDbCircle
 10
68.542
 20
389.05
 30
0.0
 40
1.5
100
AcDbArc
 50
90.0
 51
180.0
  0
ARC
  5
BE
330
1F
100
AcDbEntity
  8
0
  6
Continuous
 62
     7
370
    30
100
AcDbCircle
 10
68.542
 20
336.95
 30
0.0
 40
1.5
100
AcDbArc
 50
180.0
 51
270.0
  0
ARC
  5
BF
330
1F
100
AcDbEntity
  8
0
  6
Continuous
 62
     7
370
    30
100
AcDbCircle
 10
66.042
 20
386.0
 30
0.0
 40
1.0
100
AcDbArc
 50
270.0000006378
 51
0.0
  0
ARC
  5
C0
330
1F
100
AcDbEntity
  8
0
  6
Continuous
 62
     7
370
    30
100
AcDbCircle
 10
66.042
 20
340.0
 30
0.0
 40
1.0
100
AcDbArc
 50
0.0
 51
89.9999993622
  0
LINE
  5
C1
330
1F
100
AcDbEntity
  8
0
  6
Continuous
 62
     7
370
    30
100
AcDbLine
 10
54.9683107407
 20
332.8270769194
 30
0.0
 11
54.9774773318
 21
335.4531011722
 31
0.0
  0
LINE
  5
C2
330
1F
100
AcDbEntity
  8
0
  6
Continuous
 62
     7
370
    30
100
AcDbLine
 10
32.8086192884
 20
335.4254216405
 30
0.0
 11
32.8176892594
 21
332.8270769194
 31
0.0
  0
ARC
  5
C3
330
1F
100
AcDbEntity
  8
0
  6
Continuous
 62
     7
370
    30
100
AcDbCircle
 10
54.4683137868
 20
332.8288222452
 30
0.0
 40
0.5000000000000374
100
AcDbArc
 50
276.1791603504
 51
359.8
  0
ARC
  5
C4
330
1F
100
AcDbEntity
  8
0
  6
Continuous
 62
     7
370
    30
100
AcDbCircle
 10
33.3176862132
 20
332.8288222451
 30
0.0
 40
0.5000000000000183
100
AcDbArc
 50
180.2
 51
263.8208396496
  0
ARC
  5
C5
330
1F
100
AcDbEntity
  8
0
  6
Continuous
 62
     7
370
    30
100
AcDbCircle
 10
36.493
 20
362.157432549
 30
0.0
 40
30.00000000000006
100
AcDbArc
 50
263.8208396496
 51
270.0
  0
ARC
  5
C6
330
1F
100
AcDbEntity
  8
0
  6
Continuous
 62
     7
370
    30
100
AcDbCircle
 10
51.293
 20
362.157432549
 30
0.0
 40
30.00000000000011
100
AcDbArc
 50
270.0
 51
276.1791603504
  0
LINE
  5
C7
330
1F
100
AcDbEntity
  8
0
  6
Continuous
 62
     7
370
    30
100
AcDbLine
 10
36.493
 20
332.157432549
 30
0.0
 11
51.293
 21
332.157432549
 31
0.0
  0
ARC
  5
C8
330
1F
100
AcDbEntity
  8
0
  6
Continuous
 62
     7
370
    30
100
AcDbCircle
 10
36.9572209199
 20
-5164.4238779313
 30
0.0
 40
5555.000005426563
100
AcDbArc
 50
89.7000000003
 51
89.7851782921
  0
LWPOLYLINE
  5
C9
330
1F
100
AcDbEntity
  8
0
  6
Continuous
 62
     7
370
    30
100
AcDbPolyline
 90
        3
 70
   128
 43
0.0
 10
28.3491591527
 20
335.4305420612
 10
32.1185540388
 20
335.4259798587
 10
32.8086192884
 20
335.4254216405
  0
ARC
  5
CA
330
1F
100
AcDbEntity
  8
0
  6
Continuous
 62
     7
370
    30
100
AcDbCircle
 10
36.9572209171
 20
5890.4238779314
 30
0.0
 40
5555.000005426565
100
AcDbArc
 50
270.1858661473
 51
270.2999999997
  0
ARC
  5
CB
330
1F
100
AcDbEntity
  8
0
  6
Continuous
 62
     7
370
    30
100
AcDbCircle
 10
28.3507087759
 20
336.4305408605
 30
0.0
 40
1.000000000000006
100
AcDbArc
 50
181.6935924113
 51
269.9112140808
  0
ARC
  5
CC
330
1F
100
AcDbEntity
  8
0
  6
Continuous
 62
     7
370
    30
100
AcDbCircle
 10
926.958
 20
363.0000000003
 30
0.0
 40
900.0000000000001
100
AcDbArc
 50
177.9516390933
 51
181.6935300801
  0
SPLINE
  5
CD
330
1F
100
AcDbEntity
  8
0
  6
Continuous
 62
     7
370
    30
100
AcDbSpline
210
0.0
220
0.0
230
1.0
 70
     8
 71
     3
 72
    44
 73
    40
 74
     0
 42
0.000000001
 43
0.00000001
 40
0.0
 40
0.0
 40
0.0
 40
0.0
 40
0.0359195468847177
 40
0.0708441382278047
 40
0.1046923130031988
 40
0.1373892211814015
 40
0.1688668219320442
 40
0.1985363178359419
 40
0.2269190260943347
 40
0.2539694766531375
 40
0.2796480545045628
 40
0.3043487404337761
 40
0.3275613321266861
 40
0.3492603009619803
 40
0.3694246396841076
 40
0.3880373512413053
 40
0.4047943209910259
 40
0.4200316018848447
 40
0.4347647320489683
 40
0.4510059031524918
 40
0.4691468048444547
 40
0.4889044912529472
 40
0.510274257278491
 40
0.533248210317963
 40
0.5578146335672257
 40
0.5834768256397098
 40
0.6106393300139972
 40
0.6392765532073281
 40
0.6693569043129609
 40
0.6979233460824493
 40
0.7276173793328775
 40
0.7584002656417453
 40
0.7902280160845851
 40
0.8230512708363199
 40
0.8568152622244799
 40
0.8914598711587434
 40
0.9269197848288986
 40
0.9631247608794766
 40
1.0
 40
1.0
 40
1.0
 40
1.0
 10
57.78593923725559
 20
390.5394213099088
 30
0.0
 10
57.74066578233537
 20
390.5401534822216
 30
0.0
 10
57.6513729271467
 20
390.5415975459985
 30
0.0
 10
57.51969879474144
 20
390.5512122096336
 30
0.0
 10
57.3925825878998
 20
390.5656390637242
 30
0.0
 10
57.27047738297013
 20
390.5848141250966
 30
0.0
 10
57.15441190492637
 20
390.6078560356294
 30
0.0
 10
57.04461093002426
 20
390.634094544273
 30
0.0
 10
56.94122025654519
 20
390.6628354583421
 30
0.0
 10
56.84369432482178
 20
390.6936551705883
 30
0.0
 10
56.75162412187993
 20
390.7261540778458
 30
0.0
 10
56.66514142784369
 20
390.7598064132462
 30
0.0
 10
56.58433406069333
 20
390.7940960923564
 30
0.0
 10
56.50973032566388
 20
390.828278199853
 30
0.0
 10
56.44126245213063
 20
390.8618639464772
 30
0.0
 10
56.37916240671386
 20
390.8942341097553
 30
0.0
 10
56.32324401813874
 20
390.9249879639735
 30
0.0
 10
56.27219560247882
 20
390.9544210430976
 30
0.0
 10
56.22226941298482
 20
390.9844792918911
 30
0.0
 10
56.16983983671043
 20
391.0174579618412
 30
0.0
 10
56.11284769477881
 20
391.0550568271248
 30
0.0
 10
56.05145792110199
 20
391.097698910739
 30
0.0
 10
55.98628034128937
 20
391.1455273943751
 30
0.0
 10
55.9176785204213
 20
391.1988862157019
 30
0.0
 10
55.84653581926435
 20
391.2577317712376
 30
0.0
 10
55.77333198422374
 20
391.322299249132
 30
0.0
 10
55.69858547380483
 20
391.3927968621102
 30
0.0
 10
55.6224508573559
 20
391.4698499093876
 30
0.0
 10
55.54802633652723
 20
391.5509801871348
 30
0.0
 10
55.47579564433206
 20
391.6358235450369
 30
0.0
 10
55.40618469000662
 20
391.7239644721973
 30
0.0
 10
55.33756525716211
 20
391.8180246318033
 30
0.0
 10
55.27051967315774
 20
391.9180047683672
 30
0.0
 10
55.20564406359779
 20
392.0238463093874
 30
0.0
 10
55.14355531659331
 20
392.1354314349638
 30
0.0
 10
55.08482492910798
 20
392.2525611651915
 30
0.0
 10
55.03019229451188
 20
392.3750234057235
 30
0.0
 10
54.97969382116167
 20
392.5023206802362
 30
0.0
 10
54.95078413132924
 20
392.5898443719814
 30
0.0
 10
54.93619671224495
 20
392.63400758434
 30
0.0
  0
LINE
  5
CE
330
1F
100
AcDbEntity
  8
0
  6
Continuous
 62
     7
370
    30
100
AcDbLine
 10
50.2801041919
 20
396.0572568749
 30
0.0
 11
28.535945753
 21
396.1331586146
 31
0.0
  0
SPLINE
  5
CF
330
1F
100
AcDbEntity
  8
0
  6
Continuous
 62
     7
370
    30
100
AcDbSpline
210
0.0
220
0.0
230
1.0
 70
     8
 71
     3
 72
    31
 73
    27
 74
     0
 42
0.000000001
 43
0.00000001
 40
0.0
 40
0.0
 40
0.0
 40
0.0
 40
0.051559742020305
 40
0.1013500261337996
 40
0.1490241924879565
 40
0.1942718729239855
 40
0.2368230996749144
 40
0.2764498358679135
 40
0.3129652036997622
 40
0.3462208506558464
 40
0.3761029726586717
 40
0.4025275164141615
 40
0.4255800248571044
 40
0.4499899356048912
 40
0.4780578014788249
 40
0.5097697675232797
 40
0.5450897928076702
 40
0.5839525433763364
 40
0.6262561100799038
 40
0.6718550709709865
 40
0.720554567769532
 40
0.7721061747945469
 40
0.8262063639057559
 40
0.8824982691721056
 40
0.9405772051595084
 40
1.0
 40
1.0
 40
1.0
 40
1.0
 10
28.53597834767247
 20
396.1344583112786
 30
0.0
 10
28.50952901253795
 20
396.1339471819643
 30
0.0
 10
28.45753804629049
 20
396.1329424645756
 30
0.0
 10
28.3815388563734
 20
396.12388958931
 30
0.0
 10
28.30959594406557
 20
396.1102008412699
 30
0.0
 10
28.24241680639306
 20
396.0922595615809
 30
0.0
 10
28.18051636526865
 20
396.0711833067207
 30
0.0
 10
28.12421942837168
 20
396.0479429769144
 30
0.0
 10
28.07367943988229
 20
396.02352484537
 30
0.0
 10
28.02890519246969
 20
395.998845345719
 30
0.0
 10
27.98979258389783
 20
395.9747391552161
 30
0.0
 10
27.95609583018708
 20
395.9519000932975
 30
0.0
 10
27.9255567432454
 20
395.9294590741113
 30
0.0
 10
27.89519574132159
 20
395.9053939708813
 30
0.0
 10
27.86246148389879
 20
395.8772237077452
 30
0.0
 10
27.82698404473813
 20
395.843733884538
 30
0.0
 10
27.78945042306554
 20
395.8044523458186
 30
0.0
 10
27.75069022915036
 20
395.7589528027661
 30
0.0
 10
27.71167678488877
 20
395.7068973564797
 30
0.0
 10
27.67351794726927
 20
395.6480836877696
 30
0.0
 10
27.63742680081826
 20
395.5824935201173
 30
0.0
 10
27.6046977806943
 20
395.510336143514
 30
0.0
 10
27.57657649931336
 20
395.432084476616
 30
0.0
 10
27.55447578880803
 20
395.3484806472465
 30
0.0
 10
27.53876098267509
 20
395.260569207064
 30
0.0
 10
27.53501907744246
 20
395.2003873429525
 30
0.0
 10
27.53312672687548
 20
395.1699522630689
 30
0.0
  0
ARC
  5
D0
330
1F
100
AcDbEntity
  8
0
  6
Continuous
 62
     7
370
    30
100
AcDbCircle
 10
50.263
 20
391.1572867274
 30
0.0
 40
4.899999999982433
100
AcDbArc
 50
17.5366360028
 51
89.8
  0
LINE
  5
D1
330
1F
100
AcDbEntity
  8
0
  6
Continuous
 62
     7
370
    30
100
AcDbLine
 10
105.042
 20
476.0134356945
 30
0.0
 11
94.8018630732
 21
475.7452882721
 31
0.0
  0
LINE
  5
D2
330
1F
100
AcDbEntity
  8
0
  6
Continuous
 62
     7
370
    30
100
AcDbLine
 10
94.8018630732
 20
306.2547117279
 30
0.0
 11
105.042
 21
305.9865643055
 31
0.0
  0
ARC
  5
D3
330
1F
100
AcDbEntity
  8
0
  6
Continuous
 62
     7
370
    30
100
AcDbCircle
 10
94.8542169712
 20
473.7459736222
 30
0.0
 40
2.000000000000014
100
AcDbArc
 50
91.5000000162
 51
177.4907349559
  0
ARC
  5
D4
330
1F
100
AcDbEntity
  8
0
  6
Continuous
 62
     7
370
    30
100
AcDbCircle
 10
94.8542169696
 20
308.2540263778
 30
0.0
 40
2.000000000000007
100
AcDbArc
 50
182.5092650429
 51
268.4999999826
  0
ARC
  5
D5
330
1F
100
AcDbEntity
  8
0
  6
Continuous
 62
     7
370
    30
100
AcDbCircle
 10
1983.04199996
 20
390.9999999813
 30
0.0
 40
1892.0
100
AcDbArc
 50
177.4907349529
 51
178.4145463225
  0
ARC
  5
D6
330
1F
100
AcDbEntity
  8
0
  6
Continuous
 62
     7
370
    30
100
AcDbCircle
 10
1983.04199996
 20
390.9999999813
 30
0.0
 40
1892.0
100
AcDbArc
 50
179.2837108956
 51
180.0136274313
  0
ARC
  5
D7
330
1F
100
AcDbEntity
  8
0
  6
Continuous
 62
     7
370
    30
100
AcDbCircle
 10
1983.04199996
 20
390.9999999813
 30
0.0
 40
1892.0
100
AcDbArc
 50
181.6824725198
 51
182.509265046
  0
ARC
  5
D8
330
1F
100
AcDbEntity
  8
0
  6
Continuous
 62
     7
370
    30
100
AcDbCircle
 10
93.9392026908
 20
1112.4957353604
 30
0.0
 40
699.9999999999998
100
AcDbArc
 50
267.745518272
 51
269.759073649
  0
ARC
  5
D9
330
1F
100
AcDbEntity
  8
0
  6
Continuous
 62
     7
370
    30
100
AcDbCircle
 10
66.4419576173
 20
414.0367877627
 30
0.0
 40
1.000000000000005
100
AcDbArc
 50
181.2251136306
 51
267.7457106018
  0
SPLINE
  5
DA
330
1F
100
AcDbEntity
  8
0
  6
Continuous
 62
     7
370
    30
100
AcDbSpline
210
0.0
220
0.0
230
1.0
 70
     8
 71
     3
 72
    27
 73
    23
 74
     0
 42
0.000000001
 43
0.00000001
 40
0.0
 40
0.0
 40
0.0
 40
0.0
 40
0.0468920260609551
 40
0.0997859230251314
 40
0.1526798665284911
 40
0.2055738531663138
 40
0.2584678792891246
 40
0.3113619410273302
 40
0.3612335167779789
 40
0.4111051170302691
 40
0.4609767381206582
 40
0.5108483762873001
 40
0.5607200276884033
 40
0.6105916884205882
 40
0.6604633545372416
 40
0.7103350220668755
 40
0.7602066870314823
 40
0.8100783454648917
 40
0.8590594291977653
 40
0.9080404991504478
 40
0.9570215517014727
 40
1.0
 40
1.0
 40
1.0
 40
1.0
 10
65.99430706647307
 20
460.5683225717659
 30
0.0
 10
65.96196384800726
 20
459.8412028783226
 30
0.0
 10
65.89313769184973
 20
458.2938969533095
 30
0.0
 10
65.79844307858649
 20
455.9259502043753
 30
0.0
 10
65.70787630918576
 20
453.4646207403276
 30
0.0
 10
65.62619006037012
 20
451.0029766068935
 30
0.0
 10
65.55310826801158
 20
448.5410609082641
 30
0.0
 10
65.48993167033603
 20
446.1257992081821
 30
0.0
 10
65.43607248829308
 20
443.7572372860679
 30
0.0
 10
65.3909819025781
 20
441.4354139148377
 30
0.0
 10
65.35359209466496
 20
439.1134528213151
 30
0.0
 10
65.32390341951086
 20
436.7913796926626
 30
0.0
 10
65.30191575914104
 20
434.46922026108
 30
0.0
 10
65.28762923036639
 20
432.1470002488506
 30
0.0
 10
65.28104348382091
 20
429.8247453728868
 30
0.0
 10
65.28215980009452
 20
427.5024813814998
 30
0.0
 10
65.29097340616461
 20
425.1802339027759
 30
0.0
 10
65.3074037284899
 20
422.8718516458031
 30
0.0
 10
65.33122576089045
 20
420.5773576230592
 30
0.0
 10
65.36252307866278
 20
418.2967798509511
 30
0.0
 10
65.39898525585788
 20
416.1094582609903
 30
0.0
 10
65.42869802345201
 20
414.6824103466097
 30
0.0
 10
65.44258466522423
 20
414.0154612609675
 30
0.0
  0
LINE
  5
DB
330
1F
100
AcDbEntity
  8
0
  6
Continuous
 62
     7
370
    30
100
AcDbLine
 10
90.9957445575
 20
414.6524172558
 30
0.0
 11
91.1898484541
 21
414.6524172461
 31
0.0
  0
LINE
  5
DC
330
1F
100
AcDbEntity
  8
0
  6
Continuous
 62
     7
370
    30
100
AcDbLine
 10
91.7663112838
 20
443.3475827555
 30
0.0
 11
90.9957459838
 21
443.3475827938
 31
0.0
  0
LINE
  5
DD
330
1F
100
AcDbEntity
  8
0
  6
Continuous
 62
     7
370
    30
100
AcDbLine
 10
67.042
 20
389.05
 30
0.0
 11
67.042
 21
336.95
 31
0.0
  0
LINE
  5
DE
330
1F
100
AcDbEntity
  8
0
  6
Continuous
 62
     7
370
    30
100
AcDbLine
 10
66.043
 20
363.0000000001
 30
0.0
 11
66.043
 21
335.5000190703
 31
0.0
  0
LINE
  5
DF
330
1F
100
AcDbEntity
  8
0
  6
Continuous
 62
     7
370
    30
100
AcDbLine
 10
66.043
 20
390.4999809298
 30
0.0
 11
66.043
 21
363.0000000001
 31
0.0
  0
LINE
  5
E0
330
1F
100
AcDbEntity
  8
0
  6
Continuous
 62
     7
370
    30
100
AcDbLine
 10
57.7847867716
 20
390.5370816906
 30
0.0
 11
57.782782922
 21
390.5365797835
 31
0.0
  0
LINE
  5
E1
330
1F
100
AcDbEntity
  8
0
  6
Continuous
 62
     7
370
    30
100
AcDbLine
 10
105.042
 20
391.0
 30
0.0
 11
105.042
 21
305.9865643055
 31
0.0
  0
LINE
  5
E2
330
1F
100
AcDbEntity
  8
0
  6
Continuous
 62
     7
370
    30
100
AcDbLine
 10
105.042
 20
476.0134356945
 30
0.0
 11
105.042
 21
391.0
 31
0.0
  0
SPLINE
  5
E3
330
1F
100
AcDbEntity
  8
0
  6
Continuous
 62
     7
370
    30
100
AcDbSpline
210
0.0
220
0.0
230
1.0
 70
     8
 71
     3
 72
   144
 73
   140
 74
     0
 42
0.000000001
 43
0.00000001
 40
0.0
 40
0.0
 40
0.0
 40
0.0
 40
0.0060415237917108
 40
0.0120830475834217
 40
0.0181310656427773
 40
0.0241790837021328
 40
0.0303628980887716
 40
0.0365471470235446
 40
0.0427309614101835
 40
0.048930485017001
 40
0.055130446492708
 40
0.0613299700995254
 40
0.0676452564732482
 40
0.0739610057101329
 40
0.0802762920838558
 40
0.0866083143012645
 40
0.0929408030721116
 40
0.0992728252895203
 40
0.1055633170807445
 40
0.1118538088719687
 40
0.1181516325087665
 40
0.1244494561455643
 40
0.1314521450173827
 40
0.138455464985104
 40
0.1454581538569224
 40
0.1524836843415102
 40
0.1595098521191652
 40
0.1665353826037531
 40
0.1745319090469221
 40
0.1825293753207579
 40
0.1905259017639269
 40
0.1985564998627898
 40
0.2065880498604718
 40
0.2146186479593347
 40
0.2231792391999131
 40
0.2317398304404913
 40
0.2403189325713813
 40
0.248898034702271
 40
0.2559007235740893
 40
0.2629040435418107
 40
0.2699067324136289
 40
0.2769322628982167
 40
0.2839584306758715
 40
0.2909839611604592
 40
0.2989804876036281
 40
0.306977953877464
 40
0.3149744803206331
 40
0.3230050784194959
 40
0.3310366284171781
 40
0.3390672265160409
 40
0.3476278177566192
 40
0.3561884089971974
 40
0.364767511128087
 40
0.3733466132589766
 40
0.3803493021307949
 40
0.3873526220985165
 40
0.3943553109703349
 40
0.4013808414549228
 40
0.4084070092325777
 40
0.4154325397171656
 40
0.4216840295193495
 40
0.4279359682960103
 40
0.4341874580981943
 40
0.4404551801407061
 40
0.4467233546647572
 40
0.4529910767072689
 40
0.460444476239081
 40
0.4678986367689911
 40
0.4753520363008033
 40
0.4828329988036991
 40
0.4903147307807397
 40
0.4977956932836356
 40
0.5047983821554539
 40
0.5118017021231751
 40
0.5188043909949933
 40
0.525829921479581
 40
0.532856089257236
 40
0.5398816197418238
 40
0.5478781461849928
 40
0.5558756124588285
 40
0.5638721389019976
 40
0.5719027370008605
 40
0.5799342869985424
 40
0.5879648850974053
 40
0.5965254763379837
 40
0.605086067578562
 40
0.6136651697094518
 40
0.6222442718403416
 40
0.6292469607121599
 40
0.6362502806798812
 40
0.6432529695516995
 40
0.650278500036287
 40
0.6573046678139417
 40
0.6643301982985294
 40
0.6723267247416983
 40
0.6803241910155342
 40
0.6883207174587033
 40
0.6963513155575662
 40
0.7043828655552484
 40
0.7124134636541115
 40
0.7209740548946899
 40
0.7295346461352681
 40
0.7381137482661579
 40
0.7466928503970479
 40
0.7536955392688662
 40
0.7606988592365876
 40
0.767701548108406
 40
0.7747270785929936
 40
0.7817532463706485
 40
0.7887787768552362
 40
0.79503026665742
 40
0.8012822054340808
 40
0.8075336952362647
 40
0.8138014172787765
 40
0.8200695918028275
 40
0.8263373138453391
 40
0.8337907133771513
 40
0.8412448739070612
 40
0.8486982734388732
 40
0.8561792359417689
 40
0.8636609679188096
 40
0.8711419304217055
 40
0.8781446192935237
 40
0.8851479392612451
 40
0.8921506281330633
 40
0.8991761586176511
 40
0.906202326395306
 40
0.9132278568798937
 40
0.9212243833230627
 40
0.9292218495968985
 40
0.9372183760400674
 40
0.9452489741389304
 40
0.9532805241366125
 40
0.9613111222354753
 40
0.9698717134760537
 40
0.9784323047166321
 40
0.987011406847522
 40
0.9955905089784121
 40
1.0
 40
1.0
 40
1.0
 40
1.0
 10
90.99574598849102
 20
443.9914603265857
 30
0.0
 10
90.99574598627899
 20
443.9534703756478
 30
0.0
 10
90.99574598185492
 20
443.877490473772
 30
0.0
 10
90.99574597497403
 20
443.7584105603046
 30
0.0
 10
90.9957459679153
 20
443.6356124637632
 30
0.0
 10
90.99574596060864
 20
443.5078104154551
 30
0.0
 10
90.99574595305812
 20
443.3750723759665
 30
0.0
 10
90.9957459452599
 20
443.2373109611983
 30
0.0
 10
90.99574593726545
 20
443.0954310976559
 30
0.0
 10
90.99574592907622
 20
442.9494556139391
 30
0.0
 10
90.99574592069415
 20
442.7994178073506
 30
0.0
 10
90.9957459120752
 20
442.6445252098071
 30
0.0
 10
90.99574590321764
 20
442.4847333374724
 30
0.0
 10
90.99574589412028
 20
442.3200078463902
 30
0.0
 10
90.99574588483203
 20
442.1512303380659
 30
0.0
 10
90.99574587535488
 20
441.9784349855394
 30
0.0
 10
90.99574586569128
 20
441.8016642047381
 30
0.0
 10
90.99574585587386
 20
441.6215168431168
 30
0.0
 10
90.995745845907
 20
441.4380768211303
 30
0.0
 10
90.9957458357909
 20
441.251351187665
 30
0.0
 10
90.99574582550622
 20
441.0609846007666
 30
0.0
 10
90.99574581466602
 20
440.8597940327501
 30
0.0
 10
90.99574580325539
 20
440.647432981967
 30
0.0
 10
90.99574579125674
 20
440.423503556591
 30
0.0
 10
90.99574577905727
 20
440.1952106762963
 30
0.0
 10
90.99574576666052
 20
439.9626169119605
 30
0.0
 10
90.99574575407044
 20
439.7257954731177
 30
0.0
 10
90.99574574071697
 20
439.4739960759696
 30
0.0
 10
90.99574572657566
 20
439.2066574642361
 30
0.0
 10
90.9957457116237
 20
438.9232482228549
 30
0.0
 10
90.99574569644304
 20
438.6347683514997
 30
0.0
 10
90.99574568103955
 20
438.3413244673098
 30
0.0
 10
90.99574566541982
 20
438.0430396649733
 30
0.0
 10
90.99574564926536
 20
437.7338147820849
 30
0.0
 10
90.99574563256988
 20
437.4134741814628
 30
0.0
 10
90.99574561531537
 20
437.0816158770807
 30
0.0
 10
90.99574559786227
 20
436.7451534159339
 30
0.0
 10
90.99574558130021
 20
436.4251399629998
 30
0.0
 10
90.99574556568508
 20
436.1228086655769
 30
0.0
 10
90.9957455510535
 20
435.8390127054791
 30
0.0
 10
90.9957455363049
 20
435.5524418810336
 30
0.0
 10
90.99574552144406
 20
435.2631874938666
 30
0.0
 10
90.9957455064762
 20
434.9713480748305
 30
0.0
 10
90.99574549072932
 20
434.6637995970694
 30
0.0
 10
90.99574547419503
 20
434.3402935026406
 30
0.0
 10
90.99574545686774
 20
434.0006336841568
 30
0.0
 10
90.99574543942822
 20
433.6581388969051
 30
0.0
 10
90.99574542188414
 20
433.312955975922
 30
0.0
 10
90.99574540424358
 20
432.9652409983732
 30
0.0
 10
90.99574538615026
 20
432.6079573091042
 30
0.0
 10
90.99574536760885
 20
432.2411461774747
 30
0.0
 10
90.99574534861088
 20
431.8645901908263
 30
0.0
 10
90.9957453295571
 20
431.4862157614839
 30
0.0
 10
90.9957453116275
 20
431.1294980305987
 30
0.0
 10
90.99574529485035
 20
430.7951415581576
 30
0.0
 10
90.99574527923545
 20
430.4834750872561
 30
0.0
 10
90.9957452636005
 20
430.1709349717716
 30
0.0
 10
90.99574524795108
 20
429.8576311511701
 30
0.0
 10
90.9957452322929
 20
429.54367666054
 30
0.0
 10
90.99574521722315
 20
429.241061404983
 30
0.0
 10
90.99574520274528
 20
428.9499145355652
 30
0.0
 10
90.99574518886074
 20
428.6703214584598
 30
0.0
 10
90.99574517498766
 20
428.3905812068637
 30
0.0
 10
90.99574516113019
 20
428.1107745727021
 30
0.0
 10
90.99574514729231
 20
427.8309827338007
 30
0.0
 10
90.99574513261973
 20
427.5339076455607
 30
0.0
 10
90.99574511712537
 20
427.2197199030286
 30
0.0
 10
90.99574510082608
 20
426.8886671775169
 30
0.0
 10
90.9957450845761
 20
426.5580688331357
 30
0.0
 10
90.99574506838243
 20
426.2280652286804
 30
0.0
 10
90.99574505225202
 20
425.8987956617348
 30
0.0
 10
90.99574503655319
 20
425.5777902908632
 30
0.0
 10
90.9957450212858
 20
425.2650857573619
 30
0.0
 10
90.99574500644803
 20
424.9606869396835
 30
0.0
 10
90.99574499168945
 20
424.6574139954833
 30
0.0
 10
90.99574497701576
 20
424.3553834965978
 30
0.0
 10
90.99574496243265
 20
424.0547094822317
 30
0.0
 10
90.99574494729465
 20
423.7420602021897
 30
0.0
 10
90.99574493162642
 20
423.4178581354456
 30
0.0
 10
90.99574491545657
 20
423.0826038270334
 30
0.0
 10
90.99574489943082
 20
422.7496566469518
 30
0.0
 10
90.99574488355782
 20
422.4191915349047
 30
0.0
 10
90.9957448678457
 20
422.091376008718
 30
0.0
 10
90.99574485198299
 20
421.7596946695564
 30
0.0
 10
90.99574483599332
 20
421.4245847114042
 30
0.0
 10
90.99574481988911
 20
421.086247830602
 30
0.0
 10
90.99574480401677
 20
420.7519417996463
 30
0.0
 10
90.99574478934265
 20
420.4420711110753
 30
0.0
 10
90.99574477583373
 20
420.1561133930981
 30
0.0
 10
90.99574476344597
 20
419.8933006453223
 30
0.0
 10
90.99574475122762
 20
419.633486676273
 30
0.0
 10
90.99574473918406
 20
419.3767810676881
 30
0.0
 10
90.99574472732014
 20
419.1232864799618
 30
0.0
 10
90.99574471511578
 20
418.8618605527625
 30
0.0
 10
90.9957447026089
 20
418.5932084626803
 30
0.0
 10
90.99574468984137
 20
418.3181135534101
 30
0.0
 10
90.99574467732887
 20
418.0476524761639
 30
0.0
 10
90.9957446650791
 20
417.7819848885201
 30
0.0
 10
90.99574465309884
 20
417.5212554767241
 30
0.0
 10
90.99574464115409
 20
417.2603488232839
 30
0.0
 10
90.99574462927443
 20
416.9998365028019
 30
0.0
 10
90.99574461748122
 20
416.7401074957817
 30
0.0
 10
90.9957446060323
 20
416.4868134540333
 30
0.0
 10
90.99574459561416
 20
416.2552124361989
 30
0.0
 10
90.99574458616702
 20
416.044222057987
 30
0.0
 10
90.99574457762586
 20
415.8526256478059
 30
0.0
 10
90.99574456932534
 20
415.6655626792855
 30
0.0
 10
90.99574456126967
 20
415.4831235619258
 30
0.0
 10
90.99574455346252
 20
415.3053880580852
 30
0.0
 10
90.99574454619257
 20
415.1389630553165
 30
0.0
 10
90.99574453943019
 20
414.9832920089057
 30
0.0
 10
90.99574453314577
 20
414.8378154369091
 30
0.0
 10
90.99574452706786
 20
414.6962829645022
 30
0.0
 10
90.99574452119903
 20
414.5587509350142
 30
0.0
 10
90.9957445155414
 20
414.425268186059
 30
0.0
 10
90.99574450975875
 20
414.2878405576058
 30
0.0
 10
90.99574450390378
 20
414.1474943283366
 30
0.0
 10
90.99574449803393
 20
414.0053517595404
 30
0.0
 10
90.99574449247251
 20
413.869160883854
 30
0.0
 10
90.99574448722359
 20
413.7390113262546
 30
0.0
 10
90.99574448229028
 20
413.6149761486706
 30
0.0
 10
90.99574447777934
 20
413.4997746806844
 30
0.0
 10
90.99574447366913
 20
413.3929964206845
 30
0.0
 10
90.99574446993752
 20
413.2942173741328
 30
0.0
 10
90.99574446649063
 20
413.2009953325897
 30
0.0
 10
90.9957444633311
 20
413.1133913658696
 30
0.0
 10
90.9957444604609
 20
413.031453148386
 30
0.0
 10
90.99574445776578
 20
412.9517973064086
 30
0.0
 10
90.99574445529643
 20
412.8754329956186
 30
0.0
 10
90.99574445310594
 20
412.8034222475793
 30
0.0
 10
90.99574445129689
 20
412.7389281423142
 30
0.0
 10
90.9957444498726
 20
412.6820290034504
 30
0.0
 10
90.99574444883517
 20
412.6327812809744
 30
0.0
 10
90.99574444817256
 20
412.5903694526083
 30
0.0
 10
90.9957444479175
 20
412.5554615077269
 30
0.0
 10
90.99574444809566
 20
412.5285622876285
 30
0.0
 10
90.99574444873463
 20
412.5108701259695
 30
0.0
 10
90.99574444959154
 20
412.5024724010649
 30
0.0
 10
90.99574445036453
 20
412.5025809363619
 30
0.0
 10
90.99574445062696
 20
412.5026177829558
 30
0.0
  0
SPLINE
  5
E4
330
1F
100
AcDbEntity
  8
0
  6
Continuous
 62
     7
370
    30
100
AcDbSpline
210
0.0
220
0.0
230
1.0
 70
     8
 71
     3
 72
   133
 73
   129
 74
     0
 42
0.000000001
 43
0.00000001
 40
0.0
 40
0.0
 40
0.0
 40
0.0
 40
0.0000328350803559
 40
0.0077386762000555
 40
0.0154470507552324
 40
0.023156271214135
 40
0.030864645668324
 40
0.0385704867032961
 40
0.0463623926581722
 40
0.0541569182390946
 40
0.0619523184257619
 40
0.069746843691274
 40
0.0775387493815235
 40
0.0860177190468555
 40
0.0945011902507676
 40
0.1029869188381737
 40
0.1114726467803191
 40
0.1199561164947718
 40
0.1284350851666038
 40
0.1370570483909133
 40
0.1456837472782787
 40
0.1543128209478753
 40
0.1629418936226223
 40
0.171568590213549
 40
0.1801905519060585
 40
0.1873267264819389
 40
0.1944635724573459
 40
0.2015997468837034
 40
0.2100745643188261
 40
0.2185538834621103
 40
0.2270354595723874
 40
0.2355170344403149
 40
0.2439963507158756
 40
0.2524711662381672
 40
0.2610890044012887
 40
0.269711580037828
 40
0.2783365309749207
 40
0.2869614804486347
 40
0.2955840527072157
 40
0.304201888617127
 40
0.3113348033949856
 40
0.3184683899395414
 40
0.3256013045282765
 40
0.3331863926462854
 40
0.340773097501273
 40
0.348359801980505
 40
0.3559448895860104
 40
0.3635823237348426
 40
0.3712214091644944
 40
0.3788604942237578
 40
0.3864979278674058
 40
0.3943490387183128
 40
0.4022019442781685
 40
0.4100548494561255
 40
0.4179059597861425
 40
0.4258152265198009
 40
0.4337263289711962
 40
0.4416374310765816
 40
0.4495466973382989
 40
0.457130338494625
 40
0.4647155983792706
 40
0.4723008580215013
 40
0.4798844988471912
 40
0.487520546704419
 40
0.4951582475826085
 40
0.5027959482712913
 40
0.5104319958700451
 40
0.5182819462940722
 40
0.5261336930241128
 40
0.5339854396183613
 40
0.5418353898571746
 40
0.5497435404723328
 40
0.5576535278877205
 40
0.565563515248309
 40
0.5734716657887232
 40
0.5810567201374065
 40
0.5886433951868651
 40
0.5962300702625838
 40
0.6038151246470841
 40
0.6114526415366446
 40
0.6190918128766911
 40
0.6267309843160804
 40
0.6343685013411379
 40
0.6426984336378869
 40
0.6510315850412055
 40
0.6593658120657516
 40
0.6676989641865394
 40
0.6760288970852691
 40
0.6831595154037688
 40
0.6902908065137778
 40
0.6974214249498444
 40
0.7050096357408008
 40
0.7125994678620121
 40
0.720189300263525
 40
0.7277775114367924
 40
0.7354181973624561
 40
0.7430605378321875
 40
0.7507028786331843
 40
0.7583435650106709
 40
0.7666768735553617
 40
0.7750134001022629
 40
0.7833510022939789
 40
0.791687530305848
 40
0.800020840079696
 40
0.8071542665672994
 40
0.8142883654856728
 40
0.8214217921598628
 40
0.8298997677633244
 40
0.838382255016798
 40
0.8468670064751047
 40
0.8553517593314426
 40
0.8638342498120027
 40
0.8723122275680009
 40
0.8809334550212286
 40
0.88955942276343
 40
0.8981877696647813
 40
0.90681611798703
 40
0.9154420890091298
 40
0.9240633186501588
 40
0.9311993548717221
 40
0.9383360628882089
 40
0.9454720992749919
 40
0.9545346366140718
 40
0.9635985497939741
 40
0.9726610875293387
 40
0.9817735921595525
 40
0.990887495009413
 40
1.0
 40
1.0
 40
1.0
 40
1.0
 10
65.44218677126929
 20
414.0154009893889
 30
0.0
 10
65.4421867196088
 20
414.0153966578089
 30
0.0
 10
65.44217454409892
 20
414.0143757772676
 30
0.0
 10
65.44221860523113
 20
414.0180648503347
 30
0.0
 10
65.44232948830525
 20
414.0273596002291
 30
0.0
 10
65.44252737441808
 20
414.0439763381309
 30
0.0
 10
65.44280050241169
 20
414.0669504514844
 30
0.0
 10
65.4431529070521
 20
414.0966422060346
 30
0.0
 10
65.44358459882108
 20
414.1330757389167
 30
0.0
 10
65.44409570799183
 20
414.1763291446077
 30
0.0
 10
65.4446834774926
 20
414.2262360034412
 30
0.0
 10
65.44534675499996
 20
414.2827649538047
 30
0.0
 10
65.44610612840346
 20
414.3477468438818
 30
0.0
 10
65.44696877977015
 20
414.4218896453372
 30
0.0
 10
65.44794062104516
 20
414.5058720868436
 30
0.0
 10
65.44899529458795
 20
414.5975784594515
 30
0.0
 10
65.45013021092669
 20
414.6969337264958
 30
0.0
 10
65.45134276076664
 20
414.8038621648315
 30
0.0
 10
65.4526379351792
 20
414.9189615074865
 30
0.0
 10
65.45401533154347
 20
415.0423780132358
 30
0.0
 10
65.4554731488666
 20
415.1741994593296
 30
0.0
 10
65.45700028561097
 20
415.3136562007531
 30
0.0
 10
65.45859290701827
 20
415.4606313335795
 30
0.0
 10
65.46024715297067
 20
415.6150060705162
 30
0.0
 10
65.46186138738551
 20
415.7674257019129
 30
0.0
 10
65.46342162743385
 20
415.9164310703919
 30
0.0
 10
65.46491592585284
 20
416.0606933608149
 30
0.0
 10
65.46653881503809
 20
416.2191525255825
 30
0.0
 10
65.46829563231951
 20
416.3929145669593
 30
0.0
 10
65.47019020665837
 20
416.583093746708
 30
0.0
 10
65.47212073697256
 20
416.7799209121921
 30
0.0
 10
65.47408260086227
 20
416.9832383547567
 30
0.0
 10
65.47607115542647
 20
417.1928872911409
 30
0.0
 10
65.47809363649822
 20
417.4099801819081
 30
0.0
 10
65.4801467938682
 20
417.6346064484614
 30
0.0
 10
65.48222681616743
 20
417.8668029305568
 30
0.0
 10
65.48431771551509
 20
418.1051838129488
 30
0.0
 10
65.48641432438282
 20
418.3495513322839
 30
0.0
 10
65.488511479854
 20
418.5997061037527
 30
0.0
 10
65.49048440810718
 20
418.8408342367812
 30
0.0
 10
65.49233024409726
 20
419.0717570484081
 30
0.0
 10
65.49404817422065
 20
419.2914357120391
 30
0.0
 10
65.49579146070775
 20
419.5194924171196
 30
0.0
 10
65.4975565609348
 20
419.7561292164476
 30
0.0
 10
65.49933945851703
 20
420.0015216856067
 30
0.0
 10
65.50110123857057
 20
420.2507489223133
 30
0.0
 10
65.50284275048342
 20
420.504271039757
 30
0.0
 10
65.50456083477532
 20
420.7620344862242
 30
0.0
 10
65.50625250918813
 20
421.023968747217
 30
0.0
 10
65.50791083522464
 20
421.2893503718328
 30
0.0
 10
65.50954791858199
 20
421.5605529462961
 30
0.0
 10
65.51115963843088
 20
421.8375940470706
 30
0.0
 10
65.51274197628321
 20
422.1204662012283
 30
0.0
 10
65.51427722661482
 20
422.4064814027175
 30
0.0
 10
65.5157660804151
 20
422.6962025403221
 30
0.0
 10
65.51720526598633
 20
422.9895506994635
 30
0.0
 10
65.51859195734447
 20
423.2864311367242
 30
0.0
 10
65.5199200126006
 20
423.5859614061112
 30
0.0
 10
65.52116941048584
 20
423.8838369571214
 30
0.0
 10
65.52234066286869
 20
424.1798286380739
 30
0.0
 10
65.52343508730996
 20
424.4737216143119
 30
0.0
 10
65.5244673301229
 20
424.7695450883587
 30
0.0
 10
65.52543771946969
 20
425.0678384230981
 30
0.0
 10
65.52634389323242
 20
425.3685128592032
 30
0.0
 10
65.52718404890257
 20
425.6714696690972
 30
0.0
 10
65.52795467280198
 20
425.9758661564314
 30
0.0
 10
65.52866083187656
 20
426.2844034043938
 30
0.0
 10
65.52929870354241
 20
426.5970146661886
 30
0.0
 10
65.52986502456228
 20
426.9136139908444
 30
0.0
 10
65.530352965429
 20
427.2311671123817
 30
0.0
 10
65.53076251272705
 20
427.5502918274359
 30
0.0
 10
65.5310919342529
 20
427.8708744062025
 30
0.0
 10
65.53134026024222
 20
428.192794141455
 30
0.0
 10
65.53150630168945
 20
428.5150883390026
 30
0.0
 10
65.53158849907929
 20
428.8331914920325
 30
0.0
 10
65.5315903067841
 20
429.1469712311813
 30
0.0
 10
65.5315158650109
 20
429.4563176758119
 30
0.0
 10
65.53136541184726
 20
429.7654692911538
 30
0.0
 10
65.53113861079821
 20
430.0749840353546
 30
0.0
 10
65.53083494127847
 20
430.3847479522912
 30
0.0
 10
65.53045458133177
 20
430.6946453185478
 30
0.0
 10
65.52999898889398
 20
431.0038094037669
 30
0.0
 10
65.529452922502
 20
431.3213988717036
 30
0.0
 10
65.52880877858972
 20
431.6472141000373
 30
0.0
 10
65.52805987366787
 20
431.9810052708614
 30
0.0
 10
65.52722638355345
 20
432.3133052427978
 30
0.0
 10
65.52631024634847
 20
432.6438574202301
 30
0.0
 10
65.5253609633361
 20
432.9567073584407
 30
0.0
 10
65.52439307989131
 20
433.252032104777
 30
0.0
 10
65.52342014409918
 20
433.5300764119689
 30
0.0
 10
65.52237022110313
 20
433.8123225735728
 30
0.0
 10
65.52124056317334
 20
434.0985388557118
 30
0.0
 10
65.52002906712823
 20
434.388467927157
 30
0.0
 10
65.51876113907721
 20
434.6760965155808
 30
0.0
 10
65.51743591958487
 20
434.9619376266101
 30
0.0
 10
65.51605496365318
 20
435.2458652837401
 30
0.0
 10
65.51462034887251
 20
435.5277601232861
 30
0.0
 10
65.51313787689128
 20
435.8068299734443
 30
0.0
 10
65.51156402878111
 20
436.0912754091632
 30
0.0
 10
65.50989634303225
 20
436.3806757025914
 30
0.0
 10
65.50813355372696
 20
436.6745680602473
 30
0.0
 10
65.50632699450071
 20
436.964549223486
 30
0.0
 10
65.5044808494473
 20
437.2503957672234
 30
0.0
 10
65.50268917115699
 20
437.5184328934599
 30
0.0
 10
65.50096084800823
 20
437.769235520102
 30
0.0
 10
65.49930315635612
 20
438.0034176616638
 30
0.0
 10
65.49752151606266
 20
438.2487057970089
 30
0.0
 10
65.49561429370937
 20
438.5042354215187
 30
0.0
 10
65.49358159596652
 20
438.7690235804701
 30
0.0
 10
65.49153422878923
 20
439.0286818944551
 30
0.0
 10
65.48947708890712
 20
439.2830049300361
 30
0.0
 10
65.48741508453847
 20
439.5317886479746
 30
0.0
 10
65.48534092724861
 20
439.7762620869497
 30
0.0
 10
65.48325858609915
 20
440.0162284154584
 30
0.0
 10
65.48117220706386
 20
440.2515240948273
 30
0.0
 10
65.47909787576194
 20
440.4806937122759
 30
0.0
 10
65.47704069435744
 20
440.7035514233577
 30
0.0
 10
65.47500574967482
 20
440.9199125498754
 30
0.0
 10
65.47311289571967
 20
441.117604242538
 30
0.0
 10
65.47136055035135
 20
441.2978046286134
 30
0.0
 10
65.46974528320926
 20
441.4616843949992
 30
0.0
 10
65.46801285037661
 20
441.6351914013053
 30
0.0
 10
65.46617521002455
 20
441.8166571412791
 30
0.0
 10
65.46424787259518
 20
442.0041622547607
 30
0.0
 10
65.46237169510722
 20
442.1841419823846
 30
0.0
 10
65.4605536006719
 20
442.3562172655631
 30
0.0
 10
65.45879155329004
 20
442.5210103377578
 30
0.0
 10
65.4576758824708
 20
442.6238381195744
 30
0.0
 10
65.4571180898439
 20
442.675248067337
 30
0.0
  0
SPLINE
  5
E5
330
1F
100
AcDbEntity
  8
0
  6
Continuous
 62
     7
370
    30
100
AcDbSpline
210
0.0
220
0.0
230
1.0
 70
     8
 71
     3
 72
    31
 73
    27
 74
     0
 42
0.000000001
 43
0.00000001
 40
0.0
 40
0.0
 40
0.0
 40
0.0
 40
0.0488723783854757
 40
0.0977823654799531
 40
0.1466547436712755
 40
0.1843689056360228
 40
0.2221176129748127
 40
0.2598663202559029
 40
0.2975804821418975
 40
0.3464528620920471
 40
0.395362851118026
 40
0.4442352310669611
 40
0.4819493994015421
 40
0.5196981131516104
 40
0.5574468269580799
 40
0.5951609953696425
 40
0.6440333223355108
 40
0.6929432580910575
 40
0.741815585249018
 40
0.7795297000512775
 40
0.8172783596845679
 40
0.8550270194631894
 40
0.8927411344638043
 40
0.928489190161461
 40
0.9642519442172613
 40
1.0
 40
1.0
 40
1.0
 40
1.0
 10
90.99574598849102
 20
443.9914603265856
 30
0.0
 10
90.99574598987923
 20
444.0154031714781
 30
0.0
 10
90.9957459926567
 20
444.0633072859747
 30
0.0
 10
90.9957459973173
 20
444.1455371675209
 30
0.0
 10
90.99574600194076
 20
444.2282252912462
 30
0.0
 10
90.99574600646035
 20
444.3099926909007
 30
0.0
 10
90.99574601077992
 20
444.3888155832465
 30
0.0
 10
90.99574601529721
 20
444.4718914796331
 30
0.0
 10
90.99574602046634
 20
444.5676334050181
 30
0.0
 10
90.99574602635049
 20
444.677439153431
 30
0.0
 10
90.99574603300265
 20
444.8025276700187
 30
0.0
 10
90.99574603939229
 20
444.9235214580542
 30
0.0
 10
90.99574604543862
 20
445.038677978097
 30
0.0
 10
90.99574605107854
 20
445.1466008226035
 30
0.0
 10
90.99574605684234
 20
445.257387387999
 30
0.0
 10
90.99574606329716
 20
445.381988232234
 30
0.0
 10
90.99574607047448
 20
445.5211923785266
 30
0.0
 10
90.99574607839112
 20
445.6755156012275
 30
0.0
 10
90.9957460858207
 20
445.8210513916375
 30
0.0
 10
90.9957460927133
 20
445.9566390303575
 30
0.0
 10
90.99574609903742
 20
446.0814880862764
 30
0.0
 10
90.99574610539788
 20
446.2074956805257
 30
0.0
 10
90.99574611167061
 20
446.3321938560749
 30
0.0
 10
90.99574611784342
 20
446.4553259145704
 30
0.0
 10
90.99574612390832
 20
446.5766689081555
 30
0.0
 10
90.9957461279433
 20
446.6577296854096
 30
0.0
 10
90.9957461299604
 20
446.698251743454
 30
0.0
  0
SPLINE
  5
E6
330
1F
100
AcDbEntity
  8
0
  6
Continuous
 62
     7
370
    30
100
AcDbSpline
210
0.0
220
0.0
230
1.0
 70
     8
 71
     3
 72
    20
 73
    16
 74
     0
 42
0.000000001
 43
0.00000001
 40
0.0
 40
0.0
 40
0.0
 40
0.0
 40
0.065031153332831
 40
0.1300624655622651
 40
0.1950944927568579
 40
0.2601266788250204
 40
0.3251595003995492
 40
0.3901932752330305
 40
0.4552275266545556
 40
0.5202619369349768
 40
0.6197950121416032
 40
0.7193286568422783
 40
0.8188640101697732
 40
0.9183999330980714
 40
1.0
 40
1.0
 40
1.0
 40
1.0
 10
90.99574690573075
 20
461.8956365667615
 30
0.0
 10
90.4747673269231
 20
461.8935828980726
 30
0.0
 10
89.43280689635041
 20
461.8894755556767
 30
0.0
 10
87.86987451843596
 20
461.8802168027857
 30
0.0
 10
86.30694941974606
 20
461.8686904685337
 30
0.0
 10
84.74403237676678
 20
461.854674194737
 30
0.0
 10
83.18112508903226
 20
461.8382275991784
 30
0.0
 10
81.61822888971108
 20
461.8193348047235
 30
0.0
 10
80.05535138294518
 20
461.7979998189492
 30
0.0
 10
78.21615710930648
 20
461.7700186061182
 30
0.0
 10
76.10067661080897
 20
461.7336434368711
 30
0.0
 10
73.70894421416325
 20
461.6868223885754
 30
0.0
 10
71.31731062907451
 20
461.6341797995107
 30
0.0
 10
69.0694283865299
 20
461.579671668021
 30
0.0
 10
67.61882169179361
 20
461.5405683096566
 30
0.0
 10
66.96533696217246
 20
461.5229526129548
 30
0.0
  0
SPLINE
  5
E7
330
1F
100
AcDbEntity
  8
0
  6
Continuous
 62
     7
370
    30
100
AcDbSpline
210
0.0
220
0.0
230
1.0
 70
     8
 71
     3
 72
    51
 73
    47
 74
     0
 42
0.000000001
 43
0.00000001
 40
0.0
 40
0.0
 40
0.0
 40
0.0
 40
0.1222132331214463
 40
0.2444270810636961
 40
0.3666408049017513
 40
0.4888538687893227
 40
0.5346433808650607
 40
0.5575382603112305
 40
0.5689876847912811
 40
0.5804357656577481
 40
0.5919759041557344
 40
0.6035259655956515
 40
0.6150761266269995
 40
0.6266164010480444
 40
0.6381339678459604
 40
0.6496612080317316
 40
0.6611884115291757
 40
0.672705928255507
 40
0.6845522154495046
 40
0.6964093931101624
 40
0.7082662302281332
 40
0.7201120526163872
 40
0.7316321716276981
 40
0.7431625112913248
 40
0.754693143570956
 40
0.7662136619562492
 40
0.7780702043268244
 40
0.789937446543434
 40
0.8018047156611947
 40
0.813661294748247
 40
0.8251681616113329
 40
0.8366850108100581
 40
0.8482016097192373
 40
0.8597081349809533
 40
0.8715534798623552
 40
0.8834098469505824
 40
0.895266506488123
 40
0.9071122505333227
 40
0.9185558937303466
 40
0.9300091338313489
 40
0.9414623749039321
 40
0.9529060194269505
 40
0.9646743337338674
 40
0.976453344298081
 40
0.9882320719013375
 40
1.0
 40
1.0
 40
1.0
 40
1.0
 10
90.9957461299604
 20
446.698251743454
 30
0.0
 10
90.99574616653197
 20
447.4335911944548
 30
0.0
 10
90.99574623967533
 20
448.9042737957448
 30
0.0
 10
90.99574634941918
 20
451.1102315353286
 30
0.0
 10
90.9957464591891
 20
453.3160774509894
 30
0.0
 10
90.9957465460854
 20
455.0621067495773
 30
0.0
 10
90.9957466032722
 20
456.2104237243004
 30
0.0
 10
90.99574662726303
 20
456.6925428515515
 30
0.0
 10
90.99574664097445
 20
456.9680438383459
 30
0.0
 10
90.99574665130004
 20
457.1751345993827
 30
0.0
 10
90.99574666166562
 20
457.3823722956537
 30
0.0
 10
90.9957466720529
 20
457.5893474356301
 30
0.0
 10
90.99574668241387
 20
457.7951162079239
 30
0.0
 10
90.99574669272108
 20
457.9991318952839
 30
0.0
 10
90.99574670295993
 20
458.2011056405418
 30
0.0
 10
90.9957467131168
 20
458.4007778802705
 30
0.0
 10
90.9957467231787
 20
458.5978928334736
 30
0.0
 10
90.99574673322033
 20
458.7939060176406
 30
0.0
 10
90.99574674322271
 20
458.9884163735237
 30
0.0
 10
90.99574675316548
 20
459.1810026478728
 30
0.0
 10
90.99574676293304
 20
459.3694135539141
 30
0.0
 10
90.99574677241488
 20
459.5515165621873
 30
0.0
 10
90.9957467815987
 20
459.7270873959557
 30
0.0
 10
90.9957467904805
 20
459.8960868840936
 30
0.0
 10
90.99574679913005
 20
460.0598588560734
 30
0.0
 10
90.99574680761282
 20
460.21963910476
 30
0.0
 10
90.99574681590816
 20
460.3750110902492
 30
0.0
 10
90.9957468239965
 20
460.5255850635403
 30
0.0
 10
90.99574683178263
 20
460.6695816890751
 30
0.0
 10
90.9957468391765
 20
460.8053447886738
 30
0.0
 10
90.99574684617579
 20
460.932859764143
 30
0.0
 10
90.99574685278203
 20
461.0521916375923
 30
0.0
 10
90.99574685905046
 20
461.1643431669463
 30
0.0
 10
90.99574686502353
 20
461.2700537162322
 30
0.0
 10
90.99574687067435
 20
461.3687856653781
 30
0.0
 10
90.99574687598583
 20
461.4602119751578
 30
0.0
 10
90.99574688089605
 20
461.5432670983175
 30
0.0
 10
90.99574688534565
 20
461.6169732389025
 30
0.0
 10
90.99574688934409
 20
461.6815546568339
 30
0.0
 10
90.99574689290495
 20
461.7373168840978
 30
0.0
 10
90.99574689606843
 20
461.7849164350068
 30
0.0
 10
90.99574689885307
 20
461.8246036974211
 30
0.0
 10
90.99574690124132
 20
461.8560436499101
 30
0.0
 10
90.9957469032043
 20
461.8786765946911
 30
0.0
 10
90.9957469047554
 20
461.8929614851851
 30
0.0
 10
90.99574690540574
 20
461.8947451455903
 30
0.0
 10
90.99574690573075
 20
461.8956365667614
 30
0.0
  0
ARC
  5
E8
330
1F
100
AcDbEntity
  8
0
  6
Continuous
 62
     7
370
    30
100
AcDbCircle
 10
66.9928578241
 20
460.5233313836
 30
0.0
 40
0.9999999999999678
100
AcDbArc
 50
91.5770283523
 51
177.4153471251
  0
LINE
  5
E9
330
1F
100
AcDbEntity
  8
0
  6
Continuous
 62
     7
370
    30
100
AcDbLine
 10
246.45
 20
238.2425926496
 30
0.0
 11
246.45
 21
215.542
 31
0.0
  0
LINE
  5
EA
330
1F
100
AcDbEntity
  8
0
  6
Continuous
 62
     7
370
    30
100
AcDbLine
 10
301.55
 20
215.542
 30
0.0
 11
301.55
 21
238.2425926496
 31
0.0
  0
ARC
  5
EB
330
1F
100
AcDbEntity
  8
0
  6
Continuous
 62
     7
370
    30
100
AcDbCircle
 10
247.95
 20
215.542
 30
0.0
 40
1.5
100
AcDbArc
 50
180.0
 51
270.0
  0
ARC
  5
EC
330
1F
100
AcDbEntity
  8
0
  6
Continuous
 62
     7
370
    30
100
AcDbCircle
 10
300.05
 20
215.542
 30
0.0
 40
1.500000000000057
100
AcDbArc
 50
270.0
 51
0.0
  0
ARC
  5
ED
330
1F
100
AcDbEntity
  8
0
  6
Continuous
 62
     7
370
    30
100
AcDbCircle
 10
251.0
 20
213.042
 30
0.0
 40
1.0
100
AcDbArc
 50
0.0000006378
 51
90.0
  0
ARC
  5
EE
330
1F
100
AcDbEntity
  8
0
  6
Continuous
 62
     7
370
    30
100
AcDbCircle
 10
297.0
 20
213.042
 30
0.0
 40
1.0
100
AcDbArc
 50
90.0
 51
179.9999993622
  0
ARC
  5
EF
330
1F
100
AcDbEntity
  8
0
  6
Continuous
 62
     7
370
    30
100
AcDbCircle
 10
274.0
 20
1073.958
 30
0.0
 40
900.0000000000001
100
AcDbArc
 50
268.3064558236
 51
270.0
  0
ARC
  5
F0
330
1F
100
AcDbEntity
  8
0
  6
Continuous
 62
     7
370
    30
100
AcDbCircle
 10
274.0
 20
1073.958
 30
0.0
 40
900.0000000000002
100
AcDbArc
 50
270.0
 51
271.6935210081
  0
ARC
  5
F1
330
1F
100
AcDbEntity
  8
0
  6
Continuous
 62
     7
370
    30
100
AcDbCircle
 10
5801.4238779313
 20
183.9572209185
 30
0.0
 40
5555.000005426564
100
AcDbArc
 50
179.7000000003
 51
180.0887859412
  0
ARC
  5
F2
330
1F
100
AcDbEntity
  8
0
  6
Continuous
 62
     7
370
    30
100
AcDbCircle
 10
-5253.4238779313
 20
183.9572209185
 30
0.0
 40
5555.000005426564
100
AcDbArc
 50
359.9112140735
 51
0.2999999997
  0
ARC
  5
F3
330
1F
100
AcDbEntity
  8
0
  6
Continuous
 62
     7
370
    30
100
AcDbCircle
 10
247.4305408605
 20
175.3507087759
 30
0.0
 40
0.999999999999999
100
AcDbArc
 50
180.0887859192
 51
268.3064075887
  0
ARC
  5
F4
330
1F
100
AcDbEntity
  8
0
  6
Continuous
 62
     7
370
    30
100
AcDbCircle
 10
300.5694591395
 20
175.3507087759
 30
0.0
 40
0.9999999999999981
100
AcDbArc
 50
271.6935924113
 51
359.9112140808
  0
LINE
  5
F5
330
1F
100
AcDbEntity
  8
0
  6
Continuous
 62
     7
370
    30
100
AcDbLine
 10
188.9865643055
 20
252.042
 30
0.0
 11
189.2547117279
 21
241.8018630732
 31
0.0
  0
LINE
  5
F6
330
1F
100
AcDbEntity
  8
0
  6
Continuous
 62
     7
370
    30
100
AcDbLine
 10
358.7452882721
 20
241.8018630732
 30
0.0
 11
359.0134356945
 21
252.042
 31
0.0
  0
ARC
  5
F7
330
1F
100
AcDbEntity
  8
0
  6
Continuous
 62
     7
370
    30
100
AcDbCircle
 10
191.2540263778
 20
241.8542169704
 30
0.0
 40
2.000000000000021
100
AcDbArc
 50
181.5000000168
 51
267.4907349565
  0
ARC
  5
F8
330
1F
100
AcDbEntity
  8
0
  6
Continuous
 62
     7
370
    30
100
AcDbCircle
 10
356.7459736222
 20
241.8542169704
 30
0.0
 40
1.999999999999995
100
AcDbArc
 50
272.5092650435
 51
358.4999999832
  0
ARC
  5
F9
330
1F
100
AcDbEntity
  8
0
  6
Continuous
 62
     7
370
    30
100
AcDbCircle
 10
274.0
 20
2130.04199996
 30
0.0
 40
1892.0
100
AcDbArc
 50
267.4907349535
 51
269.5655053816
  0
ARC
  5
FA
330
1F
100
AcDbEntity
  8
0
  6
Continuous
 62
     7
370
    30
100
AcDbCircle
 10
274.0
 20
2130.04199996
 30
0.0
 40
1892.0
100
AcDbArc
 50
270.4344946183
 51
272.5092650465
  0
SPLINE
  5
FB
330
1F
100
AcDbEntity
  8
0
  6
Continuous
 62
     7
370
    30
100
AcDbSpline
210
0.0
220
0.0
230
1.0
 70
     8
 71
     3
 72
    23
 73
    19
 74
     0
 42
0.000000001
 43
0.00000001
 40
0.0
 40
0.0
 40
0.0
 40
0.0
 40
0.0538094641317583
 40
0.1176091086510168
 40
0.1814096238425177
 40
0.2452108651075203
 40
0.3090126874592949
 40
0.3716756182472077
 40
0.4343388315301115
 40
0.4970021892924056
 40
0.559665553444188
 40
0.623607623124536
 40
0.6875494090226185
 40
0.7514907646422315
 40
0.8154315437177493
 40
0.8793716002927059
 40
0.9433107887983906
 40
1.0
 40
1.0
 40
1.0
 40
1.0
 10
259.0250808642202
 20
212.5312872642681
 30
0.0
 10
259.5621959131157
 20
212.5137640307801
 30
0.0
 10
260.7361459451951
 20
212.4754642278652
 30
0.0
 10
262.5472394382181
 20
212.4261937121441
 30
0.0
 10
264.4582640439586
 20
212.3814843723792
 30
0.0
 10
266.3694895075597
 20
212.3451075859885
 30
0.0
 10
268.2694904101527
 20
212.316948338456
 30
0.0
 10
270.1582281626373
 20
212.2969143953821
 30
0.0
 10
272.0356631394143
 20
212.2848188010389
 30
0.0
 10
273.9131365745497
 20
212.2805462739741
 30
0.0
 10
275.803383563482
 20
212.2841191847677
 30
0.0
 10
277.706366588442
 20
212.2957265582424
 30
0.0
 10
279.6220459489849
 20
212.3155522593977
 30
0.0
 10
281.5376103261117
 20
212.3435370519456
 30
0.0
 10
283.4530229844563
 20
212.3796113863222
 30
0.0
 10
285.3682363523382
 20
212.4240347916282
 30
0.0
 10
287.2108733905634
 20
212.4738809990305
 30
0.0
 10
288.4149673482911
 20
212.5129821180477
 30
0.0
 10
288.9808302532275
 20
212.5313576548166
 30
0.0
  0
ARC
  5
FC
330
1F
100
AcDbEntity
  8
0
  6
Continuous
 62
     7
370
    30
100
AcDbCircle
 10
957.4957353605
 20
240.9392026908
 30
0.0
 40
699.9999999999999
100
AcDbArc
 50
180.2409262181
 51
182.247178413
  0
ARC
  5
FD
330
1F
100
AcDbEntity
  8
0
  6
Continuous
 62
     7
370
    30
100
AcDbCircle
 10
-409.4957353605
 20
240.9392026908
 30
0.0
 40
700.0
100
AcDbArc
 50
357.752821541
 51
359.7590736588
  0
ARC
  5
FE
330
1F
100
AcDbEntity
  8
0
  6
Continuous
 62
     7
370
    30
100
AcDbCircle
 10
259.0332867207
 20
213.5310318598
 30
0.0
 40
1.000000000000009
100
AcDbArc
 50
182.2499530592
 51
268.1361254346
  0
ARC
  5
FF
330
1F
100
AcDbEntity
  8
0
  6
Continuous
 62
     7
370
    30
100
AcDbCircle
 10
288.966713272
 20
213.5310318598
 30
0.0
 40
1.000000000000017
100
AcDbArc
 50
271.8624089135
 51
357.7506466571
  0
LINE
  5
100
330
1F
100
AcDbEntity
  8
0
  6
Continuous
 62
     7
370
    30
100
AcDbLine
 10
288.347582767
 20
237.9957452138
 30
0.0
 11
288.347582769
 21
238.4780579091
 31
0.0
  0
LINE
  5
101
330
1F
100
AcDbEntity
  8
0
  6
Continuous
 62
     7
370
    30
100
AcDbLine
 10
259.6524172309
 20
238.4780579091
 30
0.0
 11
259.652417229
 21
237.9957453275
 31
0.0
  0
LINE
  5
102
330
1F
100
AcDbEntity
  8
0
  6
Continuous
 62
     7
370
    30
100
AcDbLine
 10
247.95
 20
214.042
 30
0.0
 11
258.0126830373
 21
214.042
 31
0.0
  0
LINE
  5
103
330
1F
100
AcDbEntity
  8
0
  6
Continuous
 62
     7
370
    30
100
AcDbLine
 10
289.9873169627
 20
214.042
 30
0.0
 11
300.05
 21
214.042
 31
0.0
  0
LINE
  5
104
330
1F
100
AcDbEntity
  8
0
  6
Continuous
 62
     7
370
    30
100
AcDbLine
 10
246.5000190702
 20
213.043
 30
0.0
 11
258.1604609059
 21
213.043
 31
0.0
  0
LINE
  5
105
330
1F
100
AcDbEntity
  8
0
  6
Continuous
 62
     7
370
    30
100
AcDbLine
 10
289.8395390864
 20
213.043
 30
0.0
 11
301.4999809298
 21
213.043
 31
0.0
  0
LINE
  5
106
330
1F
100
AcDbEntity
  8
0
  6
Continuous
 62
     7
370
    30
100
AcDbLine
 10
188.9865643055
 20
252.042
 30
0.0
 11
359.0134356945
 21
252.042
 31
0.0
  0
SPLINE
  5
107
330
1F
100
AcDbEntity
  8
0
  6
Continuous
 62
     7
370
    30
100
AcDbSpline
210
0.0
220
0.0
230
1.0
 70
     8
 71
     3
 72
    54
 73
    50
 74
     0
 42
0.000000001
 43
0.00000001
 40
0.0
 40
0.0
 40
0.0
 40
0.0
 40
0.0114913575660772
 40
0.0229827734302457
 40
0.0346759464503274
 40
0.0463794645453002
 40
0.0580831251070292
 40
0.0697764925714026
 40
0.0816863949501229
 40
0.0935962830780131
 40
0.1050872355821297
 40
0.1165781517864019
 40
0.1282725448901943
 40
0.1399776321977492
 40
0.151682741032816
 40
0.1633771635191416
 40
0.175293745532745
 40
0.1872103657515538
 40
0.1986314792721156
 40
0.2100526006533613
 40
0.2216686387022228
 40
0.2332948068350338
 40
0.2449208072141487
 40
0.2565366163078729
 40
0.2683671079949209
 40
0.2801975310521718
 40
0.2916719068499497
 40
0.3031463486408379
 40
0.3148210005905768
 40
0.3265058958440468
 40
0.3381909771370598
 40
0.3498658829989303
 40
0.3617547730992753
 40
0.373643656803459
 40
0.3819394481348192
 40
0.3902370494218837
 40
0.3985328109060449
 40
0.4068952419756346
 40
0.4152596770895191
 40
0.4236224909055382
 40
0.436309070618811
 40
0.4489970006614658
 40
0.4905989251048455
 40
0.5322012894627365
 40
0.573803536691496
 40
0.673232943483687
 40
0.7791582589147318
 40
0.889578650224249
 40
1.0
 40
1.0
 40
1.0
 40
1.0
 10
274.0
 20
237.9957469057308
 30
0.0
 10
273.9308512449142
 20
237.9957469059628
 30
0.0
 10
273.7925533839363
 20
237.9957469064268
 30
0.0
 10
273.5842627481242
 20
237.9957469065731
 30
0.0
 10
273.3754396264603
 20
237.995746906311
 30
0.0
 10
273.1664681920303
 20
237.9957469055957
 30
0.0
 10
272.9589759065795
 20
237.9957469044438
 30
0.0
 10
272.7521156890024
 20
237.9957469028454
 30
0.0
 10
272.5462971912015
 20
237.9957469007943
 30
0.0
 10
272.3442729040377
 20
237.9957468983149
 30
0.0
 10
272.1475646790297
 20
237.9957468954396
 30
0.0
 10
271.9552510669351
 20
237.9957468921716
 30
0.0
 10
271.7653751499183
 20
237.9957468884654
 30
0.0
 10
271.5783700655031
 20
237.9957468843183
 30
0.0
 10
271.3957156105185
 20
237.9957468797631
 30
0.0
 10
271.2166930933865
 20
237.9957468747764
 30
0.0
 10
271.0417276241876
 20
237.9957468693594
 30
0.0
 10
270.8734807719161
 20
237.9957468635995
 30
0.0
 10
270.713082987921
 20
237.9957468575596
 30
0.0
 10
270.5596302137951
 20
237.9957468512333
 30
0.0
 10
270.4111830496281
 20
237.9957468445351
 30
0.0
 10
270.268117016246
 20
237.9957468374705
 30
0.0
 10
270.1315680030039
 20
237.9957468300906
 30
0.0
 10
270.0010622603356
 20
237.9957468223609
 30
0.0
 10
269.8770477199965
 20
237.9957468142859
 30
0.0
 10
269.7610899137376
 20
237.9957468059551
 30
0.0
 10
269.653972275561
 20
237.9957467974404
 30
0.0
 10
269.5549222731893
 20
237.9957467887198
 30
0.0
 10
269.463110083044
 20
237.9957467797149
 30
0.0
 10
269.3787805008168
 20
237.9957467704394
 30
0.0
 10
269.3025718119727
 20
237.9957467609655
 30
0.0
 10
269.2342033688313
 20
237.9957467512538
 30
0.0
 10
269.1739696791828
 20
237.9957467413177
 30
0.0
 10
269.1273309121658
 20
237.9957467321913
 30
0.0
 10
269.0919232356698
 20
237.9957467239958
 30
0.0
 10
269.0653368623061
 20
237.9957467167745
 30
0.0
 10
269.0430485227513
 20
237.9957467094806
 30
0.0
 10
269.0252823895917
 20
237.9957467021184
 30
0.0
 10
269.011984661868
 20
237.9957466946954
 30
0.0
 10
269.001563924456
 20
237.9957466859537
 30
0.0
 10
268.9960403695182
 20
237.9957466758878
 30
0.0
 10
268.9913987751328
 20
237.9957466558765
 30
0.0
 10
268.9813584280037
 20
237.9957466272409
 30
0.0
 10
268.965141535363
 20
237.995746589987
 30
0.0
 10
268.9441142057532
 20
237.9957465354582
 30
0.0
 10
268.9218669744488
 20
237.9957464616949
 30
0.0
 10
268.8955984653991
 20
237.9957463673664
 30
0.0
 10
268.8740409149287
 20
237.9957462697284
 30
0.0
 10
268.8643990501245
 20
237.9957462037192
 30
0.0
 10
268.8595780967992
 20
237.9957461707145
 30
0.0
  0
SPLINE
  5
108
330
1F
100
AcDbEntity
  8
0
  6
Continuous
 62
     7
370
    30
100
AcDbSpline
210
0.0
220
0.0
230
1.0
 70
     8
 71
     3
 72
    51
 73
    47
 74
     0
 42
0.000000001
 43
0.00000001
 40
0.0
 40
0.0
 40
0.0
 40
0.0
 40
0.1222132331214463
 40
0.2444270810636961
 40
0.3666408049017513
 40
0.4888538687893227
 40
0.5346433808650607
 40
0.5575382603112305
 40
0.5689876847912811
 40
0.5804357656577481
 40
0.5919759041557344
 40
0.6035259655956515
 40
0.6150761266269995
 40
0.6266164010480443
 40
0.6381339678459604
 40
0.6496612080317316
 40
0.6611884115291757
 40
0.672705928255507
 40
0.6845522154495046
 40
0.6964093931101624
 40
0.7082662302281331
 40
0.7201120526163872
 40
0.7316321716276981
 40
0.7431625112913247
 40
0.7546931435709558
 40
0.7662136619562492
 40
0.7780702043268244
 40
0.789937446543434
 40
0.8018047156611947
 40
0.813661294748247
 40
0.8251681616113329
 40
0.8366850108100581
 40
0.8482016097192373
 40
0.8597081349809533
 40
0.8715534798623552
 40
0.8834098469505824
 40
0.895266506488123
 40
0.9071122505333227
 40
0.9185558937303466
 40
0.9300091338313489
 40
0.9414623749039321
 40
0.9529060194269505
 40
0.9646743337338674
 40
0.976453344298081
 40
0.9882320719013375
 40
1.0
 40
1.0
 40
1.0
 40
1.0
 10
279.1404219030594
 20
237.9957461299604
 30
0.0
 10
279.1350787488699
 20
237.995746166532
 30
0.0
 10
279.124392413611
 20
237.9957462396753
 30
0.0
 10
279.1002595184417
 20
237.9957463494192
 30
0.0
 10
279.0681480002378
 20
237.9957464591891
 30
0.0
 10
279.0406351036217
 20
237.9957465460854
 30
0.0
 10
279.0130997934357
 20
237.9957466032722
 30
0.0
 10
279.0063224931221
 20
237.995746627263
 30
0.0
 10
279.0019052140781
 20
237.9957466409745
 30
0.0
 10
278.9938197053007
 20
237.9957466513
 30
0.0
 10
278.9774913392996
 20
237.9957466616656
 30
0.0
 10
278.9523942333298
 20
237.9957466720529
 30
0.0
 10
278.9188128944035
 20
237.9957466824139
 30
0.0
 10
278.8768015766403
 20
237.9957466927211
 30
0.0
 10
278.8264425043978
 20
237.9957467029599
 30
0.0
 10
278.7678982577927
 20
237.9957467131168
 30
0.0
 10
278.7012490601262
 20
237.9957467231787
 30
0.0
 10
278.6258950285193
 20
237.9957467332203
 30
0.0
 10
278.541602744169
 20
237.9957467432227
 30
0.0
 10
278.4482214649729
 20
237.9957467531655
 30
0.0
 10
278.3466829945772
 20
237.995746762933
 30
0.0
 10
278.2381282371434
 20
237.9957467724149
 30
0.0
 10
278.1228480737641
 20
237.9957467815987
 30
0.0
 10
278.0013581396486
 20
237.9957467904805
 30
0.0
 10
277.8729058310295
 20
237.99574679913
 30
0.0
 10
277.7364785098441
 20
237.9957468076128
 30
0.0
 10
277.5920532777753
 20
237.9957468159081
 30
0.0
 10
277.439685851978
 20
237.9957468239965
 30
0.0
 10
277.2810876687196
 20
237.9957468317826
 30
0.0
 10
277.1181991099367
 20
237.9957468391765
 30
0.0
 10
276.9514281335622
 20
237.9957468461758
 30
0.0
 10
276.7811995062258
 20
237.995746852782
 30
0.0
 10
276.606158537031
 20
237.9957468590505
 30
0.0
 10
276.4248598576737
 20
237.9957468650235
 30
0.0
 10
276.2373486577471
 20
237.9957468706743
 30
0.0
 10
276.0438383695433
 20
237.9957468759858
 30
0.0
 10
275.8465885501747
 20
237.995746880896
 30
0.0
 10
275.6483058626724
 20
237.9957468853456
 30
0.0
 10
275.4494234167861
 20
237.9957468893441
 30
0.0
 10
275.2503430840226
 20
237.9957468929049
 30
0.0
 10
275.0491541053926
 20
237.9957468960684
 30
0.0
 10
274.8443262254526
 20
237.995746898853
 30
0.0
 10
274.6360761533388
 20
237.9957469012413
 30
0.0
 10
274.4246783361824
 20
237.9957469032043
 30
0.0
 10
274.2125044737413
 20
237.9957469047554
 30
0.0
 10
274.0708131626795
 20
237.9957469054057
 30
0.0
 10
274.0
 20
237.9957469057308
 30
0.0
  0
SPLINE
  5
109
330
1F
100
AcDbEntity
  8
0
  6
Continuous
 62
     7
370
    30
100
AcDbSpline
210
0.0
220
0.0
230
1.0
 70
     8
 71
     3
 72
    31
 73
    27
 74
     0
 42
0.000000001
 43
0.00000001
 40
0.0
 40
0.0
 40
0.0
 40
0.0
 40
0.0488726252387885
 40
0.0977828591458695
 40
0.1466554840918189
 40
0.1843698328346196
 40
0.2221187270810461
 40
0.2598676211908267
 40
0.2975819697471183
 40
0.3464545985319614
 40
0.3953648366861168
 40
0.4442374653011547
 40
0.4819518335902289
 40
0.519700747855096
 40
0.557449662078301
 40
0.5951640303105136
 40
0.6440364135356569
 40
0.6929464058540342
 40
0.7418187891080076
 40
0.7795329595539614
 40
0.8172816753840659
 40
0.8550303912861278
 40
0.8927445618302948
 40
0.9284914754802371
 40
0.9642530862913682
 40
0.9999999999999999
 40
0.9999999999999999
 40
0.9999999999999999
 40
0.9999999999999999
 10
268.8595780967992
 20
237.9957461707145
 30
0.0
 10
268.8583310936148
 20
237.9957461679656
 30
0.0
 10
268.8558361276468
 20
237.9957461624659
 30
0.0
 10
268.840435877463
 20
237.9957461542928
 30
0.0
 10
268.8183951985193
 20
237.9957461468214
 30
0.0
 10
268.7911599400885
 20
237.9957461400534
 30
0.0
 10
268.7610363175864
 20
237.9957461339702
 30
0.0
 10
268.7256148264154
 20
237.9957461279774
 30
0.0
 10
268.6809642830565
 20
237.9957461215074
 30
0.0
 10
268.6251544189425
 20
237.9957461146114
 30
0.0
 10
268.5562844827772
 20
237.995746107359
 30
0.0
 10
268.4850229847339
 20
237.9957461008737
 30
0.0
 10
268.4135594393081
 20
237.9957460951162
 30
0.0
 10
268.3438218270042
 20
237.9957460900354
 30
0.0
 10
268.2695555156752
 20
237.9957460851251
 30
0.0
 10
268.1831567685138
 20
237.9957460799299
 30
0.0
 10
268.0830975523799
 20
237.9957460745288
 30
0.0
 10
267.9679961267853
 20
237.9957460690171
 30
0.0
 10
267.8556830425779
 20
237.9957460642484
 30
0.0
 10
267.7480207829826
 20
237.9957460601508
 30
0.0
 10
267.6465394122904
 20
237.9957460566451
 30
0.0
 10
267.5417984832519
 20
237.9957460533712
 30
0.0
 10
267.4358987751148
 20
237.9957460503876
 30
0.0
 10
267.3291330774127
 20
237.9957460476921
 30
0.0
 10
267.2220297911409
 20
237.9957460452511
 30
0.0
 10
267.1487641160368
 20
237.9957460438163
 30
0.0
 10
267.1121388076091
 20
237.995746043099
 30
0.0
  0
SPLINE
  5
10A
330
1F
100
AcDbEntity
  8
0
  6
Continuous
 62
     7
370
    30
100
AcDbSpline
210
0.0
220
0.0
230
1.0
 70
     8
 71
     3
 72
    31
 73
    27
 74
     0
 42
0.000000001
 43
0.00000001
 40
0.0
 40
0.0
 40
0.0
 40
0.0
 40
0.048872378385476
 40
0.0977823654799531
 40
0.1466547436712755
 40
0.1843689056360228
 40
0.2221176129748129
 40
0.2598663202559027
 40
0.2975804821418975
 40
0.346452862092047
 40
0.395362851118026
 40
0.4442352310669611
 40
0.4819493994015421
 40
0.5196981131516103
 40
0.5574468269580799
 40
0.5951609953696425
 40
0.6440333223355106
 40
0.6929432580910575
 40
0.741815585249018
 40
0.7795297000512775
 40
0.8172783596845679
 40
0.8550270194631895
 40
0.8927411344638043
 40
0.928489190161461
 40
0.9642519442172613
 40
1.0
 40
1.0
 40
1.0
 40
1.0
 10
280.8878611916988
 20
237.995745988491
 30
0.0
 10
280.8378857337208
 20
237.9957459898792
 30
0.0
 10
280.737896360204
 20
237.9957459926567
 30
0.0
 10
280.5932658025757
 20
237.9957459973173
 30
0.0
 10
280.4637515218568
 20
237.9957460019407
 30
0.0
 10
280.3488940515887
 20
237.9957460064603
 30
0.0
 10
280.2475714446997
 20
237.9957460107799
 30
0.0
 10
280.1497029476534
 20
237.9957460152972
 30
0.0
 10
280.0462133122429
 20
237.9957460204663
 30
0.0
 10
279.938697029361
 20
237.9957460263505
 30
0.0
 10
279.8290728119873
 20
237.9957460330026
 30
0.0
 10
279.7343229236149
 20
237.9957460393923
 30
0.0
 10
279.6529863014268
 20
237.9957460454386
 30
0.0
 10
279.5834709363132
 20
237.9957460510785
 30
0.0
 10
279.5186167669576
 20
237.9957460568423
 30
0.0
 10
279.4526525119452
 20
237.9957460632972
 30
0.0
 10
279.3875433233218
 20
237.9957460704745
 30
0.0
 10
279.3255039085611
 20
237.9957460783911
 30
0.0
 10
279.2761446822722
 20
237.9957460858207
 30
0.0
 10
279.2375109520719
 20
237.9957460927133
 30
0.0
 10
279.2076357913013
 20
237.9957460990374
 30
0.0
 10
279.1831138611579
 20
237.9957461053979
 30
0.0
 10
279.164308337766
 20
237.9957461116706
 30
0.0
 10
279.1510765312479
 20
237.9957461178434
 30
0.0
 10
279.1426285968394
 20
237.9957461239083
 30
0.0
 10
279.1411573668543
 20
237.9957461279433
 30
0.0
 10
279.1404219030594
 20
237.9957461299604
 30
0.0
  0
SPLINE
  5
10B
330
1F
100
AcDbEntity
  8
0
  6
Continuous
 62
     7
370
    30
100
AcDbSpline
210
0.0
220
0.0
230
1.0
 70
     8
 71
     3
 72
    63
 73
    59
 74
     0
 42
0.000000001
 43
0.00000001
 40
0.0
 40
0.0
 40
0.0
 40
0.0
 40
0.0203151230212625
 40
0.0406384245606039
 40
0.0609644581149427
 40
0.0812877596542845
 40
0.101602882675547
 40
0.1194538562588998
 40
0.1373103778682314
 40
0.1551687518805116
 40
0.173025273489843
 40
0.1908762470731959
 40
0.2118766159929178
 40
0.2328860196629333
 40
0.2538984418124756
 40
0.274907845482491
 40
0.2959082144022128
 40
0.3125589441204066
 40
0.3292111744346572
 40
0.3458619041528511
 40
0.3637157885385517
 40
0.3815770725850573
 40
0.3994420656535344
 40
0.4173070587220114
 40
0.4351683427685168
 40
0.4530222271542177
 40
0.4703156257254097
 40
0.487612387084605
 40
0.5049091484438005
 40
0.5222025470149924
 40
0.5396046894591146
 40
0.5570102585493938
 40
0.5744158276396727
 40
0.591817970083795
 40
0.6084686998019886
 40
0.6251209301162389
 40
0.6417716598344329
 40
0.6596255442201335
 40
0.6774868282666388
 40
0.6953518213351159
 40
0.7132168144035926
 40
0.731078098450098
 40
0.7489319828357986
 40
0.7662253814069904
 40
0.7835221427661857
 40
0.8008189041253811
 40
0.8181123026965729
 40
0.8355144451406951
 40
0.8529200142309733
 40
0.8703255833212518
 40
0.8877277257653736
 40
0.9043784554835675
 40
0.9210306857978183
 40
0.9376814155160125
 40
0.9566191540489883
 40
0.9755635172494814
 40
0.9945100927855142
 40
0.9999999999999999
 40
0.9999999999999999
 40
0.9999999999999999
 40
0.9999999999999999
 10
280.8878611916989
 20
237.995745988491
 30
0.0
 10
281.0032463230215
 20
237.9957459853518
 30
0.0
 10
281.2340630377301
 20
237.9957459790721
 30
0.0
 10
281.5754502173723
 20
237.9957459691677
 30
0.0
 10
281.9130884567895
 20
237.9957459589153
 30
0.0
 10
282.2463687409299
 20
237.995745948288
 30
0.0
 10
282.5618913846383
 20
237.995745937745
 30
0.0
 10
282.8601161739558
 20
237.9957459273365
 30
0.0
 10
283.141593634617
 20
237.9957459171126
 30
0.0
 10
283.4193152339723
 20
237.9957459066199
 30
0.0
 10
283.6931094360035
 20
237.9957458958651
 30
0.0
 10
283.9787115213302
 20
237.9957458842052
 30
0.0
 10
284.2751615258987
 20
237.9957458715865
 30
0.0
 10
284.5813725363738
 20
237.9957458579567
 30
0.0
 10
284.8815665650463
 20
237.9957458439885
 30
0.0
 10
285.1754856657342
 20
237.995745829694
 30
0.0
 10
285.4430965226966
 20
237.9957458160902
 30
0.0
 10
285.6857376941389
 20
237.9957458032554
 30
0.0
 10
285.9047356912525
 20
237.9957457912567
 30
0.0
 10
286.1246171420177
 20
237.9957457787771
 30
0.0
 10
286.3449419267478
 20
237.995745765803
 30
0.0
 10
286.5652528083755
 20
237.9957457523226
 30
0.0
 10
286.7804051198597
 20
237.9957457386399
 30
0.0
 10
286.9902660967845
 20
237.9957457247635
 30
0.0
 10
287.1947045551078
 20
237.9957457107019
 30
0.0
 10
287.3915464295333
 20
237.9957456966097
 30
0.0
 10
287.5809297166161
 20
237.995745682497
 30
0.0
 10
287.7630238523103
 20
237.9957456683743
 30
0.0
 10
287.9397705195041
 20
237.995745654097
 30
0.0
 10
288.1114470038731
 20
237.9957456396414
 30
0.0
 10
288.2779487445255
 20
237.9957456250108
 30
0.0
 10
288.439189031242
 20
237.9957456102092
 30
0.0
 10
288.5947490054787
 20
237.995745595274
 30
0.0
 10
288.74239818096
 20
237.9957455804288
 30
0.0
 10
288.8823643093128
 20
237.9957455656851
 30
0.0
 10
289.0148947338071
 20
237.9957455510535
 30
0.0
 10
289.1450795837557
 20
237.9957455359661
 30
0.0
 10
289.2724015971552
 20
237.9957455204178
 30
0.0
 10
289.3963387186477
 20
237.9957455044054
 30
0.0
 10
289.5139247876374
 20
237.9957454882929
 30
0.0
 10
289.6250878005932
 20
237.9957454720903
 30
0.0
 10
289.729757621602
 20
237.9957454558076
 30
0.0
 10
289.8268544796454
 20
237.9957454396225
 30
0.0
 10
289.9165806703185
 20
237.9957454235423
 30
0.0
 10
289.9991688014758
 20
237.9957454075735
 30
0.0
 10
290.0755406401648
 20
237.9957453915515
 30
0.0
 10
290.1458065748187
 20
237.9957453754498
 30
0.0
 10
290.2098875710904
 20
237.9957453592733
 30
0.0
 10
290.2677262922927
 20
237.9957453430271
 30
0.0
 10
290.3191651872336
 20
237.9957453267524
 30
0.0
 10
290.3635301534024
 20
237.9957453106912
 30
0.0
 10
290.4011153667661
 20
237.9957452948503
 30
0.0
 10
290.4322441770891
 20
237.9957452792354
 30
0.0
 10
290.4585731288532
 20
237.9957452629025
 30
0.0
 10
290.4792742420048
 20
237.9957452458553
 30
0.0
 10
290.4925787118792
 20
237.9957452281043
 30
0.0
 10
290.4985179579804
 20
237.9957452145622
 30
0.0
 10
290.497499379404
 20
237.9957452069509
 30
0.0
 10
290.4972705452491
 20
237.9957452052409
 30
0.0
  0
SPLINE
  5
10C
330
1F
100
AcDbEntity
  8
0
  6
Continuous
 62
     7
370
    30
100
AcDbSpline
210
0.0
220
0.0
230
1.0
 70
     8
 71
     3
 72
    63
 73
    59
 74
     0
 42
0.000000001
 43
0.00000001
 40
0.0
 40
0.0
 40
0.0
 40
0.0
 40
0.0043942416403252
 40
0.0216876397310876
 40
0.0390897816917597
 40
0.0564953502984933
 40
0.0739009189052268
 40
0.0913030608658989
 40
0.1079537901215171
 40
0.1246060199731505
 40
0.1412567492287686
 40
0.1591106331184687
 40
0.176971916668768
 40
0.1948369092409359
 40
0.2127019018131036
 40
0.2305631853634028
 40
0.248417069253103
 40
0.2657104673438654
 40
0.2830072282225381
 40
0.3003039891012106
 40
0.3175973871919732
 40
0.334999529152645
 40
0.3524050977593783
 40
0.3698106663661117
 40
0.3872128083267836
 40
0.4038635375824023
 40
0.4205157674340358
 40
0.4371664966896541
 40
0.4550203805793545
 40
0.4728816641296536
 40
0.4907466567018217
 40
0.5086116492739899
 40
0.526472932824289
 40
0.5443268167139893
 40
0.5616202148047514
 40
0.578916975683424
 40
0.5962137365620966
 40
0.6135071346528589
 40
0.6309092766135308
 40
0.6483148452202641
 40
0.6657204138269973
 40
0.6831225557876691
 40
0.7039904222076309
 40
0.7248671533634531
 40
0.7457468461125528
 40
0.766623577268375
 40
0.787491443688337
 40
0.8082567314807997
 40
0.8290307538654422
 40
0.8498076942995684
 40
0.870581716684211
 40
0.8913470044766736
 40
0.9094494062391495
 40
0.927559521051621
 40
0.9456735022383369
 40
0.9637874834250526
 40
0.9818975982375242
 40
1.0
 40
1.0
 40
1.0
 40
1.0
 10
257.5025351973943
 20
237.9957453360345
 30
0.0
 10
257.5023528129032
 20
237.9957453374046
 30
0.0
 10
257.5014526600535
 20
237.9957453441669
 30
0.0
 10
257.5062274983692
 20
237.9957453563296
 30
0.0
 10
257.5171415859339
 20
237.9957453725144
 30
0.0
 10
257.535083686908
 20
237.995745388692
 30
0.0
 10
257.5593644750451
 20
237.9957454048237
 30
0.0
 10
257.5897090619097
 20
237.99574542067
 30
0.0
 10
257.625744405753
 20
237.9957454362281
 30
0.0
 10
257.6671473117812
 20
237.9957454514959
 30
0.0
 10
257.7155702799888
 20
237.9957454670648
 30
0.0
 10
257.77152686896
 20
237.9957454829247
 30
0.0
 10
257.8355144595847
 20
237.9957454990643
 30
0.0
 10
257.9062101120028
 20
237.9957455151126
 30
0.0
 10
257.9835688851899
 20
237.9957455310598
 30
0.0
 10
258.0675439624874
 20
237.9957455468957
 30
0.0
 10
258.157163043223
 20
237.9957455624494
 30
0.0
 10
258.2521695934495
 20
237.9957455777205
 30
0.0
 10
258.3522861711423
 20
237.9957455927101
 30
0.0
 10
258.4584824781055
 20
237.9957456075745
 30
0.0
 10
258.5709475568179
 20
237.9957456223379
 30
0.0
 10
258.6896990896856
 20
237.9957456369943
 30
0.0
 10
258.8147324075447
 20
237.995745651538
 30
0.0
 10
258.9457395034926
 20
237.9957456659318
 30
0.0
 10
259.0806931053091
 20
237.9957456799643
 30
0.0
 10
259.219256543382
 20
237.9957456936379
 30
0.0
 10
259.3610916342875
 20
237.9957457069565
 30
0.0
 10
259.5117416048346
 20
237.995745720435
 30
0.0
 10
259.6716377890124
 20
237.9957457340557
 30
0.0
 10
259.8411865408556
 20
237.9957457478
 30
0.0
 10
260.0166344788178
 20
237.9957457613495
 30
0.0
 10
260.1978717830859
 20
237.9957457746958
 30
0.0
 10
260.3847870072684
 20
237.9957457878306
 30
0.0
 10
260.5752970884197
 20
237.9957458006131
 30
0.0
 10
260.7691515097725
 20
237.9957458130471
 30
0.0
 10
260.9660878227319
 20
237.9957458251384
 30
0.0
 10
261.1680883023774
 20
237.9957458370141
 30
0.0
 10
261.3754968212223
 20
237.9957458486934
 30
0.0
 10
261.5882907630713
 20
237.9957458601705
 30
0.0
 10
261.806427826742
 20
237.9957458714402
 30
0.0
 10
262.0293624543289
 20
237.9957458824735
 30
0.0
 10
262.2721020513865
 20
237.9957458939818
 30
0.0
 10
262.5357517088311
 20
237.9957459059015
 30
0.0
 10
262.8213954211985
 20
237.9957459181622
 30
0.0
 10
263.1134019877667
 20
237.9957459300585
 30
0.0
 10
263.4115241028882
 20
237.9957459415801
 30
0.0
 10
263.7150877288403
 20
237.9957459527014
 30
0.0
 10
264.0239607044464
 20
237.9957459634192
 30
0.0
 10
264.3379774663082
 20
237.9957459737329
 30
0.0
 10
264.6574495274068
 20
237.9957459836542
 30
0.0
 10
264.9821084170125
 20
237.9957459931749
 30
0.0
 10
265.2976747879209
 20
237.9957460018992
 30
0.0
 10
265.6033251756039
 20
237.9957460098816
 30
0.0
 10
265.8983379277486
 20
237.9957460171769
 30
0.0
 10
266.1968477501919
 20
237.9957460241575
 30
0.0
 10
266.4987353176224
 20
237.9957460308111
 30
0.0
 10
266.8035407597141
 20
237.9957460371634
 30
0.0
 10
267.0092873992464
 20
237.9957460411208
 30
0.0
 10
267.1121388076092
 20
237.995746043099
 30
0.0
  0
SPLINE
  5
10D
330
1F
100
AcDbEntity
  8
0
  6
Continuous
 62
     7
370
    30
100
AcDbSpline
210
0.0
220
0.0
230
1.0
 70
     8
 71
     3
 72
    15
 73
    11
 74
     0
 42
0.000000001
 43
0.00000001
 40
0.0
 40
0.0
 40
0.0
 40
0.0
 40
0.0516879488947832
 40
0.1887608944851261
 40
0.3258349468325633
 40
0.4629215313421106
 40
0.6000324991342665
 40
0.7371795994893012
 40
0.8743744347228996
 40
1.0
 40
1.0
 40
1.0
 40
1.0
 10
421.5235047345926
 20
149.0336937432362
 30
0.0
 10
421.5041693606749
 20
149.0226394463015
 30
0.0
 10
421.4335578824882
 20
148.9822699013318
 30
0.0
 10
421.3132753211388
 20
148.9098147759174
 30
0.0
 10
421.162672475153
 20
148.8163696650344
 30
0.0
 10
421.0137630192796
 20
148.7201072680444
 30
0.0
 10
420.8664199724066
 20
148.6212762456356
 30
0.0
 10
420.7207421238538
 20
148.5197502483828
 30
0.0
 10
420.5806154092779
 20
148.4187726793382
 30
0.0
 10
420.4899271802917
 20
148.3503435186579
 30
0.0
 10
420.4465790992133
 20
148.3176350531994
 30
0.0
  0
SPLINE
  5
10E
330
1F
100
AcDbEntity
  8
0
  6
Continuous
 62
     7
370
    30
100
AcDbSpline
210
0.0
220
0.0
230
1.0
 70
     8
 71
     3
 72
    15
 73
    11
 74
     0
 42
0.000000001
 43
0.00000001
 40
0.0
 40
0.0
 40
0.0
 40
0.0
 40
0.1100939307177567
 40
0.2478355825779431
 40
0.3855019549858809
 40
0.5231042261630442
 40
0.6606538152306727
 40
0.7981623381973558
 40
0.9356415630965543
 40
1.0
 40
1.0
 40
1.0
 40
1.0
 10
447.9161589852571
 20
100.7422959072367
 30
0.0
 10
447.9598853113156
 20
100.7607487977335
 30
0.0
 10
448.0583188890984
 20
100.802288625013
 30
0.0
 10
448.2098095088355
 20
100.870203076214
 30
0.0
 10
448.3708710386838
 20
100.9453997199014
 30
0.0
 10
448.5303910865726
 20
101.0233933863828
 30
0.0
 10
448.6884366344729
 20
101.1040183104226
 30
0.0
 10
448.8448717744481
 20
101.1874819926914
 30
0.0
 10
448.9725805131287
 20
101.2578970896789
 30
0.0
 10
449.0475617311118
 20
101.3014829686681
 30
0.0
 10
449.0714704206171
 20
101.3153808657095
 30
0.0
  0
LINE
  5
10F
330
1F
100
AcDbEntity
  8
0
  6
Continuous
 62
     7
370
    30
100
AcDbLine
 10
437.5179522792
 20
158.267509889
 30
0.0
 11
421.5235848957
 21
149.0341581359
 31
0.0
  0
LINE
  5
110
330
1F
100
AcDbEntity
  8
0
  6
Continuous
 62
     7
370
    30
100
AcDbLine
 10
449.0713459798
 20
101.3148658187
 30
0.0
 11
465.4735511091
 21
110.7836572909
 31
0.0
  0
SPLINE
  5
111
330
1F
100
AcDbEntity
  8
0
  6
Continuous
 62
     7
370
    30
100
AcDbSpline
210
0.0
220
0.0
230
1.0
 70
     8
 71
     3
 72
   304
 73
   300
 74
     0
 42
0.000000001
 43
0.00000001
 40
0.0
 40
0.0
 40
0.0
 40
0.0
 40
0.0008494222045993
 40
0.0041351659712778
 40
0.0074209326903267
 40
0.0107069280862605
 40
0.0139933665729891
 40
0.0172804603853306
 40
0.0205684186053049
 40
0.0238574462105394
 40
0.0271477431514407
 40
0.0304395034633262
 40
0.03373291441947
 40
0.0370281557308756
 40
0.0403253987980753
 40
0.0436248060200111
 40
0.046926530164599
 40
0.0502307138050922
 40
0.0535374888258548
 40
0.0568469760005811
 40
0.0601592846454025
 40
0.0634745123485631
 40
0.0667927447778659
 40
0.0701140555661559
 40
0.0734385062744612
 40
0.0767661464317052
 40
0.0800970136491327
 40
0.0834311338067615
 40
0.0867685213087541
 40
0.0901091794035464
 40
0.0934531005644258
 40
0.0968002669252646
 40
0.1001506507660716
 40
0.1035042150422748
 40
0.1068609139516509
 40
0.1102206935324514
 40
0.1135834922862596
 40
0.1169492418190491
 40
0.1203178674941199
 40
0.1236892890905582
 40
0.1270634214614566
 40
0.1304401751860432
 40
0.133819457210735
 40
0.137201171474167
 40
0.1405852195119826
 40
0.1439715010376623
 40
0.1473599144960775
 40
0.1507503575872673
 40
0.1541427277580303
 40
0.1575369226599962
 40
0.1609328405728877
 40
0.1643303807924051
 40
0.1677294439825151
 40
0.1711299324923702
 40
0.1745317506383601
 40
0.1779348049522409
 40
0.1813390043964098
 40
0.1847442605477192
 40
0.1881504877514114
 40
0.1915576032467589
 40
0.1949655272663446
 40
0.1983741831106517
 40
0.2017834972000788
 40
0.2051933991060896
 40
0.2086038215634808
 40
0.2120147004656372
 40
0.2154259748444782
 40
0.2188375868369427
 40
0.2222494816395359
 40
0.2256616074526137
 40
0.2290739154157726
 40
0.2324863595357991
 40
0.2358988966083462
 40
0.2393114861345862
 40
0.2427240843085537
 40
0.2461366504607364
 40
0.2495491524676297
 40
0.2529615605152949
 40
0.2563738470050198
 40
0.2597859864587623
 40
0.2631979554252242
 40
0.2666097323870358
 40
0.2700212976693919
 40
0.2734326333505491
 40
0.2768437231743275
 40
0.280254552465009
 40
0.2836651080446181
 40
0.2870753781529295
 40
0.2904853523700979
 40
0.2938950215421874
 40
0.2973043777095201
 40
0.3007134140378787
 40
0.3041221247526651
 40
0.3075305050758291
 40
0.3109385511657571
 40
0.3143462600598548
 40
0.3177536296199504
 40
0.3211606584803456
 40
0.3245673459985134
 40
0.327973692208293
 40
0.3313796977755904
 40
0.3347853639564402
 40
0.3381906925573627
 40
0.3415956858979146
 40
0.3450003467753894
 40
0.3484046784315132
 40
0.3518086845211297
 40
0.3552123690826618
 40
0.3586157365104662
 40
0.3620187915287713
 40
0.3654215391672638
 40
0.3688239847382133
 40
0.3722261338150388
 40
0.3756279922122533
 40
0.3790295659667073
 40
0.382430861320085
 40
0.385831884702567
 40
0.3892326427175857
 40
0.3926331421276335
 40
0.3960333898410736
 40
0.3994333928998421
 40
0.4028331584680819
 40
0.4062326938215371
 40
0.4096320063377775
 40
0.4130311034871314
 40
0.4164299928243053
 40
0.4198286819806326
 40
0.4232271786569752
 40
0.4266254906171068
 40
0.4300236256817322
 40
0.4334215917228944
 40
0.4368193966589158
 40
0.4402170484497392
 40
0.443614555092693
 40
0.4470119246185994
 40
0.4504091650882429
 40
0.4538062845891795
 40
0.4572032912327957
 40
0.4606001931516814
 40
0.4639969984972449
 40
0.4673937154375327
 40
0.4707903521553053
 40
0.4741869168462455
 40
0.4775834177173803
 40
0.4809798629856273
 40
0.4843762608765202
 40
0.4877726196229645
 40
0.4911689474641945
 40
0.4945652526447559
 40
0.4979615434135658
 40
0.501357828023013
 40
0.5047541147281446
 40
0.5081504093062555
 40
0.5115467197429053
 40
0.5149430542966015
 40
0.5183394212254252
 40
0.5217358287861816
 40
0.5251322852334378
 40
0.5285287988185817
 40
0.5319253777887044
 40
0.5353220303854525
 40
0.5387187648437505
 40
0.542115589390364
 40
0.5455125122423725
 40
0.5489095416054104
 40
0.5523066856717583
 40
0.5557039526182135
 40
0.5591013506037825
 40
0.5624988877670323
 40
0.5658965722232796
 40
0.5692944120613809
 40
0.5726924153403292
 40
0.5760905900853817
 40
0.5794889442839046
 40
0.5828874858807903
 40
0.5862862227734518
 40
0.5896851628063641
 40
0.5930843137650953
 40
0.5964836833698549
 40
0.599883279268438
 40
0.6032831090285886
 40
0.6066831801297405
 40
0.6100834999540363
 40
0.6134840757766733
 40
0.6168849147554434
 40
0.620286023919463
 40
0.6236874101570186
 40
0.6270890802025223
 40
0.6304910406224445
 40
0.6338932978002443
 40
0.6372958579201816
 40
0.6406987269499435
 40
0.6441019106220895
 40
0.6475054144141509
 40
0.6509092435273627
 40
0.6543134028640017
 40
0.6577178970031003
 40
0.6611227301746511
 40
0.6645279062320595
 40
0.6679334286228782
 40
0.671339300357633
 40
0.6747455239767416
 40
0.678152101515385
 40
0.6815590344662502
 40
0.684966323740081
 40
0.6883739696239128
 40
0.6917819717369316
 40
0.6951903289838328
 40
0.6985990395056619
 40
0.7020081006279716
 40
0.7054175088063415
 40
0.7088272595690173
 40
0.7122373474568385
 40
0.7156477659601841
 40
0.7190585074530622
 40
0.722469563124229
 40
0.7258809229054044
 40
0.7292925753965059
 40
0.7327045077880913
 40
0.736116705780849
 40
0.7395291535024991
 40
0.7429418334220175
 40
0.7463547262614659
 40
0.7497678109055829
 40
0.7531810643094163
 40
0.7565944614043457
 40
0.760007975002738
 40
0.7634215757018221
 40
0.766835231787151
 40
0.770248905430292
 40
0.7736625509434376
 40
0.7770761282201043
 40
0.7804895944367335
 40
0.7839029039653171
 40
0.7873160082913994
 40
0.7907288559380259
 40
0.794141392396734
 40
0.7975535600670797
 40
0.8009652982060471
 40
0.8043765428889947
 40
0.8077872269837036
 40
0.8111972801393514
 40
0.8146066287921567
 40
0.8180151961896311
 40
0.8214229024352918
 40
0.8248296645558928
 40
0.8282353965930053
 40
0.831640009720966
 40
0.8350434123930323
 40
0.838445510517528
 40
0.841846207665592
 40
0.8452454053120962
 40
0.8486430031109261
 40
0.8520388992056135
 40
0.8554329905761227
 40
0.858825173422021
 40
0.8622153435820479
 40
0.865603396989561
 40
0.8689892301629418
 40
0.8723727407293741
 40
0.8757538279800949
 40
0.8791323934544404
 40
0.8825083415495838
 40
0.885881580152259
 40
0.8892520212881532
 40
0.8926195817842569
 40
0.8959841839388073
 40
0.8993457561931854
 40
0.902704233799636
 40
0.9060595594783953
 40
0.9094116840577262
 40
0.9127605670899868
 40
0.9161061774371166
 40
0.9194484938188122
 40
0.922787505316835
 40
0.9261232118293948
 40
0.9294556244696309
 40
0.9327847659029297
 40
0.9361106706182375
 40
0.9394333851292289
 40
0.9427529681018492
 40
0.9460694904054266
 40
0.949383035085528
 40
0.9526936972571695
 40
0.9560015839181953
 40
0.959306813683076
 40
0.9626095164383387
 40
0.9659098329215463
 40
0.9692079142263595
 40
0.9725039212369841
 40
0.9757980239957517
 40
0.9790904010083198
 40
0.9823812384912528
 40
0.9856707295672644
 40
0.9889590734138565
 40
0.9922464743711901
 40
0.9955331410154653
 40
0.9988192852042195
 40
0.9999999999999999
 40
0.9999999999999999
 40
0.9999999999999999
 40
0.9999999999999999
 10
393.0787382413941
 20
132.6354060209168
 30
0.0
 10
393.0656981060946
 20
132.6279480219175
 30
0.0
 10
393.0022159844129
 20
132.5916409139697
 30
0.0
 10
392.8898314737718
 20
132.5238252945801
 30
0.0
 10
392.7416648947521
 20
132.4318826501773
 30
0.0
 10
392.5952070481026
 20
132.3370860145485
 30
0.0
 10
392.4503169056662
 20
132.2397126518361
 30
0.0
 10
392.3070496335537
 20
132.13969938739
 30
0.0
 10
392.1654078332517
 20
132.0370742833253
 30
0.0
 10
392.0254082734625
 20
131.9318410045888
 30
0.0
 10
391.8870640268979
 20
131.8240098434095
 30
0.0
 10
391.750389277666
 20
131.7135894377855
 30
0.0
 10
391.6153980482867
 20
131.6005890283191
 30
0.0
 10
391.4821045531422
 20
131.4850178918044
 30
0.0
 10
391.3505231121788
 20
131.3668855331859
 30
0.0
 10
391.220668178749
 20
131.2462016752011
 30
0.0
 10
391.0925543330387
 20
131.1229763028562
 30
0.0
 10
390.966196280919
 20
130.9972196933277
 30
0.0
 10
390.8416088475795
 20
130.8689424494503
 30
0.0
 10
390.7188069688781
 20
130.7381555314655
 30
0.0
 10
390.5978056797424
 20
130.6048702880147
 30
0.0
 10
390.4786200999586
 20
130.4690984856814
 30
0.0
 10
390.3612654174572
 20
130.3308523368557
 30
0.0
 10
390.2457568692952
 20
130.1901445255957
 30
0.0
 10
390.1321097205499
 20
130.0469882312192
 30
0.0
 10
390.0203392413578
 20
129.9013971493783
 30
0.0
 10
389.9104606823602
 20
129.7533855104086
 30
0.0
 10
389.8024892488223
 20
129.602968094778
 30
0.0
 10
389.6964400737173
 20
129.4501602455051
 30
0.0
 10
389.5923281900626
 20
129.2949778774504
 30
0.0
 10
389.4901685028086
 20
129.1374374834378
 30
0.0
 10
389.3899757605727
 20
128.9775561371933
 30
0.0
 10
389.2917645275111
 20
128.8153514931429
 30
0.0
 10
389.1955491556058
 20
128.650841783142
 30
0.0
 10
389.1013437576361
 20
128.4840458102547
 30
0.0
 10
389.0091621810802
 20
128.3149829397308
 30
0.0
 10
388.9190179831769
 20
128.1436730873648
 30
0.0
 10
388.8309244073493
 20
127.9701367054446
 30
0.0
 10
388.7448943611694
 20
127.7943947665246
 30
0.0
 10
388.6609403960113
 20
127.6164687452702
 30
0.0
 10
388.5790746885158
 20
127.4363805986414
 30
0.0
 10
388.4993090239559
 20
127.2541527446816
 30
0.0
 10
388.4216547815663
 20
127.0698080401884
 30
0.0
 10
388.3461229218701
 20
126.8833697575376
 30
0.0
 10
388.272723976009
 20
126.6948615609248
 30
0.0
 10
388.2014680370598
 20
126.5043074822825
 30
0.0
 10
388.1323647532922
 20
126.3117318971106
 30
0.0
 10
388.0654233233068
 20
126.1171595004492
 30
0.0
 10
388.0006524929712
 20
125.920615283198
 30
0.0
 10
387.9380605540573
 20
125.7221245089691
 30
0.0
 10
387.8776553444694
 20
125.5217126916368
 30
0.0
 10
387.8194442499441
 20
125.3194055737264
 30
0.0
 10
387.7634342070943
 20
125.1152291057605
 30
0.0
 10
387.7096317076665
 20
124.9092094266614
 30
0.0
 10
387.6580428038756
 20
124.7013728452827
 30
0.0
 10
387.6086731146858
 20
124.4917458231274
 30
0.0
 10
387.5615278329028
 20
124.2803549582866
 30
0.0
 10
387.5166117329505
 20
124.0672269706174
 30
0.0
 10
387.4739291792074
 20
123.852388688162
 30
0.0
 10
387.4334841347862
 20
123.6358670347947
 30
0.0
 10
387.3952801706458
 20
123.4176890190742
 30
0.0
 10
387.3593204749338
 20
123.1978817242626
 30
0.0
 10
387.325607862464
 20
122.9764722994683
 30
0.0
 10
387.2941447842462
 20
122.7534879518596
 30
0.0
 10
387.2649333369876
 20
122.5289559398924
 30
0.0
 10
387.2379752725018
 20
122.3029035674878
 30
0.0
 10
387.2132720069625
 20
122.0753581790961
 30
0.0
 10
387.190824629952
 20
121.84634715558
 30
0.0
 10
387.1706339132604
 20
121.6158979108471
 30
0.0
 10
387.1527003193996
 20
121.3840378891681
 30
0.0
 10
387.1370240098018
 20
121.150794563109
 30
0.0
 10
387.1236048526806
 20
120.916195432017
 30
0.0
 10
387.1124424305361
 20
120.6802680209953
 30
0.0
 10
387.103536052448
 20
120.443040017605
 30
0.0
 10
387.0968847532654
 20
120.2045392615184
 30
0.0
 10
387.0924872909403
 20
119.9647936048686
 30
0.0
 10
387.0903421542393
 20
119.7238307719731
 30
0.0
 10
387.0904475762761
 20
119.4816783706705
 30
0.0
 10
387.0928015436677
 20
119.2383640362761
 30
0.0
 10
387.0974018013431
 20
118.9939154325698
 30
0.0
 10
387.1042458570044
 20
118.7483602528777
 30
0.0
 10
387.1133309852538
 20
118.501726221208
 30
0.0
 10
387.124654231402
 20
118.2540410934111
 30
0.0
 10
387.1382124149708
 20
118.0053326583394
 30
0.0
 10
387.1540021329074
 20
117.7556287389831
 30
0.0
 10
387.1720197625258
 20
117.5049571935624
 30
0.0
 10
387.1922614641916
 20
117.2533459165591
 30
0.0
 10
387.2147231837661
 20
117.0008228396723
 30
0.0
 10
387.2394006548264
 20
116.7474159326846
 30
0.0
 10
387.2662894006776
 20
116.4931532042301
 30
0.0
 10
387.2953847361713
 20
116.2380627024515
 30
0.0
 10
387.326681769347
 20
115.982172515543
 30
0.0
 10
387.3601754029106
 20
115.725510772171
 30
0.0
 10
387.3958603355637
 20
115.4681056417673
 30
0.0
 10
387.4337310631971
 20
115.2099853346946
 30
0.0
 10
387.4737818799633
 20
114.9511781022787
 30
0.0
 10
387.5160068792374
 20
114.6917122367091
 30
0.0
 10
387.56039995448
 20
114.431616070805
 30
0.0
 10
387.6069548000133
 20
114.1709179776501
 30
0.0
 10
387.6556649117189
 20
113.9096463700952
 30
0.0
 10
387.7065235876706
 20
113.6478297001308
 30
0.0
 10
387.7595239287066
 20
113.3854964581315
 30
0.0
 10
387.8146588389549
 20
113.1226751719764
 30
0.0
 10
387.8719210263159
 20
112.859394406046
 30
0.0
 10
387.9313030029111
 20
112.595682760101
 30
0.0
 10
387.9927970855063
 20
112.3315688680443
 30
0.0
 10
388.0563953959131
 20
112.0670813965729
 30
0.0
 10
388.1220898613769
 20
111.8022490437194
 30
0.0
 10
388.189872214955
 20
111.537100537291
 30
0.0
 10
388.2597339958929
 20
111.271664633207
 30
0.0
 10
388.3316665499985
 20
111.0059701137406
 30
0.0
 10
388.4056610300244
 20
110.7400457856689
 30
0.0
 10
388.4817083960573
 20
110.473920478333
 30
0.0
 10
388.559799415921
 20
110.2076230416159
 30
0.0
 10
388.6399246655951
 20
109.9411823438386
 30
0.0
 10
388.722074529652
 20
109.6746272695812
 30
0.0
 10
388.8062392017168
 20
109.4079867174298
 30
0.0
 10
388.8924086849493
 20
109.1412895976575
 30
0.0
 10
388.9805727925532
 20
108.8745648298378
 30
0.0
 10
389.0707211483136
 20
108.607841340399
 30
0.0
 10
389.1628431871633
 20
108.3411480601194
 30
0.0
 10
389.2569281557806
 20
108.0745139215694
 30
0.0
 10
389.3529651132205
 20
107.8079678565026
 30
0.0
 10
389.4509429315785
 20
107.5415387931994
 30
0.0
 10
389.5508502966902
 20
107.2752556537659
 30
0.0
 10
389.6526757088661
 20
107.0091473513928
 30
0.0
 10
389.7564074836627
 20
106.7432427875748
 30
0.0
 10
389.8620337526908
 20
106.4775708492967
 30
0.0
 10
389.9695424644621
 20
106.2121604061843
 30
0.0
 10
390.078921385272
 20
105.9470403076292
 30
0.0
 10
390.1901581001227
 20
105.6822393798834
 30
0.0
 10
390.3032400136831
 20
105.4177864231324
 30
0.0
 10
390.4181543512884
 20
105.1537102085441
 30
0.0
 10
390.5348881599776
 20
104.8900394752988
 30
0.0
 10
390.6534283095707
 20
104.6268029276035
 30
0.0
 10
390.7737614937838
 20
104.3640292316894
 30
0.0
 10
390.8958742313818
 20
104.1017470127979
 30
0.0
 10
391.0197528673717
 20
103.8399848521559
 30
0.0
 10
391.1453835742311
 20
103.5787712839424
 30
0.0
 10
391.2727523531772
 20
103.3181347922489
 30
0.0
 10
391.4018450354708
 20
103.0581038080346
 30
0.0
 10
391.5326472837592
 20
102.7987067060804
 30
0.0
 10
391.6651445934542
 20
102.5399718019399
 30
0.0
 10
391.7993222941474
 20
102.2819273488949
 30
0.0
 10
391.9351655510607
 20
102.0246015349094
 30
0.0
 10
392.0726593665315
 20
101.768022479592
 30
0.0
 10
392.211788581533
 20
101.512218231162
 30
0.0
 10
392.3525378772288
 20
101.2572167634242
 30
0.0
 10
392.4948917765595
 20
101.0030459727532
 30
0.0
 10
392.6388346458637
 20
100.7497336750882
 30
0.0
 10
392.7843506965291
 20
100.4973076029416
 30
0.0
 10
392.9314239508853
 20
100.2457954636272
 30
0.0
 10
393.0800382740478
 20
99.99522488075809
 30
0.0
 10
393.2301773795151
 20
99.74562338437794
 30
0.0
 10
393.3818248684477
 20
99.49701834781494
 30
0.0
 10
393.5349641998403
 20
99.249437039393
 30
0.0
 10
393.6895786883757
 20
99.00290662624863
 30
0.0
 10
393.8456515062821
 20
98.75745417146727
 30
0.0
 10
394.0031656852143
 20
98.51310663124436
 30
0.0
 10
394.1621041181594
 20
98.2698908520711
 30
0.0
 10
394.3224495613663
 20
98.02783356794725
 30
0.0
 10
394.4841846362974
 20
97.78696139762192
 30
0.0
 10
394.6472918316011
 20
97.54730084186279
 30
0.0
 10
394.8117535051044
 20
97.30887828075714
 30
0.0
 10
394.9775518858241
 20
97.07171997104447
 30
0.0
 10
395.1446690759946
 20
96.83585204348267
 30
0.0
 10
395.3130870531132
 20
96.60130050024843
 30
0.0
 10
395.4827876719982
 20
96.3680912123739
 30
0.0
 10
395.6537526668615
 20
96.13624991722004
 30
0.0
 10
395.8259636533907
 20
95.90580221599065
 30
0.0
 10
395.999402130843
 20
95.67677357128272
 30
0.0
 10
396.1740494841457
 20
95.44918930468157
 30
0.0
 10
396.3498869860033
 20
95.22307459439553
 30
0.0
 10
396.5268957990086
 20
94.99845447293639
 30
0.0
 10
396.705056977756
 20
94.77535382484342
 30
0.0
 10
396.884351470955
 20
94.55379738445347
 30
0.0
 10
397.0647601235417
 20
94.33380973371948
 30
0.0
 10
397.2462636787845
 20
94.11541530007581
 30
0.0
 10
397.4288427803851
 20
93.89863835435449
 30
0.0
 10
397.6124779745669
 20
93.68350300875096
 30
0.0
 10
397.7971497121534
 20
93.47003321484236
 30
0.0
 10
397.9828383506301
 20
93.25825276165807
 30
0.0
 10
398.1695241561881
 20
93.04818527380361
 30
0.0
 10
398.3571873057469
 20
92.83985420963921
 30
0.0
 10
398.5458078889513
 20
92.63328285951337
 30
0.0
 10
398.7353659101406
 20
92.42849434405272
 30
0.0
 10
398.9258412902855
 20
92.22551161250813
 30
0.0
 10
399.1172138688884
 20
92.024357441158
 30
0.0
 10
399.3094634058449
 20
91.8250544317685
 30
0.0
 10
399.5025695832597
 20
91.62762501011174
 30
0.0
 10
399.6965120072141
 20
91.4320914245418
 30
0.0
 10
399.8912702094808
 20
91.23847574462785
 30
0.0
 10
400.0868236491781
 20
91.04679985984542
 30
0.0
 10
400.2831517143636
 20
90.85708547832351
 30
0.0
 10
400.480233723557
 20
90.6693541256481
 30
0.0
 10
400.6780489271889
 20
90.48362714372122
 30
0.0
 10
400.8765765089704
 20
90.29992568967272
 30
0.0
 10
401.0757955871758
 20
90.11827073482594
 30
0.0
 10
401.2756852158336
 20
89.93868306371112
 30
0.0
 10
401.4762243858189
 20
89.76118327312925
 30
0.0
 10
401.6773920258408
 20
89.58579177125874
 30
0.0
 10
401.8791670033182
 20
89.41252877680567
 30
0.0
 10
402.0815281251359
 20
89.24141431819132
 30
0.0
 10
402.2844541382767
 20
89.07246823277372
 30
0.0
 10
402.4879237303193
 20
88.90571016609817
 30
0.0
 10
402.6919155297977
 20
88.74115957117112
 30
0.0
 10
402.8964081064115
 20
88.57883570775176
 30
0.0
 10
403.1013799710834
 20
88.41875764165371
 30
0.0
 10
403.3068095758539
 20
88.26094424404991
 30
0.0
 10
403.5126753136086
 20
88.10541419077055
 30
0.0
 10
403.7189555176278
 20
87.95218596158736
 30
0.0
 10
403.9256284609565
 20
87.80127783947047
 30
0.0
 10
404.1326723555833
 20
87.65270790980954
 30
0.0
 10
404.3400653514272
 20
87.50649405958411
 30
0.0
 10
404.5477855351226
 20
87.36265397647193
 30
0.0
 10
404.755810928602
 20
87.22120514787805
 30
0.0
 10
404.9641194874693
 20
87.08216485987106
 30
0.0
 10
405.1726890991632
 20
86.9455501960066
 30
0.0
 10
405.3814975809073
 20
86.81137803602333
 30
0.0
 10
405.5905226774481
 20
86.67966505438669
 30
0.0
 10
405.7997420585803
 20
86.55042771866421
 30
0.0
 10
406.0091333164656
 20
86.42368228770579
 30
0.0
 10
406.2186739627454
 20
86.29944480960815
 30
0.0
 10
406.4283414254575
 20
86.17773111943683
 30
0.0
 10
406.6381130457664
 20
86.05855683668011
 30
0.0
 10
406.8479660745186
 20
85.94193736240773
 30
0.0
 10
407.0578776686382
 20
85.82788787610458
 30
0.0
 10
407.2678248873818
 20
85.71642333215372
 30
0.0
 10
407.4777846124964
 20
85.60755849533047
 30
0.0
 10
407.6877334344837
 20
85.50130798685409
 30
0.0
 10
407.8976478164843
 20
85.39768618402472
 30
0.0
 10
408.107504165941
 20
85.29670717870185
 30
0.0
 10
408.3172789398014
 20
85.19838472632786
 30
0.0
 10
408.5269484724087
 20
85.1027323246541
 30
0.0
 10
408.7364889717931
 20
85.00976320674734
 30
0.0
 10
408.9458765161691
 20
84.91949033340376
 30
0.0
 10
409.1550870506852
 20
84.83192638495744
 30
0.0
 10
409.364096384493
 20
84.74708375246746
 30
0.0
 10
409.5728801882101
 20
84.66497452826955
 30
0.0
 10
409.7814139918531
 20
84.5856104958869
 30
0.0
 10
409.9896731833256
 20
84.50900311929786
 30
0.0
 10
410.1976330075453
 20
84.43516353156718
 30
0.0
 10
410.4052685663045
 20
84.36410252285393
 30
0.0
 10
410.6125548189527
 20
84.29583052781962
 30
0.0
 10
410.8194665840002
 20
84.23035761246796
 30
0.0
 10
411.0259785417366
 20
84.16769346046046
 30
0.0
 10
411.2320652379597
 20
84.10784735896038
 30
0.0
 10
411.4377010889073
 20
84.05082818407432
 30
0.0
 10
411.6428603874826
 20
83.99664438596704
 30
0.0
 10
411.8475173108535
 20
83.94530397374605
 30
0.0
 10
412.0516459295042
 20
83.89681450021757
 30
0.0
 10
412.255220217803
 20
83.8511830466367
 30
0.0
 10
412.4582140661402
 20
83.80841620758108
 30
0.0
 10
412.6606012946747
 20
83.76852007609504
 30
0.0
 10
412.8623556687122
 20
83.73150022926006
 30
0.0
 10
413.0634509157174
 20
83.69736171435842
 30
0.0
 10
413.2638607439424
 20
83.66610903580609
 30
0.0
 10
413.4635588626317
 20
83.63774614303885
 30
0.0
 10
413.6625190037365
 20
83.61227641953788
 30
0.0
 10
413.8607149450496
 20
83.58970267318443
 30
0.0
 10
414.0581205346408
 20
83.570027128133
 30
0.0
 10
414.2547097164501
 20
83.55325141838584
 30
0.0
 10
414.4504565568659
 20
83.53937658324521
 30
0.0
 10
414.6453352720912
 20
83.52840306480829
 30
0.0
 10
414.8393202560762
 20
83.5203307076525
 30
0.0
 10
415.0323861087733
 20
83.51515876084358
 30
0.0
 10
415.2245076644498
 20
83.51288588237063
 30
0.0
 10
415.4156600197797
 20
83.51351014609286
 30
0.0
 10
415.6058185614213
 20
83.51702905124728
 30
0.0
 10
415.7949589927822
 20
83.52343953454032
 30
0.0
 10
415.9830573596664
 20
83.53273798480838
 30
0.0
 10
416.1700900745062
 20
83.5449202602002
 30
0.0
 10
416.3560339388845
 20
83.55998170779603
 30
0.0
 10
416.5408661640662
 20
83.5779171855434
 30
0.0
 10
416.7245643892797
 20
83.59872108635373
 30
0.0
 10
416.9071066975079
 20
83.62238736416961
 30
0.0
 10
417.0884716285785
 20
83.64890956178223
 30
0.0
 10
417.2686381893732
 20
83.67828084014634
 30
0.0
 10
417.4475858610131
 20
83.71049400891864
 30
0.0
 10
417.6252946029127
 20
83.74554155792018
 30
0.0
 10
417.8017448536349
 20
83.78341568920743
 30
0.0
 10
417.9769175285232
 20
83.82410834942415
 30
0.0
 10
418.1507940141207
 20
83.86761126210044
 30
0.0
 10
418.3233561594445
 20
83.91391595954144
 30
0.0
 10
418.4945862641625
 20
83.96301381404577
 30
0.0
 10
418.6644670639797
 20
84.01489606782269
 30
0.0
 10
418.8329817127482
 20
84.06955386241151
 30
0.0
 10
419.0001137639226
 20
84.12697826310102
 30
0.0
 10
419.1658471425565
 20
84.18716029370952
 30
0.0
 10
419.330166141755
 20
84.25009092311984
 30
0.0
 10
419.4930553183406
 20
84.3157612208484
 30
0.0
 10
419.6544997560262
 20
84.38416187035692
 30
0.0
 10
419.8144839511772
 20
84.45528506448625
 30
0.0
 10
419.9729958300614
 20
84.52911750309954
 30
0.0
 10
420.1300116227494
 20
84.60566656304485
 30
0.0
 10
420.2855521414223
 20
84.68486271645499
 30
0.0
 10
420.4394726860698
 20
84.76692358475353
 30
0.0
 10
420.5596248288921
 20
84.83304374349305
 30
0.0
 10
420.6279321727728
 20
84.87272599505786
 30
0.0
 10
420.6459876994548
 20
84.88321511542516
 30
0.0
  0
SPLINE
  5
112
330
1F
100
AcDbEntity
  8
0
  6
Continuous
 62
     7
370
    30
100
AcDbSpline
210
0.0
220
0.0
230
1.0
 70
     8
 71
     3
 72
    17
 73
    13
 74
     0
 42
0.000000001
 43
0.00000001
 40
0.0
 40
0.0
 40
0.0
 40
0.0
 40
0.0707213785503585
 40
0.1803720965397037
 40
0.2900229576353129
 40
0.3996739168306641
 40
0.5093249291954512
 40
0.6189759496675116
 40
0.7286269333011892
 40
0.8382778351837982
 40
0.9479286086485312
 40
1.0
 40
1.0
 40
1.0
 40
1.0
 10
419.8327223941506
 20
147.999663248959
 30
0.0
 10
419.2005163959174
 20
147.6401018774953
 30
0.0
 10
417.5880998440382
 20
146.7230547308619
 30
0.0
 10
414.9971913195685
 20
145.2454720265453
 30
0.0
 10
412.0597969279611
 20
143.5672794752387
 30
0.0
 10
409.1239854050265
 20
141.8862954139544
 30
0.0
 10
406.18968198395
 20
140.202664770463
 30
0.0
 10
403.2569205423011
 20
138.5163401519349
 30
0.0
 10
400.3256718254065
 20
136.8273842012146
 30
0.0
 10
397.3960504406729
 20
135.1356118083818
 30
0.0
 10
394.9802390721769
 20
133.738214864096
 30
0.0
 10
393.5415502651328
 20
132.903744318829
 30
0.0
 10
393.0783204537479
 20
132.6350610348571
 30
0.0
  0
SPLINE
  5
113
330
1F
100
AcDbEntity
  8
0
  6
Continuous
 62
     7
370
    30
100
AcDbSpline
210
0.0
220
0.0
230
1.0
 70
     8
 71
     3
 72
    17
 73
    13
 74
     0
 42
0.000000001
 43
0.00000001
 40
0.0
 40
0.0
 40
0.0
 40
0.0
 40
0.0757101615630296
 40
0.1853611598610607
 40
0.2950120763742377
 40
0.4046628644838353
 40
0.5143134659041143
 40
0.6239638355285176
 40
0.7336139284996026
 40
0.8432636998355216
 40
0.9529131044847413
 40
1.0
 40
1.0
 40
1.0
 40
1.0
 10
420.6451639370496
 20
84.88271225504744
 30
0.0
 10
421.3202163428451
 20
85.27071812044137
 30
0.0
 10
422.9729468921132
 20
86.22067273363344
 30
0.0
 10
425.6015862477098
 20
87.73565653648012
 30
0.0
 10
428.5313200428876
 20
89.42723450145718
 30
0.0
 10
431.4594487906957
 20
91.12157964483515
 30
0.0
 10
434.3860419990887
 20
92.81855837055464
 30
0.0
 10
437.3110664013934
 20
94.51821582162135
 30
0.0
 10
440.2345536410812
 20
96.22048635823042
 30
0.0
 10
443.1563790219731
 20
97.92556895383777
 30
0.0
 10
445.5215145697444
 20
99.30803571076082
 30
0.0
 10
446.9121378811499
 20
100.1231024776173
 30
0.0
 10
447.3299104998509
 20
100.3679657521023
 30
0.0
  0
SPLINE
  5
114
330
1F
100
AcDbEntity
  8
0
  6
Continuous
 62
     7
370
    30
100
AcDbSpline
210
0.0
220
0.0
230
1.0
 70
     8
 71
     3
 72
    74
 73
    70
 74
     0
 42
0.000000001
 43
0.00000001
 40
0.0
 40
0.0
 40
0.0
 40
0.0
 40
0.0211187918593446
 40
0.0405718744320727
 40
0.0561179973738047
 40
0.0677323833489209
 40
0.0771702348184447
 40
0.0849719477524822
 40
0.091490454695504
 40
0.0987373584219443
 40
0.1070310649274932
 40
0.1163716917143023
 40
0.1264898664581315
 40
0.1430244141523488
 40
0.1602445619173923
 40
0.1759896159350506
 40
0.1895965875576339
 40
0.2016898336954239
 40
0.2156674936564149
 40
0.2310182536830901
 40
0.243790724089804
 40
0.2531533777667281
 40
0.2590134188539866
 40
0.2667063172462879
 40
0.2764827449490327
 40
0.2882673822361916
 40
0.2997583441358648
 40
0.3227160744139015
 40
0.3446881331169394
 40
0.3729566065995072
 40
0.3967533908623595
 40
0.4225887572599787
 40
0.4528342525969953
 40
0.4725782381009357
 40
0.4943523914128041
 40
0.5092433136500775
 40
0.523277307313497
 40
0.5352872892624518
 40
0.5460622156013801
 40
0.5589919284577762
 40
0.5744626647073603
 40
0.5924526100253659
 40
0.6063586051998796
 40
0.6181996253256804
 40
0.6333841199491337
 40
0.6526241299694873
 40
0.6728617064506602
 40
0.6912089690511841
 40
0.7076708877725887
 40
0.7233040694590439
 40
0.7400433367596329
 40
0.7578514697554809
 40
0.772236550393697
 40
0.7844592316933447
 40
0.795784101393073
 40
0.8094405181895968
 40
0.8254556573132815
 40
0.8410996896296848
 40
0.85528319132369
 40
0.8682088748480273
 40
0.8771888795072527
 40
0.8861651882160428
 40
0.8951378459810118
 40
0.9052924463645938
 40
0.9184975202833938
 40
0.9344528740784717
 40
0.953360545155972
 40
0.9752125763079574
 40
0.9999999999999999
 40
0.9999999999999999
 40
0.9999999999999999
 40
0.9999999999999999
 10
404.4546698462995
 20
136.1378155379111
 30
0.0
 10
404.4397775401823
 20
136.129166153876
 30
0.0
 10
404.4111675336151
 20
136.1125495914644
 30
0.0
 10
404.3724041793225
 20
136.0885592473906
 30
0.0
 10
404.3406515326585
 20
136.0682173992477
 30
0.0
 10
404.3163426984469
 20
136.0521661973183
 30
0.0
 10
404.2973066120533
 20
136.0393178711679
 30
0.0
 10
404.2816283853623
 20
136.0285418819699
 30
0.0
 10
404.2673387871898
 20
136.0185712599264
 30
0.0
 10
404.2528184670257
 20
136.0082921636668
 30
0.0
 10
404.2365352428343
 20
135.9965775441788
 30
0.0
 10
404.2184890935288
 20
135.9833562566633
 30
0.0
 10
404.1952439873968
 20
135.965983495522
 30
0.0
 10
404.1671793105332
 20
135.9444338896706
 30
0.0
 10
404.13590585578
 20
135.9195937449284
 30
0.0
 10
404.1068037959136
 20
135.8957111451319
 30
0.0
 10
404.0811006574961
 20
135.8739981267971
 30
0.0
 10
404.0568933485203
 20
135.8530289932905
 30
0.0
 10
404.0319667704176
 20
135.8308878178822
 30
0.0
 10
404.0069926135191
 20
135.8080749172037
 30
0.0
 10
403.9849830275946
 20
135.7874273919974
 30
0.0
 10
403.96867489328
 20
135.7718052152793
 30
0.0
 10
403.9554276704405
 20
135.7589317195207
 30
0.0
 10
403.942165333377
 20
135.745879215421
 30
0.0
 10
403.9257054543141
 20
135.7294160698187
 30
0.0
 10
403.9073497089492
 20
135.7106886008073
 30
0.0
 10
403.8818262429248
 20
135.684089439365
 30
0.0
 10
403.8504558215416
 20
135.6503518377021
 30
0.0
 10
403.8103395820743
 20
135.6053271085621
 30
0.0
 10
403.7717707430523
 20
135.5599783835568
 30
0.0
 10
403.7318541552528
 20
135.510768445453
 30
0.0
 10
403.6921637383392
 20
135.4595420882564
 30
0.0
 10
403.6556594997032
 20
135.4099444243328
 30
0.0
 10
403.6220369479567
 20
135.3621049295964
 30
0.0
 10
403.596334922927
 20
135.324101017299
 30
0.0
 10
403.5737238998338
 20
135.2895100490993
 30
0.0
 10
403.5557732926142
 20
135.2612950516374
 30
0.0
 10
403.5398756353745
 20
135.2356867500944
 30
0.0
 10
403.5246838663438
 20
135.2106809690824
 30
0.0
 10
403.5083980139209
 20
135.1832641884451
 30
0.0
 10
403.4895350906596
 20
135.1506422655752
 30
0.0
 10
403.4706739802368
 20
135.1169658423058
 30
0.0
 10
403.4534440346721
 20
135.0852382806335
 30
0.0
 10
403.4374309384355
 20
135.05498512452
 30
0.0
 10
403.4199151575531
 20
135.0209817759853
 30
0.0
 10
403.3997875007433
 20
134.9805397047214
 30
0.0
 10
403.3791396997161
 20
134.9373542436943
 30
0.0
 10
403.3600490659375
 20
134.8958022149137
 30
0.0
 10
403.3430421033008
 20
134.8574047846898
 30
0.0
 10
403.3270242673181
 20
134.819978810858
 30
0.0
 10
403.3110246619326
 20
134.7812578390566
 30
0.0
 10
403.2958939925799
 20
134.7432139628781
 30
0.0
 10
403.2825477135427
 20
134.708415783226
 30
0.0
 10
403.2714267711779
 20
134.6785188651444
 30
0.0
 10
403.2607732840852
 20
134.6490796571636
 30
0.0
 10
403.2493264197735
 20
134.616496451453
 30
0.0
 10
403.2370404406708
 20
134.5802466187825
 30
0.0
 10
403.225007942094
 20
134.5433245300172
 30
0.0
 10
403.2141396968735
 20
134.5086874719186
 30
0.0
 10
403.2052421553234
 20
134.4793140260927
 30
0.0
 10
403.1978163858481
 20
134.4540761481968
 30
0.0
 10
403.1914760616651
 20
134.4319980240307
 30
0.0
 10
403.1849982263677
 20
134.4088774701962
 30
0.0
 10
403.1777239044887
 20
134.3822101860169
 30
0.0
 10
403.1691418393033
 20
134.3496797613866
 30
0.0
 10
403.1590293461778
 20
134.3096858548262
 30
0.0
 10
403.1476480600332
 20
134.2621631241091
 30
0.0
 10
403.1351590519471
 20
134.2068228624693
 30
0.0
 10
403.127034233473
 20
134.1669733968299
 30
0.0
 10
403.1227161444512
 20
134.1457946418036
 30
0.0
  0
LINE
  5
115
330
1F
100
AcDbEntity
  8
0
  6
Continuous
 62
     7
370
    30
100
AcDbLine
 10
419.8946326097
 20
144.9632294581
 30
0.0
 11
404.453745455
 21
136.1371930648
 31
0.0
  0
SPLINE
  5
116
330
1F
100
AcDbEntity
  8
0
  6
Continuous
 62
     7
370
    30
100
AcDbSpline
210
0.0
220
0.0
230
1.0
 70
     8
 71
     3
 72
    66
 73
    62
 74
     0
 42
0.000000001
 43
0.00000001
 40
0.0
 40
0.0
 40
0.0
 40
0.0
 40
0.0320980510579364
 40
0.0576488474955867
 40
0.0767260922748262
 40
0.089533203393386
 40
0.1006084358566987
 40
0.1120659182399511
 40
0.1310926290542981
 40
0.153146333726655
 40
0.1785672578555093
 40
0.1988594708826073
 40
0.2162166831816775
 40
0.2302605038019526
 40
0.2414187067602913
 40
0.2566607934765627
 40
0.2777182034100883
 40
0.3007318229231405
 40
0.3232300493579798
 40
0.3418492319143914
 40
0.3578397589572888
 40
0.3729366317485299
 40
0.3871578204817119
 40
0.4034559568242583
 40
0.4196757640612832
 40
0.438142006968023
 40
0.454282476572601
 40
0.4673300043174076
 40
0.4803010704960527
 40
0.497497228785197
 40
0.5235997332164036
 40
0.5474606448933153
 40
0.5676314242166756
 40
0.5844406034960508
 40
0.5993691687142256
 40
0.612619747580545
 40
0.6271805701363199
 40
0.643608546656025
 40
0.6637011733947007
 40
0.6812724893265119
 40
0.695049375118443
 40
0.7059527836532877
 40
0.7170278594920315
 40
0.7285197558199666
 40
0.7434682720027866
 40
0.7623760496502643
 40
0.7843437236554832
 40
0.8030100669663823
 40
0.8172778826879162
 40
0.8307394874989645
 40
0.8450564449433313
 40
0.8591363296673047
 40
0.8756748932010203
 40
0.8945356449127111
 40
0.9118287098085104
 40
0.9214782222702689
 40
0.9296286082674957
 40
0.9396214639519311
 40
0.9546915880722204
 40
0.9748238363433526
 40
1.0
 40
1.0
 40
1.0
 40
1.0
 10
403.1229280679253
 20
134.146853602286
 30
0.0
 10
403.1203504564971
 20
134.1344329255853
 30
0.0
 10
403.115721006321
 20
134.1121251008636
 30
0.0
 10
403.109012305937
 20
134.0833656733318
 30
0.0
 10
403.1037845192358
 20
134.0622538001994
 30
0.0
 10
403.0998229971894
 20
134.0469812508206
 30
0.0
 10
403.0965223218896
 20
134.0346574383095
 30
0.0
 10
403.0925444726995
 20
134.0202456364628
 30
0.0
 10
403.087366617613
 20
134.0022266238001
 30
0.0
 10
403.0806431202732
 20
133.9800312767251
 30
0.0
 10
403.0735662656192
 20
133.9580035292422
 30
0.0
 10
403.0667725286648
 20
133.9379890887922
 30
0.0
 10
403.0610643836541
 20
133.9219026978135
 30
0.0
 10
403.0562818640219
 20
133.9089064078434
 30
0.0
 10
403.05170060349
 20
133.896809893532
 30
0.0
 10
403.0463324709877
 20
133.8830470384268
 30
0.0
 10
403.0395088606506
 20
133.866230116053
 30
0.0
 10
403.0316803916265
 20
133.8478297407228
 30
0.0
 10
403.0239854905799
 20
133.8305953177974
 30
0.0
 10
403.0170497573903
 20
133.81571408569
 30
0.0
 10
403.0109837469217
 20
133.8031525985
 30
0.0
 10
403.0054070546304
 20
133.7919622808349
 30
0.0
 10
402.9997617927382
 20
133.7809639053784
 30
0.0
 10
402.993984808356
 20
133.7700451089202
 30
0.0
 10
402.987650900257
 20
133.7584483123463
 30
0.0
 10
402.9812716922949
 20
133.7471572994658
 30
0.0
 10
402.9752452271948
 20
133.7368435284602
 30
0.0
 10
402.9699011627113
 20
133.7279528168823
 30
0.0
 10
402.9644890331747
 20
133.7191702337103
 30
0.0
 10
402.9574596496946
 20
133.708082490889
 30
0.0
 10
402.9490054243614
 20
133.6952792918956
 30
0.0
 10
402.9400944065041
 20
133.6824045041839
 30
0.0
 10
402.932340294994
 20
133.6716580443603
 30
0.0
 10
402.9257751627701
 20
133.6628700437651
 30
0.0
 10
402.9201220843901
 20
133.6555239048768
 30
0.0
 10
402.9148411771065
 20
133.6488381536258
 30
0.0
 10
402.9094480092435
 20
133.6421797982516
 30
0.0
 10
402.903089612073
 20
133.6345493824002
 30
0.0
 10
402.8962707369493
 20
133.6266440287613
 30
0.0
 10
402.8897658692594
 20
133.6193685881493
 30
0.0
 10
402.8844399438912
 20
133.6135885616155
 30
0.0
 10
402.8800258765423
 20
133.6089092347804
 30
0.0
 10
402.8759176052129
 20
133.6046433266572
 30
0.0
 10
402.8713354543954
 20
133.5999861131453
 30
0.0
 10
402.8658453638749
 20
133.5945443153475
 30
0.0
 10
402.8591202077313
 20
133.5880886752075
 30
0.0
 10
402.8519106861115
 20
133.5814338713258
 30
0.0
 10
402.845224851662
 20
133.5755034650992
 30
0.0
 10
402.8396103619089
 20
133.5706835527997
 30
0.0
 10
402.8345867554369
 20
133.5664877992105
 30
0.0
 10
402.8296075108644
 20
133.5624423168181
 30
0.0
 10
402.8242930087387
 20
133.5582454508608
 30
0.0
 10
402.8184511264562
 20
133.5537721010569
 30
0.0
 10
402.812186373695
 20
133.5491459036003
 30
0.0
 10
402.8067330053121
 20
133.5452685502385
 30
0.0
 10
402.8025834208988
 20
133.5424009081401
 30
0.0
 10
402.7993676785313
 20
133.540219725108
 30
0.0
 10
402.795519126148
 20
133.5376574619532
 30
0.0
 10
402.7901501645279
 20
133.5341806319814
 30
0.0
 10
402.7828586917652
 20
133.5296222667263
 30
0.0
 10
402.7772022934132
 20
133.5263201699665
 30
0.0
 10
402.7740592476839
 20
133.5244853202136
 30
0.0
  0
SPLINE
  5
117
330
1F
100
AcDbEntity
  8
0
  6
Continuous
 62
     7
370
    30
100
AcDbSpline
210
0.0
220
0.0
230
1.0
 70
     8
 71
     3
 72
    77
 73
    73
 74
     0
 42
0.000000001
 43
0.00000001
 40
0.0
 40
0.0
 40
0.0
 40
0.0
 40
0.0088463136891028
 40
0.0229100135666878
 40
0.0370037049579465
 40
0.0511285510173694
 40
0.0652855216137834
 40
0.0794753681309918
 40
0.093698599799237
 40
0.1079554623595595
 40
0.1222459200569853
 40
0.1365695338704853
 40
0.1509255604631122
 40
0.1653130615454062
 40
0.1797308048675482
 40
0.1941772803541731
 40
0.208650724752441
 40
0.2231491539390491
 40
0.2376704014469534
 40
0.2522121612862045
 40
0.2667720328590665
 40
0.2813475657384986
 40
0.2959363022726806
 40
0.3105358163444406
 40
0.3251437470833292
 40
0.3397578268237533
 40
0.3543759030655401
 40
0.3689959545793203
 40
0.3836161020882444
 40
0.398234614145921
 40
0.4128499089295493
 40
0.4274605526925613
 40
0.4420652555946998
 40
0.4566628655649578
 40
0.4712523607724884
 40
0.4858328411922531
 40
0.5004035196647366
 40
0.5149637127685364
 40
0.5295128317517528
 40
0.5440503737063028
 40
0.5585759131171655
 40
0.5730890938762043
 40
0.5875896218161738
 40
0.6020772577936694
 40
0.6165518113298285
 40
0.6310131348025528
 40
0.6454611181723492
 40
0.6598956842177235
 40
0.6743167842496015
 40
0.6887243942729072
 40
0.7031185115613955
 40
0.7174991516120558
 40
0.7318663454457737
 40
0.746220137223251
 40
0.7605605821460981
 40
0.7748877446149806
 40
0.7892016966196728
 40
0.803502516336887
 40
0.8177902869152042
 40
0.8320650954267732
 40
0.8463270319693711
 40
0.8605761889027215
 40
0.874812660205201
 40
0.8890365409392169
 40
0.9032479268141029
 40
0.9174469138372721
 40
0.9316335980458226
 40
0.9458080753111583
 40
0.9599704412110805
 40
0.9741207909644818
 40
0.988259219424144
 40
1.0
 40
1.0
 40
1.0
 40
1.0
 10
427.054497406244
 20
142.2497370346707
 30
0.0
 10
427.0460016313586
 20
142.2740542555532
 30
0.0
 10
427.0239994364644
 20
142.3370305279192
 30
0.0
 10
426.9852863458451
 20
142.4376001340665
 30
0.0
 10
426.9387023194983
 20
142.5515683780697
 30
0.0
 10
426.8891259386661
 20
142.6645721278305
 30
0.0
 10
426.8367159564177
 20
142.7765967516151
 30
0.0
 10
426.7814429252909
 20
142.8875585262885
 30
0.0
 10
426.7233306889821
 20
142.9973893269315
 30
0.0
 10
426.6623918874703
 20
143.1060137829331
 30
0.0
 10
426.5986459015792
 20
143.2133551479345
 30
0.0
 10
426.5321145502505
 20
143.3193337501148
 30
0.0
 10
426.4628235398004
 20
143.4238678803639
 30
0.0
 10
426.390802223988
 20
143.5268741707568
 30
0.0
 10
426.316083897352
 20
143.6282679309582
 30
0.0
 10
426.2387061156113
 20
143.7279632720947
 30
0.0
 10
426.1587108079724
 20
143.8258735712593
 30
0.0
 10
426.0761443002424
 20
143.9219119843205
 30
0.0
 10
425.991057258133
 20
144.0159919907822
 30
0.0
 10
425.9035045520282
 20
144.1080279475324
 30
0.0
 10
425.813545052952
 20
144.1979356294572
 30
0.0
 10
425.7212413721884
 20
144.2856327365235
 30
0.0
 10
425.6266595594432
 20
144.3710393506942
 30
0.0
 10
425.5298687749734
 20
144.4540783307528
 30
0.0
 10
425.4309409503392
 20
144.5346756382228
 30
0.0
 10
425.3299504505962
 20
144.6127605924151
 30
0.0
 10
425.226973748272
 20
144.6882660567562
 30
0.0
 10
425.1220891167754
 20
144.7611285616864
 30
0.0
 10
425.0153763482713
 20
144.8312883714963
 30
0.0
 10
424.9069164987451
 20
144.8986895035692
 30
0.0
 10
424.7967916611026
 20
144.96327970878
 30
0.0
 10
424.6850847657193
 20
145.0250104214772
 30
0.0
 10
424.5718794068575
 20
145.083836686747
 30
0.0
 10
424.457259692738
 20
145.1397170716953
 30
0.0
 10
424.3413101167195
 20
145.1926135664369
 30
0.0
 10
424.2241154469268
 20
145.2424914794331
 30
0.0
 10
424.1057606317125
 20
145.2893193308484
 30
0.0
 10
423.9863307184819
 20
145.3330687467296
 30
0.0
 10
423.8659107836228
 20
145.3737143560643
 30
0.0
 10
423.7445858715221
 20
145.4112336921545
 30
0.0
 10
423.6224409408961
 20
145.4456070992362
 30
0.0
 10
423.4995608169103
 20
145.4768176448712
 30
0.0
 10
423.3760301477922
 20
145.5048510383315
 30
0.0
 10
423.2519333648541
 20
145.5296955549575
 30
0.0
 10
423.1273546450273
 20
145.5513419663045
 30
0.0
 10
423.002377875181
 20
145.5697834757711
 30
0.0
 10
422.8770866176382
 20
145.5850156593239
 30
0.0
 10
422.7515640764295
 20
145.5970364108873
 30
0.0
 10
422.625893063925
 20
145.6058458919449
 30
0.0
 10
422.5001559675765
 20
145.6114464848922
 30
0.0
 10
422.3744347165718
 20
145.6138427496917
 30
0.0
 10
422.2488107482641
 20
145.6130413833982
 30
0.0
 10
422.123364974287
 20
145.6090511821455
 30
0.0
 10
421.9981777463037
 20
145.6018830052141
 30
0.0
 10
421.8733288213714
 20
145.591549740828
 30
0.0
 10
421.7488973269255
 20
145.5780662733584
 30
0.0
 10
421.6249617254025
 20
145.5614494516513
 30
0.0
 10
421.5015997785569
 20
145.5417180581796
 30
0.0
 10
421.3788885114473
 20
145.5188927789153
 30
0.0
 10
421.2569041764216
 20
145.4929961732259
 30
0.0
 10
421.1357222161353
 20
145.464052645408
 30
0.0
 10
421.0154172294885
 20
145.4320884109819
 30
0.0
 10
420.8960629263154
 20
145.3971314826106
 30
0.0
 10
420.7777321239252
 20
145.359211582289
 30
0.0
 10
420.6604965879136
 20
145.3183603271537
 30
0.0
 10
420.5444274539722
 20
145.2746103937629
 30
0.0
 10
420.4295934850994
 20
145.2279984876212
 30
0.0
 10
420.3160673979126
 20
145.1785541272087
 30
0.0
 10
420.2039021150108
 20
145.1263412977778
 30
0.0
 10
420.0932191128779
 20
145.0713030419989
 30
0.0
 10
419.9900292280718
 20
145.0170727662421
 30
0.0
 10
419.9244790354995
 20
144.9799040397015
 30
0.0
 10
419.894740474841
 20
144.9630414740025
 30
0.0
  0
SPLINE
  5
118
330
1F
100
AcDbEntity
  8
0
  6
Continuous
 62
     7
370
    30
100
AcDbSpline
210
0.0
220
0.0
230
1.0
 70
     8
 71
     3
 72
   249
 73
   245
 74
     0
 42
0.000000001
 43
0.00000001
 40
0.0
 40
0.0
 40
0.0
 40
0.0
 40
0.001641100199533
 40
0.005707929815065
 40
0.009774972433318
 40
0.0138422890268225
 40
0.0179099400896191
 40
0.0219779855351248
 40
0.0260464845958344
 40
0.0301154957246279
 40
0.0341850764986889
 40
0.0382552835254361
 40
0.0423261723515977
 40
0.0463977973749712
 40
0.0504702117592759
 40
0.0545434673528602
 40
0.0586176146104658
 40
0.0626927025192516
 40
0.0667687785285449
 40
0.0708458884838497
 40
0.0749240765651802
 40
0.0790033852298319
 40
0.0830838551595637
 40
0.087165525212766
 40
0.0912484323811216
 40
0.0953326117511599
 40
0.0994180964706189
 40
0.1035049177198912
 40
0.1075931046883169
 40
0.1116826845551417
 40
0.1157736824758416
 40
0.1198661215728462
 40
0.1239600229314919
 40
0.1280554056001894
 40
0.1321522865958773
 40
0.1362506809134509
 40
0.1403506015399001
 40
0.1444520594727973
 40
0.1485550637426879
 40
0.1526596214397278
 40
0.1567657377439707
 40
0.1608734159593586
 40
0.1649826575513243
 40
0.1690934621871852
 40
0.173205827780229
 40
0.1773197505360739
 40
0.1814352250020717
 40
0.1855522441187299
 40
0.1896707992736541
 40
0.1937908803572101
 40
0.1979124758200667
 40
0.2020355727321016
 40
0.2061601568427477
 40
0.21028621264213
 40
0.2144137234234052
 40
0.2185426713453352
 40
0.2226730374955789
 40
0.2268048019541834
 40
0.2309379438566189
 40
0.2350724414575441
 40
0.2392082721932385
 40
0.2433454127442341
 40
0.2474838390969887
 40
0.2516235266045791
 40
0.2557644500468005
 40
0.2599065836888121
 40
0.2640499013386784
 40
0.2681943764037291
 40
0.2723399819451411
 40
0.2764866907312212
 40
0.2806344752891024
 40
0.2847833079546477
 40
0.2889331609205644
 40
0.2930840062828922
 40
0.2972358160855154
 40
0.30138856236282
 40
0.3055422171804605
 40
0.3096967526743786
 40
0.3138521410875286
 40
0.3180083548050529
 40
0.3221653663873209
 40
0.3263231486011732
 40
0.3304816744491353
 40
0.3346409171969977
 40
0.3388008503992571
 40
0.3429614479231517
 40
0.347122683970467
 40
0.351284533097942
 40
0.3554469702360372
 40
0.3596099707057136
 40
0.3637735102340031
 40
0.3679375649678909
 40
0.3721021114867152
 40
0.3762671268132314
 40
0.3804325884230469
 40
0.3845984742532396
 40
0.388764762709185
 40
0.3929314326706287
 40
0.3970984634962615
 40
0.4012658350275901
 40
0.4054335275913695
 40
0.4096015220015175
 40
0.4137697995596769
 40
0.4179383420553305
 40
0.4221071317647343
 40
0.426276151449438
 40
0.4304453843538796
 40
0.4346148142023655
 40
0.4387844251956157
 40
0.4429542020064884
 40
0.447124129775322
 40
0.4512941941048552
 40
0.4554643810546505
 40
0.4596346771351876
 40
0.4638050693014
 40
0.4679755449462325
 40
0.472146091893646
 40
0.4763166983913728
 40
0.4804873531036989
 40
0.4846580451037729
 40
0.4888287638659058
 40
0.4929994992576688
 40
0.4971702410375877
 40
0.501340977287722
 40
0.5055116991286651
 40
0.5096823980390532
 40
0.5138530658473386
 40
0.5180236947236719
 40
0.5221942771715067
 40
0.5263648060195435
 40
0.5305352744133228
 40
0.5347056758073202
 40
0.5388760039567257
 40
0.5430462529095414
 40
0.5472164169986073
 40
0.5513864908337058
 40
0.5555564692939962
 40
0.559726347520252
 40
0.5638961209072869
 40
0.5680657850967933
 40
0.5722353359698344
 40
0.5764047696396872
 40
0.5805740824449146
 40
0.5847432709424415
 40
0.5889123319008197
 40
0.5930812622934916
 40
0.597250059292368
 40
0.6014187202614969
 40
0.6055872427509099
 40
0.6097556244903103
 40
0.6139238633835008
 40
0.6180919575022552
 40
0.6222599050809989
 40
0.6264277045109847
 40
0.630595354335206
 40
0.634762853243001
 40
0.6389302000650696
 40
0.6430973937683719
 40
0.6472644334515024
 40
0.6514313183399663
 40
0.6555980477814842
 40
0.6597646212417101
 40
0.6639310382999118
 40
0.6680972986447894
 40
0.6722634020703875
 40
0.6764293484723058
 40
0.6805951378437297
 40
0.6847607702718006
 40
0.6889262459341114
 40
0.6930915650951497
 40
0.6972567281029973
 40
0.7014217353859774
 40
0.7055865874497549
 40
0.7097512848740005
 40
0.7139158283096566
 40
0.7180802184760194
 40
0.7222444561579279
 40
0.7264085422032122
 40
0.7305724775201639
 40
0.734736263074799
 40
0.7388998998887863
 40
0.7430633890369396
 40
0.7472267316450588
 40
0.7513899288876531
 40
0.7555529819861719
 40
0.7597158922065629
 40
0.7638786608577346
 40
0.7680412892894958
 40
0.772203778890811
 40
0.7763661310880421
 40
0.7805283473433844
 40
0.7846904291530881
 40
0.7888523780461607
 40
0.7930141955826396
 40
0.7971758833523591
 40
0.8013374429735309
 40
0.8054988760912438
 40
0.8096601843764973
 40
0.813821369524785
 40
0.8179824332550092
 40
0.8221433773083537
 40
0.8263042034471019
 40
0.8304649134538277
 40
0.8346255091301251
 40
0.838785992295856
 40
0.8429463647882511
 40
0.8471066284609284
 40
0.8512667851830337
 40
0.8554268368386411
 40
0.8595867853257284
 40
0.8637466325556916
 40
0.8679063804524353
 40
0.8720660309518498
 40
0.8762255860010808
 40
0.8803850475580005
 40
0.8845444175904479
 40
0.8887036980760228
 40
0.8928628910011194
 40
0.8970219983607925
 40
0.9011810221579776
 40
0.9053399644032686
 40
0.9094988271143498
 40
0.9136576123156189
 40
0.9178163220377433
 40
0.9219749583173601
 40
0.9261335231966625
 40
0.9302920187231456
 40
0.934450446949103
 40
0.9386088099315089
 40
0.9427671097316713
 40
0.9469253484148737
 40
0.9510835280502402
 40
0.9552416507103897
 40
0.95939971847132
 40
0.963557733412028
 40
0.9677156976144426
 40
0.9718736131631805
 40
0.9760314821452557
 40
0.9801893066501722
 40
0.9843470887694327
 40
0.9885048305966867
 40
0.9926625342272993
 40
0.9968202017584438
 40
1.0
 40
1.0
 40
1.0
 40
1.0
 10
410.6686520121496
 20
231.6530271342186
 30
0.0
 10
410.6341225532016
 20
231.6316005206964
 30
0.0
 10
410.5140252378259
 20
231.5570763653804
 30
0.0
 10
410.3100156051188
 20
231.4266813460103
 30
0.0
 10
410.056602117269
 20
231.2618988633448
 30
0.0
 10
409.8048802193076
 20
231.0943140606277
 30
0.0
 10
409.5547337337071
 20
230.9241401078309
 30
0.0
 10
409.3062041417007
 20
230.7513264104826
 30
0.0
 10
409.0592906791214
 20
230.5758931071383
 30
0.0
 10
408.8140039102313
 20
230.3978414351637
 30
0.0
 10
408.5703513737262
 20
230.2171777563911
 30
0.0
 10
408.3283414322582
 20
230.0339071235056
 30
0.0
 10
408.0879822432148
 20
229.8480350095067
 30
0.0
 10
407.8492820366685
 20
229.6595668496297
 30
0.0
 10
407.6122490426626
 20
229.4685081696746
 30
0.0
 10
407.3768915121396
 20
229.2748645572863
 30
0.0
 10
407.1432177124208
 20
229.0786416754135
 30
0.0
 10
406.9112359291643
 20
228.8798452645311
 30
0.0
 10
406.680954466232
 20
228.6784811479146
 30
0.0
 10
406.4523816457695
 20
228.4745552361143
 30
0.0
 10
406.2255258078785
 20
228.2680735316368
 30
0.0
 10
406.0003953100553
 20
228.0590421335412
 30
0.0
 10
405.7769985263488
 20
227.8474672420025
 30
0.0
 10
405.5553438462597
 20
227.6333551628065
 30
0.0
 10
405.3354396733777
 20
227.41671231176
 30
0.0
 10
405.1172944237745
 20
227.1975452190045
 30
0.0
 10
404.90091652415
 20
226.975860533209
 30
0.0
 10
404.6863144097433
 20
226.7516650256277
 30
0.0
 10
404.4734965220232
 20
226.5249655940116
 30
0.0
 10
404.2624713061622
 20
226.2957692663521
 30
0.0
 10
404.0532472083127
 20
226.0640832044522
 30
0.0
 10
403.8458326726859
 20
225.8299147072987
 30
0.0
 10
403.6402361384637
 20
225.5932712142419
 30
0.0
 10
403.4364660365367
 20
225.3541603079523
 30
0.0
 10
403.2345307861001
 20
225.1125897171624
 30
0.0
 10
403.0344387911096
 20
224.868567319171
 30
0.0
 10
402.8361984366181
 20
224.6221011421126
 30
0.0
 10
402.6398180850072
 20
224.3731993669808
 30
0.0
 10
402.4453060721253
 20
224.1218703294002
 30
0.0
 10
402.2526707033537
 20
223.8681225211489
 30
0.0
 10
402.0619202496103
 20
223.6119645914214
 30
0.0
 10
401.8730629433071
 20
223.3534053478344
 30
0.0
 10
401.6861069742824
 20
223.09245375718
 30
0.0
 10
401.5010604857122
 20
222.8291189459158
 30
0.0
 10
401.3179315700272
 20
222.5634102004095
 30
0.0
 10
401.1367282648371
 20
222.2953369669225
 30
0.0
 10
400.9574585488895
 20
222.024908851359
 30
0.0
 10
400.7801303380647
 20
221.7521356187653
 30
0.0
 10
400.6047514814292
 20
221.4770271926018
 30
0.0
 10
400.4313297573501
 20
221.1995936537814
 30
0.0
 10
400.2598728696921
 20
220.9198452394945
 30
0.0
 10
400.0903884441001
 20
220.6377923418184
 30
0.0
 10
399.9228840243844
 20
220.3534455061328
 30
0.0
 10
399.7573670690104
 20
220.0668154293383
 30
0.0
 10
399.5938449477098
 20
219.7779129579009
 30
0.0
 10
399.4323249382136
 20
219.4867490857225
 30
0.0
 10
399.272814223118
 20
219.1933349518553
 30
0.0
 10
399.1153198868917
 20
218.8976818380757
 30
0.0
 10
398.9598489130221
 20
218.5998011663144
 30
0.0
 10
398.806408181317
 20
218.2997044959786
 30
0.0
 10
398.6550044653504
 20
217.9974035211499
 30
0.0
 10
398.505644430072
 20
217.6929100676983
 30
0.0
 10
398.3583346295692
 20
217.3862360903038
 30
0.0
 10
398.2130815049902
 20
217.0773936694063
 30
0.0
 10
398.0698913826277
 20
216.7663950080984
 30
0.0
 10
397.9287704721614
 20
216.4532524289629
 30
0.0
 10
397.78972486506
 20
216.1379783708757
 30
0.0
 10
397.6527605331434
 20
215.8205853857815
 30
0.0
 10
397.5178833272992
 20
215.5010861354525
 30
0.0
 10
397.3850989763545
 20
215.1794933882416
 30
0.0
 10
397.2544130860977
 20
214.8558200158366
 30
0.0
 10
397.1258311384489
 20
214.5300789900281
 30
0.0
 10
396.9993584907734
 20
214.2022833795004
 30
0.0
 10
396.8750003753361
 20
213.8724463466501
 30
0.0
 10
396.7527618988889
 20
213.5405811444422
 30
0.0
 10
396.6326480423911
 20
213.2067011133124
 30
0.0
 10
396.5146636608513
 20
212.8708196781163
 30
0.0
 10
396.3988134832919
 20
212.5329503451388
 30
0.0
 10
396.2851021128255
 20
212.1931066991641
 30
0.0
 10
396.1735340268421
 20
211.8513024006165
 30
0.0
 10
396.0641135772963
 20
211.5075511827667
 30
0.0
 10
395.9568449910924
 20
211.1618668490201
 30
0.0
 10
395.8517323705605
 20
210.8142632702789
 30
0.0
 10
395.7487796940171
 20
210.4647543823911
 30
0.0
 10
395.6479908164029
 20
210.113354183675
 30
0.0
 10
395.5493694699969
 20
209.7600767325396
 30
0.0
 10
395.4529192651947
 20
209.4049361451858
 30
0.0
 10
395.3586436913494
 20
209.0479465933978
 30
0.0
 10
395.2665461176691
 20
208.689122302424
 30
0.0
 10
395.1766297941624
 20
208.3284775489451
 30
0.0
 10
395.0888978526322
 20
207.9660266591353
 30
0.0
 10
395.0033533077067
 20
207.6017840068064
 30
0.0
 10
394.9199990579057
 20
207.2357640116417
 30
0.0
 10
394.8388378867392
 20
206.8679811375228
 30
0.0
 10
394.7598724638287
 20
206.4984498909317
 30
0.0
 10
394.6831053460524
 20
206.1271848194472
 30
0.0
 10
394.6085389787033
 20
205.7542005103122
 30
0.0
 10
394.536175696666
 20
205.3795115890942
 30
0.0
 10
394.4660177255964
 20
205.0031327184115
 30
0.0
 10
394.3980671831132
 20
204.6250785967477
 30
0.0
 10
394.3323260799862
 20
204.2453639573273
 30
0.0
 10
394.2687963213277
 20
203.8640035670756
 30
0.0
 10
394.2074797077785
 20
203.4810122256342
 30
0.0
 10
394.1483779366881
 20
203.0964047644559
 30
0.0
 10
394.0914926032846
 20
202.7101960459517
 30
0.0
 10
394.0368252018363
 20
202.3224009627058
 30
0.0
 10
393.9843771267965
 20
201.9330344367459
 30
0.0
 10
393.9341496739352
 20
201.5421114188675
 30
0.0
 10
393.8861440414535
 20
201.1496468880141
 30
0.0
 10
393.8403613310791
 20
200.7556558507045
 30
0.0
 10
393.7968025491423
 20
200.3601533405119
 30
0.0
 10
393.7554686076305
 20
199.9631544175814
 30
0.0
 10
393.7163603252192
 20
199.5646741681901
 30
0.0
 10
393.6794784282831
 20
199.1647277043517
 30
0.0
 10
393.644823551879
 20
198.7633301634523
 30
0.0
 10
393.6123962407075
 20
198.3604967079239
 30
0.0
 10
393.5821969500476
 20
197.9562425249483
 30
0.0
 10
393.5542260466659
 20
197.5505828261902
 30
0.0
 10
393.5284838097002
 20
197.1435328475592
 30
0.0
 10
393.5049704315164
 20
196.7351078489924
 30
0.0
 10
393.4836860185397
 20
196.3253231142663
 30
0.0
 10
393.4646305928114
 20
195.9141939670675
 30
0.0
 10
393.4478040950448
 20
195.5017358388278
 30
0.0
 10
393.4332063797661
 20
195.0879641817758
 30
0.0
 10
393.4208372158064
 20
194.6728944523156
 30
0.0
 10
393.4106962864892
 20
194.2565420419826
 30
0.0
 10
393.4027831938918
 20
193.8389223654417
 30
0.0
 10
393.3970974594872
 20
193.4200508604114
 30
0.0
 10
393.393638524762
 20
192.9999429875906
 30
0.0
 10
393.3924057518092
 20
192.5786142306033
 30
0.0
 10
393.3933984238977
 20
192.1560800959369
 30
0.0
 10
393.3966157460188
 20
191.7323561128939
 30
0.0
 10
393.4020568454083
 20
191.307457833536
 30
0.0
 10
393.4097207720491
 20
190.8814008326389
 30
0.0
 10
393.4196064991497
 20
190.454200707646
 30
0.0
 10
393.4317129236031
 20
190.0258730786172
 30
0.0
 10
393.4460388664257
 20
189.596433588182
 30
0.0
 10
393.4625830731745
 20
189.1658979014875
 30
0.0
 10
393.481344214348
 20
188.7342817061425
 30
0.0
 10
393.5023208857669
 20
188.301600712161
 30
0.0
 10
393.5255116089373
 20
187.8678706518988
 30
0.0
 10
393.5509148313969
 20
187.4331072799906
 30
0.0
 10
393.5785289270454
 20
186.9973263732749
 30
0.0
 10
393.6083521964587
 20
186.5605437307113
 30
0.0
 10
393.6403828671874
 20
186.1227751732993
 30
0.0
 10
393.6746190940417
 20
185.6840365439864
 30
0.0
 10
393.7110589593617
 20
185.2443437075697
 30
0.0
 10
393.7497004732754
 20
184.803712550584
 30
0.0
 10
393.790541573943
 20
184.3621589811927
 30
0.0
 10
393.8335801277901
 20
183.9196989290585
 30
0.0
 10
393.8788139297288
 20
183.4763483452201
 30
0.0
 10
393.9262407033688
 20
183.0321232019396
 30
0.0
 10
393.9758581012167
 20
182.5870394925654
 30
0.0
 10
394.0276637048684
 20
182.1411132313634
 30
0.0
 10
394.0816550251886
 20
181.6943604533573
 30
0.0
 10
394.1378295024854
 20
181.246797214144
 30
0.0
 10
394.1961845066738
 20
180.7984395897149
 30
0.0
 10
394.2567173374332
 20
180.3493036762549
 30
0.0
 10
394.3194252243586
 20
179.8994055899374
 30
0.0
 10
394.3843053271024
 20
179.448761466709
 30
0.0
 10
394.4513547355133
 20
178.9973874620671
 30
0.0
 10
394.5205704697663
 20
178.5452997508263
 30
0.0
 10
394.5919494804901
 20
178.0925145268725
 30
0.0
 10
394.6654886488882
 20
177.639048002912
 30
0.0
 10
394.7411847868562
 20
177.184916410207
 30
0.0
 10
394.8190346370943
 20
176.7301359983067
 30
0.0
 10
394.8990348732167
 20
176.2747230347651
 30
0.0
 10
394.9811820998576
 20
175.8186938048527
 30
0.0
 10
395.0654728527737
 20
175.3620646112564
 30
0.0
 10
395.1519035989456
 20
174.9048517737701
 30
0.0
 10
395.240470736674
 20
174.447071628984
 30
0.0
 10
395.3311705956776
 20
173.9887405299519
 30
0.0
 10
395.423999437186
 20
173.5298748458635
 30
0.0
 10
395.5189534540339
 20
173.0704909616958
 30
0.0
 10
395.6160287707515
 20
172.6106052778695
 30
0.0
 10
395.7152214436559
 20
172.1502342098867
 30
0.0
 10
395.8165274609415
 20
171.6893941879661
 30
0.0
 10
395.9199427427702
 20
171.2281016566649
 30
0.0
 10
396.0254631413601
 20
170.7663730745016
 30
0.0
 10
396.1330844410768
 20
170.3042249135618
 30
0.0
 10
396.2428023585217
 20
169.8416736591065
 30
0.0
 10
396.3546125426249
 20
169.3787358091603
 30
0.0
 10
396.4685105747339
 20
168.9154278741096
 30
0.0
 10
396.5844919687084
 20
168.4517663762745
 30
0.0
 10
396.7025521710108
 20
167.9877678494944
 30
0.0
 10
396.8226865608032
 20
167.5234488386859
 30
0.0
 10
396.944890450041
 20
167.0588258994153
 30
0.0
 10
397.0691590835721
 20
166.5939155974445
 30
0.0
 10
397.1954876392343
 20
166.1287345082889
 30
0.0
 10
397.3238712279574
 20
165.6632992167565
 30
0.0
 10
397.454304893864
 20
165.1976263164905
 30
0.0
 10
397.5867836143768
 20
164.7317324094959
 30
0.0
 10
397.7213023003229
 20
164.2656341056736
 30
0.0
 10
397.857855796045
 20
163.7993480223351
 30
0.0
 10
397.9964388795124
 20
163.3328907837233
 30
0.0
 10
398.1370462624336
 20
162.8662790205259
 30
0.0
 10
398.2796725903745
 20
162.3995293693796
 30
0.0
 10
398.4243124428758
 20
161.9326584723762
 30
0.0
 10
398.5709603335773
 20
161.4656829765531
 30
0.0
 10
398.7196107103414
 20
160.9986195333917
 30
0.0
 10
398.87025795538
 20
160.5314847983081
 30
0.0
 10
399.022896385386
 20
160.0642954301331
 30
0.0
 10
399.1775202516658
 20
159.5970680906009
 30
0.0
 10
399.3341237402761
 20
159.1298194438203
 30
0.0
 10
399.4927009721641
 20
158.6625661557516
 30
0.0
 10
399.6532460033101
 20
158.195324893673
 30
0.0
 10
399.8157528248732
 20
157.7281123256526
 30
0.0
 10
399.9802153633403
 20
157.2609451200089
 30
0.0
 10
400.1466274806781
 20
156.793839944775
 30
0.0
 10
400.314982974491
 20
156.3268134671488
 30
0.0
 10
400.4852755781774
 20
155.8598823529564
 30
0.0
 10
400.6574989610945
 20
155.3930632660968
 30
0.0
 10
400.8316467287225
 20
154.9263728679971
 30
0.0
 10
401.0077124228353
 20
154.4598278170543
 30
0.0
 10
401.1856895216706
 20
153.9934447680865
 30
0.0
 10
401.3655714401102
 20
153.5272403717658
 30
0.0
 10
401.5473515298555
 20
153.0612312740678
 30
0.0
 10
401.7310230796147
 20
152.5954341156992
 30
0.0
 10
401.9165793152846
 20
152.1298655315473
 30
0.0
 10
402.104013400145
 20
151.6645421501022
 30
0.0
 10
402.2933184350495
 20
151.1994805928974
 30
0.0
 10
402.4844874586249
 20
150.7346974739345
 30
0.0
 10
402.6775134474697
 20
150.2702093991187
 30
0.0
 10
402.8723893163594
 20
149.8060329656834
 30
0.0
 10
403.0691079184535
 20
149.342184761619
 30
0.0
 10
403.2676620455091
 20
148.8786813650942
 30
0.0
 10
403.468044428092
 20
148.4155393438859
 30
0.0
 10
403.6702477357981
 20
147.9527752548003
 30
0.0
 10
403.8742645774704
 20
147.4904056430954
 30
0.0
 10
404.0800875014394
 20
147.0284470419069
 30
0.0
 10
404.2877089956955
 20
146.5669159716486
 30
0.0
 10
404.4971214883326
 20
146.105828939516
 30
0.0
 10
404.7083173469914
 20
145.6452024385968
 30
0.0
 10
404.9212888820622
 20
145.1850529484324
 30
0.0
 10
405.1360283358596
 20
144.7253969301905
 30
0.0
 10
405.3525279241802
 20
144.2662508419211
 30
0.0
 10
405.5707796823704
 20
143.8076310788806
 30
0.0
 10
405.790776040984
 20
143.3495541934876
 30
0.0
 10
406.0125076786405
 20
142.8920360716899
 30
0.0
 10
406.2359715363466
 20
142.4350950040159
 30
0.0
 10
406.4611409093366
 20
141.9787402216554
 30
0.0
 10
406.6880770654714
 20
141.5230146770566
 30
0.0
 10
406.8986042181424
 20
141.1035196786811
 30
0.0
 10
407.0342625032389
 20
140.8362348773657
 30
0.0
 10
407.093052007649
 20
140.7204030946295
 30
0.0
  0
SPLINE
  5
119
330
1F
100
AcDbEntity
  8
0
  6
Continuous
 62
     7
370
    30
100
AcDbSpline
210
0.0
220
0.0
230
1.0
 70
     8
 71
     3
 72
   166
 73
   162
 74
     0
 42
0.000000001
 43
0.00000001
 40
0.0
 40
0.0
 40
0.0
 40
0.0
 40
0.0050629240960615
 40
0.0114282649636743
 40
0.0177938500047563
 40
0.024159678420804
 40
0.0305257492325594
 40
0.0368920612735239
 40
0.0432586131828295
 40
0.0496254033979787
 40
0.0559924301476106
 40
0.0623596914438117
 40
0.0687271850741285
 40
0.0750949085938744
 40
0.0814628593178383
 40
0.0878310343113607
 40
0.0941994303823643
 40
0.1005680440719295
 40
0.1069368716454714
 40
0.1133059090832612
 40
0.1196751520709337
 40
0.1260445959897567
 40
0.132414235906735
 40
0.1387840665640922
 40
0.1451540823692339
 40
0.1515242773840231
 40
0.1578946453137783
 40
0.1642651794966393
 40
0.1706358728919506
 40
0.1770067180691813
 40
0.183377707196173
 40
0.1897488320274486
 40
0.1961200838923125
 40
0.2024914536828616
 40
0.2088629318416109
 40
0.2152345083493501
 40
0.2216061727126433
 40
0.2279779139513658
 40
0.2343497205857459
 40
0.2407215806243751
 40
0.2470934815507935
 40
0.2534654103113146
 40
0.2598373533019663
 40
0.2662092920876364
 40
0.2725812111538133
 40
0.2789530949719546
 40
0.2853249274090405
 40
0.2916966917156132
 40
0.2980683705135497
 40
0.3044399457846548
 40
0.310811398858745
 40
0.3171827104030494
 40
0.3235538604113569
 40
0.3299248281934528
 40
0.3362955923658585
 40
0.3426661308419877
 40
0.3490364208240665
 40
0.3554064387947026
 40
0.3617761605098263
 40
0.3681455609920527
 40
0.3745146145252201
 40
0.3808832946496109
 40
0.3872515741580475
 40
0.3936194250935094
 40
0.399986818747511
 40
0.4063537256599201
 40
0.412720115619761
 40
0.4190859576678931
 40
0.4254512201009211
 40
0.4318158704764969
 40
0.4381798756206823
 40
0.4445432016365291
 40
0.4509058139152974
 40
0.4572676771484608
 40
0.4636287553426842
 40
0.4699890118366598
 40
0.476348409319802
 40
0.4827069098535398
 40
0.4890644748947889
 40
0.495421065322099
 40
0.5017766414638616
 40
0.5081311631296274
 40
0.5144845896438274
 40
0.5208368798819331
 40
0.527187992310027
 40
0.5335378850266846
 40
0.539886515807911
 40
0.5462338421550014
 40
0.5525798213453316
 40
0.558924410485997
 40
0.5652675665707279
 40
0.5716092465394379
 40
0.5779494073407928
 40
0.5842880059979759
 40
0.5906249996769926
 40
0.5969603457580226
 40
0.603294001909515
 40
0.6096259261650332
 40
0.6159560770025233
 40
0.6222844134263961
 40
0.6286108950515946
 40
0.6349354821902524
 40
0.6412581359401747
 40
0.6475788182753747
 40
0.6538974921383797
 40
0.6602141215336756
 40
0.6665286716229307
 40
0.6728411088211198
 40
0.6791514008931003
 40
0.6854595170512692
 40
0.6917654280533018
 40
0.698069106299505
 40
0.7043705259303769
 40
0.7106696629233842
 40
0.7169664951882624
 40
0.7232610026619026
 40
0.7295531674009261
 40
0.7358429736724773
 40
0.742130408042807
 40
0.748415459462919
 40
0.7546981193516946
 40
0.7609783816748553
 40
0.7672562430210818
 40
0.7735317026734615
 40
0.7798047626765999
 40
0.7860754278992791
 40
0.7923437060919426
 40
0.7986096079387905
 40
0.8048731471041011
 40
0.8111343402729594
 40
0.817393207185452
 40
0.8236497706647368
 40
0.8299040566384601
 40
0.8361560941528333
 40
0.8424059153804274
 40
0.8486535556201945
 40
0.8548990532904762
 40
0.8611424499145163
 40
0.867383790098517
 40
0.8736231215020647
 40
0.8798604948009731
 40
0.8860959636426293
 40
0.8923295845938517
 40
0.8985614170810104
 40
0.9047915233230724
 40
0.9110199682570116
 40
0.9172468194564092
 40
0.9234721470427365
 40
0.9296960235900977
 40
0.9359185240232982
 40
0.9421397255093681
 40
0.9483597073434538
 40
0.9545785508285067
 40
0.9607963391496486
 40
0.9670131572432971
 40
0.9732290916617528
 40
0.9794442304327365
 40
0.9856586629157766
 40
0.9918724796536819
 40
0.9980857722219839
 40
1.0
 40
1.0
 40
1.0
 40
1.0
 10
441.767475783434
 20
97.11559262700094
 30
0.0
 10
441.862205272846
 20
97.04025821558923
 30
0.0
 10
442.0760330301528
 20
96.8702099197506
 30
0.0
 10
442.4094897184759
 20
96.60812715915145
 30
0.0
 10
442.7677384344975
 20
96.32886378293782
 30
0.0
 10
443.1264284808283
 20
96.05193356549852
 30
0.0
 10
443.485530018238
 20
95.77726019418262
 30
0.0
 10
443.8450351162363
 20
95.50487729445983
 30
0.0
 10
444.2049299521946
 20
95.23478894251654
 30
0.0
 10
444.5652022611343
 20
94.96700704265196
 30
0.0
 10
444.9258393395727
 20
94.70154131118777
 30
0.0
 10
445.2868285805288
 20
94.43840196014443
 30
0.0
 10
445.648157330254
 20
94.17759897782963
 30
0.0
 10
446.0098129267029
 20
93.91914232132761
 30
0.0
 10
446.371782689282
 20
93.66304186463378
 30
0.0
 10
446.734053921643
 20
93.40930741225809
 30
0.0
 10
447.0966139109556
 20
93.15794869528607
 30
0.0
 10
447.45944992812
 20
92.90897537212714
 30
0.0
 10
447.8225492276967
 20
92.66239702800873
 30
0.0
 10
448.1858990479013
 20
92.41822317479452
 30
0.0
 10
448.5494866105629
 20
92.1764632507103
 30
0.0
 10
448.913299121077
 20
91.93712662008214
 30
0.0
 10
449.2773237683368
 20
91.70022257306712
 30
0.0
 10
449.6415477246559
 20
91.46576032537165
 30
0.0
 10
450.005958145674
 20
91.233749017963
 30
0.0
 10
450.3705421702503
 20
91.00419771676941
 30
0.0
 10
450.7352869203438
 20
90.77711541236867
 30
0.0
 10
451.1001795008737
 20
90.55251101966878
 30
0.0
 10
451.4652069995751
 20
90.33039337757016
 30
0.0
 10
451.8303564868313
 20
90.11077124862028
 30
0.0
 10
452.1956150155008
 20
89.89365331864944
 30
0.0
 10
452.5609696207254
 20
89.67904819639358
 30
0.0
 10
452.9264073197301
 20
89.46696441309857
 30
0.0
 10
453.2919151116068
 20
89.25741042210954
 30
0.0
 10
453.657479977088
 20
89.05039459843965
 30
0.0
 10
454.0230888783078
 20
88.84592523832097
 30
0.0
 10
454.3887287585556
 20
88.64401055873195
 30
0.0
 10
454.7543865420097
 20
88.44465869690956
 30
0.0
 10
455.1200491334757
 20
88.24787770982914
 30
0.0
 10
455.4857034181011
 20
88.05367557367043
 30
0.0
 10
455.8513362610987
 20
87.86206018324755
 30
0.0
 10
456.2169345074443
 20
87.67303935142431
 30
0.0
 10
456.5824848999617
 20
87.48662085011767
 30
0.0
 10
456.9479741459314
 20
87.30281237283307
 30
0.0
 10
457.3133889278131
 20
87.12162152794227
 30
0.0
 10
457.6787159844424
 20
86.94305579885301
 30
0.0
 10
458.0439420437855
 20
86.76712257782572
 30
0.0
 10
458.4090538115837
 20
86.59382917074836
 30
0.0
 10
458.7740379710596
 20
86.42318279631675
 30
0.0
 10
459.138881182615
 20
86.25519058518415
 30
0.0
 10
459.5035700835497
 20
86.08985957906874
 30
0.0
 10
459.8680912877813
 20
85.92719672982736
 30
0.0
 10
460.2324313855787
 20
85.76720889848812
 30
0.0
 10
460.5965769433114
 20
85.60990285424482
 30
0.0
 10
460.9605145032042
 20
85.4552852734138
 30
0.0
 10
461.3242305831274
 20
85.30336273834344
 30
0.0
 10
461.6877116763897
 20
85.15414173628963
 30
0.0
 10
462.0509442515695
 20
85.00762865824274
 30
0.0
 10
462.4139147523592
 20
84.86382979771817
 30
0.0
 10
462.7766095974505
 20
84.72275134949841
 30
0.0
 10
463.1390151804467
 20
84.58439940833507
 30
0.0
 10
463.5011178698106
 20
84.44877996760738
 30
0.0
 10
463.8629040088514
 20
84.3158989179373
 30
0.0
 10
464.2243599157551
 20
84.18576204576185
 30
0.0
 10
464.5854718836641
 20
84.05837503186173
 30
0.0
 10
464.9462261807975
 20
83.93374344985033
 30
0.0
 10
465.3066090506318
 20
83.81187276462026
 30
0.0
 10
465.666606712136
 20
83.69276833074963
 30
0.0
 10
466.0262053600692
 20
83.57643539086902
 30
0.0
 10
466.3853911653417
 20
83.46287907399119
 30
0.0
 10
466.7441502754399
 20
83.35210439380633
 30
0.0
 10
467.1024688149357
 20
83.24411624693973
 30
0.0
 10
467.460332886056
 20
83.13891941118175
 30
0.0
 10
467.8177285693449
 20
83.03651854368553
 30
0.0
 10
468.1746419244013
 20
82.93691817913985
 30
0.0
 10
468.5310589907119
 20
82.84012272791617
 30
0.0
 10
468.8869657885705
 20
82.74613647419702
 30
0.0
 10
469.2423483200898
 20
82.65496357408827
 30
0.0
 10
469.5971925703176
 20
82.56660805371662
 30
0.0
 10
469.9514845084478
 20
82.48107380732066
 30
0.0
 10
470.3052100891423
 20
82.39836459533632
 30
0.0
 10
470.6583552539557
 20
82.3184840424846
 30
0.0
 10
471.0109059328706
 20
82.24143563586466
 30
0.0
 10
471.3628480459475
 20
82.16722272305931
 30
0.0
 10
471.714167505084
 20
82.09584851025761
 30
0.0
 10
472.064850215898
 20
82.02731606040093
 30
0.0
 10
472.41488207972
 20
81.9616282913597
 30
0.0
 10
472.7642489957074
 20
81.89878797414711
 30
0.0
 10
473.1129368630762
 20
81.83879773117538
 30
0.0
 10
473.4609315834539
 20
81.78166003456481
 30
0.0
 10
473.8082190633476
 20
81.72737720450912
 30
0.0
 10
474.1547852167313
 20
81.67595140770861
 30
0.0
 10
474.5006159677469
 20
81.62738465587618
 30
0.0
 10
474.8456972535196
 20
81.58167880432532
 30
0.0
 10
475.1900150270853
 20
81.53883555064745
 30
0.0
 10
475.5335552604224
 20
81.4988564334879
 30
0.0
 10
475.8763039475905
 20
81.46174283142688
 30
0.0
 10
476.2182471079652
 20
81.42749596197498
 30
0.0
 10
476.5593707895696
 20
81.39611688069066
 30
0.0
 10
476.8996610724881
 20
81.36760648042781
 30
0.0
 10
477.2391040723677
 20
81.34196549072088
 30
0.0
 10
477.5776859439858
 20
81.31919447731588
 30
0.0
 10
477.9153928848901
 20
81.2992938418532
 30
0.0
 10
478.2522111390926
 20
81.28226382171115
 30
0.0
 10
478.5881270008101
 20
81.26810449001451
 30
0.0
 10
478.9231268182441
 20
81.25681575581724
 30
0.0
 10
479.2571969973882
 20
81.24839736446185
 30
0.0
 10
479.5903240058505
 20
81.24284889812297
 30
0.0
 10
479.9224943766814
 20
81.24016977653902
 30
0.0
 10
480.2536947121937
 20
81.2403592579355
 30
0.0
 10
480.5839116877638
 20
81.24341644014342
 30
0.0
 10
480.9131320555979
 20
81.24934026191623
 30
0.0
 10
481.2413426484542
 20
81.25812950444538
 30
0.0
 10
481.5685303833031
 20
81.26978279307646
 30
0.0
 10
481.8946822649174
 20
81.2842985992265
 30
0.0
 10
482.2197853893712
 20
81.30167524249956
 30
0.0
 10
482.5438269474428
 20
81.3219108930012
 30
0.0
 10
482.8667942278988
 20
81.34500357384749
 30
0.0
 10
483.1886746206481
 20
81.37095116386459
 30
0.0
 10
483.5094556197611
 20
81.39975140047675
 30
0.0
 10
483.8291248263234
 20
81.43140188277233
 30
0.0
 10
484.147669951132
 20
81.46590007474721
 30
0.0
 10
484.4650788172002
 20
81.50324330871166
 30
0.0
 10
484.7813393620767
 20
81.54342878885659
 30
0.0
 10
485.0964396399545
 20
81.58645359496764
 30
0.0
 10
485.4103678235688
 20
81.63231468627627
 30
0.0
 10
485.7231122058712
 20
81.68100890543809
 30
0.0
 10
486.0346612014642
 20
81.73253298262425
 30
0.0
 10
486.3450033477966
 20
81.78688353971361
 30
0.0
 10
486.6541273061046
 20
81.84405709457151
 30
0.0
 10
486.9620218621028
 20
81.90405006540216
 30
0.0
 10
487.2686759264112
 20
81.96685877515748
 30
0.0
 10
487.5740785347134
 20
82.03247945598706
 30
0.0
 10
487.87821884765
 20
82.100908253715
 30
0.0
 10
488.181086150435
 20
82.17214123232299
 30
0.0
 10
488.482669852209
 20
82.24617437842771
 30
0.0
 10
488.7829594851139
 20
82.32300360573164
 30
0.0
 10
489.0819447031051
 20
82.40262475943153
 30
0.0
 10
489.3796152804921
 20
82.4850336205675
 30
0.0
 10
489.6759611102204
 20
82.57022591029329
 30
0.0
 10
489.9709722018931
 20
82.65819729405318
 30
0.0
 10
490.2646386795468
 20
82.74894338564714
 30
0.0
 10
490.5569507791826
 20
82.84245975116734
 30
0.0
 10
490.8478988460664
 20
82.93874191279
 30
0.0
 10
491.1374733317996
 20
83.03778535240954
 30
0.0
 10
491.4256647911923
 20
83.139585515081
 30
0.0
 10
491.7124638788928
 20
83.24413781233842
 30
0.0
 10
491.9978613459787
 20
83.35143762505145
 30
0.0
 10
492.2818480358306
 20
83.4614803070329
 30
0.0
 10
492.5644148818657
 20
83.57426118479528
 30
0.0
 10
492.8455528975962
 20
83.68977557057562
 30
0.0
 10
493.1252531946647
 20
83.80801872470754
 30
0.0
 10
493.4035068959057
 20
83.92898600577082
 30
0.0
 10
493.6803054395634
 20
84.05267231889492
 30
0.0
 10
493.9556394236258
 20
84.17907418143481
 30
0.0
 10
494.2295028969186
 20
84.30818202144397
 30
0.0
 10
494.501877326651
 20
84.44000891876046
 30
0.0
 10
494.7727913998418
 20
84.57448336502279
 30
0.0
 10
495.0420978566718
 20
84.71184942456576
 30
0.0
 10
495.2484536879028
 20
84.81904347629187
 30
0.0
 10
495.3645381291913
 20
84.88134075217982
 30
0.0
 10
495.391878825079
 20
84.89601326863233
 30
0.0
  0
LINE
  5
11A
330
1F
100
AcDbEntity
  8
0
  6
Continuous
 62
     7
370
    30
100
AcDbLine
 10
417.8236948454
 20
236.0958309115
 30
0.0
 11
410.7193473569
 21
231.6850099081
 31
0.0
  0
LINE
  5
11B
330
1F
100
AcDbEntity
  8
0
  6
Continuous
 62
     7
370
    30
100
AcDbLine
 10
495.443218663
 20
84.9230582289
 30
0.0
 11
502.8156458073
 21
88.8695013317
 31
0.0
  0
SPLINE
  5
11C
330
1F
100
AcDbEntity
  8
0
  6
Continuous
 62
     7
370
    30
100
AcDbSpline
210
0.0
220
0.0
230
1.0
 70
     8
 71
     3
 72
    54
 73
    50
 74
     0
 42
0.000000001
 43
0.00000001
 40
0.0
 40
0.0
 40
0.0
 40
0.0
 40
0.0040512967757998
 40
0.0115435100712469
 40
0.0190657088828916
 40
0.026610099928578
 40
0.0341685795625685
 40
0.0417329062621611
 40
0.0492926357185403
 40
0.056839384158913
 40
0.0643656313098735
 40
0.0718168527767332
 40
0.0793423103466663
 40
0.0869912177069787
 40
0.094688250579078
 40
0.1024428761753099
 40
0.110264061069941
 40
0.1181607243918898
 40
0.1261416919702321
 40
0.1342156423622667
 40
0.1423940620853243
 40
0.1505526745734447
 40
0.1587804479623862
 40
0.167075575976401
 40
0.1754362314744363
 40
0.1838596083333923
 40
0.1923419830510592
 40
0.2008787966072957
 40
0.2069487228869205
 40
0.2120211715692649
 40
0.2169207971904871
 40
0.2254523844879896
 40
0.2343270849397009
 40
0.2438157716715991
 40
0.2538707934004671
 40
0.2626843989534236
 40
0.2717253034672758
 40
0.2804953843461342
 40
0.3169870253658498
 40
0.3500034974351249
 40
0.3882341209468479
 40
0.4274666770278924
 40
0.5139246626471691
 40
0.6067080685974935
 40
0.6981557708980052
 40
0.7873113945607091
 40
0.8727576284296834
 40
0.9595392339735924
 40
1.0
 40
1.0
 40
1.0
 40
1.0
 10
431.7935735509311
 20
205.1657292202036
 30
0.0
 10
431.7806192279417
 20
205.1577313217291
 30
0.0
 10
431.7437079952749
 20
205.1349426131503
 30
0.0
 10
431.6846067414648
 20
205.0945046332078
 30
0.0
 10
431.6161287580098
 20
205.0446194883684
 30
0.0
 10
431.5493432440564
 20
204.9919878651786
 30
0.0
 10
431.4842723420592
 20
204.9368516242873
 30
0.0
 10
431.4210754322856
 20
204.8792671194168
 30
0.0
 10
431.3598621662939
 20
204.8193441380038
 30
0.0
 10
431.3007751997032
 20
204.7572238539166
 30
0.0
 10
431.2439414131715
 20
204.6930404092926
 30
0.0
 10
431.1895185906514
 20
204.6270288997024
 30
0.0
 10
431.1370418181804
 20
204.5587487908877
 30
0.0
 10
431.0862910932088
 20
204.487802336676
 30
0.0
 10
431.0374164782994
 20
204.4143034518868
 30
0.0
 10
430.9906104958649
 20
204.338489761256
 30
0.0
 10
430.9458832014963
 20
204.2603377402114
 30
0.0
 10
430.9032466139765
 20
204.179819538883
 30
0.0
 10
430.8627119302658
 20
204.0968977216597
 30
0.0
 10
430.8242974932515
 20
204.011538569187
 30
0.0
 10
430.7881827831903
 20
203.9241061978304
 30
0.0
 10
430.7544004797239
 20
203.8346214758209
 30
0.0
 10
430.7230493245734
 20
203.7433685273769
 30
0.0
 10
430.6940341838096
 20
203.6500464813223
 30
0.0
 10
430.6673947482797
 20
203.5547260403404
 30
0.0
 10
430.6431620857336
 20
203.4574549546985
 30
0.0
 10
430.6213734255288
 20
203.358372883879
 30
0.0
 10
430.6039333018646
 20
203.2672599816241
 30
0.0
 10
430.5908090397808
 20
203.1893443080142
 30
0.0
 10
430.5810308946829
 20
203.1241435347061
 30
0.0
 10
430.5710933345927
 20
203.0491847876525
 30
0.0
 10
430.5609671677126
 20
202.9586723033756
 30
0.0
 10
430.5512787143037
 20
202.8497396003314
 30
0.0
 10
430.5433076575643
 20
202.7350631337908
 30
0.0
 10
430.5371325975148
 20
202.6215090620641
 30
0.0
 10
430.5320735926866
 20
202.5108839495722
 30
0.0
 10
430.5275840887412
 20
202.4074222149422
 30
0.0
 10
430.5179576330537
 20
202.1970520053443
 30
0.0
 10
430.5029568477894
 20
201.8937200333386
 30
0.0
 10
430.4815418732352
 20
201.4755979035922
 30
0.0
 10
430.4612078106693
 20
201.0446027411982
 30
0.0
 10
430.4325927396472
 20
200.4071673030751
 30
0.0
 10
430.3958391764872
 20
199.5570984390822
 30
0.0
 10
430.3531848953543
 20
198.5042283710906
 30
0.0
 10
430.3132295297672
 20
197.4408206895802
 30
0.0
 10
430.2775652308656
 20
196.4057173396287
 30
0.0
 10
430.245884442395
 20
195.3886908848782
 30
0.0
 10
430.2220381166613
 20
194.561103902306
 30
0.0
 10
430.2096167208223
 20
194.0660450186773
 30
0.0
 10
430.2056669422654
 20
193.9086252738817
 30
0.0
  0
SPLINE
  5
11D
330
1F
100
AcDbEntity
  8
0
  6
Continuous
 62
     7
370
    30
100
AcDbSpline
210
0.0
220
0.0
230
1.0
 70
     8
 71
     3
 72
    12
 73
     8
 74
     0
 42
0.000000001
 43
0.00000001
 40
0.0
 40
0.0
 40
0.0
 40
0.0
 40
0.1208586998822748
 40
0.3414107215833234
 40
0.5619500818732546
 40
0.7824760906481872
 40
1.0
 40
1.0
 40
1.0
 40
1.0
 10
430.2305537838334
 20
194.8340234830019
 30
0.0
 10
430.0439859535136
 20
194.717102128664
 30
0.0
 10
429.5169551511321
 20
194.3868139161326
 30
0.0
 10
428.6513424765814
 20
193.8403561226005
 30
0.0
 10
427.6336463959736
 20
193.194830833378
 30
0.0
 10
426.6222749687489
 20
192.5497834770252
 30
0.0
 10
425.9510217884405
 20
192.1186243543473
 30
0.0
 10
425.617695357129
 20
191.904522230282
 30
0.0
  0
SPLINE
  5
11E
330
1F
100
AcDbEntity
  8
0
  6
Continuous
 62
     7
370
    30
100
AcDbSpline
210
0.0
220
0.0
230
1.0
 70
     8
 71
     3
 72
    25
 73
    21
 74
     0
 42
0.000000001
 43
0.00000001
 40
0.0
 40
0.0
 40
0.0
 40
0.0
 40
0.0403616809334434
 40
0.0998098435410946
 40
0.1592607382376474
 40
0.2187141777776447
 40
0.2781699753496289
 40
0.3376279445544982
 40
0.3970878993920651
 40
0.4565496542268906
 40
0.5160130237635583
 40
0.5754778230292451
 40
0.634943867333338
 40
0.6944109722564569
 40
0.7538789536265782
 40
0.813347627476945
 40
0.8728168100338463
 40
0.9322863177023426
 40
0.9917559670108603
 40
0.9999999999999999
 40
0.9999999999999999
 40
0.9999999999999999
 40
0.9999999999999999
 10
441.5706967257213
 20
164.261927826991
 30
0.0
 10
441.8131941798605
 20
164.3867727789423
 30
0.0
 10
442.4128627862466
 20
164.695500136995
 30
0.0
 10
443.3681893405257
 20
165.1913076360412
 30
0.0
 10
444.4368804968538
 20
165.7489268456471
 30
0.0
 10
445.5042085933429
 20
166.3094421022973
 30
0.0
 10
446.5702228547744
 20
166.8727117633154
 30
0.0
 10
447.6348911017934
 20
167.4387646686151
 30
0.0
 10
448.6982030331401
 20
168.0075838764294
 30
0.0
 10
449.7601425417797
 20
168.5791646277563
 30
0.0
 10
450.8206951605729
 20
169.1534987649763
 30
0.0
 10
451.8798459630427
 20
169.7305790896588
 30
0.0
 10
452.9375805123563
 20
170.3103975130988
 30
0.0
 10
453.9938831630102
 20
170.8929480959955
 30
0.0
 10
455.0487429034944
 20
171.4782167386564
 30
0.0
 10
456.1021316817389
 20
172.0662193807849
 30
0.0
 10
457.1540852601046
 20
172.6568595095381
 30
0.0
 10
458.2044014652055
 20
173.2504599326415
 30
0.0
 10
458.9524676960567
 20
173.6748475573915
 30
0.0
 10
459.3499727202986
 20
173.9021610393868
 30
0.0
 10
459.3983683239935
 20
173.9298360938346
 30
0.0
  0
SPLINE
  5
11F
330
1F
100
AcDbEntity
  8
0
  6
Continuous
 62
     7
370
    30
100
AcDbSpline
210
0.0
220
0.0
230
1.0
 70
     8
 71
     3
 72
   229
 73
   225
 74
     0
 42
0.000000001
 43
0.00000001
 40
0.0
 40
0.0
 40
0.0
 40
0.0
 40
0.00125723495612
 40
0.0055997156347643
 40
0.0099365829596874
 40
0.0142654063593697
 40
0.0185837904928927
 40
0.0228893878102671
 40
0.027176681279605
 40
0.0314850784810356
 40
0.0358420114969619
 40
0.0401991410256987
 40
0.0445578780547723
 40
0.0489200365664325
 40
0.0532873913107016
 40
0.0576616755851075
 40
0.0620445790867763
 40
0.0664377459803792
 40
0.0708427732182782
 40
0.0752612091522578
 40
0.0796945524777148
 40
0.0841442515514726
 40
0.0886117041219621
 40
0.0931015543020501
 40
0.0974958619804318
 40
0.101986085376207
 40
0.1064883827345035
 40
0.1109957001507809
 40
0.1154992300884774
 40
0.1199911257203326
 40
0.1244633828569127
 40
0.1289859884119567
 40
0.1335103012676805
 40
0.1380416942037956
 40
0.1425811425659687
 40
0.1471296089051188
 40
0.151688039052122
 40
0.156257452908295
 40
0.1608309865393373
 40
0.165402168961951
 40
0.1699779654113183
 40
0.174559313216598
 40
0.1791471522788717
 40
0.1837424239652681
 40
0.1883479987240455
 40
0.1929144367838689
 40
0.1975377201938814
 40
0.2021622821322685
 40
0.2067806522088437
 40
0.2113873223611309
 40
0.2159769772419602
 40
0.2205417082673588
 40
0.2251794704388141
 40
0.2297747791404217
 40
0.2343667089035633
 40
0.2389563281955265
 40
0.2435447394130011
 40
0.2481330539880821
 40
0.2527222068844711
 40
0.2573131387093714
 40
0.2619069864893592
 40
0.2665048971406229
 40
0.2711080277597579
 40
0.2757175457417333
 40
0.2803346288466303
 40
0.2849619256931257
 40
0.2895460774514127
 40
0.2941448414610057
 40
0.2987432022189371
 40
0.3033422807794545
 40
0.3079430672376122
 40
0.3125468402761745
 40
0.3171527135663182
 40
0.3217047365906712
 40
0.3262997914538076
 40
0.3308943033545006
 40
0.3354836573390627
 40
0.3400640583504224
 40
0.3446317088882615
 40
0.3491827676002756
 40
0.3537718964467852
 40
0.3583526357916739
 40
0.3629283742325569
 40
0.3675003669403451
 40
0.3720698711458277
 40
0.376638146234194
 40
0.3812064538653187
 40
0.3857757703810947
 40
0.390347227613343
 40
0.3949220931736857
 40
0.3995016370020659
 40
0.4040871314733367
 40
0.4086809852506235
 40
0.4132353123755464
 40
0.4178113432791014
 40
0.4223968459874777
 40
0.4269851039426991
 40
0.4315675176870928
 40
0.4361369486259994
 40
0.4406859598657134
 40
0.4452298641413747
 40
0.4497925702795563
 40
0.454353623264079
 40
0.4589143473522413
 40
0.4634758644858113
 40
0.4680392397471865
 40
0.4726053486856788
 40
0.4771809382073164
 40
0.4817595767488234
 40
0.4863322436977205
 40
0.4909002452933875
 40
0.4954648914852304
 40
0.5000274911516724
 40
0.5045893522886391
 40
0.5091517322394963
 40
0.5137155518173402
 40
0.5182821169175981
 40
0.5228527330738709
 40
0.5274287054535932
 40
0.5320113390494003
 40
0.5365979811381365
 40
0.5411746309065872
 40
0.5457447111357168
 40
0.55031146980186
 40
0.5548757456120142
 40
0.5594383750769522
 40
0.5640001911681477
 40
0.5685620231466305
 40
0.5731245325225621
 40
0.5776884305303913
 40
0.582254535402138
 40
0.5868236608082921
 40
0.5913966157236509
 40
0.5959742042405327
 40
0.6005587065031146
 40
0.6051450548151249
 40
0.6097283650369236
 40
0.6143107255400337
 40
0.618893431858039
 40
0.6234773703802625
 40
0.6280639828623147
 40
0.6326612297455797
 40
0.6372135538259991
 40
0.6417885955307323
 40
0.6463791978528686
 40
0.6509782927923718
 40
0.6555786438865004
 40
0.6601701965370864
 40
0.6646725124645176
 40
0.6692790429389945
 40
0.6738790422361977
 40
0.6784737516124079
 40
0.6830644047637023
 40
0.68765222896112
 40
0.6922384450955058
 40
0.6968242677375345
 40
0.7014107821220729
 40
0.7059989119255559
 40
0.710589854758694
 40
0.7151848019972161
 40
0.7197849389333426
 40
0.724393873388103
 40
0.7290668388650672
 40
0.7336313368778802
 40
0.7382116760509791
 40
0.742805525526977
 40
0.7474107145780269
 40
0.7520250268756007
 40
0.7566462075902635
 40
0.7612719702101955
 40
0.7659000033065184
 40
0.7705276762197869
 40
0.7751521606504065
 40
0.7797711089041618
 40
0.7843821766187592
 40
0.7889840801125417
 40
0.7935419453760375
 40
0.7980999840757969
 40
0.8026718270338762
 40
0.8072552837097368
 40
0.8118481054056828
 40
0.8164479613722495
 40
0.8210524437629506
 40
0.8256590730398738
 40
0.8302648284164462
 40
0.8348666978067806
 40
0.8394620095025446
 40
0.8440480516705284
 40
0.8486220811177059
 40
0.8531777964038838
 40
0.8576162888420132
 40
0.8621930641165207
 40
0.866755847009161
 40
0.8713054255188948
 40
0.8758427624254284
 40
0.8803688401228501
 40
0.8848846637797371
 40
0.8893912645143478
 40
0.8938897023744087
 40
0.8983810690826971
 40
0.9028664905156314
 40
0.9073471288883993
 40
0.9118241846271767
 40
0.9163017364132888
 40
0.9208106066350389
 40
0.9252254762513985
 40
0.9296567125999272
 40
0.9340962316014726
 40
0.9385350498319929
 40
0.9429630950129508
 40
0.9473717169032163
 40
0.9516860439909137
 40
0.956075924279377
 40
0.9604550243847971
 40
0.9648250118753233
 40
0.969187627703702
 40
0.9735446467233408
 40
0.9778978752589572
 40
0.9822489739594548
 40
0.9866012094187008
 40
0.9909544674919973
 40
0.9953002793519382
 40
0.999640049325792
 40
1.0
 40
1.0
 40
1.0
 40
1.0
 10
425.6161636686435
 20
191.9027326261895
 30
0.0
 10
425.6051182083113
 20
191.8957354008673
 30
0.0
 10
425.5559218058297
 20
191.864569808592
 30
0.0
 10
425.4702321842051
 20
191.8066141946633
 30
0.0
 10
425.3592324350278
 20
191.7288657659078
 30
0.0
 10
425.2502016264846
 20
191.6484598180529
 30
0.0
 10
425.1430770273361
 20
191.565718125449
 30
0.0
 10
425.0379644106219
 20
191.480638703456
 30
0.0
 10
424.9347522964654
 20
191.39313830456
 30
0.0
 10
424.8331819464612
 20
191.3031055101781
 30
0.0
 10
424.7327914974043
 20
191.2100749283888
 30
0.0
 10
424.6338978280485
 20
191.1142660673191
 30
0.0
 10
424.5368555046377
 20
191.0160074361221
 30
0.0
 10
424.4416686177199
 20
190.915297786084
 30
0.0
 10
424.3483296063803
 20
190.8121236090118
 30
0.0
 10
424.2568347056849
 20
190.7064725603019
 30
0.0
 10
424.1671806906321
 20
190.598330866882
 30
0.0
 10
424.0793656396677
 20
190.4876840031843
 30
0.0
 10
423.9933889855856
 20
190.3745171274472
 30
0.0
 10
423.9092503519491
 20
190.2588132088266
 30
0.0
 10
423.8269539507264
 20
190.1405606798815
 30
0.0
 10
423.7464918115846
 20
190.019725122268
 30
0.0
 10
423.6678871671189
 20
189.8963256321381
 30
0.0
 10
423.5916610520707
 20
189.7711800096708
 30
0.0
 10
423.5175033726731
 20
189.6437702236522
 30
0.0
 10
423.4454722320449
 20
189.5142718880303
 30
0.0
 10
423.3750486540976
 20
189.3816684547338
 30
0.0
 10
423.3067657389599
 20
189.246930284299
 30
0.0
 10
423.2407407231545
 20
189.1103019453355
 30
0.0
 10
423.1770746388726
 20
188.9720269136046
 30
0.0
 10
423.1155471293119
 20
188.8316192869785
 30
0.0
 10
423.0561317008754
 20
188.6890691549027
 30
0.0
 10
422.9986952165799
 20
188.5439880251956
 30
0.0
 10
422.9434493293164
 20
188.3968811450664
 30
0.0
 10
422.8903736719265
 20
188.2476869642669
 30
0.0
 10
422.8394712512814
 20
188.0964016390251
 30
0.0
 10
422.7907434438539
 20
187.943015111952
 30
0.0
 10
422.7442195040759
 20
187.7876135310442
 30
0.0
 10
422.6999395649192
 20
187.6303275062882
 30
0.0
 10
422.6579328659206
 20
187.4712599339975
 30
0.0
 10
422.6181992578445
 20
187.3104242719023
 30
0.0
 10
422.5807201368042
 20
187.1477465081622
 30
0.0
 10
422.5454941503316
 20
186.9832166466999
 30
0.0
 10
422.5125200577439
 20
186.816820109322
 30
0.0
 10
422.4818934125902
 20
186.6490822902757
 30
0.0
 10
422.4535238937951
 20
186.4794533766782
 30
0.0
 10
422.4274290770566
 20
186.3081233197445
 30
0.0
 10
422.4035572146841
 20
186.1346688077066
 30
0.0
 10
422.3820236008826
 20
185.9599650148318
 30
0.0
 10
422.3628429896023
 20
185.7842704704013
 30
0.0
 10
422.3460209758809
 20
185.6078310632588
 30
0.0
 10
422.3314624407205
 20
185.4296554555235
 30
0.0
 10
422.3191718183422
 20
185.2501269165975
 30
0.0
 10
422.3091470711422
 20
185.0689115770532
 30
0.0
 10
422.3014321786285
 20
184.887057065878
 30
0.0
 10
422.2959956092971
 20
184.7040511960853
 30
0.0
 10
422.292834006645
 20
184.5198859229803
 30
0.0
 10
422.2919445310598
 20
184.3345527345367
 30
0.0
 10
422.293324769009
 20
184.1480454842245
 30
0.0
 10
422.2969726262191
 20
183.960357273877
 30
0.0
 10
422.3028864684022
 20
183.7714781198636
 30
0.0
 10
422.3110653473459
 20
183.5813944985426
 30
0.0
 10
422.3215088733849
 20
183.3900929077625
 30
0.0
 10
422.3342177269994
 20
183.1975560569532
 30
0.0
 10
422.3491934242528
 20
183.0037566925341
 30
0.0
 10
422.3663768873476
 20
182.8093911129337
 30
0.0
 10
422.3857734620498
 20
182.6144009188458
 30
0.0
 10
422.4073472889643
 20
182.4189838589665
 30
0.0
 10
422.4311644199451
 20
182.2225519822047
 30
0.0
 10
422.4571984241485
 20
182.0253260777349
 30
0.0
 10
422.4854503648045
 20
181.8272920349354
 30
0.0
 10
422.5159126775754
 20
181.6284759668907
 30
0.0
 10
422.5484594410829
 20
181.429684151037
 30
0.0
 10
422.5831571979683
 20
181.2304138973857
 30
0.0
 10
422.6199747282232
 20
181.0307338170651
 30
0.0
 10
422.6590454807267
 20
180.8299688494707
 30
0.0
 10
422.7002162573018
 20
180.6289085398939
 30
0.0
 10
422.7434339623165
 20
180.4277708271369
 30
0.0
 10
422.7886541203317
 20
180.226746938636
 30
0.0
 10
422.8359932138897
 20
180.0252312620666
 30
0.0
 10
422.8854580450241
 20
179.8231572987976
 30
0.0
 10
422.9371033779555
 20
179.6203989580488
 30
0.0
 10
422.9907638622466
 20
179.4176090366073
 30
0.0
 10
423.046449739562
 20
179.2147403124501
 30
0.0
 10
423.1041635881304
 20
179.0117760341533
 30
0.0
 10
423.1639088243538
 20
178.8086994765391
 30
0.0
 10
423.2256882768642
 20
178.6054979348856
 30
0.0
 10
423.2895047203126
 20
178.402160556087
 30
0.0
 10
423.3553613325233
 20
178.1986763239215
 30
0.0
 10
423.423263450724
 20
177.9950298713669
 30
0.0
 10
423.493217002897
 20
177.7912034830008
 30
0.0
 10
423.5652375072046
 20
177.5871633036505
 30
0.0
 10
423.6390667821376
 20
177.3836010554367
 30
0.0
 10
423.7148001176438
 20
177.1803173032918
 30
0.0
 10
423.79240755301
 20
176.9773456767235
 30
0.0
 10
423.8721132229257
 20
176.7740939199863
 30
0.0
 10
423.9537463523229
 20
176.5710084721998
 30
0.0
 10
424.0371587116225
 20
176.3684587712718
 30
0.0
 10
424.1221884619706
 20
176.1668237407837
 30
0.0
 10
424.2088270258081
 20
175.966132850079
 30
0.0
 10
424.2972302869204
 20
175.7659553374555
 30
0.0
 10
424.3875072894756
 20
175.5660520273067
 30
0.0
 10
424.4796818353386
 20
175.3663952326493
 30
0.0
 10
424.5736172458016
 20
175.1672867749133
 30
0.0
 10
424.6693197026981
 20
174.9687142786752
 30
0.0
 10
424.7667922604864
 20
174.7706716345742
 30
0.0
 10
424.8660800405842
 20
174.5730725230285
 30
0.0
 10
424.9671658829533
 20
174.3759346408759
 30
0.0
 10
425.0699795922831
 20
174.1794262088357
 30
0.0
 10
425.1743995650385
 20
173.9837898274355
 30
0.0
 10
425.2803568134025
 20
173.7891548019844
 30
0.0
 10
425.3878601323846
 20
173.5955028031351
 30
0.0
 10
425.496918969388
 20
173.4028157751784
 30
0.0
 10
425.6075429186777
 20
173.2110767014552
 30
0.0
 10
425.7197389485669
 20
173.0202742781616
 30
0.0
 10
425.8335143585252
 20
172.8303974222542
 30
0.0
 10
425.9488772103819
 20
172.6414345744537
 30
0.0
 10
426.0658392900688
 20
172.4533691771715
 30
0.0
 10
426.1844128980822
 20
172.2661849659466
 30
0.0
 10
426.3045764061937
 20
172.0799199555198
 30
0.0
 10
426.4261710045129
 20
171.8948161155797
 30
0.0
 10
426.549061583084
 20
171.7110908359452
 30
0.0
 10
426.6731562447508
 20
171.5288751843097
 30
0.0
 10
426.7984976617599
 20
171.3481028158247
 30
0.0
 10
426.9251065055111
 20
171.1687431160857
 30
0.0
 10
427.0529818857494
 20
170.9907978071882
 30
0.0
 10
427.1821230470276
 20
170.8142689634327
 30
0.0
 10
427.3125278020712
 20
170.6391611400635
 30
0.0
 10
427.444192953365
 20
170.4654806023003
 30
0.0
 10
427.5771153027244
 20
170.2932338667761
 30
0.0
 10
427.7112933069686
 20
170.1224256790385
 30
0.0
 10
427.8467264699464
 20
169.9530598140001
 30
0.0
 10
427.9834147724441
 20
169.7851403567208
 30
0.0
 10
428.1213716165844
 20
169.6186542788776
 30
0.0
 10
428.2605573018382
 20
169.4536585908318
 30
0.0
 10
428.4008749977263
 20
169.2902897043399
 30
0.0
 10
428.5422192817164
 20
169.1286742614369
 30
0.0
 10
428.6845486202985
 20
168.9688616704323
 30
0.0
 10
428.8278801083318
 20
168.8108331199504
 30
0.0
 10
428.9722265836685
 20
168.6545787244354
 30
0.0
 10
429.1176637746742
 20
168.5000113709012
 30
0.0
 10
429.2637021316696
 20
168.3476820631823
 30
0.0
 10
429.4104972399599
 20
168.1974045391978
 30
0.0
 10
429.5580729804165
 20
168.049121582238
 30
0.0
 10
429.7069820041024
 20
167.9022924775029
 30
0.0
 10
429.8569764961218
 20
167.757187234297
 30
0.0
 10
430.0077706609516
 20
167.6140995270322
 30
0.0
 10
430.1582842565603
 20
167.4740703757088
 30
0.0
 10
430.3095582295089
 20
167.3360572062892
 30
0.0
 10
430.4616300575432
 20
167.2000215481189
 30
0.0
 10
430.6154093619375
 20
167.0652162714399
 30
0.0
 10
430.7696693756339
 20
166.9327362176188
 30
0.0
 10
430.9244225010249
 20
166.8025708847946
 30
0.0
 10
431.0796819512928
 20
166.6747093449972
 30
0.0
 10
431.23546067513
 20
166.549141951529
 30
0.0
 10
431.3917702491045
 20
166.4258609593522
 30
0.0
 10
431.5486189208891
 20
166.3048619713429
 30
0.0
 10
431.7060150276139
 20
166.186140944822
 30
0.0
 10
431.863967429442
 20
166.0696942212802
 30
0.0
 10
432.0224909563044
 20
165.9555134946413
 30
0.0
 10
432.1816175993164
 20
165.8435831137368
 30
0.0
 10
432.3420443915563
 20
165.7334182933228
 30
0.0
 10
432.5024666103183
 20
165.6260159681159
 30
0.0
 10
432.6628632262033
 20
165.5213492569368
 30
0.0
 10
432.8226345179777
 20
165.4197511650732
 30
0.0
 10
432.983143171236
 20
165.3203490996178
 30
0.0
 10
433.1442896034615
 20
165.2232220254147
 30
0.0
 10
433.3059735567058
 20
165.1284468564006
 30
0.0
 10
433.4680940729421
 20
165.0360983870597
 30
0.0
 10
433.6305491951072
 20
164.9462494553129
 30
0.0
 10
433.7932328648719
 20
164.8589725232876
 30
0.0
 10
433.9560329922489
 20
164.7743403534119
 30
0.0
 10
434.1188372983293
 20
164.6924223547565
 30
0.0
 10
434.2815376274612
 20
164.613283043335
 30
0.0
 10
434.444043033249
 20
164.5369743368128
 30
0.0
 10
434.6058859533546
 20
164.4637222814291
 30
0.0
 10
434.7670596001386
 20
164.3934946870999
 30
0.0
 10
434.9278222917138
 20
164.3261354807089
 30
0.0
 10
435.0888027486055
 20
164.2613781886396
 30
0.0
 10
435.2500877450908
 20
164.1992025221512
 30
0.0
 10
435.4115762514434
 20
164.1396646005497
 30
0.0
 10
435.5731656186687
 20
164.0828183675658
 30
0.0
 10
435.7347511582376
 20
164.0287157534481
 30
0.0
 10
435.896220769337
 20
163.9774081721995
 30
0.0
 10
436.0574564728514
 20
163.9289454246252
 30
0.0
 10
436.2183374707531
 20
163.8833741176497
 30
0.0
 10
436.3787527831474
 20
163.8407345017241
 30
0.0
 10
436.5385754974424
 20
163.8010667644995
 30
0.0
 10
436.6977114771097
 20
163.7643999256699
 30
0.0
 10
436.8546798835168
 20
163.7310556665636
 30
0.0
 10
437.0112568758517
 20
163.7005231901824
 30
0.0
 10
437.1675785615739
 20
163.6728132981805
 30
0.0
 10
437.3247705649051
 20
163.647805780912
 30
0.0
 10
437.4810789297906
 20
163.6258037552806
 30
0.0
 10
437.6365025202046
 20
163.6067989230953
 30
0.0
 10
437.7910447925621
 20
163.5907825924417
 30
0.0
 10
437.9447083523755
 20
163.5777463854811
 30
0.0
 10
438.0974960884579
 20
163.5676821518401
 30
0.0
 10
438.2494106590264
 20
163.560582038911
 30
0.0
 10
438.4004558091848
 20
163.5564384931236
 30
0.0
 10
438.5506319883587
 20
163.5552444346348
 30
0.0
 10
438.6999528627624
 20
163.5569928588387
 30
0.0
 10
438.8484153841669
 20
163.5616795901246
 30
0.0
 10
438.9965214549955
 20
163.5693155720961
 30
0.0
 10
439.143266091536
 20
163.5799247824048
 30
0.0
 10
439.2885546893728
 20
163.5934376900023
 30
0.0
 10
439.4322311084096
 20
163.6097778498145
 30
0.0
 10
439.5752833250218
 20
163.6290586668383
 30
0.0
 10
439.7174286262535
 20
163.6512630278871
 30
0.0
 10
439.8583428336344
 20
163.6763474363848
 30
0.0
 10
439.9971377120368
 20
163.7041551276884
 30
0.0
 10
440.1342892982545
 20
163.7347010953299
 30
0.0
 10
440.2701902661659
 20
163.7680342507794
 30
0.0
 10
440.4055777807066
 20
163.8043874308595
 30
0.0
 10
440.5395743087695
 20
163.8435315330603
 30
0.0
 10
440.6721863769595
 20
163.885459614701
 30
0.0
 10
440.8034249095131
 20
163.9301648371942
 30
0.0
 10
440.9333122324366
 20
163.9776507519153
 30
0.0
 10
441.0618270639288
 20
164.027891496869
 30
0.0
 10
441.1890503625518
 20
164.0809445117431
 30
0.0
 10
441.3149400968093
 20
164.13668542192
 30
0.0
 10
441.4391828492027
 20
164.1954374166831
 30
0.0
 10
441.5248028902446
 20
164.2373499901692
 30
0.0
 10
441.5685753634664
 20
164.2604551052094
 30
0.0
 10
441.5719278885265
 20
164.2622247213971
 30
0.0
  0
SPLINE
  5
120
330
1F
100
AcDbEntity
  8
0
  6
Continuous
 62
     7
370
    30
100
AcDbSpline
210
0.0
220
0.0
230
1.0
 70
     8
 71
     3
 72
    95
 73
    91
 74
     0
 42
0.000000001
 43
0.00000001
 40
0.0
 40
0.0
 40
0.0
 40
0.0
 40
0.017069386943719
 40
0.0398036638605431
 40
0.0620929620273402
 40
0.0839372740385901
 40
0.1053365929636942
 40
0.1262909123272481
 40
0.1456402533307659
 40
0.1645939887096371
 40
0.1831521140572898
 40
0.201314625269302
 40
0.2190815185301561
 40
0.2384434732481634
 40
0.2573126312061156
 40
0.2756889882563996
 40
0.2935725406175845
 40
0.3109632848540979
 40
0.3278612178564634
 40
0.3442663368220958
 40
0.3601786392366614
 40
0.3748434585066989
 40
0.3890632233079795
 40
0.4028379321193654
 40
0.4161675835999508
 40
0.4290521765767963
 40
0.4414917100331061
 40
0.4528127740359775
 40
0.4637381878095236
 40
0.4742679508300886
 40
0.4844020626645646
 40
0.4941405229633109
 40
0.5034833314534509
 40
0.5124304879325788
 40
0.520981992262901
 40
0.5291214684048584
 40
0.5367879105492221
 40
0.5438514016894241
 40
0.5504530412459493
 40
0.5565928292673857
 40
0.5622707658272443
 40
0.5673080229609943
 40
0.571915916738317
 40
0.5760944472631239
 40
0.5798436146445316
 40
0.5831634189945306
 40
0.5860538604268866
 40
0.5880237103981734
 40
0.589728494618303
 40
0.5912642090508149
 40
0.5930686283584264
 40
0.5951956938392602
 40
0.5976454054296396
 40
0.6006857945385096
 40
0.6041101589745719
 40
0.6079184985992536
 40
0.6121108132504031
 40
0.6166871027397247
 40
0.6216474816583851
 40
0.6270467449513547
 40
0.6324216180242199
 40
0.6382035370597428
 40
0.6443925017021777
 40
0.6509885115478002
 40
0.6579915661402288
 40
0.6654016649654408
 40
0.6737739339397235
 40
0.6826114348539073
 40
0.6919141668182708
 40
0.7016821288365646
 40
0.71191531979683
 40
0.7226137384617589
 40
0.7337773834585939
 40
0.7454062532685702
 40
0.7580878595741232
 40
0.7712800487827592
 40
0.7849828185509604
 40
0.7991961663014959
 40
0.8139200892071485
 40
0.8291545841738265
 40
0.8448996478230805
 40
0.8611552764740089
 40
0.8779214661245723
 40
0.8951982124322896
 40
0.9129855106943462
 40
0.9312833558270937
 40
0.9490032241588988
 40
0.9671769484253118
 40
0.9858045233326884
 40
1.0
 40
1.0
 40
1.0
 40
1.0
 10
448.6676802807092
 20
215.3351395227718
 30
0.0
 10
448.5707954251598
 20
215.2786530942345
 30
0.0
 10
448.3448721253845
 20
215.1469338461097
 30
0.0
 10
447.9926104264733
 20
214.9411677190831
 30
0.0
 10
447.6133933763783
 20
214.7193597748178
 30
0.0
 10
447.2418963818881
 20
214.5017365605596
 30
0.0
 10
446.8781056298509
 20
214.2883219689433
 30
0.0
 10
446.5285852758664
 20
214.0829880662982
 30
0.0
 10
446.1930389248676
 20
213.8855983331017
 30
0.0
 10
445.8711717407857
 20
213.6960134605476
 30
0.0
 10
445.5561291656753
 20
213.5102162267815
 30
0.0
 10
445.2479049102204
 20
213.3282176180587
 30
0.0
 10
444.9352355992023
 20
213.143373344059
 30
0.0
 10
444.6186774522196
 20
212.9559987317647
 30
0.0
 10
444.2987861010116
 20
212.7664102990113
 30
0.0
 10
443.9873561550033
 20
212.5816080620476
 30
0.0
 10
443.6843797191057
 20
212.4016055038154
 30
0.0
 10
443.3898490853332
 20
212.2264157303655
 30
0.0
 10
443.1037567349837
 20
212.0560514721745
 30
0.0
 10
442.8260953407693
 20
211.8905250854038
 30
0.0
 10
442.5611140979578
 20
211.7323886599613
 30
0.0
 10
442.308532362219
 20
211.5814993385579
 30
0.0
 10
442.0680703248139
 20
211.4377127718113
 30
0.0
 10
441.8351979529633
 20
211.2983354863938
 30
0.0
 10
441.6099097824675
 20
211.1633765338599
 30
0.0
 10
441.392200514025
 20
211.0328446657679
 30
0.0
 10
441.1858568806144
 20
210.9090237253573
 30
0.0
 10
440.9905925231811
 20
210.791759155663
 30
0.0
 10
440.8061217540937
 20
210.6808952005005
 30
0.0
 10
440.6283715789886
 20
210.5739945469211
 30
0.0
 10
440.4573382410058
 20
210.4710633172376
 30
0.0
 10
440.2930181200751
 20
210.3721074006254
 30
0.0
 10
440.1354077275867
 20
210.2771324498786
 30
0.0
 10
439.9845037284053
 20
210.186143894825
 30
0.0
 10
439.8403949141091
 20
210.0992024297432
 30
0.0
 10
439.7035131665419
 20
210.0165756723857
 30
0.0
 10
439.5750092204883
 20
209.9389656696432
 30
0.0
 10
439.4551611435269
 20
209.8665482685913
 30
0.0
 10
439.343902416475
 20
209.7992906766576
 30
0.0
 10
439.240437630245
 20
209.7367184061223
 30
0.0
 10
439.1457686137027
 20
209.6794432733725
 30
0.0
 10
439.0597102716642
 20
209.6273592742906
 30
0.0
 10
438.9820778504093
 20
209.5803598780754
 30
0.0
 10
438.9116827521435
 20
209.5377297063129
 30
0.0
 10
438.8485233551405
 20
209.4994713881348
 30
0.0
 10
438.7925981955474
 20
209.4655872772754
 30
0.0
 10
438.7466644231219
 20
209.4377510952496
 30
0.0
 10
438.7097985054633
 20
209.415406524666
 30
0.0
 10
438.6805387604198
 20
209.3976699407439
 30
0.0
 10
438.6522054130083
 20
209.3804930874081
 30
0.0
 10
438.6215017374743
 20
209.3618771979306
 30
0.0
 10
438.5856661991977
 20
209.340147009118
 30
0.0
 10
438.5428915019156
 20
209.3142051039236
 30
0.0
 10
438.4928341980878
 20
209.283840979067
 30
0.0
 10
438.4351511778989
 20
209.2488437543801
 30
0.0
 10
438.3710043361358
 20
209.2099155701285
 30
0.0
 10
438.3003950218401
 20
209.1670542970887
 30
0.0
 10
438.2233240669168
 20
209.120257194782
 30
0.0
 10
438.1394848901134
 20
209.0693345066488
 30
0.0
 10
438.0511712924798
 20
209.0156758607396
 30
0.0
 10
437.9582555881229
 20
208.9592010269311
 30
0.0
 10
437.8609177200757
 20
208.9000166871463
 30
0.0
 10
437.756738555583
 20
208.83664772858
 30
0.0
 10
437.6457204268614
 20
208.7690904881414
 30
0.0
 10
437.5278658199917
 20
208.6973410621469
 30
0.0
 10
437.400063705615
 20
208.6194988196989
 30
0.0
 10
437.2619921098357
 20
208.5353580382539
 30
0.0
 10
437.1133296743319
 20
208.4447120437159
 30
0.0
 10
436.9568671184476
 20
208.3492532017575
 30
0.0
 10
436.7926084756609
 20
208.2489752359556
 30
0.0
 10
436.6205579875157
 20
208.1438715599836
 30
0.0
 10
436.4407201045643
 20
208.0339352782079
 30
0.0
 10
436.2530994873206
 20
207.9191591862924
 30
0.0
 10
436.0544103687549
 20
207.7975212351108
 30
0.0
 10
435.8444063882869
 20
207.6688539464681
 30
0.0
 10
435.6228419463747
 20
207.5329886983468
 30
0.0
 10
435.3927592869825
 20
207.3917758290641
 30
0.0
 10
435.1541650238412
 20
207.2452052507383
 30
0.0
 10
434.9070660318845
 20
207.0932665090108
 30
0.0
 10
434.6514694490311
 20
206.9359487838786
 30
0.0
 10
434.3873826772884
 20
206.7732408916328
 30
0.0
 10
434.1148133867014
 20
206.6051312825989
 30
0.0
 10
433.8337695084697
 20
206.4316080555174
 30
0.0
 10
433.5442592706812
 20
206.2526589070666
 30
0.0
 10
433.2462910679501
 20
206.0682713347833
 30
0.0
 10
432.9459501152959
 20
205.8821962982119
 30
0.0
 10
432.6435532093681
 20
205.6946296850836
 30
0.0
 10
432.3394223994062
 20
205.5057593790116
 30
0.0
 10
432.0550370528665
 20
205.3289671207478
 30
0.0
 10
431.8720816503975
 20
205.2150509457005
 30
0.0
 10
431.7929561875806
 20
205.1657839114872
 30
0.0
  0
SPLINE
  5
121
330
1F
100
AcDbEntity
  8
0
  6
Continuous
 62
     7
370
    30
100
AcDbSpline
210
0.0
220
0.0
230
1.0
 70
     8
 71
     3
 72
    33
 73
    29
 74
     0
 42
0.000000001
 43
0.00000001
 40
0.0
 40
0.0
 40
0.0
 40
0.0
 40
0.0222708018745113
 40
0.0606327719784351
 40
0.0987628186838457
 40
0.136539547595374
 40
0.1738558015863903
 40
0.2106138087824334
 40
0.2467578081541037
 40
0.2836152781412506
 40
0.3200206479341882
 40
0.3565902207798189
 40
0.3934585630824077
 40
0.4307797416977589
 40
0.4687303945658
 40
0.5002775865072806
 40
0.5308491874404171
 40
0.572047742770649
 40
0.6132419068619369
 40
0.6542668582749778
 40
0.6950285143617699
 40
0.7354579322346381
 40
0.7755338694741816
 40
0.8165531539080207
 40
0.8685860782765883
 40
0.921690825306101
 40
0.9759401295115975
 40
1.0
 40
1.0
 40
1.0
 40
1.0
 10
430.2048213093697
 20
193.9090050487591
 30
0.0
 10
430.2044879216446
 20
193.8955580132884
 30
0.0
 10
430.2035802658705
 20
193.8589481489432
 30
0.0
 10
430.2003543928834
 20
193.8012789581728
 30
0.0
 10
430.1953232994061
 20
193.7362506230313
 30
0.0
 10
430.1888077820081
 20
193.6739617544836
 30
0.0
 10
430.1810245184789
 20
193.6145881003142
 30
0.0
 10
430.1720939567508
 20
193.5583485021072
 30
0.0
 10
430.1620578990895
 20
193.5048055923178
 30
0.0
 10
430.1508859128353
 20
193.4533158956924
 30
0.0
 10
430.1387158737676
 20
193.404257109091
 30
0.0
 10
430.1256426619165
 20
193.3576735129635
 30
0.0
 10
430.1116529598315
 20
193.3132908312446
 30
0.0
 10
430.0967437497308
 20
193.2709438651828
 30
0.0
 10
430.0819670621582
 20
193.2331848291898
 30
0.0
 10
430.0675380889089
 20
193.19960400725
 30
0.0
 10
430.0527621360655
 20
193.1679042697455
 30
0.0
 10
430.0360478780128
 20
193.1351924413093
 30
0.0
 10
430.0175445520921
 20
193.1024935933453
 30
0.0
 10
429.9990181645096
 20
193.0728329999517
 30
0.0
 10
429.9807875653819
 20
193.0463472401743
 30
0.0
 10
429.9630659898447
 20
193.0229772647743
 30
0.0
 10
429.946139623697
 20
193.0026999973798
 30
0.0
 10
429.9276372783298
 20
192.9826050376638
 30
0.0
 10
429.9074158510866
 20
192.9629742854445
 30
0.0
 10
429.885743687745
 20
192.9446080461314
 30
0.0
 10
429.8682648632908
 20
192.9313477846659
 30
0.0
 10
429.8582327450179
 20
192.9250605626621
 30
0.0
 10
429.8551504565464
 20
192.9231288637554
 30
0.0
  0
LWPOLYLINE
  5
122
330
1F
100
AcDbEntity
  8
0
  6
Continuous
 62
     7
370
    30
100
AcDbPolyline
 90
       31
 70
   128
 43
0.0
 10
452.9758285895
 20
112.9288062886
 10
452.9691651287
 20
112.3448533981
 10
452.9491793131
 20
111.7689941878
 10
452.91588484
 20
111.2016233229
 10
452.8693045278
 20
110.643129651
 10
452.8094703002
 20
110.0938959358
 10
452.7364231646
 20
109.5542985946
 10
452.650213184
 20
109.0247074405
 10
452.5508994423
 20
108.5054854288
 10
452.4385500042
 20
107.9969884083
 10
452.3132418684
 20
107.4995648776
 10
452.1750609149
 20
107.0135557458
 10
452.0241018459
 20
106.5392940994
 10
451.8604681213
 20
106.0771049735
 10
451.6842718874
 20
105.6273051295
 10
451.4956339004
 20
105.1902028378
 10
451.2946834433
 20
104.7660976664
 10
451.0815582375
 20
104.3552802758
 10
450.8564043484
 20
103.9580322198
 10
450.6193760851
 20
103.5746257524
 10
450.3706358952
 20
103.2053236411
 10
450.1103542525
 20
102.8503789872
 10
449.8387095412
 20
102.510035052
 10
449.555887933
 20
102.1845250903
 10
449.2620832597
 20
101.8740721903
 10
448.9574968804
 20
101.5788891209
 10
448.6423375433
 20
101.2991781859
 10
448.3168212429
 20
101.0351310852
 10
447.9811710717
 20
100.7869287834
 10
447.6356170678
 20
100.554741386
 10
447.3300986544
 20
100.3676382701
  0
LWPOLYLINE
  5
123
330
1F
100
AcDbEntity
  8
0
  6
Continuous
 62
     7
370
    30
100
AcDbPolyline
 90
       91
 70
   128
 43
0.0
 10
419.8325419985
 20
147.9999667068
 10
420.1450596946
 20
148.169783345
 10
420.5188779101
 20
148.3530156922
 10
420.9016135766
 20
148.5196635238
 10
421.2930043864
 20
148.6696126277
 10
421.6927820997
 20
148.8027602364
 10
422.1006727288
 20
148.919015097
 10
422.5163967259
 20
149.0182975344
 10
422.9396691745
 20
149.1005395052
 10
423.3701999849
 20
149.165684645
 10
423.8076940926
 20
149.2136883065
 10
424.2518516612
 20
149.2445175905
 10
424.7023682871
 20
149.258151368
 10
425.1589352088
 20
149.2545802952
 10
425.6212395182
 20
149.2338068194
 10
426.0889643749
 20
149.1958451779
 10
426.5617892238
 20
149.1407213875
 10
427.0393900142
 20
149.0684732275
 10
427.5214394224
 20
148.979150213
 10
428.0076070759
 20
148.8728135616
 10
428.4975597796
 20
148.7495361512
 10
428.9909617445
 20
148.6094024699
 10
429.4874748174
 20
148.4525085584
 10
429.9867587131
 20
148.2789619438
 10
430.4884712474
 20
148.0888815664
 10
430.9922685716
 20
147.8823976978
 10
431.497805408
 20
147.6596518517
 10
432.0047352871
 20
147.4207966869
 10
432.5127107844
 20
147.1659959029
 10
433.0213837589
 20
146.8954241275
 10
433.5304055916
 20
146.6092667969
 10
434.0394274242
 20
146.3077200291
 10
434.5481003987
 20
145.9909904893
 10
435.0560758961
 20
145.659295248
 10
435.5630057752
 20
145.3128616325
 10
436.0685426116
 20
144.9519270713
 10
436.5723399358
 20
144.5767389307
 10
437.07405247
 20
144.187554346
 10
437.5733363658
 20
143.7846400449
 10
438.0698494387
 20
143.3682721647
 10
438.5632514035
 20
142.9387360631
 10
439.0532041073
 20
142.4963261228
 10
439.5393717608
 20
142.0413455494
 10
440.021421169
 20
141.5741061639
 10
440.4990219594
 20
141.0949281888
 10
440.9718468082
 20
140.6041400287
 10
441.439571665
 20
140.1020780454
 10
441.9018759743
 20
139.5890863271
 10
442.3584428961
 20
139.0655164526
 10
442.808959522
 20
138.5317272506
 10
443.2531170906
 20
137.9880845535
 10
443.6906111983
 20
137.434960947
 10
444.1211420087
 20
136.8727355142
 10
444.5444144573
 20
136.3017935764
 10
444.9601384544
 20
135.7225264288
 10
445.3680290835
 20
135.135331072
 10
445.7678067968
 20
134.5406099405
 10
446.1591976066
 20
133.9387706263
 10
446.5419332731
 20
133.3302256001
 10
446.9157514885
 20
132.7153919283
 10
447.2803960565
 20
132.0946909872
 10
447.6356170678
 20
131.4685481741
 10
447.9811710717
 20
130.8373926161
 10
448.3168212428
 20
130.2016568756
 10
448.6423375433
 20
129.5617766542
 10
448.9574968804
 20
128.9181904939
 10
449.2620832597
 20
128.2713394764
 10
449.555887933
 20
127.6216669211
 10
449.8387095412
 20
126.9696180811
 10
450.1103542525
 20
126.3156398382
 10
450.3706358952
 20
125.6601803963
 10
450.6193760851
 20
125.0036889747
 10
450.8564043484
 20
124.3466154996
 10
451.0815582375
 20
123.6894102966
 10
451.2946834433
 20
123.0325237812
 10
451.4956339004
 20
122.3764061505
 10
451.6842718874
 20
121.7215070749
 10
451.8604681213
 20
121.0682753895
 10
452.0241018459
 20
120.4171587866
 10
452.1750609149
 20
119.7686035091
 10
452.3132418684
 20
119.1230540442
 10
452.4385500042
 20
118.4809528195
 10
452.5508994423
 20
117.8427398989
 10
452.650213184
 20
117.2088526818
 10
452.7364231646
 20
116.5797256027
 10
452.8094703002
 20
115.955789834
 10
452.8693045278
 20
115.3374729901
 10
452.91588484
 20
114.7251988343
 10
452.9491793131
 20
114.119386989
 10
452.9691651287
 20
113.5204526472
 10
452.9758285895
 20
112.9288062886
  0
LINE
  5
124
330
1F
100
AcDbEntity
  8
0
  6
Continuous
 62
     7
370
    30
100
AcDbLine
 10
427.0536151007
 20
142.2494246635
 30
0.0
 11
427.0520059217
 21
142.253742517
 31
0.0
  0
LINE
  5
125
330
1F
100
AcDbEntity
  8
0
  6
Continuous
 62
     7
370
    30
100
AcDbLine
 10
495.4934370032
 20
84.9500051271
 30
0.0
 11
495.3943422068
 21
84.8969563421
 31
0.0
  0
LINE
  5
126
330
1F
100
AcDbEntity
  8
0
  6
Continuous
 62
     7
370
    30
100
AcDbLine
 10
410.6707517829
 20
231.654770581
 30
0.0
 11
410.7694138253
 21
231.7160221051
 31
0.0
  0
LWPOLYLINE
  5
127
330
1F
100
AcDbEntity
  8
0
  6
Continuous
 62
     7
370
    30
100
AcDbPolyline
 90
       32
 70
   128
 43
0.0
 10
521.2204398226
 20
128.2342734934
 10
521.1998404012
 20
126.4290416414
 10
521.1380562548
 20
124.6488305908
 10
521.035129727
 20
122.8948604094
 10
520.8911313587
 20
121.1683331808
 10
520.7061598392
 20
119.4704321804
 10
520.4803419386
 20
117.8023210648
 10
520.2138324213
 20
116.1651430741
 10
519.9068139395
 20
114.5600202482
 10
519.5594969085
 20
112.9880526581
 10
519.1721193619
 20
111.450317652
 10
518.744946789
 20
109.9478691166
 10
518.2782719526
 20
108.481736755
 10
517.7724146882
 20
107.0529253812
 10
517.2277216851
 20
105.6624142311
 10
516.6445662488
 20
104.3111562915
 10
516.0233480447
 20
103.0000776473
 10
515.364492825
 20
101.7300768461
 10
514.6684521359
 20
100.5020242831
 10
513.9357030091
 20
99.3167616041
 10
513.1667476342
 20
98.1751011291
 10
512.3621130148
 20
97.0778252951
 10
511.5223506072
 20
96.0256861201
 10
510.6480359427
 20
95.0194046878
 10
509.7397682328
 20
94.0596706531
 10
508.798169959
 20
93.1471417699
 10
507.8238864455
 20
92.2824434399
 10
506.8175854178
 20
91.4661682841
 10
505.7799565441
 20
90.6988757367
 10
504.7117109636
 20
89.9810916617
 10
503.6135807983
 20
89.3133079925
 10
502.8156458073
 20
88.8695013317
  0
LWPOLYLINE
  5
128
330
1F
100
AcDbEntity
  8
0
  6
Continuous
 62
     7
370
    30
100
AcDbPolyline
 90
       92
 70
   128
 43
0.0
 10
417.8236948454
 20
236.0958309115
 10
418.6001451038
 20
236.5608975092
 10
419.7274072502
 20
237.1782231071
 10
420.8830288086
 20
237.7446675495
 10
422.0662177737
 20
238.2598426237
 10
423.2761632469
 20
238.7233952545
 10
424.5120359919
 20
239.135007746
 10
425.7729890034
 20
239.4943979995
 10
427.0581580872
 20
239.8013197071
 10
428.3666624525
 20
240.0555625197
 10
429.6976053158
 20
240.2569521922
 10
431.0500745153
 20
240.4053507022
 10
432.4231431363
 20
240.5006563445
 10
433.815870146
 20
240.5428038017
 10
435.227301039
 20
240.5317641878
 10
436.6564684911
 20
240.467545069
 10
438.1023930221
 20
240.3501904576
 10
439.5640836678
 20
240.1797807829
 10
441.0405386583
 20
239.956432835
 10
442.5307461051
 20
239.6802996854
 10
444.0336846945
 20
239.3515705821
 10
445.5483243875
 20
238.9704708195
 10
447.0736271256
 20
238.5372615844
 10
448.6085475426
 20
238.0522397767
 10
450.1520336807
 20
237.5157378062
 10
451.7030277115
 20
236.9281233646
 10
453.2604666613
 20
236.2897991733
 10
454.8232831392
 20
235.6012027079
 10
456.3904060688
 20
234.8628058981
 10
457.9607614223
 20
234.0751148042
 10
459.5332729567
 20
233.2386692701
 10
461.1068629511
 20
232.3540425541
 10
462.6804529455
 20
231.4218409349
 10
464.2529644798
 20
230.4427032971
 10
465.8233198334
 20
229.4173006927
 10
467.390442763
 20
228.3463358813
 10
468.9532592409
 20
227.2305428488
 10
470.5106981906
 20
226.070686304
 10
472.0616922215
 20
224.8675611546
 10
473.6051783596
 20
223.6219919626
 10
475.1400987765
 20
222.3348323787
 10
476.6654015147
 20
221.006964558
 10
478.1800412076
 20
219.6392985546
 10
479.6829797971
 20
218.2327716985
 10
481.1731872439
 20
216.7883479531
 10
482.6496422344
 20
215.3070172541
 10
484.11133288
 20
213.7897948316
 10
485.5572574111
 20
212.2377205141
 10
486.9864248631
 20
210.6518580159
 10
488.3978557561
 20
209.0332942078
 10
489.7905827659
 20
207.3831383726
 10
491.1636513869
 20
205.7025214447
 10
492.5161205864
 20
203.992595235
 10
493.8470634497
 20
202.2545316416
 10
495.155567815
 20
200.4895218463
 10
496.4407368987
 20
198.6987754988
 10
497.7016899102
 20
196.8835198871
 10
498.9375626553
 20
195.0449990968
 10
500.1475081285
 20
193.1844731581
 10
501.3306970935
 20
191.3032171827
 10
502.4863186519
 20
189.4025204893
 10
503.6135807983
 20
187.4836857206
 10
504.7117109636
 20
185.5480279501
 10
505.7799565441
 20
183.5968737809
 10
506.8175854178
 20
181.6315604366
 10
507.8238864455
 20
179.6534348448
 10
508.798169959
 20
177.6638527139
 10
509.7397682328
 20
175.6641776043
 10
510.6480359427
 20
173.6557799933
 10
511.5223506072
 20
171.6400363363
 10
512.3621130148
 20
169.6183281234
 10
513.1667476342
 20
167.5920409323
 10
513.9357030091
 20
165.5625634792
 10
514.6684521359
 20
163.5312866663
 10
515.364492825
 20
161.4996026296
 10
516.0233480447
 20
159.4689037835
 10
516.6445662488
 20
157.4405818679
 10
517.2277216851
 20
155.416026993
 10
517.7724146882
 20
153.3966266878
 10
518.2782719526
 20
151.3837649484
 10
518.744946789
 20
149.3788212896
 10
519.1721193619
 20
147.3831697996
 10
519.5594969085
 20
145.3981781984
 10
519.9068139395
 20
143.4252068999
 10
520.2138324213
 20
141.4656080802
 10
520.4803419386
 20
139.5207247505
 10
520.7061598392
 20
137.5918898365
 10
520.8911313587
 20
135.6804252655
 10
521.035129727
 20
133.7876410597
 10
521.1380562548
 20
131.9148344389
 10
521.1998404012
 20
130.0632889312
 10
521.2204398226
 20
128.2342734934
  0
SPLINE
  5
129
330
1F
100
AcDbEntity
  8
0
  6
Continuous
 62
     7
370
    30
100
AcDbSpline
210
0.0
220
0.0
230
1.0
 70
     8
 71
     3
 72
    51
 73
    47
 74
     0
 42
0.000000001
 43
0.00000001
 40
0.0
 40
0.0
 40
0.0
 40
0.0
 40
0.1222132331214463
 40
0.2444270810636961
 40
0.3666408049017513
 40
0.4888538687893227
 40
0.5346433808650607
 40
0.5575382603112305
 40
0.5689876847912811
 40
0.5804357656577481
 40
0.5919759041557344
 40
0.6035259655956515
 40
0.6150761266269995
 40
0.6266164010480443
 40
0.6381339678459604
 40
0.6496612080317314
 40
0.6611884115291756
 40
0.6727059282555069
 40
0.6845522154495045
 40
0.6964093931101623
 40
0.708266230228133
 40
0.7201120526163871
 40
0.731632171627698
 40
0.7431625112913247
 40
0.7546931435709558
 40
0.7662136619562491
 40
0.7780702043268243
 40
0.789937446543434
 40
0.8018047156611946
 40
0.8136612947482469
 40
0.8251681616113328
 40
0.836685010810058
 40
0.8482016097192373
 40
0.8597081349809532
 40
0.8715534798623552
 40
0.8834098469505824
 40
0.895266506488123
 40
0.9071122505333227
 40
0.9185558937303466
 40
0.9300091338313489
 40
0.9414623749039321
 40
0.9529060194269505
 40
0.9646743337338674
 40
0.976453344298081
 40
0.9882320719013375
 40
1.0
 40
1.0
 40
1.0
 40
1.0
 10
454.8094887751255
 20
200.5849195800728
 30
0.0
 10
454.8057106204253
 20
201.1875353645447
 30
0.0
 10
454.7981542920178
 20
202.3927699650812
 30
0.0
 10
454.7810898357945
 20
204.2038756792336
 30
0.0
 10
454.7583836411375
 20
206.0181469908829
 30
0.0
 10
454.7389291468151
 20
207.4550820833881
 30
0.0
 10
454.7194587826976
 20
208.4039698068733
 30
0.0
 10
454.7146665246519
 20
208.8004062817338
 30
0.0
 10
454.7115430463809
 20
209.0271672379853
 30
0.0
 10
454.7058257355963
 20
209.1995658378282
 30
0.0
 10
454.6942798446008
 20
209.3754491840541
 30
0.0
 10
454.6765335181263
 20
209.5546975775791
 30
0.0
 10
454.6527879329765
 20
209.7364242209507
 30
0.0
 10
454.6230814525879
 20
209.9201605504576
 30
0.0
 10
454.587472218351
 20
210.105637138111
 30
0.0
 10
454.546075191759
 20
210.2925756739107
 30
0.0
 10
454.4989470992432
 20
210.480734554752
 30
0.0
 10
454.4456637596047
 20
210.6715471447222
 30
0.0
 10
454.3860601208117
 20
210.864781245072
 30
0.0
 10
454.3200295920868
 20
211.0601544188598
 30
0.0
 10
454.2482310580254
 20
211.2554480324806
 30
0.0
 10
454.1714712596187
 20
211.4484550668463
 30
0.0
 10
454.0899558808508
 20
211.6388736520015
 30
0.0
 10
454.0040495308721
 20
211.8264613187378
 30
0.0
 10
453.9132200385047
 20
212.0126225746026
 30
0.0
 10
453.8167513605536
 20
212.1987798578962
 30
0.0
 10
453.714627305449
 20
212.3846023939645
 30
0.0
 10
453.6068872711551
 20
212.5697491928654
 30
0.0
 10
453.4947414257949
 20
212.7520687392329
 30
0.0
 10
453.37956182653
 20
212.9294166241784
 30
0.0
 10
453.2616369431797
 20
213.1016143975971
 30
0.0
 10
453.1412671311094
 20
213.2685417612348
 30
0.0
 10
453.0174944792387
 20
213.4315704982025
 30
0.0
 10
452.8892969578687
 20
213.5918943346245
 30
0.0
 10
452.7567065208479
 20
213.7490558351847
 30
0.0
 10
452.6198740875854
 20
213.9027008350735
 30
0.0
 10
452.4803974061941
 20
214.0510369110681
 30
0.0
 10
452.3401903764156
 20
214.192160782014
 30
0.0
 10
452.1995592530977
 20
214.326078768137
 30
0.0
 10
452.0587882023178
 20
214.4528763031994
 30
0.0
 10
451.9165261134655
 20
214.5738694375169
 30
0.0
 10
451.7716909325528
 20
214.6898872794821
 30
0.0
 10
451.6244358960673
 20
214.8005678088687
 30
0.0
 10
451.474955067416
 20
214.9053419791508
 30
0.0
 10
451.3249254915901
 20
215.0036164070726
 30
0.0
 10
451.2247346051631
 20
215.0629118067162
 30
0.0
 10
451.1746621378649
 20
215.0925459088334
 30
0.0
  0
LINE
  5
12A
330
1F
100
AcDbEntity
  8
0
  6
Continuous
 62
     7
370
    30
100
AcDbLine
 10
441.5713775724
 20
164.2631259594
 30
0.0
 11
441.5703506383
 21
164.2626012399
 31
0.0
  0
LINE
  5
12B
330
1F
100
AcDbEntity
  8
0
  6
Continuous
 62
     7
370
    30
100
AcDbLine
 10
425.615916557
 20
191.9032014488
 30
0.0
 11
425.6177620242
 21
191.9044192647
 31
0.0
  0
SPLINE
  5
12C
330
1F
100
AcDbEntity
  8
0
  6
Continuous
 62
     7
370
    30
100
AcDbSpline
210
0.0
220
0.0
230
1.0
 70
     8
 71
     3
 72
    97
 73
    93
 74
     0
 42
0.000000001
 43
0.00000001
 40
0.0
 40
0.0
 40
0.0
 40
0.0
 40
0.0099937570518119
 40
0.0199884424866401
 40
0.0299821995384521
 40
0.0400095636564142
 40
0.05003786555704
 40
0.0600652296750021
 40
0.0732419896653987
 40
0.0864187496557953
 40
0.0996297001390239
 40
0.1128406506222527
 40
0.1231704862638124
 40
0.1335013471592104
 40
0.1438311828007702
 40
0.1541981462963324
 40
0.164566146143301
 40
0.1749331096388634
 40
0.1864951439427449
 40
0.1980600542706243
 40
0.2096249645985037
 40
0.221186998902385
 40
0.2328423120544041
 40
0.2445005714318
 40
0.2561588308091958
 40
0.2678141439612149
 40
0.2780305586383416
 40
0.2882469733154683
 40
0.2984792949698394
 40
0.3087116166242107
 40
0.3189921855026993
 40
0.3292727543811877
 40
0.3395695323444667
 40
0.3498663103077458
 40
0.3614283446116272
 40
0.3729932549395066
 40
0.3845581652673858
 40
0.3961201995712672
 40
0.4077755127232862
 40
0.4194337721006819
 40
0.4310920314780777
 40
0.4427473446300967
 40
0.4529637593072232
 40
0.46318017398435
 40
0.4734124956387212
 40
0.4836448172930924
 40
0.4939253861715809
 40
0.5042059550500692
 40
0.5145027330133479
 40
0.5247995109766265
 40
0.5390034821667911
 40
0.5532101197519667
 40
0.5674140909421315
 40
0.5817151356233136
 40
0.5960189017686732
 40
0.6103199464498554
 40
0.624763073543784
 40
0.6392062006377125
 40
0.6536943950415487
 40
0.6681825894453847
 40
0.676066072537985
 40
0.6839495556305853
 40
0.691840339474196
 40
0.6997311233178068
 40
0.7112931576216882
 40
0.7228580679495675
 40
0.7344229782774466
 40
0.745985012581328
 40
0.7576403257333468
 40
0.7692985851107426
 40
0.7809568444881383
 40
0.7926121576401571
 40
0.8028285723172837
 40
0.8130449869944102
 40
0.8232773086487815
 40
0.8335096303031525
 40
0.843790199181641
 40
0.8540707680601294
 40
0.8643675460234086
 40
0.8746643239866879
 40
0.8862263582905692
 40
0.8977912686184484
 40
0.9093561789463276
 40
0.9209182132502088
 40
0.9325735264022278
 40
0.9442317857796235
 40
0.9558900451570193
 40
0.9675453583090383
 40
0.9777617729861651
 40
0.9879781876632918
 40
0.9982105093176631
 40
1.0
 40
1.0
 40
1.0
 40
1.0
 10
456.0451148458004
 20
197.6614020561079
 30
0.0
 10
456.1130438866643
 20
197.5856167843589
 30
0.0
 10
456.2489082787487
 20
197.4340392006899
 30
0.0
 10
456.4503322294236
 20
197.2023199591697
 30
0.0
 10
456.6501508339533
 20
196.9672580063185
 30
0.0
 10
456.8481148953221
 20
196.7286050754897
 30
0.0
 10
457.044188928287
 20
196.4865267020524
 30
0.0
 10
457.2583621965871
 20
196.2156918176706
 30
0.0
 10
457.4896568418673
 20
195.9149998479867
 30
0.0
 10
457.7371103456064
 20
195.5830333563889
 30
0.0
 10
457.9805253279666
 20
195.2460160723936
 30
0.0
 10
458.2023467145187
 20
194.9290070850156
 30
0.0
 10
458.4032969926275
 20
194.633546335164
 30
0.0
 10
458.5842872690234
 20
194.3606764770608
 30
0.0
 10
458.7625510502737
 20
194.0850455823411
 30
0.0
 10
458.9380019163726
 20
193.806749992633
 30
0.0
 10
459.1105602018152
 20
193.5258940211882
 30
0.0
 10
459.2864562163662
 20
193.2320504040569
 30
0.0
 10
459.4651768453215
 20
192.9250303936131
 30
0.0
 10
459.6461669858189
 20
192.6046968225089
 30
0.0
 10
459.8229484333938
 20
192.2821906092647
 30
0.0
 10
459.9958799444514
 20
191.9568250162647
 30
0.0
 10
460.1648400802207
 20
191.6287124755529
 30
0.0
 10
460.3297243640093
 20
191.2979787904738
 30
0.0
 10
460.4899866291665
 20
190.9656973850492
 30
0.0
 10
460.6391289518343
 20
190.6457901378319
 30
0.0
 10
460.7777318704871
 20
190.3385966661736
 30
0.0
 10
460.9064607053098
 20
190.0442077238781
 30
0.0
 10
461.0314702735412
 20
189.7489610871794
 30
0.0
 10
461.1528981427337
 20
189.4525055951882
 30
0.0
 10
461.2706085418505
 20
189.1551065614664
 30
0.0
 10
461.3845959184971
 20
188.8567221100613
 30
0.0
 10
461.4946210888488
 20
188.5579345539837
 30
0.0
 10
461.6049789067052
 20
188.2466122921157
 30
0.0
 10
461.7149627450341
 20
187.9229976830277
 30
0.0
 10
461.823878079985
 20
187.5872592954364
 30
0.0
 10
461.927502851453
 20
187.2518409953818
 30
0.0
 10
462.0260379925737
 20
186.9160370101113
 30
0.0
 10
462.1193810741521
 20
186.5799928438971
 30
0.0
 10
462.2074522729536
 20
186.2438563067776
 30
0.0
 10
462.2899535255
 20
185.9087236232199
 30
0.0
 10
462.3636685723745
 20
185.5885325934243
 30
0.0
 10
462.4293386408784
 20
185.2832701332491
 30
0.0
 10
462.4877276545856
 20
184.9926890000492
 30
0.0
 10
462.5417457599895
 20
184.7032173655678
 30
0.0
 10
462.5914448742546
 20
184.4145162561084
 30
0.0
 10
462.6367504695049
 20
184.1268569641765
 30
0.0
 10
462.677644361809
 20
183.8402096614282
 30
0.0
 10
462.7140282708639
 20
183.5551413570585
 30
0.0
 10
462.7499123007253
 20
183.2359255394944
 30
0.0
 10
462.7830200025047
 20
182.8837523523377
 30
0.0
 10
462.81076278839
 20
182.50004474396
 30
0.0
 10
462.8298233011353
 20
182.1197700495089
 30
0.0
 10
462.840097698039
 20
181.7432601991597
 30
0.0
 10
462.8415277076999
 20
181.370829310425
 30
0.0
 10
462.834062886707
 20
181.0023986211577
 30
0.0
 10
462.8175926463817
 20
180.6383428400363
 30
0.0
 10
462.792014910563
 20
180.2786026587604
 30
0.0
 10
462.7573592257831
 20
179.9246862116385
 30
0.0
 10
462.7202743962638
 20
179.6297309454354
 30
0.0
 10
462.6849925873019
 20
179.391269306462
 30
0.0
 10
462.6547434729549
 20
179.2068485710341
 30
0.0
 10
462.6218278731926
 20
179.0244600098808
 30
0.0
 10
462.5807353717524
 20
178.8161830355756
 30
0.0
 10
462.5298471287314
 20
178.5834311031848
 30
0.0
 10
462.4672851837988
 20
178.3279084613362
 30
0.0
 10
462.3991128560893
 20
178.077305813777
 30
0.0
 10
462.3251680924421
 20
177.8311116130835
 30
0.0
 10
462.2454176085608
 20
177.5894863056552
 30
0.0
 10
462.1598541121618
 20
177.3525711487231
 30
0.0
 10
462.068744793578
 20
177.1211485501184
 30
0.0
 10
461.9761136861129
 20
176.9046493778911
 30
0.0
 10
461.8827639961781
 20
176.7023991682673
 30
0.0
 10
461.7893970680867
 20
176.5135932725214
 30
0.0
 10
461.6918522173613
 20
176.3292483196519
 30
0.0
 10
461.5900028210054
 20
176.1491586586799
 30
0.0
 10
461.483914177575
 20
175.9735186275139
 30
0.0
 10
461.3735502403327
 20
175.802330575889
 30
0.0
 10
461.2591104290327
 20
175.6359490635728
 30
0.0
 10
461.1357836346131
 20
175.467829630942
 30
0.0
 10
461.003073716485
 20
175.2988628432207
 30
0.0
 10
460.8604418812791
 20
175.1299166438958
 30
0.0
 10
460.7129980234057
 20
174.9674794778006
 30
0.0
 10
460.560415411238
 20
174.8112307794055
 30
0.0
 10
460.4027037904909
 20
174.6613102817594
 30
0.0
 10
460.2398932395367
 20
174.5178354115166
 30
0.0
 10
460.0725130044134
 20
174.3812722676583
 30
0.0
 10
459.9076980851573
 20
174.2570918355446
 30
0.0
 10
459.7462529681415
 20
174.1441984966679
 30
0.0
 10
459.5883500547122
 20
174.0422863790781
 30
0.0
 10
459.4722549264001
 20
173.9710039466981
 30
0.0
 10
459.4078215918075
 20
173.9353819387583
 30
0.0
 10
459.3982304545765
 20
173.9300794727483
 30
0.0
  0
SPLINE
  5
12D
330
1F
100
AcDbEntity
  8
0
  6
Continuous
 62
     7
370
    30
100
AcDbSpline
210
0.0
220
0.0
230
1.0
 70
     8
 71
     3
 72
    26
 73
    22
 74
     0
 42
0.000000001
 43
0.00000001
 40
0.0
 40
0.0
 40
0.0
 40
0.0
 40
0.0525876109215103
 40
0.1052683397189492
 40
0.1586613490886597
 40
0.2120545337385353
 40
0.2658265914026957
 40
0.3195987102209934
 40
0.3741003426483778
 40
0.4287008505178619
 40
0.4812879191644113
 40
0.5339650442003396
 40
0.5873575322303528
 40
0.6407497389385556
 40
0.6945352635183445
 40
0.7483210734429386
 40
0.8028525660891884
 40
0.8574846443870124
 40
0.9097533081692213
 40
0.9621092698820227
 40
1.0
 40
1.0
 40
1.0
 40
1.0
 10
451.1746621378649
 20
215.0925459088334
 30
0.0
 10
451.1258096889123
 20
215.120058074336
 30
0.0
 10
451.028018287053
 20
215.1751311216522
 30
0.0
 10
450.8808879377594
 20
215.2489168626645
 30
0.0
 10
450.7335326152872
 20
215.3161381840032
 30
0.0
 10
450.5859565545571
 20
215.3760550048692
 30
0.0
 10
450.439081141646
 20
215.4284019579919
 30
0.0
 10
450.2925104009702
 20
215.4732104654575
 30
0.0
 10
450.1467823863875
 20
215.5101872227329
 30
0.0
 10
450.0039696941377
 20
215.5387578830881
 30
0.0
 10
449.8648301492958
 20
215.5590272984001
 30
0.0
 10
449.7289942843618
 20
215.5712979395932
 30
0.0
 10
449.5950042928678
 20
215.5756076710721
 30
0.0
 10
449.462914264959
 20
215.5717498168984
 30
0.0
 10
449.3336247288842
 20
215.5595552220596
 30
0.0
 10
449.2067772228077
 20
215.5389878954902
 30
0.0
 10
449.0828903054096
 20
215.5099909720924
 30
0.0
 10
448.9639215169678
 20
215.4731583479794
 30
0.0
 10
448.8505839539237
 20
215.4287515739447
 30
0.0
 10
448.7522015300372
 20
215.3831471528387
 30
0.0
 10
448.6929767282476
 20
215.3488095428968
 30
0.0
 10
448.6681107643505
 20
215.3343926475535
 30
0.0
  0
SPLINE
  5
12E
330
1F
100
AcDbEntity
  8
0
  6
Continuous
 62
     7
370
    30
100
AcDbSpline
210
0.0
220
0.0
230
1.0
 70
     8
 71
     3
 72
    27
 73
    23
 74
     0
 42
0.000000001
 43
0.00000001
 40
0.0
 40
0.0
 40
0.0
 40
0.0
 40
0.048874138211862
 40
0.0977858864869625
 40
0.146660024504664
 40
0.1969537702401267
 40
0.2472885066651034
 40
0.2975822522844246
 40
0.3464563920610165
 40
0.3953681422676885
 40
0.4442422820430659
 40
0.4945360362647446
 40
0.5448707813152711
 40
0.5951645356504793
 40
0.6440386224408821
 40
0.6929503193752036
 40
0.7418244063577055
 40
0.7921180890809556
 40
0.8424527620090644
 40
0.8927464450248426
 40
0.9463732224508894
 40
0.9999999999999999
 40
0.9999999999999999
 40
0.9999999999999999
 40
0.9999999999999999
 10
456.0451148458004
 20
197.6614020561078
 30
0.0
 10
456.0097769298268
 20
197.7013525509767
 30
0.0
 10
455.9390739043311
 20
197.7812842837758
 30
0.0
 10
455.8368036347148
 20
197.9074671253712
 30
0.0
 10
455.7367259809311
 20
198.0390287383804
 30
0.0
 10
455.6395510001302
 20
198.1762361981616
 30
0.0
 10
455.5456263953159
 20
198.3186051466827
 30
0.0
 10
455.4570357939114
 20
198.4630411288873
 30
0.0
 10
455.3739549126981
 20
198.6089834133278
 30
0.0
 10
455.2964379843731
 20
198.7558743391743
 30
0.0
 10
455.223222241237
 20
198.9061054603536
 30
0.0
 10
455.1547555551593
 20
199.0592883920075
 30
0.0
 10
455.091397707871
 20
199.2149498860855
 30
0.0
 10
455.0345418414516
 20
199.3696673234126
 30
0.0
 10
454.9842301619256
 20
199.5229256843416
 30
0.0
 10
454.9403616416707
 20
199.6742632521272
 30
0.0
 10
454.9022185094301
 20
199.8261466380978
 30
0.0
 10
454.8701985976321
 20
199.9780522800831
 30
0.0
 10
454.8445176825772
 20
200.1294675961096
 30
0.0
 10
454.8253257291231
 20
200.2816501703674
 30
0.0
 10
454.8125856435169
 20
200.4342219445666
 30
0.0
 10
454.8105210645901
 20
200.5346870348656
 30
0.0
 10
454.8094887751255
 20
200.5849195800728
 30
0.0
  0
ENDSEC
  0
SECTION
  2
OBJECTS
  0
DICTIONARY
  5
C
330
0
100
AcDbDictionary
281
     1
  3
ACAD_GROUP
350
D
  3
ACAD_LAYOUT
350
1A
  3
ACAD_MLINESTYLE
350
17
  3
ACAD_PLOTSETTINGS
350
19
  3
ACAD_PLOTSTYLENAME
350
E
  3
ACAD_SCALELIST
350
47
  0
DICTIONARY
  5
D
102
{ACAD_REACTORS
330
C
102
}
330
C
100
AcDbDictionary
281
     1
  0
DICTIONARY
  5
1A
102
{ACAD_REACTORS
330
C
102
}
330
C
100
AcDbDictionary
281
     1
  3
Layout1
350
1E
  3
Layout2
350
26
  3
Model
350
22
  0
DICTIONARY
  5
17
102
{ACAD_REACTORS
330
C
102
}
330
C
100
AcDbDictionary
281
     1
  3
Standard
350
18
  0
DICTIONARY
  5
19
102
{ACAD_REACTORS
330
C
102
}
330
C
100
AcDbDictionary
281
     1
  0
ACDBDICTIONARYWDFLT
  5
E
102
{ACAD_REACTORS
330
C
102
}
330
C
100
AcDbDictionary
281
     1
  3
Normal
350
F
100
AcDbDictionaryWithDefault
340
F
  0
DICTIONARY
  5
47
102
{ACAD_REACTORS
330
C
102
}
330
C
100
AcDbDictionary
281
     1
  3
A0
350
48
  3
A1
350
49
  3
A2
350
4A
  3
A3
350
4B
  3
A4
350
4C
  3
A5
350
4D
  3
A6
350
4E
  3
A7
350
4F
  3
A8
350
50
  3
A9
350
51
  3
B0
350
52
  3
B1
350
53
  3
B2
350
54
  3
B3
350
55
  3
B4
350
56
  3
B5
350
57
  3
B6
350
58
  3
B7
350
59
  3
B8
350
5A
  3
B9
350
5B
  3
C0
350
5C
  3
C1
350
5D
  3
C2
350
5E
  3
C3
350
5F
  3
C4
350
60
  3
C5
350
61
  3
C6
350
62
  3
C7
350
63
  3
C8
350
64
  3
C9
350
65
  3
D0
350
66
  3
D1
350
67
  3
D2
350
68
  0
LAYOUT
  5
1E
102
{ACAD_REACTORS
330
1A
102
}
330
1A
100
AcDbPlotSettings
  1

  2
none_device
  4

  6

 40
0.0
 41
0.0
 42
0.0
 43
0.0
 44
0.0
 45
0.0
 46
0.0
 47
0.0
 48
0.0
 49
0.0
140
0.0
141
0.0
142
1.0
143
1.0
 70
   688
 72
     1
 73
     0
 74
     5
  7

 75
    16
147
1.0
148
0.0
149
0.0
100
AcDbLayout
  1
Layout1
 70
     1
 71
     1
 10
0.0
 20
0.0
 11
420.0
 21
297.0
 12
0.0
 22
0.0
 32
0.0
 14
1.0000000000E+20
 24
1.0000000000E+20
 34
1.0000000000E+20
 15
-1.0000000000E+20
 25
-1.0000000000E+20
 35
-1.0000000000E+20
146
0.0
 13
0.0
 23
0.0
 33
0.0
 16
1.0
 26
0.0
 36
0.0
 17
0.0
 27
1.0
 37
0.0
 76
     0
330
1B
  0
LAYOUT
  5
26
102
{ACAD_REACTORS
330
1A
102
}
330
1A
100
AcDbPlotSettings
  1

  2
none_device
  4

  6

 40
0.0
 41
0.0
 42
0.0
 43
0.0
 44
0.0
 45
0.0
 46
0.0
 47
0.0
 48
0.0
 49
0.0
140
0.0
141
0.0
142
1.0
143
1.0
 70
   688
 72
     1
 73
     0
 74
     5
  7

 75
    16
147
1.0
148
0.0
149
0.0
100
AcDbLayout
  1
Layout2
 70
     1
 71
     2
 10
0.0
 20
0.0
 11
0.0
 21
0.0
 12
0.0
 22
0.0
 32
0.0
 14
0.0
 24
0.0
 34
0.0
 15
0.0
 25
0.0
 35
0.0
146
0.0
 13
0.0
 23
0.0
 33
0.0
 16
1.0
 26
0.0
 36
0.0
 17
0.0
 27
1.0
 37
0.0
 76
     0
330
23
  0
LAYOUT
  5
22
102
{ACAD_REACTORS
330
1A
102
}
330
1A
100
AcDbPlotSettings
  1

  2
none_device
  4
Letter_(8.50_x_11.00_Inches)
  6

 40
6.35
 41
6.35
 42
6.35000508
 43
6.35000508
 44
215.9
 45
279.4
 46
0.0
 47
0.0
 48
0.0
 49
0.0
140
0.0
141
0.0
142
1.0
143
1.0
 70
  1712
 72
     1
 73
     0
 74
     0
  7

 75
     0
147
1.0
148
0.0
149
0.0
100
AcDbLayout
  1
Model
 70
     1
 71
     0
 10
0.0
 20
0.0
 11
548.0
 21
503.0
 12
0.0
 22
0.0
 32
0.0
 14
0.0
 24
0.0
 34
0.0
 15
548.0
 25
503.0
 35
0.0
146
0.0
 13
0.0
 23
0.0
 33
0.0
 16
1.0
 26
0.0
 36
0.0
 17
0.0
 27
1.0
 37
0.0
 76
     0
330
1F
331
29
  0
MLINESTYLE
  5
18
102
{ACAD_REACTORS
330
17
102
}
330
17
100
AcDbMlineStyle
  2
Standard
 70
     0
  3

 62
   256
 51
90.0
 52
90.0
 71
     2
 49
0.5
 62
   256
  6
BYLAYER
 49
-0.5
 62
   256
  6
BYLAYER
  0
ACDBPLACEHOLDER
  5
F
102
{ACAD_REACTORS
330
E
102
}
330
E
  0
SCALE
  5
48
102
{ACAD_REACTORS
330
47
102
}
330
47
100
AcDbScale
 70
     0
300
1:1
140
1.0
141
1.0
290
     1
  0
SCALE
  5
49
102
{ACAD_REACTORS
330
47
102
}
330
47
100
AcDbScale
 70
     0
300
1:2
140
1.0
141
2.0
290
     0
  0
SCALE
  5
4A
102
{ACAD_REACTORS
330
47
102
}
330
47
100
AcDbScale
 70
     0
300
1:4
140
1.0
141
4.0
290
     0
  0
SCALE
  5
4B
102
{ACAD_REACTORS
330
47
102
}
330
47
100
AcDbScale
 70
     0
300
1:5
140
1.0
141
5.0
290
     0
  0
SCALE
  5
4C
102
{ACAD_REACTORS
330
47
102
}
330
47
100
AcDbScale
 70
     0
300
1:8
140
1.0
141
8.0
290
     0
  0
SCALE
  5
4D
102
{ACAD_REACTORS
330
47
102
}
330
47
100
AcDbScale
 70
     0
300
1:10
140
1.0
141
10.0
290
     0
  0
SCALE
  5
4E
102
{ACAD_REACTORS
330
47
102
}
330
47
100
AcDbScale
 70
     0
300
1:16
140
1.0
141
16.0
290
     0
  0
SCALE
  5
4F
102
{ACAD_REACTORS
330
47
102
}
330
47
100
AcDbScale
 70
     0
300
1:20
140
1.0
141
20.0
290
     0
  0
SCALE
  5
50
102
{ACAD_REACTORS
330
47
102
}
330
47
100
AcDbScale
 70
     0
300
1:30
140
1.0
141
30.0
290
     0
  0
SCALE
  5
51
102
{ACAD_REACTORS
330
47
102
}
330
47
100
AcDbScale
 70
     0
300
1:40
140
1.0
141
40.0
290
     0
  0
SCALE
  5
52
102
{ACAD_REACTORS
330
47
102
}
330
47
100
AcDbScale
 70
     0
300
1:50
140
1.0
141
50.0
290
     0
  0
SCALE
  5
53
102
{ACAD_REACTORS
330
47
102
}
330
47
100
AcDbScale
 70
     0
300
1:100
140
1.0
141
100.0
290
     0
  0
SCALE
  5
54
102
{ACAD_REACTORS
330
47
102
}
330
47
100
AcDbScale
 70
     0
300
2:1
140
2.0
141
1.0
290
     0
  0
SCALE
  5
55
102
{ACAD_REACTORS
330
47
102
}
330
47
100
AcDbScale
 70
     0
300
4:1
140
4.0
141
1.0
290
     0
  0
SCALE
  5
56
102
{ACAD_REACTORS
330
47
102
}
330
47
100
AcDbScale
 70
     0
300
8:1
140
8.0
141
1.0
290
     0
  0
SCALE
  5
57
102
{ACAD_REACTORS
330
47
102
}
330
47
100
AcDbScale
 70
     0
300
10:1
140
10.0
141
1.0
290
     0
  0
SCALE
  5
58
102
{ACAD_REACTORS
330
47
102
}
330
47
100
AcDbScale
 70
     0
300
100:1
140
100.0
141
1.0
290
     0
  0
SCALE
  5
59
102
{ACAD_REACTORS
330
47
102
}
330
47
100
AcDbScale
 70
     0
300
1/128" = 1'-0"
140
0.0078125
141
12.0
290
     0
  0
SCALE
  5
5A
102
{ACAD_REACTORS
330
47
102
}
330
47
100
AcDbScale
 70
     0
300
1/64" = 1'-0"
140
0.015625
141
12.0
290
     0
  0
SCALE
  5
5B
102
{ACAD_REACTORS
330
47
102
}
330
47
100
AcDbScale
 70
     0
300
1/32" = 1'-0"
140
0.03125
141
12.0
290
     0
  0
SCALE
  5
5C
102
{ACAD_REACTORS
330
47
102
}
330
47
100
AcDbScale
 70
     0
300
1/16" = 1'-0"
140
0.0625
141
12.0
290
     0
  0
SCALE
  5
5D
102
{ACAD_REACTORS
330
47
102
}
330
47
100
AcDbScale
 70
     0
300
3/32" = 1'-0"
140
0.09375
141
12.0
290
     0
  0
SCALE
  5
5E
102
{ACAD_REACTORS
330
47
102
}
330
47
100
AcDbScale
 70
     0
300
1/8" = 1'-0"
140
0.125
141
12.0
290
     0
  0
SCALE
  5
5F
102
{ACAD_REACTORS
330
47
102
}
330
47
100
AcDbScale
 70
     0
300
3/16" = 1'-0"
140
0.1875
141
12.0
290
     0
  0
SCALE
  5
60
102
{ACAD_REACTORS
330
47
102
}
330
47
100
AcDbScale
 70
     0
300
1/4" = 1'-0"
140
0.25
141
12.0
290
     0
  0
SCALE
  5
61
102
{ACAD_REACTORS
330
47
102
}
330
47
100
AcDbScale
 70
     0
300
3/8" = 1'-0"
140
0.375
141
12.0
290
     0
  0
SCALE
  5
62
102
{ACAD_REACTORS
330
47
102
}
330
47
100
AcDbScale
 70
     0
300
1/2" = 1'-0"
140
0.5
141
12.0
290
     0
  0
SCALE
  5
63
102
{ACAD_REACTORS
330
47
102
}
330
47
100
AcDbScale
 70
     0
300
3/4" = 1'-0"
140
0.75
141
12.0
290
     0
  0
SCALE
  5
64
102
{ACAD_REACTORS
330
47
102
}
330
47
100
AcDbScale
 70
     0
300
1" = 1'-0"
140
1.0
141
12.0
290
     0
  0
SCALE
  5
65
102
{ACAD_REACTORS
330
47
102
}
330
47
100
AcDbScale
 70
     0
300
1-1/2" = 1'-0"
140
1.5
141
12.0
290
     0
  0
SCALE
  5
66
102
{ACAD_REACTORS
330
47
102
}
330
47
100
AcDbScale
 70
     0
300
3" = 1'-0"
140
3.0
141
12.0
290
     0
  0
SCALE
  5
67
102
{ACAD_REACTORS
330
47
102
}
330
47
100
AcDbScale
 70
     0
300
6" = 1'-0"
140
6.0
141
12.0
290
     0
  0
SCALE
  5
68
102
{ACAD_REACTORS
330
47
102
}
330
47
100
AcDbScale
 70
     0
300
1'-0" = 1'-0"
140
12.0
141
12.0
290
     0
  0
ENDSEC
  0
EOF
