  0
SECTION
  2
HEADER
  9
$ACADVER
  1
AC1015
  9
$ACADMAINTVER
 70
     6
  9
$DWGCODEPAGE
  3
ANSI_1252
  9
$INSBASE
 10
0.0
 20
0.0
 30
0.0
  9
$EXTMIN
 10
0.0
 20
0.0
 30
0.0
  9
$EXTMAX
 10
675.0
 20
357.0
 30
0.0
  9
$LIMMIN
 10
0.0
 20
0.0
  9
$LIMMAX
 10
675.0
 20
357.0
  9
$ORTHOMODE
 70
     0
  9
$REGENMODE
 70
     1
  9
$FILLMODE
 70
     1
  9
$QTEXTMODE
 70
     0
  9
$MIRRTEXT
 70
     1
  9
$LTSCALE
 40
1.0
  9
$ATTMODE
 70
     1
  9
$TEXTSIZE
 40
3.5
  9
$TRACEWID
 40
1.0
  9
$TEXTSTYLE
  7
Standard
  9
$CLAYER
  8
0
  9
$CELTYPE
  6
ByLayer
  9
$CECOLOR
 62
   256
  9
$CELTSCALE
 40
1.0
  9
$DISPSILH
 70
     0
  9
$DIMSCALE
 40
1.0
  9
$DIMASZ
 40
3.302
  9
$DIMEXO
 40
1.0
  9
$DIMDLI
 40
3.75
  9
$DIMRND
 40
0.0
  9
$DIMDLE
 40
0.0
  9
$DIMEXE
 40
1.0
  9
$DIMTP
 40
0.0
  9
$DIMTM
 40
0.0
  9
$DIMTXT
 40
2.8
  9
$DIMCEN
 40
2.5
  9
$DIMTSZ
 40
0.0
  9
$DIMTOL
 70
     0
  9
$DIMLIM
 70
     0
  9
$DIMTIH
 70
     1
  9
$DIMTOH
 70
     1
  9
$DIMSE1
 70
     0
  9
$DIMSE2
 70
     0
  9
$DIMTAD
 70
     1
  9
$DIMZIN
 70
     0
  9
$DIMBLK
  1

  9
$DIMASO
 70
     1
  9
$DIMSHO
 70
     1
  9
$DIMPOST
  1

  9
$DIMAPOST
  1

  9
$DIMALT
 70
     0
  9
$DIMALTD
 70
     3
  9
$DIMALTF
 40
0.0393700787
  9
$DIMLFAC
 40
1.0
  9
$DIMTOFL
 70
     1
  9
$DIMTVP
 40
0.0
  9
$DIMTIX
 70
     0
  9
$DIMSOXD
 70
     0
  9
$DIMSAH
 70
     0
  9
$DIMBLK1
  1

  9
$DIMBLK2
  1

  9
$DIMSTYLE
  2
ISO-25
  9
$DIMCLRD
 70
     0
  9
$DIMCLRE
 70
     0
  9
$DIMCLRT
 70
     0
  9
$DIMTFAC
 40
1.0
  9
$DIMGAP
 40
1.524
  9
$DIMJUST
 70
     0
  9
$DIMSD1
 70
     0
  9
$DIMSD2
 70
     0
  9
$DIMTOLJ
 70
     0
  9
$DIMTZIN
 70
     0
  9
$DIMALTZ
 70
     0
  9
$DIMALTTZ
 70
     0
  9
$DIMUPT
 70
     0
  9
$DIMDEC
 70
     2
  9
$DIMTDEC
 70
     2
  9
$DIMALTU
 70
     2
  9
$DIMALTTD
 70
     3
  9
$DIMTXSTY
  7
Standard
  9
$DIMAUNIT
 70
     0
  9
$DIMADEC
 70
     2
  9
$DIMALTRND
 40
0.0
  9
$DIMAZIN
 70
     0
  9
$DIMDSEP
 70
    44
  9
$DIMATFIT
 70
     3
  9
$DIMFRAC
 70
     0
  9
$DIMLDRBLK
  1

  9
$DIMLUNIT
 70
     2
  9
$DIMLWD
 70
    -2
  9
$DIMLWE
 70
    -2
  9
$DIMTMOVE
 70
     0
  9
$LUNITS
 70
     2
  9
$LUPREC
 70
     2
  9
$SKETCHINC
 40
1.0
  9
$FILLETRAD
 40
10.0
  9
$AUNITS
 70
     0
  9
$AUPREC
 70
     2
  9
$MENU
  1
.
  9
$ELEVATION
 40
0.0
  9
$PELEVATION
 40
0.0
  9
$THICKNESS
 40
0.0
  9
$LIMCHECK
 70
     0
  9
$CHAMFERA
 40
0.0
  9
$CHAMFERB
 40
0.0
  9
$CHAMFERC
 40
0.0
  9
$CHAMFERD
 40
0.0
  9
$SKPOLY
 70
     0
  9
$TDCREATE
 40
2460355.427652581
  9
$TDUCREATE
 40
2460355.344319248
  9
$TDUPDATE
 40
2460355.427653715
  9
$TDUUPDATE
 40
2460355.344320382
  9
$TDINDWG
 40
0.0000000116
  9
$TDUSRTIMER
 40
0.0000000116
  9
$USRTIMER
 70
     1
  9
$ANGBASE
 50
0.0
  9
$ANGDIR
 70
     0
  9
$PDMODE
 70
     0
  9
$PDSIZE
 40
-1.0
  9
$PLINEWID
 40
0.0
  9
$SPLFRAME
 70
     0
  9
$SPLINETYPE
 70
     6
  9
$SPLINESEGS
 70
     8
  9
$HANDSEED
  5
E8
  9
$SURFTAB1
 70
     6
  9
$SURFTAB2
 70
     6
  9
$SURFTYPE
 70
     6
  9
$SURFU
 70
     6
  9
$SURFV
 70
     6
  9
$UCSBASE
  2

  9
$UCSNAME
  2

  9
$UCSORG
 10
0.0
 20
0.0
 30
0.0
  9
$UCSXDIR
 10
1.0
 20
0.0
 30
0.0
  9
$UCSYDIR
 10
0.0
 20
1.0
 30
0.0
  9
$UCSORTHOREF
  2

  9
$UCSORTHOVIEW
 70
     0
  9
$UCSORGTOP
 10
0.0
 20
0.0
 30
0.0
  9
$UCSORGBOTTOM
 10
0.0
 20
0.0
 30
0.0
  9
$UCSORGLEFT
 10
0.0
 20
0.0
 30
0.0
  9
$UCSORGRIGHT
 10
0.0
 20
0.0
 30
0.0
  9
$UCSORGFRONT
 10
0.0
 20
0.0
 30
0.0
  9
$UCSORGBACK
 10
0.0
 20
0.0
 30
0.0
  9
$PUCSBASE
  2

  9
$PUCSNAME
  2

  9
$PUCSORG
 10
0.0
 20
0.0
 30
0.0
  9
$PUCSXDIR
 10
1.0
 20
0.0
 30
0.0
  9
$PUCSYDIR
 10
0.0
 20
1.0
 30
0.0
  9
$PUCSORTHOREF
  2

  9
$PUCSORTHOVIEW
 70
     0
  9
$PUCSORGTOP
 10
0.0
 20
0.0
 30
0.0
  9
$PUCSORGBOTTOM
 10
0.0
 20
0.0
 30
0.0
  9
$PUCSORGLEFT
 10
0.0
 20
0.0
 30
0.0
  9
$PUCSORGRIGHT
 10
0.0
 20
0.0
 30
0.0
  9
$PUCSORGFRONT
 10
0.0
 20
0.0
 30
0.0
  9
$PUCSORGBACK
 10
0.0
 20
0.0
 30
0.0
  9
$USERI1
 70
     0
  9
$USERI2
 70
     0
  9
$USERI3
 70
     0
  9
$USERI4
 70
     0
  9
$USERI5
 70
     0
  9
$USERR1
 40
0.0
  9
$USERR2
 40
0.0
  9
$USERR3
 40
0.0
  9
$USERR4
 40
0.0
  9
$USERR5
 40
0.0
  9
$WORLDVIEW
 70
     1
  9
$SHADEDGE
 70
     3
  9
$SHADEDIF
 70
    70
  9
$TILEMODE
 70
     1
  9
$MAXACTVP
 70
    64
  9
$PINSBASE
 10
0.0
 20
0.0
 30
0.0
  9
$PLIMCHECK
 70
     0
  9
$PEXTMIN
 10
1.0000000000E+20
 20
1.0000000000E+20
 30
1.0000000000E+20
  9
$PEXTMAX
 10
-1.0000000000E+20
 20
-1.0000000000E+20
 30
-1.0000000000E+20
  9
$PLIMMIN
 10
0.0
 20
0.0
  9
$PLIMMAX
 10
420.0
 20
297.0
  9
$UNITMODE
 70
     0
  9
$VISRETAIN
 70
     1
  9
$PLINEGEN
 70
     0
  9
$PSLTSCALE
 70
     1
  9
$TREEDEPTH
 70
  3020
  9
$CMLSTYLE
  2
Standard
  9
$CMLJUST
 70
     0
  9
$CMLSCALE
 40
20.0
  9
$PROXYGRAPHICS
 70
     1
  9
$MEASUREMENT
 70
     1
  9
$CELWEIGHT
370
    -1
  9
$ENDCAPS
280
     0
  9
$JOINSTYLE
280
     0
  9
$LWDISPLAY
290
     1
  9
$INSUNITS
 70
     4
  9
$HYPERLINKBASE
  1

  9
$STYLESHEET
  1

  9
$XEDIT
290
     1
  9
$CEPSNTYPE
380
     0
  9
$PSTYLEMODE
290
     1
  9
$FINGERPRINTGUID
  2
{CF0ACEDB-D720-46E4-8319-4FAA6C3A1B5D}
  9
$VERSIONGUID
  2
{FAEB1C32-E019-11D5-929B-00C0DF256EC4}
  9
$EXTNAMES
290
     1
  9
$PSVPSCALE
 40
0.0
  9
$OLESTARTUP
290
     0
  0
ENDSEC
  0
SECTION
  2
CLASSES
  0
CLASS
  1
ACDBDICTIONARYWDFLT
  2
AcDbDictionaryWithDefault
  3
ObjectDBX Classes
 90
        0
280
     0
281
     0
  0
CLASS
  1
VISUALSTYLE
  2
AcDbVisualStyle
  3
ObjectDBX Classes
 90
     4095
280
     0
281
     0
  0
CLASS
  1
MATERIAL
  2
AcDbMaterial
  3
ObjectDBX Classes
 90
     1153
280
     0
281
     0
  0
CLASS
  1
SCALE
  2
AcDbScale
  3
ObjectDBX Classes
 90
     1153
280
     0
281
     0
  0
CLASS
  1
TABLESTYLE
  2
AcDbTableStyle
  3
ObjectDBX Classes
 90
     4095
280
     0
281
     0
  0
CLASS
  1
MLEADERSTYLE
  2
AcDbMLeaderStyle
  3
ACDB_MLEADERSTYLE_CLASS
 90
     4095
280
     0
281
     0
  0
CLASS
  1
SUN
  2
AcDbSun
  3
SCENEOE
 90
     1153
280
     0
281
     0
  0
CLASS
  1
ACDBPLACEHOLDER
  2
AcDbPlaceHolder
  3
ObjectDBX Classes
 90
        0
280
     0
281
     0
  0
CLASS
  1
LAYOUT
  2
AcDbLayout
  3
ObjectDBX Classes
 90
        0
280
     0
281
     0
  0
ENDSEC
  0
SECTION
  2
TABLES
  0
TABLE
  2
VPORT
  5
8
330
0
100
AcDbSymbolTable
 70
     1
  0
VPORT
  5
29
330
8
100
AcDbSymbolTableRecord
100
AcDbViewportTableRecord
  2
*Active
 70
     0
 10
0.0
 20
0.0
 11
1.0
 21
1.0
 12
337.5
 22
178.5
 13
0.0
 23
0.0
 14
10.0
 24
10.0
 15
10.0
 25
10.0
 16
0.0
 26
0.0
 36
1.0
 17
0.0
 27
0.0
 37
0.0
 40
357.0
 41
1.8907563025
 42
50.0
 43
0.0
 44
0.0
 50
0.0
 51
0.0
 71
     0
 72
  2000
 73
     1
 74
     3
 75
     0
 76
     0
 77
     0
 78
     0
281
     0
 65
     1
110
0.0
120
0.0
130
0.0
111
1.0
121
0.0
131
0.0
112
0.0
122
1.0
132
0.0
 79
     0
146
0.0
  0
ENDTAB
  0
TABLE
  2
LTYPE
  5
5
330
0
100
AcDbSymbolTable
 70
     6
  0
LTYPE
  5
14
330
5
100
AcDbSymbolTableRecord
100
AcDbLinetypeTableRecord
  2
ByBlock
 70
     0
  3

 72
    65
 73
     0
 40
0.0
  0
LTYPE
  5
15
330
5
100
AcDbSymbolTableRecord
100
AcDbLinetypeTableRecord
  2
ByLayer
 70
     0
  3

 72
    65
 73
     0
 40
0.0
  0
LTYPE
  5
16
330
5
100
AcDbSymbolTableRecord
100
AcDbLinetypeTableRecord
  2
Continuous
 70
     0
  3
Solid line
 72
    65
 73
     0
 40
0.0
  0
LTYPE
  5
6E
330
5
100
AcDbSymbolTableRecord
100
AcDbLinetypeTableRecord
  2
HIDDEN
 70
     0
  3
Hidden __ __ __ __ __ __ __ __ __ __ __ __ __ __
 72
    65
 73
     2
 40
1.905
 49
1.27
 74
     0
 49
-0.635
 74
     0
  0
LTYPE
  5
6F
330
5
100
AcDbSymbolTableRecord
100
AcDbLinetypeTableRecord
  2
PHANTOM
 70
     0
  3
Phantom ______  __  __  ______  __  __  ______
 72
    65
 73
     6
 40
12.7
 49
6.35
 74
     0
 49
-1.27
 74
     0
 49
1.27
 74
     0
 49
-1.27
 74
     0
 49
1.27
 74
     0
 49
-1.27
 74
     0
  0
LTYPE
  5
70
330
5
100
AcDbSymbolTableRecord
100
AcDbLinetypeTableRecord
  2
CENTER
 70
     0
  3
Center ____ _ ____ _ ____ _ ____ _ ____ _ ____
 72
    65
 73
     4
 40
10.16
 49
6.35
 74
     0
 49
-1.27
 74
     0
 49
1.27
 74
     0
 49
-1.27
 74
     0
  0
LTYPE
  5
71
330
5
100
AcDbSymbolTableRecord
100
AcDbLinetypeTableRecord
  2
CENTERX2
 70
     0
  3
Center (2x) ________  __  ________  __  _____
 72
    65
 73
     4
 40
20.32
 49
12.7
 74
     0
 49
-2.54
 74
     0
 49
2.54
 74
     0
 49
-2.54
 74
     0
  0
LTYPE
  5
72
330
5
100
AcDbSymbolTableRecord
100
AcDbLinetypeTableRecord
  2
DOT2
 70
     0
  3
Dot (.5x) ........................................
 72
    65
 73
     2
 40
0.635
 49
0.0
 74
     0
 49
-0.635
 74
     0
  0
ENDTAB
  0
TABLE
  2
LAYER
  5
2
330
0
100
AcDbSymbolTable
 70
     2
  0
LAYER
  5
10
330
2
100
AcDbSymbolTableRecord
100
AcDbLayerTableRecord
  2
0
 70
     0
 62
     7
  6
Continuous
370
    -3
390
F
  0
LAYER
  5
73
330
2
100
AcDbSymbolTableRecord
100
AcDbLayerTableRecord
  2
FORMAT
 70
     0
 62
     7
  6
Continuous
370
    -3
390
F
  0
ENDTAB
  0
TABLE
  2
STYLE
  5
3
330
0
100
AcDbSymbolTable
 70
     2
  0
STYLE
  5
11
330
3
100
AcDbSymbolTableRecord
100
AcDbTextStyleTableRecord
  2
Standard
 70
     0
 40
0.0
 41
1.0
 50
0.0
 71
     0
 42
3.5
  3
txt
  4

  0
STYLE
  5
74
330
3
100
AcDbSymbolTableRecord
100
AcDbTextStyleTableRecord
  2
SLDTEXTSTYLE0
 70
     0
 40
0.0
 41
0.605
 50
0.0
 71
     0
 42
3.5
  3
TXT
  4

  0
ENDTAB
  0
TABLE
  2
VIEW
  5
6
330
0
100
AcDbSymbolTable
 70
     0
  0
ENDTAB
  0
TABLE
  2
UCS
  5
7
330
0
100
AcDbSymbolTable
 70
     0
  0
ENDTAB
  0
TABLE
  2
APPID
  5
9
330
0
100
AcDbSymbolTable
 70
     1
  0
APPID
  5
12
330
9
100
AcDbSymbolTableRecord
100
AcDbRegAppTableRecord
  2
ACAD
 70
     0
  0
ENDTAB
  0
TABLE
  2
DIMSTYLE
  5
A
330
0
100
AcDbSymbolTable
 70
     1
100
AcDbDimStyleTable
  0
DIMSTYLE
105
27
330
A
100
AcDbSymbolTableRecord
100
AcDbDimStyleTableRecord
  2
ISO-25
 70
     0
 41
2.5
 42
0.625
 43
3.75
 44
1.25
 73
     0
 74
     0
 77
     1
 78
     8
140
2.5
141
2.5
143
0.0393700787
147
0.625
171
     3
172
     1
178
     0
271
     2
272
     2
274
     3
278
    44
283
     0
284
     8
340
11
  0
ENDTAB
  0
TABLE
  2
BLOCK_RECORD
  5
1
330
0
100
AcDbSymbolTable
 70
     1
  0
BLOCK_RECORD
  5
1F
330
1
100
AcDbSymbolTableRecord
100
AcDbBlockTableRecord
  2
*Model_Space
340
22
  0
BLOCK_RECORD
  5
1B
330
1
100
AcDbSymbolTableRecord
100
AcDbBlockTableRecord
  2
*Paper_Space
340
1E
  0
BLOCK_RECORD
  5
23
330
1
100
AcDbSymbolTableRecord
100
AcDbBlockTableRecord
  2
*Paper_Space0
340
26
  0
ENDTAB
  0
ENDSEC
  0
SECTION
  2
BLOCKS
  0
BLOCK
  5
20
330
1F
100
AcDbEntity
  8
0
100
AcDbBlockBegin
  2
*Model_Space
 70
     0
 10
0.0
 20
0.0
 30
0.0
  3
*Model_Space
  1

  0
ENDBLK
  5
21
330
1F
100
AcDbEntity
  8
0
100
AcDbBlockEnd
  0
BLOCK
  5
1C
330
1B
100
AcDbEntity
 67
     1
  8
0
100
AcDbBlockBegin
  2
*Paper_Space
 70
     0
 10
0.0
 20
0.0
 30
0.0
  3
*Paper_Space
  1

  0
ENDBLK
  5
1D
330
1B
100
AcDbEntity
 67
     1
  8
0
100
AcDbBlockEnd
  0
BLOCK
  5
24
330
23
100
AcDbEntity
  8
0
100
AcDbBlockBegin
  2
*Paper_Space0
 70
     0
 10
0.0
 20
0.0
 30
0.0
  3
*Paper_Space0
  1

  0
ENDBLK
  5
25
330
23
100
AcDbEntity
  8
0
100
AcDbBlockEnd
  0
ENDSEC
  0
SECTION
  2
ENTITIES
  0
MTEXT
  5
75
330
1F
100
AcDbEntity
  8
0
  6
Continuous
 62
     7
370
     0
100
AcDbMText
 10
7.2782978723
 20
22.1884790273
 30
0.0
 40
10.0
 41
0.0
 71
     1
 72
     1
  1
1:1
  7
SLDTEXTSTYLE0
 73
     1
 44
1.0
  0
LINE
  5
76
330
1F
100
AcDbEntity
  8
0
  6
Continuous
 62
     7
370
    30
100
AcDbLine
 10
325.5
 20
281.25
 30
0.0
 11
325.5
 21
275.0854643588
 31
0.0
  0
LINE
  5
77
330
1F
100
AcDbEntity
  8
0
  6
Continuous
 62
     7
370
    30
100
AcDbLine
 10
349.5
 20
275.0854643588
 30
0.0
 11
349.5
 21
281.25
 31
0.0
  0
SPLINE
  5
78
330
1F
100
AcDbEntity
  8
0
  6
Continuous
 62
     7
370
    30
100
AcDbSpline
210
0.0
220
0.0
230
1.0
 70
     8
 71
     3
 72
   100
 73
    96
 74
     0
 42
0.000000001
 43
0.00000001
 40
0.0
 40
0.0
 40
0.0
 40
0.0
 40
0.0145311249680253
 40
0.0289760054857996
 40
0.0433265938641442
 40
0.0575749547515455
 40
0.0717132813958627
 40
0.085733911050144
 40
0.0996293394430794
 40
0.1133922342446426
 40
0.1276605413672467
 40
0.1417675618769715
 40
0.1557055562301313
 40
0.1694670444682953
 40
0.1830448158507837
 40
0.1964319369078127
 40
0.210810776848896
 40
0.2249465802989397
 40
0.23883152016518
 40
0.2524581860725306
 40
0.2658195847465341
 40
0.2789091381706873
 40
0.2917206796575278
 40
0.3032154697880539
 40
0.314467661623672
 40
0.3254733865125742
 40
0.3362290439642099
 40
0.3467312940633283
 40
0.3569770492041232
 40
0.3676437739706245
 40
0.3780109103800591
 40
0.3880755706790532
 40
0.397835145097806
 40
0.4072872873316916
 40
0.4164298997734669
 40
0.4252611186050316
 40
0.4337792988495874
 40
0.4441364247544755
 40
0.4544980264682889
 40
0.464909605636192
 40
0.4753697957353013
 40
0.4858771902981079
 40
0.5015972350625618
 40
0.5174136754678598
 40
0.5333214083802947
 40
0.5493151555291634
 40
0.5653894715143712
 40
0.5815387526319962
 40
0.5954060318168178
 40
0.6093202632831762
 40
0.6232776984208054
 40
0.6372745249715002
 40
0.6513068726009492
 40
0.6651194328530925
 40
0.678958713637548
 40
0.6928160026770858
 40
0.7065631741902836
 40
0.7204192303919761
 40
0.7341002592881217
 40
0.747604833329739
 40
0.7609317375658304
 40
0.7740799622819687
 40
0.7870486953742871
 40
0.7998373145136182
 40
0.8141505848992124
 40
0.8282303349301446
 40
0.8420764635215563
 40
0.8556891282038251
 40
0.8691608621656355
 40
0.8827684799112595
 40
0.8965241356270109
 40
0.9086759863632441
 40
0.9209303795856995
 40
0.9332820987493968
 40
0.9457258257320191
 40
0.9518386257011684
 40
0.9575876126621198
 40
0.9629719712969732
 40
0.9679950471495353
 40
0.9726600051181075
 40
0.9769698216482653
 40
0.9779921169120891
 40
0.9784950194699824
 40
0.9787493807624437
 40
0.9790216127949255
 40
0.9796559979439263
 40
0.980453525330313
 40
0.9814408501079712
 40
0.9826318091499332
 40
0.9845491498061021
 40
0.9868521521005509
 40
0.9895462776016284
 40
0.9926346036082192
 40
0.9961188691399013
 40
0.9999999999999999
 40
0.9999999999999999
 40
0.9999999999999999
 40
0.9999999999999999
 10
337.5
 20
304.4954173640319
 30
0.0
 10
337.4074914538368
 20
304.4948001509601
 30
0.0
 10
337.2230234138875
 20
304.4935693880707
 30
0.0
 10
336.947343343025
 20
304.4836620200797
 30
0.0
 10
336.6737520205107
 20
304.4680009017272
 30
0.0
 10
336.4025359375794
 20
304.4461542928517
 30
0.0
 10
336.1339719802278
 20
304.4184357680289
 30
0.0
 10
335.8683265240721
 20
304.3849797645582
 30
0.0
 10
335.6058544445722
 20
304.3459855187512
 30
0.0
 10
335.3427506303184
 20
304.3009585041303
 30
0.0
 10
335.0793923666186
 20
304.2498179881731
 30
0.0
 10
334.8161675651576
 20
304.1925080009175
 30
0.0
 10
334.5574245922671
 20
304.1300957510468
 30
0.0
 10
334.3033781976841
 20
304.0628587577453
 30
0.0
 10
334.0542253353614
 20
303.9910827964865
 30
0.0
 10
333.8029184633342
 20
303.9128096660733
 30
0.0
 10
333.5500311121948
 20
303.8278717086878
 30
0.0
 10
333.2961567220872
 20
303.7361419127625
 30
0.0
 10
333.0488579484586
 20
303.6405027235378
 30
0.0
 10
332.8082714696184
 20
303.5413523468326
 30
0.0
 10
332.5745099594654
 20
303.4390888104443
 30
0.0
 10
332.3476632440491
 20
303.3341083494695
 30
0.0
 10
332.1337085587811
 20
303.2296878117507
 30
0.0
 10
331.9322278723247
 20
303.1264836275464
 30
0.0
 10
331.7427842092179
 20
303.0250755534451
 30
0.0
 10
331.5592755982731
 20
302.9226226061398
 30
0.0
 10
331.3816969236748
 20
302.8194071692311
 30
0.0
 10
331.2100313464699
 20
302.7157049039442
 30
0.0
 10
331.0405817091422
 20
302.6094839904676
 30
0.0
 10
330.8736436575849
 20
302.5009267797871
 30
0.0
 10
330.7095025984725
 20
302.3902360062456
 30
0.0
 10
330.5519183948058
 20
302.2801981144214
 30
0.0
 10
330.4008128781264
 20
302.1710984367082
 30
0.0
 10
330.2560993772104
 20
302.063210449968
 30
0.0
 10
330.1176839675653
 20
301.9567956666914
 30
0.0
 10
329.9854664416389
 20
301.8521034179144
 30
0.0
 10
329.8487130005867
 20
301.7407137175401
 30
0.0
 10
329.7061854042153
 20
301.6210153438482
 30
0.0
 10
329.5565500476186
 20
301.491081150197
 30
0.0
 10
329.4085949075589
 20
301.3582531998514
 30
0.0
 10
329.2621860534242
 20
301.2223549582914
 30
0.0
 10
329.0936849248813
 20
301.0606338827737
 30
0.0
 10
328.9044807901249
 20
300.8713002153028
 30
0.0
 10
328.6964049618439
 20
300.652359275102
 30
0.0
 10
328.4927540719333
 20
300.4269427252107
 30
0.0
 10
328.2938220898801
 20
300.1951841101914
 30
0.0
 10
328.0998977801435
 20
299.9572335327002
 30
0.0
 10
327.9204188138391
 20
299.7250983212984
 30
0.0
 10
327.7546910124642
 20
299.4998278841803
 30
0.0
 10
327.6020017947519
 20
299.2823680842384
 30
0.0
 10
327.4537147979851
 20
299.0608906931652
 30
0.0
 10
327.3099871618059
 20
298.8355360249136
 30
0.0
 10
327.1718004340977
 20
298.6078205620313
 30
0.0
 10
327.0391952786237
 20
298.3779691181851
 30
0.0
 10
326.9122157391085
 20
298.14623319102
 30
0.0
 10
326.7905667296215
 20
297.9121247831961
 30
0.0
 10
326.6740430450359
 20
297.675305737066
 30
0.0
 10
326.5632226466699
 20
297.4370017706726
 30
0.0
 10
326.4582717935945
 20
297.1977419118531
 30
0.0
 10
326.3598081140424
 20
296.9593818243669
 30
0.0
 10
326.2676844970303
 20
296.7221363264777
 30
0.0
 10
326.1817475902741
 20
296.4862085474701
 30
0.0
 10
326.1018385912786
 20
296.2517896945295
 30
0.0
 10
326.0245033466479
 20
296.0087161561464
 30
0.0
 10
325.9504288090426
 20
295.7572420431312
 30
0.0
 10
325.8803000001087
 20
295.4976611710301
 30
0.0
 10
325.8170247427899
 20
295.2409171401966
 30
0.0
 10
325.7602190182307
 20
294.9866301818462
 30
0.0
 10
325.7092065364621
 20
294.7326671554978
 30
0.0
 10
325.6635188135738
 20
294.4767677808533
 30
0.0
 10
325.6247105639353
 20
294.2282349464722
 30
0.0
 10
325.5921886928686
 20
293.9874969285688
 30
0.0
 10
325.5653729381523
 20
293.7550500758918
 30
0.0
 10
325.5429374219503
 20
293.5202736739503
 30
0.0
 10
325.52808934394
 20
293.3240823762691
 30
0.0
 10
325.5186934165267
 20
293.1696556187275
 30
0.0
 10
325.5130611613563
 20
293.0600229778533
 30
0.0
 10
325.5086950342646
 20
292.9572745992277
 30
0.0
 10
325.5054159586604
 20
292.861391954568
 30
0.0
 10
325.5030572871451
 20
292.7723174190493
 30
0.0
 10
325.5018272986287
 20
292.7087089221671
 30
0.0
 10
325.5012667971775
 20
292.6715561583541
 30
0.0
 10
325.5011097572463
 20
292.6602445740552
 30
0.0
 10
325.5010225993834
 20
292.653667979998
 30
0.0
 10
325.500932064233
 20
292.6465834417021
 30
0.0
 10
325.500821452051
 20
292.6373829618053
 30
0.0
 10
325.5007019810187
 20
292.6266008326876
 30
0.0
 10
325.5005876133585
 20
292.6153180464215
 30
0.0
 10
325.5004639294229
 20
292.6018115811751
 30
0.0
 10
325.500340625345
 20
292.5862788688107
 30
0.0
 10
325.5002251405018
 20
292.5686888868206
 30
0.0
 10
325.5001290286154
 20
292.5500223186485
 30
0.0
 10
325.5000563679174
 20
292.5302503169743
 30
0.0
 10
325.5000086266869
 20
292.5092629693955
 30
0.0
 10
325.5000029770346
 20
292.4953530023811
 30
0.0
 10
325.5
 20
292.488023267582
 30
0.0
  0
SPLINE
  5
79
330
1F
100
AcDbEntity
  8
0
  6
Continuous
 62
     7
370
    30
100
AcDbSpline
210
0.0
220
0.0
230
1.0
 70
    24
 71
     3
 72
    92
 73
    88
 74
     0
 42
0.000000001
 43
0.00000001
 40
0.0
 40
0.0
 40
0.0
 40
0.0
 40
0.0077304662179743
 40
0.0151926532725921
 40
0.022386562483937
 40
0.0293121938670902
 40
0.0359695465154878
 40
0.0423586189071503
 40
0.0484794091455035
 40
0.0538544545960884
 40
0.0590040649643556
 40
0.0639282386506496
 40
0.0686269741358773
 40
0.0731002700144365
 40
0.0773536946457051
 40
0.0886442142947599
 40
0.1000828811246979
 40
0.1116696846255722
 40
0.1234046130450833
 40
0.1375678464292961
 40
0.1519409678606546
 40
0.1665239594324857
 40
0.1813168084747827
 40
0.196278663131152
 40
0.2112033821894109
 40
0.2290262425359172
 40
0.2467545603393197
 40
0.2643883936510086
 40
0.2819277683781167
 40
0.2993726846241004
 40
0.316414130344766
 40
0.3333644117068475
 40
0.3502234908757231
 40
0.3669913276071738
 40
0.3747208244490983
 40
0.3824307655779331
 40
0.3901612506608446
 40
0.3981716554586093
 40
0.406508489583838
 40
0.4151717468343383
 40
0.4241614214264479
 40
0.4326887059608485
 40
0.4414902657285547
 40
0.4505661001165254
 40
0.4599162110765151
 40
0.4695406040424981
 40
0.4794392890404321
 40
0.48961228196089
 40
0.5000596031199644
 40
0.5107812717389687
 40
0.5217773046337125
 40
0.5330477155862444
 40
0.544592514737016
 40
0.5557289410710763
 40
0.5671092999882532
 40
0.5787335888881464
 40
0.5906018011872993
 40
0.6027139263530902
 40
0.6154825725754856
 40
0.6285114896240951
 40
0.641800654997355
 40
0.6553500442739043
 40
0.6691596326036844
 40
0.6832293966402022
 40
0.6975593169729645
 40
0.7109236259982041
 40
0.7245065270532036
 40
0.738308028463621
 40
0.7523281520953715
 40
0.7665669347446276
 40
0.7810244121352928
 40
0.7935630577163205
 40
0.8062617075530294
 40
0.8191203673872302
 40
0.8321390384748006
 40
0.8453177181808984
 40
0.8584168104840856
 40
0.8716702349901474
 40
0.8850779834021617
 40
0.8986400478889875
 40
0.9126379507250783
 40
0.9267965243343257
 40
0.9411157732310884
 40
0.9555957111162497
 40
0.9702363639117842
 40
0.9850377731863988
 40
1.0
 40
1.0
 40
1.0
 40
1.0
 10
325.5
 20
292.488023267582
 30
0.0
 10
325.5
 20
292.4859659511763
 30
0.0
 10
325.5
 20
292.4819227157565
 30
0.0
 10
325.5
 20
292.4742899154975
 30
0.0
 10
325.5
 20
292.4658002704194
 30
0.0
 10
325.5
 20
292.4564715762883
 30
0.0
 10
325.5
 20
292.4464638084183
 30
0.0
 10
325.5
 20
292.4358943490721
 30
0.0
 10
325.5
 20
292.4251710719744
 30
0.0
 10
325.5
 20
292.4144548882709
 30
0.0
 10
325.5
 20
292.4038842250661
 30
0.0
 10
325.5
 20
292.3932048214505
 30
0.0
 10
325.5
 20
292.3824937942146
 30
0.0
 10
325.5
 20
292.3718202027875
 30
0.0
 10
325.5
 20
292.3552365170365
 30
0.0
 10
325.5
 20
292.3312756192822
 30
0.0
 10
325.5
 20
292.2978201093063
 30
0.0
 10
325.5
 20
292.2608757546558
 30
0.0
 10
325.5
 20
292.2177038290359
 30
0.0
 10
325.5
 20
292.1673543531871
 30
0.0
 10
325.5
 20
292.1087718611458
 30
0.0
 10
325.5
 20
292.0445336541532
 30
0.0
 10
325.5
 20
291.974506019448
 30
0.0
 10
325.5
 20
291.8989222831705
 30
0.0
 10
325.5
 20
291.8128450385225
 30
0.0
 10
325.5
 20
291.7155641173335
 30
0.0
 10
325.5
 20
291.6059890610796
 30
0.0
 10
325.5
 20
291.490052514398
 30
0.0
 10
325.5
 20
291.3679132404763
 30
0.0
 10
325.5
 20
291.2404856322096
 30
0.0
 10
325.5
 20
291.1080523948528
 30
0.0
 10
325.5
 20
290.9708869432465
 30
0.0
 10
325.5
 20
290.8283286320656
 30
0.0
 10
325.5
 20
290.7068074863237
 30
0.0
 10
325.5
 20
290.6093814465902
 30
0.0
 10
325.5
 20
290.5380319186374
 30
0.0
 10
325.5
 20
290.4645450998091
 30
0.0
 10
325.5
 20
290.3877663132263
 30
0.0
 10
325.5
 20
290.3065858700224
 30
0.0
 10
325.5
 20
290.2206898923657
 30
0.0
 10
325.5
 20
290.1325626275401
 30
0.0
 10
325.5
 20
290.0423781029405
 30
0.0
 10
325.5
 20
289.950324203428
 30
0.0
 10
325.5
 20
289.853733488119
 30
0.0
 10
325.5
 20
289.7524593219733
 30
0.0
 10
325.5
 20
289.6463516402435
 30
0.0
 10
325.5
 20
289.5352572811461
 30
0.0
 10
325.5
 20
289.4190191151116
 30
0.0
 10
325.5
 20
289.2974811095713
 30
0.0
 10
325.5
 20
289.1704881854908
 30
0.0
 10
325.5
 20
289.0378827268513
 30
0.0
 10
325.5
 20
288.899505675571
 30
0.0
 10
325.5
 20
288.758041219928
 30
0.0
 10
325.5
 20
288.6136343000952
 30
0.0
 10
325.5
 20
288.4664387606312
 30
0.0
 10
325.5
 20
288.3135518420528
 30
0.0
 10
325.5
 20
288.1548356208847
 30
0.0
 10
325.5
 20
287.9882817235918
 30
0.0
 10
325.5
 20
287.8135656287297
 30
0.0
 10
325.5
 20
287.6303538581696
 30
0.0
 10
325.5
 20
287.4403195931542
 30
0.0
 10
325.5
 20
287.2433101899949
 30
0.0
 10
325.5
 20
287.0391734068836
 30
0.0
 10
325.5
 20
286.8277577056594
 30
0.0
 10
325.5
 20
286.6151520161261
 30
0.0
 10
325.5
 20
286.4017684178793
 30
0.0
 10
325.5
 20
286.1880232594476
 30
0.0
 10
325.5
 20
285.9676818097361
 30
0.0
 10
325.5
 20
285.7406308182695
 30
0.0
 10
325.5
 20
285.5067642598625
 30
0.0
 10
325.5
 20
285.2778521161455
 30
0.0
 10
325.5
 20
285.0546803793784
 30
0.0
 10
325.5
 20
284.8380131898424
 30
0.0
 10
325.5
 20
284.6161073404789
 30
0.0
 10
325.5
 20
284.3889085912315
 30
0.0
 10
325.5
 20
284.1577737910313
 30
0.0
 10
325.5
 20
283.9227400524993
 30
0.0
 10
325.5
 20
283.6838464700385
 30
0.0
 10
325.5
 20
283.4396582570677
 30
0.0
 10
325.5
 20
283.1884070072809
 30
0.0
 10
325.5
 20
282.9299517579143
 30
0.0
 10
325.5
 20
282.6641547625492
 30
0.0
 10
325.5
 20
282.3926790015254
 30
0.0
 10
325.5
 20
282.1155058265759
 30
0.0
 10
325.5
 20
281.8325418055158
 30
0.0
 10
325.5
 20
281.5439902457505
 30
0.0
 10
325.5
 20
281.3483491083796
 30
0.0
 10
325.5
 20
281.2499999999999
 30
0.0
  0
SPLINE
  5
7A
330
1F
100
AcDbEntity
  8
0
  6
Continuous
 62
     7
370
    30
100
AcDbSpline
210
0.0
220
0.0
230
1.0
 70
    24
 71
     3
 72
    96
 73
    92
 74
     0
 42
0.000000001
 43
0.00000001
 40
0.0
 40
0.0
 40
0.0
 40
0.0
 40
0.0154951577681739
 40
0.0307774440397585
 40
0.0458469259030121
 40
0.0607036477965139
 40
0.0753476364379929
 40
0.0895230737004966
 40
0.103493323538838
 40
0.1172583831888116
 40
0.1308182461482842
 40
0.1444433072581496
 40
0.1578546937689091
 40
0.171052398396317
 40
0.184036416457119
 40
0.1968067467211203
 40
0.2093633919999388
 40
0.2217063595041819
 40
0.2358364069936019
 40
0.2496756598167488
 40
0.2632241519803764
 40
0.27648191491589
 40
0.2894489654258922
 40
0.3021253085218925
 40
0.3138110303396407
 40
0.3252383077454852
 40
0.3364071299605245
 40
0.347317484514705
 40
0.3579693582994181
 40
0.3684899585853021
 40
0.37874560402474
 40
0.3887362833397501
 40
0.3984619868719021
 40
0.4079227067625867
 40
0.4171184370243956
 40
0.4260491735244833
 40
0.4347149138985545
 40
0.4435090803420578
 40
0.4520124123460362
 40
0.4602249122456701
 40
0.4682089512011703
 40
0.4762045335428837
 40
0.4842353958113857
 40
0.4986638912424496
 40
0.5132049205777097
 40
0.5278585297200572
 40
0.5426247752225514
 40
0.5575037014595459
 40
0.5724953375036422
 40
0.588978381148825
 40
0.6055955776774973
 40
0.6223469135418738
 40
0.6392323625329203
 40
0.6562518891878463
 40
0.6734054526882028
 40
0.6906930112773885
 40
0.7026559970386392
 40
0.7146808777995141
 40
0.7266235001023994
 40
0.7383877326101346
 40
0.7499735798980078
 40
0.7613810511193434
 40
0.7726101598905111
 40
0.7836609240188782
 40
0.7960451662951927
 40
0.8081975250460391
 40
0.8201180080699634
 40
0.8318066166591334
 40
0.8432633473928077
 40
0.8555979103502369
 40
0.8676518824440566
 40
0.8723106235594758
 40
0.8769260557498305
 40
0.8815714416974691
 40
0.886450406822593
 40
0.8916703554010732
 40
0.8971448509090654
 40
0.9028738920072734
 40
0.9088574770012943
 40
0.9150956038310252
 40
0.9214700979390272
 40
0.9280901193781155
 40
0.9349556652816962
 40
0.9420667325987877
 40
0.9495760082869552
 40
0.9573409223900424
 40
0.9653614720266016
 40
0.9736376549635124
 40
0.9821694700119391
 40
0.9909569175231103
 40
1.0
 40
1.0
 40
1.0
 40
1.0
 10
349.5000000000001
 20
281.25
 30
0.0
 10
349.5000000000001
 20
281.3518430854987
 30
0.0
 10
349.5000000000001
 20
281.554130142634
 30
0.0
 10
349.5000000000001
 20
281.851909088673
 30
0.0
 10
349.5000000000001
 20
282.142934177763
 30
0.0
 10
349.5000000000001
 20
282.4270133972107
 30
0.0
 10
349.5000000000001
 20
282.7026568201783
 30
0.0
 10
349.5000000000001
 20
282.9700134955251
 30
0.0
 10
349.5000000000001
 20
283.2292560541625
 30
0.0
 10
349.5000000000001
 20
283.4820942809929
 30
0.0
 10
349.5000000000001
 20
283.7302350813295
 30
0.0
 10
349.5000000000001
 20
283.973638378164
 30
0.0
 10
349.5000000000001
 20
284.212267409961
 30
0.0
 10
349.5000000000001
 20
284.4445301153578
 30
0.0
 10
349.5000000000001
 20
284.6705085669894
 30
0.0
 10
349.5000000000001
 20
284.8902868549718
 30
0.0
 10
349.5000000000001
 20
285.1039510147954
 30
0.0
 10
349.5000000000001
 20
285.3228075393152
 30
0.0
 10
349.5000000000001
 20
285.5460491912785
 30
0.0
 10
349.5000000000001
 20
285.7728604654659
 30
0.0
 10
349.5000000000001
 20
285.9918798518203
 30
0.0
 10
349.5000000000001
 20
286.2032625761481
 30
0.0
 10
349.5000000000001
 20
286.407167675176
 30
0.0
 10
349.5000000000001
 20
286.6001354968462
 30
0.0
 10
349.5000000000001
 20
286.782659982359
 30
0.0
 10
349.5000000000001
 20
286.9552170701569
 30
0.0
 10
349.5000000000001
 20
287.1216728014971
 30
0.0
 10
349.5000000000001
 20
287.2821585719182
 30
0.0
 10
349.5000000000001
 20
287.4374206234546
 30
0.0
 10
349.5000000000001
 20
287.5875299406187
 30
0.0
 10
349.5000000000001
 20
287.7325588746885
 30
0.0
 10
349.5000000000001
 20
287.8720010568996
 30
0.0
 10
349.5000000000001
 20
288.0059870721666
 30
0.0
 10
349.5000000000001
 20
288.1346458857058
 30
0.0
 10
349.5000000000001
 20
288.2581046879316
 30
0.0
 10
349.5000000000001
 20
288.3764887605007
 30
0.0
 10
349.5000000000001
 20
288.4916379084203
 30
0.0
 10
349.5000000000001
 20
288.603487035079
 30
0.0
 10
349.5000000000001
 20
288.7119772063942
 30
0.0
 10
349.5000000000001
 20
288.8156976264958
 30
0.0
 10
349.5000000000001
 20
288.9160212071246
 30
0.0
 10
349.5000000000001
 20
289.0143458353634
 30
0.0
 10
349.5000000000001
 20
289.1374665004263
 30
0.0
 10
349.5000000000001
 20
289.2843194897184
 30
0.0
 10
349.5000000000001
 20
289.4532606316362
 30
0.0
 10
349.5000000000001
 20
289.6192007603408
 30
0.0
 10
349.5000000000001
 20
289.7820086604546
 30
0.0
 10
349.5000000000001
 20
289.9415551712561
 30
0.0
 10
349.5000000000001
 20
290.1024946090226
 30
0.0
 10
349.5000000000001
 20
290.2642509137194
 30
0.0
 10
349.5000000000001
 20
290.4261965381601
 30
0.0
 10
349.5000000000001
 20
290.5835863726157
 30
0.0
 10
349.5000000000001
 20
290.7362370396721
 30
0.0
 10
349.5000000000001
 20
290.8839621362978
 30
0.0
 10
349.5000000000001
 20
291.0265718419184
 30
0.0
 10
349.5000000000001
 20
291.1494228864512
 30
0.0
 10
349.5000000000001
 20
291.2543234870256
 30
0.0
 10
349.5000000000001
 20
291.3425044584412
 30
0.0
 10
349.5000000000001
 20
291.4270665581836
 30
0.0
 10
349.5000000000001
 20
291.5075159836407
 30
0.0
 10
349.5000000000001
 20
291.5837499070738
 30
0.0
 10
349.5000000000001
 20
291.6558921305186
 30
0.0
 10
349.5000000000001
 20
291.7240658467059
 30
0.0
 10
349.5000000000001
 20
291.7913257419992
 30
0.0
 10
349.5000000000001
 20
291.85724597043
 30
0.0
 10
349.5000000000001
 20
291.9214133043598
 30
0.0
 10
349.5000000000001
 20
291.9811129352897
 30
0.0
 10
349.5000000000001
 20
292.0365269314211
 30
0.0
 10
349.5000000000001
 20
292.0894908369754
 30
0.0
 10
349.5000000000001
 20
292.1397709292726
 30
0.0
 10
349.5000000000001
 20
292.1778282663537
 30
0.0
 10
349.5000000000001
 20
292.2044173669489
 30
0.0
 10
349.5000000000001
 20
292.221279578554
 30
0.0
 10
349.5000000000001
 20
292.2379103142657
 30
0.0
 10
349.5000000000001
 20
292.254717372317
 30
0.0
 10
349.5000000000001
 20
292.2718702864242
 30
0.0
 10
349.5000000000001
 20
292.2892897662834
 30
0.0
 10
349.5000000000001
 20
292.3067843829949
 30
0.0
 10
349.5000000000001
 20
292.3242532995401
 30
0.0
 10
349.5000000000001
 20
292.3414815723381
 30
0.0
 10
349.5000000000001
 20
292.3583713854195
 30
0.0
 10
349.5000000000001
 20
292.3748239110843
 30
0.0
 10
349.5000000000001
 20
292.3908219400093
 30
0.0
 10
349.5000000000001
 20
292.4063584815892
 30
0.0
 10
349.5000000000001
 20
292.4212881757587
 30
0.0
 10
349.5000000000001
 20
292.4354568986664
 30
0.0
 10
349.5000000000001
 20
292.4486278043364
 30
0.0
 10
349.5000000000001
 20
292.4606677133725
 30
0.0
 10
349.5000000000001
 20
292.4713860696896
 30
0.0
 10
349.5000000000001
 20
292.480792410934
 30
0.0
 10
349.5000000000001
 20
292.4855900542162
 30
0.0
 10
349.5000000000001
 20
292.4880232675824
 30
0.0
  0
SPLINE
  5
7B
330
1F
100
AcDbEntity
  8
0
  6
Continuous
 62
     7
370
    30
100
AcDbSpline
210
0.0
220
0.0
230
1.0
 70
     8
 71
     3
 72
   108
 73
   104
 74
     0
 42
0.000000001
 43
0.00000001
 40
0.0
 40
0.0
 40
0.0
 40
0.0
 40
0.0037823232539563
 40
0.0071598042920123
 40
0.0101325290817751
 40
0.0127008391505119
 40
0.0148655067301959
 40
0.0166281091797856
 40
0.0176881593224719
 40
0.0185266827409611
 40
0.019149658272623
 40
0.0195725169276204
 40
0.0197236189230515
 40
0.0199774703252591
 40
0.0202320853980482
 40
0.020637959554362
 40
0.0213802751063759
 40
0.0227618598246597
 40
0.0254081458581796
 40
0.0279658091875072
 40
0.0307082606640596
 40
0.0342153226616083
 40
0.0379347233238611
 40
0.0416557402846681
 40
0.0515194162285511
 40
0.0612291722045546
 40
0.0727561574169387
 40
0.0840663207019073
 40
0.0952672911167085
 40
0.1063709143938827
 40
0.117373076707479
 40
0.1282697581515568
 40
0.1390570366535773
 40
0.1488460217447851
 40
0.1586474492952666
 40
0.1686420031655659
 40
0.1788333695350448
 40
0.189222526707383
 40
0.1998103521658149
 40
0.2121277078075637
 40
0.2247053610182086
 40
0.2375440464628755
 40
0.2506442648061553
 40
0.2640062648170343
 40
0.2746887031560211
 40
0.2855326134419711
 40
0.2965377459558832
 40
0.3077037300188822
 40
0.3189710937825866
 40
0.3333152642813578
 40
0.3476199997081927
 40
0.3618809900366747
 40
0.3760939923484063
 40
0.3902548374590863
 40
0.4043594362342075
 40
0.4184037855724692
 40
0.4323535456931876
 40
0.4462356348511411
 40
0.4600463642530832
 40
0.4737821504576019
 40
0.4874395194160718
 40
0.5007734341747049
 40
0.5140253897174135
 40
0.5271924217729291
 40
0.5402716790452543
 40
0.5489411504205162
 40
0.5575696088248002
 40
0.5661815488248705
 40
0.5750597128222853
 40
0.5842818934983398
 40
0.5938462103287919
 40
0.6031754510893909
 40
0.6128049133834484
 40
0.6227323320496573
 40
0.6329551902119234
 40
0.6434707055386784
 40
0.6546379082878521
 40
0.666110465623203
 40
0.6778843284571391
 40
0.689955087145968
 40
0.7023179588310432
 40
0.714967775970893
 40
0.72789897623505
 40
0.739994711577491
 40
0.7523169829451014
 40
0.764860599626033
 40
0.7776200758158324
 40
0.7905896297886242
 40
0.8037631844170582
 40
0.816522415124188
 40
0.8294559333072297
 40
0.8425577146187647
 40
0.8558215028204336
 40
0.8692408160362735
 40
0.8828089542100355
 40
0.8965190077647914
 40
0.9103638674526497
 40
0.9250046105550345
 40
0.9397766939878519
 40
0.9546713236469909
 40
0.9696795276783513
 40
0.9847921758365197
 40
1.0
 40
1.0
 40
1.0
 40
1.0
 10
349.5000000000001
 20
292.4880232675824
 30
0.0
 10
349.4999992519015
 20
292.4920839264258
 30
0.0
 10
349.4999978357774
 20
292.4997706101551
 30
0.0
 10
349.4999858057506
 20
292.5112069254576
 30
0.0
 10
349.499967484355
 20
292.5218491134727
 30
0.0
 10
349.4999432726474
 20
292.5317725625279
 30
0.0
 10
349.4999142025311
 20
292.5410169869158
 30
0.0
 10
349.4998832012463
 20
292.5491019716578
 30
0.0
 10
349.4998520062027
 20
292.5560889536159
 30
0.0
 10
349.4998236139232
 20
292.56180751037
 30
0.0
 10
349.4997942390622
 20
292.5671827543512
 30
0.0
 10
349.4997669052083
 20
292.5717957482313
 30
0.0
 10
349.4997375698893
 20
292.5763950579573
 30
0.0
 10
349.4997078384338
 20
292.5807859000642
 30
0.0
 10
349.4996663506575
 20
292.5865575260173
 30
0.0
 10
349.499597126646
 20
292.5955409934458
 30
0.0
 10
349.4994580029136
 20
292.6116656059752
 30
0.0
 10
349.4991437516774
 20
292.6421191798988
 30
0.0
 10
349.4985750007804
 20
292.6841364428742
 30
0.0
 10
349.4976780968154
 20
292.7348433054136
 30
0.0
 10
349.4964463986049
 20
292.7910352168162
 30
0.0
 10
349.494735057947
 20
292.8546326244515
 30
0.0
 10
349.4924530427817
 20
292.9244606372375
 30
0.0
 10
349.4881907772691
 20
293.0348105777126
 30
0.0
 10
349.4808427805704
 20
293.1832970423856
 30
0.0
 10
349.4679376105229
 20
293.3813622831721
 30
0.0
 10
349.4509214868517
 20
293.588385617265
 30
0.0
 10
349.4291835763393
 20
293.804533250795
 30
0.0
 10
349.4038854135617
 20
294.0175723852712
 30
0.0
 10
349.3750663353214
 20
294.2281797811987
 30
0.0
 10
349.3428341816406
 20
294.4363268133512
 30
0.0
 10
349.3073137611403
 20
294.6418891845205
 30
0.0
 10
349.2696922308685
 20
294.839200584328
 30
0.0
 10
349.2302584816989
 20
295.0290218616938
 30
0.0
 10
349.188968680203
 20
295.2132669965881
 30
0.0
 10
349.1441726210293
 20
295.3993341481273
 30
0.0
 10
349.0954487858565
 20
295.5882883167586
 30
0.0
 10
349.0426229884663
 20
295.7800679285305
 30
0.0
 10
348.9827729331917
 20
295.9839559113013
 30
0.0
 10
348.9150269219099
 20
296.2000483256739
 30
0.0
 10
348.8384328640607
 20
296.4283728017012
 30
0.0
 10
348.7555390702213
 20
296.6598021437342
 30
0.0
 10
348.6660878661874
 20
296.8941440440216
 30
0.0
 10
348.5768861616203
 20
297.1137963056896
 30
0.0
 10
348.4891631147357
 20
297.3184544192009
 30
0.0
 10
348.4041000939524
 20
297.5078550936367
 30
0.0
 10
348.3144347621812
 20
297.6985372924889
 30
0.0
 10
348.2202167847713
 20
297.8900293502186
 30
0.0
 10
348.1128375149056
 20
298.0987544431443
 30
0.0
 10
347.9916841611001
 20
298.322873625322
 30
0.0
 10
347.8559719500764
 20
298.560760808909
 30
0.0
 10
347.7153042306857
 20
298.7947764709022
 30
0.0
 10
347.5698472138476
 20
299.0247603671604
 30
0.0
 10
347.4197734151327
 20
299.25056173897
 30
0.0
 10
347.2652613519086
 20
299.472039030771
 30
0.0
 10
347.1066095107942
 20
299.6889035753544
 30
0.0
 10
346.9440174205675
 20
299.9010438274764
 30
0.0
 10
346.7776877082483
 20
300.1083588734474
 30
0.0
 10
346.6076959033376
 20
300.3109028143874
 30
0.0
 10
346.4342395731694
 20
300.5085842419714
 30
0.0
 10
346.2585608379057
 20
300.7001849795388
 30
0.0
 10
346.0809328146375
 20
300.8857273261443
 30
0.0
 10
345.9016206550685
 20
301.0652466161827
 30
0.0
 10
345.7197372545265
 20
301.2398212338636
 30
0.0
 10
345.5557581893706
 20
301.3907428221507
 30
0.0
 10
345.4108440157809
 20
301.519545635556
 30
0.0
 10
345.285736154819
 20
301.6276908675827
 30
0.0
 10
345.1581330071845
 20
301.7349622600987
 30
0.0
 10
345.0261105119903
 20
301.8428409149849
 30
0.0
 10
344.8877813139404
 20
301.9525801910734
 30
0.0
 10
344.7455401290966
 20
302.0619897954832
 30
0.0
 10
344.5995819372864
 20
302.1707965466509
 30
0.0
 10
344.4501152188314
 20
302.2787406391909
 30
0.0
 10
344.2943064551548
 20
302.3876068727025
 30
0.0
 10
344.1320796673258
 20
302.4971190898463
 30
0.0
 10
343.9614315428538
 20
302.6082511908624
 30
0.0
 10
343.7821267084342
 20
302.7206524616601
 30
0.0
 10
343.5939390277567
 20
302.8339398868454
 30
0.0
 10
343.3986864603152
 20
302.9466008202834
 30
0.0
 10
343.1963498741335
 20
303.0582738020145
 30
0.0
 10
342.9869271315673
 20
303.1685880108302
 30
0.0
 10
342.7704345681826
 20
303.2771642112306
 30
0.0
 10
342.5533094087662
 20
303.3805674244512
 30
0.0
 10
342.3360702175463
 20
303.4787532349926
 30
0.0
 10
342.1192322601192
 20
303.5717145682218
 30
0.0
 10
341.8966658824734
 20
303.6619485345083
 30
0.0
 10
341.6684630693215
 20
303.7491467779617
 30
0.0
 10
341.4347330240824
 20
303.833001075809
 30
0.0
 10
341.1993054121908
 20
303.911962662115
 30
0.0
 10
340.9625152435698
 20
303.9859681884329
 30
0.0
 10
340.7246970384653
 20
304.0549777158279
 30
0.0
 10
340.4823851405565
 20
304.1198665480915
 30
0.0
 10
340.2357497706038
 20
304.1803839144077
 30
0.0
 10
339.9849759039721
 20
304.2362858005571
 30
0.0
 10
339.7302629659802
 20
304.2873360349018
 30
0.0
 10
339.4718243901463
 20
304.3333077531483
 30
0.0
 10
339.205671817366
 20
304.3746379053083
 30
0.0
 10
338.9319248041318
 20
304.4108003667763
 30
0.0
 10
338.6507423327415
 20
304.4412423813033
 30
0.0
 10
338.3665800582184
 20
304.4652544244997
 30
0.0
 10
338.0797560484194
 20
304.4824796979635
 30
0.0
 10
337.7906000726743
 20
304.4933829412669
 30
0.0
 10
337.5970691887971
 20
304.4947378054702
 30
0.0
 10
337.5
 20
304.4954173640321
 30
0.0
  0
SPLINE
  5
7C
330
1F
100
AcDbEntity
  8
0
  6
Continuous
 62
     7
370
    30
100
AcDbSpline
210
0.0
220
0.0
230
1.0
 70
     8
 71
     3
 72
   505
 73
   501
 74
     0
 42
0.000000001
 43
0.00000001
 40
0.0
 40
0.0
 40
0.0
 40
0.0
 40
0.0007878461559656
 40
0.0016929243393745
 40
0.0027159954563247
 40
0.0038575847387831
 40
0.0050915608341128
 40
0.0062321209174848
 40
0.0072433164374527
 40
0.0082062179135864
 40
0.0090125947698279
 40
0.0097356323628143
 40
0.0104914915757447
 40
0.0112830561360635
 40
0.0125620281479992
 40
0.0139735718457221
 40
0.0154870388395097
 40
0.0170318424948642
 40
0.0186053060288656
 40
0.0202092324530724
 40
0.022207255516668
 40
0.0242954490394863
 40
0.0264407896497386
 40
0.0284660019619486
 40
0.0303450139028288
 40
0.0317189750450471
 40
0.0329957023382347
 40
0.0341213729948418
 40
0.0350850510250886
 40
0.035886756991119
 40
0.0362862652829885
 40
0.0366713968708742
 40
0.0371550856065216
 40
0.0377433587411127
 40
0.0384362184374156
 40
0.0392336644859681
 40
0.040307777205
 40
0.0415203531863931
 40
0.0427381487687604
 40
0.043909643690624
 40
0.0458865008474019
 40
0.0477159403975033
 40
0.0493981622852432
 40
0.0509460286652414
 40
0.0522247126508271
 40
0.053405997232233
 40
0.0545429482556265
 40
0.0557995111088688
 40
0.0571873066804297
 40
0.0587063146795199
 40
0.0603559649891292
 40
0.0620695966768862
 40
0.0656068403643963
 40
0.0692181577399847
 40
0.0706571521868532
 40
0.0720922282145509
 40
0.0734152647825727
 40
0.0746052840408697
 40
0.0755554141843966
 40
0.0763995318470413
 40
0.0771376484194759
 40
0.0778017333857825
 40
0.0785521369560613
 40
0.079410944452213
 40
0.0803781437118693
 40
0.0814537208565113
 40
0.0860426912765027
 40
0.0907259035193684
 40
0.0919477374208527
 40
0.0931623479305059
 40
0.0943697359497002
 40
0.0955699024043535
 40
0.0967628482439961
 40
0.0978923926292683
 40
0.0987345538145506
 40
0.0994613931048812
 40
0.1000729223906393
 40
0.1005691517421865
 40
0.1010136983528002
 40
0.1020128254218372
 40
0.1031811254253801
 40
0.1043671834567644
 40
0.1056880602851083
 40
0.1071437302880524
 40
0.108738388663827
 40
0.1104996373291586
 40
0.1124324442269032
 40
0.1145367614992361
 40
0.116812536293721
 40
0.1177534903560216
 40
0.1187208941320496
 40
0.1197147437514387
 40
0.1207350352095582
 40
0.121781764365071
 40
0.1228471963375278
 40
0.1238197862478514
 40
0.1246629852842281
 40
0.1254755582317706
 40
0.1261157120977473
 40
0.1265877336042247
 40
0.1270698054504879
 40
0.1276862502479182
 40
0.1284166936100465
 40
0.1292611238840086
 40
0.1302923457339576
 40
0.1314543853034029
 40
0.1327233825810946
 40
0.1339808577625402
 40
0.1352106661852103
 40
0.1378559894743944
 40
0.1403635390999041
 40
0.1427333638918828
 40
0.1449655106533624
 40
0.147101336220315
 40
0.1490927600780127
 40
0.1509284060389994
 40
0.1526053642018429
 40
0.1541236720600251
 40
0.1554833637694164
 40
0.1566844700438227
 40
0.1580054307484582
 40
0.1593927039766714
 40
0.160875428848876
 40
0.1625204061552782
 40
0.1643322668866694
 40
0.1663109757763763
 40
0.1684564944683344
 40
0.1705702020231252
 40
0.172832918240223
 40
0.1752476878242042
 40
0.1778144611390455
 40
0.1805331845570184
 40
0.1834038003484071
 40
0.1850776732460462
 40
0.1867991491531995
 40
0.1885641473300331
 40
0.1902285983928793
 40
0.191720849268784
 40
0.1930409350853337
 40
0.193832970790426
 40
0.194546941626263
 40
0.1951828551608735
 40
0.1957241186843928
 40
0.196125084049899
 40
0.1963831286169675
 40
0.1965408101970061
 40
0.1969668785029544
 40
0.1975490181126777
 40
0.1982872189339759
 40
0.1991814682077953
 40
0.2002317504994736
 40
0.2014380476789366
 40
0.2029319177798536
 40
0.204611402722806
 40
0.2064764677250597
 40
0.2085070901736902
 40
0.2106075733154257
 40
0.2127654149231129
 40
0.2149806032237633
 40
0.2191906627432679
 40
0.223593350672796
 40
0.2281885872654351
 40
0.2321973380098851
 40
0.2363418431141592
 40
0.2380071824671081
 40
0.2396929049675962
 40
0.2412998970384417
 40
0.2427551517521502
 40
0.2440837145475749
 40
0.245254327651926
 40
0.2462670096593103
 40
0.2471217766280145
 40
0.2478186420658104
 40
0.2483576169248652
 40
0.2487761986616495
 40
0.2493053054078746
 40
0.249882362923893
 40
0.2506094995872504
 40
0.2514867719081916
 40
0.2525141689583085
 40
0.2537591518033081
 40
0.2551707831881296
 40
0.25674904381972
 40
0.2584939121557968
 40
0.2604018367688012
 40
0.2623576618989475
 40
0.2643057932453098
 40
0.2696234466499227
 40
0.2748829731359455
 40
0.2810685530058766
 40
0.2871718793644815
 40
0.2931934767435485
 40
0.2992238379609534
 40
0.3053306801784659
 40
0.3115139971970168
 40
0.3133504789162586
 40
0.3151935994493854
 40
0.317043358681502
 40
0.3188997565040662
 40
0.320762792814894
 40
0.3226324675181749
 40
0.3245087698151313
 40
0.3262838010492671
 40
0.3277807120838562
 40
0.3290925724716781
 40
0.3302193967842551
 40
0.3311611975216416
 40
0.3319179851052534
 40
0.3324897678729068
 40
0.3328092433717352
 40
0.3330256356320951
 40
0.3332692929349407
 40
0.3335776458878796
 40
0.3339353584548063
 40
0.334331080568098
 40
0.3353070444676173
 40
0.3364575314145172
 40
0.3377825329489186
 40
0.339282039520616
 40
0.3409560404941597
 40
0.3424843278516896
 40
0.3441337765670273
 40
0.345904378784196
 40
0.3477961261234092
 40
0.3498090096795647
 40
0.3519187985837952
 40
0.3569217122127121
 40
0.3619413165061953
 40
0.3690091526935011
 40
0.3761098731350123
 40
0.3832435120539457
 40
0.3904101044771454
 40
0.3976096862175384
 40
0.4047128556601872
 40
0.4118479174696819
 40
0.4190149076909207
 40
0.4262191653748069
 40
0.4336339890541743
 40
0.4411376500620165
 40
0.4487301787304502
 40
0.4564116066999256
 40
0.4641819669090232
 40
0.4703497202966986
 40
0.4765724156166753
 40
0.4828500705352072
 40
0.4891827031972925
 40
0.4955703322225674
 40
0.5024051940918662
 40
0.5093019649810494
 40
0.5162606688137009
 40
0.5232813300897882
 40
0.5303639738787101
 40
0.5375086258120222
 40
0.5443018458997289
 40
0.5511133756168303
 40
0.5578536702018976
 40
0.5645187208661252
 40
0.5711085366498789
 40
0.578015517129791
 40
0.5848378867203671
 40
0.591575654336224
 40
0.5982288282536546
 40
0.6047974161103699
 40
0.6112814249054384
 40
0.6188146694093098
 40
0.6262304513776226
 40
0.6335287787833802
 40
0.6407096583727043
 40
0.6432918151678013
 40
0.6458584417997324
 40
0.6484095384827822
 40
0.6509440215151024
 40
0.653364865929718
 40
0.655609151384749
 40
0.6576768647655109
 40
0.6597473936764049
 40
0.6616042411807916
 40
0.6632473939595858
 40
0.664676840146855
 40
0.6658925693269492
 40
0.6667956494301658
 40
0.6675290857390789
 40
0.6680928738186884
 40
0.6684870101773449
 40
0.6686087841644132
 40
0.6687517636168449
 40
0.6690190896215242
 40
0.6694130901320413
 40
0.669933767939102
 40
0.6705810566543609
 40
0.6713080522661189
 40
0.6729497485260509
 40
0.6747632479394835
 40
0.6767485708243943
 40
0.6789057396778051
 40
0.6812347791650765
 40
0.6837357161055968
 40
0.686011103190777
 40
0.6884122725973534
 40
0.6909392448280071
 40
0.6935809546283145
 40
0.6962095555402045
 40
0.701228655980214
 40
0.7060566262912823
 40
0.7102057672177945
 40
0.7142024584602089
 40
0.7180466633534461
 40
0.721738346200705
 40
0.7249620412454255
 40
0.7280658898624205
 40
0.731145232368323
 40
0.7342323316363559
 40
0.7373271948782354
 40
0.7387741277597201
 40
0.740222753771029
 40
0.7416730736383146
 40
0.7431250880860825
 40
0.744578797837119
 40
0.7459940741144235
 40
0.7469770463543195
 40
0.7478370661990237
 40
0.7485741245450294
 40
0.7491882135737424
 40
0.7496793267479189
 40
0.7500668572172265
 40
0.7509020829543473
 40
0.7519003600788712
 40
0.7530615000271286
 40
0.7543855093374814
 40
0.7558724096716657
 40
0.7575222254594278
 40
0.7593349838729192
 40
0.7615122758930005
 40
0.7638859481492138
 40
0.7664560476324429
 40
0.7691822796809836
 40
0.772012288755644
 40
0.7749458920865308
 40
0.7785363905809995
 40
0.782270893334974
 40
0.786149462662097
 40
0.7901721630016233
 40
0.7917109424934392
 40
0.7932698237853542
 40
0.7948488104472742
 40
0.7964326311490793
 40
0.7978868516799187
 40
0.7991799854803585
 40
0.8002516633160548
 40
0.8011801014608343
 40
0.8019652853856027
 40
0.8026101137845042
 40
0.8031437684553928
 40
0.8035737828968597
 40
0.8039991814587742
 40
0.8045344485139381
 40
0.8051797392737622
 40
0.8059350626627236
 40
0.8070905840573962
 40
0.8084348405637407
 40
0.8099678639853668
 40
0.8120153245746256
 40
0.8141561476206185
 40
0.8162625942644773
 40
0.818334656096545
 40
0.8203723248431971
 40
0.8223755923660284
 40
0.8243444506610519
 40
0.826470442068206
 40
0.828554778539381
 40
0.8305974499764617
 40
0.8325984464734786
 40
0.834536564841916
 40
0.8362968027106135
 40
0.8378618497242726
 40
0.8392316657071917
 40
0.8404062156179428
 40
0.8413854694578857
 40
0.8419211887734289
 40
0.8424866497049718
 40
0.8431720775499397
 40
0.8439774837860136
 40
0.844902881886747
 40
0.8459261160728403
 40
0.8488717623998796
 40
0.852027284209404
 40
0.8553888703766176
 40
0.8588909239040894
 40
0.8625100376663944
 40
0.8638663948761763
 40
0.8652385017483137
 40
0.8666263613358142
 40
0.8680299766918633
 40
0.8694255581770286
 40
0.8706875679996076
 40
0.8719799396566708
 40
0.8730612946684185
 40
0.8739316007578504
 40
0.8745908320605976
 40
0.8749536302157995
 40
0.8754438638976956
 40
0.8760801582497875
 40
0.8768625270128609
 40
0.877790987011445
 40
0.8788655580888228
 40
0.8800845720622402
 40
0.8823382725195096
 40
0.8844481718446672
 40
0.8864142249350998
 40
0.8883610377097813
 40
0.8901426269867437
 40
0.8917625036133855
 40
0.8932501924101396
 40
0.8946122810852514
 40
0.8956513928600406
 40
0.8966032523063763
 40
0.8975769722712778
 40
0.8987201710860149
 40
0.9000336951697662
 40
0.901517582467824
 40
0.9030725318303073
 40
0.9046932528513172
 40
0.9063101363713217
 40
0.9079231775953125
 40
0.9095323719907815
 40
0.9115748654755598
 40
0.913608631917601
 40
0.9155146853899592
 40
0.9172274910242164
 40
0.918747018116909
 40
0.9195151295298619
 40
0.9202244000978508
 40
0.9208770412211141
 40
0.9214730486971662
 40
0.9220145740518494
 40
0.9226290225691735
 40
0.9233909449922797
 40
0.9243003557917117
 40
0.9253572719994057
 40
0.9265617130676344
 40
0.9278885626589369
 40
0.9291973670384838
 40
0.9304663554447974
 40
0.9316955209082467
 40
0.9338455370938813
 40
0.9358616445852515
 40
0.9377437029304875
 40
0.9387340867766322
 40
0.9396169066579974
 40
0.9403921517019495
 40
0.9410598125347333
 40
0.9416198812125723
 40
0.9421065441955562
 40
0.9426876451840664
 40
0.9434195402451208
 40
0.9443022405127675
 40
0.9453357590583913
 40
0.9465201107436616
 40
0.9483733080756672
 40
0.9501211651499245
 40
0.951762424806924
 40
0.9532970720125886
 40
0.9547250935727933
 40
0.9561115934290572
 40
0.9570711041198423
 40
0.9580532820206353
 40
0.9590581283342972
 40
0.9600856442072114
 40
0.9611854929331378
 40
0.9623961033624192
 40
0.9637361322002813
 40
0.965146869434957
 40
0.9665073101202392
 40
0.9688024445368559
 40
0.9709254732090565
 40
0.9728763692870456
 40
0.9746551152792651
 40
0.9762866083899816
 40
0.9777252479460702
 40
0.9789696860935342
 40
0.9800199123632377
 40
0.9808759186997164
 40
0.9812251710551161
 40
0.9815275850882449
 40
0.9818604673788754
 40
0.9823242183316065
 40
0.9829192571448092
 40
0.9836455864758822
 40
0.9845032087619847
 40
0.9854921264218569
 40
0.9872500777115895
 40
0.9889493338938804
 40
0.9905692824094348
 40
0.9921099548736103
 40
0.9935713879590813
 40
0.9946676346474718
 40
0.9958276299314771
 40
0.9971029796005133
 40
0.998493752844429
 40
1.0
 40
1.0
 40
1.0
 40
1.0
 10
325.5000000000001
 20
271.6213627423319
 30
0.0
 10
325.5000118776867
 20
271.6154359728661
 30
0.0
 10
325.5000374004675
 20
271.6027005267305
 30
0.0
 10
325.5002248402178
 20
271.5834908254952
 30
0.0
 10
325.5005404223854
 20
271.5624670421775
 30
0.0
 10
325.501025425222
 20
271.5399200170575
 30
0.0
 10
325.5016671184854
 20
271.5172373027016
 30
0.0
 10
325.5024472170676
 20
271.4953214448334
 30
0.0
 10
325.5032985031625
 20
271.4751449740912
 30
0.0
 10
325.5041705656606
 20
271.4570743219845
 30
0.0
 10
325.5050395543489
 20
271.440884034652
 30
0.0
 10
325.5059207229627
 20
271.4257849761531
 30
0.0
 10
325.5069024065152
 20
271.4101823554672
 30
0.0
 10
325.5082815209884
 20
271.389991453953
 30
0.0
 10
325.5100960939055
 20
271.3659115421221
 30
0.0
 10
325.5124251954082
 20
271.3379877486718
 30
0.0
 10
325.5150930773002
 20
271.3090243811446
 30
0.0
 10
325.5181795555741
 20
271.2786331771912
 30
0.0
 10
325.5216386176469
 20
271.247531774379
 30
0.0
 10
325.5257826248338
 20
271.2132945609783
 30
0.0
 10
325.5308226549521
 20
271.1751859666333
 30
0.0
 10
325.5369521922751
 20
271.1329616784508
 30
0.0
 10
325.5437776778315
 20
271.0900320405794
 30
0.0
 10
325.5508218736398
 20
271.0491802355608
 30
0.0
 10
325.5573020485522
 20
271.0140737154636
 30
0.0
 10
325.5630717992648
 20
270.9844182584915
 30
0.0
 10
325.5679824944604
 20
270.9601747349699
 30
0.0
 10
325.5725393294025
 20
270.9384762802869
 30
0.0
 10
325.5765939768738
 20
270.919749323466
 30
0.0
 10
325.5797277267455
 20
270.9056339920156
 30
0.0
 10
325.5820852766564
 20
270.8951919919733
 30
0.0
 10
325.5840018524453
 20
270.8867953682109
 30
0.0
 10
325.5862024635834
 20
270.877268555306
 30
0.0
 10
325.5888952085958
 20
270.8657775585864
 30
0.0
 10
325.5921067846448
 20
270.852302763827
 30
0.0
 10
325.596133918597
 20
270.8357294853513
 30
0.0
 10
325.6010815391727
 20
270.8158464163449
 30
0.0
 10
325.6068429843263
 20
270.7933392372973
 30
0.0
 10
325.6129682749524
 20
270.770093456036
 30
0.0
 10
325.6206500251046
 20
270.7417358840001
 30
0.0
 10
325.6298077900261
 20
270.7091017865594
 30
0.0
 10
325.6404637127181
 20
270.6726712793107
 30
0.0
 10
325.6508638327436
 20
270.6384256016745
 30
0.0
 10
325.660502613471
 20
270.6077861164668
 30
0.0
 10
325.6691997785717
 20
270.5809493640937
 30
0.0
 10
325.6771090870872
 20
270.5571346771905
 30
0.0
 10
325.6850334744665
 20
270.5337982829686
 30
0.0
 10
325.693613612954
 20
270.5090879297239
 30
0.0
 10
325.7032740141111
 20
270.4819321373919
 30
0.0
 10
325.7141123451722
 20
270.452245543067
 30
0.0
 10
325.7260342363506
 20
270.4204802946215
 30
0.0
 10
325.7433467949171
 20
270.3756500999635
 30
0.0
 10
325.7665048617179
 20
270.3182145543177
 30
0.0
 10
325.7901600964528
 20
270.2627462076001
 30
0.0
 10
325.8086702924245
 20
270.2209592447834
 30
0.0
 10
325.8208868146913
 20
270.193954656249
 30
0.0
 10
325.8325934423522
 20
270.1685853098288
 30
0.0
 10
325.8430329886911
 20
270.1463603217196
 30
0.0
 10
325.8521535100745
 20
270.127230890678
 30
0.0
 10
325.8599808806418
 20
270.1110152876633
 30
0.0
 10
325.8669922186172
 20
270.0966459925855
 30
0.0
 10
325.8737674006372
 20
270.0828915278407
 30
0.0
 10
325.8809827791291
 20
270.0683814477022
 30
0.0
 10
325.8892395846935
 20
270.0519533715158
 30
0.0
 10
325.898640526357
 20
270.0334718501805
 30
0.0
 10
325.920389669694
 20
269.9912783293369
 30
0.0
 10
325.9554563183162
 20
269.925656640163
 30
0.0
 10
325.9928802497325
 20
269.859480813234
 30
0.0
 10
326.0190703706893
 20
269.8147485307347
 30
0.0
 10
326.0326429770379
 20
269.7918897920152
 30
0.0
 10
326.0463010334488
 20
269.7692021593973
 30
0.0
 10
326.0600412597858
 20
269.7466852895761
 30
0.0
 10
326.0736432320896
 20
269.7246900052617
 30
0.0
 10
326.086001590181
 20
269.7049597520668
 30
0.0
 10
326.0966407340393
 20
269.6881559882487
 30
0.0
 10
326.105301744939
 20
269.67459225414
 30
0.0
 10
326.1126341906829
 20
269.6631915233933
 30
0.0
 10
326.1188692728128
 20
269.6535543014073
 30
0.0
 10
326.1266922732927
 20
269.6415231466769
 30
0.0
 10
326.1372934286345
 20
269.6253436236165
 30
0.0
 10
326.151037460518
 20
269.6046050173528
 30
0.0
 10
326.1662608189147
 20
269.5819140509307
 30
0.0
 10
326.1828599139823
 20
269.557490161725
 30
0.0
 10
326.2013975619106
 20
269.5305974277729
 30
0.0
 10
326.2220784376427
 20
269.5010535076514
 30
0.0
 10
326.2451318376203
 20
269.4686662227244
 30
0.0
 10
326.2707993744501
 20
269.4332549829592
 30
0.0
 10
326.2992126101934
 20
269.3948148334221
 30
0.0
 10
326.323590490282
 20
269.3625161559512
 30
0.0
 10
326.3430072115024
 20
269.3371772304785
 30
0.0
 10
326.3565769282192
 20
269.319625699421
 30
0.0
 10
326.3706250726412
 20
269.301619848897
 30
0.0
 10
326.3851602267624
 20
269.2831618393397
 30
0.0
 10
326.4001541346478
 20
269.2643005097858
 30
0.0
 10
326.4150392989106
 20
269.2457548731995
 30
0.0
 10
326.4290495695752
 20
269.2284591760762
 30
0.0
 10
326.4419167142892
 20
269.212703589956
 30
0.0
 10
326.4532243092053
 20
269.1989595958182
 30
0.0
 10
326.4627526957634
 20
269.1874526544877
 30
0.0
 10
326.4706729118583
 20
269.1779347479512
 30
0.0
 10
326.4784964427618
 20
269.168572463566
 30
0.0
 10
326.487640924757
 20
269.157682058184
 30
0.0
 10
326.4986479260882
 20
269.1446505042731
 30
0.0
 10
326.5118107219359
 20
269.1291730992307
 30
0.0
 10
326.5272548849908
 20
269.1111600701056
 30
0.0
 10
326.5449936983888
 20
269.0906651381255
 30
0.0
 10
326.5640529494465
 20
269.0688723550434
 30
0.0
 10
326.5836326097557
 20
269.0467234494227
 30
0.0
 10
326.6106146503927
 20
269.0165193276278
 30
0.0
 10
326.6446094656926
 20
268.9790766618262
 30
0.0
 10
326.6853624195498
 20
268.9351358491371
 30
0.0
 10
326.7244865342319
 20
268.8937820211908
 30
0.0
 10
326.762105303089
 20
268.8547498449822
 30
0.0
 10
326.7980916926309
 20
268.8180557212496
 30
0.0
 10
326.8322526241681
 20
268.7837853801926
 30
0.0
 10
326.8641515995265
 20
268.7522592203472
 30
0.0
 10
326.8936144704685
 20
268.7235344399775
 30
0.0
 10
326.9205396505031
 20
268.6976045046547
 30
0.0
 10
326.9448510647127
 20
268.6744478425063
 30
0.0
 10
326.9681523412177
 20
268.6524682451947
 30
0.0
 10
326.9917792118588
 20
268.6303929089491
 30
0.0
 10
327.017294560395
 20
268.6067944504536
 30
0.0
 10
327.0449943926319
 20
268.5814488370435
 30
0.0
 10
327.0755376937124
 20
268.5538240038066
 30
0.0
 10
327.1094499550404
 20
268.5235404645362
 30
0.0
 10
327.1468497554664
 20
268.4906027238642
 30
0.0
 10
327.1865733062492
 20
268.4561387583562
 30
0.0
 10
327.2285580190076
 20
268.420268071335
 30
0.0
 10
327.2727862822389
 20
268.3830676766439
 30
0.0
 10
327.3205450531204
 20
268.3435598787879
 30
0.0
 10
327.3719612168601
 20
268.3017673523343
 30
0.0
 10
327.4271480096418
 20
268.2577323167839
 30
0.0
 10
327.476972856671
 20
268.2187402757161
 30
0.0
 10
327.5204300296945
 20
268.1852606276769
 30
0.0
 10
327.5565089000839
 20
268.1577873621525
 30
0.0
 10
327.5928197881665
 20
268.1304650017383
 30
0.0
 10
327.6277845449259
 20
268.1044609194572
 30
0.0
 10
327.6598090270088
 20
268.0808970909884
 30
0.0
 10
327.6857482125712
 20
268.0619912707567
 30
0.0
 10
327.7061750675318
 20
268.0472085869505
 30
0.0
 10
327.7217031374287
 20
268.036027784481
 30
0.0
 10
327.735448027373
 20
268.0261756116045
 30
0.0
 10
327.7469415903624
 20
268.0179695338736
 30
0.0
 10
327.7557016095559
 20
268.0117347795235
 30
0.0
 10
327.7616705245287
 20
268.0074958675514
 30
0.0
 10
327.7678266056407
 20
268.0031300939519
 30
0.0
 10
327.7763589990138
 20
267.9970908454513
 30
0.0
 10
327.7891650493148
 20
267.9880570516965
 30
0.0
 10
327.805447907633
 20
267.976620899035
 30
0.0
 10
327.8252404658872
 20
267.9627948217242
 30
0.0
 10
327.848582070406
 20
267.946594225209
 30
0.0
 10
327.8764983106478
 20
267.9273624873562
 30
0.0
 10
327.9092834474314
 20
267.9049766900349
 30
0.0
 10
327.9472505137498
 20
267.8793217188169
 30
0.0
 10
327.9895710822769
 20
267.8510553344947
 30
0.0
 10
328.0354516416222
 20
267.8207987982728
 30
0.0
 10
328.0839645869758
 20
267.7892338322658
 30
0.0
 10
328.1343177764708
 20
267.756921152626
 30
0.0
 10
328.2016442360728
 20
267.714323204879
 30
0.0
 10
328.2876223823632
 20
267.6610389607371
 30
0.0
 10
328.3941885303324
 20
267.5967944641632
 30
0.0
 10
328.500852553575
 20
267.5343109041261
 30
0.0
 10
328.6069951033734
 20
267.4738097244008
 30
0.0
 10
328.6898975685569
 20
267.4277601295971
 30
0.0
 10
328.7538058802763
 20
267.3929070558567
 30
0.0
 10
328.7963146031923
 20
267.3699684515806
 30
0.0
 10
328.8372436945789
 20
267.3481105081527
 30
0.0
 10
328.8752837708101
 20
267.3279906551788
 30
0.0
 10
328.9096974415967
 20
267.3099478744022
 30
0.0
 10
328.9403815356559
 20
267.2939866741654
 30
0.0
 10
328.9670171013813
 20
267.2802264046161
 30
0.0
 10
328.9895639745869
 20
267.2686467193869
 30
0.0
 10
329.0079883856256
 20
267.2592303840963
 30
0.0
 10
329.0225941087638
 20
267.251794691548
 30
0.0
 10
329.0357332765441
 20
267.2451257416469
 30
0.0
 10
329.049228923714
 20
267.2382962527344
 30
0.0
 10
329.0654789857086
 20
267.230101461519
 30
0.0
 10
329.0848495038226
 20
267.2203730378451
 30
0.0
 10
329.1082738241528
 20
267.2086678940031
 30
0.0
 10
329.136386710991
 20
267.1947037720323
 30
0.0
 10
329.1693813308559
 20
267.178431532103
 30
0.0
 10
329.2074609170327
 20
267.1598077852166
 30
0.0
 10
329.2502259479419
 20
267.1390883530856
 30
0.0
 10
329.297706908633
 20
267.1163234626767
 30
0.0
 10
329.3488894283499
 20
267.0920645604224
 30
0.0
 10
329.4022239165592
 20
267.0670916955909
 30
0.0
 10
329.4873206239744
 20
267.0277345133853
 30
0.0
 10
329.6040914903318
 20
266.9749539687315
 30
0.0
 10
329.7626317068235
 20
266.9056564304573
 30
0.0
 10
329.9311211571233
 20
266.8346468471772
 30
0.0
 10
330.1096805419401
 20
266.7623013009402
 30
0.0
 10
330.2893532169167
 20
266.6923036878161
 30
0.0
 10
330.4716132384773
 20
266.6240382376906
 30
0.0
 10
330.6580287327914
 20
266.5569598697123
 30
0.0
 10
330.8036973673171
 20
266.5066555327348
 30
0.0
 10
330.9062506480529
 20
266.4721893395729
 30
0.0
 10
330.9639619060097
 20
266.4530357067246
 30
0.0
 10
331.0220982137175
 20
266.4339838192602
 30
0.0
 10
331.0806600549134
 20
266.4150360922943
 30
0.0
 10
331.1396477685989
 20
266.3961949909652
 30
0.0
 10
331.1990616733635
 20
266.3774629881194
 30
0.0
 10
331.2577545558357
 20
266.3591996311588
 30
0.0
 10
331.3126759284145
 20
266.342328374116
 30
0.0
 10
331.3617278195543
 20
266.3274338948788
 30
0.0
 10
331.403953966106
 20
266.314739687291
 30
0.0
 10
331.4403061032654
 20
266.303906295608
 30
0.0
 10
331.4707467274006
 20
266.2949017671286
 30
0.0
 10
331.495244890342
 20
266.2876992812826
 30
0.0
 10
331.5130485810256
 20
266.2824900451153
 30
0.0
 10
331.525023438387
 20
266.2789975724457
 30
0.0
 10
331.5334533918665
 20
266.2765437431834
 30
0.0
 10
331.541765709148
 20
266.2741281900143
 30
0.0
 10
331.5516117283466
 20
266.2712726724858
 30
0.0
 10
331.5631094481932
 20
266.2679461952328
 30
0.0
 10
331.5818472394491
 20
266.2625398894781
 30
0.0
 10
331.6092048668602
 20
266.2546859265572
 30
0.0
 10
331.6467090120308
 20
266.2440024550443
 30
0.0
 10
331.6899931318191
 20
266.2317840867178
 30
0.0
 10
331.7390960989059
 20
266.2180669208976
 30
0.0
 10
331.7905568221692
 20
266.203859498214
 30
0.0
 10
331.8438024943012
 20
266.1893341277969
 30
0.0
 10
331.8982530882992
 20
266.1746565228184
 30
0.0
 10
331.956869122922
 20
266.1590594059343
 30
0.0
 10
332.0196839058244
 20
266.1425769901015
 30
0.0
 10
332.0864634767411
 20
266.1253154947887
 30
0.0
 10
332.1881202129834
 20
266.0994560014969
 30
0.0
 10
332.3240219540894
 20
266.0658390735592
 30
0.0
 10
332.5169014339012
 20
266.0200103966054
 30
0.0
 10
332.7353480468151
 20
265.9706362399102
 30
0.0
 10
332.9801991858964
 20
265.9185561257064
 30
0.0
 10
333.2284258400291
 20
265.869018079039
 30
0.0
 10
333.4799364644064
 20
265.8220844001743
 30
0.0
 10
333.7331095272265
 20
265.7780820747471
 30
0.0
 10
333.987790963925
 20
265.7370137270149
 30
0.0
 10
334.2438295492883
 20
265.6988793563635
 30
0.0
 10
334.5027101622096
 20
265.6634813974013
 30
0.0
 10
334.7664887667493
 20
265.6306092435579
 30
0.0
 10
335.0357901914187
 20
265.6003300489135
 30
0.0
 10
335.3111717450745
 20
265.57275578474
 30
0.0
 10
335.5910470712236
 20
265.5481837321134
 30
0.0
 10
335.8752999718566
 20
265.5267452460744
 30
0.0
 10
336.1428696871453
 20
265.5098907748286
 30
0.0
 10
336.392998066336
 20
265.4969229685066
 30
0.0
 10
336.6250285921399
 20
265.4871826189652
 30
0.0
 10
336.8594471603619
 20
265.479667663944
 30
0.0
 10
337.0961719669423
 20
265.4744419642531
 30
0.0
 10
337.3400061569399
 20
265.4715104023309
 30
0.0
 10
337.5909495978491
 20
265.4711129622308
 30
0.0
 10
337.8489757794744
 20
265.4735012034009
 30
0.0
 10
338.1091561939591
 20
265.4787573330029
 30
0.0
 10
338.3713617399011
 20
265.486955261168
 30
0.0
 10
338.6354566583872
 20
265.498168070387
 30
0.0
 10
338.8961707423654
 20
265.5121920851743
 30
0.0
 10
339.1528590843411
 20
265.5288630263989
 30
0.0
 10
339.4037970394009
 20
265.5479082321738
 30
0.0
 10
339.6522992723521
 20
265.5694965688491
 30
0.0
 10
339.8971309711589
 20
265.5934442908586
 30
0.0
 10
340.1429536466479
 20
265.6201696806191
 30
0.0
 10
340.3895098760895
 20
265.6497377485834
 30
0.0
 10
340.6365308195254
 20
265.6822063931888
 30
0.0
 10
340.879080355843
 20
265.7168774310819
 30
0.0
 10
341.1171055043279
 20
265.7536384981127
 30
0.0
 10
341.350561688676
 20
265.7923786171699
 30
0.0
 10
341.5927500481345
 20
265.8353550527883
 30
0.0
 10
341.8429029125952
 20
265.882883500132
 30
0.0
 10
342.1001968045322
 20
265.9352716864121
 30
0.0
 10
342.350991917176
 20
265.9897615925875
 30
0.0
 10
342.544464490987
 20
266.0344492856418
 30
0.0
 10
342.6832744433573
 20
266.0678167712724
 30
0.0
 10
342.7696262817095
 20
266.0890073531163
 30
0.0
 10
342.8551064240256
 20
266.1104135541717
 30
0.0
 10
342.9386249562228
 20
266.1317489169365
 30
0.0
 10
343.0184115687646
 20
266.1525253897051
 30
0.0
 10
343.0927403110937
 20
266.17222929081
 30
0.0
 10
343.1629488529435
 20
266.1911476434917
 30
0.0
 10
343.2286650441875
 20
266.2091329502172
 30
0.0
 10
343.2895218998849
 20
266.2260338887093
 30
0.0
 10
343.3432116896104
 20
266.241138718632
 30
0.0
 10
343.3897931713853
 20
266.2543925822697
 30
0.0
 10
343.428246155508
 20
266.2654399625869
 30
0.0
 10
343.4590990506658
 20
266.2743724977465
 30
0.0
 10
343.482866233025
 20
266.2812945490386
 30
0.0
 10
343.5011165505313
 20
266.2866348533768
 30
0.0
 10
343.5127586699211
 20
266.2900533088535
 30
0.0
 10
343.5198628089784
 20
266.2921431709034
 30
0.0
 10
343.5256007482139
 20
266.2938327430045
 30
0.0
 10
343.5342708305107
 20
266.2963894814529
 30
0.0
 10
343.5470051163119
 20
266.3001536742687
 30
0.0
 10
343.5638188066487
 20
266.3051400937508
 30
0.0
 10
343.5841949363294
 20
266.3112084095429
 30
0.0
 10
343.6165851522096
 20
266.3209022970966
 30
0.0
 10
343.6614055631261
 20
266.3344302733063
 30
0.0
 10
343.7195275382452
 20
266.352189733751
 30
0.0
 10
343.7829313940939
 20
266.3718248585232
 30
0.0
 10
343.8515524044753
 20
266.3933869831477
 30
0.0
 10
343.9253191237091
 20
266.4169315462339
 30
0.0
 10
343.9999766507426
 20
266.4411624826876
 30
0.0
 10
344.0750298246926
 20
266.4659254421786
 30
0.0
 10
344.1499949202602
 20
266.4910579219633
 30
0.0
 10
344.2283681636509
 20
266.5177765627787
 30
0.0
 10
344.3086537638535
 20
266.5456288636025
 30
0.0
 10
344.4139983697086
 20
266.5828263300444
 30
0.0
 10
344.5406582183508
 20
266.6287038303714
 30
0.0
 10
344.6811767075015
 20
266.6812820282457
 30
0.0
 10
344.8100706734989
 20
266.7309475659565
 30
0.0
 10
344.9280327540096
 20
266.7776189273086
 30
0.0
 10
345.0404060247503
 20
266.8232183506929
 30
0.0
 10
345.1442584526314
 20
266.866391994886
 30
0.0
 10
345.2401094683705
 20
266.907129801704
 30
0.0
 10
345.3293604389863
 20
266.9458346980265
 30
0.0
 10
345.4165942485344
 20
266.9844149874672
 30
0.0
 10
345.5030166647173
 20
267.0233903935368
 30
0.0
 10
345.5735994504921
 20
267.0558505221322
 30
0.0
 10
345.6286688262674
 20
267.0815419330713
 30
0.0
 10
345.6684555951641
 20
267.1002738485899
 30
0.0
 10
345.7081231550484
 20
267.1191210563278
 30
0.0
 10
345.7476701303751
 20
267.1380835486384
 30
0.0
 10
345.7867323654317
 20
267.1569857663369
 30
0.0
 10
345.8214070354454
 20
267.1739170543324
 30
0.0
 10
345.8506313917329
 20
267.1882951114925
 30
0.0
 10
345.8737083985604
 20
267.1997147664077
 30
0.0
 10
345.8934384217017
 20
267.2095273447872
 30
0.0
 10
345.9098436775502
 20
267.2177211291851
 30
0.0
 10
345.9231148666526
 20
267.2243726555098
 30
0.0
 10
345.938334521083
 20
267.2320218702802
 30
0.0
 10
345.9580238459849
 20
267.2419556346361
 30
0.0
 10
345.9844992108354
 20
267.2553904268435
 30
0.0
 10
346.0151991193966
 20
267.27107519833
 30
0.0
 10
346.0500731239581
 20
267.2890325130657
 30
0.0
 10
346.0890671824836
 20
267.3092898769272
 30
0.0
 10
346.1321196784687
 20
267.3318777260302
 30
0.0
 10
346.1809054148233
 20
267.3577544555508
 30
0.0
 10
346.2355954747601
 20
267.3871302836513
 30
0.0
 10
346.2963343415085
 20
267.4202271659826
 30
0.0
 10
346.3612107940819
 20
267.4561352209517
 30
0.0
 10
346.429330306235
 20
267.4944754564384
 30
0.0
 10
346.4998245365276
 20
267.53485744282
 30
0.0
 10
346.5767150992721
 20
267.5797177538959
 30
0.0
 10
346.6600634808698
 20
267.6293674517508
 30
0.0
 10
346.7498762421318
 20
267.6841363099233
 30
0.0
 10
346.8418285981915
 20
267.7415984646281
 30
0.0
 10
346.9153005327697
 20
267.7886987472301
 30
0.0
 10
346.9701114566751
 20
267.824476217051
 30
0.0
 10
347.0058885049894
 20
267.8480662529683
 30
0.0
 10
347.0417813617404
 20
267.8719763966135
 30
0.0
 10
347.0766519305124
 20
267.8954473533378
 30
0.0
 10
347.109159852737
 20
267.9175474034198
 30
0.0
 10
347.1376619741609
 20
267.9371002398621
 30
0.0
 10
347.1621207207611
 20
267.9540107558569
 30
0.0
 10
347.1827229573854
 20
267.9683494916806
 30
0.0
 10
347.2001080066905
 20
267.9805180598647
 30
0.0
 10
347.2145453298521
 20
267.9906714988838
 30
0.0
 10
347.2263426398272
 20
267.9990008745368
 30
0.0
 10
347.2365099541883
 20
268.0062024857389
 30
0.0
 10
347.24667371907
 20
268.0134221475327
 30
0.0
 10
347.258389881829
 20
268.0217712695602
 30
0.0
 10
347.2724788088707
 20
268.031850973696
 30
0.0
 10
347.2910268753521
 20
268.0451832912237
 30
0.0
 10
347.3145495232067
 20
268.0622000877446
 30
0.0
 10
347.3435321836093
 20
268.0833438388763
 30
0.0
 10
347.3786982806976
 20
268.1092489179524
 30
0.0
 10
347.4192214908507
 20
268.1394645821827
 30
0.0
 10
347.4633813601648
 20
268.1728646405888
 30
0.0
 10
347.5072820107145
 20
268.2065548102613
 30
0.0
 10
347.5500459684616
 20
268.239848048515
 30
0.0
 10
347.5916925106105
 20
268.2727359171246
 30
0.0
 10
347.6322405559994
 20
268.3052100663199
 30
0.0
 10
347.6729888705137
 20
268.3383018806331
 30
0.0
 10
347.7138643752837
 20
268.3719796010767
 30
0.0
 10
347.7547954493668
 20
268.4062107205028
 30
0.0
 10
347.7944915122945
 20
268.4399021463619
 30
0.0
 10
347.8328404650079
 20
268.4729272276824
 30
0.0
 10
347.8690073565513
 20
268.5045209305673
 30
0.0
 10
347.9020775166052
 20
268.5338019057411
 30
0.0
 10
347.931313018416
 20
268.5600055683813
 30
0.0
 10
347.9566981269854
 20
268.5830060995754
 30
0.0
 10
347.9783146850765
 20
268.6027779876143
 30
0.0
 10
347.9947189986409
 20
268.6179034637701
 30
0.0
 10
348.0073586596669
 20
268.6296240849902
 30
0.0
 10
348.0181837896289
 20
268.6397037165355
 30
0.0
 10
348.0306013132384
 20
268.6513206783072
 30
0.0
 10
348.0451324075405
 20
268.6649917161898
 30
0.0
 10
348.0616141424111
 20
268.6805999965779
 30
0.0
 10
348.0907412181236
 20
268.7083887300672
 30
0.0
 10
348.1326652995749
 20
268.7489988004991
 30
0.0
 10
348.1873639546706
 20
268.803249852405
 30
0.0
 10
348.2441501764879
 20
268.8610320574957
 30
0.0
 10
348.3023164443852
 20
268.9218625489912
 30
0.0
 10
348.3483009509981
 20
268.9713647683677
 30
0.0
 10
348.3821746138344
 20
269.0085862291622
 30
0.0
 10
348.4039425543427
 20
269.032779148014
 30
0.0
 10
348.4257564411204
 20
269.0573057955928
 30
0.0
 10
348.4474851959904
 20
269.0820270680258
 30
0.0
 10
348.4683579546926
 20
269.1060597180646
 30
0.0
 10
348.4884690145743
 20
269.1294814240603
 30
0.0
 10
348.5068127658761
 20
269.1510825568652
 30
0.0
 10
348.5230419445664
 20
269.1703925671511
 30
0.0
 10
348.5360136604705
 20
269.1859595947311
 30
0.0
 10
348.5453653186848
 20
269.1972583288817
 30
0.0
 10
348.5528162168991
 20
269.2063014542193
 30
0.0
 10
348.5601351000452
 20
269.2152181429776
 30
0.0
 10
348.5694782647865
 20
269.2266584537464
 30
0.0
 10
348.5809069986066
 20
269.2407417642545
 30
0.0
 10
348.5943833094607
 20
269.2574767826007
 30
0.0
 10
348.6098542134424
 20
269.2768639578333
 30
0.0
 10
348.6314962571191
 20
269.3042698501952
 30
0.0
 10
348.6577097994916
 20
269.3380001400691
 30
0.0
 10
348.6869242717237
 20
269.3763655283319
 30
0.0
 10
348.714271602524
 20
269.4129790324116
 30
0.0
 10
348.7397197753909
 20
269.4476964210044
 30
0.0
 10
348.7632559940473
 20
269.4803939918521
 30
0.0
 10
348.7844706910994
 20
269.5103656380847
 30
0.0
 10
348.8036073658739
 20
269.5378249204266
 30
0.0
 10
348.8200519201297
 20
269.5617638519179
 30
0.0
 10
348.8340834273156
 20
269.5824423183588
 30
0.0
 10
348.8463781951796
 20
269.600748294514
 30
0.0
 10
348.8590113175246
 20
269.6197472852558
 30
0.0
 10
348.8730306455923
 20
269.6410668634138
 30
0.0
 10
348.8889726226147
 20
269.6656291765722
 30
0.0
 10
348.9063661885375
 20
269.6928347006732
 30
0.0
 10
348.9247376067613
 20
269.722050786394
 30
0.0
 10
348.9433251403221
 20
269.7521351529248
 30
0.0
 10
348.9617970749248
 20
269.7825795563249
 30
0.0
 10
348.9798927490778
 20
269.8129552615521
 30
0.0
 10
348.9992168583902
 20
269.8459992508827
 30
0.0
 10
349.0196468165583
 20
269.8816867200055
 30
0.0
 10
349.0406097511947
 20
269.9192007453476
 30
0.0
 10
349.0600009961819
 20
269.9547386363079
 30
0.0
 10
349.0773099735275
 20
269.9871777302161
 30
0.0
 10
349.0905669818682
 20
270.0125342515815
 30
0.0
 10
349.1003942479383
 20
270.0316088232419
 30
0.0
 10
349.1073257114273
 20
270.0451924822395
 30
0.0
 10
349.1136417459767
 20
270.0576809819715
 30
0.0
 10
349.1193727046426
 20
270.0691063285006
 30
0.0
 10
349.1249404913532
 20
270.0802905220556
 30
0.0
 10
349.1309943457861
 20
270.0925453977576
 30
0.0
 10
349.1381501400038
 20
270.1071658672709
 30
0.0
 10
349.1466028687104
 20
270.124633544693
 30
0.0
 10
349.1563049526577
 20
270.1449558608733
 30
0.0
 10
349.1671249947121
 20
270.1679795890317
 30
0.0
 10
349.1785128334519
 20
270.1926489028507
 30
0.0
 10
349.1898894510504
 20
270.2177649561196
 30
0.0
 10
349.2007880628532
 20
270.2422831327031
 30
0.0
 10
349.2138659481025
 20
270.2722550498519
 30
0.0
 10
349.2286863532148
 20
270.3071014244098
 30
0.0
 10
349.2448027558175
 20
270.3462434133626
 30
0.0
 10
349.257453713944
 20
270.3779434731327
 30
0.0
 10
349.2669580150225
 20
270.402327637654
 30
0.0
 10
349.2735617853541
 20
270.4195378158937
 30
0.0
 10
349.2792840708697
 20
270.4346619246775
 30
0.0
 10
349.2841549238186
 20
270.4476961620364
 30
0.0
 10
349.2882824592346
 20
270.4588596089737
 30
0.0
 10
349.2921689461778
 20
270.4694679738849
 30
0.0
 10
349.2964229581611
 20
270.4811895893693
 30
0.0
 10
349.3015532624
 20
270.4954921873063
 30
0.0
 10
349.3076526259802
 20
270.5127458951236
 30
0.0
 10
349.3146731933849
 20
270.5329569409435
 30
0.0
 10
349.3237068347438
 20
270.5595062700748
 30
0.0
 10
349.334036322155
 20
270.5907556498234
 30
0.0
 10
349.3449876245685
 20
270.6250801693205
 30
0.0
 10
349.3549501016871
 20
270.6574012040946
 30
0.0
 10
349.3639829847961
 20
270.6877021622036
 30
0.0
 10
349.3722720034414
 20
270.7164184693656
 30
0.0
 10
349.3792547599439
 20
270.7413873832078
 30
0.0
 10
349.3852432527241
 20
270.7633896288215
 30
0.0
 10
349.3904244954209
 20
270.7828678279377
 30
0.0
 10
349.3955996911639
 20
270.8027962740634
 30
0.0
 10
349.4008396442882
 20
270.8234872409763
 30
0.0
 10
349.4062891170142
 20
270.8455929005079
 30
0.0
 10
349.4121033822329
 20
270.8699019114791
 30
0.0
 10
349.4182214609931
 20
270.8963819877756
 30
0.0
 10
349.424344922799
 20
270.9239349346822
 30
0.0
 10
349.4315812647817
 20
270.9578440421969
 30
0.0
 10
349.4393788012446
 20
270.9964866050661
 30
0.0
 10
349.4473622004585
 20
271.0389923948776
 30
0.0
 10
349.454180449911
 20
271.0779501252314
 30
0.0
 10
349.4599907525089
 20
271.1135189516699
 30
0.0
 10
349.4648820017757
 20
271.1455364677395
 30
0.0
 10
349.4689653363768
 20
271.1740445266387
 30
0.0
 10
349.4722922695542
 20
271.1987065241893
 30
0.0
 10
349.4749510926746
 20
271.2195133393698
 30
0.0
 10
349.4767655457321
 20
271.2344006997097
 30
0.0
 10
349.4779399302377
 20
271.2443403946742
 30
0.0
 10
349.478693801096
 20
271.2508317937651
 30
0.0
 10
349.4795170919211
 20
271.2580429367532
 30
0.0
 10
349.4805319323853
 20
271.2671273393446
 30
0.0
 10
349.4817932974317
 20
271.2787578424374
 30
0.0
 10
349.4832729003473
 20
271.2929321764828
 30
0.0
 10
349.4849369096578
 20
271.3096532670551
 30
0.0
 10
349.4871334144975
 20
271.3330608906339
 30
0.0
 10
349.4895990965791
 20
271.3619286132639
 30
0.0
 10
349.4920875698862
 20
271.3951490010258
 30
0.0
 10
349.4941625655306
 20
271.4271680732906
 30
0.0
 10
349.4958563750286
 20
271.4578572147005
 30
0.0
 10
349.4971202925332
 20
271.485311371942
 30
0.0
 10
349.4980772826338
 20
271.5103930761902
 30
0.0
 10
349.498834328068
 20
271.5345596623511
 30
0.0
 10
349.4994558317865
 20
271.5610701777672
 30
0.0
 10
349.4999075113576
 20
271.5902521603896
 30
0.0
 10
349.4999683619602
 20
271.6107205959652
 30
0.0
 10
349.5000000000002
 20
271.6213627450057
 30
0.0
  0
LINE
  5
7D
330
1F
100
AcDbEntity
  8
0
  6
Continuous
 62
     7
370
    30
100
AcDbLine
 10
349.5
 20
271.6213627437
 30
0.0
 11
349.5
 21
274.912259278
 31
0.0
  0
LINE
  5
7E
330
1F
100
AcDbEntity
  8
0
  6
Continuous
 62
     7
370
    30
100
AcDbLine
 10
325.5
 20
274.912259278
 30
0.0
 11
325.5
 21
271.6213627437
 31
0.0
  0
SPLINE
  5
7F
330
1F
100
AcDbEntity
  8
0
  6
Continuous
 62
     7
370
    30
100
AcDbSpline
210
0.0
220
0.0
230
1.0
 70
     8
 71
     3
 72
    59
 73
    55
 74
     0
 42
0.000000001
 43
0.00000001
 40
0.0
 40
0.0
 40
0.0
 40
0.0
 40
0.0119309852392981
 40
0.0256373089484347
 40
0.0411304941377652
 40
0.0584184948155879
 40
0.0771055829831785
 40
0.0943779976750629
 40
0.1096913411894402
 40
0.1242733293246362
 40
0.1364849397974278
 40
0.1474344770694586
 40
0.1588810584155514
 40
0.1708683544296315
 40
0.1902368517946764
 40
0.2116129883597093
 40
0.2345326310162305
 40
0.2579268298329525
 40
0.2817550481425691
 40
0.3060445903929662
 40
0.3363022536423529
 40
0.3679254403634033
 40
0.4004140511922867
 40
0.4310834630063359
 40
0.4595388455215065
 40
0.4803458393527776
 40
0.4996803431442705
 40
0.5167272753233345
 40
0.531321023439321
 40
0.5434618988812207
 40
0.5495119728673413
 40
0.5553443289123106
 40
0.5626692147694369
 40
0.5715779059299436
 40
0.5820704351463398
 40
0.5941467992465738
 40
0.6104129482898538
 40
0.6287759573951093
 40
0.6472180110977113
 40
0.6649588968211908
 40
0.6948960277941945
 40
0.7226006958987152
 40
0.7480759290516295
 40
0.771516509160232
 40
0.7908806447116112
 40
0.8087697830889942
 40
0.8259875428955239
 40
0.8450166804254394
 40
0.8660331800987431
 40
0.8890367346357371
 40
0.9140187102980163
 40
0.9399696072052589
 40
0.9935369209554423
 40
1.0
 40
1.0
 40
1.0
 40
1.0
 10
349.5000000000002
 20
274.9122592793866
 30
0.0
 10
349.4999881223135
 20
274.9181860488524
 30
0.0
 10
349.4999625995328
 20
274.9309214949881
 30
0.0
 10
349.4997751597825
 20
274.9501311962234
 30
0.0
 10
349.4994595776149
 20
274.971154979541
 30
0.0
 10
349.4989745747782
 20
274.993702004661
 30
0.0
 10
349.4983328815149
 20
275.016384719017
 30
0.0
 10
349.4975527829327
 20
275.0383005768851
 30
0.0
 10
349.4967014968378
 20
275.0584770476274
 30
0.0
 10
349.4958294343397
 20
275.0765476997341
 30
0.0
 10
349.4949604456514
 20
275.0927379870666
 30
0.0
 10
349.4940792770375
 20
275.1078370455655
 30
0.0
 10
349.4930975934851
 20
275.1234396662513
 30
0.0
 10
349.4917184790119
 20
275.1436305677655
 30
0.0
 10
349.4899039060948
 20
275.1677104795965
 30
0.0
 10
349.4875748045921
 20
275.1956342730468
 30
0.0
 10
349.4849069227001
 20
275.224597640574
 30
0.0
 10
349.4818204444261
 20
275.2549888445273
 30
0.0
 10
349.4783613823533
 20
275.2860902473397
 30
0.0
 10
349.4742173751665
 20
275.3203274607402
 30
0.0
 10
349.4691773450481
 20
275.3584360550852
 30
0.0
 10
349.4630478077252
 20
275.4006603432677
 30
0.0
 10
349.4562223221687
 20
275.4435899811392
 30
0.0
 10
349.4491781263604
 20
275.4844417861579
 30
0.0
 10
349.4426979514481
 20
275.519548306255
 30
0.0
 10
349.4369282007355
 20
275.5492037632271
 30
0.0
 10
349.4320175055399
 20
275.5734472867487
 30
0.0
 10
349.4274606705977
 20
275.5951457414317
 30
0.0
 10
349.4234060231266
 20
275.6138726982525
 30
0.0
 10
349.4202722732547
 20
275.627988029703
 30
0.0
 10
349.4179147233439
 20
275.6384300297453
 30
0.0
 10
349.415998147555
 20
275.6468266535077
 30
0.0
 10
349.4137975364168
 20
275.6563534664126
 30
0.0
 10
349.4111047914045
 20
275.6678444631322
 30
0.0
 10
349.4078932153555
 20
275.6813192578916
 30
0.0
 10
349.4038660814033
 20
275.6978925363673
 30
0.0
 10
349.3989184608276
 20
275.7177756053736
 30
0.0
 10
349.3931570156738
 20
275.7402827844213
 30
0.0
 10
349.3870317250485
 20
275.7635285656826
 30
0.0
 10
349.3793499748928
 20
275.791886137718
 30
0.0
 10
349.370192209993
 20
275.8245202351621
 30
0.0
 10
349.359536287221
 20
275.8609507423983
 30
0.0
 10
349.3491361674578
 20
275.8951964200755
 30
0.0
 10
349.3394973858931
 20
275.9258359051524
 30
0.0
 10
349.3308002232922
 20
275.952672657916
 30
0.0
 10
349.3228909066059
 20
275.9764873435429
 30
0.0
 10
349.3149665491613
 20
275.9998237424405
 30
0.0
 10
349.3063862839213
 20
276.0245340758869
 30
0.0
 10
349.296726431584
 20
276.0516899539425
 30
0.0
 10
349.2858857551147
 20
276.0813761819238
 30
0.0
 10
349.2739736369264
 20
276.1131429568723
 30
0.0
 10
349.2566088379977
 20
276.1579649917882
 30
0.0
 10
349.2420396691637
 20
276.1948034202531
 30
0.0
 10
349.231092958485
 20
276.2204028726574
 30
0.0
 10
349.2299143978743
 20
276.223158997958
 30
0.0
  0
SPLINE
  5
80
330
1F
100
AcDbEntity
  8
0
  6
Continuous
 62
     7
370
    30
100
AcDbSpline
210
0.0
220
0.0
230
1.0
 70
     8
 71
     3
 72
    62
 73
    58
 74
     0
 42
0.000000001
 43
0.00000001
 40
0.0
 40
0.0
 40
0.0
 40
0.0
 40
0.0282523260599391
 40
0.056767023815691
 40
0.0717721356957145
 40
0.0851475669907199
 40
0.0968931529715651
 40
0.1070087516183203
 40
0.1154942425763934
 40
0.1228675782138359
 40
0.1316717255958156
 40
0.1427605244673913
 40
0.1561341435183502
 40
0.1717927807906898
 40
0.18973666145065
 40
0.2178140916417341
 40
0.2442955321979416
 40
0.2691619361415352
 40
0.2924130756941531
 40
0.3140487509541606
 40
0.3350553390016807
 40
0.3495926977453182
 40
0.3644734829528466
 40
0.3796977128485785
 40
0.3952654048011421
 40
0.4119289976574567
 40
0.4302707194103037
 40
0.450573234150268
 40
0.4719470379759527
 40
0.4925588086225145
 40
0.527331941115625
 40
0.5594975331483341
 40
0.5890551779246254
 40
0.616004610433326
 40
0.6407230433450526
 40
0.6625195897832517
 40
0.6813738286757205
 40
0.6972856014066515
 40
0.7102547859292812
 40
0.7155462400331883
 40
0.720128055880498
 40
0.7251714903359701
 40
0.7321976902859024
 40
0.7412130069228001
 40
0.752217480508387
 40
0.7652111479675872
 40
0.7801940459462567
 40
0.8068284219861515
 40
0.8325735199371738
 40
0.8571170429463472
 40
0.8804594700117868
 40
0.9026013567540043
 40
0.9192103758443683
 40
0.936785237434199
 40
0.9561078107420458
 40
0.9771791440497651
 40
1.0
 40
1.0
 40
1.0
 40
1.0
 10
325.7698270313171
 20
276.222702424571
 30
0.0
 10
325.7648274782934
 20
276.2106392348505
 30
0.0
 10
325.7547819427519
 20
276.1864008278357
 30
0.0
 10
325.7425494147188
 20
276.1556780493118
 30
0.0
 10
325.7330414497689
 20
276.1312944694736
 30
0.0
 10
325.7264383332779
 20
276.1140841868935
 30
0.0
 10
325.7207159035551
 20
276.0989601011224
 30
0.0
 10
325.7158450814766
 20
276.0859258588372
 30
0.0
 10
325.7117175396525
 20
276.0747624129226
 30
0.0
 10
325.707831054162
 20
276.0641540477794
 30
0.0
 10
325.7035770417137
 20
276.0524324323693
 30
0.0
 10
325.6984467376453
 20
276.0381298344051
 30
0.0
 10
325.6923473740046
 20
276.0208761265975
 30
0.0
 10
325.6853268066203
 20
276.0006650807743
 30
0.0
 10
325.6762931652541
 20
275.9741157516441
 30
0.0
 10
325.6659636778459
 20
275.942866371895
 30
0.0
 10
325.6550123754316
 20
275.9085418523981
 30
0.0
 10
325.6450498983132
 20
275.876220817624
 30
0.0
 10
325.6360170152042
 20
275.8459198595149
 30
0.0
 10
325.6277279965589
 20
275.817203552353
 30
0.0
 10
325.6207452400564
 20
275.7922346385107
 30
0.0
 10
325.6147567472762
 20
275.7702323928971
 30
0.0
 10
325.6095755045794
 20
275.7507541937809
 30
0.0
 10
325.6044003088364
 20
275.7308257476552
 30
0.0
 10
325.5991603557121
 20
275.7101347807422
 30
0.0
 10
325.593710882986
 20
275.6880291212107
 30
0.0
 10
325.5878966177674
 20
275.6637201102394
 30
0.0
 10
325.5817785390071
 20
275.637240033943
 30
0.0
 10
325.5756550772012
 20
275.6096870870364
 30
0.0
 10
325.5684187352186
 20
275.5757779795217
 30
0.0
 10
325.5606211987556
 20
275.5371354166524
 30
0.0
 10
325.5526377995417
 20
275.4946296268409
 30
0.0
 10
325.5458195500892
 20
275.4556718964871
 30
0.0
 10
325.5400092474913
 20
275.4201030700486
 30
0.0
 10
325.5351179982246
 20
275.388085553979
 30
0.0
 10
325.5310346636234
 20
275.3595774950798
 30
0.0
 10
325.5277077304461
 20
275.3349154975292
 30
0.0
 10
325.5250489073257
 20
275.3141086823487
 30
0.0
 10
325.5232344542681
 20
275.2992213220088
 30
0.0
 10
325.5220600697625
 20
275.2892816270444
 30
0.0
 10
325.5213061989043
 20
275.2827902279535
 30
0.0
 10
325.5204829080791
 20
275.2755790849654
 30
0.0
 10
325.5194680676149
 20
275.2664946823739
 30
0.0
 10
325.5182067025685
 20
275.2548641792811
 30
0.0
 10
325.5167270996529
 20
275.2406898452357
 30
0.0
 10
325.5150630903424
 20
275.2239687546635
 30
0.0
 10
325.5128665855027
 20
275.2005611310847
 30
0.0
 10
325.5104009034212
 20
275.1716934084546
 30
0.0
 10
325.507912430114
 20
275.1384730206928
 30
0.0
 10
325.5058374344697
 20
275.106453948428
 30
0.0
 10
325.5041436249716
 20
275.0757648070181
 30
0.0
 10
325.5028797074671
 20
275.0483106497766
 30
0.0
 10
325.5019227173664
 20
275.0232289455283
 30
0.0
 10
325.5011656719322
 20
274.9990623593675
 30
0.0
 10
325.5005441682138
 20
274.9725518439514
 30
0.0
 10
325.5000924886426
 20
274.943369861329
 30
0.0
 10
325.50003163804
 20
274.9229014257533
 30
0.0
 10
325.5000000000001
 20
274.9122592767128
 30
0.0
  0
LINE
  5
81
330
1F
100
AcDbEntity
  8
0
  6
Continuous
 62
     7
370
    30
100
AcDbLine
 10
349.5
 20
275.0854643588
 30
0.0
 11
349.4991994874
 21
275.0161612913
 31
0.0
  0
LINE
  5
82
330
1F
100
AcDbEntity
  8
0
  6
Continuous
 62
     7
370
    30
100
AcDbLine
 10
325.5008792473
 20
275.0128331636
 30
0.0
 11
325.5
 21
275.0854643588
 31
0.0
  0
LINE
  5
83
330
1F
100
AcDbEntity
  8
0
  6
Continuous
 62
     7
370
    30
100
AcDbLine
 10
325.5
 20
292.5
 30
0.0
 11
325.5021880704
 21
292.7291482076
 31
0.0
  0
ARC
  5
84
330
1F
100
AcDbEntity
  8
0
  6
Continuous
 62
     7
370
    30
100
AcDbCircle
 10
337.5
 20
292.5
 30
0.0
 40
12.0
100
AcDbArc
 50
90.0
 51
167.9905321983
  0
ARC
  5
85
330
1F
100
AcDbEntity
  8
0
  6
Continuous
 62
     7
370
    30
100
AcDbCircle
 10
337.5
 20
292.5
 30
0.0
 40
12.00000000000004
100
AcDbArc
 50
15.8781542427
 51
90.0
  0
LINE
  5
86
330
1F
100
AcDbEntity
  8
0
  6
Continuous
 62
     7
370
    30
100
AcDbLine
 10
349.4997833106
 20
292.5721144772
 30
0.0
 11
349.5
 21
292.5
 31
0.0
  0
LINE
  5
87
330
1F
100
AcDbEntity
  8
0
  6
Continuous
 62
     7
370
    30
100
AcDbLine
 10
349.4999935301
 20
271.6151322249
 30
0.0
 11
349.5
 21
271.6213627437
 31
0.0
  0
CIRCLE
  5
88
330
1F
100
AcDbEntity
  8
0
  6
Continuous
 62
     7
370
    30
100
AcDbCircle
 10
337.5
 20
292.5
 30
0.0
 40
37.50000000002223
  0
ARC
  5
89
330
1F
100
AcDbEntity
  8
0
  6
Continuous
 62
     7
370
    30
100
AcDbCircle
 10
641.9603900947
 20
280.9354643588
 30
0.0
 40
0.299999999999952
100
AcDbArc
 50
10.5310689574
 51
30.0
  0
ARC
  5
8A
330
1F
100
AcDbEntity
  8
0
  6
Continuous
 62
     7
370
    30
100
AcDbCircle
 10
621.6953956462
 20
269.2354643588
 30
0.0
 40
0.2999999999999367
100
AcDbArc
 50
210.0
 51
229.4712206721
  0
ARC
  5
8B
330
1F
100
AcDbEntity
  8
0
  6
Continuous
 62
     7
370
    30
100
AcDbCircle
 10
467.1250339537
 20
280.8
 30
0.0
 40
0.3000000000000114
100
AcDbArc
 50
180.0
 51
270.0
  0
ARC
  5
8C
330
1F
100
AcDbEntity
  8
0
  6
Continuous
 62
     7
370
    30
100
AcDbCircle
 10
467.1250339537
 20
304.2
 30
0.0
 40
0.3000000000000114
100
AcDbArc
 50
90.0
 51
180.0
  0
LINE
  5
8D
330
1F
100
AcDbEntity
  8
0
  6
Continuous
 62
     7
370
    30
100
AcDbLine
 10
467.1250339537
 20
280.5
 30
0.0
 11
608.7832249734
 21
280.5
 31
0.0
  0
LINE
  5
8E
330
1F
100
AcDbEntity
  8
0
  6
Continuous
 62
     7
370
    30
100
AcDbLine
 10
608.7832249734
 20
304.5
 30
0.0
 11
467.1250339537
 21
304.5
 31
0.0
  0
LINE
  5
8F
330
1F
100
AcDbEntity
  8
0
  6
Continuous
 62
     7
370
    30
100
AcDbLine
 10
617.8764917132
 20
275.25
 30
0.0
 11
621.435588025
 21
269.0854643588
 31
0.0
  0
LINE
  5
90
330
1F
100
AcDbEntity
  8
0
  6
Continuous
 62
     7
370
    30
100
AcDbLine
 10
642.2201977159
 20
281.0854643588
 30
0.0
 11
638.661101404
 21
287.25
 31
0.0
  0
ARC
  5
91
330
1F
100
AcDbEntity
  8
0
  6
Continuous
 62
     7
370
    30
100
AcDbCircle
 10
621.7953956462
 20
269.062259278
 30
0.0
 40
0.300000000000092
100
AcDbArc
 50
190.5287794031
 51
210.0
  0
ARC
  5
92
330
1F
100
AcDbEntity
  8
0
  6
Continuous
 62
     7
370
    30
100
AcDbCircle
 10
642.0603900947
 20
280.762259278
 30
0.0
 40
0.3000000000000504
100
AcDbArc
 50
30.0
 51
49.4735102586
  0
ARC
  5
93
330
1F
100
AcDbEntity
  8
0
  6
Continuous
 62
     7
370
    30
100
AcDbCircle
 10
623.6953956462
 20
265.7713627437
 30
0.0
 40
0.300000000000022
100
AcDbArc
 50
210.0
 51
300.0
  0
ARC
  5
94
330
1F
100
AcDbEntity
  8
0
  6
Continuous
 62
     7
370
    30
100
AcDbCircle
 10
643.9603900947
 20
277.4713627437
 30
0.0
 40
0.2999999999999935
100
AcDbArc
 50
300.0
 51
30.0
  0
LINE
  5
95
330
1F
100
AcDbEntity
  8
0
  6
Continuous
 62
     7
370
    30
100
AcDbLine
 10
644.2201977159
 20
277.6213627437
 30
0.0
 11
642.3201977159
 21
280.912259278
 31
0.0
  0
LINE
  5
96
330
1F
100
AcDbEntity
  8
0
  6
Continuous
 62
     7
370
    30
100
AcDbLine
 10
621.535588025
 20
268.912259278
 30
0.0
 11
623.435588025
 21
265.6213627437
 31
0.0
  0
ARC
  5
97
330
1F
100
AcDbEntity
  8
0
  6
Continuous
 62
     7
370
    30
100
AcDbCircle
 10
465.8250339537
 20
329.0
 30
0.0
 40
1.0
100
AcDbArc
 50
0.0
 51
90.0
  0
ARC
  5
98
330
1F
100
AcDbEntity
  8
0
  6
Continuous
 62
     7
370
    30
100
AcDbCircle
 10
465.8250339537
 20
256.0
 30
0.0
 40
1.0
100
AcDbArc
 50
270.0
 51
0.0
  0
LINE
  5
99
330
1F
100
AcDbEntity
  8
0
  6
Continuous
 62
     7
370
    30
100
AcDbLine
 10
458.8250339537
 20
255.0
 30
0.0
 11
465.8250339537
 21
255.0
 31
0.0
  0
LINE
  5
9A
330
1F
100
AcDbEntity
  8
0
  6
Continuous
 62
     7
370
    30
100
AcDbLine
 10
465.8250339537
 20
330.0
 30
0.0
 11
458.8250339537
 21
330.0
 31
0.0
  0
SPLINE
  5
9B
330
1F
100
AcDbEntity
  8
0
  6
Continuous
 62
     7
370
    30
100
AcDbSpline
210
0.0
220
0.0
230
1.0
 70
     8
 71
     3
 72
    50
 73
    46
 74
     0
 42
0.000000001
 43
0.00000001
 40
0.0
 40
0.0
 40
0.0
 40
0.0
 40
0.0250876768779993
 40
0.0501753924840079
 40
0.0752632939992823
 40
0.1003514067978538
 40
0.125439670574936
 40
0.1505279754737983
 40
0.1756161982102542
 40
0.1986136823032841
 40
0.2216109773510036
 40
0.244608113221287
 40
0.2676052092001884
 40
0.2906024146539043
 40
0.3135997939370859
 40
0.3365973332354074
 40
0.3595949638626705
 40
0.3825925855565486
 40
0.4055900897728543
 40
0.428587382979533
 40
0.4515844099518272
 40
0.4732671403292157
 40
0.4949497132329531
 40
0.5166322843739176
 40
0.5383150290368155
 40
0.5599980405338799
 40
0.5829954228180309
 40
0.605993075449133
 40
0.6289908990066212
 40
0.6519887674399316
 40
0.6749865514359649
 40
0.6979841417861774
 40
0.7196674050708884
 40
0.7413504362499157
 40
0.763033304680526
 40
0.7847161500904485
 40
0.8063990843563755
 40
0.830598822610135
 40
0.8547987299729486
 40
0.8789987622657456
 40
0.9031988620325009
 40
0.9273989885041874
 40
0.9515991475625478
 40
0.9757994217037561
 40
1.0
 40
1.0
 40
1.0
 40
1.0
 10
608.7832249734164
 20
280.5
 30
0.0
 10
608.8751762231873
 20
280.4993158038475
 30
0.0
 10
609.059078864675
 20
280.4979474104862
 30
0.0
 10
609.3347426814597
 20
280.4866570956103
 30
0.0
 10
609.6100260104064
 20
280.4686384394523
 30
0.0
 10
609.8847399427905
 20
280.443253191691
 30
0.0
 10
610.1586954934107
 20
280.4107064709326
 30
0.0
 10
610.4317034563996
 20
280.3709774333451
 30
0.0
 10
610.69602403221
 20
280.325407499562
 30
0.0
 10
610.9515913245277
 20
280.2746962231481
 30
0.0
 10
611.1983833320876
 20
280.2195155172701
 30
0.0
 10
611.4437702595259
 20
280.1583947145321
 30
0.0
 10
611.6876059637824
 20
280.091353692162
 30
0.0
 10
611.9297532346695
 20
280.0184468051207
 30
0.0
 10
612.1700761173661
 20
279.9397295531643
 30
0.0
 10
612.4084385393766
 20
279.8552570596955
 30
0.0
 10
612.644704474123
 20
279.7650845284927
 30
0.0
 10
612.878737869121
 20
279.6692671298911
 30
0.0
 10
613.1104027073918
 20
279.5678600170033
 30
0.0
 10
613.3395628295734
 20
279.4609183763151
 30
0.0
 10
613.5617681781563
 20
279.350638437188
 30
0.0
 10
613.7770632398106
 20
279.2374315638015
 30
0.0
 10
613.9855131957514
 20
279.1216909370119
 30
0.0
 10
614.1912648066202
 20
279.0012187323512
 30
0.0
 10
614.3942170642109
 20
278.8760851637971
 30
0.0
 10
614.5983147188605
 20
278.7437472298895
 30
0.0
 10
614.8032461275368
 20
278.603955285554
 30
0.0
 10
615.0086732909771
 20
278.4564681330552
 30
0.0
 10
615.2105015740036
 20
278.3040901503589
 30
0.0
 10
615.4086149398524
 20
278.146911776327
 30
0.0
 10
615.6028973396897
 20
277.9850234356986
 30
0.0
 10
615.7896078951014
 20
277.821686654035
 30
0.0
 10
615.9688957649424
 20
277.6572897002835
 30
0.0
 10
616.1409250044371
 20
277.4921975404387
 30
0.0
 10
616.3091463457594
 20
277.323229133292
 30
0.0
 10
616.4734704540681
 20
277.1504685699422
 30
0.0
 10
616.6400270416423
 20
276.9671887897633
 30
0.0
 10
616.8081755511564
 20
276.7729807069475
 30
0.0
 10
616.9772145448674
 20
276.5674534512692
 30
0.0
 10
617.1410038757472
 20
276.3577162861767
 30
0.0
 10
617.299427760607
 20
276.1438978785808
 30
0.0
 10
617.4524193787117
 20
275.9261548075317
 30
0.0
 10
617.5997297516875
 20
275.7045386159373
 30
0.0
 10
617.74178948831
 20
275.4794930274901
 30
0.0
 10
617.8315907834326
 20
275.3264979963079
 30
0.0
 10
617.8764917131535
 20
275.25
 30
0.0
  0
SPLINE
  5
9C
330
1F
100
AcDbEntity
  8
0
  6
Continuous
 62
     7
370
    30
100
AcDbSpline
210
0.0
220
0.0
230
1.0
 70
     8
 71
     3
 72
    83
 73
    79
 74
     0
 42
0.000000001
 43
0.00000001
 40
0.0
 40
0.0
 40
0.0
 40
0.0
 40
0.0140496829789391
 40
0.0280992254556301
 40
0.0421486801701095
 40
0.0561980849018525
 40
0.0702474644451219
 40
0.0842968325846642
 40
0.0983461940715651
 40
0.1112247862217907
 40
0.1241033652997727
 40
0.1369819234144691
 40
0.1498604516445441
 40
0.1627389413172546
 40
0.175617385287351
 40
0.1884957792160083
 40
0.2013741228497857
 40
0.2142524212996242
 40
0.2271306863198521
 40
0.2400089375871627
 40
0.2528872038458252
 40
0.265029622238324
 40
0.2771721017231885
 40
0.289314653207728
 40
0.3014572804419536
 40
0.3135999809777058
 40
0.3264786634204417
 40
0.3393574052377581
 40
0.3522361879002571
 40
0.3651149900367189
 40
0.3779937887209811
 40
0.3908725607587867
 40
0.4030153687691073
 40
0.4151581166287193
 40
0.4273007903822724
 40
0.4394433798144157
 40
0.4515858794088518
 40
0.4651376481139953
 40
0.4786893152081642
 40
0.4922409026227305
 40
0.5057924459440848
 40
0.5193439931177442
 40
0.5328955859524411
 40
0.5464472526263271
 40
0.5599990091835282
 40
0.5728773834333039
 40
0.5857558412859107
 40
0.5986343741913409
 40
0.6115129689703195
 40
0.6243916090972654
 40
0.6372702759831776
 40
0.6494130363018763
 40
0.6615557873340592
 40
0.6736985145797302
 40
0.6858412058475524
 40
0.6979838522107626
 40
0.7115358318540916
 40
0.7250877509332737
 40
0.738639620279508
 40
0.7521914620666809
 40
0.7657433102656385
 40
0.7792951967553454
 40
0.7928471405552918
 40
0.8063991501405784
 40
0.8199512251117759
 40
0.83350335785654
 40
0.8470555352111355
 40
0.8606077401219139
 40
0.8741599533067016
 40
0.8877121549161584
 40
0.9012643261951119
 40
0.9148164511439213
 40
0.9290138415221212
 40
0.9432111622558856
 40
0.9574084166426373
 40
0.9716056194947919
 40
0.9858027992364689
 40
1.0
 40
1.0
 40
1.0
 40
1.0
 10
638.6611014039795
 20
287.2499999999999
 30
0.0
 10
638.5759050780168
 20
287.3961834150645
 30
0.0
 10
638.4055132780878
 20
287.688548783303
 30
0.0
 10
638.1417281806549
 20
288.1222354306997
 30
0.0
 10
637.8720303586472
 20
288.5522496680038
 30
0.0
 10
637.5958940347866
 20
288.9781624765574
 30
0.0
 10
637.3135460005328
 20
289.3999791893575
 30
0.0
 10
637.0250114768849
 20
289.8175886395074
 30
0.0
 10
636.7385537567008
 20
290.2194303133608
 30
0.0
 10
636.4548119082373
 20
290.6058299488148
 30
0.0
 10
636.1743904782359
 20
290.9771226260451
 30
0.0
 10
635.8889964712289
 20
291.3446058264557
 30
0.0
 10
635.5986820742728
 20
291.708213045834
 30
0.0
 10
635.3034994824636
 20
292.0678776372245
 30
0.0
 10
635.0035008867884
 20
292.4235329903082
 30
0.0
 10
634.6987384809338
 20
292.7751124861271
 30
0.0
 10
634.38926444636
 20
293.1225494986084
 30
0.0
 10
634.0751310053492
 20
293.4657774335438
 30
0.0
 10
633.7563902238975
 20
293.8047295709483
 30
0.0
 10
633.4330947483761
 20
294.13933965528
 30
0.0
 10
633.1115388677355
 20
294.4632501595598
 30
0.0
 10
632.7920754016537
 20
294.7766949644513
 30
0.0
 10
632.4750451740587
 20
295.0799179758121
 30
0.0
 10
632.1541782635854
 20
295.3790816760094
 30
0.0
 10
631.8295308086775
 20
295.6741424934929
 30
0.0
 10
631.4945253584838
 20
295.9709335326275
 30
0.0
 10
631.1489536338588
 20
296.269110119974
 30
0.0
 10
630.792612674567
 20
296.5683103676807
 30
0.0
 10
630.4322792512716
 20
296.8626925436619
 30
0.0
 10
630.0680203616124
 20
297.1522044332685
 30
0.0
 10
629.6999030072407
 20
297.4367938271435
 30
0.0
 10
629.3350778079982
 20
297.7110827831106
 30
0.0
 10
628.9738566559452
 20
297.975348261029
 30
0.0
 10
628.616533251955
 20
298.2298684068244
 30
0.0
 10
628.2560110849741
 20
298.4798322671923
 30
0.0
 10
627.8923461462658
 20
298.7251961924624
 30
0.0
 10
627.5114055179619
 20
298.9752295193902
 30
0.0
 10
627.1128197745454
 20
299.2292337671053
 30
0.0
 10
626.6962237026016
 20
299.4864597579903
 30
0.0
 10
626.2760090454964
 20
299.7377258476495
 30
0.0
 10
625.8522527296102
 20
299.9829689994985
 30
0.0
 10
625.4250387095926
 20
300.2221380313539
 30
0.0
 10
624.9944600819608
 20
300.4551982984727
 30
0.0
 10
624.5606080421412
 20
300.6821120011348
 30
0.0
 10
624.130813729163
 20
300.8991857997035
 30
0.0
 10
623.7053459652146
 20
301.1067377552326
 30
0.0
 10
623.2844552811594
 20
301.3050843175279
 30
0.0
 10
622.8609309450238
 20
301.4977494970293
 30
0.0
 10
622.4348514402678
 20
301.6847014809501
 30
0.0
 10
622.0062953898212
 20
301.8659083916919
 30
0.0
 10
621.583549666386
 20
302.0379969866779
 30
0.0
 10
621.1668456642391
 20
302.2013160503477
 30
0.0
 10
620.7563967978562
 20
302.356210626601
 30
0.0
 10
620.3440176897161
 20
302.5058879211675
 30
0.0
 10
619.9297740240595
 20
302.6503212885486
 30
0.0
 10
619.4976355338011
 20
302.7948680511674
 30
0.0
 10
619.0474239332218
 20
302.9387609186131
 30
0.0
 10
618.5789781335785
 20
303.0811854877453
 30
0.0
 10
618.1085568428182
 20
303.2169372877907
 30
0.0
 10
617.6362518334125
 20
303.3459796213053
 30
0.0
 10
617.162154410685
 20
303.4682735544021
 30
0.0
 10
616.6863619652679
 20
303.5838021833016
 30
0.0
 10
616.2089726331079
 20
303.6925523710172
 30
0.0
 10
615.7300843294566
 20
303.7945100019422
 30
0.0
 10
615.2497950301375
 20
303.8896612201588
 30
0.0
 10
614.7682026942224
 20
303.9779920976716
 30
0.0
 10
614.2854052843271
 20
304.0594887251971
 30
0.0
 10
613.8015007630181
 20
304.1341371807486
 30
0.0
 10
613.3165870872498
 20
304.2019235644543
 30
0.0
 10
612.8307622345664
 20
304.2628338906524
 30
0.0
 10
612.3441241042094
 20
304.3168544846407
 30
0.0
 10
611.8490353103645
 20
304.3647183585949
 30
0.0
 10
611.3455581182283
 20
304.4060256372146
 30
0.0
 10
610.8337705250678
 20
304.4403494417966
 30
0.0
 10
610.321530617869
 20
304.4670885662891
 30
0.0
 10
609.8089511291935
 20
304.4860394414258
 30
0.0
 10
609.2961445334528
 20
304.4978859567295
 30
0.0
 10
608.9541982444822
 20
304.499295318562
 30
0.0
 10
608.7832249734164
 20
304.5
 30
0.0
  0
SPLINE
  5
9D
330
1F
100
AcDbEntity
  8
0
  6
Continuous
 62
     7
370
    30
100
AcDbSpline
210
0.0
220
0.0
230
1.0
 70
    24
 71
     3
 72
   174
 73
   170
 74
     0
 42
0.000000001
 43
0.00000001
 40
0.0
 40
0.0
 40
0.0
 40
0.0
 40
0.0034668390319971
 40
0.0081867134500374
 40
0.0129118970335797
 40
0.0176434200116431
 40
0.0250158179987394
 40
0.0323752993573681
 40
0.0397257907979489
 40
0.0470712334483468
 40
0.0544155765642901
 40
0.0616315291054391
 40
0.0688539710704337
 40
0.0760866312481216
 40
0.0833332226537895
 40
0.0907056209356911
 40
0.098065102459435
 40
0.1054155939726008
 40
0.1127610366404981
 40
0.1201053797564658
 40
0.1249155359540966
 40
0.1297280229095112
 40
0.1345439472427297
 40
0.139364413206446
 40
0.1441905219358707
 40
0.1490233707092059
 40
0.156241309152391
 40
0.1634471527816114
 40
0.1706445881069276
 40
0.1778373145670128
 40
0.1850290388672946
 40
0.1890662180678951
 40
0.1931049047300465
 40
0.1971457531979974
 40
0.2011894167665266
 40
0.2052365473671599
 40
0.2092877952576656
 40
0.2133438087155683
 40
0.2211018297583152
 40
0.2288470226415283
 40
0.2365839727090423
 40
0.2443172799670505
 40
0.2520515509215019
 40
0.2571184584671394
 40
0.2621890439491901
 40
0.2672645951157812
 40
0.2723463959400713
 40
0.2772983259359836
 40
0.2820878178030818
 40
0.2894100016774002
 40
0.2967252358790278
 40
0.3040374058993036
 40
0.311350402113688
 40
0.318668113579932
 40
0.3259944218467338
 40
0.3333331948220099
 40
0.3406496427515919
 40
0.3479554803135199
 40
0.3552545572457547
 40
0.3625507339877526
 40
0.3698478755818751
 40
0.3746282011369869
 40
0.379411679685085
 40
0.3841993920190021
 40
0.3889924160675073
 40
0.393921826563068
 40
0.3990002295280253
 40
0.4066076632383888
 40
0.414206874353527
 40
0.421802220221065
 40
0.4293980648405182
 40
0.432809830184697
 40
0.4362229701149879
 40
0.4396378786117748
 40
0.443054949043705
 40
0.4464745740333484
 40
0.4498971453241303
 40
0.4533230536487715
 40
0.4605409912793179
 40
0.4677468344534522
 40
0.4749442695787443
 40
0.4821369959906234
 40
0.4893287202908365
 40
0.49403888004393
 40
0.4987512400707913
 40
0.5034668390320592
 40
0.5081867134500833
 40
0.5129118970336062
 40
0.5176434200116461
 40
0.525015817998855
 40
0.5323752993575678
 40
0.5397257907982045
 40
0.5470712334486302
 40
0.5544155765645723
 40
0.5616315291056924
 40
0.5688539710706306
 40
0.5760866312482348
 40
0.5833332226537908
 40
0.5907056209357283
 40
0.5980651024594995
 40
0.6054155939726832
 40
0.6127610366405895
 40
0.6201053797565566
 40
0.624915535954182
 40
0.6297280229095881
 40
0.634543947242793
 40
0.6393644132064924
 40
0.6441905219358968
 40
0.6490233707092062
 40
0.6562413091523556
 40
0.6634471527815493
 40
0.6706445881068478
 40
0.677837314566924
 40
0.6850290388672062
 40
0.6890662180678103
 40
0.693104904729969
 40
0.6971457531979299
 40
0.7011894167664723
 40
0.7052365473671205
 40
0.7092877952576445
 40
0.7133438087155674
 40
0.7211018297582918
 40
0.7288470226414898
 40
0.7365839727089936
 40
0.7443172799669991
 40
0.7520515509214534
 40
0.7571184584670971
 40
0.762189043949156
 40
0.7672645951157585
 40
0.7723463959400625
 40
0.7772983259359703
 40
0.782087817803043
 40
0.7894100016773313
 40
0.796725235878941
 40
0.8040374058992108
 40
0.8113504021136007
 40
0.8186681135798611
 40
0.8259944218466917
 40
0.8333331948220085
 40
0.8406496427515142
 40
0.8479554803133876
 40
0.8552545572455891
 40
0.8625507339875766
 40
0.8698478755817107
 40
0.8746282011368417
 40
0.8794116796849689
 40
0.884199392018925
 40
0.8889924160674778
 40
0.8939218265630497
 40
0.899000229527971
 40
0.9066076632382938
 40
0.9142068743534069
 40
0.921802220220936
 40
0.9293980648403951
 40
0.932809830184582
 40
0.9362229701148842
 40
0.9396378786116851
 40
0.9430549490436332
 40
0.9464745740332972
 40
0.9498971453241027
 40
0.9533230536487706
 40
0.9605409912792013
 40
0.9677468344532497
 40
0.9749442695784842
 40
0.9821369959903348
 40
0.9893287202905491
 40
0.9940388800436594
 40
0.9987512400705492
 40
1.0
 40
1.0
 40
1.0
 40
1.0
 10
623.8455370948034
 20
265.5116367879455
 30
0.0
 10
623.8455738496643
 20
265.5116580083744
 30
0.0
 10
623.8456606438626
 20
265.5117081190281
 30
0.0
 10
623.8484004614951
 20
265.5132899534757
 30
0.0
 10
623.8533468583489
 20
265.5161457570309
 30
0.0
 10
623.8619386835287
 20
265.5211062496113
 30
0.0
 10
623.8757287279245
 20
265.5290679354552
 30
0.0
 10
623.896774774116
 20
265.5412188758893
 30
0.0
 10
623.9231790345831
 20
265.5564633827777
 30
0.0
 10
623.9549454641314
 20
265.5748037394286
 30
0.0
 10
623.9918518865225
 20
265.5961116723309
 30
0.0
 10
624.033787047745
 20
265.6203229489513
 30
0.0
 10
624.0806409764601
 20
265.6473740773075
 30
0.0
 10
624.1326667111291
 20
265.6774111492234
 30
0.0
 10
624.1901463950329
 20
265.7105970601983
 30
0.0
 10
624.2530787493347
 20
265.7469310718952
 30
0.0
 10
624.3214981660882
 20
265.7864330405756
 30
0.0
 10
624.3949939649206
 20
265.8288658598157
 30
0.0
 10
624.4735664945392
 20
265.874229730942
 30
0.0
 10
624.5475860850792
 20
265.9169649614656
 30
0.0
 10
624.6152010212616
 20
265.9560024630717
 30
0.0
 10
624.6748881004934
 20
265.9904628143333
 30
0.0
 10
624.736750895803
 20
266.0261793158581
 30
0.0
 10
624.8007893436385
 20
266.0631519309544
 30
0.0
 10
624.8670038765874
 20
266.1013809093768
 30
0.0
 10
624.946605285651
 20
266.1473388043275
 30
0.0
 10
625.0408501626192
 20
266.2017511094148
 30
0.0
 10
625.1512399344717
 20
266.2654846739098
 30
0.0
 10
625.2660233349786
 20
266.3317549010908
 30
0.0
 10
625.3852002140501
 20
266.4005617043039
 30
0.0
 10
625.4906918423918
 20
266.4614673243242
 30
0.0
 10
625.5805192069511
 20
266.5133291774331
 30
0.0
 10
625.6531653668944
 20
266.5552714574321
 30
0.0
 10
625.7271947957822
 20
266.5980123681284
 30
0.0
 10
625.8026076240226
 20
266.6415519848134
 30
0.0
 10
625.8794036987597
 20
266.6858902192355
 30
0.0
 10
625.9575834577143
 20
266.7310273241131
 30
0.0
 10
626.0613144880567
 20
266.7909164624045
 30
0.0
 10
626.1921924608687
 20
266.8664788952386
 30
0.0
 10
626.352306255388
 20
266.9589206376053
 30
0.0
 10
626.5167680912705
 20
267.0538727228235
 30
0.0
 10
626.6855772977146
 20
267.1513347636057
 30
0.0
 10
626.8387919145189
 20
267.2397932638614
 30
0.0
 10
626.9748239116337
 20
267.3183313740141
 30
0.0
 10
627.0923987148091
 20
267.3862132182772
 30
0.0
 10
627.2118364021385
 20
267.4551705992083
 30
0.0
 10
627.3320445810057
 20
267.524572823636
 30
0.0
 10
627.4515874275553
 20
267.5935909182711
 30
0.0
 10
627.5909714395605
 20
267.6740643151231
 30
0.0
 10
627.7521397973007
 20
267.7671149098492
 30
0.0
 10
627.9375321178802
 20
267.8741512160415
 30
0.0
 10
628.1260485750101
 20
267.9829912433121
 30
0.0
 10
628.3176885852752
 20
268.0936346548261
 30
0.0
 10
628.5124520009325
 20
268.2060813652842
 30
0.0
 10
628.7103389908946
 20
268.3203314722079
 30
0.0
 10
628.9109952646737
 20
268.4361804258889
 30
0.0
 10
629.1141251256827
 20
268.553457505823
 30
0.0
 10
629.3194499017258
 20
268.6720018205427
 30
0.0
 10
629.5270410721096
 20
268.7918546386451
 30
0.0
 10
629.736898327563
 20
268.9130157815727
 30
0.0
 10
629.9245932415994
 20
269.021381490717
 30
0.0
 10
630.0892944764489
 20
269.1164717929933
 30
0.0
 10
630.2303625699416
 20
269.1979174947454
 30
0.0
 10
630.3724016725764
 20
269.279923808887
 30
0.0
 10
630.5167049569768
 20
269.3632373489805
 30
0.0
 10
630.6647120658414
 20
269.4486892931254
 30
0.0
 10
630.8418174879984
 20
269.5509411562828
 30
0.0
 10
631.04710604373
 20
269.6694645591959
 30
0.0
 10
631.2795407156431
 20
269.803660779594
 30
0.0
 10
631.5134010000319
 20
269.9386800777385
 30
0.0
 10
631.7054458504313
 20
270.0495572238132
 30
0.0
 10
631.8548953429632
 20
270.1358419285567
 30
0.0
 10
631.9612607866625
 20
270.197252046109
 30
0.0
 10
632.0679133255795
 20
270.2588279181625
 30
0.0
 10
632.1748531645652
 20
270.320569662988
 30
0.0
 10
632.2820801924405
 20
270.3824772163962
 30
0.0
 10
632.389594623161
 20
270.4445507019144
 30
0.0
 10
632.5371289504927
 20
270.5297296855142
 30
0.0
 10
632.7248076795107
 20
270.6380860502338
 30
0.0
 10
632.952781438221
 20
270.7697067611933
 30
0.0
 10
633.1810163262596
 20
270.901478235241
 30
0.0
 10
633.4095108918273
 20
271.0333996341798
 30
0.0
 10
633.6119315618864
 20
271.150267262528
 30
0.0
 10
633.7881650030699
 20
271.2520156872355
 30
0.0
 10
633.9381753332694
 20
271.3386241917574
 30
0.0
 10
634.0882968701596
 20
271.4252969014921
 30
0.0
 10
634.2385297600687
 20
271.5120339009222
 30
0.0
 10
634.3888741523261
 20
271.5988352762633
 30
0.0
 10
634.5672409828901
 20
271.7018154139039
 30
0.0
 10
634.7733175128634
 20
271.8207937539576
 30
0.0
 10
635.0066985132171
 20
271.9555363373356
 30
0.0
 10
635.2392465754982
 20
272.089798023693
 30
0.0
 10
635.4709608752113
 20
272.2235783370076
 30
0.0
 10
635.7004664597035
 20
272.3560834479946
 30
0.0
 10
635.9277786161573
 20
272.4873221827133
 30
0.0
 10
636.1529177137796
 20
272.6173063013306
 30
0.0
 10
636.3772518730618
 20
272.7468256885807
 30
0.0
 10
636.601893539501
 20
272.8765226151706
 30
0.0
 10
636.8264679294659
 20
273.0061806996699
 30
0.0
 10
637.050585030913
 20
273.1355747685204
 30
0.0
 10
637.2727880544197
 20
273.2638637439566
 30
0.0
 10
637.4930761074304
 20
273.3910471106616
 30
0.0
 10
637.6863102660217
 20
273.5026109041409
 30
0.0
 10
637.8531673078674
 20
273.5989458621668
 30
0.0
 10
637.9942705862945
 20
273.6804118779502
 30
0.0
 10
638.1345529783821
 20
273.7614039547846
 30
0.0
 10
638.2740146904284
 20
273.8419222117762
 30
0.0
 10
638.4126556682352
 20
273.9219666176336
 30
0.0
 10
638.573071807769
 20
274.0145829189758
 30
0.0
 10
638.7543834273471
 20
274.1192632313463
 30
0.0
 10
638.9555147598156
 20
274.2353864602895
 30
0.0
 10
639.1538631162159
 20
274.3499029372506
 30
0.0
 10
639.3494270632841
 20
274.4628118347343
 30
0.0
 10
639.5140024138873
 20
274.5578294577069
 30
0.0
 10
639.6488198326
 20
274.6356663306922
 30
0.0
 10
639.7548980914776
 20
274.6969106420103
 30
0.0
 10
639.8600995932903
 20
274.7576487574011
 30
0.0
 10
639.9644245167635
 20
274.8178807800514
 30
0.0
 10
640.067872810548
 20
274.8776066803152
 30
0.0
 10
640.1704444593628
 20
274.9368264493696
 30
0.0
 10
640.3030324041648
 20
275.0133761349924
 30
0.0
 10
640.4641255737873
 20
275.1063833198385
 30
0.0
 10
640.6516969551105
 20
275.2146777073377
 30
0.0
 10
640.8351170400052
 20
275.3205753427264
 30
0.0
 10
641.0143840529203
 20
275.4240752008898
 30
0.0
 10
641.1693306643609
 20
275.5135336687151
 30
0.0
 10
641.3014581910919
 20
275.5898175318405
 30
0.0
 10
641.4120688633967
 20
275.6536786332711
 30
0.0
 10
641.5208997612331
 20
275.716512181433
 30
0.0
 10
641.62698561514
 20
275.7777608777433
 30
0.0
 10
641.7292088003935
 20
275.8367794612668
 30
0.0
 10
641.8447738830175
 20
275.9035009928288
 30
0.0
 10
641.973315087729
 20
275.9777142919709
 30
0.0
 10
642.1143144223446
 20
276.0591202957668
 30
0.0
 10
642.2509434286766
 20
276.1380030893517
 30
0.0
 10
642.3832016126067
 20
276.2143623874463
 30
0.0
 10
642.5110891222134
 20
276.2881982755437
 30
0.0
 10
642.634605234891
 20
276.3595103364472
 30
0.0
 10
642.7535431082343
 20
276.4281791496389
 30
0.0
 10
642.8677626428799
 20
276.4941238287133
 30
0.0
 10
642.977094763174
 20
276.5572467577961
 30
0.0
 10
643.0815826713688
 20
276.6175728797195
 30
0.0
 10
643.1812254598748
 20
276.6751016704862
 30
0.0
 10
643.2651061545372
 20
276.7235302121294
 30
0.0
 10
643.3349819924857
 20
276.7638730459788
 30
0.0
 10
643.3923427763276
 20
276.7969903099709
 30
0.0
 10
643.4476271406477
 20
276.8289087525931
 30
0.0
 10
643.5013155307629
 20
276.8599057590784
 30
0.0
 10
643.5538444022077
 20
276.8902333171472
 30
0.0
 10
643.6136032246203
 20
276.9247350893536
 30
0.0
 10
643.6783547159175
 20
276.9621193802845
 30
0.0
 10
643.7455976001586
 20
277.0009420776022
 30
0.0
 10
643.807219182281
 20
277.0365193146285
 30
0.0
 10
643.8529275255119
 20
277.062909038897
 30
0.0
 10
643.8857679685026
 20
277.0818694774981
 30
0.0
 10
643.9079452804597
 20
277.0946735545264
 30
0.0
 10
643.92898990184
 20
277.1068236723453
 30
0.0
 10
643.9489018831335
 20
277.1183198601053
 30
0.0
 10
643.9676812370744
 20
277.1291621251582
 30
0.0
 10
643.9853278622974
 20
277.1393504089809
 30
0.0
 10
644.0079289831239
 20
277.1523991721741
 30
0.0
 10
644.0335066607545
 20
277.1671664512393
 30
0.0
 10
644.0593430489404
 20
277.1820830969134
 30
0.0
 10
644.079991208168
 20
277.1940043172018
 30
0.0
 10
644.095421388351
 20
277.2029129358841
 30
0.0
 10
644.1045546319548
 20
277.2081860165372
 30
0.0
 10
644.1089865029754
 20
277.210744758464
 30
0.0
 10
644.1106350003839
 20
277.2116965188865
 30
0.0
 10
644.1103155631083
 20
277.2115120916895
 30
0.0
 10
644.1102486460737
 20
277.2114734571216
 30
0.0
  0
LINE
  5
9E
330
1F
100
AcDbEntity
  8
0
  6
Continuous
 62
     7
370
    30
100
AcDbLine
 10
466.8250339537
 20
329.0
 30
0.0
 11
466.8250339537
 21
256.0
 31
0.0
  0
LINE
  5
9F
330
1F
100
AcDbEntity
  8
0
  6
Continuous
 62
     7
370
    30
100
AcDbLine
 10
458.8250339537
 20
292.5
 30
0.0
 11
458.8250339537
 21
255.0
 31
0.0
  0
LINE
  5
A0
330
1F
100
AcDbEntity
  8
0
  6
Continuous
 62
     7
370
    30
100
AcDbLine
 10
458.8250339537
 20
330.0
 30
0.0
 11
458.8250339537
 21
292.5
 31
0.0
  0
ARC
  5
A1
330
1F
100
AcDbEntity
  8
0
  6
Continuous
 62
     7
370
    30
100
AcDbCircle
 10
53.3046043538
 20
269.2354643588
 30
0.0
 40
0.3000000000000193
100
AcDbArc
 50
310.5287793328
 51
330.0
  0
ARC
  5
A2
330
1F
100
AcDbEntity
  8
0
  6
Continuous
 62
     7
370
    30
100
AcDbCircle
 10
33.0396099053
 20
280.9354643588
 30
0.0
 40
0.3000000000000566
100
AcDbArc
 50
150.0
 51
169.4712206736
  0
ARC
  5
A3
330
1F
100
AcDbEntity
  8
0
  6
Continuous
 62
     7
370
    30
100
AcDbCircle
 10
207.8749660463
 20
304.2
 30
0.0
 40
0.3000000000000114
100
AcDbArc
 50
0.0
 51
90.0
  0
ARC
  5
A4
330
1F
100
AcDbEntity
  8
0
  6
Continuous
 62
     7
370
    30
100
AcDbCircle
 10
207.8749660463
 20
280.8
 30
0.0
 40
0.3000000000000114
100
AcDbArc
 50
270.0
 51
0.0
  0
LINE
  5
A5
330
1F
100
AcDbEntity
  8
0
  6
Continuous
 62
     7
370
    30
100
AcDbLine
 10
207.8749660463
 20
304.5
 30
0.0
 11
66.2167750266
 21
304.5
 31
0.0
  0
LINE
  5
A6
330
1F
100
AcDbEntity
  8
0
  6
Continuous
 62
     7
370
    30
100
AcDbLine
 10
66.2167750266
 20
280.5
 30
0.0
 11
207.8749660463
 21
280.5
 31
0.0
  0
LINE
  5
A7
330
1F
100
AcDbEntity
  8
0
  6
Continuous
 62
     7
370
    30
100
AcDbLine
 10
36.338898596
 20
287.25
 30
0.0
 11
32.7798022841
 21
281.0854643588
 31
0.0
  0
LINE
  5
A8
330
1F
100
AcDbEntity
  8
0
  6
Continuous
 62
     7
370
    30
100
AcDbLine
 10
53.564411975
 20
269.0854643588
 30
0.0
 11
57.1235082868
 21
275.25
 31
0.0
  0
ARC
  5
A9
330
1F
100
AcDbEntity
  8
0
  6
Continuous
 62
     7
370
    30
100
AcDbCircle
 10
32.9396099053
 20
280.762259278
 30
0.0
 40
0.3000000000000258
100
AcDbArc
 50
130.5287794046
 51
150.0
  0
ARC
  5
AA
330
1F
100
AcDbEntity
  8
0
  6
Continuous
 62
     7
370
    30
100
AcDbCircle
 10
53.2046043538
 20
269.062259278
 30
0.0
 40
0.3000000000000125
100
AcDbArc
 50
330.0
 51
349.4712206018
  0
ARC
  5
AB
330
1F
100
AcDbEntity
  8
0
  6
Continuous
 62
     7
370
    30
100
AcDbCircle
 10
31.0396099053
 20
277.4713627437
 30
0.0
 40
0.2999999999999953
100
AcDbArc
 50
150.0
 51
240.0
  0
ARC
  5
AC
330
1F
100
AcDbEntity
  8
0
  6
Continuous
 62
     7
370
    30
100
AcDbCircle
 10
51.3046043538
 20
265.7713627437
 30
0.0
 40
0.3000000000000113
100
AcDbArc
 50
240.0
 51
330.0
  0
LINE
  5
AD
330
1F
100
AcDbEntity
  8
0
  6
Continuous
 62
     7
370
    30
100
AcDbLine
 10
51.564411975
 20
265.6213627437
 30
0.0
 11
53.464411975
 21
268.912259278
 31
0.0
  0
LINE
  5
AE
330
1F
100
AcDbEntity
  8
0
  6
Continuous
 62
     7
370
    30
100
AcDbLine
 10
32.6798022841
 20
280.912259278
 30
0.0
 11
30.7798022841
 21
277.6213627437
 31
0.0
  0
ARC
  5
AF
330
1F
100
AcDbEntity
  8
0
  6
Continuous
 62
     7
370
    30
100
AcDbCircle
 10
209.1749660463
 20
256.0
 30
0.0
 40
1.0
100
AcDbArc
 50
180.0
 51
270.0
  0
ARC
  5
B0
330
1F
100
AcDbEntity
  8
0
  6
Continuous
 62
     7
370
    30
100
AcDbCircle
 10
209.1749660463
 20
329.0
 30
0.0
 40
1.0
100
AcDbArc
 50
90.0
 51
180.0
  0
LINE
  5
B1
330
1F
100
AcDbEntity
  8
0
  6
Continuous
 62
     7
370
    30
100
AcDbLine
 10
216.1749660463
 20
330.0
 30
0.0
 11
209.1749660463
 21
330.0
 31
0.0
  0
LINE
  5
B2
330
1F
100
AcDbEntity
  8
0
  6
Continuous
 62
     7
370
    30
100
AcDbLine
 10
209.1749660463
 20
255.0
 30
0.0
 11
216.1749660463
 21
255.0
 31
0.0
  0
SPLINE
  5
B3
330
1F
100
AcDbEntity
  8
0
  6
Continuous
 62
     7
370
    30
100
AcDbSpline
210
0.0
220
0.0
230
1.0
 70
     8
 71
     3
 72
    83
 73
    79
 74
     0
 42
0.000000001
 43
0.00000001
 40
0.0
 40
0.0
 40
0.0
 40
0.0
 40
0.0140496829789391
 40
0.0280992254556301
 40
0.0421486801701095
 40
0.0561980849018525
 40
0.0702474644451219
 40
0.0842968325846642
 40
0.0983461940715651
 40
0.1112247862217907
 40
0.1241033652997727
 40
0.136981923414469
 40
0.149860451644544
 40
0.1627389413172545
 40
0.1756173852873509
 40
0.1884957792160082
 40
0.2013741228497856
 40
0.2142524212996241
 40
0.2271306863198519
 40
0.2400089375871625
 40
0.2528872038458251
 40
0.2650296222383239
 40
0.2771721017231884
 40
0.2893146532077279
 40
0.3014572804419535
 40
0.3135999809777056
 40
0.3264786634204415
 40
0.339357405237758
 40
0.352236187900257
 40
0.3651149900367188
 40
0.377993788720981
 40
0.3908725607587867
 40
0.4030153687691073
 40
0.4151581166287193
 40
0.4273007903822723
 40
0.4394433798144157
 40
0.4515858794088518
 40
0.4651376481139953
 40
0.4786893152081642
 40
0.4922409026227305
 40
0.5057924459440848
 40
0.5193439931177442
 40
0.532895585952441
 40
0.5464472526263271
 40
0.5599990091835281
 40
0.5728773834333039
 40
0.5857558412859107
 40
0.5986343741913408
 40
0.6115129689703195
 40
0.6243916090972654
 40
0.6372702759831776
 40
0.6494130363018764
 40
0.6615557873340592
 40
0.6736985145797303
 40
0.6858412058475524
 40
0.6979838522107626
 40
0.7115358318540916
 40
0.7250877509332737
 40
0.738639620279508
 40
0.7521914620666809
 40
0.7657433102656385
 40
0.7792951967553454
 40
0.7928471405552918
 40
0.8063991501405784
 40
0.8199512251117759
 40
0.8335033578565398
 40
0.8470555352111355
 40
0.8606077401219138
 40
0.8741599533067016
 40
0.8877121549161585
 40
0.901264326195112
 40
0.9148164511439213
 40
0.9290138415221212
 40
0.9432111622558856
 40
0.9574084166426374
 40
0.9716056194947919
 40
0.9858027992364689
 40
1.0
 40
1.0
 40
1.0
 40
1.0
 10
36.33889859602053
 20
287.2499999999999
 30
0.0
 10
36.42409492198311
 20
287.3961834150645
 30
0.0
 10
36.59448672191211
 20
287.688548783303
 30
0.0
 10
36.85827181934511
 20
288.1222354306997
 30
0.0
 10
37.12796964135277
 20
288.5522496680038
 30
0.0
 10
37.40410596521339
 20
288.9781624765574
 30
0.0
 10
37.6864539994672
 20
289.3999791893575
 30
0.0
 10
37.97498852311511
 20
289.8175886395074
 30
0.0
 10
38.26144624329932
 20
290.2194303133608
 30
0.0
 10
38.5451880917627
 20
290.6058299488148
 30
0.0
 10
38.8256095217641
 20
290.9771226260451
 30
0.0
 10
39.11100352877119
 20
291.3446058264557
 30
0.0
 10
39.40131792572714
 20
291.708213045834
 30
0.0
 10
39.69650051753636
 20
292.0678776372245
 30
0.0
 10
39.99649911321164
 20
292.4235329903082
 30
0.0
 10
40.30126151906614
 20
292.7751124861271
 30
0.0
 10
40.61073555363993
 20
293.1225494986084
 30
0.0
 10
40.92486899465069
 20
293.4657774335438
 30
0.0
 10
41.24360977610249
 20
293.8047295709483
 30
0.0
 10
41.56690525162391
 20
294.13933965528
 30
0.0
 10
41.88846113226451
 20
294.4632501595598
 30
0.0
 10
42.20792459834622
 20
294.7766949644513
 30
0.0
 10
42.52495482594136
 20
295.0799179758121
 30
0.0
 10
42.84582173641445
 20
295.3790816760094
 30
0.0
 10
43.17046919132246
 20
295.6741424934929
 30
0.0
 10
43.50547464151629
 20
295.9709335326275
 30
0.0
 10
43.85104636614119
 20
296.269110119974
 30
0.0
 10
44.20738732543304
 20
296.5683103676807
 30
0.0
 10
44.56772074872835
 20
296.8626925436619
 30
0.0
 10
44.93197963838765
 20
297.1522044332685
 30
0.0
 10
45.30009699275926
 20
297.4367938271435
 30
0.0
 10
45.66492219200179
 20
297.7110827831106
 30
0.0
 10
46.02614334405474
 20
297.975348261029
 30
0.0
 10
46.38346674804496
 20
298.2298684068244
 30
0.0
 10
46.74398891502575
 20
298.4798322671923
 30
0.0
 10
47.10765385373423
 20
298.7251961924624
 30
0.0
 10
47.48859448203817
 20
298.9752295193902
 30
0.0
 10
47.88718022545448
 20
299.2292337671053
 30
0.0
 10
48.30377629739842
 20
299.4864597579903
 30
0.0
 10
48.72399095450363
 20
299.7377258476494
 30
0.0
 10
49.14774727038971
 20
299.9829689994985
 30
0.0
 10
49.57496129040727
 20
300.2221380313539
 30
0.0
 10
50.00553991803918
 20
300.4551982984727
 30
0.0
 10
50.43939195785872
 20
300.6821120011348
 30
0.0
 10
50.86918627083691
 20
300.8991857997035
 30
0.0
 10
51.2946540347854
 20
301.1067377552326
 30
0.0
 10
51.71554471884056
 20
301.3050843175279
 30
0.0
 10
52.13906905497613
 20
301.4977494970293
 30
0.0
 10
52.56514855973203
 20
301.6847014809501
 30
0.0
 10
52.99370461017887
 20
301.8659083916919
 30
0.0
 10
53.41645033361393
 20
302.0379969866779
 30
0.0
 10
53.83315433576095
 20
302.2013160503477
 30
0.0
 10
54.24360320214385
 20
302.356210626601
 30
0.0
 10
54.65598231028395
 20
302.5058879211675
 30
0.0
 10
55.07022597594051
 20
302.6503212885486
 30
0.0
 10
55.50236446619898
 20
302.7948680511674
 30
0.0
 10
55.95257606677819
 20
302.9387609186131
 30
0.0
 10
56.42102186642149
 20
303.0811854877453
 30
0.0
 10
56.8914431571818
 20
303.2169372877907
 30
0.0
 10
57.36374816658747
 20
303.3459796213053
 30
0.0
 10
57.837845589315
 20
303.4682735544021
 30
0.0
 10
58.31363803473207
 20
303.5838021833016
 30
0.0
 10
58.79102736689205
 20
303.6925523710172
 30
0.0
 10
59.26991567054339
 20
303.7945100019422
 30
0.0
 10
59.75020496986248
 20
303.8896612201588
 30
0.0
 10
60.23179730577762
 20
303.9779920976716
 30
0.0
 10
60.71459471567294
 20
304.0594887251971
 30
0.0
 10
61.19849923698185
 20
304.1341371807486
 30
0.0
 10
61.68341291275011
 20
304.2019235644543
 30
0.0
 10
62.16923776543366
 20
304.2628338906524
 30
0.0
 10
62.65587589579054
 20
304.3168544846407
 30
0.0
 10
63.15096468963548
 20
304.3647183585949
 30
0.0
 10
63.65444188177182
 20
304.4060256372146
 30
0.0
 10
64.16622947493207
 20
304.4403494417966
 30
0.0
 10
64.678469382131
 20
304.4670885662891
 30
0.0
 10
65.19104887080661
 20
304.4860394414258
 30
0.0
 10
65.7038554665471
 20
304.4978859567295
 30
0.0
 10
66.04580175551779
 20
304.499295318562
 30
0.0
 10
66.21677502658353
 20
304.5
 30
0.0
  0
SPLINE
  5
B4
330
1F
100
AcDbEntity
  8
0
  6
Continuous
 62
     7
370
    30
100
AcDbSpline
210
0.0
220
0.0
230
1.0
 70
     8
 71
     3
 72
    50
 73
    46
 74
     0
 42
0.000000001
 43
0.00000001
 40
0.0
 40
0.0
 40
0.0
 40
0.0
 40
0.0250876768779993
 40
0.0501753924840079
 40
0.0752632939992823
 40
0.1003514067978538
 40
0.125439670574936
 40
0.1505279754737983
 40
0.1756161982102542
 40
0.1986136823032841
 40
0.2216109773510036
 40
0.244608113221287
 40
0.2676052092001884
 40
0.2906024146539043
 40
0.3135997939370859
 40
0.3365973332354074
 40
0.3595949638626705
 40
0.3825925855565486
 40
0.4055900897728543
 40
0.428587382979533
 40
0.4515844099518272
 40
0.4732671403292157
 40
0.4949497132329531
 40
0.5166322843739176
 40
0.5383150290368155
 40
0.5599980405338799
 40
0.5829954228180309
 40
0.605993075449133
 40
0.6289908990066212
 40
0.6519887674399316
 40
0.6749865514359649
 40
0.6979841417861774
 40
0.7196674050708884
 40
0.7413504362499157
 40
0.763033304680526
 40
0.7847161500904485
 40
0.8063990843563755
 40
0.830598822610135
 40
0.8547987299729486
 40
0.8789987622657456
 40
0.9031988620325009
 40
0.9273989885041874
 40
0.9515991475625478
 40
0.9757994217037561
 40
1.0
 40
1.0
 40
1.0
 40
1.0
 10
66.21677502658353
 20
280.5
 30
0.0
 10
66.12482377681263
 20
280.4993158038475
 30
0.0
 10
65.940921135325
 20
280.4979474104862
 30
0.0
 10
65.6652573185403
 20
280.4866570956103
 30
0.0
 10
65.3899739895936
 20
280.4686384394523
 30
0.0
 10
65.11526005720951
 20
280.443253191691
 30
0.0
 10
64.84130450658924
 20
280.4107064709326
 30
0.0
 10
64.56829654360034
 20
280.3709774333451
 30
0.0
 10
64.3039759677901
 20
280.325407499562
 30
0.0
 10
64.04840867547233
 20
280.2746962231481
 30
0.0
 10
63.8016166679125
 20
280.2195155172701
 30
0.0
 10
63.55622974047405
 20
280.1583947145321
 30
0.0
 10
63.31239403621765
 20
280.091353692162
 30
0.0
 10
63.07024676533045
 20
280.0184468051207
 30
0.0
 10
62.82992388263391
 20
279.9397295531643
 30
0.0
 10
62.59156146062349
 20
279.8552570596955
 30
0.0
 10
62.355295525877
 20
279.7650845284927
 30
0.0
 10
62.121262130879
 20
279.6692671298911
 30
0.0
 10
61.88959729260819
 20
279.5678600170033
 30
0.0
 10
61.66043717042648
 20
279.4609183763151
 30
0.0
 10
61.43823182184362
 20
279.350638437188
 30
0.0
 10
61.22293676018951
 20
279.2374315638015
 30
0.0
 10
61.01448680424849
 20
279.1216909370119
 30
0.0
 10
60.80873519337975
 20
279.0012187323512
 30
0.0
 10
60.60578293578909
 20
278.8760851637971
 30
0.0
 10
60.40168528113953
 20
278.7437472298895
 30
0.0
 10
60.19675387246322
 20
278.603955285554
 30
0.0
 10
59.99132670902295
 20
278.4564681330552
 30
0.0
 10
59.78949842599636
 20
278.3040901503589
 30
0.0
 10
59.59138506014751
 20
278.146911776327
 30
0.0
 10
59.39710266031038
 20
277.9850234356986
 30
0.0
 10
59.21039210489855
 20
277.821686654035
 30
0.0
 10
59.03110423505754
 20
277.6572897002835
 30
0.0
 10
58.85907499556277
 20
277.4921975404387
 30
0.0
 10
58.69085365424055
 20
277.323229133292
 30
0.0
 10
58.52652954593194
 20
277.1504685699422
 30
0.0
 10
58.35997295835772
 20
276.9671887897633
 30
0.0
 10
58.19182444884359
 20
276.7729807069475
 30
0.0
 10
58.02278545513266
 20
276.5674534512692
 30
0.0
 10
57.85899612425281
 20
276.3577162861767
 30
0.0
 10
57.70057223939294
 20
276.1438978785808
 30
0.0
 10
57.54758062128827
 20
275.9261548075317
 30
0.0
 10
57.40027024831245
 20
275.7045386159373
 30
0.0
 10
57.25821051168993
 20
275.4794930274901
 30
0.0
 10
57.16840921656733
 20
275.3264979963079
 30
0.0
 10
57.12350828684652
 20
275.25
 30
0.0
  0
SPLINE
  5
B5
330
1F
100
AcDbEntity
  8
0
  6
Continuous
 62
     7
370
    30
100
AcDbSpline
210
0.0
220
0.0
230
1.0
 70
    24
 71
     3
 72
   120
 73
   116
 74
     0
 42
0.000000001
 43
0.00000001
 40
0.0
 40
0.0
 40
0.0
 40
0.0
 40
0.0109770288590537
 40
0.0219374718099051
 40
0.0328870979192176
 40
0.0438316933588465
 40
0.0547770522789153
 40
0.0619469375503839
 40
0.0691212577496029
 40
0.076301633866048
 40
0.0834896827921538
 40
0.0908828743168374
 40
0.0985004776375258
 40
0.1099116265152031
 40
0.1213104415018599
 40
0.1327034586179706
 40
0.1440972238618357
 40
0.1492148711211242
 40
0.1543345802592745
 40
0.1594569422467751
 40
0.1645825471365106
 40
0.169711983862248
 40
0.1748458400390381
 40
0.1799847017658762
 40
0.1908116066101777
 40
0.2016203697725584
 40
0.212416520863555
 40
0.2232056088854902
 40
0.2339931937401635
 40
0.2410584323247555
 40
0.2481269713195151
 40
0.2552003687151724
 40
0.2622801792950213
 40
0.2693679536219458
 40
0.2764652370392443
 40
0.2875238323841554
 40
0.2985630527892291
 40
0.3095887883192266
 40
0.3206069506650703
 40
0.3316234637094753
 40
0.3424473909201758
 40
0.3532810522652045
 40
0.3641300409270057
 40
0.3749999264276871
 40
0.3860585222148981
 40
0.397097742867715
 40
0.4081234785066353
 40
0.41914164087875
 40
0.430158153923192
 40
0.4373733871523818
 40
0.4445921165177213
 40
0.4518160019489931
 40
0.4590466998249956
 40
0.4662858618482981
 40
0.4735351339359604
 40
0.4843620399993916
 40
0.4951708038445298
 40
0.5059669552356483
 40
0.5167560433299343
 40
0.5275436281847087
 40
0.5335993960898554
 40
0.5396574251869849
 40
0.5457186969923242
 40
0.5517841914478981
 40
0.5578548864508484
 40
0.5639317573876845
 40
0.5700157766745487
 40
0.5816528065173773
 40
0.5932705941237515
 40
0.6048760175084053
 40
0.6164759766796077
 40
0.6280773813952598
 40
0.6356777415895077
 40
0.6432836186875573
 40
0.6508969443113166
 40
0.6585196444202362
 40
0.6659475383153685
 40
0.6731317750532868
 40
0.6841150492400889
 40
0.6950878989194296
 40
0.7060561523274552
 40
0.7170256450264924
 40
0.7280022106023051
 40
0.7389916713770793
 40
0.7499998292118325
 40
0.7609744994827528
 40
0.7719332542045837
 40
0.7828818679834123
 40
0.793826131477568
 40
0.8047718422497351
 40
0.8119423295218118
 40
0.8191175462826854
 40
0.8262991137213653
 40
0.8334886487307641
 40
0.8408827633804618
 40
0.8485003667011535
 40
0.8599115155788328
 40
0.8713103305654915
 40
0.8827033476816026
 40
0.8940971129254677
 40
0.8992147601847551
 40
0.9043344693229046
 40
0.9094568313104038
 40
0.9145824362001381
 40
0.9197118729258739
 40
0.9248457291026624
 40
0.9299845908294987
 40
0.9408114956738003
 40
0.9516202588361817
 40
0.9624164099271781
 40
0.9732054979491132
 40
0.9839930828037864
 40
0.9910583213883782
 40
0.9981268603831384
 40
1.0
 40
1.0
 40
1.0
 40
1.0
 10
35.95585851742257
 20
274.2865551225335
 30
0.0
 10
36.02336134717844
 20
274.2475823456029
 30
0.0
 10
36.15826501226606
 20
274.1696956782499
 30
0.0
 10
36.36377374708631
 20
274.0510451548806
 30
0.0
 10
36.57134508518519
 20
273.9312037869532
 30
0.0
 10
36.78121969443664
 20
273.8100326248058
 30
0.0
 10
36.96890762100348
 20
273.7016709498788
 30
0.0
 10
37.13359689788521
 20
273.6065875515385
 30
0.0
 10
37.27464691227385
 20
273.525152287762
 30
0.0
 10
37.41666218963409
 20
273.443159729149
 30
0.0
 10
37.56094139821321
 20
273.3598600892374
 30
0.0
 10
37.70893251720771
 20
273.2744173768482
 30
0.0
 10
37.88603174508955
 20
273.1721690899573
 30
0.0
 10
38.0913203034864
 20
273.0536456855055
 30
0.0
 10
38.3237549745971
 20
272.9194494655706
 30
0.0
 10
38.55761525920219
 20
272.7844301673011
 30
0.0
 10
38.74966010955004
 20
272.6735530212563
 30
0.0
 10
38.89910960208777
 20
272.5872683165094
 30
0.0
 10
39.0054750457859
 20
272.5258581989578
 30
0.0
 10
39.11212758470324
 20
272.4642823269041
 30
0.0
 10
39.21906742368871
 20
272.4025405820788
 30
0.0
 10
39.3262944515639
 20
272.3406330286706
 30
0.0
 10
39.43380888228422
 20
272.2785595431525
 30
0.0
 10
39.58134320961544
 20
272.1933805595531
 30
0.0
 10
39.76902193863287
 20
272.0850241948337
 30
0.0
 10
39.99699569734215
 20
271.9534034838747
 30
0.0
 10
40.22523058538042
 20
271.8216320098274
 30
0.0
 10
40.45372515094779
 20
271.6897106108887
 30
0.0
 10
40.65614582100684
 20
271.5728429825405
 30
0.0
 10
40.83237926219039
 20
271.471094557833
 30
0.0
 10
40.9823895923903
 20
271.3844860533109
 30
0.0
 10
41.13251112928094
 20
271.2978133435759
 30
0.0
 10
41.28274401919042
 20
271.2110763441456
 30
0.0
 10
41.43308841144859
 20
271.1242749688042
 30
0.0
 10
41.61145524201175
 20
271.0212948311639
 30
0.0
 10
41.81753177198321
 20
270.9023164911113
 30
0.0
 10
42.05091277233431
 20
270.7675739077348
 30
0.0
 10
42.28346083461366
 20
270.6333122213783
 30
0.0
 10
42.51517513432594
 20
270.4995319080643
 30
0.0
 10
42.74468071881817
 20
270.3670267970772
 30
0.0
 10
42.97199287527291
 20
270.235788062358
 30
0.0
 10
43.19713197289686
 20
270.1058039437397
 30
0.0
 10
43.42146613218171
 20
269.9762845564882
 30
0.0
 10
43.64610779862336
 20
269.8465876298969
 30
0.0
 10
43.87068218858987
 20
269.7169295453967
 30
0.0
 10
44.09479929003761
 20
269.5875354765458
 30
0.0
 10
44.31700231354458
 20
269.4592465011093
 30
0.0
 10
44.53729036655559
 20
269.3320631344041
 30
0.0
 10
44.73052452514674
 20
269.2204993409249
 30
0.0
 10
44.89738156699251
 20
269.124164382899
 30
0.0
 10
45.03848484541929
 20
269.0426983671158
 30
0.0
 10
45.17876723750668
 20
268.9617062902816
 30
0.0
 10
45.31822894955269
 20
268.8811880332902
 30
0.0
 10
45.45686992735885
 20
268.8011436274331
 30
0.0
 10
45.61728606689326
 20
268.7085273260905
 30
0.0
 10
45.79859768647283
 20
268.603847013719
 30
0.0
 10
45.99972901894374
 20
268.4877237847745
 30
0.0
 10
46.19807737534552
 20
268.3732073078126
 30
0.0
 10
46.39364132241462
 20
268.2602984103285
 30
0.0
 10
46.55821667301786
 20
268.1652807873558
 30
0.0
 10
46.69303409173033
 20
268.0874439143706
 30
0.0
 10
46.79911235060722
 20
268.0261996030529
 30
0.0
 10
46.90431385241918
 20
267.9654614876626
 30
0.0
 10
47.00863877589111
 20
267.9052294650129
 30
0.0
 10
47.11208706967442
 20
267.8455035647499
 30
0.0
 10
47.21465871848761
 20
267.7862837956964
 30
0.0
 10
47.34724666328867
 20
267.7097341100741
 30
0.0
 10
47.50833983291054
 20
267.6167269252284
 30
0.0
 10
47.69591121423412
 20
267.5084325377289
 30
0.0
 10
47.87933129912893
 20
267.4025349023401
 30
0.0
 10
48.05859831204413
 20
267.2990350441768
 30
0.0
 10
48.21354492348472
 20
267.2095765763515
 30
0.0
 10
48.34567245021561
 20
267.1332927132261
 30
0.0
 10
48.45628312252028
 20
267.0694316117957
 30
0.0
 10
48.56511402035642
 20
267.0065980636339
 30
0.0
 10
48.67119987426326
 20
266.9453493673236
 30
0.0
 10
48.77342305951639
 20
266.8863307838002
 30
0.0
 10
48.88898814214006
 20
266.8196092522385
 30
0.0
 10
49.01752934685121
 20
266.7453959530966
 30
0.0
 10
49.15852868146649
 20
266.6639899493009
 30
0.0
 10
49.29515768779859
 20
266.585107155716
 30
0.0
 10
49.42741587172873
 20
266.5087478576214
 30
0.0
 10
49.55530338133572
 20
266.4349119695238
 30
0.0
 10
49.67881949401341
 20
266.36359990862
 30
0.0
 10
49.79775736735713
 20
266.2949310954282
 30
0.0
 10
49.91197690200276
 20
266.2289864163538
 30
0.0
 10
50.02130902229672
 20
266.165863487271
 30
0.0
 10
50.12579693049159
 20
266.1055373653476
 30
0.0
 10
50.22543971899753
 20
266.048008574581
 30
0.0
 10
50.30932041365995
 20
265.9995800329378
 30
0.0
 10
50.37919625160838
 20
265.9592371990884
 30
0.0
 10
50.43655703545037
 20
265.9261199350963
 30
0.0
 10
50.49184139977068
 20
265.8942014924741
 30
0.0
 10
50.54552978988601
 20
265.8632044859885
 30
0.0
 10
50.59805866133106
 20
265.8328769279195
 30
0.0
 10
50.6578174837443
 20
265.7983751557128
 30
0.0
 10
50.72256897504197
 20
265.7609908647817
 30
0.0
 10
50.78981185928329
 20
265.7221681674638
 30
0.0
 10
50.85143344140607
 20
265.6865909304374
 30
0.0
 10
50.89714178463665
 20
265.660201206169
 30
0.0
 10
50.92998222762736
 20
265.641240767568
 30
0.0
 10
50.95215953958436
 20
265.6284366905398
 30
0.0
 10
50.97320416096441
 20
265.6162865727209
 30
0.0
 10
50.99311614225783
 20
265.6047903849612
 30
0.0
 10
51.01189549619821
 20
265.5939481199084
 30
0.0
 10
51.02954212142082
 20
265.5837598360858
 30
0.0
 10
51.05214324224703
 20
265.5707110728928
 30
0.0
 10
51.07772091987735
 20
265.5559437938277
 30
0.0
 10
51.10355730806328
 20
265.5410271481538
 30
0.0
 10
51.12420546729086
 20
265.5291059278654
 30
0.0
 10
51.13963564747385
 20
265.5201973091831
 30
0.0
 10
51.14876889107757
 20
265.5149242285299
 30
0.0
 10
51.15320076209822
 20
265.5123654866031
 30
0.0
 10
51.15484925950671
 20
265.5114137261806
 30
0.0
 10
51.15452982223113
 20
265.5115981533776
 30
0.0
 10
51.15446290519664
 20
265.5116367879455
 30
0.0
  0
SPLINE
  5
B6
330
1F
100
AcDbEntity
  8
0
  6
Continuous
 62
     7
370
    30
100
AcDbSpline
210
0.0
220
0.0
230
1.0
 70
    24
 71
     3
 72
    61
 73
    57
 74
     0
 42
0.000000001
 43
0.00000001
 40
0.0
 40
0.0
 40
0.0
 40
0.0
 40
0.0104005201715699
 40
0.0245601476135783
 40
0.0387357025568295
 40
0.0529302756892941
 40
0.0750474761916124
 40
0.0971259267971262
 40
0.1191774076405789
 40
0.1412137421090623
 40
0.1632467779732639
 40
0.1848946419992241
 40
0.2065619743025352
 40
0.2282599612530478
 40
0.2499997418999162
 40
0.2721169432865663
 40
0.294195394387363
 40
0.3162468754485278
 40
0.3382832099694889
 40
0.3603162458337645
 40
0.3747467186945808
 40
0.3891841838308513
 40
0.4036319611036169
 40
0.4180933632719416
 40
0.4325716937424314
 40
0.4470702443506666
 40
0.4687240660842588
 40
0.4903416033652708
 40
0.5119339157271551
 40
0.5335121014892137
 40
0.5550872807710168
 40
0.5671988219548824
 40
0.5793148855247539
 40
0.5914374345139547
 40
0.603568428807404
 40
0.6157098242002559
 40
0.6278635714663908
 40
0.6400316154389575
 40
0.6633056854503292
 40
0.6865412709717996
 40
0.7097521280389375
 40
0.7329520566744077
 40
0.7561548764001418
 40
0.7713556035328102
 40
0.7865673644780133
 40
0.8017940224812794
 40
0.8170394294632205
 40
0.8318968145352945
 40
0.8462683139821066
 40
0.8682383516349087
 40
0.8901861588169765
 40
0.9121233944748597
 40
0.9340617344095682
 40
0.9560128526600082
 40
0.9779884029004844
 40
1.0
 40
1.0
 40
1.0
 40
1.0
 10
30.88975135392626
 20
277.2114734571216
 30
0.0
 10
30.88978810878722
 20
277.2114522366928
 30
0.0
 10
30.88987490298557
 20
277.2114021260389
 30
0.0
 10
30.89261472061795
 20
277.2098202915914
 30
0.0
 10
30.89756111747201
 20
277.2069644880362
 30
0.0
 10
30.9061529426516
 20
277.2020039954559
 30
0.0
 10
30.91994298704743
 20
277.1940423096119
 30
0.0
 10
30.94098903323879
 20
277.1818913691779
 30
0.0
 10
30.96739329370583
 20
277.1666468622895
 30
0.0
 10
30.99915972325402
 20
277.1483065056386
 30
0.0
 10
31.03606614564518
 20
277.1269985727363
 30
0.0
 10
31.07800130686784
 20
277.1027872961159
 30
0.0
 10
31.12485523558296
 20
277.0757361677595
 30
0.0
 10
31.17688097025208
 20
277.0456990958436
 30
0.0
 10
31.23436065415548
 20
277.012513184869
 30
0.0
 10
31.29729300845659
 20
276.9761791731726
 30
0.0
 10
31.36571242520901
 20
276.9366772044926
 30
0.0
 10
31.43920822404077
 20
276.8942443852529
 30
0.0
 10
31.51778075365912
 20
276.8488805141268
 30
0.0
 10
31.59180034419921
 20
276.8061452836033
 30
0.0
 10
31.65941528038156
 20
276.7671077819971
 30
0.0
 10
31.7191023596138
 20
276.7326474307352
 30
0.0
 10
31.78096515492369
 20
276.6969309292102
 30
0.0
 10
31.84500360275995
 20
276.6599583141135
 30
0.0
 10
31.91121813570959
 20
276.6217293356908
 30
0.0
 10
31.99081954477349
 20
276.5757714407398
 30
0.0
 10
32.08506442174137
 20
276.5213591356527
 30
0.0
 10
32.19545419359316
 20
276.4576255711582
 30
0.0
 10
32.31023759409941
 20
276.3913553439775
 30
0.0
 10
32.42941447317067
 20
276.3225485407645
 30
0.0
 10
32.53490610151223
 20
276.2616429207442
 30
0.0
 10
32.6247334660716
 20
276.2097810676353
 30
0.0
 10
32.69737962601526
 20
276.1678387876362
 30
0.0
 10
32.77140905490337
 20
276.1250978769397
 30
0.0
 10
32.84682188314418
 20
276.0815582602546
 30
0.0
 10
32.92361795788175
 20
276.0372200258321
 30
0.0
 10
33.0017977168368
 20
275.9920829209542
 30
0.0
 10
33.10552874717891
 20
275.9321937826629
 30
0.0
 10
33.23640671998925
 20
275.8566313498299
 30
0.0
 10
33.39652051451077
 20
275.7641896074619
 30
0.0
 10
33.56098235037904
 20
275.669237522252
 30
0.0
 10
33.72979155687302
 20
275.5717754814409
 30
0.0
 10
33.88300617351166
 20
275.4833169812808
 30
0.0
 10
34.01903817104769
 20
275.404778870885
 30
0.0
 10
34.13661297281366
 20
275.3368970274355
 30
0.0
 10
34.2560506654339
 20
275.2679396434498
 30
0.0
 10
34.37626304316093
 20
275.1985349948092
 30
0.0
 10
34.49581843876729
 20
275.1295096549728
 30
0.0
 10
34.63522404333362
 20
275.0490237916499
 30
0.0
 10
34.79641560054088
 20
274.9559598027051
 30
0.0
 10
34.98182400615009
 20
274.8489142098167
 30
0.0
 10
35.17034910361593
 20
274.7400691940458
 30
0.0
 10
35.36197292116867
 20
274.6294351313985
 30
0.0
 10
35.55676022304861
 20
274.5169746302234
 30
0.0
 10
35.75446859166777
 20
274.4028276503801
 30
0.0
 10
35.88869187746206
 20
274.3253338001953
 30
0.0
 10
35.9558585174226
 20
274.2865551225335
 30
0.0
  0
SPLINE
  5
B7
330
1F
100
AcDbEntity
  8
0
  6
Continuous
 62
     7
370
    30
100
AcDbSpline
210
0.0
220
0.0
230
1.0
 70
    24
 71
     3
 72
   153
 73
   149
 74
     0
 42
0.000000001
 43
0.00000001
 40
0.0
 40
0.0
 40
0.0
 40
0.0
 40
0.0082006783373493
 40
0.0163931683161296
 40
0.0245788170100741
 40
0.0327589748726982
 40
0.0409349950783202
 40
0.0489623006877174
 40
0.0569882075738085
 40
0.0650140016296285
 40
0.073040968802438
 40
0.081070394475858
 40
0.089103562853359
 40
0.0971417563445783
 40
0.1051862549559256
 40
0.1083486151895364
 40
0.1115122229238993
 40
0.1146771553491928
 40
0.1179246884871436
 40
0.1212802644389429
 40
0.1246342912008515
 40
0.1279868607162447
 40
0.1313380650484408
 40
0.1400367166173954
 40
0.14872839840074
 40
0.1574147326830052
 40
0.1660973447461502
 40
0.1747778619629045
 40
0.1834579128842499
 40
0.192139126323592
 40
0.2010547533707497
 40
0.2099750820968314
 40
0.218901869905392
 40
0.2247979672385519
 40
0.230698145094666
 40
0.2325534153846433
 40
0.2344091538794811
 40
0.2362653761279316
 40
0.2381220976665938
 40
0.2399793340195364
 40
0.2480691461617827
 40
0.2561500553127538
 40
0.2642233513472034
 40
0.2722903277917996
 40
0.280352281215113
 40
0.2882666406630173
 40
0.2961786402291137
 40
0.3040895133516118
 40
0.3120004939956089
 40
0.3199128160758962
 40
0.327827712879885
 40
0.3357464164919957
 40
0.343670157220856
 40
0.347823130162993
 40
0.3519779982976732
 40
0.3561349375618942
 40
0.3602941236298218
 40
0.364455731891089
 40
0.3686199374292719
 40
0.3768830296871364
 40
0.3851366310753207
 40
0.3933821153490524
 40
0.4016208603239821
 40
0.4098542471991241
 40
0.4179367349040465
 40
0.4260167020352386
 40
0.434095462785137
 40
0.4421743319349055
 40
0.4504195498675547
 40
0.458667645731191
 40
0.4669200141896866
 40
0.4751780477421735
 40
0.483443136024425
 40
0.4917166651174424
 40
0.5000000168649411
 40
0.5082631092405674
 40
0.5165167107171944
 40
0.5247621950542026
 40
0.5330009400714206
 40
0.5412343269720615
 40
0.5493168146897696
 40
0.5573967818256235
 40
0.5654755425760725
 40
0.5735544117262968
 40
0.5816347040085624
 40
0.5897177334607032
 40
0.5978048127862968
 40
0.6058972527180883
 40
0.6101387492050516
 40
0.6143822631285215
 40
0.6186279818867211
 40
0.6228760925860862
 40
0.6271267820171881
 40
0.6313802366308622
 40
0.6394700490982351
 40
0.6475509584934277
 40
0.6556242547026513
 40
0.6636912312640969
 40
0.6717531847579135
 40
0.6796675442412118
 40
0.6875795438202484
 40
0.6954904169442953
 40
0.703401397589521
 40
0.7113137196817894
 40
0.7192286165195719
 40
0.7271473201983297
 40
0.7350710610376984
 40
0.7420491050674805
 40
0.7490328358254423
 40
0.7508629601779426
 40
0.752693546686621
 40
0.7545246102787938
 40
0.7563561658701128
 40
0.7581882283642124
 40
0.7600208126523602
 40
0.7687160706568184
 40
0.7774016420391239
 40
0.7860791313340313
 40
0.7947501475629642
 40
0.8034163033528562
 40
0.8119245406426752
 40
0.8204311797460156
 40
0.8289377535786844
 40
0.8374457950917684
 40
0.8459568364433087
 40
0.854472408172115
 40
0.8629940383759441
 40
0.8715232518962365
 40
0.8748764421561694
 40
0.8782311295503775
 40
0.8815874059672754
 40
0.8848628497825313
 40
0.8880272695815061
 40
0.8911903937110004
 40
0.8943522994088644
 40
0.8975130640022714
 40
0.9057180172084173
 40
0.9139171531809316
 40
0.922111833662218
 40
0.9303034226166786
 40
0.938493285553332
 40
0.94668278884458
 40
0.9548732990428164
 40
0.9638856404489523
 40
0.9729026696316222
 40
0.9819262002726616
 40
0.9909580421372384
 40
0.9999999999999999
 40
0.9999999999999999
 40
0.9999999999999999
 40
0.9999999999999999
 10
208.1749660463205
 20
292.5
 30
0.0
 10
208.1749660463205
 20
292.656727157412
 30
0.0
 10
208.1749660463205
 20
292.9700249805277
 30
0.0
 10
208.1749660463205
 20
293.4396857975937
 30
0.0
 10
208.1749660463205
 20
293.9088002312953
 30
0.0
 10
208.1749660463205
 20
294.3773682327334
 30
0.0
 10
208.1749660463205
 20
294.8426054416347
 30
0.0
 10
208.1749660463205
 20
295.3045201116986
 30
0.0
 10
208.1749660463205
 20
295.7631236658243
 30
0.0
 10
208.1749660463205
 20
296.221199980288
 30
0.0
 10
208.1749660463205
 20
296.6787490483799
 30
0.0
 10
208.1749660463205
 20
297.1357707894692
 30
0.0
 10
208.1749660463205
 20
297.5922653232572
 30
0.0
 10
208.1749660463205
 20
298.0482320437373
 30
0.0
 10
208.1749660463205
 20
298.4114004116159
 30
0.0
 10
208.1749660463205
 20
298.6821829477142
 30
0.0
 10
208.1749660463205
 20
298.860868258887
 30
0.0
 10
208.1749660463205
 20
299.0409995214015
 30
0.0
 10
208.1749660463205
 20
299.2245747430205
 30
0.0
 10
208.1749660463205
 20
299.4115235441396
 30
0.0
 10
208.1749660463205
 20
299.6002539091535
 30
0.0
 10
208.1749660463205
 20
299.7887066129688
 30
0.0
 10
208.1749660463205
 20
300.0769929396848
 30
0.0
 10
208.1749660463205
 20
300.4644500300208
 30
0.0
 10
208.1749660463205
 20
300.9500830675127
 30
0.0
 10
208.1749660463205
 20
301.4338426576721
 30
0.0
 10
208.1749660463205
 20
301.9157280195345
 30
0.0
 10
208.1749660463205
 20
302.395739286902
 30
0.0
 10
208.1749660463205
 20
302.8738763952037
 30
0.0
 10
208.1749660463205
 20
303.3543746104393
 30
0.0
 10
208.1749660463205
 20
303.837176045482
 30
0.0
 10
208.1749660463205
 20
304.3222158175772
 30
0.0
 10
208.1749660463205
 20
304.7504689463958
 30
0.0
 10
208.1749660463205
 20
305.1226923062972
 30
0.0
 10
208.1749660463205
 20
305.3670663203523
 30
0.0
 10
208.1749660463205
 20
305.5387191054284
 30
0.0
 10
208.1749660463205
 20
305.6380381189384
 30
0.0
 10
208.1749660463205
 20
305.7372721204336
 30
0.0
 10
208.1749660463205
 20
305.8364211719173
 30
0.0
 10
208.1749660463205
 20
306.0462894449795
 30
0.0
 10
208.1749660463205
 20
306.3658446895813
 30
0.0
 10
208.1749660463205
 20
306.7933599596639
 30
0.0
 10
208.1749660463205
 20
307.2181814610217
 30
0.0
 10
208.1749660463205
 20
307.6403084490901
 30
0.0
 10
208.1749660463205
 20
308.0572462654553
 30
0.0
 10
208.1749660463205
 20
308.4690475205658
 30
0.0
 10
208.1749660463205
 20
308.8757673615664
 30
0.0
 10
208.1749660463205
 20
309.279888084842
 30
0.0
 10
208.1749660463205
 20
309.6814096841889
 30
0.0
 10
208.1749660463205
 20
310.0803320996208
 30
0.0
 10
208.1749660463205
 20
310.476655403666
 30
0.0
 10
208.1749660463205
 20
310.8703791974406
 30
0.0
 10
208.1749660463205
 20
311.1993617140894
 30
0.0
 10
208.1749660463205
 20
311.4649045604726
 30
0.0
 10
208.1749660463205
 20
311.6680181191923
 30
0.0
 10
208.1749660463205
 20
311.8704185272186
 30
0.0
 10
208.1749660463205
 20
312.0721058669615
 30
0.0
 10
208.1749660463205
 20
312.2730801953506
 30
0.0
 10
208.1749660463205
 20
312.5390024251321
 30
0.0
 10
208.1749660463205
 20
312.8684335593595
 30
0.0
 10
208.1749660463205
 20
313.25947212135
 30
0.0
 10
208.1749660463205
 20
313.6466546684484
 30
0.0
 10
208.1749660463205
 20
314.029980679627
 30
0.0
 10
208.1749660463205
 20
314.4071932105786
 30
0.0
 10
208.1749660463205
 20
314.7783691380357
 30
0.0
 10
208.1749660463205
 20
315.1435875386007
 30
0.0
 10
208.1749660463205
 20
315.5050859024325
 30
0.0
 10
208.1749660463205
 20
315.8652986428519
 30
0.0
 10
208.1749660463205
 20
316.2241373851283
 30
0.0
 10
208.1749660463205
 20
316.581510165058
 30
0.0
 10
208.1749660463205
 20
316.9350093925055
 30
0.0
 10
208.1749660463205
 20
317.2846350129893
 30
0.0
 10
208.1749660463205
 20
317.6303870497804
 30
0.0
 10
208.1749660463205
 20
317.9722653167884
 30
0.0
 10
208.1749660463205
 20
318.30984252515
 30
0.0
 10
208.1749660463205
 20
318.6428393134166
 30
0.0
 10
208.1749660463205
 20
318.9709592865749
 30
0.0
 10
208.1749660463205
 20
319.294329217911
 30
0.0
 10
208.1749660463205
 20
319.6129489036775
 30
0.0
 10
208.1749660463205
 20
319.9249515009817
 30
0.0
 10
208.1749660463205
 20
320.2304329421593
 30
0.0
 10
208.1749660463205
 20
320.5294907555559
 30
0.0
 10
208.1749660463205
 20
320.8239664038642
 30
0.0
 10
208.1749660463205
 20
321.11385988082
 30
0.0
 10
208.1749660463205
 20
321.3991711417885
 30
0.0
 10
208.1749660463205
 20
321.6799002373586
 30
0.0
 10
208.1749660463205
 20
321.95604688459
 30
0.0
 10
208.1749660463205
 20
322.1844632735281
 30
0.0
 10
208.1749660463205
 20
322.3673888309843
 30
0.0
 10
208.1749660463205
 20
322.5065437036357
 30
0.0
 10
208.1749660463205
 20
322.6444414108851
 30
0.0
 10
208.1749660463205
 20
322.7810820411562
 30
0.0
 10
208.1749660463205
 20
322.9164655353889
 30
0.0
 10
208.1749660463205
 20
323.0908850843213
 30
0.0
 10
208.1749660463205
 20
323.3024308986519
 30
0.0
 10
208.1749660463205
 20
323.5486050108686
 30
0.0
 10
208.1749660463205
 20
323.7895680319518
 30
0.0
 10
208.1749660463205
 20
324.025319476151
 30
0.0
 10
208.1749660463205
 20
324.2544881748568
 30
0.0
 10
208.1749660463205
 20
324.4771803325843
 30
0.0
 10
208.1749660463205
 20
324.6935030539501
 30
0.0
 10
208.1749660463205
 20
324.904798702584
 30
0.0
 10
208.1749660463205
 20
325.1110672731234
 30
0.0
 10
208.1749660463205
 20
325.3123087445865
 30
0.0
 10
208.1749660463205
 20
325.5085231198999
 30
0.0
 10
208.1749660463205
 20
325.6997103310185
 30
0.0
 10
208.1749660463205
 20
325.8784158379324
 30
0.0
 10
208.1749660463205
 20
326.0453250879733
 30
0.0
 10
208.1749660463205
 20
326.1627298420444
 30
0.0
 10
208.1749660463205
 20
326.2405724315654
 30
0.0
 10
208.1749660463205
 20
326.2804565739385
 30
0.0
 10
208.1749660463205
 20
326.3200737089483
 30
0.0
 10
208.1749660463205
 20
326.3594238556004
 30
0.0
 10
208.1749660463205
 20
326.3985069895592
 30
0.0
 10
208.1749660463205
 20
326.4857723222997
 30
0.0
 10
208.1749660463205
 20
326.6186304991144
 30
0.0
 10
208.1749660463205
 20
326.7924980217026
 30
0.0
 10
208.1749660463205
 20
326.9598442990979
 30
0.0
 10
208.1749660463205
 20
327.1206687796217
 30
0.0
 10
208.1749660463205
 20
327.2740536595637
 30
0.0
 10
208.1749660463205
 20
327.4201329150432
 30
0.0
 10
208.1749660463205
 20
327.5590408601975
 30
0.0
 10
208.1749660463205
 20
327.6916579196289
 30
0.0
 10
208.1749660463205
 20
327.8179840916191
 30
0.0
 10
208.1749660463205
 20
327.9380193550706
 30
0.0
 10
208.1749660463205
 20
328.0517637386356
 30
0.0
 10
208.1749660463205
 20
328.1592171063006
 30
0.0
 10
208.1749660463205
 20
328.2398813378866
 30
0.0
 10
208.1749660463205
 20
328.2974684110351
 30
0.0
 10
208.1749660463205
 20
328.3345172481861
 30
0.0
 10
208.1749660463205
 20
328.3702995229256
 30
0.0
 10
208.1749660463205
 20
328.4044507483514
 30
0.0
 10
208.1749660463205
 20
328.4370223496213
 30
0.0
 10
208.1749660463205
 20
328.4683268133846
 30
0.0
 10
208.1749660463205
 20
328.49873612474
 30
0.0
 10
208.1749660463205
 20
328.5439536897788
 30
0.0
 10
208.1749660463205
 20
328.6015646224268
 30
0.0
 10
208.1749660463205
 20
328.6680094242267
 30
0.0
 10
208.1749660463205
 20
328.7284141913755
 30
0.0
 10
208.1749660463205
 20
328.7827787487516
 30
0.0
 10
208.1749660463205
 20
328.8311033294129
 30
0.0
 10
208.1749660463205
 20
328.8733871332078
 30
0.0
 10
208.1749660463205
 20
328.9108418292365
 30
0.0
 10
208.1749660463205
 20
328.9427303076779
 30
0.0
 10
208.1749660463205
 20
328.9683435067059
 30
0.0
 10
208.1749660463205
 20
328.9865078721883
 30
0.0
 10
208.1749660463205
 20
328.9978864798575
 30
0.0
 10
208.1749660463205
 20
328.9992952304723
 30
0.0
 10
208.1749660463205
 20
329.0000000000222
 30
0.0
  0
SPLINE
  5
B8
330
1F
100
AcDbEntity
  8
0
  6
Continuous
 62
     7
370
    30
100
AcDbSpline
210
0.0
220
0.0
230
1.0
 70
    24
 71
     3
 72
   153
 73
   149
 74
     0
 42
0.000000001
 43
0.00000001
 40
0.0
 40
0.0
 40
0.0
 40
0.0
 40
0.008200078221674
 40
0.0163920575811248
 40
0.0245772856188103
 40
0.0327571132118168
 40
0.0409328939141623
 40
0.0489600529716663
 40
0.0569859014582569
 40
0.0650117255000977
 40
0.0730388112351015
 40
0.0810684441949124
 40
0.0891019086883356
 40
0.0971404871877063
 40
0.105185459719644
 40
0.1083480304583904
 40
0.1115118624140642
 40
0.1146770327727409
 40
0.1179247082513476
 40
0.1212802840298161
 40
0.1246343106184626
 40
0.1279868799606579
 40
0.1313380841197143
 40
0.1400367352392042
 40
0.1487284165733692
 40
0.1574147504066562
 40
0.1660973620209406
 40
0.1747778787888679
 40
0.1834579292613363
 40
0.1921391422516677
 40
0.2010547688376136
 40
0.2099750971021635
 40
0.2189018844487823
 40
0.2247979814767908
 40
0.2306981590275092
 40
0.2325534292214502
 40
0.2344091676202243
 40
0.2362653897725827
 40
0.238122111215124
 40
0.2399793474719158
 40
0.248069159196477
 40
0.2561500679301362
 40
0.2642233635475799
 40
0.2722903395754088
 40
0.2803522925821272
 40
0.2882666516209759
 40
0.2961786507780525
 40
0.3040895234915028
 40
0.3120005037263607
 40
0.3199128253973521
 40
0.3278277217918246
 40
0.3357464249941352
 40
0.3436701653128486
 40
0.3478231380399852
 40
0.3519780059595431
 40
0.3561349450085107
 40
0.3602941308610448
 40
0.3644557389067694
 40
0.3686199442292524
 40
0.3768830360596531
 40
0.3851366370208855
 40
0.3933821208681059
 40
0.4016208654168937
 40
0.4098542518661929
 40
0.4179367391530965
 40
0.4260167058664204
 40
0.4340954661985331
 40
0.442174334930531
 40
0.4504195524368277
 40
0.4586676478739833
 40
0.466920015905798
 40
0.4751780490313313
 40
0.4834431368862849
 40
0.4917166655515882
 40
0.5000000168708835
 40
0.5082631088190451
 40
0.5165167098687191
 40
0.5247621937792146
 40
0.5330009383702895
 40
0.5412343248450862
 40
0.5493168121447742
 40
0.5573967788627591
 40
0.5654755391954218
 40
0.5735544079278763
 40
0.5816346997923179
 40
0.5897177288265139
 40
0.5978048077339739
 40
0.6058972472473765
 40
0.6101387435150569
 40
0.6143822572191452
 40
0.6186279757578551
 40
0.6228760862376124
 40
0.6271267754489789
 40
0.6313802298427812
 40
0.6394700418922532
 40
0.6475509508699456
 40
0.6556242466620029
 40
0.6636912228065494
 40
0.6717531758836679
 40
0.6796675349578376
 40
0.6875795341278104
 40
0.695490406842794
 40
0.7034013870788948
 40
0.7113137087619105
 40
0.7192286051902504
 40
0.7271473084593117
 40
0.7350710488886681
 40
0.7420490925573254
 40
0.749032822953825
 40
0.750862947211595
 40
0.7526935336255162
 40
0.7545245971229041
 40
0.7563561526194096
 40
0.7581882150186668
 40
0.7600207992119432
 40
0.7687160567671841
 40
0.7774016277007082
 40
0.7860791165471865
 40
0.7947501323279589
 40
0.8034162876698744
 40
0.8119245245198162
 40
0.8204311631832976
 40
0.8289377365760456
 40
0.8374457776490674
 40
0.8459568185603258
 40
0.8544723898485509
 40
0.8629940196114202
 40
0.8715232326902946
 40
0.87487642277667
 40
0.8782311099972333
 40
0.8815873862403942
 40
0.8848629366955535
 40
0.8880275964569193
 40
0.8911909468352227
 40
0.8943530650640623
 40
0.8975140284673533
 40
0.9057194339455312
 40
0.9139189295992256
 40
0.922113877208884
 40
0.9303056408231245
 40
0.9384955860814637
 40
0.9466850795330786
 40
0.9548754879532951
 40
0.9638876115339584
 40
0.9729043123929991
 40
0.9819274046997092
 40
0.9909586987717185
 40
1.0
 40
1.0
 40
1.0
 40
1.0
 10
208.1749660463205
 20
255.9999999999778
 30
0.0
 10
208.1749660463205
 20
256.0005758439289
 30
0.0
 10
208.1749660463205
 20
256.0017269630951
 30
0.0
 10
208.1749660463205
 20
256.0110800230398
 30
0.0
 10
208.1749660463205
 20
256.0260181261748
 30
0.0
 10
208.1749660463205
 20
256.0470872394494
 30
0.0
 10
208.1749660463205
 20
256.0739802741054
 30
0.0
 10
208.1749660463205
 20
256.1066114317418
 30
0.0
 10
208.1749660463205
 20
256.144846553477
 30
0.0
 10
208.1749660463205
 20
256.1888850315009
 30
0.0
 10
208.1749660463205
 20
256.2387261326941
 30
0.0
 10
208.1749660463205
 20
256.294370039802
 30
0.0
 10
208.1749660463205
 20
256.3558167201761
 30
0.0
 10
208.1749660463205
 20
256.4230660761885
 30
0.0
 10
208.1749660463205
 20
256.481317818145
 30
0.0
 10
208.1749660463205
 20
256.5271892190163
 30
0.0
 10
208.1749660463205
 20
256.5583683856353
 30
0.0
 10
208.1749660463205
 20
256.5907169568882
 30
0.0
 10
208.1749660463205
 20
256.6246306633691
 30
0.0
 10
208.1749660463205
 20
256.6601617962004
 30
0.0
 10
208.1749660463205
 20
256.6970554917995
 30
0.0
 10
208.1749660463205
 20
256.734920814716
 30
0.0
 10
208.1749660463205
 20
256.794419476055
 30
0.0
 10
208.1749660463205
 20
256.8782045405824
 30
0.0
 10
208.1749660463205
 20
256.9901809284434
 30
0.0
 10
208.1749660463205
 20
257.1087135559113
 30
0.0
 10
208.1749660463205
 20
257.2338022761136
 30
0.0
 10
208.1749660463205
 20
257.3654471136559
 30
0.0
 10
208.1749660463205
 20
257.503648060317
 30
0.0
 10
208.1749660463205
 20
257.6496923879149
 30
0.0
 10
208.1749660463205
 20
257.8037860459892
 30
0.0
 10
208.1749660463205
 20
257.9661350770773
 30
0.0
 10
208.1749660463205
 20
258.1161895081217
 30
0.0
 10
208.1749660463205
 20
258.2514890432758
 30
0.0
 10
208.1749660463205
 20
258.3428790928207
 30
0.0
 10
208.1749660463205
 20
258.4082606557777
 30
0.0
 10
208.1749660463205
 20
258.4464203449641
 30
0.0
 10
208.1749660463205
 20
258.4848773015981
 30
0.0
 10
208.1749660463205
 20
258.5236315518707
 30
0.0
 10
208.1749660463205
 20
258.6063626086141
 30
0.0
 10
208.1749660463205
 20
258.7351979473009
 30
0.0
 10
208.1749660463205
 20
258.9138651807255
 30
0.0
 10
208.1749660463205
 20
259.0977518748957
 30
0.0
 10
208.1749660463205
 20
259.286857752467
 30
0.0
 10
208.1749660463205
 20
259.4800270205723
 30
0.0
 10
208.1749660463205
 20
259.6771500576508
 30
0.0
 10
208.1749660463205
 20
259.8781192797313
 30
0.0
 10
208.1749660463205
 20
260.0841229291074
 30
0.0
 10
208.1749660463205
 20
260.2951610026125
 30
0.0
 10
208.1749660463205
 20
260.5112334656969
 30
0.0
 10
208.1749660463205
 20
260.7323403635434
 30
0.0
 10
208.1749660463205
 20
260.9584814451413
 30
0.0
 10
208.1749660463205
 20
261.1529276548613
 30
0.0
 10
208.1749660463205
 20
261.3132923839838
 30
0.0
 10
208.1749660463205
 20
261.4377670434147
 30
0.0
 10
208.1749660463205
 20
261.5636228235578
 30
0.0
 10
208.1749660463205
 20
261.6908597533949
 30
0.0
 10
208.1749660463205
 20
261.8194779241269
 30
0.0
 10
208.1749660463205
 20
261.9921007856211
 30
0.0
 10
208.1749660463205
 20
262.2105022724843
 30
0.0
 10
208.1749660463205
 20
262.4770654564957
 30
0.0
 10
208.1749660463205
 20
262.7483899464911
 30
0.0
 10
208.1749660463205
 20
263.0244755097897
 30
0.0
 10
208.1749660463205
 20
263.3036517491071
 30
0.0
 10
208.1749660463205
 20
263.585817794554
 30
0.0
 10
208.1749660463205
 20
263.8708754034304
 30
0.0
 10
208.1749660463205
 20
264.1605255127313
 30
0.0
 10
208.1749660463205
 20
264.4567702178674
 30
0.0
 10
208.1749660463205
 20
264.7597201746855
 30
0.0
 10
208.1749660463205
 20
265.0694845502334
 30
0.0
 10
208.1749660463205
 20
265.3840307178714
 30
0.0
 10
208.1749660463205
 20
265.7033586461969
 30
0.0
 10
208.1749660463205
 20
266.0274682604772
 30
0.0
 10
208.1749660463205
 20
266.3563596986766
 30
0.0
 10
208.1749660463205
 20
266.689609893481
 30
0.0
 10
208.1749660463205
 20
267.0269020097597
 30
0.0
 10
208.1749660463205
 20
267.3679367319956
 30
0.0
 10
208.1749660463205
 20
267.7128412300104
 30
0.0
 10
208.1749660463205
 20
268.0616156403026
 30
0.0
 10
208.1749660463205
 20
268.4121624150381
 30
0.0
 10
208.1749660463205
 20
268.7643986096772
 30
0.0
 10
208.1749660463205
 20
269.1182442655258
 30
0.0
 10
208.1749660463205
 20
269.4758226942309
 30
0.0
 10
208.1749660463205
 20
269.837133887922
 30
0.0
 10
208.1749660463205
 20
270.2021777863608
 30
0.0
 10
208.1749660463205
 20
270.5709544632389
 30
0.0
 10
208.1749660463205
 20
270.9434635021157
 30
0.0
 10
208.1749660463205
 20
271.2599253838053
 30
0.0
 10
208.1749660463205
 20
271.518600538982
 30
0.0
 10
208.1749660463205
 20
271.718181223097
 30
0.0
 10
208.1749660463205
 20
271.9187858817252
 30
0.0
 10
208.1749660463205
 20
272.120414568644
 30
0.0
 10
208.1749660463205
 20
272.3230674328877
 30
0.0
 10
208.1749660463205
 20
272.587930394049
 30
0.0
 10
208.1749660463205
 20
272.9159815107899
 30
0.0
 10
208.1749660463205
 20
273.3085242147919
 30
0.0
 10
208.1749660463205
 20
273.7037765531188
 30
0.0
 10
208.1749660463205
 20
274.1017382376098
 30
0.0
 10
208.1749660463205
 20
274.5000260947081
 30
0.0
 10
208.1749660463205
 20
274.8985809484519
 30
0.0
 10
208.1749660463205
 20
275.2973467168137
 30
0.0
 10
208.1749660463205
 20
275.6987258551226
 30
0.0
 10
208.1749660463205
 20
276.1027183516402
 30
0.0
 10
208.1749660463205
 20
276.5093241626384
 30
0.0
 10
208.1749660463205
 20
276.9185432960221
 30
0.0
 10
208.1749660463205
 20
277.3303755810862
 30
0.0
 10
208.1749660463205
 20
277.7282251216786
 30
0.0
 10
208.1749660463205
 20
278.1117493803866
 30
0.0
 10
208.1749660463205
 20
278.3897894498496
 30
0.0
 10
208.1749660463205
 20
278.5777368686185
 30
0.0
 10
208.1749660463205
 20
278.6748187675828
 30
0.0
 10
208.1749660463205
 20
278.7720394445583
 30
0.0
 10
208.1749660463205
 20
278.8693989148094
 30
0.0
 10
208.1749660463205
 20
278.9668972242583
 30
0.0
 10
208.1749660463205
 20
279.1864014768394
 30
0.0
 10
208.1749660463205
 20
279.5287315484741
 30
0.0
 10
208.1749660463205
 20
279.995420460287
 30
0.0
 10
208.1749660463205
 20
280.4639961920629
 30
0.0
 10
208.1749660463205
 20
280.9344578680054
 30
0.0
 10
208.1749660463205
 20
281.4039957597186
 30
0.0
 10
208.1749660463205
 20
281.8725672703375
 30
0.0
 10
208.1749660463205
 20
282.3401338253661
 30
0.0
 10
208.1749660463205
 20
282.8095195375072
 30
0.0
 10
208.1749660463205
 20
283.2807243945709
 30
0.0
 10
208.1749660463205
 20
283.7537482958714
 30
0.0
 10
208.1749660463205
 20
284.2285913775876
 30
0.0
 10
208.1749660463205
 20
284.7052529139016
 30
0.0
 10
208.1749660463205
 20
285.0867805702311
 30
0.0
 10
208.1749660463205
 20
285.3722321097092
 30
0.0
 10
208.1749660463205
 20
285.5609707669855
 30
0.0
 10
208.1749660463205
 20
285.7484430998323
 30
0.0
 10
208.1749660463205
 20
285.932526779242
 30
0.0
 10
208.1749660463205
 20
286.1131509496857
 30
0.0
 10
208.1749660463205
 20
286.291798487718
 30
0.0
 10
208.1749660463205
 20
286.4705290270007
 30
0.0
 10
208.1749660463205
 20
286.7444817958898
 30
0.0
 10
208.1749660463205
 20
287.1139584019074
 30
0.0
 10
208.1749660463205
 20
287.5793880693707
 30
0.0
 10
208.1749660463205
 20
288.0453778936041
 30
0.0
 10
208.1749660463205
 20
288.5119272275046
 30
0.0
 10
208.1749660463205
 20
288.9790361701144
 30
0.0
 10
208.1749660463205
 20
289.4467047409914
 30
0.0
 10
208.1749660463205
 20
289.9305467441416
 30
0.0
 10
208.1749660463205
 20
290.4306329593545
 30
0.0
 10
208.1749660463205
 20
290.9470158603036
 30
0.0
 10
208.1749660463205
 20
291.4640757068493
 30
0.0
 10
208.1749660463205
 20
291.9818123240154
 30
0.0
 10
208.1749660463205
 20
292.3272070240283
 30
0.0
 10
208.1749660463205
 20
292.5
 30
0.0
  0
LINE
  5
B9
330
1F
100
AcDbEntity
  8
0
  6
Continuous
 62
     7
370
    30
100
AcDbLine
 10
216.1749660463
 20
255.0
 30
0.0
 11
216.1749660463
 21
330.0
 31
0.0
  0
SPLINE
  5
BA
330
1F
100
AcDbEntity
  8
0
  6
Continuous
 62
     7
370
    30
100
AcDbSpline
210
0.0
220
0.0
230
1.0
 70
    24
 71
     3
 72
    97
 73
    93
 74
     0
 42
0.000000001
 43
0.00000001
 40
0.0
 40
0.0
 40
0.0
 40
0.0
 40
0.0134962481862321
 40
0.0268033969705165
 40
0.0399214964832229
 40
0.0528505816032182
 40
0.065590675021967
 40
0.0781417899193228
 40
0.0905039322826471
 40
0.1026771028996004
 40
0.1152272533347502
 40
0.1275699980633627
 40
0.1397053305047816
 40
0.1516332442442037
 40
0.1633537339657838
 40
0.1748667961558284
 40
0.1861724296032744
 40
0.1972706357228668
 40
0.2081614187245282
 40
0.2188447856507536
 40
0.229320746302185
 40
0.2395893130699082
 40
0.2514252986792191
 40
0.2629732533462715
 40
0.2742331910887187
 40
0.2852051174276589
 40
0.2951042823847996
 40
0.3047566822618848
 40
0.3141623110609707
 40
0.3233211614657668
 40
0.3322332255073004
 40
0.3408984950845294
 40
0.3493169623603565
 40
0.3582922053391897
 40
0.3669688006576001
 40
0.375346740947559
 40
0.3834260202351321
 40
0.3912066339500072
 40
0.3986885788716011
 40
0.4058718530287652
 40
0.4127564555676209
 40
0.4193423865997711
 40
0.4256312949878237
 40
0.4318489500685154
 40
0.4383578752941721
 40
0.445158066360799
 40
0.4522495191689294
 40
0.45907307911909
 40
0.4661461789839731
 40
0.4734688175588807
 40
0.4810409950184631
 40
0.4888627134132946
 40
0.4969339772704598
 40
0.505254794346725
 40
0.5146959337059263
 40
0.5244390610251035
 40
0.5344841910745196
 40
0.5448313370749275
 40
0.5554805100703744
 40
0.566431718331643
 40
0.5776849668187805
 40
0.5892402567355217
 40
0.6010975852130321
 40
0.613256945165365
 40
0.6254931553962103
 40
0.638020681771784
 40
0.6508395071831276
 40
0.6639496125796576
 40
0.6763441711383619
 40
0.6889882597668342
 40
0.7018818665276697
 40
0.7150249841446896
 40
0.7284176125048906
 40
0.7420597616705352
 40
0.7559514554596936
 40
0.7689047775351453
 40
0.7820678452908748
 40
0.7954406760193439
 40
0.8090232787228022
 40
0.8228156543030197
 40
0.8368177960377726
 40
0.8510296903831104
 40
0.8654513181430943
 40
0.8800826560512484
 40
0.8949236788109578
 40
0.9099743616448273
 40
0.9252346834060752
 40
0.9398150041114848
 40
0.9545816758345027
 40
0.9695347096210438
 40
0.9846741340055187
 40
1.0
 40
1.0
 40
1.0
 40
1.0
 10
349.5000000000001
 20
31.73120344143351
 30
0.0
 10
349.5000000000001
 20
31.78456172000232
 30
0.0
 10
349.5000000000001
 20
31.89053066058556
 30
0.0
 10
349.5000000000001
 20
32.05320234444778
 30
0.0
 10
349.5000000000001
 20
32.2169497506708
 30
0.0
 10
349.5000000000001
 20
32.38192784616734
 30
0.0
 10
349.5000000000001
 20
32.5478587750776
 30
0.0
 10
349.5000000000001
 20
32.71458474935396
 30
0.0
 10
349.5000000000001
 20
32.88192297430212
 30
0.0
 10
349.5000000000001
 20
33.05230358692651
 30
0.0
 10
349.5000000000001
 20
33.22563378182814
 30
0.0
 10
349.5000000000001
 20
33.4018126818737
 30
0.0
 10
349.5000000000001
 20
33.57792715978594
 30
0.0
 10
349.5000000000001
 20
33.75380223653416
 30
0.0
 10
349.5000000000001
 20
33.92926830624107
 30
0.0
 10
349.5000000000001
 20
34.10416099854818
 30
0.0
 10
349.5000000000001
 20
34.27832106284942
 30
0.0
 10
349.5000000000001
 20
34.45159424582031
 30
0.0
 10
349.5000000000001
 20
34.62383118682475
 30
0.0
 10
349.5000000000001
 20
34.79488726263888
 30
0.0
 10
349.5000000000001
 20
34.96462262473507
 30
0.0
 10
349.5000000000001
 20
35.14259653878626
 30
0.0
 10
349.5000000000001
 20
35.32862327318406
 30
0.0
 10
349.5000000000001
 20
35.52249245854996
 30
0.0
 10
349.5000000000001
 20
35.71374179625481
 30
0.0
 10
349.5000000000001
 20
35.89768299311596
 30
0.0
 10
349.5000000000001
 20
36.07420471997494
 30
0.0
 10
349.5000000000001
 20
36.24323424534681
 30
0.0
 10
349.5000000000001
 20
36.40941201524348
 30
0.0
 10
349.5000000000001
 20
36.57260744224008
 30
0.0
 10
349.5000000000001
 20
36.73269548085012
 30
0.0
 10
349.5000000000001
 20
36.88955651349799
 30
0.0
 10
349.5000000000001
 20
37.04796082305603
 30
0.0
 10
349.5000000000001
 20
37.20760495078934
 30
0.0
 10
349.5000000000001
 20
37.36817324858099
 30
0.0
 10
349.5000000000001
 20
37.52429586256397
 30
0.0
 10
349.5000000000001
 20
37.67584778878608
 30
0.0
 10
349.5000000000001
 20
37.8227105291929
 30
0.0
 10
349.5000000000001
 20
37.96477184457061
 30
0.0
 10
349.5000000000001
 20
38.10192554856298
 30
0.0
 10
349.5000000000001
 20
38.23407130085166
 30
0.0
 10
349.5000000000001
 20
38.36112500935801
 30
0.0
 10
349.5000000000001
 20
38.48446677119927
 30
0.0
 10
349.5000000000001
 20
38.60786379970629
 30
0.0
 10
349.5000000000001
 20
38.73515107954182
 30
0.0
 10
349.5000000000001
 20
38.8687536574015
 30
0.0
 10
349.5000000000001
 20
39.00506657974981
 30
0.0
 10
349.5000000000001
 20
39.14382764932231
 30
0.0
 10
349.5000000000001
 20
39.28476904722231
 30
0.0
 10
349.5000000000001
 20
39.43137427657628
 30
0.0
 10
349.5000000000001
 20
39.58370675823525
 30
0.0
 10
349.5000000000001
 20
39.74183063902184
 30
0.0
 10
349.5000000000001
 20
39.90581059765621
 30
0.0
 10
349.5000000000001
 20
40.08163854652522
 30
0.0
 10
349.5000000000001
 20
40.26984660970764
 30
0.0
 10
349.5000000000001
 20
40.47098043034206
 30
0.0
 10
349.5000000000001
 20
40.67952367673472
 30
0.0
 10
349.5000000000001
 20
40.89555851612906
 30
0.0
 10
349.5000000000001
 20
41.11916581484839
 30
0.0
 10
349.5000000000001
 20
41.3504247363777
 30
0.0
 10
349.5000000000001
 20
41.5894124088195
 30
0.0
 10
349.5000000000001
 20
41.83620356504616
 30
0.0
 10
349.5000000000001
 20
42.0908701594726
 30
0.0
 10
349.5000000000001
 20
42.35186001903749
 30
0.0
 10
349.5000000000001
 20
42.61912956664429
 30
0.0
 10
349.5000000000001
 20
42.89263083614295
 30
0.0
 10
349.5000000000001
 20
43.17397039123571
 30
0.0
 10
349.5000000000001
 20
43.45579428540344
 30
0.0
 10
349.5000000000001
 20
43.73770858830275
 30
0.0
 10
349.5000000000001
 20
44.01931950013449
 30
0.0
 10
349.5000000000001
 20
44.30778629745058
 30
0.0
 10
349.5000000000001
 20
44.60313219594666
 30
0.0
 10
349.5000000000001
 20
44.90537571319189
 30
0.0
 10
349.5000000000001
 20
45.21453029457828
 30
0.0
 10
349.5000000000001
 20
45.52159484226637
 30
0.0
 10
349.5000000000001
 20
45.8261475659767
 30
0.0
 10
349.5000000000001
 20
46.12777051098968
 30
0.0
 10
349.5000000000001
 20
46.43519230997214
 30
0.0
 10
349.5000000000001
 20
46.74839727025446
 30
0.0
 10
349.5000000000001
 20
47.06736446728218
 30
0.0
 10
349.5000000000001
 20
47.39206759112141
 30
0.0
 10
349.5000000000001
 20
47.72247469196553
 30
0.0
 10
349.5000000000001
 20
48.05854795114107
 30
0.0
 10
349.5000000000001
 20
48.40024343187071
 30
0.0
 10
349.5000000000001
 20
48.74751086446755
 30
0.0
 10
349.5000000000001
 20
49.10029329031043
 30
0.0
 10
349.5000000000001
 20
49.45156593920583
 30
0.0
 10
349.5000000000001
 20
49.80104429028842
 30
0.0
 10
349.5000000000001
 20
50.14845304381116
 30
0.0
 10
349.5000000000001
 20
50.50050803568789
 30
0.0
 10
349.5000000000001
 20
50.85713180579771
 30
0.0
 10
349.5000000000001
 20
51.09640584956088
 30
0.0
 10
349.5000000000001
 20
51.21677502658353
 30
0.0
  0
SPLINE
  5
BB
330
1F
100
AcDbEntity
  8
0
  6
Continuous
 62
     7
370
    30
100
AcDbSpline
210
0.0
220
0.0
230
1.0
 70
    24
 71
     3
 72
    97
 73
    93
 74
     0
 42
0.000000001
 43
0.00000001
 40
0.0
 40
0.0
 40
0.0
 40
0.0
 40
0.0134957406794075
 40
0.0268024972048804
 40
0.0399203070493711
 40
0.0528491930778682
 40
0.0655891666122873
 40
0.0781402301048624
 40
0.0905023794523425
 40
0.1026756059816608
 40
0.1152258578463339
 40
0.127568738560653
 40
0.139704232816243
 40
0.1516323261717062
 40
0.1633530059665339
 40
0.1748662620037576
 40
0.1861720870287328
 40
0.1972704770296584
 40
0.2081614313834851
 40
0.2188449528692525
 40
0.2293210475690867
 40
0.2395897246755741
 40
0.2514258064163094
 40
0.262973821342988
 40
0.2742337883145007
 40
0.2852057174695666
 40
0.295104865159076
 40
0.3047572317883925
 40
0.3141628141248071
 40
0.3233216073559142
 40
0.3322336057682072
 40
0.3408988032807292
 40
0.349317193854118
 40
0.3582923489931452
 40
0.3669688546183871
 40
0.3753467049351871
 40
0.3834258952960194
 40
0.3912064222297715
 40
0.3986882834071087
 40
0.405871477558886
 40
0.4127560043621071
 40
0.4193418643056395
 40
0.4256307071023047
 40
0.4318483072742031
 40
0.4383571777295637
 40
0.445157315121894
 40
0.452248716468703
 40
0.4590722318765714
 40
0.4661452913671744
 40
0.4734678950528344
 40
0.4810400445850715
 40
0.4888617436619028
 40
0.4969329986393054
 40
0.5052538192118781
 40
0.5146949778193094
 40
0.5244381405938264
 40
0.5344833221097242
 40
0.5448305351109429
 40
0.5554797898575619
 40
0.566431093502305
 40
0.5776844495256548
 40
0.5892398572624261
 40
0.601097311557396
 40
0.6132568025924914
 40
0.6254931435901747
 40
0.638020799211587
 40
0.650839748346522
 40
0.6639499674256952
 40
0.6763446178732359
 40
0.6889887810144429
 40
0.7018824400387413
 40
0.7150255823531644
 40
0.7284182020713355
 40
0.7420603030139225
 40
0.755951902282705
 40
0.7689050936916747
 40
0.7820679936873293
 40
0.7954406267110623
 40
0.8090230097637052
 40
0.8228151526222537
 40
0.8368170583416085
 40
0.8510287240800977
 40
0.8654501422901087
 40
0.8800813023178352
 40
0.8949221924589591
 40
0.9099728025199086
 40
0.9252331269373589
 40
0.9398135341231796
 40
0.9545803888375413
 40
0.9695337176336086
 40
0.9846735653325261
 40
1.0
 40
1.0
 40
1.0
 40
1.0
 10
325.5
 20
51.21677502658353
 30
0.0
 10
325.5
 20
51.11077990338045
 30
0.0
 10
325.5
 20
50.90027393258059
 30
0.0
 10
325.5
 20
50.58680311094626
 30
0.0
 10
325.5
 20
50.27790408082777
 30
0.0
 10
325.5
 20
49.9736283003766
 30
0.0
 10
325.5
 20
49.6740224920863
 30
0.0
 10
325.5
 20
49.37912871880154
 30
0.0
 10
325.5
 20
49.08898454113741
 30
0.0
 10
325.5
 20
48.79920100043844
 30
0.0
 10
325.5
 20
48.50997193142914
 30
0.0
 10
325.5
 20
48.2214931635451
 30
0.0
 10
325.5
 20
47.93834881745629
 30
0.0
 10
325.5
 20
47.66055886459425
 30
0.0
 10
325.5
 20
47.38813907923883
 30
0.0
 10
325.5
 20
47.12110128337208
 30
0.0
 10
325.5
 20
46.85945352770781
 30
0.0
 10
325.5
 20
46.60320028706544
 30
0.0
 10
325.5
 20
46.35234264046886
 30
0.0
 10
325.5
 20
46.10687847712233
 30
0.0
 10
325.5
 20
45.86680259632356
 30
0.0
 10
325.5
 20
45.61858580774938
 30
0.0
 10
325.5
 20
45.36296488438021
 30
0.0
 10
325.5
 20
45.10068585783083
 30
0.0
 10
325.5
 20
44.84581344238206
 30
0.0
 10
325.5
 20
44.60421574612342
 30
0.0
 10
325.5
 20
44.37547788954754
 30
0.0
 10
325.5
 20
44.15918622733986
 30
0.0
 10
325.5
 20
43.94911808474495
 30
0.0
 10
325.5
 20
43.74523877747613
 30
0.0
 10
325.5
 20
43.54751205263319
 30
0.0
 10
325.5
 20
43.3559002194343
 30
0.0
 10
325.5
 20
43.16446102919791
 30
0.0
 10
325.5
 20
42.9736036679699
 30
0.0
 10
325.5
 20
42.78373345981854
 30
0.0
 10
325.5
 20
42.60105750986531
 30
0.0
 10
325.5
 20
42.42551997630503
 30
0.0
 10
325.5
 20
42.25706460274714
 30
0.0
 10
325.5
 20
42.09563500893815
 30
0.0
 10
325.5
 20
41.94117493214308
 30
0.0
 10
325.5
 20
41.79362846976936
 30
0.0
 10
325.5
 20
41.65292856831207
 30
0.0
 10
325.5
 20
41.5174065629815
 30
0.0
 10
325.5
 20
41.38285194731195
 30
0.0
 10
325.5
 20
41.24512529597946
 30
0.0
 10
325.5
 20
41.10172979203086
 30
0.0
 10
325.5
 20
40.95665434040871
 30
0.0
 10
325.5
 20
40.81021555136554
 30
0.0
 10
325.5
 20
40.66272492401368
 30
0.0
 10
325.5
 20
40.51064171305707
 30
0.0
 10
325.5
 20
40.35403941605931
 30
0.0
 10
325.5
 20
40.19299575737245
 30
0.0
 10
325.5
 20
40.02759272888573
 30
0.0
 10
325.5
 20
39.85199848350987
 30
0.0
 10
325.5
 20
39.66605971374648
 30
0.0
 10
325.5
 20
39.46965297896482
 30
0.0
 10
325.5
 20
39.26844245225383
 30
0.0
 10
325.5
 20
39.06256734363537
 30
0.0
 10
325.5
 20
38.85217429426402
 30
0.0
 10
325.5
 20
38.63741767924675
 30
0.0
 10
325.5
 20
38.41845990229736
 30
0.0
 10
325.5
 20
38.1954716993719
 30
0.0
 10
325.5
 20
37.96863246646037
 30
0.0
 10
325.5
 20
37.73955336022225
 30
0.0
 10
325.5
 20
37.50845142234174
 30
0.0
 10
325.5
 20
37.27554581549994
 30
0.0
 10
325.5
 20
37.03969978826508
 30
0.0
 10
325.5
 20
36.80723551301313
 30
0.0
 10
325.5
 20
36.5783877219562
 30
0.0
 10
325.5
 20
36.35337364152247
 30
0.0
 10
325.5
 20
36.12659820724001
 30
0.0
 10
325.5
 20
35.89826362602433
 30
0.0
 10
325.5
 20
35.66858044015267
 30
0.0
 10
325.5
 20
35.43776769013543
 30
0.0
 10
325.5
 20
35.21265829073089
 30
0.0
 10
325.5
 20
34.9933717289124
 30
0.0
 10
325.5
 20
34.77999728736608
 30
0.0
 10
325.5
 20
34.5664275593674
 30
0.0
 10
325.5
 20
34.3528533914442
 30
0.0
 10
325.5
 20
34.13947180226565
 30
0.0
 10
325.5
 20
33.92648597147848
 30
0.0
 10
325.5
 20
33.71410543146547
 30
0.0
 10
325.5
 20
33.50254618433618
 30
0.0
 10
325.5
 20
33.29203092605584
 30
0.0
 10
325.5
 20
33.08278892453065
 30
0.0
 10
325.5
 20
32.87505721368172
 30
0.0
 10
325.5
 20
32.67307948109485
 30
0.0
 10
325.5
 20
32.47689789429104
 30
0.0
 10
325.5
 20
32.28649951023285
 30
0.0
 10
325.5
 20
32.09841458775481
 30
0.0
 10
325.5
 20
31.91242206631922
 30
0.0
 10
325.5
 20
31.79185578081722
 30
0.0
 10
325.5
 20
31.73120344143351
 30
0.0
  0
ARC
  5
BC
330
1F
100
AcDbEntity
  8
0
  6
Continuous
 62
     7
370
    30
100
AcDbCircle
 10
325.8
 20
192.8749660463
 30
0.0
 40
0.3000000000000114
100
AcDbArc
 50
90.0
 51
180.0
  0
ARC
  5
BD
330
1F
100
AcDbEntity
  8
0
  6
Continuous
 62
     7
370
    30
100
AcDbCircle
 10
349.2
 20
192.8749660463
 30
0.0
 40
0.3000000000000682
100
AcDbArc
 50
0.0
 51
90.0
  0
LINE
  5
BE
330
1F
100
AcDbEntity
  8
0
  6
Continuous
 62
     7
370
    30
100
AcDbLine
 10
325.5
 20
192.8749660463
 30
0.0
 11
325.5
 21
51.2167750266
 31
0.0
  0
LINE
  5
BF
330
1F
100
AcDbEntity
  8
0
  6
Continuous
 62
     7
370
    30
100
AcDbLine
 10
349.5
 20
51.2167750266
 30
0.0
 11
349.5
 21
192.8749660463
 31
0.0
  0
LINE
  5
C0
330
1F
100
AcDbEntity
  8
0
  6
Continuous
 62
     7
370
    30
100
AcDbLine
 10
325.5
 20
31.7312034414
 30
0.0
 11
325.5
 21
28.1721071296
 31
0.0
  0
LINE
  5
C1
330
1F
100
AcDbEntity
  8
0
  6
Continuous
 62
     7
370
    30
100
AcDbLine
 10
349.5
 20
28.1721071296
 30
0.0
 11
349.5
 21
31.7312034414
 31
0.0
  0
SPLINE
  5
C2
330
1F
100
AcDbEntity
  8
0
  6
Continuous
 62
     7
370
    30
100
AcDbSpline
210
0.0
220
0.0
230
1.0
 70
     8
 71
     3
 72
    11
 73
     7
 74
     0
 42
0.000000001
 43
0.00000001
 40
0.0
 40
0.0
 40
0.0
 40
0.0
 40
0.2983091324160889
 40
0.5554205497836419
 40
0.9261639195401018
 40
1.0
 40
1.0
 40
1.0
 40
1.0
 10
325.5
 20
28.1721071295675
 30
0.0
 10
325.5000227073056
 20
28.1663457161572
 30
0.0
 10
325.5000649859447
 20
28.15561856416576
 30
0.0
 10
325.5003431410682
 20
28.13787414495517
 30
0.0
 10
325.5004533087004
 20
28.12537643820748
 30
0.0
 10
325.5004980017668
 20
28.11793448845567
 30
0.0
 10
325.5005054244239
 20
28.11669852399448
 30
0.0
  0
SPLINE
  5
C3
330
1F
100
AcDbEntity
  8
0
  6
Continuous
 62
     7
370
    30
100
AcDbSpline
210
0.0
220
0.0
230
1.0
 70
     8
 71
     3
 72
   107
 73
   103
 74
     0
 42
0.000000001
 43
0.00000001
 40
0.0
 40
0.0
 40
0.0
 40
0.0
 40
0.0088109186913695
 40
0.0236934973097006
 40
0.0392120076997386
 40
0.0542754282639447
 40
0.0694259052946769
 40
0.0839314868965422
 40
0.097792178810127
 40
0.1145003498807052
 40
0.1301639338401063
 40
0.1447829436374818
 40
0.1513124846698904
 40
0.1575026276049158
 40
0.1630730628354728
 40
0.1680091668014018
 40
0.1723109436426825
 40
0.1763629972236881
 40
0.17965859675596
 40
0.1827422887980598
 40
0.1858046028543336
 40
0.1890352311665774
 40
0.1926400360824849
 40
0.1966191012770013
 40
0.2009724242047555
 40
0.2080736955489874
 40
0.2159885368518389
 40
0.2247169301337207
 40
0.2342588536791111
 40
0.2446142818578848
 40
0.2555766076426013
 40
0.2672802385718132
 40
0.2794939779299115
 40
0.2921837199494831
 40
0.3111375381698045
 40
0.3310626506196729
 40
0.3519589683604201
 40
0.3738263934639555
 40
0.3966648184055835
 40
0.415249176933319
 40
0.4344302389587666
 40
0.4420154328748714
 40
0.4490307136796145
 40
0.4554037025380258
 40
0.4611344169746442
 40
0.4663200316838151
 40
0.4708369212537701
 40
0.4746850992211544
 40
0.4778645772445395
 40
0.4803753650389153
 40
0.4822174703240715
 40
0.4837610293562287
 40
0.4865042740853129
 40
0.4898236198927644
 40
0.4939063500071422
 40
0.4987525707222521
 40
0.5043622661065547
 40
0.5107354175743277
 40
0.5178720038296001
 40
0.5257720007829183
 40
0.5335984574791325
 40
0.5420530379794506
 40
0.5511224351570315
 40
0.5603428309204058
 40
0.569484610971072
 40
0.578547776246129
 40
0.5875323277243536
 40
0.596438266426069
 40
0.6239162963513825
 40
0.6506178944010701
 40
0.6738025827690614
 40
0.6963683610007133
 40
0.7183322541622639
 40
0.7397437979679188
 40
0.7630727899659117
 40
0.785713094967383
 40
0.7926864491952814
 40
0.7995915312541461
 40
0.805906610651291
 40
0.8111547809256486
 40
0.8153360749645078
 40
0.817669539074796
 40
0.8194586995901774
 40
0.8207644286733468
 40
0.8222472638667225
 40
0.8240876586712865
 40
0.8262856091868224
 40
0.8288241459469798
 40
0.8339779287816844
 40
0.8397055190296191
 40
0.8460068982499279
 40
0.8545952983484134
 40
0.8640615675738692
 40
0.8744056586314026
 40
0.8856275195019212
 40
0.8977270932953136
 40
0.9104648872358909
 40
0.9240476211205786
 40
0.938027185081648
 40
0.9520515189807724
 40
0.985622468561367
 40
1.0
 40
1.0
 40
1.0
 40
1.0
 10
325.5217634031696
 20
27.54722440808471
 30
0.0
 10
325.5230283715906
 20
27.52872865257744
 30
0.0
 10
325.5264300061907
 20
27.47899159918909
 30
0.0
 10
325.5331209128164
 20
27.39673004291906
 30
0.0
 10
325.5417400275067
 20
27.30140482964269
 30
0.0
 10
325.5514728267623
 20
27.20558932441847
 30
0.0
 10
325.5619660450459
 20
27.11196977119687
 30
0.0
 10
325.5731214935141
 20
27.02094605998409
 30
0.0
 10
325.5856077963719
 20
26.92674759854255
 30
0.0
 10
325.5994449094321
 20
26.83022755330344
 30
0.0
 10
325.6146163756694
 20
26.73223879856157
 30
0.0
 10
325.6273125773736
 20
26.65556405643812
 30
0.0
 10
325.6371618090223
 20
26.59866959823379
 30
0.0
 10
325.6439202344363
 20
26.56062591224112
 30
0.0
 10
325.6502323477524
 20
26.5259147187544
 30
0.0
 10
325.6559435376273
 20
26.4951433309388
 30
0.0
 10
325.6611583439018
 20
26.46753783885575
 30
0.0
 10
325.6658002529022
 20
26.44334801562947
 30
0.0
 10
325.6700129165575
 20
26.4216921589065
 30
0.0
 10
325.6738700282641
 20
26.4020945044228
 30
0.0
 10
325.6777424967662
 20
26.38263680336011
 30
0.0
 10
325.6818765578723
 20
26.36209783009236
 30
0.0
 10
325.6864491524616
 20
26.33965395112378
 30
0.0
 10
325.6915635676391
 20
26.31488224202613
 30
0.0
 10
325.6982709466846
 20
26.28286022947005
 30
0.0
 10
325.7068517876297
 20
26.24268590764664
 30
0.0
 10
325.7176315891707
 20
26.1934658577779
 30
0.0
 10
325.7298371352812
 20
26.13922733057236
 30
0.0
 10
325.7435606072856
 20
26.07998780056009
 30
0.0
 10
325.7588005976946
 20
26.01619417878459
 30
0.0
 10
325.7756178560489
 20
25.94801633890181
 30
0.0
 10
325.7939531441354
 20
25.87610107797681
 30
0.0
 10
325.8138242627441
 20
25.80075525903258
 30
0.0
 10
325.8384133701996
 20
25.71065195911981
 30
0.0
 10
325.868492792611
 20
25.60495971208268
 30
0.0
 10
325.9050159680656
 20
25.48282457122647
 30
0.0
 10
325.9451382559141
 20
25.35516860526821
 30
0.0
 10
325.9891121515927
 20
25.22207478895303
 30
0.0
 10
326.0335328505022
 20
25.09419192889689
 30
0.0
 10
326.077831693209
 20
24.97222028617754
 30
0.0
 10
326.1121803192885
 20
24.88128744282048
 30
0.0
 10
326.1383968817065
 20
24.81373845513349
 30
0.0
 10
326.1548870243887
 20
24.7718635655077
 30
0.0
 10
326.1700971920519
 20
24.73374499297692
 30
0.0
 10
326.1839971499991
 20
24.69931876025522
 30
0.0
 10
326.1965217515155
 20
24.66862455364915
 30
0.0
 10
326.2076096835533
 20
24.64170297646107
 30
0.0
 10
326.2171228725852
 20
24.6187882869359
 30
0.0
 10
326.2250292165687
 20
24.5998704557879
 30
0.0
 10
326.2313022429599
 20
24.58494107628731
 30
0.0
 10
326.2362303906999
 20
24.57326030042195
 30
0.0
 10
326.2413667932206
 20
24.56112448146763
 30
0.0
 10
326.2477638822558
 20
24.54607046242355
 30
0.0
 10
326.2563376189067
 20
24.52600780291062
 30
0.0
 10
326.2667488854581
 20
24.50181181315203
 30
0.0
 10
326.2791949882363
 20
24.47312375224961
 30
0.0
 10
326.2937215153048
 20
24.43995914562241
 30
0.0
 10
326.3103812410172
 20
24.4023359284436
 30
0.0
 10
326.3292339018607
 20
24.36027496162635
 30
0.0
 10
326.3496006932492
 20
24.31544110523867
 30
0.0
 10
326.3714005598347
 20
24.26811425407088
 30
0.0
 10
326.3945354670633
 20
24.21859860923878
 30
0.0
 10
326.4192604382572
 20
24.16647560183679
 30
0.0
 10
326.4449619882264
 20
24.11313483136382
 30
0.0
 10
326.4709998932702
 20
24.05992898741927
 30
0.0
 10
326.4971493921515
 20
24.0073032113724
 30
0.0
 10
326.5234011258483
 20
23.95525576574128
 30
0.0
 10
326.5681358561103
 20
23.86785540803296
 30
0.0
 10
326.631887027509
 20
23.74691127502121
 30
0.0
 10
326.7128703800474
 20
23.59971003574179
 30
0.0
 10
326.7911118071079
 20
23.46285147897875
 30
0.0
 10
326.8662820352566
 20
23.33581913385377
 30
0.0
 10
326.9414084219895
 20
23.21297013688375
 30
0.0
 10
327.0192611037177
 20
23.08960808359828
 30
0.0
 10
327.0998274086626
 20
22.96595575474372
 30
0.0
 10
327.1646682545841
 20
22.86959663812232
 30
0.0
 10
327.2100708330693
 20
22.80349350725566
 30
0.0
 10
327.235351544339
 20
22.76703588316179
 30
0.0
 10
327.2586251169284
 20
22.733775020579
 30
0.0
 10
327.2785803620827
 20
22.70548034994055
 30
0.0
 10
327.2935583824431
 20
22.68437853724134
 30
0.0
 10
327.3041655764109
 20
22.66950040738891
 30
0.0
 10
327.3111134527924
 20
22.65978214903483
 30
0.0
 10
327.3169811293916
 20
22.65159195709662
 30
0.0
 10
327.3229222870082
 20
22.6433147997214
 30
0.0
 10
327.330019923581
 20
22.63344859254246
 30
0.0
 10
327.3384911138675
 20
22.62170505263231
 30
0.0
 10
327.3512591338647
 20
22.60406118828276
 30
0.0
 10
327.3686466064401
 20
22.5801576441231
 30
0.0
 10
327.3910236861099
 20
22.54961804683681
 30
0.0
 10
327.4180254376501
 20
22.51306163969669
 30
0.0
 10
327.450145585464
 20
22.47000428018112
 30
0.0
 10
327.4879105855982
 20
22.41998161648093
 30
0.0
 10
327.5295525267929
 20
22.36553899731194
 30
0.0
 10
327.5751693947527
 20
22.30673654629845
 30
0.0
 10
327.6245392230193
 20
22.24405694267026
 30
0.0
 10
327.6777157047412
 20
22.17762068661827
 30
0.0
 10
327.7341343455933
 20
22.10832688496966
 30
0.0
 10
327.7930228513178
 20
22.03723641040522
 30
0.0
 10
327.8813238093422
 20
21.93268396896747
 30
0.0
 10
327.9713939679888
 20
21.82820217108997
 30
0.0
 10
328.0435689367616
 20
21.74905405587163
 30
0.0
 10
328.0652108711994
 20
21.72532119738119
 30
0.0
  0
SPLINE
  5
C4
330
1F
100
AcDbEntity
  8
0
  6
Continuous
 62
     7
370
    30
100
AcDbSpline
210
0.0
220
0.0
230
1.0
 70
     8
 71
     3
 72
   102
 73
    98
 74
     0
 42
0.000000001
 43
0.00000001
 40
0.0
 40
0.0
 40
0.0
 40
0.0
 40
0.0173897350155114
 40
0.0397020755307172
 40
0.0627351266893941
 40
0.0864889738728227
 40
0.110963702244245
 40
0.1361593964158034
 40
0.1432146838314225
 40
0.1500423420252339
 40
0.1561695644593738
 40
0.16158889270274
 40
0.1663003050208748
 40
0.170303782564689
 40
0.1735993093323755
 40
0.1761957945053343
 40
0.1796330012963237
 40
0.1826609468395972
 40
0.1863170191227034
 40
0.1910551690942204
 40
0.1962891772393809
 40
0.2024136199161675
 40
0.2094285296719965
 40
0.2173339434601118
 40
0.2265709704894436
 40
0.236785427735479
 40
0.2474631474880922
 40
0.2659604944218522
 40
0.2837187001377651
 40
0.3007376789675777
 40
0.3181518821687614
 40
0.3347173007711233
 40
0.3504338493969664
 40
0.3653014489632428
 40
0.3793200263691486
 40
0.3924895141991118
 40
0.4048098504416555
 40
0.4162822125484948
 40
0.4271758389033087
 40
0.4376952030797856
 40
0.4509045549405761
 40
0.4634720208866784
 40
0.4753975578453477
 40
0.4865667709670612
 40
0.4971072985797452
 40
0.5010762116486736
 40
0.5048102050575173
 40
0.5079510628987058
 40
0.5104803065786212
 40
0.5120633344211383
 40
0.5133483040073747
 40
0.5150458072264075
 40
0.517303448774885
 40
0.5201212344482282
 40
0.5246582467928802
 40
0.5301463652707714
 40
0.5360640923819372
 40
0.5510205341577611
 40
0.5667517419543515
 40
0.5832577838618487
 40
0.6005387269029367
 40
0.6185946361411457
 40
0.6497694997438572
 40
0.6818108479644576
 40
0.7147186189217487
 40
0.736912567676345
 40
0.7594838985252158
 40
0.7684545158913981
 40
0.7771956582904485
 40
0.785115652027506
 40
0.7921966935140577
 40
0.7993283466744265
 40
0.805341749689008
 40
0.8102368880310782
 40
0.8140137502349339
 40
0.8161967743337517
 40
0.8176894258798925
 40
0.8189704470411009
 40
0.821103457843557
 40
0.8247189349109229
 40
0.8290423118437652
 40
0.8340021768916543
 40
0.8395985341881738
 40
0.8458313881668209
 40
0.8527007435536859
 40
0.860206605348718
 40
0.8683489787997608
 40
0.8771278693712059
 40
0.8865432827083982
 40
0.8965933012168604
 40
0.9068315473447874
 40
0.9303564133729927
 40
0.9530275107757937
 40
0.9672918519168511
 40
0.9811961695768552
 40
0.994740456490246
 40
0.9999999999999999
 40
0.9999999999999999
 40
0.9999999999999999
 40
0.9999999999999999
 10
346.9431131036901
 20
21.73389931921155
 30
0.0
 10
346.9690829912374
 20
21.76278262402936
 30
0.0
 10
347.0283742015984
 20
21.82872538557398
 30
0.0
 10
347.1200246583441
 20
21.93429797882682
 30
0.0
 10
347.219323060535
 20
22.05164801055754
 30
0.0
 10
347.3196910695328
 20
22.17396154068799
 30
0.0
 10
347.4209918268347
 20
22.30128113181715
 30
0.0
 10
347.4975401210992
 20
22.40066413364242
 30
0.0
 10
347.5495009330887
 20
22.46957226305701
 30
0.0
 10
347.575936534863
 20
22.50495405462724
 30
0.0
 10
347.6000644444927
 20
22.53752660901734
 30
0.0
 10
347.6212978074967
 20
22.56641326567282
 30
0.0
 10
347.639669325143
 20
22.59157661931663
 30
0.0
 10
347.6552161023779
 20
22.61299586707072
 30
0.0
 10
347.6679810219832
 20
22.63066904051808
 30
0.0
 10
347.6799828759977
 20
22.64735187482744
 30
0.0
 10
347.6916071447986
 20
22.66357583933337
 30
0.0
 10
347.7045497201476
 20
22.6817189590616
 30
0.0
 10
347.7191096335757
 20
22.70222199942551
 30
0.0
 10
347.7364108454066
 20
22.72672468929154
 30
0.0
 10
347.756745592696
 20
22.7557200146499
 30
0.0
 10
347.7798258101507
 20
22.78888675340113
 30
0.0
 10
347.8060879056803
 20
22.82696791465133
 30
0.0
 10
347.8360068086271
 20
22.87080037101441
 30
0.0
 10
347.8695914340016
 20
22.92059162026186
 30
0.0
 10
347.9062070633159
 20
22.97561830252276
 30
0.0
 10
347.9535515991448
 20
23.04782081354251
 30
0.0
 10
348.0090869569823
 20
23.13428496224665
 30
0.0
 10
348.0708811290282
 20
23.23303026479914
 30
0.0
 10
348.1302426054134
 20
23.33032006605121
 30
0.0
 10
348.1871031940062
 20
23.42591061194565
 30
0.0
 10
348.241405312364
 20
23.51955405328932
 30
0.0
 10
348.2919226592624
 20
23.60883589020568
 30
0.0
 10
348.3388089955535
 20
23.69367961546176
 30
0.0
 10
348.3822110111623
 20
23.77401484037911
 30
0.0
 10
348.4222681218696
 20
23.84977703587438
 30
0.0
 10
348.459113364039
 20
23.9209093552627
 30
0.0
 10
348.4931364483677
 20
23.98788078427844
 30
0.0
 10
348.5248976040302
 20
24.0515660610022
 30
0.0
 10
348.557835034983
 20
24.1188038621217
 30
0.0
 10
348.5917811574616
 20
24.18950899292471
 30
0.0
 10
348.6263814920005
 20
24.26319323581652
 30
0.0
 10
348.6585138090035
 20
24.3331023637692
 30
0.0
 10
348.6882885705404
 20
24.39922362941124
 30
0.0
 10
348.7106377900254
 20
24.44983482186577
 30
0.0
 10
348.7263339459399
 20
24.48585304866546
 30
0.0
 10
348.7356061937189
 20
24.50728132201746
 30
0.0
 10
348.7436028410516
 20
24.52587934401426
 30
0.0
 10
348.7497421170206
 20
24.5402329010484
 30
0.0
 10
348.7542952419224
 20
24.55091886849572
 30
0.0
 10
348.7581377686635
 20
24.55996125585536
 30
0.0
 10
348.7625374755683
 20
24.57034372901054
 30
0.0
 10
348.7682057200255
 20
24.58376938265436
 30
0.0
 10
348.7762166621548
 20
24.60283465037583
 30
0.0
 10
348.7868546054848
 20
24.62832840219431
 30
0.0
 10
348.7999491907466
 20
24.66000990852909
 30
0.0
 10
348.8213956054334
 20
24.71246818784545
 30
0.0
 10
348.850652129923
 20
24.78549344581182
 30
0.0
 10
348.8873726654554
 20
24.87997543909251
 30
0.0
 10
348.9247951898921
 20
24.97946712464255
 30
0.0
 10
348.9627521112658
 20
25.08400181440262
 30
0.0
 10
349.009805840129
 20
25.21861245811593
 30
0.0
 10
349.0644532384375
 20
25.38379917556813
 30
0.0
 10
349.1247140193476
 20
25.58006662853174
 30
0.0
 10
349.1752702082121
 20
25.75879456431643
 30
0.0
 10
349.217240283634
 20
25.9186442974382
 30
0.0
 10
349.2445362672791
 20
26.02952289841492
 30
0.0
 10
349.2640775211131
 20
26.11278418675078
 30
0.0
 10
349.2761825565053
 20
26.16581355357325
 30
0.0
 10
349.2871096980425
 20
26.21498267921052
 30
0.0
 10
349.2970559029756
 20
26.26085732689215
 30
0.0
 10
349.3059372006175
 20
26.30281294049036
 30
0.0
 10
349.3136867562496
 20
26.34026012143756
 30
0.0
 10
349.3198788595392
 20
26.37075999462024
 30
0.0
 10
349.3243873559288
 20
26.3933134011966
 30
0.0
 10
349.327450080748
 20
26.40880029643142
 30
0.0
 10
349.3294735715812
 20
26.4191009686594
 30
0.0
 10
349.3314656355057
 20
26.42929333679231
 30
0.0
 10
349.334302098466
 20
26.44389755574139
 30
0.0
 10
349.3383240210501
 20
26.46482750460286
 30
0.0
 10
349.3433996718481
 20
26.49163789906553
 30
0.0
 10
349.3491540202572
 20
26.52257635646865
 30
0.0
 10
349.3555176983638
 20
26.55749973789229
 30
0.0
 10
349.3624441664017
 20
26.59641410431396
 30
0.0
 10
349.3698815293021
 20
26.63932584953496
 30
0.0
 10
349.377772545527
 20
26.68624172366493
 30
0.0
 10
349.3860546049567
 20
26.73716869740458
 30
0.0
 10
349.3946597240853
 20
26.79211388216277
 30
0.0
 10
349.403513901679
 20
26.85108033456401
 30
0.0
 10
349.4124043430193
 20
26.91313858901992
 30
0.0
 10
349.4248694228352
 20
27.00474028138872
 30
0.0
 10
349.4395366462682
 20
27.12286236938158
 30
0.0
 10
349.4532020464766
 20
27.24957832383346
 30
0.0
 10
349.4633358667757
 20
27.3562244667222
 30
0.0
 10
349.4707394535552
 20
27.44378009418513
 30
0.0
 10
349.4760353461542
 20
27.51246330920873
 30
0.0
 10
349.4785995556796
 20
27.55197013179781
 30
0.0
 10
349.4793167803761
 20
27.56302042568273
 30
0.0
  0
SPLINE
  5
C5
330
1F
100
AcDbEntity
  8
0
  6
Continuous
 62
     7
370
    30
100
AcDbSpline
210
0.0
220
0.0
230
1.0
 70
     8
 71
     3
 72
     9
 73
     5
 74
     0
 42
0.000000001
 43
0.00000001
 40
0.0
 40
0.0
 40
0.0
 40
0.0
 40
0.292014120452485
 40
0.9999999999999999
 40
0.9999999999999999
 40
0.9999999999999999
 40
0.9999999999999999
 10
349.4996645608438
 20
28.1221667090483
 30
0.0
 10
349.4997206177821
 20
28.1269220055197
 30
0.0
 10
349.499912584315
 20
28.14320647992813
 30
0.0
 10
349.4999637648816
 20
28.16012737487547
 30
0.0
 10
349.5000000000001
 20
28.17210712956753
 30
0.0
  0
LINE
  5
C6
330
1F
100
AcDbEntity
  8
0
  6
Continuous
 62
     7
370
    30
100
AcDbLine
 10
349.5
 20
26.1721071296
 30
0.0
 11
349.5
 21
28.0721071296
 31
0.0
  0
LINE
  5
C7
330
1F
100
AcDbEntity
  8
0
  6
Continuous
 62
     7
370
    30
100
AcDbLine
 10
325.5
 20
28.0721071296
 30
0.0
 11
325.5
 21
26.1721071296
 31
0.0
  0
SPLINE
  5
C8
330
1F
100
AcDbEntity
  8
0
  6
Continuous
 62
     7
370
    30
100
AcDbSpline
210
0.0
220
0.0
230
1.0
 70
     8
 71
     3
 72
   356
 73
   352
 74
     0
 42
0.000000001
 43
0.00000001
 40
0.0
 40
0.0
 40
0.0
 40
0.0
 40
0.0003996190604104
 40
0.000911127931539
 40
0.001540528961509
 40
0.0023934025226219
 40
0.0034020265105701
 40
0.0045253851924898
 40
0.0057265688158605
 40
0.0070055770323105
 40
0.0083624094487176
 40
0.0097970656254625
 40
0.0113095450742473
 40
0.0136718681320318
 40
0.0162020396968052
 40
0.0189000574766936
 40
0.0217659188750357
 40
0.0247996209633776
 40
0.0268769024784651
 40
0.0290261376183729
 40
0.0312473253304248
 40
0.0335404644828992
 40
0.0359002912631351
 40
0.0381804712256179
 40
0.0407239908461826
 40
0.0430573014220954
 40
0.0451804053525168
 40
0.0470933049336837
 40
0.0487960023290797
 40
0.0502636911167281
 40
0.0515286215536473
 40
0.0525907951818413
 40
0.0534502133381935
 40
0.0538915494774771
 40
0.0542507787078122
 40
0.0545279012493004
 40
0.0547229172987705
 40
0.0549551838149011
 40
0.0553443798581537
 40
0.0558745592505442
 40
0.0564942366996988
 40
0.0576409187949466
 40
0.0589989250415732
 40
0.0605682520026382
 40
0.0623488953941387
 40
0.0643837022452671
 40
0.0665518882768014
 40
0.0686650014000989
 40
0.0707164956709813
 40
0.0727063720480162
 40
0.0746346315668061
 40
0.0765012753429417
 40
0.0791592872689942
 40
0.0816814579033474
 40
0.0840754725638879
 40
0.0865264519586671
 40
0.0891133334210686
 40
0.0918361099103407
 40
0.0943445614255313
 40
0.096958238806086
 40
0.0996771361285913
 40
0.1013286159547229
 40
0.1029959041605922
 40
0.1045537110416972
 40
0.1059810031512374
 40
0.1076088013771842
 40
0.1090252016462611
 40
0.1102302106941877
 40
0.1112238343552289
 40
0.1117341105188495
 40
0.1121123204968329
 40
0.1123514921389477
 40
0.1125795741245059
 40
0.1128828945938752
 40
0.113473549188763
 40
0.1142308103191927
 40
0.1151546749277148
 40
0.1162451392490446
 40
0.1175021987866902
 40
0.1189258482852363
 40
0.1205324350660092
 40
0.1223088686397212
 40
0.1242551410206486
 40
0.126352800366146
 40
0.128458278759974
 40
0.1305411742413563
 40
0.1326014876075499
 40
0.1381508557005571
 40
0.1435294762452181
 40
0.1472668397358708
 40
0.1509171022305103
 40
0.1544802710456563
 40
0.1579561556055465
 40
0.1613116496636966
 40
0.1643130345016999
 40
0.1671885155267619
 40
0.1699381030385702
 40
0.1709838588398236
 40
0.1720101866630445
 40
0.1729527386413298
 40
0.1737348976787051
 40
0.174356524703518
 40
0.174817622758141
 40
0.1751280278633001
 40
0.175473279013557
 40
0.1759238085990199
 40
0.1764796151936573
 40
0.1771406970364512
 40
0.1779070520282272
 40
0.1789454024304382
 40
0.180129972369954
 40
0.1814471235798175
 40
0.1827974636285439
 40
0.1879888722616549
 40
0.1933679153035292
 40
0.1989345605032727
 40
0.2046887740320773
 40
0.2106000651647029
 40
0.2165160446750392
 40
0.222415781477167
 40
0.2284559395268841
 40
0.2344789728542129
 40
0.2404848797186261
 40
0.2427783855070501
 40
0.2448915218411279
 40
0.2468215085447136
 40
0.2485683573411726
 40
0.2501320788845711
 40
0.2515126827300027
 40
0.2521195286098387
 40
0.2526828295249959
 40
0.2532025862988247
 40
0.2536551831453231
 40
0.2539738309027345
 40
0.2541544802112358
 40
0.2542541361076509
 40
0.2546575824207267
 40
0.2552600471381143
 40
0.2559661350264846
 40
0.2568308734354475
 40
0.2578542585773937
 40
0.2590362859727261
 40
0.2604059626417954
 40
0.2619408111583345
 40
0.2636408244787781
 40
0.2654771244836026
 40
0.2673305274643704
 40
0.2691880792652978
 40
0.2710497799143261
 40
0.2788513416255694
 40
0.2867249306614957
 40
0.29467055137397
 40
0.3018257668351855
 40
0.3090384158070705
 40
0.3163085040082094
 40
0.3236360379649179
 40
0.3310210250043131
 40
0.3384634732466301
 40
0.3438030458796879
 40
0.3492248602173341
 40
0.3547849047322267
 40
0.3604831792973905
 40
0.3663196735155356
 40
0.3722943769032194
 40
0.3780542572948044
 40
0.3839369851379709
 40
0.3899425514652466
 40
0.3960709472431965
 40
0.4023221633727432
 40
0.4086961906894749
 40
0.4151930199639389
 40
0.4218126419019207
 40
0.4285550471447137
 40
0.4354202262693803
 40
0.4422823134823504
 40
0.449262811004899
 40
0.4563617097392845
 40
0.4635790005290401
 40
0.4706499313205452
 40
0.4778309097853741
 40
0.4851219275782896
 40
0.4925229912550566
 40
0.50003436091118
 40
0.5076561711914379
 40
0.5149436720403762
 40
0.5223294486908876
 40
0.5298135506500219
 40
0.5373960293027422
 40
0.5450769377841524
 40
0.5524413320978853
 40
0.5598940910055449
 40
0.5674352632952137
 40
0.5750648986918305
 40
0.5827830477248483
 40
0.5905897615885822
 40
0.5938950723560588
 40
0.5972160199307909
 40
0.6005526081848446
 40
0.6038901838876075
 40
0.6063792346401262
 40
0.6087076064298084
 40
0.6108752907290047
 40
0.6128822796552198
 40
0.6149678799256807
 40
0.6168459519271553
 40
0.6185164870158777
 40
0.6199794775860386
 40
0.621234917062063
 40
0.6222827998933106
 40
0.6231342966866357
 40
0.623851134202609
 40
0.6248693784879649
 40
0.6261145605595954
 40
0.6275871416433978
 40
0.6292171458899414
 40
0.63098474548217
 40
0.6328899462554105
 40
0.6353120210453892
 40
0.6379252478334638
 40
0.640729638846555
 40
0.6437252072661035
 40
0.646971677600931
 40
0.6504163708612632
 40
0.6540593038657735
 40
0.6579004943613397
 40
0.6619399609932421
 40
0.6674273673044364
 40
0.672982477847525
 40
0.6786026958757642
 40
0.6850683305943313
 40
0.6916180782648865
 40
0.6982519595984262
 40
0.7049699951615909
 40
0.7117722053252022
 40
0.7186586102110675
 40
0.7209913840393627
 40
0.7233336666063623
 40
0.7256854586545114
 40
0.7280467609211773
 40
0.7303793492406349
 40
0.7325111436146428
 40
0.7344737560683584
 40
0.7362671770878437
 40
0.7378913980146775
 40
0.7393712994994563
 40
0.74067577676838
 40
0.7418048233224329
 40
0.7427584335282807
 40
0.743536602610779
 40
0.7441308395458006
 40
0.7446469772683522
 40
0.7451749440775693
 40
0.7458034763364472
 40
0.7467623496761466
 40
0.7478963386200684
 40
0.7492046431794169
 40
0.7506048407437723
 40
0.7520419454628887
 40
0.7549722750736885
 40
0.7580450174273154
 40
0.7618887315509009
 40
0.7659342964541607
 40
0.7701817219599956
 40
0.7741446577464043
 40
0.7782685300568969
 40
0.7825533449039347
 40
0.7869897673163576
 40
0.7915526210909474
 40
0.7962405519567177
 40
0.8014973529798455
 40
0.8069031200019682
 40
0.8124579133840795
 40
0.8181617931209296
 40
0.8240148182046672
 40
0.8300170459272133
 40
0.8361685311214903
 40
0.8419388026601697
 40
0.8478414989085652
 40
0.8538797052535098
 40
0.8600534153959676
 40
0.8663626221758037
 40
0.8728073176708424
 40
0.8747628880463719
 40
0.8766881376271426
 40
0.8784876098005953
 40
0.8801577063870526
 40
0.8816984217176147
 40
0.8831097506526606
 40
0.8843916885589787
 40
0.8855442312888185
 40
0.8864689012110176
 40
0.8872892304767617
 40
0.8879993526650946
 40
0.8885794906950819
 40
0.8890280306798458
 40
0.889438915147605
 40
0.8899702970882735
 40
0.8907457388160533
 40
0.8916886407690382
 40
0.8927990064817767
 40
0.8940768400518702
 40
0.8955221461096822
 40
0.8971349297834326
 40
0.8998845708582203
 40
0.9026410752630207
 40
0.9053931424619384
 40
0.9116312555346888
 40
0.9178464410541156
 40
0.9240386901765418
 40
0.9276202879804682
 40
0.9310340022629088
 40
0.9342776510304188
 40
0.9373512222323495
 40
0.9385516719156755
 40
0.9397240312721621
 40
0.9408682998671999
 40
0.9419844773313031
 40
0.943033906624789
 40
0.9438995105595094
 40
0.9445960964174603
 40
0.9451236630091343
 40
0.9454825252373443
 40
0.9458989173976291
 40
0.9464642986727425
 40
0.9471786697162673
 40
0.9480287029958028
 40
0.9489757614049147
 40
0.9500173952299859
 40
0.951560592036164
 40
0.9532734299614107
 40
0.9551559106096839
 40
0.9572080356372702
 40
0.9594298067426927
 40
0.9618212256541026
 40
0.9643822941147395
 40
0.9671130138667746
 40
0.9697038451008776
 40
0.9724308779969869
 40
0.9752780667468923
 40
0.9780430805707673
 40
0.980664857830994
 40
0.9831004030335899
 40
0.9853977982291229
 40
0.9875570537567314
 40
0.9895781820226842
 40
0.9918042087856673
 40
0.9938345319373051
 40
0.995669195881294
 40
0.9973082622591533
 40
0.9987518195445173
 40
1.0
 40
1.0
 40
1.0
 40
1.0
 10
325.5000000000001
 20
26.17210712927212
 30
0.0
 10
325.50001383449
 20
26.16713639409807
 30
0.0
 10
325.5000453770048
 20
26.15580316176236
 30
0.0
 10
325.5002010739231
 20
26.13745709592186
 30
0.0
 10
325.500409175742
 20
26.11439018001996
 30
0.0
 10
325.5006960908274
 20
26.08636506876938
 30
0.0
 10
325.5010622881753
 20
26.05363282371392
 30
0.0
 10
325.5015835093691
 20
26.01735544596001
 30
0.0
 10
325.5023209760877
 20
25.97804946781351
 30
0.0
 10
325.5032915314768
 20
25.9362215525511
 30
0.0
 10
325.504533592409
 20
25.89184231138661
 30
0.0
 10
325.506083686489
 20
25.84492236177002
 30
0.0
 10
325.508304586384
 20
25.78704548540825
 30
0.0
 10
325.5114730482865
 20
25.71723774676451
 30
0.0
 10
325.5159599229618
 20
25.63453108833264
 30
0.0
 10
325.5215781190814
 20
25.54637003934842
 30
0.0
 10
325.528487729496
 20
25.45276875012545
 30
0.0
 10
325.5358245505352
 20
25.36597671474328
 30
0.0
 10
325.5432318937133
 20
25.28702929125512
 30
0.0
 10
325.5503458448306
 20
25.21695483992381
 30
0.0
 10
325.5582699747836
 20
25.14457830655617
 30
0.0
 10
325.5670536446355
 20
25.06996506471138
 30
0.0
 10
325.5765454651016
 20
24.99476804242726
 30
0.0
 10
325.587033178636
 20
24.91691908610463
 30
0.0
 10
325.5981580853784
 20
24.83942761248151
 30
0.0
 10
325.6097065447964
 20
24.76371076940795
 30
0.0
 10
325.6207692999152
 20
24.6948799826964
 30
0.0
 10
325.6311890046111
 20
24.63291924586336
 30
0.0
 10
325.6407772936402
 20
24.57808046466686
 30
0.0
 10
325.6494175776625
 20
24.53026772685737
 30
0.0
 10
325.6570122395714
 20
24.48938658571159
 30
0.0
 10
325.6635341242367
 20
24.45507743164507
 30
0.0
 10
325.6684589562724
 20
24.42964722943458
 30
0.0
 10
325.6719609621757
 20
24.41178703619357
 30
0.0
 10
325.6742514996292
 20
24.40019336555691
 30
0.0
 10
325.6760289958582
 20
24.39125007956794
 30
0.0
 10
325.6775419129041
 20
24.38367150644832
 30
0.0
 10
325.6793031149244
 20
24.37488423171996
 30
0.0
 10
325.6818011388567
 20
24.36249225716852
 30
0.0
 10
325.6851673089616
 20
24.34593435804883
 30
0.0
 10
325.6902433288485
 20
24.32122636750267
 30
0.0
 10
325.6972583107649
 20
24.28761947680655
 30
0.0
 10
325.7066061011358
 20
24.24381885035773
 30
0.0
 10
325.7176782190998
 20
24.19323733804485
 30
0.0
 10
325.7306940596803
 20
24.1354353828177
 30
0.0
 10
325.745601918178
 20
24.07127499952341
 30
0.0
 10
325.7618541512016
 20
24.0036349296246
 30
0.0
 10
325.7786773123819
 20
23.93590002035173
 30
0.0
 10
325.7955254362218
 20
23.87015468446324
 30
0.0
 10
325.8123367787499
 20
23.80646293075042
 30
0.0
 10
325.8290683384387
 20
23.74481884490537
 30
0.0
 10
325.8482085126239
 20
23.67613789715381
 30
0.0
 10
325.8697307666623
 20
23.60124361475116
 30
0.0
 10
325.8936262362396
 20
23.52088346964959
 30
0.0
 10
325.9175781596348
 20
23.44283303972558
 30
0.0
 10
325.9424261159829
 20
23.36427755928522
 30
0.0
 10
325.9691122695297
 20
23.28245726568612
 30
0.0
 10
325.9967806082298
 20
23.20025177390925
 30
0.0
 10
326.0253174574001
 20
23.11798635389084
 30
0.0
 10
326.0545959492581
 20
23.03598113240249
 30
0.0
 10
326.0813737116229
 20
22.96314525903689
 30
0.0
 10
326.1050170209339
 20
22.90032828048061
 30
0.0
 10
326.1244160030637
 20
22.84968425633388
 30
0.0
 10
326.1432049152222
 20
22.80145085240609
 30
0.0
 10
326.1620922744535
 20
22.75370412434729
 30
0.0
 10
326.1806561516129
 20
22.70749864699836
 30
0.0
 10
326.1985385811533
 20
22.66366492065078
 30
0.0
 10
326.2139285828235
 20
22.62642893335951
 30
0.0
 10
326.2255716405448
 20
22.59856197450957
 30
0.0
 10
326.2337134045796
 20
22.57921792014753
 30
0.0
 10
326.2386100856376
 20
22.56763408020582
 30
0.0
 10
326.242291073669
 20
22.55895220383897
 30
0.0
 10
326.2456524311672
 20
22.55104212405454
 30
0.0
 10
326.2505578623192
 20
22.53952809059906
 30
0.0
 10
326.2578039380854
 20
22.52259325813688
 30
0.0
 10
326.2678297125353
 20
22.49931317188664
 30
0.0
 10
326.2801474044785
 20
22.47093994098839
 30
0.0
 10
326.2948081629885
 20
22.43749079478954
 30
0.0
 10
326.3118722362601
 20
22.39898634509688
 30
0.0
 10
326.3314837122435
 20
22.3552840275579
 30
0.0
 10
326.3537392326077
 20
22.30637950643663
 30
0.0
 10
326.3787459898291
 20
22.25227292645265
 30
0.0
 10
326.4064544339803
 20
22.19332108853814
 30
0.0
 10
326.4361844026043
 20
22.13119990817563
 30
0.0
 10
326.4670564766136
 20
22.0678761347119
 30
0.0
 10
326.4982208558122
 20
22.00510712266962
 30
0.0
 10
326.5472887422341
 20
21.90802223344759
 30
0.0
 10
326.6148281650837
 20
21.77861860393449
 30
0.0
 10
326.693960179173
 20
21.63367849537992
 30
0.0
 10
326.7649126836667
 20
21.50839012210651
 30
0.0
 10
326.8272044770014
 20
21.40154617865691
 30
0.0
 10
326.8893627634787
 20
21.29786546106396
 30
0.0
 10
326.9510837013516
 20
21.19763754362153
 30
0.0
 10
327.010634325574
 20
21.10338202945033
 30
0.0
 10
327.0675609585082
 20
21.01537651986365
 30
0.0
 10
327.1216209675067
 20
20.93358149031629
 30
0.0
 10
327.1640654390612
 20
20.87065654768242
 30
0.0
 10
327.1950544891048
 20
20.82533662667416
 30
0.0
 10
327.2145353289368
 20
20.7970570870743
 30
0.0
 10
327.2324043318708
 20
20.77129865791427
 30
0.0
 10
327.2477130531165
 20
20.74936564775173
 30
0.0
 10
327.2599246250841
 20
20.73195673622136
 30
0.0
 10
327.2690723876901
 20
20.71896542822235
 30
0.0
 10
327.2764197109263
 20
20.70855940954913
 30
0.0
 10
327.2837089747765
 20
20.69825945365253
 30
0.0
 10
327.2926330537168
 20
20.68568473349719
 30
0.0
 10
327.3036703363187
 20
20.67018727116232
 30
0.0
 10
327.3168384613509
 20
20.65177668266277
 30
0.0
 10
327.3332693201719
 20
20.6289189643597
 30
0.0
 10
327.353278570818
 20
20.60125812807429
 30
0.0
 10
327.3771059409599
 20
20.56857314821362
 30
0.0
 10
327.403193787773
 20
20.53309675351919
 30
0.0
 10
327.4567648106313
 20
20.46091530245028
 30
0.0
 10
327.5393139960645
 20
20.35216050902131
 30
0.0
 10
327.6538480594151
 20
20.20658803372263
 30
0.0
 10
327.7753312298645
 20
20.05774507819963
 30
0.0
 10
327.9038007137829
 20
19.90613264703944
 30
0.0
 10
328.0381057106805
 20
19.75357212718087
 30
0.0
 10
328.1767846595707
 20
19.60196713896178
 30
0.0
 10
328.3197051290061
 20
19.45154596590851
 30
0.0
 10
328.466719761106
 20
19.30259858379885
 30
0.0
 10
328.6178390915547
 20
19.15523973732489
 30
0.0
 10
328.7401396074489
 20
19.04042762925984
 30
0.0
 10
328.8302905038287
 20
18.95798017126787
 30
0.0
 10
328.8855495061339
 20
18.90813886185805
 30
0.0
 10
328.9363717022793
 20
18.86287845192933
 30
0.0
 10
328.9826413043249
 20
18.82214592665341
 30
0.0
 10
329.0242762944437
 20
18.78587276847371
 30
0.0
 10
329.0559378149541
 20
18.75854273395683
 30
0.0
 10
329.0787490339733
 20
18.73897482291717
 30
0.0
 10
329.0938886108115
 20
18.72603546735313
 30
0.0
 10
329.1076687136653
 20
18.71429803401284
 30
0.0
 10
329.1192702621495
 20
18.70444637227203
 30
0.0
 10
329.1278345167783
 20
18.69719148927476
 30
0.0
 10
329.1332275235599
 20
18.69263017238215
 30
0.0
 10
329.1393861717877
 20
18.68742587567379
 30
0.0
 10
329.1493498466387
 20
18.67901948702144
 30
0.0
 10
329.1648016477057
 20
18.6660238922918
 30
0.0
 10
329.1844549101875
 20
18.64956253663419
 30
0.0
 10
329.2079697591439
 20
18.6299637689708
 30
0.0
 10
329.2358772168532
 20
18.60684158968903
 30
0.0
 10
329.2684812509391
 20
18.58001486644403
 30
0.0
 10
329.3058904909676
 20
18.54948052152586
 30
0.0
 10
329.3482213615144
 20
18.51524348569605
 30
0.0
 10
329.395061626859
 20
18.47774334454078
 30
0.0
 10
329.4450980248427
 20
18.43812853712992
 30
0.0
 10
329.4968663441218
 20
18.39761705273132
 30
0.0
 10
329.5491424272175
 20
18.35718512145854
 30
0.0
 10
329.6577736700542
 20
18.27414930692706
 30
0.0
 10
329.8253262405524
 20
18.14994266604194
 30
0.0
 10
330.0556489762047
 20
17.98754214694956
 30
0.0
 10
330.284094909634
 20
17.8344815277163
 30
0.0
 10
330.5099374681959
 20
17.6904516606842
 30
0.0
 10
330.7324967097559
 20
17.55511886459038
 30
0.0
 10
330.9603236567618
 20
17.42318342098104
 30
0.0
 10
331.1933826078873
 20
17.29481937856381
 30
0.0
 10
331.4316301354186
 20
17.17020298922056
 30
0.0
 10
331.6514688502639
 20
17.06118866925169
 30
0.0
 10
331.8521195156218
 20
16.96627370988227
 30
0.0
 10
332.0336462586388
 20
16.88382679830289
 30
0.0
 10
332.2208040023042
 20
16.80235869550015
 30
0.0
 10
332.414280210146
 20
16.721822921723
 30
0.0
 10
332.6141335017839
 20
16.64246379359166
 30
0.0
 10
332.8163527632705
 20
16.56606856784956
 30
0.0
 10
333.0206898910135
 20
16.49272934044188
 30
0.0
 10
333.2268943384828
 20
16.42252254783813
 30
0.0
 10
333.4389053571818
 20
16.35427357790206
 30
0.0
 10
333.6567381323618
 20
16.28821958841187
 30
0.0
 10
333.880399544186
 20
16.22460378948507
 30
0.0
 10
334.1098876867755
 20
16.16367527674845
 30
0.0
 10
334.3451912647275
 20
16.10568888316732
 30
0.0
 10
334.5862890252617
 20
16.05090499118183
 30
0.0
 10
334.8331491189649
 20
15.99958932963771
 30
0.0
 10
335.084185191296
 20
15.95230344237281
 30
0.0
 10
335.3392644892783
 20
15.90922999566555
 30
0.0
 10
335.5982477301315
 20
15.87054728654244
 30
0.0
 10
335.8625559684276
 20
15.83627191761508
 30
0.0
 10
336.1288054898491
 20
15.80703864195809
 30
0.0
 10
336.3967602065885
 20
15.78290547592423
 30
0.0
 10
336.6661861014754
 20
15.76391820862663
 30
0.0
 10
336.9401680476524
 20
15.75004070006617
 30
0.0
 10
337.2185818397045
 20
15.74152665498901
 30
0.0
 10
337.5012898173001
 20
15.73863127690167
 30
0.0
 10
337.7825675801221
 20
15.74155198486365
 30
0.0
 10
338.0621092025817
 20
15.75013760580724
 30
0.0
 10
338.3396252163487
 20
15.76422216464549
 30
0.0
 10
338.6203788650532
 20
15.78418776358612
 30
0.0
 10
338.9041985180198
 20
15.81024951747775
 30
0.0
 10
339.1857371434136
 20
15.84203877587959
 30
0.0
 10
339.464731313824
 20
15.87937607862838
 30
0.0
 10
339.7409362908034
 20
15.9220709480917
 30
0.0
 10
340.0191836678824
 20
15.97097284520377
 30
0.0
 10
340.2992749538959
 20
16.02625735541766
 30
0.0
 10
340.5809989706669
 20
16.08809702296191
 30
0.0
 10
340.8086480612856
 20
16.14322502923049
 30
0.0
 10
340.982253659176
 20
16.18811414410723
 30
0.0
 10
341.1017177127549
 20
16.22018236792017
 30
0.0
 10
341.2211784954887
 20
16.25344143774157
 30
0.0
 10
341.330327039625
 20
16.28492843926213
 30
0.0
 10
341.4271664516531
 20
16.31372135181086
 30
0.0
 10
341.5098964855072
 20
16.33892782719701
 30
0.0
 10
341.5867243863607
 20
16.36286625090491
 30
0.0
 10
341.6605085031294
 20
16.3863314067893
 30
0.0
 10
341.7307121052721
 20
16.40910316086119
 30
0.0
 10
341.7968040023928
 20
16.4309491321511
 30
0.0
 10
341.8554663492083
 20
16.45066494641087
 30
0.0
 10
341.9067415846839
 20
16.46815035546048
 30
0.0
 10
341.9506676590847
 20
16.48331782090884
 30
0.0
 10
341.9874080772385
 20
16.49613790517612
 30
0.0
 10
342.0178381128442
 20
16.50684768112737
 30
0.0
 10
342.0478938266937
 20
16.51750059703313
 30
0.0
 10
342.0824866831103
 20
16.52985720717001
 30
0.0
 10
342.1257893443077
 20
16.5454814159394
 30
0.0
 10
342.1760937517439
 20
16.56385089014656
 30
0.0
 10
342.2323286073499
 20
16.58466645036275
 30
0.0
 10
342.2934207064072
 20
16.60761509599093
 30
0.0
 10
342.3634637244862
 20
16.63434346444759
 30
0.0
 10
342.4429873665476
 20
16.66525108022388
 30
0.0
 10
342.5324957395959
 20
16.7007795745075
 30
0.0
 10
342.6281774775861
 20
16.73961623841797
 30
0.0
 10
342.7306213279639
 20
16.78218896941849
 30
0.0
 10
342.8397990107838
 20
16.82870750214457
 30
0.0
 10
342.9556688482746
 20
16.87939589158594
 30
0.0
 10
343.0775149957879
 20
16.93418339574607
 30
0.0
 10
343.205204508211
 20
16.99326090721084
 30
0.0
 10
343.3523466360169
 20
17.06338192514367
 30
0.0
 10
343.5169814282334
 20
17.14464500014329
 30
0.0
 10
343.6970617062696
 20
17.23715553519295
 30
0.0
 10
343.8857153123632
 20
17.33799237194886
 30
0.0
 10
344.0826569210587
 20
17.44778808129921
 30
0.0
 10
344.2875555420898
 20
17.56722453158172
 30
0.0
 10
344.4921709409008
 20
17.69190815860541
 30
0.0
 10
344.6963012084237
 20
17.8219270393242
 30
0.0
 10
344.8997365906513
 20
17.95736457162411
 30
0.0
 10
345.0567981939298
 20
18.06666302300605
 30
0.0
 10
345.1688068074865
 20
18.14694940607822
 30
0.0
 10
345.2364710016369
 20
18.19618004861356
 30
0.0
 10
345.3039898460875
 20
18.24604521335147
 30
0.0
 10
345.3709911295578
 20
18.29627504149195
 30
0.0
 10
345.4354868678334
 20
18.34535174113008
 30
0.0
 10
345.4958413287517
 20
18.39193089049046
 30
0.0
 10
345.5508161485189
 20
18.43491086825399
 30
0.0
 10
345.6007847370245
 20
18.47444284064773
 30
0.0
 10
345.6460478174967
 20
18.51064010238312
 30
0.0
 10
345.6866094291733
 20
18.54339634659291
 30
0.0
 10
345.7224692151326
 20
18.57261053649528
 30
0.0
 10
345.7533958243813
 20
18.59799945864824
 30
0.0
 10
345.7794370658317
 20
18.61951829883879
 30
0.0
 10
345.8005562427378
 20
18.63706515738758
 30
0.0
 10
345.8176697290786
 20
18.6513453806873
 30
0.0
 10
345.8324921765208
 20
18.66375711979548
 30
0.0
 10
345.8476013007568
 20
18.67645050874581
 30
0.0
 10
345.8666770452376
 20
18.69253467974294
 30
0.0
 10
345.8911590452144
 20
18.71328052291624
 30
0.0
 10
345.9216587722539
 20
18.73929629961704
 30
0.0
 10
345.9559874217172
 20
18.76880369772804
 30
0.0
 10
345.992865354116
 20
18.8007732908714
 30
0.0
 10
346.0439378398966
 20
18.84544463801935
 30
0.0
 10
346.1093555823487
 20
18.90345388494172
 30
0.0
 10
346.1950810183749
 20
18.98091867731749
 30
0.0
 10
346.2894155966943
 20
19.06803751734057
 30
0.0
 10
346.392456781915
 20
19.16559080766472
 30
0.0
 10
346.4950075431888
 20
19.26525442495472
 30
0.0
 10
346.5967003077565
 20
19.36668618255685
 30
0.0
 10
346.6971929234362
 20
19.46952901298729
 30
0.0
 10
346.799884118444
 20
19.57747931506074
 30
0.0
 10
346.9043097468433
 20
19.69036560986162
 30
0.0
 10
347.0100714918752
 20
19.8080587233837
 30
0.0
 10
347.1201279988422
 20
19.93426440737267
 30
0.0
 10
347.2342264428036
 20
20.06943505995859
 30
0.0
 10
347.3520605434442
 20
20.2140445699466
 30
0.0
 10
347.4702405398401
 20
20.36450377324303
 30
0.0
 10
347.5884854394648
 20
20.52091770056924
 30
0.0
 10
347.7065016725398
 20
20.68338696434569
 30
0.0
 10
347.8239845773198
 20
20.8520097570245
 30
0.0
 10
347.9372582267266
 20
21.0218427403388
 30
0.0
 10
348.046291171606
 20
21.19263363501173
 30
0.0
 10
348.151000640989
 20
21.36401635504642
 30
0.0
 10
348.2542486384095
 20
21.54096850251472
 30
0.0
 10
348.3557633470048
 20
21.72357452817886
 30
0.0
 10
348.4552392647017
 20
21.91187192781499
 30
0.0
 10
348.5291331962054
 20
22.05948759257034
 30
0.0
 10
348.5794117647067
 20
22.16366894611194
 30
0.0
 10
348.606666431811
 20
22.22112353338671
 30
0.0
 10
348.6321839010788
 20
22.27582316365623
 30
0.0
 10
348.6555634816978
 20
22.32673612855859
 30
0.0
 10
348.6768590757594
 20
22.37379984587176
 30
0.0
 10
348.6961361628431
 20
22.41699034152819
 30
0.0
 10
348.7134549533586
 20
22.45628613789488
 30
0.0
 10
348.7284312544015
 20
22.49066036070987
 30
0.0
 10
348.7412384049842
 20
22.52034838834882
 30
0.0
 10
348.7520109599854
 20
22.54553010263854
 30
0.0
 10
348.7612122262036
 20
22.56719835569659
 30
0.0
 10
348.768751000354
 20
22.58506311439523
 30
0.0
 10
348.7749650119763
 20
22.59986259531674
 30
0.0
 10
348.7809464288106
 20
22.61416814768244
 30
0.0
 10
348.7883034109788
 20
22.63184517320696
 30
0.0
 10
348.7978842068594
 20
22.65501426611816
 30
0.0
 10
348.8098399751371
 20
22.68417411280138
 30
0.0
 10
348.8237914382444
 20
22.71855216362595
 30
0.0
 10
348.8396759663552
 20
22.75816730070329
 30
0.0
 10
348.8574213690418
 20
22.80304096981683
 30
0.0
 10
348.8808573557482
 20
22.86324527228897
 30
0.0
 10
348.9090021755551
 20
22.93721399686851
 30
0.0
 10
348.9408005425363
 20
23.02327832014342
 30
0.0
 10
348.9848152959012
 20
23.1460521579783
 30
0.0
 10
349.0392152260891
 20
23.30571138045007
 30
0.0
 10
349.1015160101871
 20
23.50265853945055
 30
0.0
 10
349.1511549630171
 20
23.67249237672028
 30
0.0
 10
349.1896141541033
 20
23.81311589326704
 30
0.0
 10
349.2180742686918
 20
23.92251998795073
 30
0.0
 10
349.2438567822768
 20
24.02669163840013
 30
0.0
 10
349.262844514749
 20
24.10729605740791
 30
0.0
 10
349.2761434641265
 20
24.16574619548706
 30
0.0
 10
349.2845673789417
 20
24.20350943621727
 30
0.0
 10
349.292632949533
 20
24.24038406064183
 30
0.0
 10
349.3002622367883
 20
24.27595200508922
 30
0.0
 10
349.3071198697024
 20
24.30853731745841
 30
0.0
 10
349.3129310830406
 20
24.33662761975111
 30
0.0
 10
349.3175172897873
 20
24.35911318231929
 30
0.0
 10
349.3209534530655
 20
24.37615081211467
 30
0.0
 10
349.3237584548339
 20
24.39017373218513
 30
0.0
 10
349.3266236855042
 20
24.40460185336343
 30
0.0
 10
349.3302160713495
 20
24.42285956850468
 30
0.0
 10
349.3346735519153
 20
24.4457913333006
 30
0.0
 10
349.339853097607
 20
24.47284233218475
 30
0.0
 10
349.3456072432047
 20
24.50342724542864
 30
0.0
 10
349.3526288377589
 20
24.54149534611594
 30
0.0
 10
349.3609553721747
 20
24.58784154679938
 30
0.0
 10
349.3705837491065
 20
24.64329302580667
 30
0.0
 10
349.3807686596292
 20
24.70428203365011
 30
0.0
 10
349.3913976289114
 20
24.77082059921682
 30
0.0
 10
349.4023478841304
 20
24.84292071829633
 30
0.0
 10
349.4134863342068
 20
24.92059411963907
 30
0.0
 10
349.4246695258236
 20
25.00385182152892
 30
0.0
 10
349.4353252558553
 20
25.08934702741536
 30
0.0
 10
349.4453649058734
 20
25.17671404322871
 30
0.0
 10
349.4546978684366
 20
25.265416964633
 30
0.0
 10
349.4633148424823
 20
25.35606524937969
 30
0.0
 10
349.4709251855781
 20
25.44570466159593
 30
0.0
 10
349.477336644744
 20
25.53099595012007
 30
0.0
 10
349.4826420301271
 20
25.61131278298828
 30
0.0
 10
349.4869795671241
 20
25.68669746204438
 30
0.0
 10
349.4904945471283
 20
25.75766616959499
 30
0.0
 10
349.4934488883329
 20
25.8279764287746
 30
0.0
 10
349.4958232720787
 20
25.8970144138343
 30
0.0
 10
349.4976179940885
 20
25.96417456456679
 30
0.0
 10
349.498821314808
 20
26.02504089868115
 30
0.0
 10
349.499548304709
 20
26.07962180383572
 30
0.0
 10
349.4999344302102
 20
26.12787370405814
 30
0.0
 10
349.4999792272515
 20
26.15809381921805
 30
0.0
 10
349.5000000000002
 20
26.17210712985105
 30
0.0
  0
ARC
  5
C9
330
1F
100
AcDbEntity
  8
0
  6
Continuous
 62
     7
370
    30
100
AcDbCircle
 10
374.0
 20
194.1749660463
 30
0.0
 40
1.0
100
AcDbArc
 50
270.0
 51
0.0
  0
ARC
  5
CA
330
1F
100
AcDbEntity
  8
0
  6
Continuous
 62
     7
370
    30
100
AcDbCircle
 10
301.0
 20
194.1749660463
 30
0.0
 40
1.0
100
AcDbArc
 50
180.0
 51
270.0
  0
LINE
  5
CB
330
1F
100
AcDbEntity
  8
0
  6
Continuous
 62
     7
370
    30
100
AcDbLine
 10
300.0
 20
201.1749660463
 30
0.0
 11
300.0
 21
194.1749660463
 31
0.0
  0
LINE
  5
CC
330
1F
100
AcDbEntity
  8
0
  6
Continuous
 62
     7
370
    30
100
AcDbLine
 10
375.0
 20
194.1749660463
 30
0.0
 11
375.0
 21
201.1749660463
 31
0.0
  0
LINE
  5
CD
330
1F
100
AcDbEntity
  8
0
  6
Continuous
 62
     7
370
    30
100
AcDbLine
 10
349.5
 20
26.1721071296
 30
0.0
 11
349.4999998962
 21
26.1707402753
 31
0.0
  0
LINE
  5
CE
330
1F
100
AcDbEntity
  8
0
  6
Continuous
 62
     7
370
    30
100
AcDbLine
 10
374.0
 20
193.1749660463
 30
0.0
 11
301.0
 21
193.1749660463
 31
0.0
  0
LINE
  5
CF
330
1F
100
AcDbEntity
  8
0
  6
Continuous
 62
     7
370
    30
100
AcDbLine
 10
375.0
 20
201.1749660463
 30
0.0
 11
300.0
 21
201.1749660463
 31
0.0
  0
SPLINE
  5
D0
330
1F
100
AcDbEntity
  8
0
  6
Continuous
 62
     7
370
    30
100
AcDbSpline
210
0.0
220
0.0
230
1.0
 70
     8
 71
     3
 72
   227
 73
   223
 74
     0
 42
0.000000001
 43
0.00000001
 40
0.0
 40
0.0
 40
0.0
 40
0.0
 40
0.0042060514514977
 40
0.0078338799865193
 40
0.010882984096124
 40
0.0133529432701502
 40
0.0152434193698571
 40
0.0165928741658873
 40
0.0187313727224631
 40
0.0212000004020481
 40
0.0239989322945047
 40
0.0273645422903495
 40
0.0311098071214495
 40
0.035235010254193
 40
0.0397404605448458
 40
0.0444655205718235
 40
0.0545308278607358
 40
0.0638927450761101
 40
0.0725499037933263
 40
0.080501085389341
 40
0.0878857004616224
 40
0.0947772048557163
 40
0.1016998274714917
 40
0.1086712615524079
 40
0.1156914974158006
 40
0.1227605195769798
 40
0.1298783068920984
 40
0.1389902635407428
 40
0.1481293501796756
 40
0.1572945815326683
 40
0.1664858630354295
 40
0.1757030988241776
 40
0.1849554514059682
 40
0.1946452553699824
 40
0.204100702041063
 40
0.214104413287625
 40
0.224656365649572
 40
0.2357564559216831
 40
0.2474045101074445
 40
0.2596002907583987
 40
0.2671638394834773
 40
0.2749235262128045
 40
0.2827550619806705
 40
0.2901649829965007
 40
0.2971023638396135
 40
0.3035672999001558
 40
0.3095599453436588
 40
0.3150805244257948
 40
0.3203580038095047
 40
0.3251182176437098
 40
0.3293618366565137
 40
0.3330897964549151
 40
0.3363034454608437
 40
0.3390048322494835
 40
0.3409151338301959
 40
0.342455212238173
 40
0.3436806000668587
 40
0.3452767079824237
 40
0.3474757020684339
 40
0.3502840075254267
 40
0.3537045472198468
 40
0.3573792273134004
 40
0.361570419140713
 40
0.3662786446273806
 40
0.3715043059579844
 40
0.3772477425184851
 40
0.3835092642523605
 40
0.3899697447644516
 40
0.3967887858041514
 40
0.4033556395919954
 40
0.4095798028241585
 40
0.4154613103097891
 40
0.4210002625108051
 40
0.4261968348683011
 40
0.4310512904472478
 40
0.4357703675959159
 40
0.4401149511896509
 40
0.444145272190675
 40
0.448332217424
 40
0.4527766147929898
 40
0.4574782303275615
 40
0.4659552467213981
 40
0.4751561493832198
 40
0.4789043338491418
 40
0.4822899999851581
 40
0.4852408511983733
 40
0.4877571623580391
 40
0.4896368654761038
 40
0.4911704894120059
 40
0.4923581567064054
 40
0.4936024159039217
 40
0.4953180646926123
 40
0.4974999226838753
 40
0.4999767237717831
 40
0.5026698974188735
 40
0.5078228895643038
 40
0.5136231929344953
 40
0.5200723299487646
 40
0.5240836790067418
 40
0.5277190792611743
 40
0.5309020920335983
 40
0.5336329988395122
 40
0.5352025646090345
 40
0.5365713855214809
 40
0.5377395372073985
 40
0.538707102290336
 40
0.5394771917820881
 40
0.5404601298510144
 40
0.5422630199756806
 40
0.5447628043632846
 40
0.547866198242531
 40
0.5509122291583295
 40
0.5559722090020243
 40
0.5604158583972723
 40
0.5642440070765826
 40
0.5675905669245707
 40
0.5705833920867476
 40
0.5726869566238678
 40
0.5745979353724342
 40
0.5768319227720945
 40
0.5795913788154144
 40
0.582872834951844
 40
0.5892992806749485
 40
0.5953754102380218
 40
0.6010600661209402
 40
0.6062910889728537
 40
0.6115990344110841
 40
0.6173844292586714
 40
0.6230243566302456
 40
0.6287623693092085
 40
0.6343215049331202
 40
0.6395849034639353
 40
0.64431242284816
 40
0.6469431997514752
 40
0.6496069284812068
 40
0.6523062986716965
 40
0.6553697546481945
 40
0.6590318330432827
 40
0.6632916151533069
 40
0.6661767111453935
 40
0.6684580789862075
 40
0.6701264477938189
 40
0.6713756040257794
 40
0.6727452340686577
 40
0.6742671800824093
 40
0.6759413399958722
 40
0.6785407356033777
 40
0.6815099821545719
 40
0.6849120472431156
 40
0.6887462647047561
 40
0.6929537544741337
 40
0.6959820641384697
 40
0.698590635454535
 40
0.7009409909780688
 40
0.7032552134523753
 40
0.705534713727079
 40
0.715269884074429
 40
0.7245624322826868
 40
0.7337534245600773
 40
0.7437017051827188
 40
0.7525955869936573
 40
0.7648097780175269
 40
0.7776471795195696
 40
0.7871167751010251
 40
0.7957206054729634
 40
0.807348405751897
 40
0.8182100171218065
 40
0.8296535585000802
 40
0.8325162140741798
 40
0.8353311651019689
 40
0.8380695988896978
 40
0.8406837759349515
 40
0.8431461236207602
 40
0.8452737821370324
 40
0.8475833755061737
 40
0.8508120579158772
 40
0.8536654392799645
 40
0.8565839426115146
 40
0.859786883230762
 40
0.8622307720944601
 40
0.863930546439958
 40
0.8660242432589602
 40
0.8679590345754564
 40
0.8694826099260168
 40
0.871052512580972
 40
0.8730369542939107
 40
0.875100997621682
 40
0.8767553823897698
 40
0.8783173483368962
 40
0.8803536882677491
 40
0.8826830995301641
 40
0.8846947638215378
 40
0.8864402817799601
 40
0.8881263599560779
 40
0.8957692572746991
 40
0.9033014309948062
 40
0.9112745842186283
 40
0.9189281160963433
 40
0.92656314123642
 40
0.9341969666928469
 40
0.941169831042594
 40
0.9493634175086364
 40
0.9531934387242708
 40
0.9573555490764996
 40
0.9614627184742318
 40
0.9648344535449164
 40
0.9689179869323717
 40
0.9728509320109462
 40
0.9769729761873401
 40
0.9791271836681374
 40
0.9810711478401587
 40
0.9827777518818185
 40
0.9844632351743832
 40
0.9865576496597128
 40
0.9886814241691213
 40
0.9900566100651913
 40
0.9913814640260491
 40
0.9926824042660103
 40
0.9940548902970493
 40
0.9955564200955244
 40
0.9975177674584014
 40
1.0
 40
1.0
 40
1.0
 40
1.0
 10
512.8179557071251
 20
67.45244627513387
 30
0.0
 10
512.8257723689909
 20
67.47255462609586
 30
0.0
 10
512.8403311045787
 20
67.5100069516272
 30
0.0
 10
512.8607536939463
 20
67.56205021393596
 30
0.0
 10
512.8780196372057
 20
67.60580017630394
 30
0.0
 10
512.8920833674681
 20
67.64125049482442
 30
0.0
 10
512.9029676491879
 20
67.66857753742
 30
0.0
 10
512.9132589390505
 20
67.69433902918304
 30
0.0
 10
512.9247037225028
 20
67.72289688654703
 30
0.0
 10
512.9390016795257
 20
67.75842477756031
 30
0.0
 10
512.9557565883385
 20
67.79985935871363
 30
0.0
 10
512.9751032805221
 20
67.84743797830662
 30
0.0
 10
512.9971853445031
 20
67.9013983122727
 30
0.0
 10
513.0216828512489
 20
67.96084274753957
 30
0.0
 10
513.048324763547
 20
68.02499904092078
 30
0.0
 10
513.0871300394004
 20
68.11769197021277
 30
0.0
 10
513.136335985956
 20
68.2337285405113
 30
0.0
 10
513.1945178513313
 20
68.36866830481023
 30
0.0
 10
513.2491488239239
 20
68.49346098138156
 30
0.0
 10
513.3003286876221
 20
68.6087647122591
 30
0.0
 10
513.348353343882
 20
68.71560290113007
 30
0.0
 10
513.3947045414395
 20
68.81752562434932
 30
0.0
 10
513.4406585215339
 20
68.91745422572357
 30
0.0
 10
513.4874063228023
 20
69.0179854180626
 30
0.0
 10
513.5349919558158
 20
69.11918935083258
 30
0.0
 10
513.5834204749807
 20
69.22105159368324
 30
0.0
 10
513.6371875349263
 20
69.33289922434815
 30
0.0
 10
513.6964183470748
 20
69.45457771698219
 30
0.0
 10
513.761234908596
 20
69.58588504267155
 30
0.0
 10
513.8270464308157
 20
69.71737307361312
 30
0.0
 10
513.8938472389781
 20
69.84901321441863
 30
0.0
 10
513.9616599914746
 20
69.98083250379462
 30
0.0
 10
514.0314985387766
 20
70.1147560040588
 30
0.0
 10
514.1027759775477
 20
70.24956253009098
 30
0.0
 10
514.1768025199021
 20
70.38764130885485
 30
0.0
 10
514.2539016287625
 20
70.52945495702457
 30
0.0
 10
514.3361913996171
 20
70.67861429587826
 30
0.0
 10
514.4238062278793
 20
70.83501159050424
 30
0.0
 10
514.5168842294879
 20
70.99852770717752
 30
0.0
 10
514.6015966253462
 20
71.14489364574348
 30
0.0
 10
514.6765707448781
 20
71.2726771301458
 30
0.0
 10
514.7401384139415
 20
71.37988616611607
 30
0.0
 10
514.8037677057871
 20
71.48606301075871
 30
0.0
 10
514.8655658359363
 20
71.58812316303961
 30
0.0
 10
514.923939126773
 20
71.68359783927106
 30
0.0
 10
514.9786611391863
 20
71.77229811145317
 30
0.0
 10
515.0296546048921
 20
71.85426872699394
 30
0.0
 10
515.0775006284344
 20
71.9305923982772
 30
0.0
 10
515.1220130075006
 20
72.00109172677027
 30
0.0
 10
515.1630065553435
 20
72.06558950024011
 30
0.0
 10
515.1996371226523
 20
72.12288386773405
 30
0.0
 10
515.2318570880406
 20
72.17301956666844
 30
0.0
 10
515.2596185857468
 20
72.21602697097734
 30
0.0
 10
515.2820981080255
 20
72.2507235791481
 30
0.0
 10
515.299624416015
 20
72.27770401051032
 30
0.0
 10
515.31286472193
 20
72.29804743677354
 30
0.0
 10
515.3246687454597
 20
72.31617721066311
 30
0.0
 10
515.3389643633992
 20
72.3380729106414
 30
0.0
 10
515.3580323766082
 20
72.36719025129348
 30
0.0
 10
515.3826083615725
 20
72.40458358338944
 30
0.0
 10
515.4116705106915
 20
72.44861190013171
 30
0.0
 10
515.4449681947406
 20
72.49881417711934
 30
0.0
 10
515.4822439622897
 20
72.55471775836
 30
0.0
 10
515.5243200837931
 20
72.61744734800918
 30
0.0
 10
515.5712518754485
 20
72.68695719273701
 30
0.0
 10
515.623100417671
 20
72.76319615480293
 30
0.0
 10
515.6789663060557
 20
72.844697953554
 30
0.0
 10
515.7384135654286
 20
72.93070677853305
 30
0.0
 10
515.7991350760019
 20
73.01780257792333
 30
0.0
 10
515.859402172752
 20
73.1035026007704
 30
0.0
 10
515.9170263391121
 20
73.18477008108826
 30
0.0
 10
515.9716762218331
 20
73.2612427758664
 30
0.0
 10
516.0233045533151
 20
73.33295648148244
 30
0.0
 10
516.0718668202618
 20
73.39994519677953
 30
0.0
 10
516.1179670764333
 20
73.46312612595648
 30
0.0
 10
516.1614649002096
 20
73.52237286420907
 30
0.0
 10
516.2024147622288
 20
73.57782349315903
 30
0.0
 10
516.2416595481957
 20
73.63067927646195
 30
0.0
 10
516.2812917468941
 20
73.68377516812305
 30
0.0
 10
516.3231118591493
 20
73.73949149646336
 30
0.0
 10
516.3785122097418
 20
73.8128668946516
 30
0.0
 10
516.4490962826833
 20
73.90556154605277
 30
0.0
 10
516.5169739327546
 20
73.99369103225698
 30
0.0
 10
516.5688896351227
 20
74.06053473796683
 30
0.0
 10
516.601001318315
 20
74.1016895944597
 30
0.0
 10
516.6292355482583
 20
74.13772691277987
 30
0.0
 10
516.652694657956
 20
74.16756357912196
 30
0.0
 10
516.6716493598038
 20
74.19160265694966
 30
0.0
 10
516.6863518670557
 20
74.21020777777218
 30
0.0
 10
516.6990582615437
 20
74.22625852609937
 30
0.0
 10
516.7122004512012
 20
74.24283362921882
 30
0.0
 10
516.7283019926414
 20
74.26310294730881
 30
0.0
 10
516.7481195720765
 20
74.28799004808778
 30
0.0
 10
516.7711492415589
 20
74.31682689601335
 30
0.0
 10
516.8037603108847
 20
74.35752658212536
 30
0.0
 10
516.847277036226
 20
74.41156305478569
 30
0.0
 10
516.9033086814311
 20
74.4806445830978
 30
0.0
 10
516.9561026190448
 20
74.5452141780946
 30
0.0
 10
517.0021503738343
 20
74.60114675622742
 30
0.0
 10
517.0375695273395
 20
74.64395398617887
 30
0.0
 10
517.068836007122
 20
74.68157380637078
 30
0.0
 10
517.0933522889635
 20
74.71095760332727
 30
0.0
 10
517.1119244048474
 20
74.73315440463371
 30
0.0
 10
517.1253718688323
 20
74.7491954537766
 30
0.0
 10
517.1368367568401
 20
74.76284883892711
 30
0.0
 10
517.1463298082182
 20
74.77413818902409
 30
0.0
 10
517.1551844990311
 20
74.7846564383702
 30
0.0
 10
517.1667234068896
 20
74.79834756751036
 30
0.0
 10
517.18388765427
 20
74.81867640850452
 30
0.0
 10
517.2079483903344
 20
74.84709356652588
 30
0.0
 10
517.2360793372459
 20
74.88019692447436
 30
0.0
 10
517.2725774536684
 20
74.9229746818025
 30
0.0
 10
517.3134968852427
 20
74.97068154075734
 30
0.0
 10
517.3570305704579
 20
75.02112228781895
 30
0.0
 10
517.3950041241803
 20
75.06488346681326
 30
0.0
 10
517.4282608789638
 20
75.10302949457991
 30
0.0
 10
517.4559014619962
 20
75.1346023375307
 30
0.0
 10
517.4788524059951
 20
75.16073095957357
 30
0.0
 10
517.4993242744747
 20
75.18397597960802
 30
0.0
 10
517.5219341916292
 20
75.20957896493024
 30
0.0
 10
517.5490372615645
 20
75.24016955235263
 30
0.0
 10
517.5898952216235
 20
75.2861024602085
 30
0.0
 10
517.6416859936405
 20
75.34395564377667
 30
0.0
 10
517.7014457738802
 20
75.41016296825109
 30
0.0
 10
517.7573348456042
 20
75.47160275999006
 30
0.0
 10
517.8107257224162
 20
75.52987352935564
 30
0.0
 10
517.864439386429
 20
75.58808814189602
 30
0.0
 10
517.9194964687837
 20
75.64732056606799
 30
0.0
 10
517.9760161712859
 20
75.70766557321845
 30
0.0
 10
518.031840956198
 20
75.76681697296672
 30
0.0
 10
518.0864382675969
 20
75.82423113253469
 30
0.0
 10
518.1377098052794
 20
75.87775680818093
 30
0.0
 10
518.1792764582221
 20
75.92085957746922
 30
0.0
 10
518.2122542683226
 20
75.95488680643392
 30
0.0
 10
518.2385860093233
 20
75.98195935665039
 30
0.0
 10
518.2663710738315
 20
76.01042231483262
 30
0.0
 10
518.2974302607856
 20
76.04211480980658
 30
0.0
 10
518.3336055974289
 20
76.07885913056514
 30
0.0
 10
518.3691912269502
 20
76.11480962270903
 30
0.0
 10
518.4002367348386
 20
76.14602049200994
 30
0.0
 10
518.4227494368533
 20
76.16857303185512
 30
0.0
 10
518.4398694343266
 20
76.18567682516158
 30
0.0
 10
518.4539661997562
 20
76.19973202928465
 30
0.0
 10
518.46757523761
 20
76.21327653518428
 30
0.0
 10
518.4825758655085
 20
76.22817635077006
 30
0.0
 10
518.5016125783467
 20
76.24704354332538
 30
0.0
 10
518.5254018118698
 20
76.27055151460887
 30
0.0
 10
518.554857449234
 20
76.29954705989908
 30
0.0
 10
518.5883591131437
 20
76.33238016693569
 30
0.0
 10
518.6259240693784
 20
76.36901083149029
 30
0.0
 10
518.6622737782342
 20
76.40425816760579
 30
0.0
 10
518.6945774869041
 20
76.43542392066941
 30
0.0
 10
518.7207514905327
 20
76.46057622742613
 30
0.0
 10
518.7445518791374
 20
76.4833680533449
 30
0.0
 10
518.7672716567369
 20
76.50505379303543
 30
0.0
 10
518.8141371123767
 20
76.5496413769752
 30
0.0
 10
518.8836413905804
 20
76.6152082961029
 30
0.0
 10
518.9759698203317
 20
76.70112830526807
 30
0.0
 10
519.0679854777677
 20
76.78562578450406
 30
0.0
 10
519.1587860868417
 20
76.86786117338768
 30
0.0
 10
519.258887951537
 20
76.95727618536499
 30
0.0
 10
519.3679478642542
 20
77.05317940565115
 30
0.0
 10
519.4780021296936
 20
77.14815958032322
 30
0.0
 10
519.5763365214794
 20
77.23160444967073
 30
0.0
 10
519.6699865800707
 20
77.30998394318999
 30
0.0
 10
519.7677783781518
 20
77.39056071328326
 30
0.0
 10
519.8734870115754
 20
77.47614274140533
 30
0.0
 10
519.9513985664547
 20
77.53811755721884
 30
0.0
 10
520.0040616641653
 20
77.57953351584307
 30
0.0
 10
520.0299018182056
 20
77.59976249254294
 30
0.0
 10
520.054910373138
 20
77.61925288578159
 30
0.0
 10
520.0787533160434
 20
77.63775444367235
 30
0.0
 10
520.1005934443616
 20
77.65463259536787
 30
0.0
 10
520.1216934791856
 20
77.67087802196127
 30
0.0
 10
520.1451081874006
 20
77.68883965433047
 30
0.0
 10
520.1705072825808
 20
77.70823506617228
 30
0.0
 10
520.1977312113568
 20
77.72892033911289
 30
0.0
 10
520.2247767738351
 20
77.74937219813091
 30
0.0
 10
520.2505373757374
 20
77.76875372211633
 30
0.0
 10
520.272573222338
 20
77.78525498365255
 30
0.0
 10
520.2912249077614
 20
77.79917380953918
 30
0.0
 10
520.3083338036075
 20
77.81190081956338
 30
0.0
 10
520.3248940259792
 20
77.82417802248564
 30
0.0
 10
520.3398633323718
 20
77.83524345621647
 30
0.0
 10
520.3549408913987
 20
77.84635983275501
 30
0.0
 10
520.3715991233539
 20
77.85860472742026
 30
0.0
 10
520.3884850988749
 20
77.87097443405352
 30
0.0
 10
520.4040936200552
 20
77.88237218205002
 30
0.0
 10
520.4195753825267
 20
77.89364637231073
 30
0.0
 10
520.437013504949
 20
77.90630622219919
 30
0.0
 10
520.4557480137684
 20
77.91985636545007
 30
0.0
 10
520.4735895336653
 20
77.93271246154868
 30
0.0
 10
520.4895047393775
 20
77.94414335041985
 30
0.0
 10
520.5218097867943
 20
77.96727718834168
 30
0.0
 10
520.5707321903469
 20
78.0020267381166
 30
0.0
 10
520.6373529868558
 20
78.04872044102856
 30
0.0
 10
520.7032870159559
 20
78.09429967101129
 30
0.0
 10
520.7688782945822
 20
78.13900874337254
 30
0.0
 10
520.8328256225104
 20
78.18199326289374
 30
0.0
 10
520.8941909365664
 20
78.2226641988259
 30
0.0
 10
520.9564204603752
 20
78.26334771419697
 30
0.0
 10
521.0076445065018
 20
78.29635700330998
 30
0.0
 10
521.0508620668572
 20
78.32388791851427
 30
0.0
 10
521.0829338859917
 20
78.34416079862719
 30
0.0
 10
521.1135801177143
 20
78.36337664417259
 30
0.0
 10
521.1438361954898
 20
78.382208535517
 30
0.0
 10
521.1733995533218
 20
78.40047355899054
 30
0.0
 10
521.2047148868693
 20
78.41966647436313
 30
0.0
 10
521.2308076365606
 20
78.43552913593285
 30
0.0
 10
521.2517165712446
 20
78.44815981937042
 30
0.0
 10
521.2664162964121
 20
78.45700255005364
 30
0.0
 10
521.2798906549049
 20
78.46507786976204
 30
0.0
 10
521.293682984927
 20
78.4733149369334
 30
0.0
 10
521.3084654992188
 20
78.48210897686897
 30
0.0
 10
521.3224166950002
 20
78.49037224001401
 30
0.0
 10
521.3344032682128
 20
78.49744605135372
 30
0.0
 10
521.3443170187112
 20
78.50328012349337
 30
0.0
 10
521.3541931997653
 20
78.50907608996641
 30
0.0
 10
521.3644748431985
 20
78.51509320299525
 30
0.0
 10
521.3763473123971
 20
78.52201977568652
 30
0.0
 10
521.3908849998137
 20
78.53047305158145
 30
0.0
 10
521.4017071206766
 20
78.53672735605733
 30
0.0
 10
521.4077524762578
 20
78.54022107923295
 30
0.0
  0
SPLINE
  5
D1
330
1F
100
AcDbEntity
  8
0
  6
Continuous
 62
     7
370
    30
100
AcDbSpline
210
0.0
220
0.0
230
1.0
 70
     8
 71
     3
 72
   425
 73
   421
 74
     0
 42
0.000000001
 43
0.00000001
 40
0.0
 40
0.0
 40
0.0
 40
0.0
 40
0.0012601445802487
 40
0.0022084244815548
 40
0.0028449572491486
 40
0.0031989318330183
 40
0.0035914029265373
 40
0.0041110377339054
 40
0.0048866820100145
 40
0.0057531912045441
 40
0.0065702661067192
 40
0.0073359066191504
 40
0.0089697530989576
 40
0.0104023526227567
 40
0.0118680249288473
 40
0.013332592689769
 40
0.0148880066498841
 40
0.0164313175340133
 40
0.0177159132592544
 40
0.0189365515382121
 40
0.0203744702310716
 40
0.0226936036707244
 40
0.024842139316031
 40
0.0268988558390122
 40
0.0288168559871004
 40
0.0302850553559943
 40
0.0321299129193116
 40
0.0340129910340703
 40
0.0357119329019899
 40
0.0375886593992061
 40
0.0394253058815574
 40
0.0414417483202999
 40
0.0436771149882308
 40
0.0455207212367341
 40
0.047396135964494
 40
0.0491672088184101
 40
0.0507595642498419
 40
0.0525402089208552
 40
0.0546066888813556
 40
0.05694944235489
 40
0.0591715320376595
 40
0.0611366568830252
 40
0.0629527534652065
 40
0.0645915173359863
 40
0.0662070999112474
 40
0.0678466921467092
 40
0.0697192183409325
 40
0.0718814522514981
 40
0.0738857975521665
 40
0.075680600108103
 40
0.0778788744213685
 40
0.0801273003329496
 40
0.0821887601929504
 40
0.0839856391522472
 40
0.0857119076828576
 40
0.0875558991638167
 40
0.0897998739440033
 40
0.0923332764731705
 40
0.0947089308243089
 40
0.0969067577112909
 40
0.0985206473364268
 40
0.1000774147932261
 40
0.1015842232128688
 40
0.1030605178273622
 40
0.1047107828530526
 40
0.1064148286923972
 40
0.1082709326169974
 40
0.1102321660588045
 40
0.1119234751762537
 40
0.1132453447955955
 40
0.1144078299804988
 40
0.115598555279663
 40
0.1169973383392147
 40
0.1186309901838344
 40
0.120334906896017
 40
0.1219671173512872
 40
0.1234269954965155
 40
0.1245443371455109
 40
0.1256724611622198
 40
0.1268152970292985
 40
0.1281117693822953
 40
0.1296481932551998
 40
0.1313959797545645
 40
0.1339946952516346
 40
0.1363297658845081
 40
0.1384699372100556
 40
0.1411318774746186
 40
0.1440680332954033
 40
0.1473692072038116
 40
0.1506778054450088
 40
0.1539509562766953
 40
0.1572332907532128
 40
0.1586522678187833
 40
0.1599776134353278
 40
0.1611900790825533
 40
0.1624904905910921
 40
0.1639905659487869
 40
0.1655830066279526
 40
0.1666091577846444
 40
0.167408219132937
 40
0.1680377883654231
 40
0.1687532015775135
 40
0.1695848577547295
 40
0.1705327266181323
 40
0.1722045820622884
 40
0.174066277876106
 40
0.1759974784167714
 40
0.1779970223923852
 40
0.1800648684188287
 40
0.181425992375441
 40
0.1825908377159171
 40
0.1835238602636139
 40
0.184225128657213
 40
0.1848953393118135
 40
0.1857331353167702
 40
0.1869596424227294
 40
0.1884273203510458
 40
0.1901046485209478
 40
0.1917829736946973
 40
0.1934239634769761
 40
0.1965387128211133
 40
0.1995096219907711
 40
0.2009401103870092
 40
0.2021700394104558
 40
0.2031932009724479
 40
0.2040096588264839
 40
0.2046594651030294
 40
0.2055040314071534
 40
0.2066296286032089
 40
0.2080361639440507
 40
0.2101442550154268
 40
0.2121976114662173
 40
0.2141059107967334
 40
0.2158692344163651
 40
0.2174876575570352
 40
0.2193746403187626
 40
0.221091958117894
 40
0.222684737456198
 40
0.2244943139930179
 40
0.2265912032094384
 40
0.2289699295925712
 40
0.2314467939042345
 40
0.2330690887270637
 40
0.2346946044367673
 40
0.2363233402320186
 40
0.2379552953146273
 40
0.2395880178087468
 40
0.2410677828529123
 40
0.2422392388133035
 40
0.2431935975966192
 40
0.2439309173256612
 40
0.2445840580359823
 40
0.2454717890366849
 40
0.2466079781768756
 40
0.2479925485412129
 40
0.2495706414461571
 40
0.2511321136981281
 40
0.2526562908142984
 40
0.2555416916571613
 40
0.2582835176739577
 40
0.2608067419062157
 40
0.2632224632134703
 40
0.2655226544628936
 40
0.2676128649887094
 40
0.2694919336120064
 40
0.2714340695279406
 40
0.2730559477903935
 40
0.2747626077587195
 40
0.2766472412305346
 40
0.2787808461100569
 40
0.2811632887924366
 40
0.2837944201236923
 40
0.285376420467308
 40
0.2869199356594516
 40
0.2882360252878498
 40
0.2893221378557273
 40
0.2901783368047547
 40
0.2908046721700585
 40
0.2914727750627278
 40
0.2923744469837842
 40
0.2935124186540141
 40
0.2948866240193255
 40
0.2976862185290887
 40
0.3003610584220888
 40
0.3028776042783425
 40
0.3052359841513662
 40
0.3067502490823228
 40
0.3082813220150228
 40
0.3098291974452479
 40
0.3113938698097199
 40
0.3129700797910808
 40
0.3144032205105147
 40
0.3156216346801899
 40
0.3167152774019108
 40
0.3178167963867417
 40
0.3191260675141775
 40
0.3206430286788541
 40
0.3223675792895865
 40
0.3271104343102041
 40
0.3322115910474434
 40
0.33431356119746
 40
0.3364528883211604
 40
0.338344414100455
 40
0.3398891836292831
 40
0.3407949258280271
 40
0.3415173627125468
 40
0.3420565314485187
 40
0.3426524985674292
 40
0.3435401808856244
 40
0.3447195220433802
 40
0.3461904471311152
 40
0.3481211039876081
 40
0.3500444760495632
 40
0.3518525560874696
 40
0.3535453900950054
 40
0.3551230211220633
 40
0.3572575009328763
 40
0.3591370805114336
 40
0.3608135839874932
 40
0.3624949194531091
 40
0.3642028866673315
 40
0.3659374755436874
 40
0.3674421355708911
 40
0.3689047217688204
 40
0.370191400832809
 40
0.3712975714645896
 40
0.3723806145300694
 40
0.3736789945759391
 40
0.3752139571180182
 40
0.3769854289566056
 40
0.3789190190144983
 40
0.3860162294606401
 40
0.3933957765640077
 40
0.3953921410927633
 40
0.3971191364323021
 40
0.3985755903960554
 40
0.3997615802988228
 40
0.4005037321912788
 40
0.4010789773653167
 40
0.4015531927830092
 40
0.4022216112799528
 40
0.4031405536031561
 40
0.4042987302217557
 40
0.4056696518992878
 40
0.4070720914147302
 40
0.4084717470464622
 40
0.4098686201393368
 40
0.4112627120361515
 40
0.4151994531134196
 40
0.419208933755151
 40
0.4234494774797176
 40
0.427923355247989
 40
0.4295536506672794
 40
0.4310984505933729
 40
0.4324157378437895
 40
0.433505159663552
 40
0.4343667603729849
 40
0.4349912542145392
 40
0.4354219190391974
 40
0.4359595106099339
 40
0.4366901118131187
 40
0.4379270033718464
 40
0.4394893219209874
 40
0.4413769823550558
 40
0.4435855229736178
 40
0.4458583404645846
 40
0.4480455394726915
 40
0.4501471522154041
 40
0.4537779228092144
 40
0.4571213109658641
 40
0.4601787075622508
 40
0.4633847627215374
 40
0.4667090200869645
 40
0.4680473068907667
 40
0.4694038250722513
 40
0.4707492311027074
 40
0.4718714027571423
 40
0.4726491263577972
 40
0.4732153527758747
 40
0.4735701005923456
 40
0.4738669921709348
 40
0.4742663075668347
 40
0.4747680659804732
 40
0.4753722646365933
 40
0.4760788985120784
 40
0.4775955045693963
 40
0.4794386839918907
 40
0.481608377742248
 40
0.4841045163483934
 40
0.4869270203102447
 40
0.4900376364098477
 40
0.4930942609936904
 40
0.4960157299696226
 40
0.4997278339556208
 40
0.5031962758359357
 40
0.5064212431322058
 40
0.5094029595312709
 40
0.5121416958474951
 40
0.5141233220638516
 40
0.5158958256726336
 40
0.5174010381390196
 40
0.5186393274130814
 40
0.5197831987115867
 40
0.5216683957914329
 40
0.5237866405388288
 40
0.526206259196436
 40
0.5289363923160054
 40
0.5319769518627714
 40
0.5353278402245206
 40
0.5384469462286723
 40
0.5417938978113572
 40
0.5453686172452602
 40
0.5491369291370627
 40
0.5528593620802077
 40
0.5564896077429236
 40
0.5600277059705815
 40
0.566275013027914
 40
0.5722129605255838
 40
0.5778417632806419
 40
0.583027351872434
 40
0.5879200137728902
 40
0.5925199135305412
 40
0.596851974522441
 40
0.6011507557570178
 40
0.6054743162526764
 40
0.6098226758191664
 40
0.6219086531957291
 40
0.6341827439007925
 40
0.6422403264396693
 40
0.6503257236070575
 40
0.6584366885463466
 40
0.6665732736125499
 40
0.6747355319555643
 40
0.6829235176536397
 40
0.6912045324149273
 40
0.6980282088418553
 40
0.7051691024464759
 40
0.712627282878648
 40
0.7204028263708037
 40
0.7284958167500051
 40
0.7369063464656301
 40
0.7456345176847498
 40
0.7552175488548768
 40
0.7651566083074656
 40
0.7754518617487011
 40
0.7804146598830641
 40
0.785248140286563
 40
0.789890874016568
 40
0.7943428771836102
 40
0.798604164365193
 40
0.8037627288423456
 40
0.8086110598607194
 40
0.8131491815341468
 40
0.8173771183062495
 40
0.8212948971301075
 40
0.8249025505281724
 40
0.828200121047199
 40
0.8311876679916473
 40
0.8338652780292201
 40
0.836233082714543
 40
0.8382912891714953
 40
0.8400402378660984
 40
0.8414805221927089
 40
0.8426132701422169
 40
0.8434731324568439
 40
0.8446330198394915
 40
0.8460988828477135
 40
0.8478714960415115
 40
0.8499513041719947
 40
0.8523385876771743
 40
0.8550335341188903
 40
0.8578628201352246
 40
0.8609669936978722
 40
0.864346108770584
 40
0.8680002014136771
 40
0.8719292930957241
 40
0.8761333929190647
 40
0.8803491428656122
 40
0.8848093586694453
 40
0.8895140238745883
 40
0.8944016163368276
 40
0.8991558184731403
 40
0.9049613133141562
 40
0.9104770713322652
 40
0.9157031985294061
 40
0.9206397980609534
 40
0.9252869722135151
 40
0.9296448250680188
 40
0.9337134661366422
 40
0.9370947457499463
 40
0.940250190664727
 40
0.9434237080068651
 40
0.9467640543680819
 40
0.9502712991904112
 40
0.9551166228344807
 40
0.9602484531419966
 40
0.9656669767393359
 40
0.9684097407080307
 40
0.9712205743259462
 40
0.9740995023672261
 40
0.9768773844825718
 40
0.9793341663731809
 40
0.9814688367476908
 40
0.983281316458283
 40
0.9846028859145983
 40
0.9856776885914056
 40
0.9865056937403612
 40
0.9870868778016071
 40
0.9871936060157942
 40
0.987327124104614
 40
0.9875622555519171
 40
0.9879004415944441
 40
0.9885116715690827
 40
0.9893061327053283
 40
0.9902838441342086
 40
0.9916990216929736
 40
0.993378162998842
 40
0.9953213264683052
 40
0.997528579796566
 40
1.0
 40
1.0
 40
1.0
 40
1.0
 10
509.4099609946135
 20
99.32610560475017
 30
0.0
 10
509.3995530733692
 20
99.320095425142
 30
0.0
 10
509.3813130170788
 20
99.30956248472125
 30
0.0
 10
509.3578292997849
 20
99.29596233332776
 30
0.0
 10
509.3418285144568
 20
99.28668254962957
 30
0.0
 10
509.330435811623
 20
99.28006852247358
 30
0.0
 10
509.3200055121249
 20
99.27400876028159
 30
0.0
 10
509.3060962840136
 20
99.26592047465951
 30
0.0
 10
509.2882787143895
 20
99.25554613037139
 30
0.0
 10
509.2680122082478
 20
99.24372662976825
 30
0.0
 10
509.2478410090393
 20
99.23194307237945
 30
0.0
 10
509.2213640068991
 20
99.21645156985623
 30
0.0
 10
509.1898607262499
 20
99.19797555320373
 30
0.0
 10
509.1525496413434
 20
99.17602722810017
 30
0.0
 10
509.1166394972635
 20
99.15484270023198
 30
0.0
 10
509.0797499759442
 20
99.13301780106424
 30
0.0
 10
509.0422530588426
 20
99.11076797340348
 30
0.0
 10
509.0062618911562
 20
99.08934705308631
 30
0.0
 10
508.9730328167839
 20
99.06951563732477
 30
0.0
 10
508.9406888422611
 20
99.0501655265743
 30
0.0
 10
508.8998794458428
 20
99.02568805525542
 30
0.0
 10
508.8514899268359
 20
98.99655869672627
 30
0.0
 10
508.7980675664245
 20
98.96426136490093
 30
0.0
 10
508.7479690489143
 20
98.93385138390907
 30
0.0
 10
508.7034681691097
 20
98.90673662577046
 30
0.0
 10
508.6607289860681
 20
98.8806113509971
 30
0.0
 10
508.6183009352515
 20
98.85459471987953
 30
0.0
 10
508.5740144152975
 20
98.82734268275634
 30
0.0
 10
508.5294984692764
 20
98.79985691073328
 30
0.0
 10
508.4853884576063
 20
98.77253020106347
 30
0.0
 10
508.4387240261089
 20
98.74352035506296
 30
0.0
 10
508.3891756749256
 20
98.71260675806218
 30
0.0
 10
508.3396051476068
 20
98.6815568342341
 30
0.0
 10
508.2912180467802
 20
98.65113345360547
 30
0.0
 10
508.2466272436361
 20
98.62300051382792
 30
0.0
 10
508.2041506823405
 20
98.59611140167144
 30
0.0
 10
508.1624479883262
 20
98.56963065129318
 30
0.0
 10
508.1183230115258
 20
98.54152509715588
 30
0.0
 10
508.0681647273846
 20
98.50946410619719
 30
0.0
 10
508.0144982676778
 20
98.47502282857998
 30
0.0
 10
507.961690880016
 20
98.44099237340475
 30
0.0
 10
507.9131803085581
 20
98.40961243285096
 30
0.0
 10
507.8694124078759
 20
98.38120381441485
 30
0.0
 10
507.8284943407701
 20
98.35456243167431
 30
0.0
 10
507.7890251161641
 20
98.32878937432679
 30
0.0
 10
507.7476957587033
 20
98.30172307611623
 30
0.0
 10
507.7019938000752
 20
98.27169939446256
 30
0.0
 10
507.6533867086837
 20
98.23965254481146
 30
0.0
 10
507.6054374040712
 20
98.20792250289159
 30
0.0
 10
507.5572353593121
 20
98.17591802558094
 30
0.0
 10
507.5071145847868
 20
98.14252238831223
 30
0.0
 10
507.4548904678275
 20
98.1075892379685
 30
0.0
 10
507.4059232232486
 20
98.07471090555755
 30
0.0
 10
507.3611762003438
 20
98.04456489783206
 30
0.0
 10
507.3182038136299
 20
98.01552560676114
 30
0.0
 10
507.2716823409589
 20
97.9839904336351
 30
0.0
 10
507.2187458959222
 20
97.94797965311363
 30
0.0
 10
507.1616012621234
 20
97.90894567697342
 30
0.0
 10
507.104885913013
 20
97.87004111899323
 30
0.0
 10
507.055547084445
 20
97.83606372189416
 30
0.0
 10
507.0127673071715
 20
97.8065071637493
 30
0.0
 10
506.9755174908588
 20
97.78070162539598
 30
0.0
 10
506.9393848679542
 20
97.75560475415305
 30
0.0
 10
506.9025251708754
 20
97.72993797745706
 30
0.0
 10
506.8641264073399
 20
97.7031285989637
 30
0.0
 10
506.8227362758489
 20
97.6741486874132
 30
0.0
 10
506.7789063237001
 20
97.64336826610861
 30
0.0
 10
506.7352082968746
 20
97.61258183443792
 30
0.0
 10
506.6957698915344
 20
97.58471115856166
 30
0.0
 10
506.6626824941687
 20
97.56126961427857
 30
0.0
 10
506.6335779941072
 20
97.54060700020709
 30
0.0
 10
506.6038778785364
 20
97.51948009833947
 30
0.0
 10
506.5704658322254
 20
97.49566143188187
 30
0.0
 10
506.5330156931771
 20
97.4688967136621
 30
0.0
 10
506.4937434697798
 20
97.44075196553456
 30
0.0
 10
506.4558699003847
 20
97.41353450044404
 30
0.0
 10
506.4226482058696
 20
97.3895989866062
 30
0.0
 10
506.3934213857344
 20
97.36849688858811
 30
0.0
 10
506.3667067196861
 20
97.34917289600561
 30
0.0
 10
506.338591686039
 20
97.32879793482317
 30
0.0
 10
506.3072753167607
 20
97.30605746134705
 30
0.0
 10
506.2712132280403
 20
97.27980998547633
 30
0.0
 10
506.2249231192491
 20
97.24602746379546
 30
0.0
 10
506.172395069602
 20
97.20755619126328
 30
0.0
 10
506.1168409484839
 20
97.16670489238108
 30
0.0
 10
506.0608330906077
 20
97.1253700383029
 30
0.0
 10
506.0001689617659
 20
97.08042433694189
 30
0.0
 10
505.9304855197499
 20
97.02856247470818
 30
0.0
 10
505.8558260717679
 20
96.97271773456406
 30
0.0
 10
505.7786363689558
 20
96.9146737000503
 30
0.0
 10
505.7016987569758
 20
96.85651442299634
 30
0.0
 10
505.6395724367986
 20
96.80930583685897
 30
0.0
 10
505.5926728558273
 20
96.77353464912072
 30
0.0
 10
505.5618626198282
 20
96.74998402959828
 30
0.0
 10
505.5319055087309
 20
96.72703937609376
 30
0.0
 10
505.5006681033045
 20
96.70306642240003
 30
0.0
 10
505.4665903072729
 20
96.67685584630499
 30
0.0
 10
505.4347159966721
 20
96.6522804905249
 30
0.0
 10
505.408255982019
 20
96.63183768713834
 30
0.0
 10
505.3892469614734
 20
96.61713044244665
 30
0.0
 10
505.3726264298452
 20
96.60425675952597
 30
0.0
 10
505.3557617101585
 20
96.59118015897579
 30
0.0
 10
505.3364367163163
 20
96.57617774911454
 30
0.0
 10
505.3097132625217
 20
96.5554028568393
 30
0.0
 10
505.2750306033629
 20
96.5283852088306
 30
0.0
 10
505.2327652959959
 20
96.49536981612304
 30
0.0
 10
505.1880007903205
 20
96.46029874656067
 30
0.0
 10
505.141678818345
 20
96.4238964258805
 30
0.0
 10
505.0997921262027
 20
96.39087556572295
 30
0.0
 10
505.0643692308923
 20
96.36287611910595
 30
0.0
 10
505.0377090862058
 20
96.34176184479121
 30
0.0
 10
505.0161440310378
 20
96.32465507654092
 30
0.0
 10
504.9983970861999
 20
96.31055930899022
 30
0.0
 10
504.9813929766852
 20
96.29703926069449
 30
0.0
 10
504.9603548025981
 20
96.28029226647341
 30
0.0
 10
504.9331936489136
 20
96.25863682624339
 30
0.0
 10
504.8995939144341
 20
96.23179240059673
 30
0.0
 10
504.8625421276599
 20
96.20211840350467
 30
0.0
 10
504.8241839793129
 20
96.17131903821289
 30
0.0
 10
504.7748232804377
 20
96.13158443472663
 30
0.0
 10
504.7156024240975
 20
96.08373900301983
 30
0.0
 10
504.6580676956079
 20
96.03703970468655
 30
0.0
 10
504.6150012815592
 20
96.00196674876956
 30
0.0
 10
504.5868438393433
 20
95.97898918006577
 30
0.0
 10
504.5633908090766
 20
95.95981786063197
 30
0.0
 10
504.5443780087723
 20
95.94425445836791
 30
0.0
 10
504.5267374550118
 20
95.92979830154324
 30
0.0
 10
504.5067507536686
 20
95.9134009873398
 30
0.0
 10
504.4810033589504
 20
95.89224606234875
 30
0.0
 10
504.4456406234847
 20
95.86313525054302
 30
0.0
 10
504.4032357685973
 20
95.8281346913757
 30
0.0
 10
504.3570434287662
 20
95.78988833514593
 30
0.0
 10
504.3135061188322
 20
95.75373277750391
 30
0.0
 10
504.2733038824475
 20
95.72025469393424
 30
0.0
 10
504.2332888695821
 20
95.68684794066614
 30
0.0
 10
504.193652948523
 20
95.65367072333457
 30
0.0
 10
504.1542466681943
 20
95.62059673881471
 30
0.0
 10
504.115462732273
 20
95.58796457699536
 30
0.0
 10
504.0738418090068
 20
95.55285652193879
 30
0.0
 10
504.0263148253136
 20
95.51264990109509
 30
0.0
 10
503.9737916085089
 20
95.468068627042
 30
0.0
 10
503.9249032900956
 20
95.42642294833145
 30
0.0
 10
503.8817369960225
 20
95.38953984310977
 30
0.0
 10
503.8449912081576
 20
95.35806721212359
 30
0.0
 10
503.808198120842
 20
95.32647825226948
 30
0.0
 10
503.7713762680989
 20
95.29478847494187
 30
0.0
 10
503.7357006169277
 20
95.26401121423997
 30
0.0
 10
503.7035079612365
 20
95.23617503924281
 30
0.0
 10
503.6764277953074
 20
95.21271382112043
 30
0.0
 10
503.654934370134
 20
95.19406364131477
 30
0.0
 10
503.6373395061908
 20
95.17877733315083
 30
0.0
 10
503.6202547730042
 20
95.16391907681032
 30
0.0
 10
503.6001889380937
 20
95.14644849519361
 30
0.0
 10
503.5746527563966
 20
95.12418210130015
 30
0.0
 10
503.5439610622978
 20
95.09737091643163
 30
0.0
 10
503.5101051188403
 20
95.06773141361268
 30
0.0
 10
503.475228337723
 20
95.03712810059278
 30
0.0
 10
503.4306053272197
 20
94.99788450209434
 30
0.0
 10
503.3772135066159
 20
94.95077802326507
 30
0.0
 10
503.3164420937994
 20
94.89694080590316
 30
0.0
 10
503.2592414161854
 20
94.84607296324765
 30
0.0
 10
503.2053902279703
 20
94.79801225536721
 30
0.0
 10
503.154816188356
 20
94.75272228575801
 30
0.0
 10
503.1082800010114
 20
94.71091616451207
 30
0.0
 10
503.0644503234667
 20
94.67142883322796
 30
0.0
 10
503.0241320309445
 20
94.63500516498465
 30
0.0
 10
502.9851241753647
 20
94.5996751628361
 30
0.0
 10
502.946571004987
 20
94.5646736364173
 30
0.0
 10
502.9042725427408
 20
94.52617308812702
 30
0.0
 10
502.8570289995287
 20
94.48304792077342
 30
0.0
 10
502.8043312376145
 20
94.43478890808574
 30
0.0
 10
502.7557557806688
 20
94.39014602478035
 30
0.0
 10
502.7133985059896
 20
94.35110126447047
 30
0.0
 10
502.6807395074773
 20
94.32092952550857
 30
0.0
 10
502.6517448359429
 20
94.29408872024744
 30
0.0
 10
502.6278140721765
 20
94.27189795187707
 30
0.0
 10
502.6089583645031
 20
94.25438920017179
 30
0.0
 10
502.5931782259358
 20
94.23972095324598
 30
0.0
 10
502.5770749426132
 20
94.22473864084863
 30
0.0
 10
502.5572292875864
 20
94.20625400366667
 30
0.0
 10
502.5322214175389
 20
94.18292765018872
 30
0.0
 10
502.4933330661145
 20
94.14658987008873
 30
0.0
 10
502.443239583373
 20
94.09964416536032
 30
0.0
 10
502.3848661511889
 20
94.04472799204791
 30
0.0
 10
502.3297845566647
 20
93.99271969886894
 30
0.0
 10
502.2832270378395
 20
93.94860960403138
 30
0.0
 10
502.2438892097692
 20
93.91123866579298
 30
0.0
 10
502.2104766382878
 20
93.87942916669897
 30
0.0
 10
502.1767230570542
 20
93.84722594483539
 30
0.0
 10
502.1426674563121
 20
93.81466404410703
 30
0.0
 10
502.1094708738833
 20
93.78285402693581
 30
0.0
 10
502.0788098194953
 20
93.75341209703494
 30
0.0
 10
502.0516671956011
 20
93.72730065229976
 30
0.0
 10
502.0269444957446
 20
93.70347900106762
 30
0.0
 10
502.0015836503678
 20
93.67900523840657
 30
0.0
 10
501.9731794688239
 20
93.65154877388551
 30
0.0
 10
501.9402945641226
 20
93.6196988438898
 30
0.0
 10
501.8826447238018
 20
93.56373810399433
 30
0.0
 10
501.799247453929
 20
93.48242196080051
 30
0.0
 10
501.7133343564346
 20
93.39808282476311
 30
0.0
 10
501.6462618227025
 20
93.33191240284785
 30
0.0
 10
501.6022773306712
 20
93.28839303724993
 30
0.0
 10
501.5623275294145
 20
93.24875634918354
 30
0.0
 10
501.5312428971409
 20
93.21784269975086
 30
0.0
 10
501.5085425335054
 20
93.19522932178458
 30
0.0
 10
501.4930440828596
 20
93.17977306274882
 30
0.0
 10
501.4797668265149
 20
93.16652052939142
 30
0.0
 10
501.4653183821866
 20
93.15208780330126
 30
0.0
 10
501.4463062653865
 20
93.13307712699765
 30
0.0
 10
501.4210615428867
 20
93.1077986933954
 30
0.0
 10
501.3883963721166
 20
93.0750307434499
 30
0.0
 10
501.3504567422012
 20
93.03688343000118
 30
0.0
 10
501.3101536256309
 20
92.99625323481713
 30
0.0
 10
501.2715799949406
 20
92.9572677498842
 30
0.0
 10
501.2354977993087
 20
92.92071344568784
 30
0.0
 10
501.1971299308116
 20
92.88175715692745
 30
0.0
 10
501.1574767255882
 20
92.84139430387079
 30
0.0
 10
501.1171689937275
 20
92.80025344354605
 30
0.0
 10
501.0801132829321
 20
92.76234066364198
 30
0.0
 10
501.0442978507488
 20
92.725613529039
 30
0.0
 10
501.0081004675748
 20
92.68840957379807
 30
0.0
 10
500.9731791268825
 20
92.65243357373527
 30
0.0
 10
500.9400148613252
 20
92.61819291124709
 30
0.0
 10
500.9100316236956
 20
92.58717447470787
 30
0.0
 10
500.8828811165873
 20
92.55903444757307
 30
0.0
 10
500.8584236394006
 20
92.53364469261655
 30
0.0
 10
500.8339052021062
 20
92.50815410466598
 30
0.0
 10
500.8063916429021
 20
92.47950376259428
 30
0.0
 10
500.7740676535547
 20
92.44578003325992
 30
0.0
 10
500.7373172343565
 20
92.40735288937016
 30
0.0
 10
500.6616314127614
 20
92.32801673070284
 30
0.0
 10
500.5469399372292
 20
92.20706295516275
 30
0.0
 10
500.432270692569
 20
92.08495502375669
 30
0.0
 10
500.3551833029056
 20
92.0023512122272
 30
0.0
 10
500.3192550097851
 20
91.96375608378335
 30
0.0
 10
500.288973942405
 20
91.931158206763
 30
0.0
 10
500.2655353192589
 20
91.9058817957111
 30
0.0
 10
500.2482092216873
 20
91.88717315677184
 30
0.0
 10
500.2358146090991
 20
91.87377775835776
 30
0.0
 10
500.2239360679639
 20
91.86093112320367
 30
0.0
 10
500.2096878151632
 20
91.84550991731571
 30
0.0
 10
500.1907214391821
 20
91.82496047695932
 30
0.0
 10
500.1669163108164
 20
91.79913273001
 30
0.0
 10
500.139791825985
 20
91.76965403471412
 30
0.0
 10
500.1110246692907
 20
91.73833237583698
 30
0.0
 10
500.0821022721157
 20
91.70678297454785
 30
0.0
 10
500.0532610251713
 20
91.67526357251529
 30
0.0
 10
500.0069966463864
 20
91.62460932642172
 30
0.0
 10
499.9428672555882
 20
91.55414595137007
 30
0.0
 10
499.8593905335817
 20
91.46193958161527
 30
0.0
 10
499.7724415870188
 20
91.365371330281
 30
0.0
 10
499.7019289797054
 20
91.28660459782296
 30
0.0
 10
499.6498836898297
 20
91.22823165104458
 30
0.0
 10
499.61934451051
 20
91.19390751516416
 30
0.0
 10
499.5925043361354
 20
91.16368368216924
 30
0.0
 10
499.5703204794229
 20
91.13866339441404
 30
0.0
 10
499.552849599399
 20
91.1189332566447
 30
0.0
 10
499.5398536602784
 20
91.10424231753181
 30
0.0
 10
499.5290600654066
 20
91.09203245426271
 30
0.0
 10
499.5175539745022
 20
91.07900827848482
 30
0.0
 10
499.5005947688314
 20
91.05979543440826
 30
0.0
 10
499.4767134483299
 20
91.03270545518369
 30
0.0
 10
499.4450304263603
 20
90.99669907730261
 30
0.0
 10
499.4068178995751
 20
90.95317320760525
 30
0.0
 10
499.3638583372766
 20
90.90410780346254
 30
0.0
 10
499.318937909535
 20
90.85265093708286
 30
0.0
 10
499.274796943465
 20
90.80193799833847
 30
0.0
 10
499.2215899464861
 20
90.74063610816593
 30
0.0
 10
499.1607219401064
 20
90.67024215265404
 30
0.0
 10
499.0935897511416
 20
90.59224599171453
 30
0.0
 10
499.0294309614035
 20
90.51738939722908
 30
0.0
 10
498.9655300254418
 20
90.4425254347054
 30
0.0
 10
498.9131969004771
 20
90.3809496663571
 30
0.0
 10
498.8732249507016
 20
90.3337736003765
 30
0.0
 10
498.8464176150214
 20
90.30207861560292
 30
0.0
 10
498.8210663518476
 20
90.27205181896478
 30
0.0
 10
498.7995687506831
 20
90.24654802025256
 30
0.0
 10
498.7832420486281
 20
90.2271545042749
 30
0.0
 10
498.7720019379167
 20
90.21379123053313
 30
0.0
 10
498.7639441894315
 20
90.20420562975477
 30
0.0
 10
498.7569995810987
 20
90.19594069064041
 30
0.0
 10
498.7490939146634
 20
90.18652766628787
 30
0.0
 10
498.7391676118551
 20
90.17470173406869
 30
0.0
 10
498.7272234121176
 20
90.1604613880717
 30
0.0
 10
498.7086040555897
 20
90.13824353061261
 30
0.0
 10
498.6818514594593
 20
90.1062738873821
 30
0.0
 10
498.6455186226878
 20
90.06275982491304
 30
0.0
 10
498.6028083429811
 20
90.0114728033681
 30
0.0
 10
498.553747826161
 20
89.95237951662446
 30
0.0
 10
498.498616318443
 20
89.88574133382765
 30
0.0
 10
498.4399356649809
 20
89.81453626065483
 30
0.0
 10
498.3806869152086
 20
89.74235032171384
 30
0.0
 10
498.3175966460156
 20
89.66518187417618
 30
0.0
 10
498.2519132387862
 20
89.58449109003172
 30
0.0
 10
498.1843486137041
 20
89.50109687169939
 30
0.0
 10
498.1215998173191
 20
89.42330517865557
 30
0.0
 10
498.0636371206778
 20
89.35115259875498
 30
0.0
 10
498.0137710064567
 20
89.28884393225903
 30
0.0
 10
497.9717406044832
 20
89.23616175746399
 30
0.0
 10
497.9377366689206
 20
89.19343336590302
 30
0.0
 10
497.9086149388253
 20
89.15675983790076
 30
0.0
 10
497.8836292289126
 20
89.12523772664697
 30
0.0
 10
497.8562840991674
 20
89.09068484311727
 30
0.0
 10
497.8233213145899
 20
89.04895052550815
 30
0.0
 10
497.7822577306399
 20
88.99682263953041
 30
0.0
 10
497.7358719941823
 20
88.93776265495576
 30
0.0
 10
497.6837002995271
 20
88.87111056243529
 30
0.0
 10
497.6257183950809
 20
88.79675422791662
 30
0.0
 10
497.5654031351463
 20
88.71908016680544
 30
0.0
 10
497.5032891168686
 20
88.63874907163775
 30
0.0
 10
497.4399059865659
 20
88.55642788733451
 30
0.0
 10
497.3725922634111
 20
88.46860350961475
 30
0.0
 10
497.303098126
 20
88.37749620888845
 30
0.0
 10
497.2334456238553
 20
88.28573114772793
 30
0.0
 10
497.1654190202107
 20
88.19567450583845
 30
0.0
 10
497.0818437218469
 20
88.08451187140689
 30
0.0
 10
496.9842496279949
 20
87.95386611899575
 30
0.0
 10
496.8741884311296
 20
87.80534712757535
 30
0.0
 10
496.7711464725879
 20
87.66523914541419
 30
0.0
 10
496.6749409289873
 20
87.53349334651112
 30
0.0
 10
496.58539547262
 20
87.41005229378304
 30
0.0
 10
496.5013777952298
 20
87.29350545833323
 30
0.0
 10
496.4212624773709
 20
87.18171609213474
 30
0.0
 10
496.3430961544317
 20
87.07202401863076
 30
0.0
 10
496.2651075883389
 20
86.9619571473264
 30
0.0
 10
496.1407429214201
 20
86.78543095794427
 30
0.0
 10
495.9699146772911
 20
86.54030381581279
 30
0.0
 10
495.7789899126757
 20
86.26187986333414
 30
0.0
 10
495.6130818954076
 20
86.01664402918021
 30
0.0
 10
495.4724581023218
 20
85.80653122950496
 30
0.0
 10
495.3323728320399
 20
85.5949419388416
 30
0.0
 10
495.1928554608606
 20
85.38189863558921
 30
0.0
 10
495.0539233816775
 20
85.16740564953942
 30
0.0
 10
494.9152154609811
 20
84.95087624581676
 30
0.0
 10
494.7850475008732
 20
84.74539107409177
 30
0.0
 10
494.6616274446652
 20
84.54853851236547
 30
0.0
 10
494.5435704812527
 20
84.35842860733011
 30
0.0
 10
494.4211433943649
 20
84.15928953329507
 30
0.0
 10
494.2944637258729
 20
83.9510498957039
 30
0.0
 10
494.1636560226671
 20
83.73363800228847
 30
0.0
 10
494.0288517712868
 20
83.50698174563875
 30
0.0
 10
493.8873455680953
 20
83.26616883443225
 30
0.0
 10
493.7391783267837
 20
83.01072591394862
 30
0.0
 10
493.5844208785855
 20
82.7401729047569
 30
0.0
 10
493.4550809866024
 20
82.51073998387226
 30
0.0
 10
493.3528208717989
 20
82.32732993462588
 30
0.0
 10
493.2797333685715
 20
82.19530613131221
 30
0.0
 10
493.209608259269
 20
82.06775496563843
 30
0.0
 10
493.1427115287773
 20
81.94526323773421
 30
0.0
 10
493.0735775038631
 20
81.81786217341467
 30
0.0
 10
493.002853811432
 20
81.68662348961762
 30
0.0
 10
492.9311757439943
 20
81.55262497670049
 30
0.0
 10
492.8644505172892
 20
81.42701213684597
 30
0.0
 10
492.8026045820523
 20
81.3098203218269
 30
0.0
 10
492.7455691383372
 20
81.20108180198358
 30
0.0
 10
492.6932802350258
 20
81.10082597550247
 30
0.0
 10
492.6456788253401
 20
81.00907949520042
 30
0.0
 10
492.6027108978927
 20
80.92586652620875
 30
0.0
 10
492.5643273053534
 20
80.85120846027269
 30
0.0
 10
492.5304844466793
 20
80.78512514290168
 30
0.0
 10
492.5011420907259
 20
80.72763099530877
 30
0.0
 10
492.4762694123851
 20
80.67874572769415
 30
0.0
 10
492.4558256328665
 20
80.63845971735512
 30
0.0
 10
492.4396563917429
 20
80.60651942716652
 30
0.0
 10
492.4248388091875
 20
80.57719738806918
 30
0.0
 10
492.40840972514
 20
80.54465505626409
 30
0.0
 10
492.3877222796478
 20
80.50360142813729
 30
0.0
 10
492.3627579498195
 20
80.45394627454854
 30
0.0
 10
492.3335508342442
 20
80.3956864616436
 30
0.0
 10
492.3001327882567
 20
80.32880390291086
 30
0.0
 10
492.2633509427781
 20
80.25490539692512
 30
0.0
 10
492.2233922377023
 20
80.17428524377138
 30
0.0
 10
492.1804446614325
 20
80.08723907535162
 30
0.0
 10
492.1339055763846
 20
79.99244002945625
 30
0.0
 10
492.0838275328618
 20
79.88987325917988
 30
0.0
 10
492.0302677636795
 20
79.77952349794079
 30
0.0
 10
491.9744780364591
 20
79.66384225171288
 30
0.0
 10
491.9166366572595
 20
79.54310585121574
 30
0.0
 10
491.8569201486931
 20
79.41759233263
 30
0.0
 10
491.7946189415139
 20
79.28568231014701
 30
0.0
 10
491.7314594148759
 20
79.15091803030604
 30
0.0
 10
491.6639070691358
 20
79.00564615016323
 30
0.0
 10
491.5941274894078
 20
78.85428287127161
 30
0.0
 10
491.5228701534027
 20
78.6982660075373
 30
0.0
 10
491.4558652457866
 20
78.55024675919853
 30
0.0
 10
491.3930255081189
 20
78.41024552344014
 30
0.0
 10
491.3342682091545
 20
78.27828074753317
 30
0.0
 10
491.2795154577321
 20
78.15436965624697
 30
0.0
 10
491.2303514604852
 20
78.0423057434195
 30
0.0
 10
491.1864186216653
 20
77.94152514172708
 30
0.0
 10
491.1463633477673
 20
77.84912117923035
 30
0.0
 10
491.1066594585434
 20
77.75702510812704
 30
0.0
 10
491.0657183905087
 20
77.66152030629928
 30
0.0
 10
491.0181994469654
 20
77.55000613886916
 30
0.0
 10
490.9637581280919
 20
77.42130610397899
 30
0.0
 10
490.9020915239457
 20
77.27423260367858
 30
0.0
 10
490.8492980001529
 20
77.1471303633933
 30
0.0
 10
490.806012304222
 20
77.0421509982514
 30
0.0
 10
490.7728975711193
 20
76.96143464791894
 30
0.0
 10
490.7398017105183
 20
76.88034626495823
 30
0.0
 10
490.7082400123746
 20
76.80261643429148
 30
0.0
 10
490.6797007721781
 20
76.73199209585013
 30
0.0
 10
490.654997122377
 20
76.67060045074744
 30
0.0
 10
490.6347410904896
 20
76.62007771502816
 30
0.0
 10
490.6186030073887
 20
76.57970887147388
 30
0.0
 10
490.6062647730206
 20
76.54877640257169
 30
0.0
 10
490.5967745948284
 20
76.52494193658386
 30
0.0
 10
490.5909893098789
 20
76.51039315734728
 30
0.0
 10
490.5878555951738
 20
76.50250745801823
 30
0.0
 10
490.5860420698278
 20
76.49794286714018
 30
0.0
 10
490.5833462303663
 20
76.49115517902766
 30
0.0
 10
490.5788305666476
 20
76.47977937114653
 30
0.0
 10
490.5721880360287
 20
76.46303071466448
 30
0.0
 10
490.5631205820688
 20
76.44013766420196
 30
0.0
 10
490.5510133095288
 20
76.40951901394976
 30
0.0
 10
490.5355780484016
 20
76.37039599957606
 30
0.0
 10
490.5165348362226
 20
76.3219881511157
 30
0.0
 10
490.4945695735613
 20
76.26595656985357
 30
0.0
 10
490.4697036547907
 20
76.20229581520164
 30
0.0
 10
490.4522288763814
 20
76.15730105899362
 30
0.0
 10
490.4429981574352
 20
76.13353343580134
 30
0.0
  0
LINE
  5
D2
330
1F
100
AcDbEntity
  8
0
  6
Continuous
 62
     7
370
    30
100
AcDbLine
 10
490.4430215574
 20
76.1335937575
 30
0.0
 11
487.9263604203
 21
69.6471612702
 31
0.0
  0
LINE
  5
D3
330
1F
100
AcDbEntity
  8
0
  6
Continuous
 62
     7
370
    30
100
AcDbLine
 10
510.3012711702
 20
60.9659534662
 30
0.0
 11
512.8179323072
 21
67.4523859535
 31
0.0
  0
SPLINE
  5
D4
330
1F
100
AcDbEntity
  8
0
  6
Continuous
 62
     7
370
    30
100
AcDbSpline
210
0.0
220
0.0
230
1.0
 70
     8
 71
     3
 72
    14
 73
    10
 74
     0
 42
0.000000001
 43
0.00000001
 40
0.0
 40
0.0
 40
0.0
 40
0.0
 40
0.1611145626091861
 40
0.3220699258819351
 40
0.4816004664454661
 40
0.6401411319733928
 40
0.7981513801725153
 40
0.9561090120820064
 40
1.0
 40
1.0
 40
1.0
 40
1.0
 10
510.1472706247907
 20
60.71336933975312
 30
0.0
 10
510.1576160231058
 20
60.72556625778262
 30
0.0
 10
510.1782965973174
 20
60.74994804191273
 30
0.0
 10
510.2066604910664
 20
60.78840888692252
 30
0.0
 10
510.232857584965
 20
60.82804569680822
 30
0.0
 10
510.2566740726198
 20
60.86884463409861
 30
0.0
 10
510.2779006692668
 20
60.91085500833137
 30
0.0
 10
510.2927098991028
 20
60.94338552085916
 30
0.0
 10
510.2996055382918
 20
60.96218549512979
 30
0.0
 10
510.30110496106
 20
60.96627345691162
 30
0.0
  0
SPLINE
  5
D5
330
1F
100
AcDbEntity
  8
0
  6
Continuous
 62
     7
370
    30
100
AcDbSpline
210
0.0
220
0.0
230
1.0
 70
     8
 71
     3
 72
    14
 73
    10
 74
     0
 42
0.000000001
 43
0.00000001
 40
0.0
 40
0.0
 40
0.0
 40
0.0
 40
0.1153928969875216
 40
0.2746897961624636
 40
0.4352747138091579
 40
0.5976627720811628
 40
0.7623732074324756
 40
0.9299243544000234
 40
1.0
 40
1.0
 40
1.0
 40
1.0
 10
487.9266193015837
 20
69.64708971325298
 30
0.0
 10
487.9225073589831
 20
69.63640393670597
 30
0.0
 10
487.912718986351
 20
69.61096672299382
 30
0.0
 10
487.9002044610902
 20
69.56960076900323
 30
0.0
 10
487.8886666032299
 20
69.52316944932474
 30
0.0
 10
487.8797518405921
 20
69.47560695225077
 30
0.0
 10
487.8735993103988
 20
69.42693428973828
 30
0.0
 10
487.8703302097471
 20
69.38712744220163
 30
0.0
 10
487.8700966997058
 20
69.36352583399905
 30
0.0
 10
487.8700278380815
 20
69.35656576895704
 30
0.0
  0
LINE
  5
D6
330
1F
100
AcDbEntity
  8
0
  6
Continuous
 62
     7
370
    30
100
AcDbLine
 10
609.5768118203
 20
157.1511978179
 30
0.0
 11
509.4093443396
 21
99.3257496906
 31
0.0
  0
LINE
  5
D7
330
1F
100
AcDbEntity
  8
0
  6
Continuous
 62
     7
370
    30
100
AcDbLine
 10
521.4083691313
 20
78.5405769934
 30
0.0
 11
621.5758366119
 21
136.3660251207
 31
0.0
  0
SPLINE
  5
D8
330
1F
100
AcDbEntity
  8
0
  6
Continuous
 62
     7
370
    30
100
AcDbSpline
210
0.0
220
0.0
230
1.0
 70
     8
 71
     3
 72
   392
 73
   388
 74
     0
 42
0.000000001
 43
0.00000001
 40
0.0
 40
0.0
 40
0.0
 40
0.0
 40
0.0033667650491539
 40
0.0064458903604713
 40
0.0092373665573308
 40
0.0117411923691192
 40
0.0139573724992135
 40
0.0158859158035466
 40
0.0175268338451158
 40
0.0187267052548684
 40
0.01970638377892
 40
0.020465881781377
 40
0.02103613342218
 40
0.0222122370665668
 40
0.0236368008705073
 40
0.0252864477637291
 40
0.0270217121430492
 40
0.028819491311082
 40
0.0306797986027107
 40
0.033733787451369
 40
0.0369536476624297
 40
0.0403394665030247
 40
0.0418112203438893
 40
0.0430027352660796
 40
0.043913534609661
 40
0.044543633103023
 40
0.0450129956967834
 40
0.045599410562037
 40
0.0463140754106812
 40
0.0475061364768992
 40
0.0489406397211709
 40
0.0506175612641401
 40
0.0525137605932718
 40
0.0552458877091954
 40
0.0581982417967525
 40
0.0613707652208364
 40
0.0626773426208245
 40
0.0640178862392152
 40
0.0653862373184976
 40
0.0666103170657386
 40
0.0676119596030708
 40
0.0683911834264199
 40
0.0690086398065057
 40
0.069678864234579
 40
0.0704976224825735
 40
0.0714649039541174
 40
0.0725806959241865
 40
0.0738449833601935
 40
0.0751781842928158
 40
0.0787910663530381
 40
0.082325635979352
 40
0.0843923787753115
 40
0.0864313832220677
 40
0.0884426529407004
 40
0.0903859312668351
 40
0.0920911226026909
 40
0.0935392110717416
 40
0.0942973682181534
 40
0.0949595935217825
 40
0.0955258935900328
 40
0.0959962741166579
 40
0.0963713597931641
 40
0.0968015086888454
 40
0.0974025537490289
 40
0.0982610754980356
 40
0.0993263499586116
 40
0.1005983537479917
 40
0.1019885116752508
 40
0.1033339864605421
 40
0.1056167113649514
 40
0.1077457428639571
 40
0.1097211152932821
 40
0.1116514254448912
 40
0.113731660911965
 40
0.1151099181925822
 40
0.1165482478196401
 40
0.1180466398106686
 40
0.1195951502854431
 40
0.120975193711945
 40
0.1220973713910039
 40
0.1229617158699357
 40
0.1235682524275853
 40
0.1240523880190776
 40
0.1246900557889154
 40
0.1254959036310147
 40
0.126469916722462
 40
0.1276120770591779
 40
0.1289223633830856
 40
0.130908409460719
 40
0.133054996470457
 40
0.1352027789844512
 40
0.1373514124800723
 40
0.1395008959475203
 40
0.141651228415719
 40
0.1438024089520281
 40
0.1457750692887481
 40
0.1477484408254857
 40
0.1497225229277557
 40
0.1516973149874248
 40
0.1535918749015412
 40
0.1553108832777134
 40
0.1566444964125988
 40
0.1578490632681681
 40
0.1589246020172193
 40
0.1598711289538072
 40
0.1606886584529904
 40
0.1613960463454504
 40
0.1622291259507926
 40
0.1633724902330354
 40
0.1647536107017339
 40
0.1663724513112933
 40
0.168202792332346
 40
0.1700559524008918
 40
0.1726632677077536
 40
0.1752412358946008
 40
0.1777898658973925
 40
0.1803091666892541
 40
0.1827991472697195
 40
0.1852591015944042
 40
0.1875931602992733
 40
0.1897339639836671
 40
0.1921511404646348
 40
0.1942630454651481
 40
0.1960697487665241
 40
0.1976723857861567
 40
0.1991863427649483
 40
0.2004251066820171
 40
0.2019316999397359
 40
0.2037060830565131
 40
0.2057482095768736
 40
0.2080580259512858
 40
0.2105616451801895
 40
0.2130596251132464
 40
0.2154934784542421
 40
0.2178632210587018
 40
0.2219354748774945
 40
0.2258034314707033
 40
0.2294671721521603
 40
0.2329317281534106
 40
0.2373512686979948
 40
0.2415751332862262
 40
0.2456023855437893
 40
0.2473343946402738
 40
0.2488608774573308
 40
0.250219518037991
 40
0.2516898300021123
 40
0.2530808380454382
 40
0.2554476763837686
 40
0.2581344218990119
 40
0.2611434242162941
 40
0.2643829146415298
 40
0.2677017114599711
 40
0.27109757246415
 40
0.276589562034363
 40
0.2822717821717008
 40
0.2881441930863538
 40
0.2961240472613392
 40
0.3039588518683598
 40
0.3116441167718698
 40
0.3191799554366573
 40
0.3267156634418341
 40
0.3340960149473231
 40
0.3413211217804689
 40
0.3483910923742746
 40
0.3553060315636185
 40
0.3620660403982736
 40
0.3686888424114818
 40
0.3746950819983612
 40
0.3808771962988424
 40
0.3872351924678668
 40
0.3937690798618553
 40
0.4004788700482949
 40
0.4072400796383523
 40
0.4141709946708546
 40
0.4212716323813514
 40
0.4285420120761631
 40
0.4361189956859063
 40
0.4438719963021236
 40
0.4518010408794923
 40
0.459906158577809
 40
0.4681873807520311
 40
0.4764921804806182
 40
0.4849669180965551
 40
0.493611629437007
 40
0.5024263523277473
 40
0.5100389352264383
 40
0.5177739714689538
 40
0.5256314875820289
 40
0.533611511086265
 40
0.5417140704854765
 40
0.5499391952553575
 40
0.5564878680740253
 40
0.5630978877615824
 40
0.5696079576154717
 40
0.5759729398733846
 40
0.5821928300763526
 40
0.5882676234837148
 40
0.5957892531343738
 40
0.6030758369287365
 40
0.6101273627515202
 40
0.6169438177779537
 40
0.6235251884795691
 40
0.6298714606305252
 40
0.635639753961069
 40
0.6411990221242744
 40
0.6465492516036013
 40
0.6516904283533802
 40
0.6566225378066812
 40
0.6622095685529569
 40
0.667501549294057
 40
0.6724984525311242
 40
0.6772002498476309
 40
0.681606911952771
 40
0.6857184087369825
 40
0.6880030336058379
 40
0.6901851417444961
 40
0.6923080107068269
 40
0.6945965568140251
 40
0.6970830383030159
 40
0.6997674899447359
 40
0.7026499498746931
 40
0.7057304595586629
 40
0.7094158063617099
 40
0.7133497097597424
 40
0.7175322422718865
 40
0.7219634812481879
 40
0.7248761806290626
 40
0.7277903151736407
 40
0.7305514405838786
 40
0.7331575363936326
 40
0.7356085748646991
 40
0.7372643707204409
 40
0.7388410329434723
 40
0.7403385528567926
 40
0.7417569221675108
 40
0.743096132965072
 40
0.7443561777200505
 40
0.7454614563269312
 40
0.7461400618148881
 40
0.746650734396656
 40
0.7470155431988841
 40
0.7474700142693396
 40
0.7480777394125191
 40
0.7488387269883836
 40
0.7497529875087994
 40
0.7509991414648237
 40
0.7524496283430415
 40
0.7541044748601137
 40
0.7559637114261086
 40
0.7580273720885765
 40
0.7602954944688259
 40
0.7626768259660363
 40
0.7690755423809975
 40
0.7752478691432847
 40
0.7779302810795969
 40
0.7805675402935736
 40
0.7831596372391935
 40
0.7857065624961116
 40
0.7882083067694085
 40
0.7906648608893684
 40
0.7930464378132662
 40
0.7952082395574958
 40
0.7969421506482458
 40
0.7984841025944976
 40
0.7998340666524936
 40
0.8009920176062278
 40
0.8020639969083279
 40
0.8035403278928256
 40
0.8051504945323003
 40
0.8070189496668156
 40
0.8093138241641168
 40
0.811911832989177
 40
0.8148130606523417
 40
0.8179036261489945
 40
0.8210450108756023
 40
0.8267675426970048
 40
0.8326505594527802
 40
0.8344054067937517
 40
0.8359210558160977
 40
0.8371974665106767
 40
0.8382346054052474
 40
0.8390434849290237
 40
0.8401546486950594
 40
0.8415197550274337
 40
0.8431388446037091
 40
0.8450119654530465
 40
0.8471391727070892
 40
0.8494855665287422
 40
0.8518599140292832
 40
0.8601618132656796
 40
0.8684510752877493
 40
0.8700417887650423
 40
0.8714743186678323
 40
0.8727387397786139
 40
0.8738350284174777
 40
0.8747631642230932
 40
0.8755231300662731
 40
0.8761149119832029
 40
0.8766013268386066
 40
0.8771738251925666
 40
0.8779387396570736
 40
0.8788960869468111
 40
0.8800458878309543
 40
0.8813680839294977
 40
0.8839155106397713
 40
0.8862899672695228
 40
0.8882638159271216
 40
0.8901001400854969
 40
0.8919514115189473
 40
0.8939404725254892
 40
0.8953430786285069
 40
0.8968069464485723
 40
0.898332085108514
 40
0.8998852713921296
 40
0.9012242254741617
 40
0.9023004308450446
 40
0.902961674864279
 40
0.9034606819249045
 40
0.9038202159997696
 40
0.9042284289597027
 40
0.9047271937269643
 40
0.9053165150517859
 40
0.9064632797868459
 40
0.9078476954020875
 40
0.9094697951340119
 40
0.9113201434557254
 40
0.9132498154741359
 40
0.9152075176661446
 40
0.9199329904412128
 40
0.9248142634343958
 40
0.9260589426024197
 40
0.9272548777474635
 40
0.9283218709486497
 40
0.9292594283589438
 40
0.930067539192179
 40
0.9307461942991496
 40
0.9313025478436787
 40
0.9319757856053954
 40
0.9327792044439229
 40
0.9337708227650016
 40
0.9349506559474161
 40
0.9362119132060142
 40
0.9374418752547646
 40
0.9386405179753224
 40
0.9398078377579276
 40
0.9421752372480007
 40
0.944402267649266
 40
0.9464889018193259
 40
0.9484351154952696
 40
0.9501873574315293
 40
0.9516919670089588
 40
0.9524626423366319
 40
0.9531473116977066
 40
0.9537459712298582
 40
0.9542586176227836
 40
0.9546852480912265
 40
0.9550706829354859
 40
0.9556167917825213
 40
0.9563480785071231
 40
0.9572645510483032
 40
0.9583662190527844
 40
0.9596470295189135
 40
0.9609612085776531
 40
0.9622466586122349
 40
0.9635033777792513
 40
0.9647313643591074
 40
0.9659306167594564
 40
0.9695136910529671
 40
0.9728747601003287
 40
0.9745140191496409
 40
0.9760992926195458
 40
0.9775579656933875
 40
0.9788675571754442
 40
0.9800672060167723
 40
0.9814447937296835
 40
0.983086861616086
 40
0.9849934158567449
 40
0.9871644624684728
 40
0.989059377992871
 40
0.9908565729750111
 40
0.9925093159689715
 40
0.9940176039892755
 40
0.9953814347451003
 40
0.9965802989393261
 40
0.9976524541118287
 40
0.9987700025401174
 40
1.0
 40
1.0
 40
1.0
 40
1.0
 10
621.5758366090203
 20
136.366025119067
 30
0.0
 10
621.5979327282998
 20
136.3789358719964
 30
0.0
 10
621.6402371838199
 20
136.4036543470426
 30
0.0
 10
621.700035177609
 20
136.4404148653499
 30
0.0
 10
621.7537405586606
 20
136.4745246131747
 30
0.0
 10
621.8014476102438
 20
136.5058148984053
 30
0.0
 10
621.8433050251828
 20
136.5340333259149
 30
0.0
 10
621.8794324293262
 20
136.5589814278745
 30
0.0
 10
621.9089865952766
 20
136.5798116957914
 30
0.0
 10
621.9324995797928
 20
136.5966534525603
 30
0.0
 10
621.9504680325717
 20
136.6096825610152
 30
0.0
 10
621.9645001205421
 20
136.6199568274083
 30
0.0
 10
621.9795443131877
 20
136.6310530363909
 30
0.0
 10
621.9985713361593
 20
136.6452232678109
 30
0.0
 10
622.0240147629647
 20
136.664446431875
 30
0.0
 10
622.0526794832543
 20
136.6864720300422
 30
0.0
 10
622.083559592463
 20
136.7106423227995
 30
0.0
 10
622.115636352095
 20
136.7362373451544
 30
0.0
 10
622.1554908597299
 20
136.7686776283479
 30
0.0
 10
622.203456632642
 20
136.8087799621594
 30
0.0
 10
622.2594706875906
 20
136.8572247816523
 30
0.0
 10
622.3055911806644
 20
136.8985390549323
 30
0.0
 10
622.3397432560936
 20
136.9299253927714
 30
0.0
 10
622.3598150797451
 20
136.9486312734474
 30
0.0
 10
622.3750914995053
 20
136.9630256218893
 30
0.0
 10
622.386293635763
 20
136.9736662302994
 30
0.0
 10
622.3956631925797
 20
136.9826172949884
 30
0.0
 10
622.4054788498569
 20
136.9920462317431
 30
0.0
 10
622.4192617513384
 20
137.0053760016457
 30
0.0
 10
622.437656629288
 20
137.0233431225065
 30
0.0
 10
622.4612146214679
 20
137.0466685484094
 30
0.0
 10
622.4884421862828
 20
137.0740642650271
 30
0.0
 10
622.5224570570949
 20
137.1089252549116
 30
0.0
 10
622.5629233526621
 20
137.1513960128539
 30
0.0
 10
622.6095895127266
 20
137.2018194827843
 30
0.0
 10
622.6481886727137
 20
137.2448497539438
 30
0.0
 10
622.6780963269671
 20
137.2789590165384
 30
0.0
 10
622.6986016555609
 20
137.3026616183935
 30
0.0
 10
622.7185546430088
 20
137.3260450011695
 30
0.0
 10
622.7366733024758
 20
137.3475596652013
 30
0.0
 10
622.7517384366162
 20
137.3656513886886
 30
0.0
 10
622.7637082591211
 20
137.3801562045744
 30
0.0
 10
622.7739848636551
 20
137.3926975792916
 30
0.0
 10
622.7844199728422
 20
137.4055156306609
 30
0.0
 10
622.7965408366657
 20
137.4205169309337
 30
0.0
 10
622.8107943725945
 20
137.4383177417634
 30
0.0
 10
622.8271485267454
 20
137.4589581499214
 30
0.0
 10
622.8451798406331
 20
137.4819907088161
 30
0.0
 10
622.8751342398696
 20
137.5207590695916
 30
0.0
 10
622.9155091576692
 20
137.5743375266696
 30
0.0
 10
622.9585387330096
 20
137.6335417601682
 30
0.0
 10
622.9936702505133
 20
137.6832707803586
 30
0.0
 10
623.021474581145
 20
137.7234570136503
 30
0.0
 10
623.0484045552427
 20
137.7631895264505
 30
0.0
 10
623.0735447511923
 20
137.8010363466346
 30
0.0
 10
623.095945807497
 20
137.8353937743272
 30
0.0
 10
623.1129789172309
 20
137.8619432358977
 30
0.0
 10
623.12538808081
 20
137.8815054384401
 30
0.0
 10
623.133945662101
 20
137.8950946391589
 30
0.0
 10
623.1412360436153
 20
137.9067448986967
 30
0.0
 10
623.147274476345
 20
137.9164461023332
 30
0.0
 10
623.1527154752974
 20
137.9252256095747
 30
0.0
 10
623.1586962429096
 20
137.9349161760988
 30
0.0
 10
623.1667064514335
 20
137.9479641483574
 30
0.0
 10
623.177360139209
 20
137.9654492381703
 30
0.0
 10
623.1907648136148
 20
137.9876689685628
 30
0.0
 10
623.2062863958425
 20
138.0137107676689
 30
0.0
 10
623.222836177031
 20
138.0418637790109
 30
0.0
 10
623.2433795765381
 20
138.0773112383011
 30
0.0
 10
623.2666731174796
 20
138.1182725238148
 30
0.0
 10
623.2921423570849
 20
138.164107901595
 30
0.0
 10
623.315876587755
 20
138.2077549556388
 30
0.0
 10
623.3391051575086
 20
138.2513651207233
 30
0.0
 10
623.3597275417566
 20
138.2909181734091
 30
0.0
 10
623.3782411649303
 20
138.3270903079077
 30
0.0
 10
623.3943929040038
 20
138.3591295900744
 30
0.0
 10
623.4110063565836
 20
138.3926119697126
 30
0.0
 10
623.4272238620173
 20
138.4258417427721
 30
0.0
 10
623.4419056234256
 20
138.4564095937003
 30
0.0
 10
623.4539954402798
 20
138.481928874671
 30
0.0
 10
623.4632380730728
 20
138.5016529637612
 30
0.0
 10
623.4701675891434
 20
138.5165614895569
 30
0.0
 10
623.4762648129961
 20
138.5297588594794
 30
0.0
 10
623.4830327161187
 20
138.5444993457208
 30
0.0
 10
623.4914723483724
 20
138.5630289535611
 30
0.0
 10
623.501602285641
 20
138.5854915496821
 30
0.0
 10
623.5133832965631
 20
138.611926627156
 30
0.0
 10
623.5284977987712
 20
138.6463126996379
 30
0.0
 10
623.5467925647177
 20
138.688717762374
 30
0.0
 10
623.5675539059349
 20
138.7379884524216
 30
0.0
 10
623.5884791586615
 20
138.788892402089
 30
0.0
 10
623.6090395263512
 20
138.8401757342495
 30
0.0
 10
623.6292326091252
 20
138.8918334797806
 30
0.0
 10
623.6490572608379
 20
138.9438636494853
 30
0.0
 10
623.6679715953451
 20
138.9948077691747
 30
0.0
 10
623.6860099874024
 20
139.044629629132
 30
0.0
 10
623.7032057421269
 20
139.0932947545925
 30
0.0
 10
623.7200882868443
 20
139.1422661565638
 30
0.0
 10
623.7364302953475
 20
139.19086860888
 30
0.0
 10
623.7517629270981
 20
139.2376139079155
 30
0.0
 10
623.7650914023004
 20
139.2792134931489
 30
0.0
 10
623.7763821600226
 20
139.3151668983275
 30
0.0
 10
623.7858397593516
 20
139.3457944888328
 30
0.0
 10
623.794182351506
 20
139.3732268539553
 30
0.0
 10
623.8014441781817
 20
139.3974335691695
 30
0.0
 10
623.8077032580882
 20
139.418549452433
 30
0.0
 10
623.8136234345515
 20
139.4387314508448
 30
0.0
 10
623.8203020757633
 20
139.4617416773997
 30
0.0
 10
623.8285645955245
 20
139.4906013923168
 30
0.0
 10
623.8386158110155
 20
139.5263339559469
 30
0.0
 10
623.8501336097204
 20
139.5681585326752
 30
0.0
 10
623.8625251155913
 20
139.6142831601452
 30
0.0
 10
623.8769063733121
 20
139.6692711457069
 30
0.0
 10
623.8925623795968
 20
139.7311502839653
 30
0.0
 10
623.9092095496981
 20
139.7995933230096
 30
0.0
 10
623.925123237743
 20
139.867692126423
 30
0.0
 10
623.9403214188756
 20
139.9354270667374
 30
0.0
 10
623.9548206906276
 20
140.002773228008
 30
0.0
 10
623.9684577388114
 20
140.0688339802454
 30
0.0
 10
623.9809784527407
 20
140.1320853900674
 30
0.0
 10
623.9929927124208
 20
140.1952771269308
 30
0.0
 10
624.0041956739318
 20
140.2567520676963
 30
0.0
 10
624.0144363215654
 20
140.3154435837001
 30
0.0
 10
624.0230569433191
 20
140.3668056310417
 30
0.0
 10
624.0305078182398
 20
140.4127671501973
 30
0.0
 10
624.0369087175009
 20
140.4535597704166
 30
0.0
 10
624.0430024838515
 20
140.4935573036811
 30
0.0
 10
624.0492944243042
 20
140.5361178369121
 30
0.0
 10
624.0564601481456
 20
140.5864137458189
 30
0.0
 10
624.0643801555229
 20
140.6445292533832
 30
0.0
 10
624.072825831644
 20
140.7098563214403
 30
0.0
 10
624.0813411083451
 20
140.7798728883109
 30
0.0
 10
624.0894802586646
 20
140.8514356859089
 30
0.0
 10
624.0969683978004
 20
140.9220521301264
 30
0.0
 10
624.1054733542232
 20
141.0082933052983
 30
0.0
 10
624.1144210132292
 20
141.1090831889959
 30
0.0
 10
624.1231983226285
 20
141.2233521802643
 30
0.0
 10
624.1303528956184
 20
141.3323642763192
 30
0.0
 10
624.1367098709745
 20
141.4475439077544
 30
0.0
 10
624.1420351721633
 20
141.5691234016609
 30
0.0
 10
624.1460704583433
 20
141.6972599644405
 30
0.0
 10
624.1480936348113
 20
141.7988790574786
 30
0.0
 10
624.1489814715393
 20
141.8733691084721
 30
0.0
 10
624.1493330921754
 20
141.9206913687702
 30
0.0
 10
624.1494885720889
 20
141.9654241670939
 30
0.0
 10
624.14947188863
 20
142.0088548116952
 30
0.0
 10
624.1492416036152
 20
142.0627737642014
 30
0.0
 10
624.1486185544826
 20
142.1294118646077
 30
0.0
 10
624.147268841097
 20
142.2130731606139
 30
0.0
 10
624.1450611284386
 20
142.3061575677447
 30
0.0
 10
624.1418615695025
 20
142.4062496949729
 30
0.0
 10
624.1376212612989
 20
142.5108314275797
 30
0.0
 10
624.1312783189679
 20
142.6396259092083
 30
0.0
 10
624.1219031695833
 20
142.7942038516946
 30
0.0
 10
624.1082859178756
 20
142.9762531159449
 30
0.0
 10
624.089550005093
 20
143.1862282858252
 30
0.0
 10
624.0645905213569
 20
143.4210811544696
 30
0.0
 10
624.0324172771875
 20
143.6775797025248
 30
0.0
 10
623.9959371289001
 20
143.9310153862813
 30
0.0
 10
623.9551958148031
 20
144.1827467466949
 30
0.0
 10
623.9104001492029
 20
144.432513338527
 30
0.0
 10
623.8617615657331
 20
144.6800608475337
 30
0.0
 10
623.8098955151437
 20
144.9234592420092
 30
0.0
 10
623.755100034682
 20
145.1625238414308
 30
0.0
 10
623.6976654532114
 20
145.3970864071821
 30
0.0
 10
623.6378219883768
 20
145.6271951088014
 30
0.0
 10
623.5772757443145
 20
145.8474656825003
 30
0.0
 10
623.515460829631
 20
146.0615173513189
 30
0.0
 10
623.4516125944156
 20
146.2728166096285
 30
0.0
 10
623.3829004213587
 20
146.4903236527311
 30
0.0
 10
623.3090957245261
 20
146.7139690799629
 30
0.0
 10
623.2304582665676
 20
146.942248182198
 30
0.0
 10
623.1468570733138
 20
147.174991450494
 30
0.0
 10
623.0581673679728
 20
147.41201965783
 30
0.0
 10
622.9636880169423
 20
147.6545558308918
 30
0.0
 10
622.8625739429087
 20
147.9040117867391
 30
0.0
 10
622.754499192218
 20
148.1602843364202
 30
0.0
 10
622.6391352220627
 20
148.4232407646201
 30
0.0
 10
622.5168911689843
 20
148.6911875915459
 30
0.0
 10
622.3875574680341
 20
148.9638895475398
 30
0.0
 10
622.2517703115524
 20
149.2393857808475
 30
0.0
 10
622.1094671385247
 20
149.5173584598517
 30
0.0
 10
621.960597018042
 20
149.7974796913005
 30
0.0
 10
621.8041634536202
 20
150.0810548695891
 30
0.0
 10
621.648528385243
 20
150.3528669422572
 30
0.0
 10
621.4946587763031
 20
150.6125068071657
 30
0.0
 10
621.3434846511991
 20
150.8596490837186
 30
0.0
 10
621.1864996780998
 20
151.1082713764212
 30
0.0
 10
621.0236397912412
 20
151.3581052384447
 30
0.0
 10
620.854850403415
 20
151.6088665364005
 30
0.0
 10
620.692826602822
 20
151.8419299676979
 30
0.0
 10
620.538784297431
 20
152.057171683796
 30
0.0
 10
620.3950325576952
 20
152.2529272981461
 30
0.0
 10
620.2506467475303
 20
152.4445741118932
 30
0.0
 10
620.1073092078735
 20
152.6301131382054
 30
0.0
 10
619.9655340946861
 20
152.8091824098935
 30
0.0
 10
619.8132591472747
 20
152.9969547630906
 30
0.0
 10
619.6508543194919
 20
153.1919648831164
 30
0.0
 10
619.4787461198831
 20
153.3927077914526
 30
0.0
 10
619.3102992519055
 20
153.5837018508692
 30
0.0
 10
619.1457777174799
 20
153.7651800852882
 30
0.0
 10
618.9854240482406
 20
153.9373843816236
 30
0.0
 10
618.8322692125317
 20
154.0976246465949
 30
0.0
 10
618.6863773253124
 20
154.2465476273219
 30
0.0
 10
618.5477704414615
 20
154.3847779736434
 30
0.0
 10
618.4135453543994
 20
154.5156402130947
 30
0.0
 10
618.2838316467038
 20
154.6393501325326
 30
0.0
 10
618.1514433515018
 20
154.7629407366383
 30
0.0
 10
618.0170904869457
 20
154.8855641234797
 30
0.0
 10
617.8815084690291
 20
155.0064144956119
 30
0.0
 10
617.7529100501768
 20
155.1184670088177
 30
0.0
 10
617.6314190844673
 20
155.2220536483591
 30
0.0
 10
617.5171437343157
 20
155.3174945696175
 30
0.0
 10
617.4234605539953
 20
155.394218437047
 30
0.0
 10
617.3488945403336
 20
155.454382582689
 30
0.0
 10
617.2915218615431
 20
155.5001904733775
 30
0.0
 10
617.2340258169133
 20
155.545630898527
 30
0.0
 10
617.1737810655471
 20
155.5927445999777
 30
0.0
 10
617.1085291247217
 20
155.6431904822123
 30
0.0
 10
617.03796920612
 20
155.6970583071297
 30
0.0
 10
616.9620825858129
 20
155.7542056525476
 30
0.0
 10
616.8772759476889
 20
155.8171308033103
 30
0.0
 10
616.7830671578008
 20
155.8858514428802
 30
0.0
 10
616.6789732379796
 20
155.9603180714743
 30
0.0
 10
616.5681136256007
 20
156.0379681518744
 30
0.0
 10
616.4661135260328
 20
156.1077998970617
 30
0.0
 10
616.3752307668502
 20
156.1687983311932
 30
0.0
 10
616.2990792602956
 20
156.2190985462334
 30
0.0
 10
616.225589438149
 20
156.2668794876915
 30
0.0
 10
616.1561623667714
 20
156.3113397206649
 30
0.0
 10
616.096515526337
 20
156.3489875306875
 30
0.0
 10
616.0459929801851
 20
156.3804987241778
 30
0.0
 10
616.0039322107164
 20
156.4064849930006
 30
0.0
 10
615.9639700878013
 20
156.4309513192298
 30
0.0
 10
615.9261088478806
 20
156.4539307592496
 30
0.0
 10
615.8903505785838
 20
156.4754546541234
 30
0.0
 10
615.857369468016
 20
156.4951511549033
 30
0.0
 10
615.8302634288275
 20
156.5112225565085
 30
0.0
 10
615.8098285943438
 20
156.5232723283713
 30
0.0
 10
615.7959867476322
 20
156.5314045259886
 30
0.0
 10
615.784139258523
 20
156.5383461837678
 30
0.0
 10
615.7714215427629
 20
156.5457787943218
 30
0.0
 10
615.7551702662607
 20
156.5552451525584
 30
0.0
 10
615.7348175220718
 20
156.5670499884726
 30
0.0
 10
615.7087703413598
 20
156.5820783637568
 30
0.0
 10
615.6765723786203
 20
156.6005291251018
 30
0.0
 10
615.6377675847779
 20
156.6225757069037
 30
0.0
 10
615.5934931513308
 20
156.6474799642147
 30
0.0
 10
615.5437493158787
 20
156.6751430781823
 30
0.0
 10
615.4885371094617
 20
156.7054535790815
 30
0.0
 10
615.4286734019513
 20
156.7378463153348
 30
0.0
 10
615.3301631428594
 20
156.790318289212
 30
0.0
 10
615.196864077847
 20
156.8591916016411
 30
0.0
 10
615.0609705485008
 20
156.9262923678276
 30
0.0
 10
614.9586606627955
 20
156.9751559183956
 30
0.0
 10
614.8882578709192
 20
157.0080954733354
 30
0.0
 10
614.8190971320082
 20
157.0397913965762
 30
0.0
 10
614.7511804412317
 20
157.0702768327236
 30
0.0
 10
614.6845094168918
 20
157.099584549043
 30
0.0
 10
614.6193497395581
 20
157.1276331128644
 30
0.0
 10
614.5572499186244
 20
157.1538103724469
 30
0.0
 10
614.5016042265248
 20
157.1767998155491
 30
0.0
 10
614.4534332307364
 20
157.1963537978789
 30
0.0
 10
614.4124763146644
 20
157.2127306298163
 30
0.0
 10
614.376634921526
 20
157.226869547259
 30
0.0
 10
614.3449623383384
 20
157.2392162435749
 30
0.0
 10
614.3121783060079
 20
157.2518600959224
 30
0.0
 10
614.2754088229594
 20
157.2658663408571
 30
0.0
 10
614.231617897645
 20
157.2822948304399
 30
0.0
 10
614.1806226381543
 20
157.3010942249
 30
0.0
 10
614.1209542777689
 20
157.3226252227828
 30
0.0
 10
614.0522502808578
 20
157.3467848253811
 30
0.0
 10
613.9766408449401
 20
157.3725888398796
 30
0.0
 10
613.8963763463519
 20
157.3990717738511
 30
0.0
 10
613.791489602219
 20
157.432437289103
 30
0.0
 10
613.6624274400983
 20
157.4713095872161
 30
0.0
 10
613.5459251665714
 20
157.5037983990378
 30
0.0
 10
613.4663224663149
 20
157.524818742209
 30
0.0
 10
613.4268279723259
 20
157.534996515934
 30
0.0
 10
613.3935999391908
 20
157.5433784104398
 30
0.0
 10
613.3665252941857
 20
157.5500856092168
 30
0.0
 10
613.3408939979744
 20
157.5563425484722
 30
0.0
 10
613.312425443072
 20
157.5631847954986
 30
0.0
 10
613.276960853462
 20
157.5715356730076
 30
0.0
 10
613.234940811965
 20
157.5811827580225
 30
0.0
 10
613.1863930691061
 20
157.5919929633708
 30
0.0
 10
613.1316518236182
 20
157.6037473925382
 30
0.0
 10
613.072701957075
 20
157.6158797162892
 30
0.0
 10
612.960828305742
 20
157.6378465198867
 30
0.0
 10
612.7986735786097
 20
157.6661934702725
 30
0.0
 10
612.6444825078709
 20
157.6879100112415
 30
0.0
 10
612.549058218934
 20
157.6993897277672
 30
0.0
 10
612.5129523313576
 20
157.7035047616513
 30
0.0
 10
612.4810582913765
 20
157.7069590322181
 30
0.0
 10
612.4534414604141
 20
157.7098126512564
 30
0.0
 10
612.4300860628787
 20
157.7121260149287
 30
0.0
 10
612.410978052352
 20
157.7139503340258
 30
0.0
 10
612.395581067534
 20
157.7153761645502
 30
0.0
 10
612.3817536578914
 20
157.7166249320129
 30
0.0
 10
612.3664798957514
 20
157.71796984894
 30
0.0
 10
612.3472761701183
 20
157.7196059837989
 30
0.0
 10
612.3232648418384
 20
157.7215632592301
 30
0.0
 10
612.2946308947111
 20
157.7237679540801
 30
0.0
 10
612.2527849808538
 20
157.7267674300542
 30
0.0
 10
612.2008515476668
 20
157.7300559623258
 30
0.0
 10
612.143671292643
 20
157.7330652586763
 30
0.0
 10
612.092524770924
 20
157.7352706725185
 30
0.0
 10
612.045814251233
 20
157.7368933598549
 30
0.0
 10
611.9990826004266
 20
157.7381356629094
 30
0.0
 10
611.9560264086429
 20
157.7389125100634
 30
0.0
 10
611.9162408525789
 20
157.7393285911624
 30
0.0
 10
611.8803261942431
 20
157.7394729014051
 30
0.0
 10
611.8432567777459
 20
157.7393718154713
 30
0.0
 10
611.8072847446138
 20
157.7390226689019
 30
0.0
 10
611.7750378782296
 20
157.7384972659112
 30
0.0
 10
611.7500833217559
 20
157.7379528518322
 30
0.0
 10
611.7319642429786
 20
157.7374853300931
 30
0.0
 10
611.7196609525446
 20
157.7371350429012
 30
0.0
 10
611.7094090738121
 20
157.736822882649
 30
0.0
 10
611.6991613370049
 20
157.7364926908999
 30
0.0
 10
611.6870609011396
 20
157.7360774345014
 30
0.0
 10
611.6690007822114
 20
157.735412155977
 30
0.0
 10
611.6438148566332
 20
157.7343829040627
 30
0.0
 10
611.6103574674742
 20
157.7328183832243
 30
0.0
 10
611.5713238233965
 20
157.7307185231732
 30
0.0
 10
611.5280299926494
 20
157.7280358739126
 30
0.0
 10
611.4821810699334
 20
157.7247847684008
 30
0.0
 10
611.4135677350297
 20
157.7192840388752
 30
0.0
 10
611.321932748738
 20
157.7104654101432
 30
0.0
 10
611.236637287872
 20
157.7002574492702
 30
0.0
 10
611.1793931898511
 20
157.6925382369587
 30
0.0
 10
611.1520295365139
 20
157.6886816485873
 30
0.0
 10
611.1271129960717
 20
157.68502860351
 30
0.0
 10
611.1052549960731
 20
157.6817136850714
 30
0.0
 10
611.0864437058152
 20
157.6787778589235
 30
0.0
 10
611.0706100825226
 20
157.6762470825969
 30
0.0
 10
611.0558353277166
 20
157.673839173976
 30
0.0
 10
611.0401054149072
 20
157.6712263029851
 30
0.0
 10
611.0210317688432
 20
157.6679860047635
 30
0.0
 10
610.9980806792755
 20
157.6639813254785
 30
0.0
 10
610.9716516675966
 20
157.6592220035396
 30
0.0
 10
610.9434543483474
 20
157.6539661690317
 30
0.0
 10
610.9151814770883
 20
157.6485131228416
 30
0.0
 10
610.8876941488835
 20
157.6430371477935
 30
0.0
 10
610.8515969579462
 20
157.635621659541
 30
0.0
 10
610.8078117201438
 20
157.6262179088327
 30
0.0
 10
610.7572750452618
 20
157.6147453844795
 30
0.0
 10
610.7101320603118
 20
157.6034961318406
 30
0.0
 10
610.6667428990778
 20
157.592667483837
 30
0.0
 10
610.627870625999
 20
157.5825723503926
 30
0.0
 10
610.5978885447319
 20
157.574516489053
 30
0.0
 10
610.5759083707502
 20
157.5684717633293
 30
0.0
 10
610.5606797924348
 20
157.5642219687728
 30
0.0
 10
610.5473826593632
 20
157.5604634341674
 30
0.0
 10
610.5360092649878
 20
157.5572131974151
 30
0.0
 10
610.5262220716814
 20
157.5543904037382
 30
0.0
 10
610.5161944331198
 20
157.5514753096338
 30
0.0
 10
610.5039277396493
 20
157.5478770283891
 30
0.0
 10
610.4877661386222
 20
157.5430777451926
 30
0.0
 10
610.467549382293
 20
157.5369795784942
 30
0.0
 10
610.4433471529039
 20
157.529539794268
 30
0.0
 10
610.4163060290263
 20
157.5210424990225
 30
0.0
 10
610.3879878699964
 20
157.5119318064778
 30
0.0
 10
610.3599076433211
 20
157.5026854139588
 30
0.0
 10
610.3325151899011
 20
157.4934616097875
 30
0.0
 10
610.3058025245349
 20
157.4842708665077
 30
0.0
 10
610.2623206144453
 20
157.4689974377561
 30
0.0
 10
610.2035062523329
 20
157.4474924434967
 30
0.0
 10
610.1423705901842
 20
157.4238417277736
 30
0.0
 10
610.0961242634394
 20
157.4052444927983
 30
0.0
 10
610.063555214883
 20
157.3918237911847
 30
0.0
 10
610.0334576715678
 20
157.3791369315959
 30
0.0
 10
610.006178130057
 20
157.3674013712776
 30
0.0
 10
609.9796235231393
 20
157.3557675079726
 30
0.0
 10
609.9509502006597
 20
157.3429708077795
 30
0.0
 10
609.9176455383673
 20
157.3277855633206
 30
0.0
 10
609.8791972665123
 20
157.3098148450644
 30
0.0
 10
609.839302285685
 20
157.2906375069051
 30
0.0
 10
609.8003793057321
 20
157.271405491771
 30
0.0
 10
609.7651006046508
 20
157.2535396086888
 30
0.0
 10
609.7325630918486
 20
157.2366829773508
 30
0.0
 10
609.7030091867609
 20
157.2210546098787
 30
0.0
 10
609.6766169416487
 20
157.2068329064358
 30
0.0
 10
609.6529766063873
 20
157.1938976852748
 30
0.0
 10
609.6316718417964
 20
157.1820174353536
 30
0.0
 10
609.6064612877522
 20
157.1680903399223
 30
0.0
 10
609.5870056377981
 20
157.1570056554255
 30
0.0
 10
609.5768118434427
 20
157.1511978312447
 30
0.0
  0
SPLINE
  5
D9
330
1F
100
AcDbEntity
  8
0
  6
Continuous
 62
     7
370
    30
100
AcDbSpline
210
0.0
220
0.0
230
1.0
 70
     8
 71
     3
 72
    10
 73
     6
 74
     0
 42
0.000000001
 43
0.00000001
 40
0.0
 40
0.0
 40
0.0
 40
0.0
 40
0.3926235731968045
 40
0.8704837849131656
 40
1.0
 40
1.0
 40
1.0
 40
1.0
 10
487.8968282965579
 20
69.55426622913343
 30
0.0
 10
487.8908866152113
 20
69.54284906903061
 30
0.0
 10
487.8777133428446
 20
69.5175361397575
 30
0.0
 10
487.8642605701496
 20
69.48757409568701
 30
0.0
 10
487.8573926893048
 20
69.46887921881256
 30
0.0
 10
487.8559281906951
 20
69.46489274586523
 30
0.0
  0
SPLINE
  5
DA
330
1F
100
AcDbEntity
  8
0
  6
Continuous
 62
     7
370
    30
100
AcDbSpline
210
0.0
220
0.0
230
1.0
 70
     8
 71
     3
 72
    10
 73
     6
 74
     0
 42
0.000000001
 43
0.00000001
 40
0.0
 40
0.0
 40
0.0
 40
0.0
 40
0.3508543000724355
 40
0.8375397503460701
 40
1.0
 40
1.0
 40
1.0
 40
1.0
 10
510.2303593224124
 20
60.78393031251723
 30
0.0
 10
510.2344308116915
 20
60.79456971888342
 30
0.0
 10
510.2441500430463
 20
60.81996751434986
 30
0.0
 10
510.2539173587348
 20
60.85098733087941
 30
0.0
 10
510.2588565063586
 20
60.87147234545118
 30
0.0
 10
510.2600926158424
 20
60.87659908445888
 30
0.0
  0
LINE
  5
DB
330
1F
100
AcDbEntity
  8
0
  6
Continuous
 62
     7
370
    30
100
AcDbLine
 10
508.8870576078
 20
57.3209650091
 30
0.0
 11
510.2305604921
 21
60.7837040434
 31
0.0
  0
LINE
  5
DC
330
1F
100
AcDbEntity
  8
0
  6
Continuous
 62
     7
370
    30
100
AcDbLine
 10
487.8556497422
 20
69.4649118474
 30
0.0
 11
486.512146858
 21
66.0021728131
 31
0.0
  0
SPLINE
  5
DD
330
1F
100
AcDbEntity
  8
0
  6
Continuous
 62
     7
370
    30
100
AcDbSpline
210
0.0
220
0.0
230
1.0
 70
     8
 71
     3
 72
   114
 73
   110
 74
     0
 42
0.000000001
 43
0.00000001
 40
0.0
 40
0.0
 40
0.0
 40
0.0
 40
0.0057472634829094
 40
0.0136682978102547
 40
0.0216533788236823
 40
0.029728120959793
 40
0.0379183432380615
 40
0.0462498198303677
 40
0.0547478680444608
 40
0.063436704109398
 40
0.0723385035855575
 40
0.0814721263309016
 40
0.090851522552032
 40
0.1004839401584127
 40
0.1103682030343904
 40
0.1194419177436011
 40
0.128645625611449
 40
0.1379584603060325
 40
0.1473588268108819
 40
0.1568254877630594
 40
0.166338909697802
 40
0.1758821234491535
 40
0.1854410988348854
 40
0.1950039203795027
 40
0.2045602263744206
 40
0.214104763307635
 40
0.2236338682201434
 40
0.2331452042894627
 40
0.2426374378381926
 40
0.2521099761183939
 40
0.2615627607875132
 40
0.2709961089393914
 40
0.2804105929283784
 40
0.2898069508862226
 40
0.299186021007424
 40
0.3085486939549147
 40
0.3178958789153954
 40
0.327228479838049
 40
0.3365473792067005
 40
0.3458534273409558
 40
0.3551474357216177
 40
0.3644301732174219
 40
0.3737023643796408
 40
0.3829646891885735
 40
0.3932679859512487
 40
0.4025108126634508
 40
0.4127764787005974
 40
0.4230515427585737
 40
0.4333099155664027
 40
0.443552074866614
 40
0.4537791332958666
 40
0.4639921547637434
 40
0.4741921425631944
 40
0.484380044783683
 40
0.4945567598735006
 40
0.504723141911682
 40
0.5148800055936724
 40
0.52502813095426
 40
0.535168267857495
 40
0.5453011402870626
 40
0.5554274504737173
 40
0.5655478828984957
 40
0.5756631082128529
 40
0.5857737871188325
 40
0.595880574256039
 40
0.6059841221450757
 40
0.6160850852425335
 40
0.6261841241684534
 40
0.6362819101755247
 40
0.6463791299391575
 40
0.6564764907610937
 40
0.6665747262962668
 40
0.6766746029338426
 40
0.6867769269917473
 40
0.6968825529201922
 40
0.7069923927562523
 40
0.7171074271330271
 40
0.7272287182284848
 40
0.7373574251457679
 40
0.7474948223624249
 40
0.7576423220821402
 40
0.7667531378926451
 40
0.7768958156312447
 40
0.7860027555063971
 40
0.7951084975439004
 40
0.8042121805209439
 40
0.8133136510994243
 40
0.8224127163371505
 40
0.8315091344393671
 40
0.8406026015791459
 40
0.8496927339213896
 40
0.8587790426851165
 40
0.8678608988763811
 40
0.8769374823113332
 40
0.886007706070383
 40
0.8950701012839724
 40
0.9041226354785877
 40
0.9131624147830933
 40
0.9221851726079238
 40
0.9311843412273605
 40
0.9401492459006942
 40
0.9490612729181461
 40
0.9578847579601865
 40
0.966541644045736
 40
0.9748221900135894
 40
0.9821938258044265
 40
0.987566432790649
 40
0.9935861667765533
 40
1.0
 40
1.0
 40
1.0
 40
1.0
 10
486.5124253064405
 20
66.00215371161791
 30
0.0
 10
486.5083064663138
 20
65.99145055307518
 30
0.0
 10
486.4985109290723
 20
65.96599601129068
 30
0.0
 10
486.4859926447165
 20
65.92461227370461
 30
0.0
 10
486.4744460288166
 20
65.87818129298975
 30
0.0
 10
486.4655650389462
 20
65.83061730940723
 30
0.0
 10
486.4592835534646
 20
65.78195037118856
 30
0.0
 10
486.4556892392227
 20
65.73214601954932
 30
0.0
 10
486.4548402071346
 20
65.68117583880023
 30
0.0
 10
486.4568165510403
 20
65.62899948979525
 30
0.0
 10
486.4617067503063
 20
65.57557321504501
 30
0.0
 10
486.4696102925697
 20
65.52085368069899
 30
0.0
 10
486.4806332691275
 20
65.46480571369442
 30
0.0
 10
486.4948827095811
 20
65.40741098447909
 30
0.0
 10
486.511834408403
 20
65.35076051499055
 30
0.0
 10
486.5311550831162
 20
65.29505990950832
 30
0.0
 10
486.5524831220484
 20
65.24054721084785
 30
0.0
 10
486.5764547336669
 20
65.18540422569063
 30
0.0
 10
486.6030331769111
 20
65.12970882289542
 30
0.0
 10
486.632170098292
 20
65.07353346605255
 30
0.0
 10
486.6638096409127
 20
65.0169415415458
 30
0.0
 10
486.6978929157331
 20
64.95998450774515
 30
0.0
 10
486.734360691913
 20
64.90270261907757
 30
0.0
 10
486.7731541711263
 20
64.84512786240934
 30
0.0
 10
486.8142197490979
 20
64.78728001358341
 30
0.0
 10
486.8575109927673
 20
64.72916757294314
 30
0.0
 10
486.9029909569315
 20
64.67078777025917
 30
0.0
 10
486.9506275793294
 20
64.61213438936353
 30
0.0
 10
487.0003931828126
 20
64.55319901077503
 30
0.0
 10
487.0522637779023
 20
64.49397214459077
 30
0.0
 10
487.106218396774
 20
64.43444406364476
 30
0.0
 10
487.1622384914372
 20
64.37460539240958
 30
0.0
 10
487.2203074090374
 20
64.31444750530358
 30
0.0
 10
487.2804099453849
 20
64.25396278114675
 30
0.0
 10
487.3425319715004
 20
64.19314475196313
 30
0.0
 10
487.4066601250818
 20
64.13198817607676
 30
0.0
 10
487.4727815579919
 20
64.07048905826754
 30
0.0
 10
487.5408837309578
 20
64.00864463404993
 30
0.0
 10
487.6109542480534
 20
63.94645333012664
 30
0.0
 10
487.6829807223706
 20
63.88391471128024
 30
0.0
 10
487.7569506733375
 20
63.82102941506962
 30
0.0
 10
487.8328514272094
 20
63.75779909722002
 30
0.0
 10
487.9106701044356
 20
63.69422632188593
 30
0.0
 10
487.99340641639
 20
63.62789918414233
 30
0.0
 10
488.0782200174423
 20
63.56120228312043
 30
0.0
 10
488.1682041500191
 20
63.49174123023582
 30
0.0
 10
488.2602982132555
 20
63.42191508273992
 30
0.0
 10
488.3579018367534
 20
63.34925182839249
 30
0.0
 10
488.4577767482438
 20
63.27620145421847
 30
0.0
 10
488.5598123568144
 20
63.20283766670198
 30
0.0
 10
488.6639843285575
 20
63.12917037030918
 30
0.0
 10
488.7702703745974
 20
63.05520844911408
 30
0.0
 10
488.878647967531
 20
62.98096136836207
 30
0.0
 10
488.9890942742031
 20
62.90643916040351
 30
0.0
 10
489.1015861583357
 20
62.8316523683358
 30
0.0
 10
489.2161001875361
 20
62.75661199399288
 30
0.0
 10
489.3326126444343
 20
62.68132944951007
 30
0.0
 10
489.4510995411045
 20
62.60581651239669
 30
0.0
 10
489.5715366366783
 20
62.53008528356629
 30
0.0
 10
489.693899458022
 20
62.45414814792215
 30
0.0
 10
489.8181633234813
 20
62.37801773707382
 30
0.0
 10
489.9443033697858
 20
62.30170689378859
 30
0.0
 10
490.0722945822965
 20
62.22522863778644
 30
0.0
 10
490.2021118288695
 20
62.1485961324918
 30
0.0
 10
490.3337298977107
 20
62.07182265235527
 30
0.0
 10
490.4671235397068
 20
61.99492155034461
 30
0.0
 10
490.6022675158376
 20
61.91790622518803
 30
0.0
 10
490.7391366504249
 20
61.84079008791734
 30
0.0
 10
490.8777058911485
 20
61.76358652721954
 30
0.0
 10
491.0179503769641
 20
61.68630887303874
 30
0.0
 10
491.1598455153298
 20
61.60897035779323
 30
0.0
 10
491.3033670704534
 20
61.53158407446445
 30
0.0
 10
491.4484912647121
 20
61.45416293066685
 30
0.0
 10
491.5951948958158
 20
61.37671959766448
 30
0.0
 10
491.7434554732714
 20
61.29926645290693
 30
0.0
 10
491.893251377344
 20
61.22181551493245
 30
0.0
 10
492.0445620493352
 20
61.1443783668884
 30
0.0
 10
492.1973682065772
 20
61.06696607253521
 30
0.0
 10
492.3516521405315
 20
60.98958905741637
 30
0.0
 10
492.5073979234146
 20
60.91225704066277
 30
0.0
 10
492.6591791333002
 20
60.83763981261101
 30
0.0
 10
492.8121354587222
 20
60.76314758098645
 30
0.0
 10
492.9607551381594
 20
60.69143985909616
 30
0.0
 10
493.1103875685601
 20
60.61991077873319
 30
0.0
 10
493.2554560210005
 20
60.55116733750247
 30
0.0
 10
493.4013842122366
 20
60.48261629664955
 30
0.0
 10
493.5481354762867
 20
60.41427442033336
 30
0.0
 10
493.6956761409223
 20
60.34615688724544
 30
0.0
 10
493.8439715246824
 20
60.27827917024275
 30
0.0
 10
493.992985683756
 20
60.21065713557831
 30
0.0
 10
494.1426811007807
 20
60.14330716193051
 30
0.0
 10
494.2930182377469
 20
60.07624631326667
 30
0.0
 10
494.443954900948
 20
60.00949258479547
 30
0.0
 10
494.5954453135073
 20
59.94306526306636
 30
0.0
 10
494.7474387270563
 20
59.87698546592144
 30
0.0
 10
494.8998772798011
 20
59.81127697671455
 30
0.0
 10
495.0526925730114
 20
59.74596757929068
 30
0.0
 10
495.2057999633877
 20
59.68109128578864
 30
0.0
 10
495.3590885498098
 20
59.61669224949199
 30
0.0
 10
495.5124024646262
 20
59.5528320799022
 30
0.0
 10
495.6655030243232
 20
59.48960466617628
 30
0.0
 10
495.8179837018444
 20
59.42716947410273
 30
0.0
 10
495.9690494867645
 20
59.36583820276538
 30
0.0
 10
496.1168037042856
 20
59.30635469883976
 30
0.0
 10
496.2564825994861
 20
59.25058210295239
 30
0.0
 10
496.3774714608256
 20
59.20263714871819
 30
0.0
 10
496.4855710961399
 20
59.16007046547796
 30
0.0
 10
496.5882409360617
 20
59.11984981050671
 30
0.0
 10
496.6600133350211
 20
59.09195217395062
 30
0.0
 10
496.6970369975969
 20
59.07756122844105
 30
0.0
  0
SPLINE
  5
DE
330
1F
100
AcDbEntity
  8
0
  6
Continuous
 62
     7
370
    30
100
AcDbSpline
210
0.0
220
0.0
230
1.0
 70
     8
 71
     3
 72
   119
 73
   115
 74
     0
 42
0.000000001
 43
0.00000001
 40
0.0
 40
0.0
 40
0.0
 40
0.0
 40
0.0097118189087844
 40
0.0137057810261924
 40
0.020330741362134
 40
0.0272214347719134
 40
0.034622043248525
 40
0.0423528475587549
 40
0.0503412528651792
 40
0.0585293495675497
 40
0.0668759808120937
 40
0.0753506806618602
 40
0.0839304780488398
 40
0.0925977146904969
 40
0.1013385792422342
 40
0.1101420990026293
 40
0.1189994330304809
 40
0.127903367290024
 40
0.1368479477711448
 40
0.1458282095440521
 40
0.1548399736593949
 40
0.1638796927999975
 40
0.1729443324880365
 40
0.1820312785848521
 40
0.1911382644849237
 40
0.2002633132396161
 40
0.2094046911244737
 40
0.2185608700703986
 40
0.2277304970263209
 40
0.2369123687922602
 40
0.246105411205947
 40
0.2553086618224044
 40
0.2645212554165556
 40
0.273742411784467
 40
0.2829714254283386
 40
0.2922076567956492
 40
0.3014505248084592
 40
0.3106995004700927
 40
0.3199541013768603
 40
0.3292138869948868
 40
0.3384784545866673
 40
0.347747435693513
 40
0.3570204930959349
 40
0.3662973181875187
 40
0.3755776287093122
 40
0.3848611667999051
 40
0.3941476973248666
 40
0.4034370064549657
 40
0.4127289004675064
 40
0.4220232047503752
 40
0.4313197629915359
 40
0.4406184365399881
 40
0.4499191039275745
 40
0.4592216605424683
 40
0.4685260184485356
 40
0.4778321063453541
 40
0.4871398696663845
 40
0.4964492708135795
 40
0.505760289528136
 40
0.5150729233982557
 40
0.524387188505093
 40
0.5337031202092707
 40
0.5430207740795233
 40
0.5523402269656732
 40
0.5616615782162135
 40
0.5709849510399213
 40
0.5803104940069311
 40
0.5896383826815919
 40
0.5989688213717058
 40
0.608302044971005
 40
0.6176383208576902
 40
0.626977950795567
 40
0.6363212727592614
 40
0.645668662572505
 40
0.6550205352040654
 40
0.6643773455050518
 40
0.6737395880904615
 40
0.6831077959586587
 40
0.6924825372961123
 40
0.7018644097216882
 40
0.7112540309664921
 40
0.7206520246506659
 40
0.7300589993804402
 40
0.7394755188333475
 40
0.7489020598064494
 40
0.758338954368888
 40
0.7677863113167839
 40
0.7772439111622874
 40
0.7867110681087084
 40
0.7961864522666328
 40
0.8056678664525032
 40
0.8151519753927883
 40
0.8246339925993843
 40
0.8341045397046373
 40
0.8435538312506692
 40
0.8529699258572079
 40
0.8623385080865363
 40
0.8716432530386807
 40
0.8808665890956218
 40
0.8899908684707613
 40
0.8989998286569127
 40
0.9078801147055313
 40
0.9166225819246213
 40
0.9252231466415219
 40
0.9336830808666161
 40
0.9420087934725415
 40
0.9502112440929854
 40
0.9583051702231493
 40
0.9663082851937307
 40
0.9742405543116052
 40
0.9821236042947886
 40
0.9899802805629915
 40
0.9978343406138815
 40
1.0
 40
1.0
 40
1.0
 40
1.0
 10
496.6970369975969
 20
59.07756122844108
 30
0.0
 10
496.7531318590322
 20
59.0558540348564
 30
0.0
 10
496.8322955970249
 20
59.02521981023184
 30
0.0
 10
496.9498460012853
 20
58.98015243658302
 30
0.0
 10
497.0511317225272
 20
58.94151113726323
 30
0.0
 10
497.1721899369567
 20
58.895645352385
 30
0.0
 10
497.2997045801465
 20
58.84767961405082
 30
0.0
 10
497.4336197845876
 20
58.79769340262359
 30
0.0
 10
497.5721231045248
 20
58.74640965831681
 30
0.0
 10
497.7141998028623
 20
58.69424105195795
 30
0.0
 10
497.8590755781047
 20
58.64150144398229
 30
0.0
 10
498.0061760069526
 20
58.5884240491914
 30
0.0
 10
498.1550609392083
 20
58.53518756214444
 30
0.0
 10
498.3053853329947
 20
58.48193197098939
 30
0.0
 10
498.456872617117
 20
58.42876929253307
 30
0.0
 10
498.6092965092323
 20
58.37579091871908
 30
0.0
 10
498.7624683378883
 20
58.32307274650422
 30
0.0
 10
498.9162280370078
 20
58.2706788291074
 30
0.0
 10
499.0704376349365
 20
58.2186640209865
 30
0.0
 10
499.2249764693227
 20
58.16707592583135
 30
0.0
 10
499.3797376168162
 20
58.11595635320042
 30
0.0
 10
499.5346251919325
 20
58.06534242310006
 30
0.0
 10
499.6895522773083
 20
58.01526741443627
 30
0.0
 10
499.8444393191526
 20
57.96576142447675
 30
0.0
 10
499.9992128699799
 20
57.91685188701987
 30
0.0
 10
500.1538045937853
 20
57.86856398363832
 30
0.0
 10
500.308150471805
 20
57.8209209730844
 30
0.0
 10
500.4621901632152
 20
57.77394445740401
 30
0.0
 10
500.6158664866915
 20
57.72765459862093
 30
0.0
 10
500.769124997116
 20
57.68207029647024
 30
0.0
 10
500.9219136378343
 20
57.63720933517928
 30
0.0
 10
501.0741824533908
 20
57.59308850545946
 30
0.0
 10
501.2258833510413
 20
57.54972370650346
 30
0.0
 10
501.37696990189
 20
57.50713003174285
 30
0.0
 10
501.5273971744366
 20
57.46532184133999
 30
0.0
 10
501.6771215947992
 20
57.42431282377527
 30
0.0
 10
501.8261008290364
 20
57.38411604843089
 30
0.0
 10
501.9742936838756
 20
57.34474401070038
 30
0.0
 10
502.121660022872
 20
57.3062086708721
 30
0.0
 10
502.2681606955651
 20
57.26852148780553
 30
0.0
 10
502.4137574776507
 20
57.23169344824144
 30
0.0
 10
502.5584130205372
 20
57.19573509244314
 30
0.0
 10
502.7020908089393
 20
57.16065653675093
 30
0.0
 10
502.8447551253965
 20
57.12646749353912
 30
0.0
 10
502.9863710207898
 20
57.09317728899197
 30
0.0
 10
503.1269042900832
 20
57.06079487905163
 30
0.0
 10
503.2663214526511
 20
57.02932886384641
 30
0.0
 10
503.4045897366464
 20
56.99878750086378
 30
0.0
 10
503.5416770669651
 20
56.96917871710553
 30
0.0
 10
503.6775520564267
 20
56.94051012043431
 30
0.0
 10
503.8121839998569
 20
56.91278901030302
 30
0.0
 10
503.9455428708112
 20
56.88602238804341
 30
0.0
 10
504.0775993207205
 20
56.86021696687938
 30
0.0
 10
504.2083246802828
 20
56.83537918182365
 30
0.0
 10
504.3376909629504
 20
56.81151519961465
 30
0.0
 10
504.4656708703995
 20
56.78863092884742
 30
0.0
 10
504.5922377998837
 20
56.76673203045839
 30
0.0
 10
504.7173658534029
 20
56.74582392872782
 30
0.0
 10
504.8410298486279
 20
56.72591182297489
 30
0.0
 10
504.9632053315427
 20
56.70700070013112
 30
0.0
 10
505.0838685907723
 20
56.68909534839688
 30
0.0
 10
505.2029966735726
 20
56.67220037220262
 30
0.0
 10
505.3205674034689
 20
56.65632020872508
 30
0.0
 10
505.4365593995153
 20
56.64145914623323
 30
0.0
 10
505.5509520971588
 20
56.62762134457786
 30
0.0
 10
505.6637257706636
 20
56.61481085817462
 30
0.0
 10
505.7748615570383
 20
56.60303166187989
 30
0.0
 10
505.8843414813714
 20
56.59228768020952
 30
0.0
 10
505.9921484834364
 20
56.582582820413
 30
0.0
 10
506.0982664453558
 20
56.57392100998116
 30
0.0
 10
506.2026802200259
 20
56.56630623924309
 30
0.0
 10
506.3053756598744
 20
56.55974260978812
 30
0.0
 10
506.4063396453597
 20
56.55423438953681
 30
0.0
 10
506.5055601123908
 20
56.54978607537392
 30
0.0
 10
506.6030260775514
 20
56.54640246434253
 30
0.0
 10
506.6987276596153
 20
56.54408873447232
 30
0.0
 10
506.7926560953208
 20
56.54285053636485
 30
0.0
 10
506.8848037466883
 20
56.54269409665898
 30
0.0
 10
506.9751640962821
 20
56.54362633442462
 30
0.0
 10
507.0637317256596
 20
56.54565499133199
 30
0.0
 10
507.1505022707827
 20
56.54878877604258
 30
0.0
 10
507.2354723462859
 20
56.55303752258312
 30
0.0
 10
507.3186394281657
 20
56.55841236133217
 30
0.0
 10
507.4000016816065
 20
56.56492589950215
 30
0.0
 10
507.4795577173171
 20
56.57259240535647
 30
0.0
 10
507.5573062560561
 20
56.58142798655383
 30
0.0
 10
507.6332456773388
 20
56.59145074755972
 30
0.0
 10
507.7073734254402
 20
56.60268090362169
 30
0.0
 10
507.7796852452016
 20
56.61514081909581
 30
0.0
 10
507.8501742242901
 20
56.62885492605066
 30
0.0
 10
507.9188296313267
 20
56.64384946603337
 30
0.0
 10
507.9856355658643
 20
56.66015198626071
 30
0.0
 10
508.0505630818455
 20
56.67778877752833
 30
0.0
 10
508.1135734964135
 20
56.69678405773747
 30
0.0
 10
508.1746179548185
 20
56.71715812983339
 30
0.0
 10
508.2336427549984
 20
56.73892746947337
 30
0.0
 10
508.2905860705559
 20
56.76210164553713
 30
0.0
 10
508.3453798048286
 20
56.78668143562189
 30
0.0
 10
508.3979535136732
 20
56.81265785425374
 30
0.0
 10
508.4482394679599
 20
56.8400123213695
 30
0.0
 10
508.4961780484039
 20
56.86871817007977
 30
0.0
 10
508.5417223525135
 20
56.89874334217566
 30
0.0
 10
508.5848409643197
 20
56.9300537615753
 30
0.0
 10
508.6255182599878
 20
56.96261667897368
 30
0.0
 10
508.6637523719042
 20
56.9964032855882
 30
0.0
 10
508.6995511840412
 20
57.03139027887325
 30
0.0
 10
508.7329282636056
 20
57.06755994480969
 30
0.0
 10
508.763896126104
 20
57.1049003151674
 30
0.0
 10
508.792470368207
 20
57.14340091734682
 30
0.0
 10
508.8186377779311
 20
57.18306242533912
 30
0.0
 10
508.8424622847268
 20
57.22385475066861
 30
0.0
 10
508.8636862164622
 20
57.26586710249545
 30
0.0
 10
508.8784836469328
 20
57.29836621828992
 30
0.0
 10
508.8853683749497
 20
57.31713467025619
 30
0.0
 10
508.8868564381579
 20
57.32119127826994
 30
0.0
  0
SPLINE
  5
DF
330
1F
100
AcDbEntity
  8
0
  6
Continuous
 62
     7
370
    30
100
AcDbSpline
210
0.0
220
0.0
230
1.0
 70
     8
 71
     3
 72
   155
 73
   151
 74
     0
 42
0.000000001
 43
0.00000001
 40
0.0
 40
0.0
 40
0.0
 40
0.0
 40
0.0057280070560685
 40
0.0124375595134832
 40
0.0191508797973171
 40
0.025867796043652
 40
0.0325881481215087
 40
0.0393117866250814
 40
0.0460385719697467
 40
0.0527683735794611
 40
0.0595010691540761
 40
0.066236544007894
 40
0.072974690470573
 40
0.0797154073436844
 40
0.0864585994067505
 40
0.0932041769667745
 40
0.0999520554474845
 40
0.1067021550130529
 40
0.1134544002234588
 40
0.1202087197177627
 40
0.1269650459226595
 40
0.1337233147834009
 40
0.1404834655155905
 40
0.1472454403747557
 40
0.1540091844429375
 40
0.1607746454299445
 40
0.1675417734882339
 40
0.1743105210399155
 40
0.1810808426149227
 40
0.1878526946989529
 40
0.1946260355907661
 40
0.2014008252673241
 40
0.2081770252565102
 40
0.2149545985165539
 40
0.2217335093214844
 40
0.2285137231520183
 40
0.2352952065915409
 40
0.2420779272261483
 40
0.2488618535493705
 40
0.2556469548697582
 40
0.2624332012223485
 40
0.2692205632826321
 40
0.2760090122832036
 40
0.282798519932978
 40
0.2895890583380053
 40
0.2963805999245854
 40
0.3031731173636608
 40
0.3099665834968603
 40
0.316760971263686
 40
0.3235562536297562
 40
0.3303524035163486
 40
0.3371493937302726
 40
0.3439471968950656
 40
0.3507457853825396
 40
0.3575451312449552
 40
0.3643452061481248
 40
0.3711459813047084
 40
0.3779474274081396
 40
0.3847495145673842
 40
0.3915522122420648
 40
0.398355489178256
 40
0.4051593133452034
 40
0.4119636518725563
 40
0.4187684701972068
 40
0.4255737230554212
 40
0.432379374146335
 40
0.4391853859913285
 40
0.4459917199602
 40
0.4527983362164845
 40
0.4596051936664029
 40
0.4664122499099208
 40
0.4732194611949883
 40
0.4800267823750232
 40
0.4868341668701811
 40
0.4936415666328863
 40
0.5004489321177372
 40
0.5072562122565598
 40
0.5140633544393624
 40
0.5208703045010165
 40
0.5276770067150548
 40
0.534483403794584
 40
0.5412894369011039
 40
0.5480950456621101
 40
0.5549001681977346
 40
0.5617047411571667
 40
0.5685086997660769
 40
0.5753119778847668
 40
0.5821145080782645
 40
0.5889162216993064
 40
0.5957170489841034
 40
0.6025169191619707
 40
0.6093157605793199
 40
0.6161135008386648
 40
0.6229100669525247
 40
0.629705385513459
 40
0.6364993828800999
 40
0.643291985379178
 40
0.6500831195244793
 40
0.6568727122517903
 40
0.663660691170738
 40
0.670446984832416
 40
0.6772315230130546
 40
0.6840142370130685
 40
0.6907950599707939
 40
0.6975739271899344
 40
0.7043507764801522
 40
0.7111255485093841
 40
0.7178981871662743
 40
0.7246686399319874
 40
0.7314368582587775
 40
0.7382027979542527
 40
0.7449664195689898
 40
0.7517276887851393
 40
0.7584865768041047
 40
0.7652430607306745
 40
0.7719971239507599
 40
0.7787487565011748
 40
0.7854979554269147
 40
0.7922447251249883
 40
0.7989890776709736
 40
0.8057310331257642
 40
0.8124706198197056
 40
0.8192078746115438
 40
0.8259428431192992
 40
0.832675579920599
 40
0.8394061487202543
 40
0.8461346224827878
 40
0.8528610835271848
 40
0.8595856235831981
 40
0.8663083438065421
 40
0.873029354752109
 40
0.8797487763035509
 40
0.8864667375593307
 40
0.8931833766733493
 40
0.8998988406510328
 40
0.9066132851001202
 40
0.9133268739368441
 40
0.920039779048021
 40
0.9267521799098017
 40
0.9334642631646783
 40
0.9401762221576347
 40
0.9468882564340653
 40
0.9536005712005496
 40
0.9603133767514362
 40
0.9670268878638069
 40
0.9737413231629187
 40
0.9804569044620929
 40
0.9871738560791335
 40
0.9938924041337586
 40
1.0
 40
1.0
 40
1.0
 40
1.0
 10
604.375198908397
 20
126.4363083344619
 30
0.0
 10
604.4313317324833
 20
126.372209757579
 30
0.0
 10
604.5532162436928
 20
126.233028737565
 30
0.0
 10
604.7418750727333
 20
126.0204591565492
 30
0.0
 10
604.940990585892
 20
125.7982210196976
 30
0.0
 10
605.1410197350389
 20
125.5773701268226
 30
0.0
 10
605.3419174362465
 20
125.3578805490897
 30
0.0
 10
605.5436743502511
 20
125.1397875251913
 30
0.0
 10
605.7462717468296
 20
124.9231092355777
 30
0.0
 10
605.9496935881157
 20
124.7078678213792
 30
0.0
 10
606.1539232705393
 20
124.494083786013
 30
0.0
 10
606.358944482436
 20
124.2817775303415
 30
0.0
 10
606.5647409597958
 20
124.0709689717016
 30
0.0
 10
606.7712965389609
 20
123.8616776737383
 30
0.0
 10
606.9785951310375
 20
123.6539228366459
 30
0.0
 10
607.186620718483
 20
123.4477233224889
 30
0.0
 10
607.3953573467966
 20
123.24309766903
 30
0.0
 10
607.6047891184614
 20
123.040064104769
 30
0.0
 10
607.8149001871154
 20
122.8386405619881
 30
0.0
 10
608.0256747524068
 20
122.6388446888308
 30
0.0
 10
608.2370970553302
 20
122.4406938602975
 30
0.0
 10
608.4491513740304
 20
122.2442051883179
 30
0.0
 10
608.6618220200114
 20
122.0493955309834
 30
0.0
 10
608.8750933347172
 20
121.8562815010175
 30
0.0
 10
609.0889496864378
 20
121.6648794735645
 30
0.0
 10
609.3033754675132
 20
121.4752055933535
 30
0.0
 10
609.5183550918007
 20
121.2872757813026
 30
0.0
 10
609.7338729923791
 20
121.1011057406097
 30
0.0
 10
609.9499136194667
 20
120.9167109623811
 30
0.0
 10
610.1664614385276
 20
120.7341067308347
 30
0.0
 10
610.3835009285486
 20
120.5533081281194
 30
0.0
 10
610.6010165804672
 20
120.3743300387826
 30
0.0
 10
610.8189928957327
 20
120.1971871539161
 30
0.0
 10
611.0374143849888
 20
120.0218939750062
 30
0.0
 10
611.2562655668603
 20
119.8484648175151
 30
0.0
 10
611.4755309668329
 20
119.6769138142126
 30
0.0
 10
611.6951951162123
 20
119.507254918282
 30
0.0
 10
611.9152425511562
 20
119.3395019062122
 30
0.0
 10
612.1356578117623
 20
119.1736683804987
 30
0.0
 10
612.356425441213
 20
119.0097677721604
 30
0.0
 10
612.5775299849576
 20
118.8478133430919
 30
0.0
 10
612.7989559899323
 20
118.6878181882589
 30
0.0
 10
613.0206880038079
 20
118.529795237747
 30
0.0
 10
613.242710574257
 20
118.373757258675
 30
0.0
 10
613.4650082482378
 20
118.2197168569781
 30
0.0
 10
613.687565571286
 20
118.0676864790711
 30
0.0
 10
613.9103670868128
 20
117.9176784133938
 30
0.0
 10
614.1333973354006
 20
117.7697047918475
 30
0.0
 10
614.3566408540937
 20
117.6237775911255
 30
0.0
 10
614.5800821756834
 20
117.47990863394
 30
0.0
 10
614.8037058279757
 20
117.338109590152
 30
0.0
 10
615.0274963330489
 20
117.1983919778019
 30
0.0
 10
615.2514382064888
 20
117.0607671640473
 30
0.0
 10
615.4755159566058
 20
116.925246366006
 30
0.0
 10
615.6997140836294
 20
116.7918406515055
 30
0.0
 10
615.9240170788783
 20
116.6605609397396
 30
0.0
 10
616.1484094239066
 20
116.5314180018322
 30
0.0
 10
616.3728755896227
 20
116.4044224613068
 30
0.0
 10
616.5974000353843
 20
116.27958479446
 30
0.0
 10
616.8219672080675
 20
116.1569153306389
 30
0.0
 10
617.0465615411111
 20
116.0364242524187
 30
0.0
 10
617.2711674535368
 20
115.9181215956814
 30
0.0
 10
617.4957693402382
 20
115.8020172540913
 30
0.0
 10
617.7203514638295
 20
115.6881210328254
 30
0.0
 10
617.9448980635652
 20
115.5764425874023
 30
0.0
 10
618.1693933620292
 20
115.466991419348
 30
0.0
 10
618.3938216709661
 20
115.3597768263189
 30
0.0
 10
618.6181672802204
 20
115.2548079572247
 30
0.0
 10
618.8424144576079
 20
115.1520938110291
 30
0.0
 10
619.0665474479
 20
115.0516432358704
 30
0.0
 10
619.2905504718419
 20
114.9534649280477
 30
0.0
 10
619.5144077251964
 20
114.857567430874
 30
0.0
 10
619.7381033778289
 20
114.7639591333939
 30
0.0
 10
619.9616215728435
 20
114.6726482689613
 30
0.0
 10
620.1849464257779
 20
114.5836429136774
 30
0.0
 10
620.4080620238682
 20
114.4969509846874
 30
0.0
 10
620.6309524253999
 20
114.4125802383334
 30
0.0
 10
620.8536016591524
 20
114.330538268165
 30
0.0
 10
621.0759937239584
 20
114.2508325028056
 30
0.0
 10
621.298112588383
 20
114.1734702036799
 30
0.0
 10
621.5199421905455
 20
114.0984584626004
 30
0.0
 10
621.7414664380949
 20
114.0258041992204
 30
0.0
 10
621.9626692083558
 20
113.955514158355
 30
0.0
 10
622.1835343486605
 20
113.8875949071787
 30
0.0
 10
622.4040456768855
 20
113.8220528323049
 30
0.0
 10
622.6241869822073
 20
113.7588941367574
 30
0.0
 10
622.8439420260925
 20
113.6981248368445
 30
0.0
 10
623.0632945435402
 20
113.639750758947
 30
0.0
 10
623.2822282445917
 20
113.5837775362349
 30
0.0
 10
623.5007268161237
 20
113.5302106053271
 30
0.0
 10
623.7187739239349
 20
113.4790552029142
 30
0.0
 10
623.9363532151453
 20
113.4303163623607
 30
0.0
 10
624.1534483209127
 20
113.3839989103102
 30
0.0
 10
624.3700428594834
 20
113.3401074633163
 30
0.0
 10
624.5861204395784
 20
113.2986464245231
 30
0.0
 10
624.8016646641271
 20
113.2596199804231
 30
0.0
 10
625.0166591343492
 20
113.2230320977205
 30
0.0
 10
625.2310874541836
 20
113.1888865203298
 30
0.0
 10
625.4449332350684
 20
113.1571867665405
 30
0.0
 10
625.6581801010606
 20
113.1279361263801
 30
0.0
 10
625.8708116942901
 20
113.1011376592098
 30
0.0
 10
626.0828116807355
 20
113.0767941915843
 30
0.0
 10
626.2941637563063
 20
113.0549083154124
 30
0.0
 10
626.5048516532088
 20
113.0354823864499
 30
0.0
 10
626.7148591465763
 20
113.0185185231602
 30
0.0
 10
626.9241700613317
 20
113.0040186059741
 30
0.0
 10
627.1327682792532
 20
112.9919842769809
 30
0.0
 10
627.3406377462072
 20
112.9824169400798
 30
0.0
 10
627.5477624795035
 20
112.9753177616199
 30
0.0
 10
627.7541265753376
 20
112.9706876715532
 30
0.0
 10
627.9597142162671
 20
112.9685273651219
 30
0.0
 10
628.1645096786724
 20
112.9688373050993
 30
0.0
 10
628.368497340152
 20
112.9716177245973
 30
0.0
 10
628.5716616867913
 20
112.9768686304507
 30
0.0
 10
628.7739873202524
 20
112.9845898071824
 30
0.0
 10
628.9754589646263
 20
112.9947808215511
 30
0.0
 10
629.1760614729824
 20
113.0074410276723
 30
0.0
 10
629.3757798335635
 20
113.0225695727042
 30
0.0
 10
629.5745991755572
 20
113.0401654030783
 30
0.0
 10
629.7725047743978
 20
113.0602272712532
 30
0.0
 10
629.969482056532
 20
113.0827537429602
 30
0.0
 10
630.1655166036002
 20
113.1077432049051
 30
0.0
 10
630.3605941559831
 20
113.1351938728857
 30
0.0
 10
630.554700615664
 20
113.1651038002754
 30
0.0
 10
630.7478220483702
 20
113.197470886821
 30
0.0
 10
630.9399446849525
 20
113.232292887697
 30
0.0
 10
631.1310549219767
 20
113.2695674227516
 30
0.0
 10
631.3211393214968
 20
113.3092919858793
 30
0.0
 10
631.510184609998
 20
113.3514639544471
 30
0.0
 10
631.6981776764974
 20
113.3960805987027
 30
0.0
 10
631.885105569796
 20
113.4431390910858
 30
0.0
 10
632.0709554948905
 20
113.492636515367
 30
0.0
 10
632.2557148085524
 20
113.5445698755319
 30
0.0
 10
632.4393710140987
 20
113.5989361043365
 30
0.0
 10
632.621911755378
 20
113.6557320714448
 30
0.0
 10
632.8033248099971
 20
113.7149545910986
 30
0.0
 10
632.9835980818812
 20
113.7766004291497
 30
0.0
 10
633.1627195930141
 20
113.8406663097317
 30
0.0
 10
633.3406774751664
 20
113.9071489201961
 30
0.0
 10
633.5174599588654
 20
113.9760449191244
 30
0.0
 10
633.6930553701382
 20
114.0473509291527
 30
0.0
 10
633.8674520960558
 20
114.1210635825004
 30
0.0
 10
634.0406386648506
 20
114.1971793655586
 30
0.0
 10
634.2126033969229
 20
114.2756952089924
 30
0.0
 10
634.383335656364
 20
114.3566062905899
 30
0.0
 10
634.5528211275888
 20
114.4399142371382
 30
0.0
 10
634.7210593948948
 20
114.5255965035722
 30
0.0
 10
634.887998264939
 20
114.6137206729292
 30
0.0
 10
635.0487388666103
 20
114.7012725347887
 30
0.0
 10
635.1531498460572
 20
114.7606368806904
 30
0.0
 10
635.2028686134743
 20
114.788905192341
 30
0.0
  0
SPLINE
  5
E0
330
1F
100
AcDbEntity
  8
0
  6
Continuous
 62
     7
370
    30
100
AcDbSpline
210
0.0
220
0.0
230
1.0
 70
     8
 71
     3
 72
   151
 73
   147
 74
     0
 42
0.000000001
 43
0.00000001
 40
0.0
 40
0.0
 40
0.0
 40
0.0
 40
0.0039564561290423
 40
0.010681145413895
 40
0.0174082642385485
 40
0.0241380368842187
 40
0.0308706852506212
 40
0.0376064281167871
 40
0.0443454804134583
 40
0.0510880525088771
 40
0.0578343495119524
 40
0.0645845705965776
 40
0.0713389083507724
 40
0.078097548154169
 40
0.084860667587305
 40
0.0916284358756959
 40
0.0984010133718959
 40
0.1051785510783999
 40
0.1119611902134158
 40
0.1187490618223616
 40
0.1255422864364045
 40
0.1323409737802335
 40
0.1391452225296755
 40
0.145955120120859
 40
0.1527707426108094
 40
0.1595921545899512
 40
0.1664194091466444
 40
0.1732525478826283
 40
0.1800916009790217
 40
0.1869365873115858
 40
0.1937875146130619
 40
0.2006443796817489
 40
0.20750716863314
 40
0.2143758571927573
 40
0.2212504110269908
 40
0.2281307861097485
 40
0.2350169291207396
 40
0.2419087778727752
 40
0.248806261765049
 40
0.2557093022574629
 40
0.2626178133643072
 40
0.2695317021622162
 40
0.2764508693098752
 40
0.2833752095752267
 40
0.2903046123675254
 40
0.2972389622704956
 40
0.3041781395735876
 40
0.3111220207984565
 40
0.318070479217869
 40
0.3250233853644328
 40
0.3319806075269217
 40
0.3389420122319599
 40
0.3459074647093914
 40
0.3528768293394268
 40
0.3598499700803472
 40
0.366826750875863
 40
0.3738070360405075
 40
0.380790690623203
 40
0.3877775807477481
 40
0.3947675739306467
 40
0.4017605393755663
 40
0.4087563482448175
 40
0.415754873908296
 40
0.4227559921696459
 40
0.4297595814706062
 40
0.4367655230744773
 40
0.4437737012284186
 40
0.4507840033064736
 40
0.4577963199334477
 40
0.4648105450909602
 40
0.4718265762064875
 40
0.4788443142263389
 40
0.4858636636737957
 40
0.4928845326931505
 40
0.4999068330809729
 40
0.5069304803054019
 40
0.5139553935144983
 40
0.5209814955349008
 40
0.5280087128612091
 40
0.535036975637593
 40
0.5420662176322866
 40
0.5490963762056765
 40
0.5561273922730243
 40
0.563159210262658
 40
0.5701917780699606
 40
0.5772250470086129
 40
0.5842589717588291
 40
0.591293510314052
 40
0.5983286239261639
 40
0.6053642720537238
 40
0.6124004155443433
 40
0.6194370257009343
 40
0.6264740769050419
 40
0.6335115465006552
 40
0.6405494147414084
 40
0.6475876647406416
 40
0.6546262824238689
 40
0.661665256483653
 40
0.66870457833787
 40
0.6757442420911566
 40
0.68278424449968
 40
0.6898245849405127
 40
0.6968652653844326
 40
0.703906290373668
 40
0.710947667004377
 40
0.717989404914094
 40
0.725031516274431
 40
0.7320740157897269
 40
0.7391169207014752
 40
0.7461602507992289
 40
0.753204028438297
 40
0.760248278564349
 40
0.7672930287459979
 40
0.7743383092149716
 40
0.7813841529154694
 40
0.7884305955621275
 40
0.7954776757082741
 40
0.8025254348245682
 40
0.8095739173890047
 40
0.8166231709891568
 40
0.8236732464378606
 40
0.8307241979030086
 40
0.83777608305317
 40
0.8448289632203122
 40
0.8518829035809338
 40
0.8589379733578584
 40
0.8659942460444456
 40
0.8730517996536504
 40
0.8801107169943575
 40
0.8871710859781126
 40
0.8942329999598602
 40
0.9012965581160286
 40
0.9083618658650615
 40
0.915429035334748
 40
0.9224981858830239
 40
0.9295694446784885
 40
0.9366429473486757
 40
0.9437188387051341
 40
0.950797273556069
 40
0.9578784176190799
 40
0.9649624485478636
 40
0.972049557091248
 40
0.9791399484036776
 40
0.9862338435319181
 40
0.9933314811065546
 40
1.0
 40
1.0
 40
1.0
 40
1.0
 10
597.706163636423
 20
179.7420071082972
 30
0.0
 10
597.6741256331471
 20
179.7234012315643
 30
0.0
 10
597.5876334389719
 20
179.6731714126418
 30
0.0
 10
597.4481885994588
 20
179.5886964511613
 30
0.0
 10
597.2876846885267
 20
179.4888261901333
 30
0.0
 10
597.1285791835465
 20
179.3864877580129
 30
0.0
 10
596.97080595192
 20
179.2818189013133
 30
0.0
 10
596.8143973128606
 20
179.1747877583715
 30
0.0
 10
596.6593592630452
 20
179.0654080539802
 30
0.0
 10
596.5057049385432
 20
178.9536814168221
 30
0.0
 10
596.353445649271
 20
178.8396128616998
 30
0.0
 10
596.2025932884894
 20
178.7232066546241
 30
0.0
 10
596.0531596908966
 20
178.6044674388251
 30
0.0
 10
595.9051568076993
 20
178.4833999505516
 30
0.0
 10
595.7585966612775
 20
178.3600091134737
 30
0.0
 10
595.6134913576101
 20
178.2343000318503
 30
0.0
 10
595.4698530818439
 20
178.1062780110151
 30
0.0
 10
595.3276940970109
 20
177.9759485705686
 30
0.0
 10
595.1870267405305
 20
177.8433174594237
 30
0.0
 10
595.0478634199523
 20
177.7083906701168
 30
0.0
 10
594.9102166075684
 20
177.5711744529405
 30
0.0
 10
594.7740988340388
 20
177.4316753296191
 30
0.0
 10
594.6395226810284
 20
177.289900106469
 30
0.0
 10
594.5065007729198
 20
177.1458558869377
 30
0.0
 10
594.375045767646
 20
176.9995500834286
 30
0.0
 10
594.2451703467092
 20
176.8509904283286
 30
0.0
 10
594.1168872044511
 20
176.7001849841558
 30
0.0
 10
593.9902090366458
 20
176.5471421527575
 30
0.0
 10
593.8651485284969
 20
176.391870683493
 30
0.0
 10
593.7417183421207
 20
176.2343796803518
 30
0.0
 10
593.6199311035987
 20
176.0746786079559
 30
0.0
 10
593.4997993896931
 20
175.9127772964193
 30
0.0
 10
593.3813357143099
 20
175.7486859450322
 30
0.0
 10
593.2645525148077
 20
175.5824151247654
 30
0.0
 10
593.1494621382349
 20
175.4139757795822
 30
0.0
 10
593.0360768275929
 20
175.2433792265726
 30
0.0
 10
592.9244087082081
 20
175.0706371549213
 30
0.0
 10
592.8144697742999
 20
174.8957616237398
 30
0.0
 10
592.7062718758243
 20
174.7187650587969
 30
0.0
 10
592.5998267056709
 20
174.5396602481892
 30
0.0
 10
592.4951457872847
 20
174.3584603370109
 30
0.0
 10
592.3922404627772
 20
174.1751788210696
 30
0.0
 10
592.2911218815874
 20
173.989829539727
 30
0.0
 10
592.1918009897461
 20
173.802426667923
 30
0.0
 10
592.0942885197869
 20
173.6129847074636
 30
0.0
 10
591.9985949813453
 20
173.4215184776464
 30
0.0
 10
591.9047306524752
 20
173.2280431053048
 30
0.0
 10
591.8127055717093
 20
173.0325740143515
 30
0.0
 10
591.7225295308788
 20
172.8351269149005
 30
0.0
 10
591.634212068702
 20
172.6357177920492
 30
0.0
 10
591.5477624651486
 20
172.4343628943987
 30
0.0
 10
591.4631897365723
 20
172.2310787223878
 30
0.0
 10
591.3805026316071
 20
172.0258820165168
 30
0.0
 10
591.2997096278118
 20
171.818789745529
 30
0.0
 10
591.2208189290408
 20
171.6098190946168
 30
0.0
 10
591.1438384635231
 20
171.3989874537138
 30
0.0
 10
591.0687758826165
 20
171.18631240593
 30
0.0
 10
590.9956385602096
 20
170.971811716184
 30
0.0
 10
590.9244335927368
 20
170.7555033200742
 30
0.0
 10
590.85516779977
 20
170.5374053130361
 30
0.0
 10
590.78784772515
 20
170.317535939818
 30
0.0
 10
590.7224796386178
 20
170.0959135843075
 30
0.0
 10
590.6590695379074
 20
169.8725567597346
 30
0.0
 10
590.5976231512582
 20
169.6474840992736
 30
0.0
 10
590.5381459403097
 20
169.4207143470572
 30
0.0
 10
590.4806431033362
 20
169.1922663496181
 30
0.0
 10
590.4251195787842
 20
168.9621590477608
 30
0.0
 10
590.3715800490755
 20
168.7304114688734
 30
0.0
 10
590.3200289446393
 20
168.4970427196734
 30
0.0
 10
590.270470448137
 20
168.2620719793878
 30
0.0
 10
590.2229084988495
 20
168.02551849336
 30
0.0
 10
590.1773467971938
 20
167.7874015670738
 30
0.0
 10
590.1337888093401
 20
167.5477405605859
 30
0.0
 10
590.0922377719036
 20
167.3065548833495
 30
0.0
 10
590.0526966966831
 20
167.0638639894175
 30
0.0
 10
590.015168375428
 20
166.8196873730074
 30
0.0
 10
589.9796553846061
 20
166.5740445644095
 30
0.0
 10
589.9461600901612
 20
166.3269551262218
 30
0.0
 10
589.9146846522373
 20
166.0784386498906
 30
0.0
 10
589.8852310298582
 20
165.8285147525379
 30
0.0
 10
589.8578009855482
 20
165.5772030740549
 30
0.0
 10
589.8323960898823
 20
165.3245232744416
 30
0.0
 10
589.8090177259596
 20
165.0704950313729
 30
0.0
 10
589.7876670937865
 20
164.8151380379712
 30
0.0
 10
589.7683452145701
 20
164.5584720007631
 30
0.0
 10
589.7510529349123
 20
164.3005166378054
 30
0.0
 10
589.7357909309027
 20
164.0412916769553
 30
0.0
 10
589.7225597121097
 20
163.7808168542733
 30
0.0
 10
589.7113596281175
 20
163.5191119744863
 30
0.0
 10
589.7021908704273
 20
163.256196933045
 30
0.0
 10
589.6950534700717
 20
162.9920916246737
 30
0.0
 10
589.6899473010233
 20
162.7268158780772
 30
0.0
 10
589.6868720866694
 20
162.4603894309087
 30
0.0
 10
589.6858274064127
 20
162.1928320205877
 30
0.0
 10
589.6868126989621
 20
161.9241633839457
 30
0.0
 10
589.6898272655171
 20
161.654403256084
 30
0.0
 10
589.6948702728754
 20
161.3835713692032
 30
0.0
 10
589.7019407564675
 20
161.1116874513984
 30
0.0
 10
589.7110376233265
 20
160.8387712254084
 30
0.0
 10
589.7221596550028
 20
160.5648424073057
 30
0.0
 10
589.7353055104265
 20
160.2899207051116
 30
0.0
 10
589.7504737287325
 20
160.0140258173298
 30
0.0
 10
589.7676627320507
 20
159.7371774313772
 30
0.0
 10
589.7868708282767
 20
159.459395221908
 30
0.0
 10
589.8080962138287
 20
159.1806988490098
 30
0.0
 10
589.8313369764015
 20
158.9011079562646
 30
0.0
 10
589.8565910977319
 20
158.6206421686585
 30
0.0
 10
589.8838564563815
 20
158.3393210903274
 30
0.0
 10
589.9131308305539
 20
158.0571643021192
 30
0.0
 10
589.9444119009567
 20
157.7741913589629
 30
0.0
 10
589.9776972537217
 20
157.4904217870241
 30
0.0
 10
590.0129843833987
 20
157.2058750806299
 30
0.0
 10
590.0502706960373
 20
156.9205706989472
 30
0.0
 10
590.0895535123741
 20
156.6345280623856
 30
0.0
 10
590.1308300711405
 20
156.3477665487143
 30
0.0
 10
590.1740975325139
 20
156.0603054888559
 30
0.0
 10
590.2193529817282
 20
155.772164162341
 30
0.0
 10
590.2665934328694
 20
155.4833617923854
 30
0.0
 10
590.3158158328772
 20
155.1939175405639
 30
0.0
 10
590.3670170657825
 20
154.9038505010395
 30
0.0
 10
590.4201939572056
 20
154.613179694311
 30
0.0
 10
590.475343279149
 20
154.3219240604315
 30
0.0
 10
590.5324617551203
 20
154.0301024516493
 30
0.0
 10
590.591546065622
 20
153.7377336244143
 30
0.0
 10
590.6525928540524
 20
153.4448362306855
 30
0.0
 10
590.715598733065
 20
153.1514288084712
 30
0.0
 10
590.7805602914417
 20
152.8575297715159
 30
0.0
 10
590.8474741015361
 20
152.5631573980488
 30
0.0
 10
590.9163367273595
 20
152.2683298184877
 30
0.0
 10
590.9871447333828
 20
151.9730650019805
 30
0.0
 10
591.0598946941382
 20
151.6773807416517
 30
0.0
 10
591.1345832047382
 20
151.3812946383969
 30
0.0
 10
591.2112068923528
 20
151.0848240830582
 30
0.0
 10
591.2897624290307
 20
150.7879862367709
 30
0.0
 10
591.3702465450581
 20
150.4907980092551
 30
0.0
 10
591.4526560465763
 20
150.1932760347795
 30
0.0
 10
591.5369878243972
 20
149.8954366454954
 30
0.0
 10
591.6232389037325
 20
149.5972958417609
 30
0.0
 10
591.711406350309
 20
149.2988692591021
 30
0.0
 10
591.8014877231909
 20
149.0001721310615
 30
0.0
 10
591.8934794980336
 20
148.7012192483407
 30
0.0
 10
591.9873830831528
 20
148.4020249098544
 30
0.0
 10
592.0831824960279
 20
148.1026028787501
 30
0.0
 10
592.1809278966276
 20
147.8029662906387
 30
0.0
 10
592.278399962388
 20
147.5092266509823
 30
0.0
 10
592.3442393054182
 20
147.3153659971266
 30
0.0
 10
592.376132804809
 20
147.2214571827142
 30
0.0
  0
LINE
  5
E1
330
1F
100
AcDbEntity
  8
0
  6
Continuous
 62
     7
370
    30
100
AcDbLine
 10
602.696834263
 20
182.6235374727
 30
0.0
 11
597.7470867947
 21
179.7661090813
 31
0.0
  0
LINE
  5
E2
330
1F
100
AcDbEntity
  8
0
  6
Continuous
 62
     7
370
    30
100
AcDbLine
 10
635.2440392686
 20
114.8124444027
 30
0.0
 11
640.1937867369
 21
117.6698727941
 31
0.0
  0
LINE
  5
E3
330
1F
100
AcDbEntity
  8
0
  6
Continuous
 62
     7
370
    30
100
AcDbLine
 10
609.579872993
 20
157.1529631931
 30
0.0
 11
609.5768118203
 21
157.1511978179
 31
0.0
  0
LWPOLYLINE
  5
E4
330
1F
100
AcDbEntity
  8
0
  6
Continuous
 62
     7
370
    30
100
AcDbPolyline
 90
        3
 70
   128
 43
0.0
 10
621.5758366119
 20
136.3660251207
 10
621.5763242161
 20
136.3663066544
 10
621.5937187098
 20
136.3764099482
  0
LWPOLYLINE
  5
E5
330
1F
100
AcDbEntity
  8
0
  6
Continuous
 62
     7
370
    30
100
AcDbPolyline
 90
        3
 70
   128
 43
0.0
 10
597.7826486024
 20
179.7865607562
 10
597.7455630316
 20
179.7652292886
 10
597.708079283
 20
179.743496641
  0
LWPOLYLINE
  5
E6
330
1F
100
AcDbEntity
  8
0
  6
Continuous
 62
     7
370
    30
100
AcDbPolyline
 90
        3
 70
   128
 43
0.0
 10
635.2050054799
 20
114.7900042954
 10
635.2455630317
 20
114.8133241954
 10
635.2812712368
 20
114.8340234832
  0
LWPOLYLINE
  5
E7
330
1F
100
AcDbEntity
  8
0
  6
Continuous
 62
     7
370
    30
100
AcDbPolyline
 90
      122
 70
   128
 43
0.0
 10
640.1937867369
 20
117.6698727941
 10
640.1953105
 20
117.6707525868
 10
640.679703124
 20
117.9653164682
 10
641.1509134562
 20
118.281935866
 10
641.6086185524
 20
118.6203937849
 10
642.0525047244
 20
118.9804582629
 10
642.4822677549
 20
119.3618825297
 10
642.8976131056
 20
119.7644051761
 10
643.2982561198
 20
120.1877503333
 10
643.6839222166
 20
120.6316278617
 10
644.0543470797
 20
121.0957335497
 10
644.4092768386
 20
121.5797493225
 10
644.748468242
 20
122.0833434598
 10
645.071688825
 20
122.6061708235
 10
645.3787170686
 20
123.1478730937
 10
645.6693425508
 20
123.7080790147
 10
645.9433660914
 20
124.2864046495
 10
646.2005998884
 20
124.8824536424
 10
646.4408676467
 20
125.4958174914
 10
646.6640046986
 20
126.1260758274
 10
646.8698581173
 20
126.7727967029
 10
647.0582868209
 20
127.4355368876
 10
647.22916167
 20
128.1138421726
 10
647.3823655555
 20
128.8072476814
 10
647.517793479
 20
129.5152781883
 10
647.635352625
 20
130.2374484447
 10
647.7349624243
 20
130.9732635111
 10
647.8165546095
 20
131.7222190967
 10
647.8800732612
 20
132.4838019047
 10
647.9254748469
 20
133.2574899843
 10
647.9527282507
 20
134.0427530883
 10
647.9618147945
 20
134.8390530367
 10
647.9527282507
 20
135.6458440852
 10
647.9254748469
 20
136.4625732994
 10
647.8800732612
 20
137.2886809341
 10
647.8165546095
 20
138.1236008164
 10
647.7349624243
 20
138.9667607337
 10
647.635352625
 20
139.8175828265
 10
647.517793479
 20
140.6754839838
 10
647.3823655555
 20
141.5398762429
 10
647.22916167
 20
142.4101671927
 10
647.0582868209
 20
143.2857603791
 10
646.8698581173
 20
144.1660557143
 10
646.6640046986
 20
145.0504498879
 10
646.4408676467
 20
145.9383367803
 10
646.2005998884
 20
146.8291078781
 10
645.9433660914
 20
147.7221526914
 10
645.6693425508
 20
148.6168591718
 10
645.3787170686
 20
149.5126141322
 10
645.071688825
 20
150.4088036669
 10
644.748468242
 20
151.3048135724
 10
644.4092768386
 20
152.2000297682
 10
644.0543470797
 20
153.0938387179
 10
643.6839222166
 20
153.9856278494
 10
643.2982561198
 20
154.874785975
 10
642.8976131056
 20
155.7607037102
 10
642.4822677549
 20
156.6427738912
 10
642.0525047244
 20
157.5203919912
 10
641.6086185524
 20
158.3929565345
 10
641.1509134562
 20
159.2598695091
 10
640.679703124
 20
160.1205367759
 10
640.1953105
 20
160.9743684768
 10
639.6980675625
 20
161.820779438
 10
639.1883150971
 20
162.6591895719
 10
638.6664024626
 20
163.489024274
 10
638.1326873519
 20
164.3097148169
 10
637.5875355466
 20
165.1206987405
 10
637.0313206666
 20
165.9214202368
 10
636.4644239138
 20
166.7113305314
 10
635.8872338109
 20
167.4898882592
 10
635.3001459351
 20
168.2565598355
 10
634.7035626472
 20
169.010819822
 10
634.0978928155
 20
169.7521512867
 10
633.483551536
 20
170.4800461578
 10
632.8609598473
 20
171.1940055727
 10
632.2305444428
 20
171.8935402191
 10
631.5927373777
 20
172.5781706711
 10
630.9479757731
 20
173.2474277171
 10
630.2967015164
 20
173.9008526818
 10
629.6393609584
 20
174.5379977402
 10
628.9764046075
 20
175.1584262251
 10
628.3082868209
 20
175.7617129257
 10
627.6354654932
 20
176.3474443795
 10
626.9584017424
 20
176.9152191553
 10
626.2775595943
 20
177.4646481287
 10
625.593405664
 20
177.9953547486
 10
624.9064088365
 20
178.5069752951
 10
624.2170399451
 20
178.9991591291
 10
623.5257714488
 20
179.4715689323
 10
622.8330771084
 20
179.9238809386
 10
622.1394316622
 20
180.3557851561
 10
621.4453105
 20
180.7669855791
 10
620.7511893377
 20
181.1572003914
 10
620.0575438915
 20
181.5261621593
 10
619.3648495511
 20
181.8736180147
 10
618.6735810548
 20
182.1993298289
 10
617.9842121634
 20
182.5030743751
 10
617.2972153359
 20
182.7846434821
 10
616.6130614056
 20
183.0438441765
 10
615.9322192575
 20
183.280498815
 10
615.2551555067
 20
183.4944452064
 10
614.582334179
 20
183.6855367226
 10
613.9142163924
 20
183.8536423988
 10
613.2512600415
 20
183.9986470239
 10
612.5939194835
 20
184.120451219
 10
611.9426452268
 20
184.2189715056
 10
611.2978836222
 20
184.2941403628
 10
610.6600765571
 20
184.3459062735
 10
610.0296611526
 20
184.3742337601
 10
609.4070694639
 20
184.3791034082
 10
608.7927281844
 20
184.3605118805
 10
608.1870583527
 20
184.3184719187
 10
607.5904750648
 20
184.2530123349
 10
607.003387189
 20
184.1641779917
 10
606.4261970861
 20
184.0520297719
 10
605.8593003333
 20
183.9166445362
 10
605.3030854533
 20
183.7581150708
 10
604.7579336481
 20
183.576550024
 10
604.2242185374
 20
183.3720738314
 10
603.7023059029
 20
183.1448266307
 10
603.1925534374
 20
182.8949641658
 10
602.696834263
 20
182.6235374727
  0
ENDSEC
  0
SECTION
  2
OBJECTS
  0
DICTIONARY
  5
C
330
0
100
AcDbDictionary
281
     1
  3
ACAD_GROUP
350
D
  3
ACAD_LAYOUT
350
1A
  3
ACAD_MLINESTYLE
350
17
  3
ACAD_PLOTSETTINGS
350
19
  3
ACAD_PLOTSTYLENAME
350
E
  3
ACAD_SCALELIST
350
47
  0
DICTIONARY
  5
D
102
{ACAD_REACTORS
330
C
102
}
330
C
100
AcDbDictionary
281
     1
  0
DICTIONARY
  5
1A
102
{ACAD_REACTORS
330
C
102
}
330
C
100
AcDbDictionary
281
     1
  3
Layout1
350
1E
  3
Layout2
350
26
  3
Model
350
22
  0
DICTIONARY
  5
17
102
{ACAD_REACTORS
330
C
102
}
330
C
100
AcDbDictionary
281
     1
  3
Standard
350
18
  0
DICTIONARY
  5
19
102
{ACAD_REACTORS
330
C
102
}
330
C
100
AcDbDictionary
281
     1
  0
ACDBDICTIONARYWDFLT
  5
E
102
{ACAD_REACTORS
330
C
102
}
330
C
100
AcDbDictionary
281
     1
  3
Normal
350
F
100
AcDbDictionaryWithDefault
340
F
  0
DICTIONARY
  5
47
102
{ACAD_REACTORS
330
C
102
}
330
C
100
AcDbDictionary
281
     1
  3
A0
350
48
  3
A1
350
49
  3
A2
350
4A
  3
A3
350
4B
  3
A4
350
4C
  3
A5
350
4D
  3
A6
350
4E
  3
A7
350
4F
  3
A8
350
50
  3
A9
350
51
  3
B0
350
52
  3
B1
350
53
  3
B2
350
54
  3
B3
350
55
  3
B4
350
56
  3
B5
350
57
  3
B6
350
58
  3
B7
350
59
  3
B8
350
5A
  3
B9
350
5B
  3
C0
350
5C
  3
C1
350
5D
  3
C2
350
5E
  3
C3
350
5F
  3
C4
350
60
  3
C5
350
61
  3
C6
350
62
  3
C7
350
63
  3
C8
350
64
  3
C9
350
65
  3
D0
350
66
  3
D1
350
67
  3
D2
350
68
  0
LAYOUT
  5
1E
102
{ACAD_REACTORS
330
1A
102
}
330
1A
100
AcDbPlotSettings
  1

  2
none_device
  4

  6

 40
0.0
 41
0.0
 42
0.0
 43
0.0
 44
0.0
 45
0.0
 46
0.0
 47
0.0
 48
0.0
 49
0.0
140
0.0
141
0.0
142
1.0
143
1.0
 70
   688
 72
     1
 73
     0
 74
     5
  7

 75
    16
147
1.0
148
0.0
149
0.0
100
AcDbLayout
  1
Layout1
 70
     1
 71
     1
 10
0.0
 20
0.0
 11
420.0
 21
297.0
 12
0.0
 22
0.0
 32
0.0
 14
1.0000000000E+20
 24
1.0000000000E+20
 34
1.0000000000E+20
 15
-1.0000000000E+20
 25
-1.0000000000E+20
 35
-1.0000000000E+20
146
0.0
 13
0.0
 23
0.0
 33
0.0
 16
1.0
 26
0.0
 36
0.0
 17
0.0
 27
1.0
 37
0.0
 76
     0
330
1B
  0
LAYOUT
  5
26
102
{ACAD_REACTORS
330
1A
102
}
330
1A
100
AcDbPlotSettings
  1

  2
none_device
  4

  6

 40
0.0
 41
0.0
 42
0.0
 43
0.0
 44
0.0
 45
0.0
 46
0.0
 47
0.0
 48
0.0
 49
0.0
140
0.0
141
0.0
142
1.0
143
1.0
 70
   688
 72
     1
 73
     0
 74
     5
  7

 75
    16
147
1.0
148
0.0
149
0.0
100
AcDbLayout
  1
Layout2
 70
     1
 71
     2
 10
0.0
 20
0.0
 11
0.0
 21
0.0
 12
0.0
 22
0.0
 32
0.0
 14
0.0
 24
0.0
 34
0.0
 15
0.0
 25
0.0
 35
0.0
146
0.0
 13
0.0
 23
0.0
 33
0.0
 16
1.0
 26
0.0
 36
0.0
 17
0.0
 27
1.0
 37
0.0
 76
     0
330
23
  0
LAYOUT
  5
22
102
{ACAD_REACTORS
330
1A
102
}
330
1A
100
AcDbPlotSettings
  1

  2
none_device
  4
Letter_(8.50_x_11.00_Inches)
  6

 40
6.35
 41
6.35
 42
6.35000508
 43
6.35000508
 44
215.9
 45
279.4
 46
0.0
 47
0.0
 48
0.0
 49
0.0
140
0.0
141
0.0
142
1.0
143
1.0
 70
  1712
 72
     1
 73
     0
 74
     0
  7

 75
     0
147
1.0
148
0.0
149
0.0
100
AcDbLayout
  1
Model
 70
     1
 71
     0
 10
0.0
 20
0.0
 11
675.0
 21
357.0
 12
0.0
 22
0.0
 32
0.0
 14
0.0
 24
0.0
 34
0.0
 15
675.0
 25
357.0
 35
0.0
146
0.0
 13
0.0
 23
0.0
 33
0.0
 16
1.0
 26
0.0
 36
0.0
 17
0.0
 27
1.0
 37
0.0
 76
     0
330
1F
331
29
  0
MLINESTYLE
  5
18
102
{ACAD_REACTORS
330
17
102
}
330
17
100
AcDbMlineStyle
  2
Standard
 70
     0
  3

 62
   256
 51
90.0
 52
90.0
 71
     2
 49
0.5
 62
   256
  6
BYLAYER
 49
-0.5
 62
   256
  6
BYLAYER
  0
ACDBPLACEHOLDER
  5
F
102
{ACAD_REACTORS
330
E
102
}
330
E
  0
SCALE
  5
48
102
{ACAD_REACTORS
330
47
102
}
330
47
100
AcDbScale
 70
     0
300
1:1
140
1.0
141
1.0
290
     1
  0
SCALE
  5
49
102
{ACAD_REACTORS
330
47
102
}
330
47
100
AcDbScale
 70
     0
300
1:2
140
1.0
141
2.0
290
     0
  0
SCALE
  5
4A
102
{ACAD_REACTORS
330
47
102
}
330
47
100
AcDbScale
 70
     0
300
1:4
140
1.0
141
4.0
290
     0
  0
SCALE
  5
4B
102
{ACAD_REACTORS
330
47
102
}
330
47
100
AcDbScale
 70
     0
300
1:5
140
1.0
141
5.0
290
     0
  0
SCALE
  5
4C
102
{ACAD_REACTORS
330
47
102
}
330
47
100
AcDbScale
 70
     0
300
1:8
140
1.0
141
8.0
290
     0
  0
SCALE
  5
4D
102
{ACAD_REACTORS
330
47
102
}
330
47
100
AcDbScale
 70
     0
300
1:10
140
1.0
141
10.0
290
     0
  0
SCALE
  5
4E
102
{ACAD_REACTORS
330
47
102
}
330
47
100
AcDbScale
 70
     0
300
1:16
140
1.0
141
16.0
290
     0
  0
SCALE
  5
4F
102
{ACAD_REACTORS
330
47
102
}
330
47
100
AcDbScale
 70
     0
300
1:20
140
1.0
141
20.0
290
     0
  0
SCALE
  5
50
102
{ACAD_REACTORS
330
47
102
}
330
47
100
AcDbScale
 70
     0
300
1:30
140
1.0
141
30.0
290
     0
  0
SCALE
  5
51
102
{ACAD_REACTORS
330
47
102
}
330
47
100
AcDbScale
 70
     0
300
1:40
140
1.0
141
40.0
290
     0
  0
SCALE
  5
52
102
{ACAD_REACTORS
330
47
102
}
330
47
100
AcDbScale
 70
     0
300
1:50
140
1.0
141
50.0
290
     0
  0
SCALE
  5
53
102
{ACAD_REACTORS
330
47
102
}
330
47
100
AcDbScale
 70
     0
300
1:100
140
1.0
141
100.0
290
     0
  0
SCALE
  5
54
102
{ACAD_REACTORS
330
47
102
}
330
47
100
AcDbScale
 70
     0
300
2:1
140
2.0
141
1.0
290
     0
  0
SCALE
  5
55
102
{ACAD_REACTORS
330
47
102
}
330
47
100
AcDbScale
 70
     0
300
4:1
140
4.0
141
1.0
290
     0
  0
SCALE
  5
56
102
{ACAD_REACTORS
330
47
102
}
330
47
100
AcDbScale
 70
     0
300
8:1
140
8.0
141
1.0
290
     0
  0
SCALE
  5
57
102
{ACAD_REACTORS
330
47
102
}
330
47
100
AcDbScale
 70
     0
300
10:1
140
10.0
141
1.0
290
     0
  0
SCALE
  5
58
102
{ACAD_REACTORS
330
47
102
}
330
47
100
AcDbScale
 70
     0
300
100:1
140
100.0
141
1.0
290
     0
  0
SCALE
  5
59
102
{ACAD_REACTORS
330
47
102
}
330
47
100
AcDbScale
 70
     0
300
1/128" = 1'-0"
140
0.0078125
141
12.0
290
     0
  0
SCALE
  5
5A
102
{ACAD_REACTORS
330
47
102
}
330
47
100
AcDbScale
 70
     0
300
1/64" = 1'-0"
140
0.015625
141
12.0
290
     0
  0
SCALE
  5
5B
102
{ACAD_REACTORS
330
47
102
}
330
47
100
AcDbScale
 70
     0
300
1/32" = 1'-0"
140
0.03125
141
12.0
290
     0
  0
SCALE
  5
5C
102
{ACAD_REACTORS
330
47
102
}
330
47
100
AcDbScale
 70
     0
300
1/16" = 1'-0"
140
0.0625
141
12.0
290
     0
  0
SCALE
  5
5D
102
{ACAD_REACTORS
330
47
102
}
330
47
100
AcDbScale
 70
     0
300
3/32" = 1'-0"
140
0.09375
141
12.0
290
     0
  0
SCALE
  5
5E
102
{ACAD_REACTORS
330
47
102
}
330
47
100
AcDbScale
 70
     0
300
1/8" = 1'-0"
140
0.125
141
12.0
290
     0
  0
SCALE
  5
5F
102
{ACAD_REACTORS
330
47
102
}
330
47
100
AcDbScale
 70
     0
300
3/16" = 1'-0"
140
0.1875
141
12.0
290
     0
  0
SCALE
  5
60
102
{ACAD_REACTORS
330
47
102
}
330
47
100
AcDbScale
 70
     0
300
1/4" = 1'-0"
140
0.25
141
12.0
290
     0
  0
SCALE
  5
61
102
{ACAD_REACTORS
330
47
102
}
330
47
100
AcDbScale
 70
     0
300
3/8" = 1'-0"
140
0.375
141
12.0
290
     0
  0
SCALE
  5
62
102
{ACAD_REACTORS
330
47
102
}
330
47
100
AcDbScale
 70
     0
300
1/2" = 1'-0"
140
0.5
141
12.0
290
     0
  0
SCALE
  5
63
102
{ACAD_REACTORS
330
47
102
}
330
47
100
AcDbScale
 70
     0
300
3/4" = 1'-0"
140
0.75
141
12.0
290
     0
  0
SCALE
  5
64
102
{ACAD_REACTORS
330
47
102
}
330
47
100
AcDbScale
 70
     0
300
1" = 1'-0"
140
1.0
141
12.0
290
     0
  0
SCALE
  5
65
102
{ACAD_REACTORS
330
47
102
}
330
47
100
AcDbScale
 70
     0
300
1-1/2" = 1'-0"
140
1.5
141
12.0
290
     0
  0
SCALE
  5
66
102
{ACAD_REACTORS
330
47
102
}
330
47
100
AcDbScale
 70
     0
300
3" = 1'-0"
140
3.0
141
12.0
290
     0
  0
SCALE
  5
67
102
{ACAD_REACTORS
330
47
102
}
330
47
100
AcDbScale
 70
     0
300
6" = 1'-0"
140
6.0
141
12.0
290
     0
  0
SCALE
  5
68
102
{ACAD_REACTORS
330
47
102
}
330
47
100
AcDbScale
 70
     0
300
1'-0" = 1'-0"
140
12.0
141
12.0
290
     0
  0
ENDSEC
  0
EOF
