  0
SECTION
  2
HEADER
  9
$ACADVER
  1
AC1015
  9
$ACADMAINTVER
 70
     6
  9
$DWGCODEPAGE
  3
ANSI_1252
  9
$INSBASE
 10
0.0
 20
0.0
 30
0.0
  9
$EXTMIN
 10
0.0
 20
0.0
 30
0.0
  9
$EXTMAX
 10
428.0
 20
325.0
 30
0.0
  9
$LIMMIN
 10
0.0
 20
0.0
  9
$LIMMAX
 10
428.0
 20
325.0
  9
$ORTHOMODE
 70
     0
  9
$REGENMODE
 70
     1
  9
$FILLMODE
 70
     1
  9
$QTEXTMODE
 70
     0
  9
$MIRRTEXT
 70
     1
  9
$LTSCALE
 40
1.0
  9
$ATTMODE
 70
     1
  9
$TEXTSIZE
 40
3.5
  9
$TRACEWID
 40
1.0
  9
$TEXTSTYLE
  7
Standard
  9
$CLAYER
  8
0
  9
$CELTYPE
  6
ByLayer
  9
$CECOLOR
 62
   256
  9
$CELTSCALE
 40
1.0
  9
$DISPSILH
 70
     0
  9
$DIMSCALE
 40
1.0
  9
$DIMASZ
 40
3.302
  9
$DIMEXO
 40
1.0
  9
$DIMDLI
 40
3.75
  9
$DIMRND
 40
0.0
  9
$DIMDLE
 40
0.0
  9
$DIMEXE
 40
1.0
  9
$DIMTP
 40
0.0
  9
$DIMTM
 40
0.0
  9
$DIMTXT
 40
2.8
  9
$DIMCEN
 40
2.5
  9
$DIMTSZ
 40
0.0
  9
$DIMTOL
 70
     0
  9
$DIMLIM
 70
     0
  9
$DIMTIH
 70
     1
  9
$DIMTOH
 70
     1
  9
$DIMSE1
 70
     0
  9
$DIMSE2
 70
     0
  9
$DIMTAD
 70
     1
  9
$DIMZIN
 70
     0
  9
$DIMBLK
  1

  9
$DIMASO
 70
     1
  9
$DIMSHO
 70
     1
  9
$DIMPOST
  1

  9
$DIMAPOST
  1

  9
$DIMALT
 70
     0
  9
$DIMALTD
 70
     3
  9
$DIMALTF
 40
0.0393700787
  9
$DIMLFAC
 40
1.0
  9
$DIMTOFL
 70
     1
  9
$DIMTVP
 40
0.0
  9
$DIMTIX
 70
     0
  9
$DIMSOXD
 70
     0
  9
$DIMSAH
 70
     0
  9
$DIMBLK1
  1

  9
$DIMBLK2
  1

  9
$DIMSTYLE
  2
ISO-25
  9
$DIMCLRD
 70
     0
  9
$DIMCLRE
 70
     0
  9
$DIMCLRT
 70
     0
  9
$DIMTFAC
 40
1.0
  9
$DIMGAP
 40
1.524
  9
$DIMJUST
 70
     0
  9
$DIMSD1
 70
     0
  9
$DIMSD2
 70
     0
  9
$DIMTOLJ
 70
     0
  9
$DIMTZIN
 70
     0
  9
$DIMALTZ
 70
     0
  9
$DIMALTTZ
 70
     0
  9
$DIMUPT
 70
     0
  9
$DIMDEC
 70
     2
  9
$DIMTDEC
 70
     2
  9
$DIMALTU
 70
     2
  9
$DIMALTTD
 70
     3
  9
$DIMTXSTY
  7
Standard
  9
$DIMAUNIT
 70
     0
  9
$DIMADEC
 70
     2
  9
$DIMALTRND
 40
0.0
  9
$DIMAZIN
 70
     0
  9
$DIMDSEP
 70
    44
  9
$DIMATFIT
 70
     3
  9
$DIMFRAC
 70
     0
  9
$DIMLDRBLK
  1

  9
$DIMLUNIT
 70
     2
  9
$DIMLWD
 70
    -2
  9
$DIMLWE
 70
    -2
  9
$DIMTMOVE
 70
     0
  9
$LUNITS
 70
     2
  9
$LUPREC
 70
     2
  9
$SKETCHINC
 40
1.0
  9
$FILLETRAD
 40
10.0
  9
$AUNITS
 70
     0
  9
$AUPREC
 70
     2
  9
$MENU
  1
.
  9
$ELEVATION
 40
0.0
  9
$PELEVATION
 40
0.0
  9
$THICKNESS
 40
0.0
  9
$LIMCHECK
 70
     0
  9
$CHAMFERA
 40
0.0
  9
$CHAMFERB
 40
0.0
  9
$CHAMFERC
 40
0.0
  9
$CHAMFERD
 40
0.0
  9
$SKPOLY
 70
     0
  9
$TDCREATE
 40
2460355.449457836
  9
$TDUCREATE
 40
2460355.366124502
  9
$TDUPDATE
 40
2460355.449458021
  9
$TDUUPDATE
 40
2460355.366124688
  9
$TDINDWG
 40
0.0000000116
  9
$TDUSRTIMER
 40
0.0000000116
  9
$USRTIMER
 70
     1
  9
$ANGBASE
 50
0.0
  9
$ANGDIR
 70
     0
  9
$PDMODE
 70
     0
  9
$PDSIZE
 40
-1.0
  9
$PLINEWID
 40
0.0
  9
$SPLFRAME
 70
     0
  9
$SPLINETYPE
 70
     6
  9
$SPLINESEGS
 70
     8
  9
$HANDSEED
  5
D4
  9
$SURFTAB1
 70
     6
  9
$SURFTAB2
 70
     6
  9
$SURFTYPE
 70
     6
  9
$SURFU
 70
     6
  9
$SURFV
 70
     6
  9
$UCSBASE
  2

  9
$UCSNAME
  2

  9
$UCSORG
 10
0.0
 20
0.0
 30
0.0
  9
$UCSXDIR
 10
1.0
 20
0.0
 30
0.0
  9
$UCSYDIR
 10
0.0
 20
1.0
 30
0.0
  9
$UCSORTHOREF
  2

  9
$UCSORTHOVIEW
 70
     0
  9
$UCSORGTOP
 10
0.0
 20
0.0
 30
0.0
  9
$UCSORGBOTTOM
 10
0.0
 20
0.0
 30
0.0
  9
$UCSORGLEFT
 10
0.0
 20
0.0
 30
0.0
  9
$UCSORGRIGHT
 10
0.0
 20
0.0
 30
0.0
  9
$UCSORGFRONT
 10
0.0
 20
0.0
 30
0.0
  9
$UCSORGBACK
 10
0.0
 20
0.0
 30
0.0
  9
$PUCSBASE
  2

  9
$PUCSNAME
  2

  9
$PUCSORG
 10
0.0
 20
0.0
 30
0.0
  9
$PUCSXDIR
 10
1.0
 20
0.0
 30
0.0
  9
$PUCSYDIR
 10
0.0
 20
1.0
 30
0.0
  9
$PUCSORTHOREF
  2

  9
$PUCSORTHOVIEW
 70
     0
  9
$PUCSORGTOP
 10
0.0
 20
0.0
 30
0.0
  9
$PUCSORGBOTTOM
 10
0.0
 20
0.0
 30
0.0
  9
$PUCSORGLEFT
 10
0.0
 20
0.0
 30
0.0
  9
$PUCSORGRIGHT
 10
0.0
 20
0.0
 30
0.0
  9
$PUCSORGFRONT
 10
0.0
 20
0.0
 30
0.0
  9
$PUCSORGBACK
 10
0.0
 20
0.0
 30
0.0
  9
$USERI1
 70
     0
  9
$USERI2
 70
     0
  9
$USERI3
 70
     0
  9
$USERI4
 70
     0
  9
$USERI5
 70
     0
  9
$USERR1
 40
0.0
  9
$USERR2
 40
0.0
  9
$USERR3
 40
0.0
  9
$USERR4
 40
0.0
  9
$USERR5
 40
0.0
  9
$WORLDVIEW
 70
     1
  9
$SHADEDGE
 70
     3
  9
$SHADEDIF
 70
    70
  9
$TILEMODE
 70
     1
  9
$MAXACTVP
 70
    64
  9
$PINSBASE
 10
0.0
 20
0.0
 30
0.0
  9
$PLIMCHECK
 70
     0
  9
$PEXTMIN
 10
1.0000000000E+20
 20
1.0000000000E+20
 30
1.0000000000E+20
  9
$PEXTMAX
 10
-1.0000000000E+20
 20
-1.0000000000E+20
 30
-1.0000000000E+20
  9
$PLIMMIN
 10
0.0
 20
0.0
  9
$PLIMMAX
 10
420.0
 20
297.0
  9
$UNITMODE
 70
     0
  9
$VISRETAIN
 70
     1
  9
$PLINEGEN
 70
     0
  9
$PSLTSCALE
 70
     1
  9
$TREEDEPTH
 70
  3020
  9
$CMLSTYLE
  2
Standard
  9
$CMLJUST
 70
     0
  9
$CMLSCALE
 40
20.0
  9
$PROXYGRAPHICS
 70
     1
  9
$MEASUREMENT
 70
     1
  9
$CELWEIGHT
370
    -1
  9
$ENDCAPS
280
     0
  9
$JOINSTYLE
280
     0
  9
$LWDISPLAY
290
     1
  9
$INSUNITS
 70
     4
  9
$HYPERLINKBASE
  1

  9
$STYLESHEET
  1

  9
$XEDIT
290
     1
  9
$CEPSNTYPE
380
     0
  9
$PSTYLEMODE
290
     1
  9
$FINGERPRINTGUID
  2
{BC5514CF-B540-4765-A1CE-6F118831EA5C}
  9
$VERSIONGUID
  2
{FAEB1C32-E019-11D5-929B-00C0DF256EC4}
  9
$EXTNAMES
290
     1
  9
$PSVPSCALE
 40
0.0
  9
$OLESTARTUP
290
     0
  0
ENDSEC
  0
SECTION
  2
CLASSES
  0
CLASS
  1
ACDBDICTIONARYWDFLT
  2
AcDbDictionaryWithDefault
  3
ObjectDBX Classes
 90
        0
280
     0
281
     0
  0
CLASS
  1
VISUALSTYLE
  2
AcDbVisualStyle
  3
ObjectDBX Classes
 90
     4095
280
     0
281
     0
  0
CLASS
  1
MATERIAL
  2
AcDbMaterial
  3
ObjectDBX Classes
 90
     1153
280
     0
281
     0
  0
CLASS
  1
SCALE
  2
AcDbScale
  3
ObjectDBX Classes
 90
     1153
280
     0
281
     0
  0
CLASS
  1
TABLESTYLE
  2
AcDbTableStyle
  3
ObjectDBX Classes
 90
     4095
280
     0
281
     0
  0
CLASS
  1
MLEADERSTYLE
  2
AcDbMLeaderStyle
  3
ACDB_MLEADERSTYLE_CLASS
 90
     4095
280
     0
281
     0
  0
CLASS
  1
SUN
  2
AcDbSun
  3
SCENEOE
 90
     1153
280
     0
281
     0
  0
CLASS
  1
ACDBPLACEHOLDER
  2
AcDbPlaceHolder
  3
ObjectDBX Classes
 90
        0
280
     0
281
     0
  0
CLASS
  1
LAYOUT
  2
AcDbLayout
  3
ObjectDBX Classes
 90
        0
280
     0
281
     0
  0
ENDSEC
  0
SECTION
  2
TABLES
  0
TABLE
  2
VPORT
  5
8
330
0
100
AcDbSymbolTable
 70
     1
  0
VPORT
  5
29
330
8
100
AcDbSymbolTableRecord
100
AcDbViewportTableRecord
  2
*Active
 70
     0
 10
0.0
 20
0.0
 11
1.0
 21
1.0
 12
214.0
 22
162.5
 13
0.0
 23
0.0
 14
10.0
 24
10.0
 15
10.0
 25
10.0
 16
0.0
 26
0.0
 36
1.0
 17
0.0
 27
0.0
 37
0.0
 40
325.0
 41
1.3169230769
 42
50.0
 43
0.0
 44
0.0
 50
0.0
 51
0.0
 71
     0
 72
  2000
 73
     1
 74
     3
 75
     0
 76
     0
 77
     0
 78
     0
281
     0
 65
     1
110
0.0
120
0.0
130
0.0
111
1.0
121
0.0
131
0.0
112
0.0
122
1.0
132
0.0
 79
     0
146
0.0
  0
ENDTAB
  0
TABLE
  2
LTYPE
  5
5
330
0
100
AcDbSymbolTable
 70
     6
  0
LTYPE
  5
14
330
5
100
AcDbSymbolTableRecord
100
AcDbLinetypeTableRecord
  2
ByBlock
 70
     0
  3

 72
    65
 73
     0
 40
0.0
  0
LTYPE
  5
15
330
5
100
AcDbSymbolTableRecord
100
AcDbLinetypeTableRecord
  2
ByLayer
 70
     0
  3

 72
    65
 73
     0
 40
0.0
  0
LTYPE
  5
16
330
5
100
AcDbSymbolTableRecord
100
AcDbLinetypeTableRecord
  2
Continuous
 70
     0
  3
Solid line
 72
    65
 73
     0
 40
0.0
  0
LTYPE
  5
6E
330
5
100
AcDbSymbolTableRecord
100
AcDbLinetypeTableRecord
  2
HIDDEN
 70
     0
  3
Hidden __ __ __ __ __ __ __ __ __ __ __ __ __ __
 72
    65
 73
     2
 40
1.905
 49
1.27
 74
     0
 49
-0.635
 74
     0
  0
LTYPE
  5
6F
330
5
100
AcDbSymbolTableRecord
100
AcDbLinetypeTableRecord
  2
PHANTOM
 70
     0
  3
Phantom ______  __  __  ______  __  __  ______
 72
    65
 73
     6
 40
12.7
 49
6.35
 74
     0
 49
-1.27
 74
     0
 49
1.27
 74
     0
 49
-1.27
 74
     0
 49
1.27
 74
     0
 49
-1.27
 74
     0
  0
LTYPE
  5
70
330
5
100
AcDbSymbolTableRecord
100
AcDbLinetypeTableRecord
  2
CENTER
 70
     0
  3
Center ____ _ ____ _ ____ _ ____ _ ____ _ ____
 72
    65
 73
     4
 40
10.16
 49
6.35
 74
     0
 49
-1.27
 74
     0
 49
1.27
 74
     0
 49
-1.27
 74
     0
  0
LTYPE
  5
71
330
5
100
AcDbSymbolTableRecord
100
AcDbLinetypeTableRecord
  2
CENTERX2
 70
     0
  3
Center (2x) ________  __  ________  __  _____
 72
    65
 73
     4
 40
20.32
 49
12.7
 74
     0
 49
-2.54
 74
     0
 49
2.54
 74
     0
 49
-2.54
 74
     0
  0
LTYPE
  5
72
330
5
100
AcDbSymbolTableRecord
100
AcDbLinetypeTableRecord
  2
DOT2
 70
     0
  3
Dot (.5x) ........................................
 72
    65
 73
     2
 40
0.635
 49
0.0
 74
     0
 49
-0.635
 74
     0
  0
ENDTAB
  0
TABLE
  2
LAYER
  5
2
330
0
100
AcDbSymbolTable
 70
     2
  0
LAYER
  5
10
330
2
100
AcDbSymbolTableRecord
100
AcDbLayerTableRecord
  2
0
 70
     0
 62
     7
  6
Continuous
370
    -3
390
F
  0
LAYER
  5
73
330
2
100
AcDbSymbolTableRecord
100
AcDbLayerTableRecord
  2
FORMAT
 70
     0
 62
     7
  6
Continuous
370
    -3
390
F
  0
ENDTAB
  0
TABLE
  2
STYLE
  5
3
330
0
100
AcDbSymbolTable
 70
     2
  0
STYLE
  5
11
330
3
100
AcDbSymbolTableRecord
100
AcDbTextStyleTableRecord
  2
Standard
 70
     0
 40
0.0
 41
1.0
 50
0.0
 71
     0
 42
3.5
  3
txt
  4

  0
STYLE
  5
74
330
3
100
AcDbSymbolTableRecord
100
AcDbTextStyleTableRecord
  2
SLDTEXTSTYLE0
 70
     0
 40
0.0
 41
0.605
 50
0.0
 71
     0
 42
3.5
  3
TXT
  4

  0
ENDTAB
  0
TABLE
  2
VIEW
  5
6
330
0
100
AcDbSymbolTable
 70
     0
  0
ENDTAB
  0
TABLE
  2
UCS
  5
7
330
0
100
AcDbSymbolTable
 70
     0
  0
ENDTAB
  0
TABLE
  2
APPID
  5
9
330
0
100
AcDbSymbolTable
 70
     1
  0
APPID
  5
12
330
9
100
AcDbSymbolTableRecord
100
AcDbRegAppTableRecord
  2
ACAD
 70
     0
  0
ENDTAB
  0
TABLE
  2
DIMSTYLE
  5
A
330
0
100
AcDbSymbolTable
 70
     1
100
AcDbDimStyleTable
  0
DIMSTYLE
105
27
330
A
100
AcDbSymbolTableRecord
100
AcDbDimStyleTableRecord
  2
ISO-25
 70
     0
 41
2.5
 42
0.625
 43
3.75
 44
1.25
 73
     0
 74
     0
 77
     1
 78
     8
140
2.5
141
2.5
143
0.0393700787
147
0.625
171
     3
172
     1
178
     0
271
     2
272
     2
274
     3
278
    44
283
     0
284
     8
340
11
  0
ENDTAB
  0
TABLE
  2
BLOCK_RECORD
  5
1
330
0
100
AcDbSymbolTable
 70
     1
  0
BLOCK_RECORD
  5
1F
330
1
100
AcDbSymbolTableRecord
100
AcDbBlockTableRecord
  2
*Model_Space
340
22
  0
BLOCK_RECORD
  5
1B
330
1
100
AcDbSymbolTableRecord
100
AcDbBlockTableRecord
  2
*Paper_Space
340
1E
  0
BLOCK_RECORD
  5
23
330
1
100
AcDbSymbolTableRecord
100
AcDbBlockTableRecord
  2
*Paper_Space0
340
26
  0
ENDTAB
  0
ENDSEC
  0
SECTION
  2
BLOCKS
  0
BLOCK
  5
20
330
1F
100
AcDbEntity
  8
0
100
AcDbBlockBegin
  2
*Model_Space
 70
     0
 10
0.0
 20
0.0
 30
0.0
  3
*Model_Space
  1

  0
ENDBLK
  5
21
330
1F
100
AcDbEntity
  8
0
100
AcDbBlockEnd
  0
BLOCK
  5
1C
330
1B
100
AcDbEntity
 67
     1
  8
0
100
AcDbBlockBegin
  2
*Paper_Space
 70
     0
 10
0.0
 20
0.0
 30
0.0
  3
*Paper_Space
  1

  0
ENDBLK
  5
1D
330
1B
100
AcDbEntity
 67
     1
  8
0
100
AcDbBlockEnd
  0
BLOCK
  5
24
330
23
100
AcDbEntity
  8
0
100
AcDbBlockBegin
  2
*Paper_Space0
 70
     0
 10
0.0
 20
0.0
 30
0.0
  3
*Paper_Space0
  1

  0
ENDBLK
  5
25
330
23
100
AcDbEntity
  8
0
100
AcDbBlockEnd
  0
ENDSEC
  0
SECTION
  2
ENTITIES
  0
MTEXT
  5
75
330
1F
100
AcDbEntity
  8
0
  6
Continuous
 62
     7
370
     0
100
AcDbMText
 10
7.2782978723
 20
22.1884790273
 30
0.0
 40
10.0
 41
0.0
 71
     1
 72
     1
  1
1:1
  7
SLDTEXTSTYLE0
 73
     1
 44
1.0
  0
LINE
  5
76
330
1F
100
AcDbEntity
  8
0
  6
Continuous
 62
     7
370
    30
100
AcDbLine
 10
203.5
 20
240.2878573572
 30
0.0
 11
203.5
 21
233.7249319686
 31
0.0
  0
LINE
  5
77
330
1F
100
AcDbEntity
  8
0
  6
Continuous
 62
     7
370
    30
100
AcDbLine
 10
224.5
 20
233.7249319686
 30
0.0
 11
224.5
 21
240.2878573572
 31
0.0
  0
LINE
  5
78
330
1F
100
AcDbEntity
  8
0
  6
Continuous
 62
     7
370
    30
100
AcDbLine
 10
203.5225
 20
226.4088033625
 30
0.0
 11
204.6845
 21
225.7249319686
 31
0.0
  0
LINE
  5
79
330
1F
100
AcDbEntity
  8
0
  6
Continuous
 62
     7
370
    30
100
AcDbLine
 10
223.3155
 20
225.7249319686
 30
0.0
 11
224.4775
 21
226.4088033625
 31
0.0
  0
LINE
  5
7A
330
1F
100
AcDbEntity
  8
0
  6
Continuous
 62
     7
370
    30
100
AcDbLine
 10
203.5225
 20
233.7249319686
 30
0.0
 11
203.5225
 21
226.4088033625
 31
0.0
  0
LINE
  5
7B
330
1F
100
AcDbEntity
  8
0
  6
Continuous
 62
     7
370
    30
100
AcDbLine
 10
224.4775
 20
226.4088033625
 30
0.0
 11
224.4775
 21
233.7249319686
 31
0.0
  0
LINE
  5
7C
330
1F
100
AcDbEntity
  8
0
  6
Continuous
 62
     7
370
    30
100
AcDbLine
 10
203.5
 20
233.7249319686
 30
0.0
 11
224.5
 21
233.7249319686
 31
0.0
  0
LINE
  5
7D
330
1F
100
AcDbEntity
  8
0
  6
Continuous
 62
     7
370
    30
100
AcDbLine
 10
224.4775
 20
226.4088033625
 30
0.0
 11
203.5225
 21
226.4088033625
 31
0.0
  0
LINE
  5
7E
330
1F
100
AcDbEntity
  8
0
  6
Continuous
 62
     7
370
    30
100
AcDbLine
 10
204.6845
 20
225.7249319686
 30
0.0
 11
223.3155
 21
225.7249319686
 31
0.0
  0
CIRCLE
  5
7F
330
1F
100
AcDbEntity
  8
0
  6
Continuous
 62
     7
370
    30
100
AcDbCircle
 10
214.0
 20
251.0
 30
0.0
 40
15.0
  0
CIRCLE
  5
80
330
1F
100
AcDbEntity
  8
0
  6
Continuous
 62
     7
370
    30
100
AcDbCircle
 10
214.0
 20
251.0
 30
0.0
 40
37.49999999999999
  0
LINE
  5
81
330
1F
100
AcDbEntity
  8
0
  6
Continuous
 62
     7
370
    30
100
AcDbLine
 10
375.4993730032
 20
236.0
 30
0.0
 11
375.4993730032
 21
233.7249319686
 31
0.0
  0
LINE
  5
82
330
1F
100
AcDbEntity
  8
0
  6
Continuous
 62
     7
370
    30
100
AcDbLine
 10
396.4993730032
 20
233.7249319686
 30
0.0
 11
396.4993730032
 21
236.0
 31
0.0
  0
LINE
  5
83
330
1F
100
AcDbEntity
  8
0
  6
Continuous
 62
     7
370
    30
100
AcDbLine
 10
375.5218730032
 20
226.4088033625
 30
0.0
 11
376.6838730032
 21
225.7249319686
 31
0.0
  0
LINE
  5
84
330
1F
100
AcDbEntity
  8
0
  6
Continuous
 62
     7
370
    30
100
AcDbLine
 10
395.3148730032
 20
225.7249319686
 30
0.0
 11
396.4768730032
 21
226.4088033625
 31
0.0
  0
LINE
  5
85
330
1F
100
AcDbEntity
  8
0
  6
Continuous
 62
     7
370
    30
100
AcDbLine
 10
375.5218730032
 20
233.7249319686
 30
0.0
 11
375.5218730032
 21
226.4088033625
 31
0.0
  0
LINE
  5
86
330
1F
100
AcDbEntity
  8
0
  6
Continuous
 62
     7
370
    30
100
AcDbLine
 10
396.4768730032
 20
226.4088033625
 30
0.0
 11
396.4768730032
 21
233.7249319686
 31
0.0
  0
ARC
  5
87
330
1F
100
AcDbEntity
  8
0
  6
Continuous
 62
     7
370
    30
100
AcDbCircle
 10
399.9993730032
 20
237.0
 30
0.0
 40
1.0
100
AcDbArc
 50
270.0
 51
0.0
  0
ARC
  5
88
330
1F
100
AcDbEntity
  8
0
  6
Continuous
 62
     7
370
    30
100
AcDbCircle
 10
399.9993730032
 20
265.0
 30
0.0
 40
1.0
100
AcDbArc
 50
0.0
 51
90.0
  0
LINE
  5
89
330
1F
100
AcDbEntity
  8
0
  6
Continuous
 62
     7
370
    30
100
AcDbLine
 10
352.9993730032
 20
236.0
 30
0.0
 11
375.4993730032
 21
236.0
 31
0.0
  0
LINE
  5
8A
330
1F
100
AcDbEntity
  8
0
  6
Continuous
 62
     7
370
    30
100
AcDbLine
 10
396.4993730032
 20
236.0
 30
0.0
 11
399.9993730032
 21
236.0
 31
0.0
  0
LINE
  5
8B
330
1F
100
AcDbEntity
  8
0
  6
Continuous
 62
     7
370
    30
100
AcDbLine
 10
399.9993730032
 20
266.0
 30
0.0
 11
352.9993730032
 21
266.0
 31
0.0
  0
LINE
  5
8C
330
1F
100
AcDbEntity
  8
0
  6
Continuous
 62
     7
370
    30
100
AcDbLine
 10
351.9993730032
 20
288.5
 30
0.0
 11
344.9993730032
 21
288.5
 31
0.0
  0
LINE
  5
8D
330
1F
100
AcDbEntity
  8
0
  6
Continuous
 62
     7
370
    30
100
AcDbLine
 10
344.9993730032
 20
213.5
 30
0.0
 11
351.9993730032
 21
213.5
 31
0.0
  0
ARC
  5
8E
330
1F
100
AcDbEntity
  8
0
  6
Continuous
 62
     7
370
    30
100
AcDbCircle
 10
351.9993730032
 20
287.5
 30
0.0
 40
1.0
100
AcDbArc
 50
0.0
 51
90.0
  0
ARC
  5
8F
330
1F
100
AcDbEntity
  8
0
  6
Continuous
 62
     7
370
    30
100
AcDbCircle
 10
351.9993730032
 20
214.5
 30
0.0
 40
1.0
100
AcDbArc
 50
270.0
 51
0.0
  0
LINE
  5
90
330
1F
100
AcDbEntity
  8
0
  6
Continuous
 62
     7
370
    30
100
AcDbLine
 10
375.4993730032
 20
233.7249319686
 30
0.0
 11
396.4993730032
 21
233.7249319686
 31
0.0
  0
LINE
  5
91
330
1F
100
AcDbEntity
  8
0
  6
Continuous
 62
     7
370
    30
100
AcDbLine
 10
396.4768730032
 20
226.4088033625
 30
0.0
 11
375.5218730032
 21
226.4088033625
 31
0.0
  0
LINE
  5
92
330
1F
100
AcDbEntity
  8
0
  6
Continuous
 62
     7
370
    30
100
AcDbLine
 10
376.6838730032
 20
225.7249319686
 30
0.0
 11
395.3148730032
 21
225.7249319686
 31
0.0
  0
SPLINE
  5
93
330
1F
100
AcDbEntity
  8
0
  6
Continuous
 62
     7
370
    30
100
AcDbSpline
210
0.0
220
0.0
230
1.0
 70
    24
 71
     3
 72
    42
 73
    38
 74
     0
 42
0.000000001
 43
0.00000001
 40
0.0
 40
0.0
 40
0.0
 40
0.0
 40
0.0305283800808274
 40
0.0681842865918167
 40
0.101330490519747
 40
0.1344946204040909
 40
0.1676858427754948
 40
0.178870293697658
 40
0.1900592020557657
 40
0.2012529158675377
 40
0.2124517827026889
 40
0.2236561496513799
 40
0.234866363292888
 40
0.2460827696645151
 40
0.2809127608968343
 40
0.3156969708175021
 40
0.3504458778176873
 40
0.3851699922477303
 40
0.4198798469799915
 40
0.4545859878697448
 40
0.4892989641570758
 40
0.5165852410964472
 40
0.5438873541945008
 40
0.5712104020658557
 40
0.598559471616691
 40
0.6259396352496404
 40
0.6522277422476088
 40
0.6780260434639289
 40
0.7141067820052097
 40
0.750155379438349
 40
0.7861835921457339
 40
0.8222031964697742
 40
0.8582259771954783
 40
0.89362000261007
 40
0.9290396046967045
 40
0.9644959073579344
 40
1.0
 40
1.0
 40
1.0
 40
1.0
 10
400.9993730031875
 20
237.0002108276402
 30
0.0
 10
400.9993730031875
 20
237.0003656607911
 30
0.0
 10
400.9993730031875
 20
237.0007114763211
 30
0.0
 10
400.9993730031875
 20
237.0069492842549
 30
0.0
 10
400.9993730031875
 20
237.0171560609633
 30
0.0
 10
400.9993730031875
 20
237.0309041266168
 30
0.0
 10
400.9993730031876
 20
237.0445910136541
 30
0.0
 10
400.9993730031875
 20
237.0558350818293
 30
0.0
 10
400.9993730031875
 20
237.0630625813296
 30
0.0
 10
400.9993730031875
 20
237.0707281346128
 30
0.0
 10
400.9993730031875
 20
237.0788316162279
 30
0.0
 10
400.9993730031875
 20
237.0873730342349
 30
0.0
 10
400.9993730031875
 20
237.096352481517
 30
0.0
 10
400.9993730031875
 20
237.1123761959279
 30
0.0
 10
400.9993730031875
 20
237.1371333078371
 30
0.0
 10
400.9993730031875
 20
237.1732792544717
 30
0.0
 10
400.9993730031875
 20
237.213563566097
 30
0.0
 10
400.9993730031875
 20
237.2579864500771
 30
0.0
 10
400.9993730031875
 20
237.3065478591826
 30
0.0
 10
400.9993730031875
 20
237.3592477402715
 30
0.0
 10
400.9993730031875
 20
237.4120237579661
 30
0.0
 10
400.9993730031875
 20
237.4639033575682
 30
0.0
 10
400.9993730031875
 20
237.514016834749
 30
0.0
 10
400.9993730031875
 20
237.5666848833701
 30
0.0
 10
400.9993730031875
 20
237.6219074315144
 30
0.0
 10
400.9993730031875
 20
237.6788912633018
 30
0.0
 10
400.9993730031875
 20
237.7371284407993
 30
0.0
 10
400.9993730031875
 20
237.8042665371542
 30
0.0
 10
400.9993730031875
 20
237.8821640228533
 30
0.0
 10
400.9993730031875
 20
237.9724664256397
 30
0.0
 10
400.9993730031875
 20
238.066960363582
 30
0.0
 10
400.9993730031875
 20
238.1656438815538
 30
0.0
 10
400.9993730031875
 20
238.2679111312848
 30
0.0
 10
400.9993730031875
 20
238.3736495734843
 30
0.0
 10
400.9993730031875
 20
238.4828675497397
 30
0.0
 10
400.9993730031875
 20
238.5958530741313
 30
0.0
 10
400.9993730031875
 20
238.6744961256937
 30
0.0
 10
400.9993730031875
 20
238.7138441335
 30
0.0
  0
SPLINE
  5
94
330
1F
100
AcDbEntity
  8
0
  6
Continuous
 62
     7
370
    30
100
AcDbSpline
210
0.0
220
0.0
230
1.0
 70
    24
 71
     3
 72
   183
 73
   179
 74
     0
 42
0.000000001
 43
0.00000001
 40
0.0
 40
0.0
 40
0.0
 40
0.0
 40
0.0072542144262092
 40
0.0144987060987705
 40
0.0217361195901273
 40
0.0289691072366402
 40
0.0362003262447342
 40
0.0434324357703224
 40
0.04769574862789
 40
0.051960837231094
 40
0.0562282442999747
 40
0.0604985116705916
 40
0.0647721800910766
 40
0.069049789019744
 40
0.0735703610339377
 40
0.0780998258424027
 40
0.0853393115911881
 40
0.0925717682679803
 40
0.0997998469389356
 40
0.1070262034885666
 40
0.1142534956999209
 40
0.1195556806812997
 40
0.124860844125931
 40
0.1301700307748992
 40
0.1322571253756148
 40
0.1343450648783237
 40
0.1364339122883368
 40
0.1385237305288487
 40
0.140614582435404
 40
0.1427065307504027
 40
0.1498618390035217
 40
0.1570065553030549
 40
0.1641432137387047
 40
0.1712743569903933
 40
0.1784025336399813
 40
0.1855302954515188
 40
0.1897314618606879
 40
0.1939338924819551
 40
0.198138108816292
 40
0.2023446317005218
 40
0.2065539811152769
 40
0.2107666759945381
 40
0.2149832340371022
 40
0.2192041715203131
 40
0.2265126534290276
 40
0.2338098293920992
 40
0.2410983985487801
 40
0.2483810696080191
 40
0.255660557862842
 40
0.2629395821681178
 40
0.2698046924458055
 40
0.276674085090852
 40
0.2835500331784018
 40
0.2904348032905696
 40
0.2973306533103985
 40
0.3046391354735872
 40
0.3119363115973759
 40
0.3192248808423376
 40
0.3265075519388983
 40
0.3337870402016696
 40
0.341066064507168
 40
0.3459694104744155
 40
0.3508746095724648
 40
0.3557824909865059
 40
0.3606938825431708
 40
0.3656096102957291
 40
0.3705304981137423
 40
0.3754573672781782
 40
0.3826126762330258
 40
0.3897573929757415
 40
0.3968940516548391
 40
0.4040251950094643
 40
0.4111533716809889
 40
0.4182811334931357
 40
0.4245552686412677
 40
0.4308327969343175
 40
0.4371154534745078
 40
0.439232521142228
 40
0.441350432543234
 40
0.4434692535526472
 40
0.4455890499607877
 40
0.4477098874672023
 40
0.4498318316747344
 40
0.4519549480836386
 40
0.4585478017532017
 40
0.4651319896299354
 40
0.4717094951337955
 40
0.4782823077341833
 40
0.4848524211636193
 40
0.4914218316121158
 40
0.4979925359103859
 40
0.5031574648892624
 40
0.5083253914421646
 40
0.5134972806689652
 40
0.518674095453285
 40
0.5238567959334167
 40
0.5288321027710623
 40
0.5337145322491279
 40
0.5405431932110792
 40
0.5473660516531524
 40
0.5541853326217937
 40
0.5610032646659984
 40
0.5678220776573428
 40
0.5745221436005555
 40
0.5812273182962239
 40
0.5879397058005937
 40
0.5946614033965562
 40
0.6019142847117271
 40
0.6091577512868126
 40
0.6163944499179324
 40
0.6236270348314865
 40
0.6308581647837651
 40
0.6380905001356802
 40
0.6423540938901362
 40
0.6466195731552208
 40
0.6508874807277191
 40
0.655158358478557
 40
0.659432747149058
 40
0.6637111861493369
 40
0.6682318042824648
 40
0.6727612690909502
 40
0.680000754839762
 40
0.6872332115165727
 40
0.6944612901875387
 40
0.7016876467371723
 40
0.7089149389485218
 40
0.7142171239298918
 40
0.7195222873745104
 40
0.7248314740234615
 40
0.7269185686241694
 40
0.7290065081268698
 40
0.7310953555368738
 40
0.7331851737773761
 40
0.7352760256839209
 40
0.7373679739989085
 40
0.7445232822520985
 40
0.7516679985516882
 40
0.7588046569873799
 40
0.7659358002390958
 40
0.7730639768886963
 40
0.7801917387002317
 40
0.7843929051093926
 40
0.7885953357306468
 40
0.7927995520649653
 40
0.7970060749491717
 40
0.8012154243638984
 40
0.8054281192431261
 40
0.8096446772856516
 40
0.8138656147688192
 40
0.8211740966775395
 40
0.8284712726406157
 40
0.8357598417973001
 40
0.8430425128565415
 40
0.8503220011113655
 40
0.8576010254166408
 40
0.8644661356943273
 40
0.8713355283393711
 40
0.878211476426917
 40
0.8850962465390796
 40
0.8919920965589022
 40
0.8993005787219797
 40
0.9065977548456798
 40
0.913886324090576
 40
0.9211689951870939
 40
0.9284484834498455
 40
0.9357275077553473
 40
0.9406308537226098
 40
0.9455360528206844
 40
0.9504439342347613
 40
0.9553553257914722
 40
0.9602710535440868
 40
0.9651919413621666
 40
0.9701188105266795
 40
0.977274119481355
 40
0.9844188362239339
 40
0.9915554949029299
 40
0.9986866382574892
 40
1.0
 40
1.0
 40
1.0
 40
1.0
 10
400.9993730031875
 20
238.7138441335
 30
0.0
 10
400.9993730031875
 20
238.7571466979376
 30
0.0
 10
400.9993730031875
 20
238.8436937888033
 30
0.0
 10
400.9993730031875
 20
238.9790816527279
 30
0.0
 10
400.9993730031875
 20
239.1184140466956
 30
0.0
 10
400.9993730031875
 20
239.2620975201867
 30
0.0
 10
400.9993730031875
 20
239.4100228827809
 30
0.0
 10
400.9993730031875
 20
239.5413723747926
 30
0.0
 10
400.9993730031875
 20
239.6543311740524
 30
0.0
 10
400.9993730031875
 20
239.7474843700499
 30
0.0
 10
400.9993730031875
 20
239.842118153805
 30
0.0
 10
400.9993730031875
 20
239.9382326702359
 30
0.0
 10
400.9993730031875
 20
240.0358279201557
 30
0.0
 10
400.9993730031875
 20
240.1367448631138
 30
0.0
 10
400.9993730031875
 20
240.2411055114657
 30
0.0
 10
400.9993730031875
 20
240.370493471242
 30
0.0
 10
400.9993730031875
 20
240.524187750834
 30
0.0
 10
400.9993730031875
 20
240.7035391725208
 30
0.0
 10
400.9993730031875
 20
240.8865503889149
 30
0.0
 10
400.9993730031875
 20
241.0732207910135
 30
0.0
 10
400.9993730031875
 20
241.246622637074
 30
0.0
 10
400.9993730031875
 20
241.4056992186464
 30
0.0
 10
400.9993730031875
 20
241.5495552700539
 30
0.0
 10
400.9993730031875
 20
241.6658352538416
 30
0.0
 10
400.9993730031875
 20
241.7534181962395
 30
0.0
 10
400.9993730031875
 20
241.8115429214159
 30
0.0
 10
400.9993730031875
 20
241.8699712456292
 30
0.0
 10
400.9993730031875
 20
241.9287031791349
 30
0.0
 10
400.9993730031875
 20
241.9877388002092
 30
0.0
 10
400.9993730031875
 20
242.0949411173997
 30
0.0
 10
400.9993730031875
 20
242.2514951578695
 30
0.0
 10
400.9993730031875
 20
242.4593345503683
 30
0.0
 10
400.9993730031875
 20
242.669977636953
 30
0.0
 10
400.9993730031875
 20
242.8834239059694
 30
0.0
 10
400.9993730031875
 20
243.0996729967026
 30
0.0
 10
400.9993730031875
 20
243.2887276338068
 30
0.0
 10
400.9993730031875
 20
243.4493904705854
 30
0.0
 10
400.9993730031875
 20
243.5807452626652
 30
0.0
 10
400.9993730031875
 20
243.713073070712
 30
0.0
 10
400.9993730031875
 20
243.8463740260807
 30
0.0
 10
400.9993730031875
 20
243.9806481019879
 30
0.0
 10
400.9993730031875
 20
244.1158952341093
 30
0.0
 10
400.9993730031875
 20
244.2521156663734
 30
0.0
 10
400.9993730031875
 20
244.422705462981
 30
0.0
 10
400.9993730031875
 20
244.6283259205086
 30
0.0
 10
400.9993730031875
 20
244.8698097072111
 30
0.0
 10
400.9993730031875
 20
245.1132835541034
 30
0.0
 10
400.9993730031875
 20
245.3587470630471
 30
0.0
 10
400.9993730031875
 20
245.6062001515911
 30
0.0
 10
400.9993730031875
 20
245.8508896903348
 30
0.0
 10
400.9993730031875
 20
246.0926812697883
 30
0.0
 10
400.9993730031875
 20
246.3314556800608
 30
0.0
 10
400.9993730031875
 20
246.5719983160552
 30
0.0
 10
400.9993730031875
 20
246.8143093698188
 30
0.0
 10
400.9993730031875
 20
247.0630985675577
 30
0.0
 10
400.9993730031875
 20
247.3181391945594
 30
0.0
 10
400.9993730031875
 20
247.579202609048
 30
0.0
 10
400.9993730031875
 20
247.8412279434961
 30
0.0
 10
400.9993730031875
 20
248.1042152936025
 30
0.0
 10
400.9993730031875
 20
248.3681641026227
 30
0.0
 10
400.9993730031875
 20
248.60423205993
 30
0.0
 10
400.9993730031875
 20
248.8120729429878
 30
0.0
 10
400.9993730031875
 20
248.9914419605076
 30
0.0
 10
400.9993730031875
 20
249.1712468616688
 30
0.0
 10
400.9993730031875
 20
249.3514878376553
 30
0.0
 10
400.9993730031875
 20
249.532164764528
 30
0.0
 10
400.9993730031875
 20
249.7132778542136
 30
0.0
 10
400.9993730031875
 20
249.9221129194439
 30
0.0
 10
400.9993730031875
 20
250.1585604261742
 30
0.0
 10
400.9993730031875
 20
250.4224820166435
 30
0.0
 10
400.9993730031875
 20
250.6863127469906
 30
0.0
 10
400.9993730031875
 20
250.950052222619
 30
0.0
 10
400.9993730031875
 20
251.2137002963696
 30
0.0
 10
400.9993730031875
 20
251.466710991979
 30
0.0
 10
400.9993730031875
 20
251.7090896484751
 30
0.0
 10
400.9993730031875
 20
251.9408633597745
 30
0.0
 10
400.9993730031875
 20
252.1212790818482
 30
0.0
 10
400.9993730031875
 20
252.2504411040685
 30
0.0
 10
400.9993730031875
 20
252.3284301397413
 30
0.0
 10
400.9993730031875
 20
252.4064110955838
 30
0.0
 10
400.9993730031875
 20
252.4843840387039
 30
0.0
 10
400.9993730031875
 20
252.5623489369322
 30
0.0
 10
400.9993730031875
 20
252.6403058505574
 30
0.0
 10
400.9993730031875
 20
252.7729399435943
 30
0.0
 10
400.9993730031875
 20
252.9599224915812
 30
0.0
 10
400.9993730031875
 20
253.2007495471989
 30
0.0
 10
400.9993730031875
 20
253.4406690678334
 30
0.0
 10
400.9993730031875
 20
253.6796802960515
 30
0.0
 10
400.9993730031875
 20
253.9177833991189
 30
0.0
 10
400.9993730031875
 20
254.1549780633214
 30
0.0
 10
400.9993730031875
 20
254.3743763838461
 30
0.0
 10
400.9993730031875
 20
254.576189773588
 30
0.0
 10
400.9993730031875
 20
254.7606348631283
 30
0.0
 10
400.9993730031875
 20
254.9445191014613
 30
0.0
 10
400.9993730031875
 20
255.1278426237034
 30
0.0
 10
400.9993730031875
 20
255.3080871607646
 30
0.0
 10
400.9993730031875
 20
255.4841130153859
 30
0.0
 10
400.9993730031875
 20
255.6785481793154
 30
0.0
 10
400.9993730031875
 20
255.8933418524507
 30
0.0
 10
400.9993730031875
 20
256.1289900789396
 30
0.0
 10
400.9993730031875
 20
256.3628456601984
 30
0.0
 10
400.9993730031875
 20
256.5949082041275
 30
0.0
 10
400.9993730031875
 20
256.8238062389322
 30
0.0
 10
400.9993730031875
 20
257.0495762439288
 30
0.0
 10
400.9993730031875
 20
257.2722575424288
 30
0.0
 10
400.9993730031875
 20
257.4932089576182
 30
0.0
 10
400.9993730031875
 20
257.7180812545579
 30
0.0
 10
400.9993730031875
 20
257.9464320421885
 30
0.0
 10
400.9993730031875
 20
258.1777866408908
 30
0.0
 10
400.9993730031875
 20
258.406299837852
 30
0.0
 10
400.9993730031876
 20
258.6319713082856
 30
0.0
 10
400.9993730031875
 20
258.8548006262587
 30
0.0
 10
400.9993730031875
 20
259.0446533249925
 30
0.0
 10
400.9993730031875
 20
259.2027308759198
 30
0.0
 10
400.9993730031875
 20
259.3300340650038
 30
0.0
 10
400.9993730031875
 20
259.4563504718858
 30
0.0
 10
400.9993730031875
 20
259.5816802539065
 30
0.0
 10
400.9993730031875
 20
259.7060233425353
 30
0.0
 10
400.9993730031875
 20
259.8316631457378
 30
0.0
 10
400.9993730031875
 20
259.9585612012091
 30
0.0
 10
400.9993730031875
 20
260.1121224872772
 30
0.0
 10
400.9993730031875
 20
260.2888944993964
 30
0.0
 10
400.9993730031875
 20
260.4873759928471
 30
0.0
 10
400.9993730031875
 20
260.6822667912642
 30
0.0
 10
400.9993730031875
 20
260.8735662044953
 30
0.0
 10
400.9993730031875
 20
261.0445795907556
 30
0.0
 10
400.9993730031875
 20
261.1963358850597
 30
0.0
 10
400.9993730031875
 20
261.3297641347962
 30
0.0
 10
400.9993730031875
 20
261.4346202458427
 30
0.0
 10
400.9993730031875
 20
261.5120641698355
 30
0.0
 10
400.9993730031875
 20
261.5628936712466
 30
0.0
 10
400.9993730031875
 20
261.6134251824776
 30
0.0
 10
400.9993730031875
 20
261.6636587328443
 30
0.0
 10
400.9993730031875
 20
261.7135943252698
 30
0.0
 10
400.9993730031875
 20
261.8032700262732
 30
0.0
 10
400.9993730031875
 20
261.9310413525711
 30
0.0
 10
400.9993730031875
 20
262.0942525961826
 30
0.0
 10
400.9993730031875
 20
262.2533363239592
 30
0.0
 10
400.9993730031875
 20
262.4082918627627
 30
0.0
 10
400.9993730031875
 20
262.5591190603413
 30
0.0
 10
400.9993730031875
 20
262.685728663599
 30
0.0
 10
400.9993730031875
 20
262.7898600075116
 30
0.0
 10
400.9993730031875
 20
262.8729318344663
 30
0.0
 10
400.9993730031875
 20
262.9545703378844
 30
0.0
 10
400.9993730031875
 20
263.0347756214658
 30
0.0
 10
400.9993730031875
 20
263.113547648943
 30
0.0
 10
400.9993730031875
 20
263.1908864458161
 30
0.0
 10
400.9993730031875
 20
263.2667919322844
 30
0.0
 10
400.9993730031875
 20
263.3593933183199
 30
0.0
 10
400.9993730031875
 20
263.4670298950506
 30
0.0
 10
400.9993730031875
 20
263.5875874235995
 30
0.0
 10
400.9993730031875
 20
263.7033355507416
 30
0.0
 10
400.9993730031875
 20
263.8142736800747
 30
0.0
 10
400.9993730031875
 20
263.9204018765968
 30
0.0
 10
400.9993730031875
 20
264.0197894640461
 30
0.0
 10
400.9993730031875
 20
264.1127506142311
 30
0.0
 10
400.9993730031875
 20
264.1995959841769
 30
0.0
 10
400.9993730031875
 20
264.2821655410283
 30
0.0
 10
400.9993730031875
 20
264.3604588623297
 30
0.0
 10
400.9993730031875
 20
264.4359061071546
 30
0.0
 10
400.9993730031875
 20
264.508107614852
 30
0.0
 10
400.9993730031875
 20
264.5766247608256
 30
0.0
 10
400.9993730031875
 20
264.6400267857712
 30
0.0
 10
400.9993730031875
 20
264.6983131565252
 30
0.0
 10
400.9993730031875
 20
264.751483917037
 30
0.0
 10
400.9993730031876
 20
264.7943069164105
 30
0.0
 10
400.9993730031875
 20
264.828547700148
 30
0.0
 10
400.9993730031875
 20
264.8557062930179
 30
0.0
 10
400.9993730031875
 20
264.8805451019837
 30
0.0
 10
400.9993730031875
 20
264.9030640291409
 30
0.0
 10
400.9993730031875
 20
264.9232635938496
 30
0.0
 10
400.9993730031875
 20
264.9411418193533
 30
0.0
 10
400.9993730031875
 20
264.9590454209573
 30
0.0
 10
400.9993730031875
 20
264.975529473705
 30
0.0
 10
400.9993730031875
 20
264.989066903034
 30
0.0
 10
400.9993730031875
 20
264.9971657630258
 30
0.0
 10
400.9993730031875
 20
265.0006503448774
 30
0.0
 10
400.9993730031875
 20
264.9999117858216
 30
0.0
 10
400.9993730031875
 20
264.9997969187929
 30
0.0
  0
LINE
  5
95
330
1F
100
AcDbEntity
  8
0
  6
Continuous
 62
     7
370
    30
100
AcDbLine
 10
344.9993730032
 20
288.5
 30
0.0
 11
344.9993730032
 21
213.5
 31
0.0
  0
LINE
  5
96
330
1F
100
AcDbEntity
  8
0
  6
Continuous
 62
     7
370
    30
100
AcDbLine
 10
352.9993730032
 20
287.5
 30
0.0
 11
352.9993730032
 21
214.5
 31
0.0
  0
LINE
  5
97
330
1F
100
AcDbEntity
  8
0
  6
Continuous
 62
     7
370
    30
100
AcDbLine
 10
31.5006269968
 20
236.0
 30
0.0
 11
31.5006269968
 21
233.7249319686
 31
0.0
  0
LINE
  5
98
330
1F
100
AcDbEntity
  8
0
  6
Continuous
 62
     7
370
    30
100
AcDbLine
 10
52.5006269968
 20
233.7249319686
 30
0.0
 11
52.5006269968
 21
236.0
 31
0.0
  0
LINE
  5
99
330
1F
100
AcDbEntity
  8
0
  6
Continuous
 62
     7
370
    30
100
AcDbLine
 10
31.5231269968
 20
226.4088033625
 30
0.0
 11
32.6851269968
 21
225.7249319686
 31
0.0
  0
LINE
  5
9A
330
1F
100
AcDbEntity
  8
0
  6
Continuous
 62
     7
370
    30
100
AcDbLine
 10
51.3161269968
 20
225.7249319686
 30
0.0
 11
52.4781269968
 21
226.4088033625
 31
0.0
  0
LINE
  5
9B
330
1F
100
AcDbEntity
  8
0
  6
Continuous
 62
     7
370
    30
100
AcDbLine
 10
31.5231269968
 20
233.7249319686
 30
0.0
 11
31.5231269968
 21
226.4088033625
 31
0.0
  0
LINE
  5
9C
330
1F
100
AcDbEntity
  8
0
  6
Continuous
 62
     7
370
    30
100
AcDbLine
 10
52.4781269968
 20
226.4088033625
 30
0.0
 11
52.4781269968
 21
233.7249319686
 31
0.0
  0
ARC
  5
9D
330
1F
100
AcDbEntity
  8
0
  6
Continuous
 62
     7
370
    30
100
AcDbCircle
 10
28.0006269968
 20
265.0
 30
0.0
 40
1.0
100
AcDbArc
 50
90.0
 51
180.0
  0
ARC
  5
9E
330
1F
100
AcDbEntity
  8
0
  6
Continuous
 62
     7
370
    30
100
AcDbCircle
 10
28.0006269968
 20
237.0
 30
0.0
 40
1.0
100
AcDbArc
 50
180.0
 51
270.0
  0
LINE
  5
9F
330
1F
100
AcDbEntity
  8
0
  6
Continuous
 62
     7
370
    30
100
AcDbLine
 10
75.0006269968
 20
266.0
 30
0.0
 11
28.0006269968
 21
266.0
 31
0.0
  0
LINE
  5
A0
330
1F
100
AcDbEntity
  8
0
  6
Continuous
 62
     7
370
    30
100
AcDbLine
 10
28.0006269968
 20
236.0
 30
0.0
 11
31.5006269968
 21
236.0
 31
0.0
  0
LINE
  5
A1
330
1F
100
AcDbEntity
  8
0
  6
Continuous
 62
     7
370
    30
100
AcDbLine
 10
52.5006269968
 20
236.0
 30
0.0
 11
75.0006269968
 21
236.0
 31
0.0
  0
LINE
  5
A2
330
1F
100
AcDbEntity
  8
0
  6
Continuous
 62
     7
370
    30
100
AcDbLine
 10
76.0006269968
 20
213.5
 30
0.0
 11
83.0006269968
 21
213.5
 31
0.0
  0
LINE
  5
A3
330
1F
100
AcDbEntity
  8
0
  6
Continuous
 62
     7
370
    30
100
AcDbLine
 10
83.0006269968
 20
288.5
 30
0.0
 11
76.0006269968
 21
288.5
 31
0.0
  0
ARC
  5
A4
330
1F
100
AcDbEntity
  8
0
  6
Continuous
 62
     7
370
    30
100
AcDbCircle
 10
76.0006269968
 20
214.5
 30
0.0
 40
1.0
100
AcDbArc
 50
180.0
 51
270.0
  0
ARC
  5
A5
330
1F
100
AcDbEntity
  8
0
  6
Continuous
 62
     7
370
    30
100
AcDbCircle
 10
76.0006269968
 20
287.5
 30
0.0
 40
1.0
100
AcDbArc
 50
90.0
 51
180.0
  0
LINE
  5
A6
330
1F
100
AcDbEntity
  8
0
  6
Continuous
 62
     7
370
    30
100
AcDbLine
 10
52.4357635939
 20
233.7249319686
 30
0.0
 11
52.5006269968
 21
233.7249319686
 31
0.0
  0
LINE
  5
A7
330
1F
100
AcDbEntity
  8
0
  6
Continuous
 62
     7
370
    30
100
AcDbLine
 10
31.5006269968
 20
233.7249319686
 30
0.0
 11
52.4357635939
 21
233.7249319686
 31
0.0
  0
LINE
  5
A8
330
1F
100
AcDbEntity
  8
0
  6
Continuous
 62
     7
370
    30
100
AcDbLine
 10
45.9723219278
 20
226.4088033625
 30
0.0
 11
31.5231269968
 21
226.4088033625
 31
0.0
  0
LINE
  5
A9
330
1F
100
AcDbEntity
  8
0
  6
Continuous
 62
     7
370
    30
100
AcDbLine
 10
52.4781269968
 20
226.4088033625
 30
0.0
 11
45.9723219278
 21
226.4088033625
 31
0.0
  0
LINE
  5
AA
330
1F
100
AcDbEntity
  8
0
  6
Continuous
 62
     7
370
    30
100
AcDbLine
 10
51.2585808035
 20
225.7249319686
 30
0.0
 11
51.3161269968
 21
225.7249319686
 31
0.0
  0
LINE
  5
AB
330
1F
100
AcDbEntity
  8
0
  6
Continuous
 62
     7
370
    30
100
AcDbLine
 10
32.6851269968
 20
225.7249319686
 30
0.0
 11
51.2585808035
 21
225.7249319686
 31
0.0
  0
SPLINE
  5
AC
330
1F
100
AcDbEntity
  8
0
  6
Continuous
 62
     7
370
    30
100
AcDbSpline
210
0.0
220
0.0
230
1.0
 70
    24
 71
     3
 72
   183
 73
   179
 74
     0
 42
0.000000001
 43
0.00000001
 40
0.0
 40
0.0
 40
0.0
 40
0.0
 40
0.0072542144261637
 40
0.0144987060986902
 40
0.0217361195900227
 40
0.028969107236522
 40
0.036200326244613
 40
0.0434324357702088
 40
0.0476957486277856
 40
0.0519608372310026
 40
0.0562282442999
 40
0.0604985116705372
 40
0.064772180091046
 40
0.0690497890197409
 40
0.0735703610340092
 40
0.0780998258425414
 40
0.0853393115914132
 40
0.092571768268266
 40
0.0997998469392561
 40
0.1070262034888961
 40
0.114253495700234
 40
0.1195556806815845
 40
0.1248608441261742
 40
0.1301700307750872
 40
0.1322571253757774
 40
0.1343450648784588
 40
0.1364339122884424
 40
0.138523730528923
 40
0.1406145824354447
 40
0.1427065307504079
 40
0.1498618390036399
 40
0.1570065553032632
 40
0.1641432137389801
 40
0.1712743569907124
 40
0.1784025336403206
 40
0.1855302954518548
 40
0.1897314618610106
 40
0.1939338924822565
 40
0.1981381088165635
 40
0.2023446317007553
 40
0.2065539811154638
 40
0.2107666759946701
 40
0.214983234037171
 40
0.2192041715203104
 40
0.2265126534288881
 40
0.233809829391851
 40
0.2410983985484514
 40
0.2483810696076381
 40
0.2556605578624367
 40
0.2629395821677165
 40
0.2698046924454338
 40
0.2766740850905346
 40
0.2835500331781637
 40
0.2904348032904355
 40
0.2973306533103928
 40
0.3046391354734307
 40
0.3119363115970993
 40
0.319224880841972
 40
0.3265075519384746
 40
0.3337870402012191
 40
0.3410660645067218
 40
0.34596941047399
 40
0.3508746095720741
 40
0.3557824909861642
 40
0.3606938825428922
 40
0.3656096102955279
 40
0.3705304981136324
 40
0.3754573672781738
 40
0.3826126762329699
 40
0.3897573929756444
 40
0.3968940516547115
 40
0.4040251950093168
 40
0.4111533716808322
 40
0.4182811334929805
 40
0.4245552686411227
 40
0.4308327969341911
 40
0.4371154534744084
 40
0.4392325211421397
 40
0.4413504325431576
 40
0.4434692535525838
 40
0.4455890499607383
 40
0.4477098874671676
 40
0.4498318316747154
 40
0.4519549480836362
 40
0.4585478017532479
 40
0.4651319896300206
 40
0.47170949513391
 40
0.4782823077343178
 40
0.484852421163764
 40
0.4914218316122613
 40
0.4979925359105226
 40
0.5031574648893856
 40
0.5083253914422684
 40
0.513497280669044
 40
0.5186740954533329
 40
0.5238567959334279
 40
0.528832102771089
 40
0.5337145322491891
 40
0.5405431932111787
 40
0.5473660516532789
 40
0.5541853326219358
 40
0.5610032646661445
 40
0.5678220776574814
 40
0.5745221436006755
 40
0.5812273182963144
 40
0.5879397058006434
 40
0.5946614033965537
 40
0.6019142847116877
 40
0.6091577512867448
 40
0.6163944499178448
 40
0.6236270348313878
 40
0.630858164783664
 40
0.6380905001355854
 40
0.642354093890049
 40
0.6466195731551441
 40
0.650887480727656
 40
0.6551583584785103
 40
0.659432747149031
 40
0.6637111861493321
 40
0.6682318042824893
 40
0.6727612690910006
 40
0.6800007548398458
 40
0.6872332115166798
 40
0.6944612901876591
 40
0.7016876467372962
 40
0.7089149389486394
 40
0.7142171239299988
 40
0.7195222873746016
 40
0.7248314740235317
 40
0.7269185686242298
 40
0.7290065081269198
 40
0.7310953555369126
 40
0.733185173777403
 40
0.7352760256839351
 40
0.7373679739989092
 40
0.7445232822519512
 40
0.7516679985514235
 40
0.7588046569870286
 40
0.7659358002386882
 40
0.7730639768882629
 40
0.7801917386998025
 40
0.7843929051089799
 40
0.7885953357302607
 40
0.7927995520646163
 40
0.79700607494887
 40
0.801215424363654
 40
0.805428119242949
 40
0.809644677285552
 40
0.8138656147688069
 40
0.8211740966773583
 40
0.8284712726402997
 40
0.8357598417968839
 40
0.8430425128560598
 40
0.8503220011108533
 40
0.8576010254161338
 40
0.8644661356938574
 40
0.8713355283389703
 40
0.8782114764266173
 40
0.885096246538913
 40
0.8919920965589005
 40
0.8993005787221312
 40
0.9065977548459531
 40
0.9138863240909394
 40
0.9211689951875162
 40
0.9284484834502947
 40
0.9357275077557919
 40
0.9406308537230336
 40
0.9455360528210733
 40
0.9504439342351008
 40
0.9553553257917481
 40
0.9602710535442851
 40
0.9651919413622729
 40
0.97011881052668
 40
0.9772741194815653
 40
0.9844188362243108
 40
0.9915554949034308
 40
0.9986866382580704
 40
1.0
 40
1.0
 40
1.0
 40
1.0
 10
27.00062699681244
 20
263.2861558665
 30
0.0
 10
27.00062699681245
 20
263.2428533020627
 30
0.0
 10
27.00062699681245
 20
263.1563062111974
 30
0.0
 10
27.00062699681243
 20
263.0209183472735
 30
0.0
 10
27.00062699681243
 20
262.8815859533062
 30
0.0
 10
27.00062699681243
 20
262.7379024798153
 30
0.0
 10
27.00062699681244
 20
262.5899771172212
 30
0.0
 10
27.00062699681245
 20
262.4586276252094
 30
0.0
 10
27.00062699681243
 20
262.3456688259495
 30
0.0
 10
27.00062699681245
 20
262.2525156299517
 30
0.0
 10
27.00062699681243
 20
262.1578818461963
 30
0.0
 10
27.00062699681243
 20
262.061767329765
 30
0.0
 10
27.00062699681245
 20
261.9641720798448
 30
0.0
 10
27.00062699681244
 20
261.8632551368858
 30
0.0
 10
27.00062699681243
 20
261.7588944885328
 30
0.0
 10
27.00062699681245
 20
261.6295065287549
 30
0.0
 10
27.00062699681245
 20
261.4758122491614
 30
0.0
 10
27.00062699681245
 20
261.2964608274733
 30
0.0
 10
27.00062699681244
 20
261.1134496110784
 30
0.0
 10
27.00062699681245
 20
260.9267792089796
 30
0.0
 10
27.00062699681243
 20
260.7533773629195
 30
0.0
 10
27.00062699681243
 20
260.5943007813477
 30
0.0
 10
27.00062699681246
 20
260.450444729941
 30
0.0
 10
27.00062699681244
 20
260.3341647461542
 30
0.0
 10
27.00062699681245
 20
260.2465818037571
 30
0.0
 10
27.00062699681243
 20
260.1884570785812
 30
0.0
 10
27.00062699681246
 20
260.1300287543685
 30
0.0
 10
27.00062699681244
 20
260.0712968208636
 30
0.0
 10
27.00062699681244
 20
260.01226119979
 30
0.0
 10
27.00062699681245
 20
259.9050588825987
 30
0.0
 10
27.00062699681242
 20
259.7485048421267
 30
0.0
 10
27.00062699681245
 20
259.5406654496248
 30
0.0
 10
27.00062699681244
 20
259.3300223630379
 30
0.0
 10
27.00062699681243
 20
259.1165760940199
 30
0.0
 10
27.00062699681243
 20
258.9003270032861
 30
0.0
 10
27.00062699681244
 20
258.7112723661818
 30
0.0
 10
27.00062699681243
 20
258.5506095294037
 30
0.0
 10
27.00062699681245
 20
258.4192547373246
 30
0.0
 10
27.00062699681243
 20
258.2869269292788
 30
0.0
 10
27.00062699681246
 20
258.1536259739114
 30
0.0
 10
27.00062699681242
 20
258.0193518980058
 30
0.0
 10
27.00062699681245
 20
257.8841047658863
 30
0.0
 10
27.00062699681243
 20
257.7478843336243
 30
0.0
 10
27.00062699681245
 20
257.5772945370197
 30
0.0
 10
27.00062699681244
 20
257.3716740794956
 30
0.0
 10
27.00062699681242
 20
257.1301902927968
 30
0.0
 10
27.00062699681244
 20
256.8867164459072
 30
0.0
 10
27.00062699681245
 20
256.6412529369652
 30
0.0
 10
27.00062699681245
 20
256.3937998484221
 30
0.0
 10
27.00062699681242
 20
256.1491103096782
 30
0.0
 10
27.00062699681244
 20
255.9073187302238
 30
0.0
 10
27.00062699681242
 20
255.6685443199494
 30
0.0
 10
27.00062699681244
 20
255.4280016839523
 30
0.0
 10
27.00062699681244
 20
255.1856906301853
 30
0.0
 10
27.00062699681245
 20
254.9369014324456
 30
0.0
 10
27.00062699681243
 20
254.6818608054459
 30
0.0
 10
27.00062699681243
 20
254.4207973909616
 30
0.0
 10
27.00062699681243
 20
254.1587720565168
 30
0.0
 10
27.00062699681243
 20
253.8957847064124
 30
0.0
 10
27.00062699681244
 20
253.6318358973932
 30
0.0
 10
27.00062699681244
 20
253.395767940086
 30
0.0
 10
27.00062699681244
 20
253.1879270570274
 30
0.0
 10
27.00062699681242
 20
253.0085580395064
 30
0.0
 10
27.00062699681245
 20
252.8287531383434
 30
0.0
 10
27.00062699681245
 20
252.6485121623546
 30
0.0
 10
27.00062699681244
 20
252.467835235479
 30
0.0
 10
27.00062699681243
 20
252.2867221457901
 30
0.0
 10
27.00062699681244
 20
252.0778870805581
 30
0.0
 10
27.00062699681243
 20
251.8414395738276
 30
0.0
 10
27.00062699681244
 20
251.5775179833599
 30
0.0
 10
27.00062699681246
 20
251.3136872530139
 30
0.0
 10
27.00062699681245
 20
251.0499477773863
 30
0.0
 10
27.0006269968124
 20
250.786299703636
 30
0.0
 10
27.00062699681245
 20
250.5332890080265
 30
0.0
 10
27.00062699681245
 20
250.2909103515301
 30
0.0
 10
27.00062699681245
 20
250.0591366402301
 30
0.0
 10
27.00062699681243
 20
249.8787209181555
 30
0.0
 10
27.00062699681244
 20
249.7495588959347
 30
0.0
 10
27.00062699681243
 20
249.6715698602614
 30
0.0
 10
27.00062699681243
 20
249.5935889044185
 30
0.0
 10
27.00062699681245
 20
249.5156159612978
 30
0.0
 10
27.00062699681242
 20
249.437651063069
 30
0.0
 10
27.00062699681245
 20
249.3596941494432
 30
0.0
 10
27.00062699681243
 20
249.2270600564053
 30
0.0
 10
27.00062699681245
 20
249.0400775084171
 30
0.0
 10
27.00062699681244
 20
248.799250452798
 30
0.0
 10
27.00062699681243
 20
248.5593309321625
 30
0.0
 10
27.00062699681244
 20
248.3203197039436
 30
0.0
 10
27.00062699681245
 20
248.0822166008759
 30
0.0
 10
27.00062699681244
 20
247.8450219366733
 30
0.0
 10
27.00062699681244
 20
247.6256236161489
 30
0.0
 10
27.00062699681244
 20
247.4238102264075
 30
0.0
 10
27.00062699681244
 20
247.2393651368678
 30
0.0
 10
27.00062699681244
 20
247.0554808985359
 30
0.0
 10
27.00062699681244
 20
246.8721573762949
 30
0.0
 10
27.00062699681244
 20
246.6919128392343
 30
0.0
 10
27.00062699681245
 20
246.5158869846129
 30
0.0
 10
27.00062699681243
 20
246.3214518206825
 30
0.0
 10
27.00062699681244
 20
246.1066581475462
 30
0.0
 10
27.00062699681244
 20
245.8710099210563
 30
0.0
 10
27.00062699681243
 20
245.637154339797
 30
0.0
 10
27.00062699681245
 20
245.4050917958678
 30
0.0
 10
27.00062699681245
 20
245.1761937610633
 30
0.0
 10
27.00062699681243
 20
244.9504237560674
 30
0.0
 10
27.00062699681245
 20
244.7277424575683
 30
0.0
 10
27.00062699681244
 20
244.5067910423802
 30
0.0
 10
27.00062699681243
 20
244.2819187454419
 30
0.0
 10
27.00062699681245
 20
244.0535679578127
 30
0.0
 10
27.00062699681243
 20
243.8222133591113
 30
0.0
 10
27.00062699681243
 20
243.5937001621507
 30
0.0
 10
27.00062699681243
 20
243.3680286917174
 30
0.0
 10
27.00062699681244
 20
243.1451993737443
 30
0.0
 10
27.00062699681244
 20
242.9553466750105
 30
0.0
 10
27.00062699681244
 20
242.7972691240829
 30
0.0
 10
27.00062699681243
 20
242.6699659349985
 30
0.0
 10
27.00062699681244
 20
242.5436495281161
 30
0.0
 10
27.00062699681245
 20
242.4183197460949
 30
0.0
 10
27.00062699681244
 20
242.2939766574654
 30
0.0
 10
27.00062699681245
 20
242.1683368542622
 30
0.0
 10
27.00062699681244
 20
242.04143879879
 30
0.0
 10
27.00062699681245
 20
241.887877512721
 30
0.0
 10
27.00062699681243
 20
241.7111055006009
 30
0.0
 10
27.00062699681243
 20
241.5126240071494
 30
0.0
 10
27.00062699681244
 20
241.3177332087319
 30
0.0
 10
27.00062699681243
 20
241.1264337955007
 30
0.0
 10
27.00062699681244
 20
240.9554204092405
 30
0.0
 10
27.00062699681244
 20
240.8036641149367
 30
0.0
 10
27.00062699681243
 20
240.6702358652008
 30
0.0
 10
27.00062699681245
 20
240.5653797541548
 30
0.0
 10
27.00062699681243
 20
240.4879358301625
 30
0.0
 10
27.00062699681245
 20
240.4371063287517
 30
0.0
 10
27.00062699681243
 20
240.3865748175211
 30
0.0
 10
27.00062699681245
 20
240.3363412671548
 30
0.0
 10
27.00062699681244
 20
240.2864056747297
 30
0.0
 10
27.00062699681246
 20
240.196729973728
 30
0.0
 10
27.00062699681242
 20
240.0689586474327
 30
0.0
 10
27.00062699681244
 20
239.9057474038242
 30
0.0
 10
27.00062699681245
 20
239.74666367605
 30
0.0
 10
27.00062699681244
 20
239.591708137248
 30
0.0
 10
27.00062699681243
 20
239.4408809396701
 30
0.0
 10
27.00062699681243
 20
239.3142713364124
 30
0.0
 10
27.00062699681245
 20
239.2101399924994
 30
0.0
 10
27.00062699681243
 20
239.127068165544
 30
0.0
 10
27.00062699681245
 20
239.0454296621248
 30
0.0
 10
27.00062699681244
 20
238.9652243785421
 30
0.0
 10
27.00062699681243
 20
238.8864523510634
 30
0.0
 10
27.00062699681245
 20
238.8091135541883
 30
0.0
 10
27.00062699681244
 20
238.733208067718
 30
0.0
 10
27.00062699681243
 20
238.6406066816814
 30
0.0
 10
27.00062699681245
 20
238.5329701049506
 30
0.0
 10
27.00062699681243
 20
238.4124125764029
 30
0.0
 10
27.00062699681245
 20
238.2966644492616
 30
0.0
 10
27.00062699681245
 20
238.1857263199291
 30
0.0
 10
27.00062699681243
 20
238.0795981234072
 30
0.0
 10
27.00062699681245
 20
237.9802105359579
 30
0.0
 10
27.00062699681246
 20
237.8872493857727
 30
0.0
 10
27.00062699681243
 20
237.8004040158263
 30
0.0
 10
27.00062699681244
 20
237.717834458974
 30
0.0
 10
27.00062699681244
 20
237.6395411376716
 30
0.0
 10
27.00062699681244
 20
237.5640938928455
 30
0.0
 10
27.00062699681244
 20
237.4918923851469
 30
0.0
 10
27.00062699681243
 20
237.4233752391724
 30
0.0
 10
27.00062699681244
 20
237.359973214226
 30
0.0
 10
27.00062699681245
 20
237.3016868434715
 30
0.0
 10
27.00062699681243
 20
237.2485160829594
 30
0.0
 10
27.00062699681244
 20
237.205693083586
 30
0.0
 10
27.00062699681244
 20
237.1714522998486
 30
0.0
 10
27.00062699681246
 20
237.144293706979
 30
0.0
 10
27.00062699681242
 20
237.1194548980136
 30
0.0
 10
27.00062699681245
 20
237.0969359708569
 30
0.0
 10
27.00062699681246
 20
237.0767364061488
 30
0.0
 10
27.00062699681243
 20
237.0588581806458
 30
0.0
 10
27.00062699681245
 20
237.0409545790425
 30
0.0
 10
27.00062699681243
 20
237.0244705262952
 30
0.0
 10
27.00062699681243
 20
237.0109330969664
 30
0.0
 10
27.00062699681243
 20
237.0028342369746
 30
0.0
 10
27.00062699681245
 20
236.9993496551231
 30
0.0
 10
27.00062699681245
 20
237.0000882141788
 30
0.0
 10
27.00062699681244
 20
237.0002030812074
 30
0.0
  0
SPLINE
  5
AD
330
1F
100
AcDbEntity
  8
0
  6
Continuous
 62
     7
370
    30
100
AcDbSpline
210
0.0
220
0.0
230
1.0
 70
    24
 71
     3
 72
    42
 73
    38
 74
     0
 42
0.000000001
 43
0.00000001
 40
0.0
 40
0.0
 40
0.0
 40
0.0
 40
0.0305283800775522
 40
0.068184286588574
 40
0.1013304905167223
 40
0.1344946204014618
 40
0.167685842773438
 40
0.1788702936958337
 40
0.1900592020541939
 40
0.2012529158662383
 40
0.2124517827016821
 40
0.2236561496506853
 40
0.2348663632925256
 40
0.2460827696645048
 40
0.2809127608967586
 40
0.3156969708173724
 40
0.3504458778175154
 40
0.3851699922475287
 40
0.4198798469797738
 40
0.4545859878695251
 40
0.4892989641568689
 40
0.516585241096261
 40
0.5438873541943453
 40
0.5712104020657413
 40
0.5985594716166278
 40
0.6259396352496392
 40
0.6522277422478985
 40
0.6780260434645541
 40
0.7141067820062101
 40
0.7501553794396134
 40
0.7861835921471505
 40
0.8222031964712306
 40
0.8582259771968614
 40
0.8936200026112714
 40
0.9290396046976149
 40
0.9644959073584443
 40
1.0
 40
1.0
 40
1.0
 40
1.0
 10
27.00062699681243
 20
264.9997891723601
 30
0.0
 10
27.00062699681243
 20
264.9996343392092
 30
0.0
 10
27.00062699681242
 20
264.9992885236792
 30
0.0
 10
27.00062699681244
 20
264.9930507157455
 30
0.0
 10
27.00062699681245
 20
264.982843939037
 30
0.0
 10
27.00062699681243
 20
264.9690958733835
 30
0.0
 10
27.00062699681245
 20
264.9554089863462
 30
0.0
 10
27.00062699681243
 20
264.9441649181709
 30
0.0
 10
27.00062699681244
 20
264.9369374186707
 30
0.0
 10
27.00062699681244
 20
264.9292718653874
 30
0.0
 10
27.00062699681243
 20
264.9211683837722
 30
0.0
 10
27.00062699681245
 20
264.9126269657652
 30
0.0
 10
27.00062699681243
 20
264.9036475184831
 30
0.0
 10
27.00062699681246
 20
264.8876238040724
 30
0.0
 10
27.00062699681245
 20
264.8628666921636
 30
0.0
 10
27.00062699681243
 20
264.8267207455297
 30
0.0
 10
27.00062699681245
 20
264.786436433905
 30
0.0
 10
27.00062699681243
 20
264.7420135499251
 30
0.0
 10
27.00062699681244
 20
264.6934521408197
 30
0.0
 10
27.00062699681244
 20
264.640752259731
 30
0.0
 10
27.00062699681243
 20
264.5879762420362
 30
0.0
 10
27.00062699681244
 20
264.5360966424338
 30
0.0
 10
27.00062699681245
 20
264.4859831652527
 30
0.0
 10
27.00062699681243
 20
264.4333151166313
 30
0.0
 10
27.00062699681244
 20
264.3780925684864
 30
0.0
 10
27.00062699681243
 20
264.3211087366982
 30
0.0
 10
27.00062699681244
 20
264.2628715591997
 30
0.0
 10
27.00062699681245
 20
264.1957334628436
 30
0.0
 10
27.00062699681244
 20
264.1178359771434
 30
0.0
 10
27.00062699681245
 20
264.0275335743561
 30
0.0
 10
27.00062699681243
 20
263.9330396364134
 30
0.0
 10
27.00062699681245
 20
263.8343561184413
 30
0.0
 10
27.00062699681241
 20
263.7320888687107
 30
0.0
 10
27.00062699681246
 20
263.6263504265118
 30
0.0
 10
27.00062699681243
 20
263.5171324502573
 30
0.0
 10
27.00062699681243
 20
263.4041469258672
 30
0.0
 10
27.00062699681244
 20
263.3255038743057
 30
0.0
 10
27.00062699681244
 20
263.2861558665
 30
0.0
  0
LINE
  5
AE
330
1F
100
AcDbEntity
  8
0
  6
Continuous
 62
     7
370
    30
100
AcDbLine
 10
83.0006269968
 20
286.7745500044
 30
0.0
 11
83.0006269968
 21
288.5
 31
0.0
  0
LINE
  5
AF
330
1F
100
AcDbEntity
  8
0
  6
Continuous
 62
     7
370
    30
100
AcDbLine
 10
83.0006269968
 20
213.5
 30
0.0
 11
83.0006269968
 21
286.7745500044
 31
0.0
  0
LINE
  5
B0
330
1F
100
AcDbEntity
  8
0
  6
Continuous
 62
     7
370
    30
100
AcDbLine
 10
75.0006269968
 20
285.8205620043
 30
0.0
 11
75.0006269968
 21
287.5
 31
0.0
  0
LINE
  5
B1
330
1F
100
AcDbEntity
  8
0
  6
Continuous
 62
     7
370
    30
100
AcDbLine
 10
75.0006269968
 20
214.5
 30
0.0
 11
75.0006269968
 21
285.8205620043
 31
0.0
  0
ARC
  5
B2
330
1F
100
AcDbEntity
  8
0
  6
Continuous
 62
     7
370
    30
100
AcDbCircle
 10
200.0
 20
95.0006269968
 30
0.0
 40
1.0
100
AcDbArc
 50
180.0
 51
270.0
  0
ARC
  5
B3
330
1F
100
AcDbEntity
  8
0
  6
Continuous
 62
     7
370
    30
100
AcDbCircle
 10
228.0
 20
95.0006269968
 30
0.0
 40
1.0
100
AcDbArc
 50
270.0
 51
0.0
  0
LINE
  5
B4
330
1F
100
AcDbEntity
  8
0
  6
Continuous
 62
     7
370
    30
100
AcDbLine
 10
199.0
 20
142.0006269968
 30
0.0
 11
199.0
 21
95.0006269968
 31
0.0
  0
LINE
  5
B5
330
1F
100
AcDbEntity
  8
0
  6
Continuous
 62
     7
370
    30
100
AcDbLine
 10
229.0
 20
95.0006269968
 30
0.0
 11
229.0
 21
142.0006269968
 31
0.0
  0
LINE
  5
B6
330
1F
100
AcDbEntity
  8
0
  6
Continuous
 62
     7
370
    30
100
AcDbLine
 10
251.5
 20
143.0006269968
 30
0.0
 11
251.5
 21
150.0006269968
 31
0.0
  0
LINE
  5
B7
330
1F
100
AcDbEntity
  8
0
  6
Continuous
 62
     7
370
    30
100
AcDbLine
 10
176.5
 20
150.0006269968
 30
0.0
 11
176.5
 21
143.0006269968
 31
0.0
  0
ARC
  5
B8
330
1F
100
AcDbEntity
  8
0
  6
Continuous
 62
     7
370
    30
100
AcDbCircle
 10
250.5
 20
143.0006269968
 30
0.0
 40
1.0
100
AcDbArc
 50
270.0
 51
0.0
  0
ARC
  5
B9
330
1F
100
AcDbEntity
  8
0
  6
Continuous
 62
     7
370
    30
100
AcDbCircle
 10
177.5
 20
143.0006269968
 30
0.0
 40
1.0
100
AcDbArc
 50
180.0
 51
270.0
  0
SPLINE
  5
BA
330
1F
100
AcDbEntity
  8
0
  6
Continuous
 62
     7
370
    30
100
AcDbSpline
210
0.0
220
0.0
230
1.0
 70
    24
 71
     3
 72
    78
 73
    74
 74
     0
 42
0.000000001
 43
0.00000001
 40
0.0
 40
0.0
 40
0.0
 40
0.0
 40
0.0178966799613017
 40
0.0357693731750431
 40
0.0536246039957403
 40
0.0714689159320642
 40
0.0893088645074918
 40
0.1071510100550306
 40
0.1176689161031021
 40
0.1281912030461332
 40
0.1387192098143369
 40
0.149254273157081
 40
0.1597977271397359
 40
0.1703509026455975
 40
0.1815034859342281
 40
0.1926780083996674
 40
0.2105383516319642
 40
0.2283813536271594
 40
0.2462135547602365
 40
0.2640415072934174
 40
0.2818717681727507
 40
0.2949526480767974
 40
0.3080408760684848
 40
0.3211390296008252
 40
0.3262880453209558
 40
0.3314391454763739
 40
0.3365924855058112
 40
0.3417482206454119
 40
0.3469065059150803
 40
0.3520674961049276
 40
0.3697201672709046
 40
0.3873467073091309
 40
0.4049533680050835
 40
0.422546422336942
 40
0.4401321578434019
 40
0.4577168699138547
 40
0.4680814561077308
 40
0.4784491612057155
 40
0.4888212717890196
 40
0.4991990728003529
 40
0.5095838470701385
 40
0.5199768748466334
 40
0.5303794333308052
 40
0.5407927962167924
 40
0.5588233580442775
 40
0.5768260272732755
 40
0.5948074628786293
 40
0.6127743474443264
 40
0.6307333797977552
 40
0.6486912675536347
 40
0.6656279989929784
 40
0.6825752953472861
 40
0.6995387644599436
 40
0.7165239981555543
 40
0.7335365667974736
 40
0.7515671292527308
 40
0.7695697988782016
 40
0.7875512347013296
 40
0.8055181193590878
 40
0.8234771517321198
 40
0.8414350394885491
 40
0.8535319542418871
 40
0.8656334408050989
 40
0.8777415448389687
 40
0.8898583086526192
 40
0.9019857701801569
 40
0.9141259619683197
 40
0.9262809101775957
 40
0.9439335830743826
 40
0.961560124205649
 40
0.9791667855019643
 40
0.9967598400876179
 40
1.0
 40
1.0
 40
1.0
 40
1.0
 10
220.71195754046
 20
94.00062699681244
 30
0.0
 10
220.7901987504612
 20
94.00062699681244
 30
0.0
 10
220.9465763045242
 20
94.00062699681244
 30
0.0
 10
221.1778226874774
 20
94.00062699681244
 30
0.0
 10
221.4063935274061
 20
94.00062699681244
 30
0.0
 10
221.6320667777781
 20
94.00062699681246
 30
0.0
 10
221.8549013657575
 20
94.00062699681244
 30
0.0
 10
222.0447495465027
 20
94.00062699681244
 30
0.0
 10
222.202818681345
 20
94.00062699681244
 30
0.0
 10
222.3301106388267
 20
94.00062699681244
 30
0.0
 10
222.4564126965255
 20
94.00062699681243
 30
0.0
 10
222.5817249710301
 20
94.00062699681244
 30
0.0
 10
222.706047421303
 20
94.00062699681246
 30
0.0
 10
222.8316719761104
 20
94.00062699681244
 30
0.0
 10
222.9585616232139
 20
94.00062699681244
 30
0.0
 10
223.1121224930552
 20
94.00062699681244
 30
0.0
 10
223.2888944975792
 20
94.00062699681243
 30
0.0
 10
223.4873759933542
 20
94.00062699681244
 30
0.0
 10
223.6822667911496
 20
94.00062699681244
 30
0.0
 10
223.8735662045475
 20
94.00062699681243
 30
0.0
 10
224.0445795907648
 20
94.00062699681244
 30
0.0
 10
224.1963358850763
 20
94.00062699681244
 30
0.0
 10
224.3297641348095
 20
94.00062699681244
 30
0.0
 10
224.4346202458553
 20
94.00062699681244
 30
0.0
 10
224.5120641698471
 20
94.00062699681246
 30
0.0
 10
224.5628936712575
 20
94.00062699681244
 30
0.0
 10
224.6134251824877
 20
94.00062699681244
 30
0.0
 10
224.6636587328536
 20
94.00062699681241
 30
0.0
 10
224.7135943252782
 20
94.00062699681244
 30
0.0
 10
224.8032700262809
 20
94.00062699681241
 30
0.0
 10
224.9310413525783
 20
94.00062699681244
 30
0.0
 10
225.0942525961897
 20
94.00062699681244
 30
0.0
 10
225.253336323966
 20
94.00062699681244
 30
0.0
 10
225.4082918627691
 20
94.00062699681241
 30
0.0
 10
225.5591190603473
 20
94.00062699681244
 30
0.0
 10
225.6857286636046
 20
94.00062699681246
 30
0.0
 10
225.7898600075169
 20
94.00062699681244
 30
0.0
 10
225.8729318344712
 20
94.00062699681246
 30
0.0
 10
225.954570337889
 20
94.00062699681244
 30
0.0
 10
226.0347756214699
 20
94.00062699681244
 30
0.0
 10
226.1135476489467
 20
94.00062699681244
 30
0.0
 10
226.1908864458194
 20
94.00062699681244
 30
0.0
 10
226.2667919322872
 20
94.00062699681244
 30
0.0
 10
226.3593933183215
 20
94.00062699681244
 30
0.0
 10
226.4670298950506
 20
94.00062699681244
 30
0.0
 10
226.5875874235973
 20
94.00062699681244
 30
0.0
 10
226.7033355507376
 20
94.00062699681244
 30
0.0
 10
226.8142736800695
 20
94.00062699681244
 30
0.0
 10
226.9204018765907
 20
94.00062699681244
 30
0.0
 10
227.0197894640394
 20
94.00062699681243
 30
0.0
 10
227.1127506142243
 20
94.00062699681244
 30
0.0
 10
227.1995959841703
 20
94.00062699681244
 30
0.0
 10
227.2821655410225
 20
94.00062699681243
 30
0.0
 10
227.3604588623247
 20
94.00062699681244
 30
0.0
 10
227.4359061071503
 20
94.00062699681247
 30
0.0
 10
227.5081076148479
 20
94.00062699681246
 30
0.0
 10
227.576624760821
 20
94.00062699681244
 30
0.0
 10
227.6400267857661
 20
94.00062699681243
 30
0.0
 10
227.6983131565195
 20
94.00062699681246
 30
0.0
 10
227.7514839170309
 20
94.00062699681244
 30
0.0
 10
227.7943069164038
 20
94.00062699681244
 30
0.0
 10
227.8285477001408
 20
94.00062699681244
 30
0.0
 10
227.8557062930103
 20
94.00062699681241
 30
0.0
 10
227.8805451019756
 20
94.00062699681244
 30
0.0
 10
227.9030640291324
 20
94.00062699681247
 30
0.0
 10
227.9232635938407
 20
94.00062699681243
 30
0.0
 10
227.9411418193439
 20
94.00062699681244
 30
0.0
 10
227.9590454209473
 20
94.00062699681246
 30
0.0
 10
227.9755294736946
 20
94.00062699681243
 30
0.0
 10
227.9890669030231
 20
94.00062699681246
 30
0.0
 10
227.9971657630144
 20
94.00062699681241
 30
0.0
 10
228.0006503448656
 20
94.00062699681247
 30
0.0
 10
227.9999117858095
 20
94.00062699681243
 30
0.0
 10
227.9997969187809
 20
94.00062699681244
 30
0.0
  0
SPLINE
  5
BB
330
1F
100
AcDbEntity
  8
0
  6
Continuous
 62
     7
370
    30
100
AcDbSpline
210
0.0
220
0.0
230
1.0
 70
    24
 71
     3
 72
   147
 73
   143
 74
     0
 42
0.000000001
 43
0.00000001
 40
0.0
 40
0.0
 40
0.0
 40
0.0
 40
0.0073711712746815
 40
0.0164633057305789
 40
0.0244665586260495
 40
0.0324741397988439
 40
0.0404882625359824
 40
0.0431887826142969
 40
0.045890378954232
 40
0.0485931355857367
 40
0.0512971364305878
 40
0.0540024652947721
 40
0.0567092058609224
 40
0.0594174416808095
 40
0.0678272502001643
 40
0.0762260046810078
 40
0.0846162351631189
 40
0.0930004794029169
 40
0.1013812805948323
 40
0.1097611850680597
 40
0.1181427399690676
 40
0.1247310954681358
 40
0.1313232746564353
 40
0.1379205086101491
 40
0.1445240255784212
 40
0.1511350503084702
 40
0.1574815248287228
 40
0.1637095254909166
 40
0.1724201285183627
 40
0.1811233298828034
 40
0.1898219678414637
 40
0.1985188851194009
 40
0.2072169261287497
 40
0.2157634940450985
 40
0.2243165786584769
 40
0.2328788638916637
 40
0.2414530250273829
 40
0.2507047612453107
 40
0.2599444880716537
 40
0.2691755817452417
 40
0.2784014279829296
 40
0.2876254182798755
 40
0.2968509461780852
 40
0.3022895633348449
 40
0.307730585638775
 40
0.3131747054785216
 40
0.3186226140617104
 40
0.3240750011550518
 40
0.3295325548271736
 40
0.3352990308926507
 40
0.3410767917294149
 40
0.3503114406352719
 40
0.3595371232948626
 40
0.3687572213938526
 40
0.3779751227641757
 40
0.3871942176595279
 40
0.3939576561737756
 40
0.4007248939996503
 40
0.407497263803234
 40
0.4101595503992135
 40
0.4128229147476098
 40
0.4154874372176571
 40
0.4181531980738425
 40
0.4208202774688468
 40
0.4234887554365367
 40
0.432616027983794
 40
0.4417297894922675
 40
0.4508332724330899
 40
0.4599297202350316
 40
0.4690223838553438
 40
0.4781145183104614
 40
0.4834735034828609
 40
0.4888341012773761
 40
0.4941969769178279
 40
0.4995627947808544
 40
0.5049322181509405
 40
0.5103059089774683
 40
0.515684527634226
 40
0.5210687326818044
 40
0.5303913927164505
 40
0.5396996309479198
 40
0.548996890383659
 40
0.5582866262381673
 40
0.5675723021245577
 40
0.5768573861994107
 40
0.5856144837770707
 40
0.5943770439193939
 40
0.6031479661487535
 40
0.6119301417050481
 40
0.6207264507316886
 40
0.6300491110907915
 40
0.6393573495271518
 40
0.6486546090754133
 40
0.6579443449774716
 40
0.6672300208739744
 40
0.6765151049491162
 40
0.6827697865719167
 40
0.6890268320383686
 40
0.6952872990526201
 40
0.7015522435858502
 40
0.7078227193471466
 40
0.7140997772600698
 40
0.7203844649461858
 40
0.7295117383882541
 40
0.7386255004618022
 40
0.7477289837129824
 40
0.7568254316461104
 40
0.7659180952943498
 40
0.7750102297502537
 40
0.7830134826457676
 40
0.7910210638186403
 40
0.7990351865558923
 40
0.8017357066342528
 40
0.8044373029742379
 40
0.8071400596057965
 40
0.8098440604507056
 40
0.8125493893149517
 40
0.8152561298811677
 40
0.8179643657011245
 40
0.8263741742205108
 40
0.8347729287013793
 40
0.843163159183509
 40
0.8515474034233195
 40
0.8599282046152412
 40
0.868308109088469
 40
0.8766896639894712
 40
0.8832780194885315
 40
0.8898701986768195
 40
0.8964674326305185
 40
0.9030709495987729
 40
0.9096819743288009
 40
0.9160293186252235
 40
0.9222583978090453
 40
0.9309702031135606
 40
0.9396742478486227
 40
0.9483733706289217
 40
0.9570704148885556
 40
0.9657682261001145
 40
0.9743142224077403
 40
0.9828663942814779
 40
0.9914274276218152
 40
1.0
 40
1.0
 40
1.0
 40
1.0
 10
200.0002108276526
 20
94.00062699681244
 30
0.0
 10
200.0003656608037
 20
94.00062699681244
 30
0.0
 10
200.000711476334
 20
94.00062699681247
 30
0.0
 10
200.0069492842682
 20
94.00062699681241
 30
0.0
 10
200.0171560609772
 20
94.00062699681247
 30
0.0
 10
200.0309041266312
 20
94.00062699681243
 30
0.0
 10
200.0445910136689
 20
94.00062699681244
 30
0.0
 10
200.0558350818444
 20
94.00062699681244
 30
0.0
 10
200.0630625813448
 20
94.00062699681243
 30
0.0
 10
200.0707281346283
 20
94.00062699681244
 30
0.0
 10
200.0788316162435
 20
94.00062699681244
 30
0.0
 10
200.0873730342507
 20
94.0006269968124
 30
0.0
 10
200.096352481533
 20
94.00062699681246
 30
0.0
 10
200.1123761959441
 20
94.00062699681244
 30
0.0
 10
200.1371333078536
 20
94.00062699681244
 30
0.0
 10
200.1732792544884
 20
94.00062699681246
 30
0.0
 10
200.2135635661142
 20
94.00062699681244
 30
0.0
 10
200.2579864500941
 20
94.00062699681246
 30
0.0
 10
200.3065478592027
 20
94.00062699681241
 30
0.0
 10
200.3592477402823
 20
94.00062699681244
 30
0.0
 10
200.4120237580113
 20
94.00062699681244
 30
0.0
 10
200.4639033575129
 20
94.00062699681244
 30
0.0
 10
200.5140168350513
 20
94.00062699681244
 30
0.0
 10
200.5666848823355
 20
94.00062699681244
 30
0.0
 10
200.6219074354799
 20
94.00062699681244
 30
0.0
 10
200.6788887151742
 20
94.00062699681244
 30
0.0
 10
200.7371198876874
 20
94.00062699681243
 30
0.0
 10
200.8042486485355
 20
94.00062699681247
 30
0.0
 10
200.8821368029522
 20
94.00062699681241
 30
0.0
 10
200.9724317485035
 20
94.00062699681244
 30
0.0
 10
201.0669210705173
 20
94.00062699681244
 30
0.0
 10
201.1656046639423
 20
94.00062699681247
 30
0.0
 10
201.2678697738802
 20
94.00062699681241
 30
0.0
 10
201.3736290938314
 20
94.00062699681246
 30
0.0
 10
201.4827973528108
 20
94.00062699681244
 30
0.0
 10
201.5960116410303
 20
94.00062699681246
 30
0.0
 10
201.7162922556977
 20
94.00062699681244
 30
0.0
 10
201.8438631882154
 20
94.00062699681244
 30
0.0
 10
201.9789742305967
 20
94.00062699681246
 30
0.0
 10
202.1183575144598
 20
94.00062699681243
 30
0.0
 10
202.2620135278356
 20
94.00062699681246
 30
0.0
 10
202.4099417793051
 20
94.00062699681244
 30
0.0
 10
202.5412935453706
 20
94.00062699681241
 30
0.0
 10
202.6542596387132
 20
94.00062699681247
 30
0.0
 10
202.7474219422052
 20
94.00062699681243
 30
0.0
 10
202.8420674465859
 20
94.00062699681244
 30
0.0
 10
202.9381962252395
 20
94.00062699681243
 30
0.0
 10
203.0358083187079
 20
94.00062699681244
 30
0.0
 10
203.1367377015688
 20
94.00062699681244
 30
0.0
 10
203.2411051294702
 20
94.00062699681247
 30
0.0
 10
203.3704934783487
 20
94.00062699681241
 30
0.0
 10
203.5241877486045
 20
94.00062699681244
 30
0.0
 10
203.7035391731468
 20
94.00062699681244
 30
0.0
 10
203.8865503887762
 20
94.00062699681244
 30
0.0
 10
204.0732207910798
 20
94.00062699681244
 30
0.0
 10
204.2466226370877
 20
94.00062699681243
 30
0.0
 10
204.4056992186698
 20
94.00062699681246
 30
0.0
 10
204.5495552700743
 20
94.00062699681246
 30
0.0
 10
204.665835253862
 20
94.00062699681244
 30
0.0
 10
204.7534181962594
 20
94.00062699681244
 30
0.0
 10
204.8115429214356
 20
94.00062699681244
 30
0.0
 10
204.8699712456486
 20
94.00062699681244
 30
0.0
 10
204.9287031791539
 20
94.00062699681243
 30
0.0
 10
204.9877388002278
 20
94.00062699681244
 30
0.0
 10
205.0949411174187
 20
94.00062699681241
 30
0.0
 10
205.2514951578895
 20
94.00062699681247
 30
0.0
 10
205.4593345503896
 20
94.00062699681241
 30
0.0
 10
205.6699776369752
 20
94.00062699681244
 30
0.0
 10
205.8834239059922
 20
94.00062699681243
 30
0.0
 10
206.0996729967254
 20
94.00062699681244
 30
0.0
 10
206.2887276338293
 20
94.00062699681244
 30
0.0
 10
206.4493904706075
 20
94.00062699681244
 30
0.0
 10
206.5807452626867
 20
94.00062699681243
 30
0.0
 10
206.7130730707327
 20
94.00062699681246
 30
0.0
 10
206.8463740261005
 20
94.00062699681244
 30
0.0
 10
206.9806481020067
 20
94.00062699681244
 30
0.0
 10
207.1158952341269
 20
94.00062699681244
 30
0.0
 10
207.2521156663896
 20
94.00062699681244
 30
0.0
 10
207.4227054629963
 20
94.00062699681244
 30
0.0
 10
207.6283259205235
 20
94.00062699681244
 30
0.0
 10
207.8698097072259
 20
94.00062699681246
 30
0.0
 10
208.1132835541181
 20
94.00062699681243
 30
0.0
 10
208.3587470630617
 20
94.00062699681244
 30
0.0
 10
208.6062001516054
 20
94.00062699681244
 30
0.0
 10
208.850889690349
 20
94.00062699681244
 30
0.0
 10
209.0926812698021
 20
94.00062699681244
 30
0.0
 10
209.3314556800744
 20
94.00062699681244
 30
0.0
 10
209.5719983160684
 20
94.00062699681244
 30
0.0
 10
209.8143093698316
 20
94.00062699681244
 30
0.0
 10
210.0630985675688
 20
94.00062699681243
 30
0.0
 10
210.3181391945678
 20
94.00062699681246
 30
0.0
 10
210.5792026090531
 20
94.00062699681244
 30
0.0
 10
210.8412279434988
 20
94.00062699681244
 30
0.0
 10
211.1042152936035
 20
94.00062699681244
 30
0.0
 10
211.3681641026228
 20
94.00062699681244
 30
0.0
 10
211.6042320599301
 20
94.00062699681244
 30
0.0
 10
211.8120729429883
 20
94.00062699681246
 30
0.0
 10
211.991441960509
 20
94.00062699681244
 30
0.0
 10
212.1712468616714
 20
94.00062699681244
 30
0.0
 10
212.3514878376595
 20
94.00062699681244
 30
0.0
 10
212.5321647645341
 20
94.00062699681244
 30
0.0
 10
212.7132778542222
 20
94.00062699681244
 30
0.0
 10
212.922112919452
 20
94.00062699681244
 30
0.0
 10
213.1585604261794
 20
94.00062699681244
 30
0.0
 10
213.4224820166436
 20
94.00062699681244
 30
0.0
 10
213.6863127469869
 20
94.00062699681244
 30
0.0
 10
213.9500522226128
 20
94.00062699681244
 30
0.0
 10
214.2137002963623
 20
94.00062699681244
 30
0.0
 10
214.4667109919719
 20
94.00062699681243
 30
0.0
 10
214.7090896484692
 20
94.00062699681243
 30
0.0
 10
214.9408633597709
 20
94.00062699681246
 30
0.0
 10
215.121279081847
 20
94.00062699681243
 30
0.0
 10
215.2504411040693
 20
94.00062699681246
 30
0.0
 10
215.3284301397436
 20
94.00062699681244
 30
0.0
 10
215.4064110955876
 20
94.00062699681244
 30
0.0
 10
215.4843840387095
 20
94.00062699681244
 30
0.0
 10
215.5623489369395
 20
94.00062699681244
 30
0.0
 10
215.6403058505667
 20
94.00062699681244
 30
0.0
 10
215.7729399436053
 20
94.00062699681247
 30
0.0
 10
215.9599224915935
 20
94.00062699681244
 30
0.0
 10
216.200749547212
 20
94.00062699681244
 30
0.0
 10
216.4406690678473
 20
94.00062699681244
 30
0.0
 10
216.6796802960658
 20
94.00062699681244
 30
0.0
 10
216.9177833991342
 20
94.00062699681241
 30
0.0
 10
217.1549780633339
 20
94.00062699681247
 30
0.0
 10
217.3743763838685
 20
94.00062699681243
 30
0.0
 10
217.5761897735808
 20
94.00062699681247
 30
0.0
 10
217.7606348632247
 20
94.00062699681241
 30
0.0
 10
217.9445191011686
 20
94.00062699681244
 30
0.0
 10
218.1278426248628
 20
94.00062699681244
 30
0.0
 10
218.3080951711002
 20
94.00062699681244
 30
0.0
 10
218.4841388694299
 20
94.00062699681244
 30
0.0
 10
218.6786030188373
 20
94.00062699681243
 30
0.0
 10
218.8934254193774
 20
94.00062699681246
 30
0.0
 10
219.129096990879
 20
94.00062699681244
 30
0.0
 10
219.362965834022
 20
94.00062699681244
 30
0.0
 10
219.5950325655401
 20
94.00062699681244
 30
0.0
 10
219.8239220912963
 20
94.00062699681244
 30
0.0
 10
220.0496848041953
 20
94.00062699681244
 30
0.0
 10
220.2723090492306
 20
94.00062699681244
 30
0.0
 10
220.4933442458567
 20
94.00062699681244
 30
0.0
 10
220.6390537317425
 20
94.00062699681244
 30
0.0
 10
220.71195754046
 20
94.00062699681244
 30
0.0
  0
LINE
  5
BC
330
1F
100
AcDbEntity
  8
0
  6
Continuous
 62
     7
370
    30
100
AcDbLine
 10
225.2441794712
 20
150.0006269968
 30
0.0
 11
176.5
 21
150.0006269968
 31
0.0
  0
LINE
  5
BD
330
1F
100
AcDbEntity
  8
0
  6
Continuous
 62
     7
370
    30
100
AcDbLine
 10
251.5
 20
150.0006269968
 30
0.0
 11
225.2441794712
 21
150.0006269968
 31
0.0
  0
LINE
  5
BE
330
1F
100
AcDbEntity
  8
0
  6
Continuous
 62
     7
370
    30
100
AcDbLine
 10
224.9443346853
 20
142.0006269968
 30
0.0
 11
177.5
 21
142.0006269968
 31
0.0
  0
LINE
  5
BF
330
1F
100
AcDbEntity
  8
0
  6
Continuous
 62
     7
370
    30
100
AcDbLine
 10
250.5
 20
142.0006269968
 30
0.0
 11
224.9443346853
 21
142.0006269968
 31
0.0
  0
LINE
  5
C0
330
1F
100
AcDbEntity
  8
0
  6
Continuous
 62
     7
370
    30
100
AcDbLine
 10
349.3080551983
 20
76.5878051401
 30
0.0
 11
349.3080551983
 21
79.4350852762
 31
0.0
  0
LINE
  5
C1
330
1F
100
AcDbEntity
  8
0
  6
Continuous
 62
     7
370
    30
100
AcDbLine
 10
328.3305551983
 20
72.7266657719
 30
0.0
 11
328.3305551983
 21
70.6138875481
 31
0.0
  0
LINE
  5
C2
330
1F
100
AcDbEntity
  8
0
  6
Continuous
 62
     7
370
    30
100
AcDbLine
 10
349.2855551983
 20
70.6138875481
 30
0.0
 11
349.2855551983
 21
76.1911980832
 31
0.0
  0
SPLINE
  5
C3
330
1F
100
AcDbEntity
  8
0
  6
Continuous
 62
     7
370
    30
100
AcDbSpline
210
0.0
220
0.0
230
1.0
 70
     8
 71
     3
 72
   160
 73
   156
 74
     0
 42
0.000000001
 43
0.00000001
 40
0.0
 40
0.0
 40
0.0
 40
0.0
 40
0.0000970579282111
 40
0.0063443094114191
 40
0.0125943543006387
 40
0.0188476755012998
 40
0.0251048460496258
 40
0.0313664350789816
 40
0.0376330059708726
 40
0.0439051145174565
 40
0.0501833070946147
 40
0.0564681188518473
 40
0.0627600719250724
 40
0.0690596736796025
 40
0.075367414989835
 40
0.0816837685639109
 40
0.0880091873209284
 40
0.094344102829366
 40
0.1006889238153005
 40
0.1070440347495505
 40
0.1134097945229811
 40
0.119786535219404
 40
0.1261745609953752
 40
0.1325741470760754
 40
0.1389855388765351
 40
0.145408951256335
 40
0.1518445679161986
 40
0.158292540943097
 40
0.16475299051063
 40
0.1712260047392742
 40
0.1777116397206418
 40
0.1842099197078622
 40
0.1907208374730621
 40
0.1972443548308559
 40
0.2037804033253351
 40
0.2103288850761728
 40
0.2168896737774507
 40
0.2234626158414596
 40
0.2300475316777656
 40
0.236644217096274
 40
0.2432524448218472
 40
0.2498719661064991
 40
0.2565025124246622
 40
0.2631437972354025
 40
0.2697955177961779
 40
0.2764573570111675
 40
0.28312898529841
 40
0.2898100624592486
 40
0.2965002395349136
 40
0.3031991606352017
 40
0.309906464725835
 40
0.316621787361388
 40
0.3233447623527921
 40
0.3300750233591879
 40
0.3368122053957329
 40
0.3435559462502052
 40
0.3503058878030746
 40
0.3570616772469137
 40
0.3638229682023374
 40
0.3705894217298118
 40
0.3773607072367299
 40
0.3841365032813753
 40
0.3909164982758842
 40
0.397700391091277
 40
0.4044878915685127
 40
0.4112787209404503
 40
0.4180726121691286
 40
0.4248693102046244
 40
0.4316685721707644
 40
0.4384701674838498
 40
0.4452738779104565
 40
0.452079497570217
 40
0.4588868328899704
 40
0.4656957025144476
 40
0.4725059371799468
 40
0.4793173795559481
 40
0.4861298840601357
 40
0.4929433166514262
 40
0.4997575125880516
 40
0.5065723624906037
 40
0.5133877683156874
 40
0.5202036425119002
 40
0.5270199077598884
 40
0.5338364967214818
 40
0.5406533517949442
 40
0.5474704248782017
 40
0.5542876771436344
 40
0.5611050788259637
 40
0.5679226090259006
 40
0.5747402555316721
 40
0.5815580146601114
 40
0.5883758911199393
 40
0.5951938978987554
 40
0.6020120561758432
 40
0.6088303952632897
 40
0.6156489525770015
 40
0.6224677736406083
 40
0.6292869121244328
 40
0.6361064299225972
 40
0.642926397271227
 40
0.6497468929116297
 40
0.6565680043022366
 40
0.663389827884009
 40
0.6702124694048145
 40
0.6770360443086226
 40
0.6838606781969616
 40
0.6906865073707119
 40
0.6975136794619351
 40
0.7043423541675361
 40
0.7111727040973076
 40
0.7180049157529113
 40
0.7248391906562619
 40
0.7316757466491693
 40
0.7385148193914428
 40
0.7453566640885143
 40
0.7522015574877051
 40
0.7590498001886745
 40
0.7659017193251499
 40
0.772757671686278
 40
0.7796180473629208
 40
0.786483274023412
 40
0.7933538219500385
 40
0.8002302099999694
 40
0.8071130126986209
 40
0.8140028687299442
 40
0.8209004911648277
 40
0.8278066798693716
 40
0.8347223366751318
 40
0.8416484840816532
 40
0.8485862885290398
 40
0.8555370896525206
 40
0.8625024374721212
 40
0.8687565930654825
 40
0.8750095263068122
 40
0.8812606124263443
 40
0.8875096648124083
 40
0.8937564490592466
 40
0.9000006686853331
 40
0.9062419446703002
 40
0.9124797862237309
 40
0.9187135480246074
 40
0.9249423659533922
 40
0.9311650574454985
 40
0.9373799612931323
 40
0.9435846688769264
 40
0.9497755496395494
 40
0.9559468595327659
 40
0.9620889308891966
 40
0.9681841122317851
 40
0.9741963603833395
 40
0.980038941550941
 40
0.9854365608497125
 40
0.9897017645833573
 40
0.9935562758497277
 40
1.0
 40
1.0
 40
1.0
 40
1.0
 10
321.4091147178354
 20
97.9694337120385
 30
0.0
 10
321.4086893849731
 20
97.96919278356003
 30
0.0
 10
321.3808869856165
 20
97.9534442008164
 30
0.0
 10
321.3264123880141
 20
97.92093295897516
 30
0.0
 10
321.245758314069
 20
97.87179141957648
 30
0.0
 10
321.1659717270609
 20
97.82111233836596
 30
0.0
 10
321.0869408283954
 20
97.76910756114542
 30
0.0
 10
321.0087055039075
 20
97.71572330726764
 30
0.0
 10
320.9312649657268
 20
97.66097693483616
 30
0.0
 10
320.8546294587326
 20
97.60486670489499
 30
0.0
 10
320.7788064026046
 20
97.54739600199542
 30
0.0
 10
320.7038041191095
 20
97.48856685555894
 30
0.0
 10
320.62963084058
 20
97.42838169835892
 30
0.0
 10
320.5562949831248
 20
97.36684291640924
 30
0.0
 10
320.4838050790482
 20
97.30395299285453
 30
0.0
 10
320.4121697992433
 20
97.23971449369405
 30
0.0
 10
320.3413979498742
 20
97.17413009707889
 30
0.0
 10
320.2714984743336
 20
97.10720261189353
 30
0.0
 10
320.202480452093
 20
97.03893500003686
 30
0.0
 10
320.1343530966387
 20
96.96933039835758
 30
0.0
 10
320.067125751855
 20
96.89839214113788
 30
0.0
 10
320.0008078869882
 20
96.82612378267675
 30
0.0
 10
319.9354090901261
 20
96.7525291198707
 30
0.0
 10
319.870939060197
 20
96.67761221458186
 30
0.0
 10
319.807407597491
 20
96.6013774156024
 30
0.0
 10
319.7448245927173
 20
96.5238293800085
 30
0.0
 10
319.6832000146364
 20
96.44497309369858
 30
0.0
 10
319.622543896312
 20
96.36481389090508
 30
0.0
 10
319.5628663200507
 20
96.28335747247488
 30
0.0
 10
319.5041774011119
 20
96.20060992271587
 30
0.0
 10
319.4464872702887
 20
96.11657772461933
 30
0.0
 10
319.389806055477
 20
96.03126777327724
 30
0.0
 10
319.3341438623657
 20
95.94468738733244
 30
0.0
 10
319.2795107543959
 20
95.85684431831795
 30
0.0
 10
319.2259167321509
 20
95.76774675776447
 30
0.0
 10
319.1733717123491
 20
95.67740334198115
 30
0.0
 10
319.1218855066193
 20
95.58582315444217
 30
0.0
 10
319.0714678002468
 20
95.4930157257417
 30
0.0
 10
319.0221281310801
 20
95.39899103111051
 30
0.0
 10
318.9738758687864
 20
95.3037594855189
 30
0.0
 10
318.9267201946441
 20
95.2073319364225
 30
0.0
 10
318.8806700820506
 20
95.10971965423614
 30
0.0
 10
318.835734277918
 20
95.01093432065237
 30
0.0
 10
318.7919212851125
 20
94.9109880149447
 30
0.0
 10
318.749239346082
 20
94.80989319842303
 30
0.0
 10
318.7076964277981
 20
94.70766269722428
 30
0.0
 10
318.6673002081175
 20
94.60430968364359
 30
0.0
 10
318.6280580636521
 20
94.49984765621898
 30
0.0
 10
318.5899770592109
 20
94.3942904187955
 30
0.0
 10
318.553063938858
 20
94.28765205879513
 30
0.0
 10
318.5173251186094
 20
94.17994692492252
 30
0.0
 10
318.4827666807687
 20
94.07118960452995
 30
0.0
 10
318.4493943698836
 20
93.96139490086075
 30
0.0
 10
318.4172135902847
 20
93.85057781037648
 30
0.0
 10
318.3862294051536
 20
93.7387535003629
 30
0.0
 10
318.3564465370488
 20
93.62593728699142
 30
0.0
 10
318.3278693698086
 20
93.51214461399657
 30
0.0
 10
318.3005019517363
 20
93.3973910321112
 30
0.0
 10
318.2743479999672
 20
93.28169217937942
 30
0.0
 10
318.249410905909
 20
93.16506376245009
 30
0.0
 10
318.2256937416427
 20
93.04752153892962
 30
0.0
 10
318.2031992671726
 20
92.92908130085713
 30
0.0
 10
318.181929938408
 20
92.80975885934365
 30
0.0
 10
318.1618879157675
 20
92.68957003039974
 30
0.0
 10
318.1430750732952
 20
92.56853062195958
 30
0.0
 10
318.1254930081836
 20
92.44665642209506
 30
0.0
 10
318.1091430506066
 20
92.32396318839851
 30
0.0
 10
318.0940262737669
 20
92.20046663850363
 30
0.0
 10
318.080143504075
 20
92.07618244170021
 30
0.0
 10
318.0674953313809
 20
91.95112621159369
 30
0.0
 10
318.0560821191875
 20
91.82531349975142
 30
0.0
 10
318.045904014785
 20
91.6987597902714
 30
0.0
 10
318.0369609592523
 20
91.57148049520902
 30
0.0
 10
318.0292526972761
 20
91.443490950789
 30
0.0
 10
318.0227787867543
 20
91.31480641433396
 30
0.0
 10
318.0175386081447
 20
91.18544206183363
 30
0.0
 10
318.0135313735423
 20
91.05541298608884
 30
0.0
 10
318.0107561411639
 20
90.92473446397905
 30
0.0
 10
318.0092118065598
 20
90.79342167811261
 30
0.0
 10
318.0088971115585
 20
90.6614897122725
 30
0.0
 10
318.0098106587213
 20
90.52895327686926
 30
0.0
 10
318.0119509250094
 20
90.39582699264501
 30
0.0
 10
318.0153162689637
 20
90.26212539478034
 30
0.0
 10
318.0199049375414
 20
90.12786293330073
 30
0.0
 10
318.0257150726687
 20
89.99305397348645
 30
0.0
 10
318.0327447175302
 20
89.85771279627014
 30
0.0
 10
318.040991822612
 20
89.72185359857696
 30
0.0
 10
318.0504542515259
 20
89.58549049355497
 30
0.0
 10
318.061129786636
 20
89.44863751065253
 30
0.0
 10
318.0730161345168
 20
89.31130859549728
 30
0.0
 10
318.086110931272
 20
89.17351760953082
 30
0.0
 10
318.1004117477441
 20
89.03527832935707
 30
0.0
 10
318.1159160946502
 20
88.89660444575821
 30
0.0
 10
318.1326214276758
 20
88.7575095623338
 30
0.0
 10
318.1505251525692
 20
88.61800719371715
 30
0.0
 10
318.1696246302719
 20
88.47811076331784
 30
0.0
 10
318.1899171821307
 20
88.33783360054039
 30
0.0
 10
318.2114000952371
 20
88.1971889374213
 30
0.0
 10
318.234070627944
 20
88.05618990462443
 30
0.0
 10
318.2579260156134
 20
87.91484952672614
 30
0.0
 10
318.2829634766553
 20
87.77318071671556
 30
0.0
 10
318.3091802189228
 20
87.63119626962504
 30
0.0
 10
318.3365734465353
 20
87.48890885519482
 30
0.0
 10
318.3651403672108
 20
87.34633100946353
 30
0.0
 10
318.3948782001983
 20
87.20347512515731
 30
0.0
 10
318.4257841849126
 20
87.06035344073558
 30
0.0
 10
318.4578555903863
 20
86.91697802792417
 30
0.0
 10
318.4910897256754
 20
86.77336077754083
 30
0.0
 10
318.5254839513682
 20
86.62951338338728
 30
0.0
 10
318.5610356923781
 20
86.48544732393773
 30
0.0
 10
318.597742452225
 20
86.34117384151128
 30
0.0
 10
318.6356018290477
 20
86.19670391855323
 30
0.0
 10
318.674611533634
 20
86.05204825058172
 30
0.0
 10
318.7147694098034
 20
85.90721721527406
 30
0.0
 10
318.7560734575459
 20
85.76222083705169
 30
0.0
 10
318.798521859398
 20
85.61706874640545
 30
0.0
 10
318.8421130106356
 20
85.47177013302847
 30
0.0
 10
318.886845553984
 20
85.32633369163432
 30
0.0
 10
318.9327184197048
 20
85.18076755907433
 30
0.0
 10
318.9797308721055
 20
85.03507924105621
 30
0.0
 10
319.0278825637727
 20
84.88927552635077
 30
0.0
 10
319.0771735991406
 20
84.74336238585583
 30
0.0
 10
319.1276046094196
 20
84.59734485320416
 30
0.0
 10
319.1791768414402
 20
84.45122688271428
 30
0.0
 10
319.2318922636663
 20
84.30501117933657
 30
0.0
 10
319.2857536935995
 20
84.15869899359534
 30
0.0
 10
319.3407649518926
 20
84.01228987281036
 30
0.0
 10
319.3969310508067
 20
83.86578135558914
 30
0.0
 10
319.4542584246977
 20
83.71916859803618
 30
0.0
 10
319.5127552221061
 20
83.57244389438473
 30
0.0
 10
319.5724316514755
 20
83.42559612258408
 30
0.0
 10
319.6311813843551
 20
83.28372709688274
 30
0.0
 10
319.6888362134482
 20
83.14693279664856
 30
0.0
 10
319.7452257099602
 20
83.01531965511634
 30
0.0
 10
319.8024435050579
 20
82.88391795508512
 30
0.0
 10
319.860480200651
 20
82.75274702653847
 30
0.0
 10
319.9193271879624
 20
82.62182386141406
 30
0.0
 10
319.9789750557596
 20
82.49116672134865
 30
0.0
 10
320.0394133405636
 20
82.36079557292564
 30
0.0
 10
320.1006301717989
 20
82.23073270387776
 30
0.0
 10
320.1626117475502
 20
82.1010036358116
 30
0.0
 10
320.2253415402689
 20
81.97163850860751
 30
0.0
 10
320.2887990519225
 20
81.84267425312936
 30
0.0
 10
320.3529577849487
 20
81.71415813641852
 30
0.0
 10
320.4177817780683
 20
81.58615382442099
 30
0.0
 10
320.4832193394852
 20
81.4587523545599
 30
0.0
 10
320.5491908983166
 20
81.33209347047458
 30
0.0
 10
320.6155631115135
 20
81.20641102643636
 30
0.0
 10
320.6820868290081
 20
81.08214246717279
 30
0.0
 10
320.7482182479535
 20
80.96024300151045
 30
0.0
 10
320.8124335271074
 20
80.84340166651998
 30
0.0
 10
320.8706952569924
 20
80.73867188506081
 30
0.0
 10
320.9219050764941
 20
80.64759158290704
 30
0.0
 10
320.9774169834691
 20
80.54964535334693
 30
0.0
 10
321.0171076611708
 20
80.48062901908393
 30
0.0
 10
321.0419425739591
 20
80.43744470625158
 30
0.0
  0
SPLINE
  5
C4
330
1F
100
AcDbEntity
  8
0
  6
Continuous
 62
     7
370
    30
100
AcDbSpline
210
0.0
220
0.0
230
1.0
 70
     8
 71
     3
 72
   165
 73
   161
 74
     0
 42
0.000000001
 43
0.00000001
 40
0.0
 40
0.0
 40
0.0
 40
0.0
 40
0.0066095281764853
 40
0.0093489493063943
 40
0.0138907084406698
 40
0.0186184991493556
 40
0.0236988771689068
 40
0.0290080821017162
 40
0.0344960832282306
 40
0.0401229961616001
 40
0.0458604916758136
 40
0.0516876119216306
 40
0.0575885645070203
 40
0.0635512171874372
 40
0.0695660870656898
 40
0.0756256455901448
 40
0.08172383149373
 40
0.0878557030529918
 40
0.0940171854590385
 40
0.1002048842954098
 40
0.1064159457510306
 40
0.1126479504044487
 40
0.1188988314841922
 40
0.1251668112233618
 40
0.1314503507632573
 40
0.13774811032445
 40
0.1440589172458926
 40
0.1503817401150365
 40
0.156715667660169
 40
0.1630598913980766
 40
0.1694136912694494
 40
0.1757764236688111
 40
0.1821475114084904
 40
0.1885264352551794
 40
0.1949127267531535
 40
0.2013059621073316
 40
0.2077057569435148
 40
0.2141117617992764
 40
0.220523658225831
 40
0.2269411554037138
 40
0.2333639871924285
 40
0.2397919095478618
 40
0.2462246982528964
 40
0.2526621469156398
 40
0.2591040651969752
 40
0.2655502772355673
 40
0.2720006202428012
 40
0.278454943245153
 40
0.2849131059539083
 40
0.2913749777459913
 40
0.2978404367409968
 40
0.304309368962761
 40
0.3107816675739017
 40
0.3172572321748618
 40
0.3237359681591347
 40
0.3302177861171821
 40
0.3367026012837316
 40
0.3431903330222819
 40
0.3496809043425095
 40
0.3561742414461215
 40
0.3626702732976224
 40
0.3691689312164699
 40
0.3756701484879007
 40
0.3821738599896562
 40
0.3886800018323274
 40
0.3951885110112864
 40
0.4016993250683235
 40
0.408212381761248
 40
0.414727618740279
 40
0.4212449732295951
 40
0.4277643817133167
 40
0.4342857796245788
 40
0.4408091010373208
 40
0.4473342783597031
 40
0.4538612420289661
 40
0.4603899202073162
 40
0.4669202384785207
 40
0.4734521195450951
 40
0.4799854829266462
 40
0.4865202446588183
 40
0.4930563169941014
 40
0.4995936081045138
 40
0.5061320217872696
 40
0.512671457174174
 40
0.5192118084461484
 40
0.5257529645541213
 40
0.5322947779480623
 40
0.5388371164945038
 40
0.5453798493173451
 40
0.5519228391531474
 40
0.5584659422111947
 40
0.565009007980613
 40
0.5715518790619168
 40
0.5780943910250543
 40
0.5846363722981589
 40
0.5911776440899169
 40
0.5977180203498292
 40
0.6042573077701288
 40
0.6107953058333898
 40
0.6173318069099586
 40
0.6238665964092205
 40
0.6303994529886737
 40
0.636930148824855
 40
0.6434584499495002
 40
0.6499841166547132
 40
0.656506903969628
 40
0.6630265622118697
 40
0.6695428376152043
 40
0.6760554730350461
 40
0.6825642087328438
 40
0.6890687832385756
 40
0.6955689342911402
 40
0.702064399854224
 40
0.7085549192049886
 40
0.7150402340917466
 40
0.7215200899554474
 40
0.7279942372090437
 40
0.7344624325678091
 40
0.7409244404223913
 40
0.7473800342455035
 40
0.7538289980227306
 40
0.7602711276965195
 40
0.7667062326122203
 40
0.7731341369546024
 40
0.7795546811625413
 40
0.7859677233100113
 40
0.792373140441055
 40
0.798770829846755
 40
0.8051607102730141
 40
0.8115427230474668
 40
0.8179168331163117
 40
0.8242830299804387
 40
0.8306413285236699
 40
0.8369917697248686
 40
0.8433344212483584
 40
0.8496693779074336
 40
0.8559967619975858
 40
0.8623167234969119
 40
0.86862944013246
 40
0.8749351173126028
 40
0.8812339879267617
 40
0.8875263120142803
 40
0.8938123763058204
 40
0.9000924936410828
 40
0.906367002267455
 40
0.9126362650247482
 40
0.9189006684219142
 40
0.9251606216112804
 40
0.9314165552672633
 40
0.937668920375168
 40
0.9439181869371851
 40
0.9501648426017081
 40
0.9564093912223605
 40
0.9626523513529446
 40
0.968894254684521
 40
0.9751356444302544
 40
0.9813770736638413
 40
0.9876191036171043
 40
0.9938623019416926
 40
1.0
 40
1.0
 40
1.0
 40
1.0
 10
321.0419425739591
 20
80.43744470625158
 30
0.0
 10
321.067562746431
 20
80.39323361868423
 30
0.0
 10
321.1038015954479
 20
80.33069856241228
 30
0.0
 10
321.1581860120272
 20
80.23810572208639
 30
0.0
 10
321.2054482634866
 20
80.15820613858551
 30
0.0
 10
321.2623319037169
 20
80.06298705911134
 30
0.0
 10
321.3226984643194
 20
79.96295949241505
 30
0.0
 10
321.3865902288674
 20
79.85822627785205
 30
0.0
 10
321.453202080849
 20
79.75024367413744
 30
0.0
 10
321.5220963569829
 20
79.63982922399305
 30
0.0
 10
321.5929404022443
 20
79.52760206070329
 30
0.0
 10
321.6654905319429
 20
79.41401804617738
 30
0.0
 10
321.7395624447279
 20
79.29942306128079
 30
0.0
 10
321.8150138120647
 20
79.18408503957971
 30
0.0
 10
321.8917324143023
 20
79.06821573075968
 30
0.0
 10
321.9696280652795
 20
78.95198557397003
 30
0.0
 10
322.0486269894389
 20
78.83553407655765
 30
0.0
 10
322.1286678354101
 20
78.71897719487842
 30
0.0
 10
322.2096987987206
 20
78.60241267723305
 30
0.0
 10
322.2916755107466
 20
78.48592399633289
 30
0.0
 10
322.3745594660489
 20
78.36958328829638
 30
0.0
 10
322.4583168342506
 20
78.25345358039397
 30
0.0
 10
322.542917550767
 20
78.13759050175199
 30
0.0
 10
322.6283346126211
 20
78.02204361283019
 30
0.0
 10
322.71454352709
 20
77.906857450086
 30
0.0
 10
322.8015218756337
 20
77.79207235523833
 30
0.0
 10
322.8892489657759
 20
77.67772513977145
 30
0.0
 10
322.9777055507931
 20
77.56384962207282
 30
0.0
 10
323.0668736021957
 20
77.45047706514887
 30
0.0
 10
323.1567361236898
 20
77.33763653601203
 30
0.0
 10
323.2472769980047
 20
77.22535520283635
 30
0.0
 10
323.3384808599743
 20
77.11365858226962
 30
0.0
 10
323.430332990742
 20
77.00257074652907
 30
0.0
 10
323.5228192290833
 20
76.89211449782054
 30
0.0
 10
323.615925896688
 20
76.78231151603136
 30
0.0
 10
323.7096397348968
 20
76.67318248443222
 30
0.0
 10
323.8039478508938
 20
76.56474719717458
 30
0.0
 10
323.8988376717415
 20
76.45702465164092
 30
0.0
 10
323.9942969049571
 20
76.35003312812319
 30
0.0
 10
324.0903135045699
 20
76.24379025885106
 30
0.0
 10
324.1868756417898
 20
76.13831308802641
 30
0.0
 10
324.283971679573
 20
76.03361812423128
 30
0.0
 10
324.3815901504921
 20
75.92972138634174
 30
0.0
 10
324.4797197374202
 20
75.82663844389057
 30
0.0
 10
324.5783492566158
 20
75.72438445266644
 30
0.0
 10
324.6774676428646
 20
75.62297418621343
 30
0.0
 10
324.7770639363879
 20
75.52242206378799
 30
0.0
 10
324.8771272712676
 20
75.42274217524756
 30
0.0
 10
324.9776468651827
 20
75.3239483032712
 30
0.0
 10
325.078612010274
 20
75.22605394325616
 30
0.0
 10
325.1800120649867
 20
75.1290723211813
 30
0.0
 10
325.2818364467552
 20
75.03301640969157
 30
0.0
 10
325.3840746254191
 20
74.93789894261698
 30
0.0
 10
325.4867161172671
 20
74.84373242811385
 30
0.0
 10
325.5897504796263
 20
74.75052916058983
 30
0.0
 10
325.6931673059172
 20
74.65830123155088
 30
0.0
 10
325.7969562211092
 20
74.56706053949367
 30
0.0
 10
325.9011068775199
 20
74.47681879894567
 30
0.0
 10
326.0056089509008
 20
74.38758754874745
 30
0.0
 10
326.1104521367693
 20
74.2993781596546
 30
0.0
 10
326.2156261469395
 20
74.21220184133004
 30
0.0
 10
326.3211207062201
 20
74.12606964878621
 30
0.0
 10
326.4269255492421
 20
74.04099248832995
 30
0.0
 10
326.5330304173878
 20
73.95698112305476
 30
0.0
 10
326.6394250557953
 20
73.87404617792043
 30
0.0
 10
326.7460992104118
 20
73.7921981444528
 30
0.0
 10
326.8530426250745
 20
73.71144738509275
 30
0.0
 10
326.9602450385999
 20
73.6318041372184
 30
0.0
 10
327.0676961818617
 20
73.55327851686084
 30
0.0
 10
327.1753857748441
 20
73.47588052212897
 30
0.0
 10
327.2833035236522
 20
73.3996200363578
 30
0.0
 10
327.3914391174714
 20
73.32450683098854
 30
0.0
 10
327.4997822254601
 20
73.25055056818906
 30
0.0
 10
327.6083224935708
 20
73.17776080321788
 30
0.0
 10
327.7170495412889
 20
73.10614698653447
 30
0.0
 10
327.8259529582851
 20
73.03571846565427
 30
0.0
 10
327.935022300977
 20
72.96648448674753
 30
0.0
 10
328.0442470889973
 20
72.89845419597518
 30
0.0
 10
328.1536168015697
 20
72.83163664055763
 30
0.0
 10
328.2631208737935
 20
72.76604076956615
 30
0.0
 10
328.3727486928415
 20
72.70167543442872
 30
0.0
 10
328.4824895940794
 20
72.63854938913778
 30
0.0
 10
328.5923328571128
 20
72.57667129014888
 30
0.0
 10
328.7022677017774
 20
72.51604969595535
 30
0.0
 10
328.8122832840843
 20
72.45669306632604
 30
0.0
 10
328.9223685182375
 20
72.39860985294513
 30
0.0
 10
329.0325121909906
 20
72.34180842544937
 30
0.0
 10
329.1427029984964
 20
72.28629704528578
 30
0.0
 10
329.2529297158402
 20
72.23208378021253
 30
0.0
 10
329.3631810740733
 20
72.17917656702639
 30
0.0
 10
329.4734457153129
 20
72.1275832295474
 30
0.0
 10
329.5837121896275
 20
72.07731147473562
 30
0.0
 10
329.6939689517262
 20
72.02836888856365
 30
0.0
 10
329.8042043579135
 20
71.98076293143141
 30
0.0
 10
329.9144066633501
 20
71.93450093312137
 30
0.0
 10
330.0245640196762
 20
71.88959008729381
 30
0.0
 10
330.1346644730468
 20
71.8460374455264
 30
0.0
 10
330.2446959626378
 20
71.8038499109063
 30
0.0
 10
330.3546463196794
 20
71.76303423118847
 30
0.0
 10
330.4645032670733
 20
71.72359699153935
 30
0.0
 10
330.5742544196546
 20
71.68554460689175
 30
0.0
 10
330.6838872851509
 20
71.64888331394238
 30
0.0
 10
330.7933892658979
 20
71.61361916283163
 30
0.0
 10
330.9027476613593
 20
71.57975800855158
 30
0.0
 10
331.011949671501
 20
71.54730550213648
 30
0.0
 10
331.120982401061
 20
71.51626708169634
 30
0.0
 10
331.2298328647489
 20
71.48664796336332
 30
0.0
 10
331.3384879934056
 20
71.45845313222613
 30
0.0
 10
331.4469346411381
 20
71.43168733333631
 30
0.0
 10
331.5551595934387
 20
71.40635506287504
 30
0.0
 10
331.6631495762853
 20
71.38246055957545
 30
0.0
 10
331.770891266204
 20
71.36000779649997
 30
0.0
 10
331.8783713012672
 20
71.33900047327518
 30
0.0
 10
331.9855762929797
 20
71.31944200888951
 30
0.0
 10
332.0924928389974
 20
71.30133553515846
 30
0.0
 10
332.1991075366025
 20
71.2846838909624
 30
0.0
 10
332.3054069968492
 20
71.26948961735833
 30
0.0
 10
332.4113778592771
 20
71.25575495366185
 30
0.0
 10
332.5170068070778
 20
71.24348183459014
 30
0.0
 10
332.6222805825866
 20
71.23267188854784
 30
0.0
 10
332.727186002963
 20
71.22332643712653
 30
0.0
 10
332.831709975913
 20
71.21544649587867
 30
0.0
 10
332.9358395153008
 20
71.20903277641075
 30
0.0
 10
333.0395617564901
 20
71.20408568982822
 30
0.0
 10
333.142863971262
 20
71.20060535154695
 30
0.0
 10
333.2457335821444
 20
71.19859158747008
 30
0.0
 10
333.3481581760046
 20
71.19804394151232
 30
0.0
 10
333.4501255167542
 20
71.19896168443678
 30
0.0
 10
333.5516235570277
 20
71.20134382395065
 30
0.0
 10
333.6526404487084
 20
71.20518911599365
 30
0.0
 10
333.7531645521859
 20
71.21049607713265
 30
0.0
 10
333.8531844442491
 20
71.21726299796757
 30
0.0
 10
333.9526889245309
 20
71.22548795743566
 30
0.0
 10
334.051667020443
 20
71.23516883789488
 30
0.0
 10
334.1501079905559
 20
71.24630334085563
 30
0.0
 10
334.2480013263984
 20
71.25888900322408
 30
0.0
 10
334.3453367526737
 20
71.2729232139166
 30
0.0
 10
334.442104225902
 20
71.28840323070015
 30
0.0
 10
334.538293931521
 20
71.30532619711538
 30
0.0
 10
334.6338962794935
 20
71.3236891593387
 30
0.0
 10
334.7289018984836
 20
71.34348908284402
 30
0.0
 10
334.8233016286778
 20
71.3647228687292
 30
0.0
 10
334.9170865133395
 20
71.38738736957822
 30
0.0
 10
335.010247789194
 20
71.41147940473891
 30
0.0
 10
335.1027768757496
 20
71.43699577489913
 30
0.0
 10
335.1946653636624
 20
71.46393327587072
 30
0.0
 10
335.2859050022812
 20
71.4922887114383
 30
0.0
 10
335.3764876863943
 20
71.52205890536146
 30
0.0
 10
335.4664054426618
 20
71.55324071181118
 30
0.0
 10
335.5556504144736
 20
71.58583102656246
 30
0.0
 10
335.64421485048
 20
71.6198267899838
 30
0.0
 10
335.7320910777565
 20
71.65522501496152
 30
0.0
 10
335.8192715311309
 20
71.69202271593936
 30
0.0
 10
335.9057485723519
 20
71.7302172007366
 30
0.0
 10
335.9915150931022
 20
71.76980500272485
 30
0.0
 10
336.0765621936454
 20
71.81078587962817
 30
0.0
 10
336.1608877747639
 20
71.85314789915864
 30
0.0
 10
336.2444644011698
 20
71.89692310411242
 30
0.0
 10
336.326884570031
 20
71.94172175005939
 30
0.0
 10
336.3810299456896
 20
71.97265063834304
 30
0.0
 10
336.4078719413553
 20
71.98798330664857
 30
0.0
  0
LINE
  5
C5
330
1F
100
AcDbEntity
  8
0
  6
Continuous
 62
     7
370
    30
100
AcDbLine
 10
354.6431884827
 20
117.1550699966
 30
0.0
 11
321.4091697669
 21
97.9694793687
 31
0.0
  0
LINE
  5
C6
330
1F
100
AcDbEntity
  8
0
  6
Continuous
 62
     7
370
    30
100
AcDbLine
 10
336.4079507564
 20
71.9880134973
 30
0.0
 11
369.6419694722
 21
91.1736041252
 31
0.0
  0
SPLINE
  5
C7
330
1F
100
AcDbEntity
  8
0
  6
Continuous
 62
     7
370
    30
100
AcDbSpline
210
0.0
220
0.0
230
1.0
 70
     8
 71
     3
 72
   187
 73
   183
 74
     0
 42
0.000000001
 43
0.00000001
 40
0.0
 40
0.0
 40
0.0
 40
0.0
 40
0.0000593485091146
 40
0.0055600578932489
 40
0.011060768577072
 40
0.016561576606207
 40
0.0220625883294227
 40
0.0275639096832942
 40
0.0330656459901985
 40
0.0385679017582411
 40
0.0440707804837725
 40
0.0495743844572055
 40
0.0550788145720364
 40
0.0605841701388916
 40
0.066090548703901
 40
0.0715980458726469
 40
0.0771067551401786
 40
0.08261676772715
 40
0.0881281724230827
 40
0.0936410554368226
 40
0.0991555002548632
 40
0.1046715875076678
 40
0.1101893948446485
 40
0.1157089968176543
 40
0.1212304647739795
 40
0.1267538667583251
 40
0.132279267424668
 40
0.1378067279574634
 40
0.1433363060031299
 40
0.1488680556113587
 40
0.1544020271863447
 40
0.1599382674482253
 40
0.1654768194044614
 40
0.1710177223313508
 40
0.1765610117652079
 40
0.1821067195033265
 40
0.1876548736148468
 40
0.1932054984604188
 40
0.1987586147213133
 40
0.2043142394374802
 40
0.2098723860537442
 40
0.2154330644745227
 40
0.220996281126167
 40
0.2265620390267879
 40
0.2321303378631536
 40
0.2377011740738725
 40
0.2432745409391749
 40
0.2488504286756833
 40
0.2544288245371139
 40
0.2600097129188968
 40
0.2655930754675848
 40
0.2711788911935527
 40
0.2767671365870328
 40
0.2823577857368931
 40
0.2879508104514898
 40
0.293546180381139
 40
0.2991438631422844
 40
0.3047438244417098
 40
0.3103460282019284
 40
0.3159504366855666
 40
0.3215570106200497
 40
0.327165709320865
 40
0.3327764908135636
 40
0.3383893119544542
 40
0.3440041285489763
 40
0.3496208954679477
 40
0.3552395667613254
 40
0.3608600957688778
 40
0.3664824352283213
 40
0.372106537379584
 40
0.3777323540660616
 40
0.3833598368322797
 40
0.3889889370175896
 40
0.3946196058460667
 40
0.400251794512815
 40
0.4058854542657848
 40
0.4115205364838412
 40
0.4171569927507219
 40
0.4227947749249926
 40
0.4284338352056326
 40
0.4340741261937784
 40
0.4397156009506097
 40
0.445358213050913
 40
0.4510019166329721
 40
0.4566466664446531
 40
0.4622924178856355
 40
0.4679391270461547
 40
0.4735867507419355
 40
0.4792352465461197
 40
0.4848845728175539
 40
0.490534688725884
 40
0.496185554273897
 40
0.5018371303165776
 40
0.5074893785774809
 40
0.5131422616626454
 40
0.5187957430715305
 40
0.5244497872059983
 40
0.5301043593766115
 40
0.5357594258070896
 40
0.5414149536366449
 40
0.5470709109203326
 40
0.5527272666276687
 40
0.558383990639731
 40
0.5640410537446156
 40
0.5696984276313548
 40
0.5753560848827219
 40
0.5810139989667602
 40
0.5866721442272489
 40
0.5923304958730221
 40
0.5979890299664672
 40
0.60364772341138
 40
0.6093065539396546
 40
0.6149655000978069
 40
0.6206245412325897
 40
0.6262836574762278
 40
0.6319428297312031
 40
0.6376020396546719
 40
0.6432612696425233
 40
0.6489204990128352
 40
0.6545797101512669
 40
0.660238887799245
 40
0.6658980173658876
 40
0.6715570849113351
 40
0.6772160771300423
 40
0.6828749813341732
 40
0.6885337854372057
 40
0.6941924779371536
 40
0.6998510479005013
 40
0.7055094849457312
 40
0.7111677792275786
 40
0.7168259214209631
 40
0.7224839027055523
 40
0.7281417147501802
 40
0.7337993496977812
 40
0.739456800150444
 40
0.7451140591549019
 40
0.7507711201879447
 40
0.7564279771425445
 40
0.7620846243138667
 40
0.767741056385983
 40
0.773397268418468
 40
0.7790532558336476
 40
0.7847090144039446
 40
0.7903645402396103
 40
0.7960198297767609
 40
0.8016748797656481
 40
0.8073296872594323
 40
0.8129842496029615
 40
0.8186385644221866
 40
0.8242926296135422
 40
0.8299464433339857
 40
0.8356000039908884
 40
0.841253310232784
 40
0.846906360939815
 40
0.852559155214951
 40
0.8582116923750843
 40
0.8638639719427379
 40
0.8695159936377586
 40
0.8751677573695156
 40
0.8808192632292466
 40
0.8864705114825838
 40
0.8921215025623441
 40
0.8977722370618365
 40
0.9034227157279565
 40
0.9090729394548577
 40
0.9147229092777236
 40
0.9203726263666655
 40
0.9260220920210888
 40
0.93167130766396
 40
0.9373202748365138
 40
0.9429689951929833
 40
0.9486174704956863
 40
0.9542657026102388
 40
0.9599136935007703
 40
0.9655614452255619
 40
0.9712089599328139
 40
0.9768562398564482
 40
0.982503287312138
 40
0.9881501046934674
 40
0.9937966944684409
 40
0.9994430591757293
 40
1.0
 40
1.0
 40
1.0
 40
1.0
 10
344.0771326977504
 20
137.0354305748954
 30
0.0
 10
344.0766837079498
 20
137.0351733417059
 30
0.0
 10
344.0346201528304
 20
137.0110744814795
 30
0.0
 10
343.9516604554671
 20
136.9618893868656
 30
0.0
 10
343.8283248750262
 20
136.8877703906029
 30
0.0
 10
343.7058838902246
 20
136.8121314266487
 30
0.0
 10
343.584220617491
 20
136.735185872457
 30
0.0
 10
343.4633720093757
 20
136.6568800335009
 30
0.0
 10
343.3433337730328
 20
136.5772317830661
 30
0.0
 10
343.22411266863
 20
136.4962398348249
 30
0.0
 10
343.1057124976718
 20
136.413908057814
 30
0.0
 10
342.9881378603467
 20
136.3302389635226
 30
0.0
 10
342.8713931509422
 20
136.2452354543929
 30
0.0
 10
342.7554828291857
 20
136.1589003585363
 30
0.0
 10
342.6404113494237
 20
136.0712365578818
 30
0.0
 10
342.5261831812741
 20
135.9822469574186
 30
0.0
 10
342.4128028055293
 20
135.8919344971447
 30
0.0
 10
342.3002747164524
 20
135.8003021526712
 30
0.0
 10
342.1886034221176
 20
135.7073529389519
 30
0.0
 10
342.0777934450265
 20
135.6130899132401
 30
0.0
 10
341.9678493224017
 20
135.5175161783012
 30
0.0
 10
341.8587756063163
 20
135.4206348855856
 30
0.0
 10
341.7505768636192
 20
135.3224492384255
 30
0.0
 10
341.6432576756641
 20
135.2229624952161
 30
0.0
 10
341.5368226378473
 20
135.1221779725773
 30
0.0
 10
341.4312763589509
 20
135.0200990484748
 30
0.0
 10
341.3266234603037
 20
134.9167291652932
 30
0.0
 10
341.2228685747563
 20
134.8120718328418
 30
0.0
 10
341.1200163454812
 20
134.7061306312827
 30
0.0
 10
341.0180714246017
 20
134.5989092139675
 30
0.0
 10
340.9170384716578
 20
134.4904113101708
 30
0.0
 10
340.8169221519173
 20
134.3806407277088
 30
0.0
 10
340.7177271345378
 20
134.2696013554313
 30
0.0
 10
340.619458090592
 20
134.1572971655775
 30
0.0
 10
340.5221196909644
 20
134.0437322159863
 30
0.0
 10
340.4257166041272
 20
133.9289106521516
 30
0.0
 10
340.3302534938121
 20
133.8128367091163
 30
0.0
 10
340.2357350165804
 20
133.6955147131961
 30
0.0
 10
340.1421658193111
 20
133.5769490835306
 30
0.0
 10
340.0495505366117
 20
133.4571443334528
 30
0.0
 10
339.9578937881669
 20
133.3361050716757
 30
0.0
 10
339.8672001760364
 20
133.2138360032934
 30
0.0
 10
339.7774742819129
 20
133.0903419305936
 30
0.0
 10
339.6887206643509
 20
132.9656277536794
 30
0.0
 10
339.6009438559822
 20
132.8396984709055
 30
0.0
 10
339.5141483607228
 20
132.7125591791234
 30
0.0
 10
339.4283386509903
 20
132.5842150737443
 30
0.0
 10
339.343519164934
 20
132.454671448615
 30
0.0
 10
339.2596943036972
 20
132.32393369572
 30
0.0
 10
339.1768684287133
 20
132.1920073047047
 30
0.0
 10
339.0950458590527
 20
132.058897862233
 30
0.0
 10
339.0142308688241
 20
131.9246110511809
 30
0.0
 10
338.9344276846425
 20
131.7891526496747
 30
0.0
 10
338.8556404831691
 20
131.6525285299807
 30
0.0
 10
338.777873388734
 20
131.5147446572551
 30
0.0
 10
338.701130471044
 20
131.3758070881605
 30
0.0
 10
338.6254157429861
 20
131.2357219693616
 30
0.0
 10
338.5507331585276
 20
131.0944955359028
 30
0.0
 10
338.4770866107229
 20
130.9521341094858
 30
0.0
 10
338.4044799298255
 20
130.808644096648
 30
0.0
 10
338.3329168815126
 20
130.6640319868581
 30
0.0
 10
338.262401165224
 20
130.518304350534
 30
0.0
 10
338.1929364126156
 20
130.3714678369959
 30
0.0
 10
338.1245261861317
 20
130.2235291723628
 30
0.0
 10
338.0571739776946
 20
130.0744951574002
 30
0.0
 10
337.9908832075129
 20
129.9243726653328
 30
0.0
 10
337.9256572230083
 20
129.7731686396274
 30
0.0
 10
337.8614992978578
 20
129.6208900917548
 30
0.0
 10
337.7984126311542
 20
129.4675440989431
 30
0.0
 10
337.7364003466772
 20
129.3131378019252
 30
0.0
 10
337.6754654922783
 20
129.1576784026927
 30
0.0
 10
337.6156110393724
 20
129.0011731622603
 30
0.0
 10
337.5568398825363
 20
128.8436293984504
 30
0.0
 10
337.499154839208
 20
128.6850544837018
 30
0.0
 10
337.4425586494847
 20
128.5254558429111
 30
0.0
 10
337.3870539760151
 20
128.364840951309
 30
0.0
 10
337.3326434039815
 20
128.203217332381
 30
0.0
 10
337.2793294411669
 20
128.0405925558309
 30
0.0
 10
337.2271145181039
 20
127.8769742355978
 30
0.0
 10
337.1760009883005
 20
127.7123700279261
 30
0.0
 10
337.125991128536
 20
127.5467876294935
 30
0.0
 10
337.0770871392259
 20
127.3802347755973
 30
0.0
 10
337.0292911448467
 20
127.2127192384043
 30
0.0
 10
336.9826051944209
 20
127.0442488252645
 30
0.0
 10
336.9370312620528
 20
126.8748313770905
 30
0.0
 10
336.8925712475124
 20
126.7044747668017
 30
0.0
 10
336.8492269768653
 20
126.5331868978397
 30
0.0
 10
336.8070002031384
 20
126.3609757027471
 30
0.0
 10
336.7658926070233
 20
126.1878491418165
 30
0.0
 10
336.7259057976086
 20
126.0138152018063
 30
0.0
 10
336.6870413131397
 20
125.8388818947231
 30
0.0
 10
336.6493006218009
 20
125.663057256671
 30
0.0
 10
336.6126851225171
 20
125.4863493467658
 30
0.0
 10
336.5771961457694
 20
125.3087662461118
 30
0.0
 10
336.5428349544254
 20
125.1303160568436
 30
0.0
 10
336.5096027445751
 20
124.9510069012256
 30
0.0
 10
336.4775006463759
 20
124.770846920815
 30
0.0
 10
336.4465297248983
 20
124.589844275678
 30
0.0
 10
336.4166909809731
 20
124.4080071436642
 30
0.0
 10
336.3879853520363
 20
124.2253437197329
 30
0.0
 10
336.3604137129695
 20
124.0418622153318
 30
0.0
 10
336.3339768769346
 20
123.8575708578247
 30
0.0
 10
336.308675596199
 20
123.6724778899652
 30
0.0
 10
336.2845105629515
 20
123.4865915694161
 30
0.0
 10
336.261482410107
 20
123.2999201683117
 30
0.0
 10
336.2395917120963
 20
123.1124719728602
 30
0.0
 10
336.2188389856439
 20
122.9242552829827
 30
0.0
 10
336.1992246905284
 20
122.7352784119893
 30
0.0
 10
336.180749230327
 20
122.5455496862899
 30
0.0
 10
336.1634129531431
 20
122.3550774451345
 30
0.0
 10
336.1472161523156
 20
122.1638700403845
 30
0.0
 10
336.1321590671085
 20
121.9719358363097
 30
0.0
 10
336.1182418833833
 20
121.7792832094129
 30
0.0
 10
336.1054647342494
 20
121.5859205482748
 30
0.0
 10
336.093827700697
 20
121.3918562534233
 30
0.0
 10
336.0833308122077
 20
121.1970987372208
 30
0.0
 10
336.073974047347
 20
121.0016564237705
 30
0.0
 10
336.0657573361735
 20
120.8055377927386
 30
0.0
 10
336.0586805584032
 20
120.608751352745
 30
0.0
 10
336.0527435428262
 20
120.4113056222192
 30
0.0
 10
336.0479460672126
 20
120.2132090847868
 30
0.0
 10
336.0442878605608
 20
120.0144702162264
 30
0.0
 10
336.0417686042599
 20
119.8150975038287
 30
0.0
 10
336.0403879325375
 20
119.6150994463908
 30
0.0
 10
336.0401454328866
 20
119.4144845542123
 30
0.0
 10
336.0410406464753
 20
119.2132613490996
 30
0.0
 10
336.0430730685383
 20
119.0114383643707
 30
0.0
 10
336.0462421487501
 20
118.8090241448679
 30
0.0
 10
336.0505472915814
 20
118.6060272469648
 30
0.0
 10
336.0559878566393
 20
118.4024562385802
 30
0.0
 10
336.0625631589904
 20
118.1983196991861
 30
0.0
 10
336.0702724694688
 20
117.993626219821
 30
0.0
 10
336.0791150149685
 20
117.7883844030971
 30
0.0
 10
336.0890899787218
 20
117.5826028632085
 30
0.0
 10
336.1001965005631
 20
117.3762902259325
 30
0.0
 10
336.1124336771793
 20
117.1694551286316
 30
0.0
 10
336.1258005623472
 20
116.9621062202485
 30
0.0
 10
336.1402961671582
 20
116.7542521613009
 30
0.0
 10
336.1559194602314
 20
116.5459016238658
 30
0.0
 10
336.1726693679151
 20
116.3370632915649
 30
0.0
 10
336.1905447744773
 20
116.1277458595389
 30
0.0
 10
336.2095445222858
 20
115.9179580344206
 30
0.0
 10
336.2296674119789
 20
115.7077085342988
 30
0.0
 10
336.250912202626
 20
115.497006088678
 30
0.0
 10
336.2732776118792
 20
115.2858594384307
 30
0.0
 10
336.296762316118
 20
115.0742773357432
 30
0.0
 10
336.321364950584
 20
114.862268544055
 30
0.0
 10
336.3470841095096
 20
114.64984183799
 30
0.0
 10
336.3739183462386
 20
114.4370060032834
 30
0.0
 10
336.4018661733409
 20
114.2237698366979
 30
0.0
 10
336.4309260627212
 20
114.0101421459376
 30
0.0
 10
336.4610964457208
 20
113.7961317495485
 30
0.0
 10
336.4923757132149
 20
113.5817474768177
 30
0.0
 10
336.5247622157052
 20
113.3669981676605
 30
0.0
 10
336.5582542634065
 20
113.1518926725046
 30
0.0
 10
336.5928501263307
 20
112.9364398521641
 30
0.0
 10
336.6285480343649
 20
112.7206485777087
 30
0.0
 10
336.6653461773483
 20
112.5045277303234
 30
0.0
 10
336.7032427051433
 20
112.2880862011621
 30
0.0
 10
336.742235727706
 20
112.0713328911943
 30
0.0
 10
336.7823233151518
 20
111.8542767110467
 30
0.0
 10
336.82350349782
 20
111.6369265808345
 30
0.0
 10
336.8657742663365
 20
111.4192914299893
 30
0.0
 10
336.909133571673
 20
111.2013801970768
 30
0.0
 10
336.9535793252065
 20
110.9832018296118
 30
0.0
 10
336.9991093987773
 20
110.7647652838645
 30
0.0
 10
337.0457216247383
 20
110.5460795246609
 30
0.0
 10
337.0934137960397
 20
110.3271535251752
 30
0.0
 10
337.1421836661704
 20
110.1079962667293
 30
0.0
 10
337.1920289496359
 20
109.8886167385285
 30
0.0
 10
337.2429473204278
 20
109.6690239376177
 30
0.0
 10
337.2949364179923
 20
109.4492268679772
 30
0.0
 10
337.3479938252086
 20
109.2292345428055
 30
0.0
 10
337.4021171508216
 20
109.0090559748867
 30
0.0
 10
337.4573037220752
 20
108.7887002113975
 30
0.0
 10
337.5135517320024
 20
108.568176202844
 30
0.0
 10
337.5708559582112
 20
108.347493290974
 30
0.0
 10
337.6292237398579
 20
108.1266593867614
 30
0.0
 10
337.688615354711
 20
107.9056877686087
 30
0.0
 10
337.7491665216878
 20
107.6845717113913
 30
0.0
 10
337.7919736051593
 20
107.5298345044747
 30
0.0
 10
337.814899204537
 20
107.4487715442769
 30
0.0
 10
337.8169574946131
 20
107.4414936064677
 30
0.0
  0
SPLINE
  5
C8
330
1F
100
AcDbEntity
  8
0
  6
Continuous
 62
     7
370
    30
100
AcDbSpline
210
0.0
220
0.0
230
1.0
 70
     8
 71
     3
 72
   186
 73
   182
 74
     0
 42
0.000000001
 43
0.00000001
 40
0.0
 40
0.0
 40
0.0
 40
0.0
 40
0.004413957446045
 40
0.0100599942829025
 40
0.0157062587787927
 40
0.0213527535888932
 40
0.0269994813023611
 40
0.0326464444389058
 40
0.0382936454454353
 40
0.0439410866922852
 40
0.0495887704696154
 40
0.0552366989833304
 40
0.0608848743510088
 40
0.066533298597745
 40
0.072181973651659
 40
0.0778309013393813
 40
0.0834800833810627
 40
0.0891295213857629
 40
0.0947792168459968
 40
0.1004291711325832
 40
0.106079385488978
 40
0.1117298610256571
 40
0.1173805987140046
 40
0.1230315993802447
 40
0.1286828636990712
 40
0.1343343921868112
 40
0.1399861851948455
 40
0.1456382429023293
 40
0.1512905653088
 40
0.1569431522265909
 40
0.1625960032731906
 40
0.1682491178628335
 40
0.1739024951981352
 40
0.1795561342616121
 40
0.1852100338066408
 40
0.1908641923480439
 40
0.196518608152965
 40
0.2021732792305835
 40
0.2078282033224081
 40
0.2134833778916784
 40
0.2191388001126273
 40
0.224794466859641
 40
0.2304503746956896
 40
0.2361065198609143
 40
0.2417628982605715
 40
0.2474195054527344
 40
0.253076336635917
 40
0.2587333866359356
 40
0.2643906498929212
 40
0.270048120447786
 40
0.2757057919284161
 40
0.2813636575355298
 40
0.2870217100284022
 40
0.2926799417101104
 40
0.29833834441282
 40
0.3039969094822216
 40
0.3096556277624338
 40
0.3153144895801626
 40
0.3209734847287839
 40
0.3266326024523015
 40
0.3322918314291434
 40
0.3379511597555044
 40
0.3436105749289103
 40
0.3492700638314685
 40
0.354929612713176
 40
0.3605892071749569
 40
0.3662488321519794
 40
0.3719084718966857
 40
0.3775681044035595
 40
0.3832277121894153
 40
0.3888872771115205
 40
0.3945467802730993
 40
0.4002062020074063
 40
0.4058655218620465
 40
0.4115247185839933
 40
0.4171837701047809
 40
0.4228426535263379
 40
0.4285013451076532
 40
0.4341598202517702
 40
0.4398180534938738
 40
0.4454760184900553
 40
0.451133688007283
 40
0.4567910339140812
 40
0.4624480271727352
 40
0.4681046378325622
 40
0.4737608350246502
 40
0.4794165869580459
 40
0.4850718609175906
 40
0.4907266232634723
 40
0.4963808394325765
 40
0.5020344739420022
 40
0.5076874903944938
 40
0.5133398514862695
 40
0.5189915190170036
 40
0.5246424539026904
 40
0.5302926161907006
 40
0.5359419650780463
 40
0.5415904589322089
 40
0.5472380553151306
 40
0.5528847110106196
 40
0.5585303820544718
 40
0.5641750237687104
 40
0.5698185907986949
 40
0.5754610371544002
 40
0.5811023162549962
 40
0.5867423809776454
 40
0.5923811837098671
 40
0.5980186764061419
 40
0.60365481064842
 40
0.6092895377107074
 40
0.6149228086279399
 40
0.6205545742687277
 40
0.62618478541245
 40
0.6318133928303135
 40
0.637440347370672
 40
0.6430656000481082
 40
0.6486891021365618
 40
0.6543108052664085
 40
0.6599306615250377
 40
0.6655486235610063
 40
0.6711646446917506
 40
0.676778679014235
 40
0.6823906815185836
 40
0.6880006082046963
 40
0.693608416200744
 40
0.6992140638843745
 40
0.704817511005175
 40
0.7104187188090392
 40
0.7160176501633143
 40
0.721614269682601
 40
0.7272085438550735
 40
0.7328004411684351
 40
0.7383899322352531
 40
0.7439769899172796
 40
0.7495615894482375
 40
0.7551437085543863
 40
0.7607233275727302
 40
0.7663004295660512
 40
0.7718750004344255
 40
0.7774470290227102
 40
0.7830165072232614
 40
0.7885834300738865
 40
0.794147795849964
 40
0.7997096061505825
 40
0.8052688659783043
 40
0.8108255838116982
 40
0.8163797716707675
 40
0.8219314451744265
 40
0.82748062358974
 40
0.8330273298727612
 40
0.8385715907004264
 40
0.8441134364933923
 40
0.8496529014293255
 40
0.8551900234466847
 40
0.8607248442386356
 40
0.8662574092370258
 40
0.8717877675863083
 40
0.8773159721072483
 40
0.8828420792506388
 40
0.8883661490406064
 40
0.8938882450082254
 40
0.8994084341146751
 40
0.9049267866649319
 40
0.9104433762115035
 40
0.9159582794489483
 40
0.9214715760989558
 40
0.9269833487865832
 40
0.9324936829080344
 40
0.9380026664899556
 40
0.9435103900411114
 40
0.9490169463963932
 40
0.9545224305540416
 40
0.9600269395063369
 40
0.9655305720641936
 40
0.9710334286762997
 40
0.9765356112434541
 40
0.9820372229282179
 40
0.9875383679610871
 40
0.9930391514433047
 40
0.9985396791469113
 40
1.0
 40
1.0
 40
1.0
 40
1.0
 10
352.8157740814204
 20
81.46004828491172
 30
0.0
 10
352.8576278606863
 20
81.41720912523209
 30
0.0
 10
352.9530181731848
 20
81.31957300011547
 30
0.0
 10
353.1024388665329
 20
81.16829016809598
 30
0.0
 10
353.2639430134602
 20
81.00600242670932
 30
0.0
 10
353.4258667903305
 20
80.8447252383858
 30
0.0
 10
353.5881871142866
 20
80.68442699946729
 30
0.0
 10
353.7509019045469
 20
80.52512478489331
 30
0.0
 10
353.9140034346004
 20
80.36682257894964
 30
0.0
 10
354.0774854731699
 20
80.20952782708149
 30
0.0
 10
354.2413413709368
 20
80.0532470003491
 30
0.0
 10
354.4055645734885
 20
79.89798678378385
 30
0.0
 10
354.5701484841158
 20
79.74375375773388
 30
0.0
 10
354.7350865008235
 20
79.59055448304143
 30
0.0
 10
354.9003720066534
 20
79.43839547800982
 30
0.0
 10
355.0659983725091
 20
79.28728322437412
 30
0.0
 10
355.2319589566285
 20
79.13722416550014
 30
0.0
 10
355.3982471049458
 20
78.98822470667277
 30
0.0
 10
355.5648561512108
 20
78.84029121482473
 30
0.0
 10
355.7317794171647
 20
78.69343001842257
 30
0.0
 10
355.8990102126947
 20
78.54764740731062
 30
0.0
 10
356.066541835987
 20
78.40294963257193
 30
0.0
 10
356.2343675736727
 20
78.25934290638608
 30
0.0
 10
356.4024807009679
 20
78.11683340189138
 30
0.0
 10
356.5708744818069
 20
77.9754272530492
 30
0.0
 10
356.7395421689697
 20
77.83513055450908
 30
0.0
 10
356.9084770042014
 20
77.69594936147708
 30
0.0
 10
357.077672218326
 20
77.5578896895848
 30
0.0
 10
357.24712103135
 20
77.42095751476174
 30
0.0
 10
357.4168166525622
 20
77.28515877310576
 30
0.0
 10
357.5867522806244
 20
77.15049936075677
 30
0.0
 10
357.7569211036525
 20
77.01698513377094
 30
0.0
 10
357.9273162992906
 20
76.88462190799581
 30
0.0
 10
358.0979310347777
 20
76.75341545894415
 30
0.0
 10
358.2687584670037
 20
76.6233715216699
 30
0.0
 10
358.4397917425586
 20
76.49449579064144
 30
0.0
 10
358.611023997769
 20
76.36679391961817
 30
0.0
 10
358.7824483587311
 20
76.24027152152084
 30
0.0
 10
358.9540579413277
 20
76.11493416830557
 30
0.0
 10
359.1258458512411
 20
75.99078739083271
 30
0.0
 10
359.2978051839529
 20
75.8678366787351
 30
0.0
 10
359.4699290247335
 20
75.74608748028471
 30
0.0
 10
359.6422104486242
 20
75.6255452022541
 30
0.0
 10
359.8146425204058
 20
75.50621520977674
 30
0.0
 10
359.987218294558
 20
75.38810282620223
 30
0.0
 10
360.1599308152098
 20
75.27121333294697
 30
0.0
 10
360.3327731160755
 20
75.15555196934127
 30
0.0
 10
360.5057382203836
 20
75.04112393246939
 30
0.0
 10
360.6788191407924
 20
74.9279343770048
 30
0.0
 10
360.8520088792964
 20
74.81598841503754
 30
0.0
 10
361.0253004271203
 20
74.70529111589575
 30
0.0
 10
361.1986867646031
 20
74.5958475059584
 30
0.0
 10
361.37216086107
 20
74.48766256846002
 30
0.0
 10
361.5457156746976
 20
74.38074124328406
 30
0.0
 10
361.7193441523624
 20
74.27508842674956
 30
0.0
 10
361.8930392294845
 20
74.17070897138406
 30
0.0
 10
362.0667938298563
 20
74.06760768568726
 30
0.0
 10
362.240600865465
 20
73.9657893338802
 30
0.0
 10
362.4144532363031
 20
73.86525863564277
 30
0.0
 10
362.5883438301714
 20
73.76602026583603
 30
0.0
 10
362.762265522471
 20
73.6680788542105
 30
0.0
 10
362.9362111759883
 20
73.57143898509807
 30
0.0
 10
363.1101736406702
 20
73.47610519708819
 30
0.0
 10
363.2841457533947
 20
73.3820819826847
 30
0.0
 10
363.4581203377329
 20
73.28937378794546
 30
0.0
 10
363.6320902037052
 20
73.19798501210164
 30
0.0
 10
363.8060481475321
 20
73.1079200071578
 30
0.0
 10
363.9799868944372
 20
73.01918310651956
 30
0.0
 10
364.1538991520918
 20
72.93177859518529
 30
0.0
 10
364.3277776111398
 20
72.84571070875054
 30
0.0
 10
364.501615001802
 20
72.76098360574099
 30
0.0
 10
364.6754040399023
 20
72.67760139452575
 30
0.0
 10
364.8491374258118
 20
72.59556813316864
 30
0.0
 10
365.0228078441996
 20
72.51488782884829
 30
0.0
 10
365.1964079637891
 20
72.4355644372508
 30
0.0
 10
365.3699304371203
 20
72.35760186193305
 30
0.0
 10
365.5433679003217
 20
72.28100395365637
 30
0.0
 10
365.7167129728912
 20
72.2057745096904
 30
0.0
 10
365.8899582574909
 20
72.13191727308491
 30
0.0
 10
366.0630963397537
 20
72.05943593191164
 30
0.0
 10
366.2361197881096
 20
71.98833411847231
 30
0.0
 10
366.4090211536277
 20
71.9186154084754
 30
0.0
 10
366.5817929698821
 20
71.85028332017937
 30
0.0
 10
366.7544277528386
 20
71.78334131350312
 30
0.0
 10
366.9269180007712
 20
71.71779278910279
 30
0.0
 10
367.0992561942049
 20
71.65364108741552
 30
0.0
 10
367.2714347958915
 20
71.59088948767034
 30
0.0
 10
367.4434462508192
 20
71.52954120686586
 30
0.0
 10
367.6152829862599
 20
71.46959939871623
 30
0.0
 10
367.7869374118574
 20
71.41106715256446
 30
0.0
 10
367.9584019197591
 20
71.35394749226548
 30
0.0
 10
368.1296688847954
 20
71.29824337503872
 30
0.0
 10
368.3007306647057
 20
71.24395769029238
 30
0.0
 10
368.4715796004214
 20
71.19109325841994
 30
0.0
 10
368.6422080164015
 20
71.13965282957136
 30
0.0
 10
368.8126082210307
 20
71.08963908239957
 30
0.0
 10
368.9827725070763
 20
71.04105462278626
 30
0.0
 10
369.1526931522134
 20
70.9939019825474
 30
0.0
 10
369.3223624196173
 20
70.94818361812227
 30
0.0
 10
369.4917725586265
 20
70.90390190924848
 30
0.0
 10
369.6609158054827
 20
70.86105915762612
 30
0.0
 10
369.8297843841421
 20
70.81965758557487
 30
0.0
 10
369.9983705071727
 20
70.77969933468701
 30
0.0
 10
370.166666376726
 20
70.74118646448113
 30
0.0
 10
370.3346641855981
 20
70.7041209510601
 30
0.0
 10
370.5023561183717
 20
70.66850468577844
 30
0.0
 10
370.6697343526481
 20
70.63433947392315
 30
0.0
 10
370.8367910603645
 20
70.6016270334139
 30
0.0
 10
371.0035184092019
 20
70.5703689935271
 30
0.0
 10
371.1699085640823
 20
70.54056689364977
 30
0.0
 10
371.3359536887538
 20
70.51222218206881
 30
0.0
 10
371.5016459474674
 20
70.48533621480179
 30
0.0
 10
371.6669775067385
 20
70.459910254475
 30
0.0
 10
371.8319405371998
 20
70.43594546925519
 30
0.0
 10
371.9965272155366
 20
70.41344293184149
 30
0.0
 10
372.1607297265061
 20
70.39240361852367
 30
0.0
 10
372.3245402650369
 20
70.37282840831367
 30
0.0
 10
372.4879510384059
 20
70.35471808215601
 30
0.0
 10
372.6509542684885
 20
70.33807332222506
 30
0.0
 10
372.8135421940764
 20
70.32289471131362
 30
0.0
 10
372.9757070732597
 20
70.30918273232142
 30
0.0
 10
373.1374411858667
 20
70.29693776784721
 30
0.0
 10
373.2987368359565
 20
70.28616009989277
 30
0.0
 10
373.4595863543537
 20
70.2768499096825
 30
0.0
 10
373.6199821012252
 20
70.2690072776055
 30
0.0
 10
373.7799164686814
 20
70.26263218328418
 30
0.0
 10
373.9393818834045
 20
70.25772450577458
 30
0.0
 10
374.098370809285
 20
70.25428402390213
 30
0.0
 10
374.2568757500644
 20
70.25231041673732
 30
0.0
 10
374.4148892519693
 20
70.25180326421301
 30
0.0
 10
374.5724039063312
 20
70.25276204788766
 30
0.0
 10
374.7294123521797
 20
70.25518615185456
 30
0.0
 10
374.8859072787967
 20
70.25907486379987
 30
0.0
 10
375.0418814282247
 20
70.26442737620881
 30
0.0
 10
375.1973275977149
 20
70.27124278772033
 30
0.0
 10
375.352238642107
 20
70.27952010462884
 30
0.0
 10
375.5066074761266
 20
70.28925824253184
 30
0.0
 10
375.6604270765926
 20
70.30045602811983
 30
0.0
 10
375.8136904845225
 20
70.31311220110601
 30
0.0
 10
375.966390807124
 20
70.3272254162908
 30
0.0
 10
376.118521219665
 20
70.34279424575637
 30
0.0
 10
376.2700749672098
 20
70.35981718118525
 30
0.0
 10
376.4210453662151
 20
70.37829263629602
 30
0.0
 10
376.5714258059743
 20
70.398218949389
 30
0.0
 10
376.7212097499023
 20
70.41959438599308
 30
0.0
 10
376.8703907366555
 20
70.44241714160506
 30
0.0
 10
377.0189623810776
 20
70.4666853445122
 30
0.0
 10
377.1669183749661
 20
70.49239705868628
 30
0.0
 10
377.3142524876543
 20
70.51955028674003
 30
0.0
 10
377.4609585664034
 20
70.54814297293274
 30
0.0
 10
377.6070305366035
 20
70.57817300621464
 30
0.0
 10
377.7524624017789
 20
70.60963822329647
 30
0.0
 10
377.8972482433959
 20
70.64253641173255
 30
0.0
 10
378.0413822204748
 20
70.67686531300338
 30
0.0
 10
378.1848585690033
 20
70.71262262558542
 30
0.0
 10
378.3276716011552
 20
70.74980600799461
 30
0.0
 10
378.4698157043165
 20
70.78841308178976
 30
0.0
 10
378.6112853399203
 20
70.82844143452338
 30
0.0
 10
378.752075042096
 20
70.8698886226255
 30
0.0
 10
378.8921794161408
 20
70.91275217420936
 30
0.0
 10
379.0315931368132
 20
70.95702959178377
 30
0.0
 10
379.1703109464635
 20
71.00271835486204
 30
0.0
 10
379.3083276530011
 20
71.04981592245346
 30
0.0
 10
379.4456381277153
 20
71.09831973542715
 30
0.0
 10
379.5822373029515
 20
71.14822721873823
 30
0.0
 10
379.718120169663
 20
71.19953578349492
 30
0.0
 10
379.8532817748218
 20
71.25224282890402
 30
0.0
 10
379.9877172188006
 20
71.30634574390571
 30
0.0
 10
380.1214216523568
 20
71.36184190916033
 30
0.0
 10
380.2543902746639
 20
71.41872869688106
 30
0.0
 10
380.3866183270383
 20
71.4770034778172
 30
0.0
 10
380.5181011024089
 20
71.53666360065387
 30
0.0
 10
380.6488338957859
 20
71.59770647338549
 30
0.0
 10
380.7788121746663
 20
71.66012926325888
 30
0.0
 10
380.9080309286819
 20
71.72393001891813
 30
0.0
 10
381.0364870816439
 20
71.78910348494303
 30
0.0
 10
381.164170476641
 20
71.8556567200286
 30
0.0
 10
381.2910975005664
 20
71.92355081737422
 30
0.0
 10
381.4171855962888
 20
71.99291837963546
 30
0.0
 10
381.5119869595172
 20
72.046032410403
 30
0.0
 10
381.56450354291
 20
72.07646143065664
 30
0.0
 10
381.5755210303954
 20
72.08284515420033
 30
0.0
  0
LINE
  5
C9
330
1F
100
AcDbEntity
  8
0
  6
Continuous
 62
     7
370
    30
100
AcDbLine
 10
381.5981619955
 20
72.0957087775
 30
0.0
 11
386.5479094638
 21
74.9531371689
 31
0.0
  0
LINE
  5
CA
330
1F
100
AcDbEntity
  8
0
  6
Continuous
 62
     7
370
    30
100
AcDbLine
 10
349.05095699
 20
139.9068018474
 30
0.0
 11
344.1012095217
 21
137.0493734561
 31
0.0
  0
LWPOLYLINE
  5
CB
330
1F
100
AcDbEntity
  8
0
  6
Continuous
 62
     7
370
    30
100
AcDbPolyline
 90
       81
 70
   128
 43
0.0
 10
333.9204761112
 20
71.2230169563
 10
333.9805353774
 20
71.2049244972
 10
334.2262748508
 20
71.1338173797
 10
334.4751544475
 20
71.066448153
 10
334.727003598
 20
71.0028629886
 10
334.9816496974
 20
70.9431054646
 10
335.238918224
 20
70.8872165357
 10
335.4986328588
 20
70.8352345056
 10
335.7606156064
 20
70.7871949999
 10
336.0246869169
 20
70.7431309428
 10
336.2906658089
 20
70.7030725334
 10
336.5583699939
 20
70.6670472257
 10
336.8276160007
 20
70.6350797098
 10
337.0982193016
 20
70.6071918946
 10
337.3699944387
 20
70.5834028929
 10
337.6427551507
 20
70.5637290086
 10
337.9163145013
 20
70.5481837252
 10
338.1904850063
 20
70.5367776966
 10
338.4650787631
 20
70.52951874
 10
338.7399075788
 20
70.5264118302
 10
339.0147830995
 20
70.5274590967
 10
339.2895169392
 20
70.5326598216
 10
339.5639208091
 20
70.5420104406
 10
339.8378066465
 20
70.5555045454
 10
340.1109867436
 20
70.5731328876
 10
340.3832738766
 20
70.5948833858
 10
340.6544814333
 20
70.6207411332
 10
340.9244235417
 20
70.6506884082
 10
341.192915197
 20
70.6847046864
 10
341.4597723884
 20
70.7227666548
 10
341.7248122253
 20
70.7648482277
 10
341.9878530626
 20
70.8109205643
 10
342.2487146253
 20
70.8609520891
 10
342.5072181318
 20
70.9149085129
 10
342.7631864169
 20
70.9727528566
 10
343.0164440526
 20
71.0344454767
 10
343.2668174688
 20
71.0999440922
 10
343.5141350721
 20
71.1692038135
 10
343.7582273632
 20
71.2421771734
 10
343.9989270537
 20
71.3188141598
 10
344.2360691799
 20
71.3990622493
 10
344.4694912164
 20
71.4828664441
 10
344.6990331874
 20
71.5701693089
 10
344.9245377765
 20
71.6609110106
 10
345.1458504338
 20
71.7550293594
 10
345.3628194829
 20
71.8524598514
 10
345.575296224
 20
71.9531357125
 10
345.7831350361
 20
72.0569879445
 10
345.9861934769
 20
72.1639453723
 10
346.1843323803
 20
72.2739346926
 10
346.3774159518
 20
72.3868805242
 10
346.5653118615
 20
72.5027054597
 10
346.7478913349
 20
72.6213301185
 10
346.9250292413
 20
72.7426732011
 10
347.0966041791
 20
72.8666515451
 10
347.2624985595
 20
72.9931801819
 10
347.4225986867
 20
73.1221723951
 10
347.5767948361
 20
73.2535397799
 10
347.7249813294
 20
73.3871923035
 10
347.8670566069
 20
73.5230383674
 10
348.0029232973
 20
73.6609848693
 10
348.1324882845
 20
73.8009372676
 10
348.2556627709
 20
73.942799646
 10
348.3723623391
 20
74.086474779
 10
348.4825070089
 20
74.2318641988
 10
348.5860212927
 20
74.378868263
 10
348.6828342469
 20
74.5273862221
 10
348.7728795208
 20
74.6773162894
 10
348.8560954019
 20
74.8285557103
 10
348.9324248582
 20
74.981000833
 10
349.0018155772
 20
75.134547179
 10
349.064220002
 20
75.2890895155
 10
349.1195953638
 20
75.4445219268
 10
349.167903711
 20
75.6007378872
 10
349.2091119355
 20
75.7576303343
 10
349.2431917953
 20
75.9150917417
 10
349.2701199337
 20
76.0730141933
 10
349.2898778956
 20
76.2312894569
 10
349.3024521397
 20
76.3898090585
 10
349.3078340484
 20
76.5484643567
 10
349.3080551983
 20
76.5878051401
  0
LWPOLYLINE
  5
CC
330
1F
100
AcDbEntity
  8
0
  6
Continuous
 62
     7
370
    30
100
AcDbPolyline
 90
      106
 70
   128
 43
0.0
 10
348.4722551582
 20
68.2773876235
 10
348.3629955488
 20
68.1321464638
 10
348.2471874607
 20
67.9886061656
 10
348.1249102628
 20
67.846865104
 10
347.9962477578
 20
67.7070204214
 10
347.8612881245
 20
67.5691679604
 10
347.7201238577
 20
67.433402198
 10
347.5728517041
 20
67.2998161815
 10
347.4195725969
 20
67.1685014639
 10
347.2603915858
 20
67.0395480418
 10
347.0954177655
 20
66.9130442935
 10
346.9247642009
 20
66.7890769184
 10
346.7485478493
 20
66.6677308773
 10
346.5668894808
 20
66.5490893349
 10
346.3799135948
 20
66.4332336022
 10
346.1877483352
 20
66.3202430809
 10
345.9905254026
 20
66.210195209
 10
345.7883799637
 20
66.1031654079
 10
345.5814505589
 20
65.9992270304
 10
345.3698790073
 20
65.8984513107
 10
345.1538103094
 20
65.8009073155
 10
344.9333925479
 20
65.7066618965
 10
344.7087767861
 20
65.6157796448
 10
344.4801169645
 20
65.5283228467
 10
344.2475697951
 20
65.4443514406
 10
344.0112946542
 20
65.3639229762
 10
343.7714534728
 20
65.2870925754
 10
343.5282106261
 20
65.2139128938
 10
343.2817328207
 20
65.144434085
 10
343.0321889801
 20
65.0787037665
 10
342.7797501293
 20
65.0167669864
 10
342.5245892771
 20
64.9586661932
 10
342.2668812981
 20
64.9044412062
 10
342.0068028124
 20
64.8541291885
 10
341.744532065
 20
64.8077646216
 10
341.4802488029
 20
64.7653792812
 10
341.2141341529
 20
64.7270022163
 10
340.9463704965
 20
64.6926597285
 10
340.6771413456
 20
64.6623753545
 10
340.4066312165
 20
64.6361698497
 10
340.1350255032
 20
64.614061174
 10
339.8625103507
 20
64.5960644796
 10
339.5892725273
 20
64.5821921005
 10
339.3154992966
 20
64.5724535442
 10
339.0413782891
 20
64.5668554849
 10
338.7670973736
 20
64.5654017594
 10
338.4928445285
 20
64.568093364
 10
338.218807713
 20
64.5749284539
 10
337.9451747384
 20
64.5859023446
 10
337.6721331389
 20
64.6010075154
 10
337.3998700437
 20
64.6202336137
 10
337.1285720482
 20
64.6435674631
 10
336.8584250866
 20
64.6709930717
 10
336.5896143041
 20
64.7024916432
 10
336.3223239301
 20
64.7380415902
 10
336.0567371522
 20
64.7776185486
 10
335.7930359903
 20
64.8211953942
 10
335.5314011719
 20
64.8687422616
 10
335.2720120085
 20
64.9202265647
 10
335.0150462725
 20
64.9756130186
 10
334.7606800754
 20
65.0348636642
 10
334.509087747
 20
65.097937894
 10
334.2604417161
 20
65.1647924803
 10
334.0149123924
 20
65.2353816041
 10
333.7726680493
 20
65.3096568873
 10
333.533874709
 20
65.3875674252
 10
333.2986960286
 20
65.4690598218
 10
333.0672931878
 20
65.5540782264
 10
332.8398247785
 20
65.6425643715
 10
332.6164466962
 20
65.7344576132
 10
332.3973120331
 20
65.8296949725
 10
332.1825709731
 20
65.9282111784
 10
331.9723706891
 20
66.0299387128
 10
331.7668552418
 20
66.1348078567
 10
331.5661654812
 20
66.2427467382
 10
331.3704389501
 20
66.3536813812
 10
331.1798097897
 20
66.4675357567
 10
330.9944086476
 20
66.5842318347
 10
330.8143625886
 20
66.7036896373
 10
330.6397950071
 20
66.8258272943
 10
330.4708255433
 20
66.9505610986
 10
330.3075700001
 20
67.0778055638
 10
330.1501402649
 20
67.207473483
 10
329.9986442321
 20
67.3394759883
 10
329.8531857296
 20
67.4737226117
 10
329.7138644473
 20
67.6101213472
 10
329.5807758691
 20
67.7485787141
 10
329.4540112072
 20
67.8889998205
 10
329.3336573398
 20
68.0312884289
 10
329.2197967514
 20
68.1753470217
 10
329.1125074765
 20
68.3210768683
 10
329.0118630456
 20
68.4683780929
 10
328.9179324355
 20
68.6171497425
 10
328.8307800216
 20
68.7672898564
 10
328.7504655337
 20
68.9186955362
 10
328.6770440153
 20
69.0712630159
 10
328.6105657859
 20
69.2248877333
 10
328.5510764065
 20
69.3794644019
 10
328.4986166479
 20
69.5348870824
 10
328.4532224635
 20
69.691049256
 10
328.4149249643
 20
69.8478438968
 10
328.3837503974
 20
70.0051635457
 10
328.3597201283
 20
70.1629003836
 10
328.3428506261
 20
70.3209463056
 10
328.3331534524
 20
70.4791929949
 10
328.3305551983
 20
70.6138875481
  0
ARC
  5
CD
330
1F
100
AcDbEntity
  8
0
  6
Continuous
 62
     7
370
    30
100
AcDbCircle
 10
345.3269239252
 20
70.6820281652
 30
0.0
 40
3.959217687901318
100
AcDbArc
 50
322.6016873093
 51
359.0138550483
  0
ARC
  5
CE
330
1F
100
AcDbEntity
  8
0
  6
Continuous
 62
     7
370
    30
100
AcDbCircle
 10
357.7480815264
 20
110.2721943694
 30
0.0
 40
7.550783913747011
100
AcDbArc
 50
54.4092132707
 51
114.2803283002
  0
LWPOLYLINE
  5
CF
330
1F
100
AcDbEntity
  8
0
  6
Continuous
 62
     7
370
    30
100
AcDbPolyline
 90
       92
 70
   128
 43
0.0
 10
369.6419694722
 20
91.1736041252
 10
369.6425789774
 20
91.1739560422
 10
369.8363360271
 20
91.2917815948
 10
370.0248201599
 20
91.4184293539
 10
370.2079021984
 20
91.5538125215
 10
370.3854566672
 20
91.6978383127
 10
370.5573618794
 20
91.8504080194
 10
370.7235000197
 20
92.011417078
 10
370.8837572253
 20
92.1807551409
 10
371.0380236641
 20
92.3583061522
 10
371.1861936093
 20
92.5439484274
 10
371.3281655129
 20
92.7375547365
 10
371.4638420742
 20
92.9389923915
 10
371.5931303075
 20
93.1481233369
 10
371.7159416049
 20
93.364804245
 10
371.8321917977
 20
93.5888866134
 10
371.941801214
 20
93.8202168673
 10
372.0446947328
 20
94.0586364645
 10
372.1408018361
 20
94.3039820041
 10
372.2300566569
 20
94.5560853385
 10
372.3123980243
 20
94.8147736887
 10
372.3877695058
 20
95.0798697626
 10
372.4561194455
 20
95.3511918766
 10
372.5174009996
 20
95.6285540801
 10
372.571572169
 20
95.9117662828
 10
372.6185958274
 20
96.2006343854
 10
372.6584397472
 20
96.494960412
 10
372.6910766212
 20
96.7945426462
 10
372.7164840819
 20
97.0991757694
 10
372.7346447162
 20
97.4086510013
 10
372.7455460777
 20
97.7227562429
 10
372.7491806952
 20
98.0412762222
 10
372.7455460777
 20
98.3639926416
 10
372.7346447162
 20
98.6906843273
 10
372.7164840819
 20
99.0211273812
 10
372.6910766212
 20
99.3550953341
 10
372.6584397472
 20
99.692359301
 10
372.6185958274
 20
100.0326881381
 10
372.571572169
 20
100.375848601
 10
372.5174009996
 20
100.7216055047
 10
372.4561194455
 20
101.0697218846
 10
372.3877695058
 20
101.4199591592
 10
372.3123980243
 20
101.7720772932
 10
372.2300566569
 20
102.1258349627
 10
372.1408018361
 20
102.4809897196
 10
372.0446947328
 20
102.8372981588
 10
371.941801214
 20
103.1945160841
 10
371.8321917977
 20
103.5523986762
 10
371.7159416049
 20
103.9107006604
 10
371.5931303075
 20
104.2691764743
 10
371.4638420742
 20
104.6275804365
 10
371.3281655129
 20
104.9856669148
 10
371.1861936093
 20
105.3431904947
 10
371.0380236641
 20
105.6999061473
 10
370.8837572253
 20
106.0555693975
 10
370.7235000197
 20
106.4099364916
 10
370.5573618794
 20
106.762764564
 10
370.3854566672
 20
107.113811804
 10
370.2079021984
 20
107.4628376213
 10
370.0248201599
 20
107.8096028111
 10
369.8363360271
 20
108.1538697179
 10
369.6425789774
 20
108.4954023982
 10
369.4436818024
 20
108.8339667827
 10
369.2397808163
 20
109.1693308363
 10
369.0310157625
 20
109.5012647171
 10
368.8175297182
 20
109.8295409343
 10
368.5994689961
 20
110.1539345037
 10
368.3769830441
 20
110.4742231023
 10
368.150224343
 20
110.7901872201
 10
367.9193483018
 20
111.1016103112
 10
367.6845131515
 20
111.4082789417
 10
367.4458798363
 20
111.7099829363
 10
367.2036119037
 20
112.0065155222
 10
366.9578753918
 20
112.2976734706
 10
366.7088387164
 20
112.5832572366
 10
366.4566725546
 20
112.8630710952
 10
366.2015497285
 20
113.136923276
 10
365.9436450867
 20
113.4046260944
 10
365.683135384
 20
113.6659960802
 10
365.4201991608
 20
113.9208541036
 10
365.1550166204
 20
114.1690254976
 10
364.8877695058
 20
114.4103401778
 10
364.6186409747
 20
114.6446327593
 10
364.3478154744
 20
114.8717426696
 10
364.0754786152
 20
115.091514259
 10
363.801817043
 20
115.303796907
 10
363.527018312
 20
115.5084451256
 10
363.2512707555
 20
115.7053186591
 10
362.974763357
 20
115.8942825804
 10
362.6976856208
 20
116.075207383
 10
362.4202274423
 20
116.24796907
 10
362.1425789774
 20
116.4124492392
  0
LINE
  5
D0
330
1F
100
AcDbEntity
  8
0
  6
Continuous
 62
     7
370
    30
100
AcDbLine
 10
381.6196106262
 20
72.1081191669
 30
0.0
 11
381.5767398112
 21
72.0833702377
 31
0.0
  0
LINE
  5
D1
330
1F
100
AcDbEntity
  8
0
  6
Continuous
 62
     7
370
    30
100
AcDbLine
 10
344.0783478595
 20
137.0361434789
 30
0.0
 11
344.1244408132
 21
137.0627514061
 31
0.0
  0
LWPOLYLINE
  5
D2
330
1F
100
AcDbEntity
  8
0
  6
Continuous
 62
     7
370
    30
100
AcDbPolyline
 90
       43
 70
   128
 43
0.0
 10
375.7502687799
 20
132.0514299481
 10
375.0853609678
 20
132.6656022856
 10
374.4154597447
 20
133.2624793811
 10
373.7410242275
 20
133.8416521646
 10
373.0625166406
 20
134.4027237001
 10
372.3804019993
 20
134.9453094573
 10
371.6951477908
 20
135.4690375748
 10
371.0072236541
 20
135.9735491157
 10
370.3171010581
 20
136.4584983129
 10
369.6252529783
 20
136.9235528065
 10
368.9321535729
 20
137.3683938713
 10
368.2382778575
 20
137.7927166355
 10
367.5441013799
 20
138.1962302894
 10
366.850099894
 20
138.5786582851
 10
366.1567490338
 20
138.9397385254
 10
365.4645239873
 20
139.2792235439
 10
364.7738991709
 20
139.5968806746
 10
364.0853479044
 20
139.8924922112
 10
363.3993420865
 20
140.1658555563
 10
362.7163518713
 20
140.4167833602
 10
362.0368453461
 20
140.6451036497
 10
361.3612882108
 20
140.8506599454
 10
360.6901434586
 20
141.0333113692
 10
360.0238710584
 20
141.1929327411
 10
359.3629276401
 20
141.3294146644
 10
358.7077661813
 20
141.4426636014
 10
358.058835697
 20
141.5326019368
 10
357.4165809317
 20
141.5991680314
 10
356.7814420547
 20
141.6423162641
 10
356.1538543585
 20
141.6620170633
 10
355.5342479603
 20
141.658256927
 10
354.9230475075
 20
141.6310384323
 10
354.3206718863
 20
141.5803802333
 10
353.7275339347
 20
141.5063170487
 10
353.1440401601
 20
141.4088996376
 10
352.5705904598
 20
141.288194765
 10
352.0075778477
 20
141.1442851562
 10
351.4553881844
 20
140.9772694394
 10
350.9143999132
 20
140.7872620791
 10
350.3849838003
 20
140.5743932966
 10
349.8675026813
 20
140.3388089816
 10
349.3623112117
 20
140.080670592
 10
349.05095699
 20
139.9068018474
  0
LWPOLYLINE
  5
D3
330
1F
100
AcDbEntity
  8
0
  6
Continuous
 62
     7
370
    30
100
AcDbPolyline
 90
       80
 70
   128
 43
0.0
 10
386.5479094638
 20
74.9531371689
 10
386.7291108292
 20
75.0597839736
 10
387.2086929609
 20
75.3624844311
 10
387.6749729554
 20
75.6871623411
 10
388.1276312478
 20
76.0335951855
 10
388.5663576087
 20
76.4015455366
 10
388.9908513569
 20
76.7907612196
 10
389.4008215657
 20
77.2009754855
 10
389.795987262
 20
77.6319071939
 10
390.1760776188
 20
78.0832610057
 10
390.5408321414
 20
78.5547275857
 10
390.890000845
 20
79.0459838142
 10
391.2233444271
 20
79.5566930086
 10
391.5406344304
 20
80.0865051544
 10
391.8416534003
 20
80.6350571449
 10
392.1261950335
 20
81.2019730298
 10
392.3940643193
 20
81.7868642735
 10
392.6450776734
 20
82.3893300205
 10
392.879063064
 20
83.0089573711
 10
393.0958601289
 20
83.6453216635
 10
393.2953202865
 20
84.2979867655
 10
393.4773068366
 20
84.966505373
 10
393.6416950548
 20
85.6504193167
 10
393.7883722776
 20
86.3492598762
 10
393.9172379797
 20
87.0625481011
 10
394.0282038431
 20
87.7897951393
 10
394.1211938173
 20
88.5305025719
 10
394.1961441715
 20
89.2841627551
 10
394.2530035386
 20
90.0502591678
 10
394.29173295
 20
90.8282667659
 10
394.3123058625
 20
91.6176523418
 10
394.3147081764
 20
92.41787489
 10
394.2989382454
 20
93.228385978
 10
394.2650068773
 20
94.0486301219
 10
394.212937327
 20
94.8780451675
 10
394.1427652803
 20
95.716062675
 10
394.0545388298
 20
96.5621083091
 10
393.9483184413
 20
97.4156022325
 10
393.8241769131
 20
98.2759595029
 10
393.6821993255
 20
99.1425904746
 10
393.522482983
 20
100.0149012019
 10
393.345137347
 20
100.8922938466
 10
393.1502839614
 20
101.7741670876
 10
392.9380563691
 20
102.6599165331
 10
392.7086000201
 20
103.5489351346
 10
392.4620721725
 20
104.4406136033
 10
392.1986417841
 20
105.3343408271
 10
391.9184893969
 20
106.2295042902
 10
391.6218070133
 20
107.1254904922
 10
391.3087979648
 20
108.0216853688
 10
390.9796767719
 20
108.917474713
 10
390.634668998
 20
109.8122445954
 10
390.2740110942
 20
110.7053817855
 10
389.8979502373
 20
111.5962741716
 10
389.5067441607
 20
112.4843111806
 10
389.1006609775
 20
113.3688841963
 10
388.6799789968
 20
114.2493869765
 10
388.244986533
 20
115.1252160687
 10
387.7959817083
 20
115.9957712232
 10
387.3332722481
 20
116.8604558051
 10
386.8571752704
 20
117.7186772027
 10
386.3680170683
 20
118.569847234
 10
385.8661328863
 20
119.4133825496
 10
385.3518666908
 20
120.2487050325
 10
384.8255709341
 20
121.0752421943
 10
384.2876063132
 20
121.8924275679
 10
383.738341522
 20
122.6997010951
 10
383.1781529993
 20
123.496509511
 10
382.6074246702
 20
124.2823067229
 10
382.0265476834
 20
125.0565541848
 10
381.4359201431
 20
125.8187212659
 10
380.8359468358
 20
126.5682856151
 10
380.2270389532
 20
127.3047335185
 10
379.6096138105
 20
128.0275602513
 10
378.9840945599
 20
128.7362704244
 10
378.3509099011
 20
129.430378323
 10
377.7104937872
 20
130.1094082404
 10
377.0632851276
 20
130.7728948034
 10
376.4097274865
 20
131.4203832913
 10
375.7502687799
 20
132.0514299481
  0
ENDSEC
  0
SECTION
  2
OBJECTS
  0
DICTIONARY
  5
C
330
0
100
AcDbDictionary
281
     1
  3
ACAD_GROUP
350
D
  3
ACAD_LAYOUT
350
1A
  3
ACAD_MLINESTYLE
350
17
  3
ACAD_PLOTSETTINGS
350
19
  3
ACAD_PLOTSTYLENAME
350
E
  3
ACAD_SCALELIST
350
47
  0
DICTIONARY
  5
D
102
{ACAD_REACTORS
330
C
102
}
330
C
100
AcDbDictionary
281
     1
  0
DICTIONARY
  5
1A
102
{ACAD_REACTORS
330
C
102
}
330
C
100
AcDbDictionary
281
     1
  3
Layout1
350
1E
  3
Layout2
350
26
  3
Model
350
22
  0
DICTIONARY
  5
17
102
{ACAD_REACTORS
330
C
102
}
330
C
100
AcDbDictionary
281
     1
  3
Standard
350
18
  0
DICTIONARY
  5
19
102
{ACAD_REACTORS
330
C
102
}
330
C
100
AcDbDictionary
281
     1
  0
ACDBDICTIONARYWDFLT
  5
E
102
{ACAD_REACTORS
330
C
102
}
330
C
100
AcDbDictionary
281
     1
  3
Normal
350
F
100
AcDbDictionaryWithDefault
340
F
  0
DICTIONARY
  5
47
102
{ACAD_REACTORS
330
C
102
}
330
C
100
AcDbDictionary
281
     1
  3
A0
350
48
  3
A1
350
49
  3
A2
350
4A
  3
A3
350
4B
  3
A4
350
4C
  3
A5
350
4D
  3
A6
350
4E
  3
A7
350
4F
  3
A8
350
50
  3
A9
350
51
  3
B0
350
52
  3
B1
350
53
  3
B2
350
54
  3
B3
350
55
  3
B4
350
56
  3
B5
350
57
  3
B6
350
58
  3
B7
350
59
  3
B8
350
5A
  3
B9
350
5B
  3
C0
350
5C
  3
C1
350
5D
  3
C2
350
5E
  3
C3
350
5F
  3
C4
350
60
  3
C5
350
61
  3
C6
350
62
  3
C7
350
63
  3
C8
350
64
  3
C9
350
65
  3
D0
350
66
  3
D1
350
67
  3
D2
350
68
  0
LAYOUT
  5
1E
102
{ACAD_REACTORS
330
1A
102
}
330
1A
100
AcDbPlotSettings
  1

  2
none_device
  4

  6

 40
0.0
 41
0.0
 42
0.0
 43
0.0
 44
0.0
 45
0.0
 46
0.0
 47
0.0
 48
0.0
 49
0.0
140
0.0
141
0.0
142
1.0
143
1.0
 70
   688
 72
     1
 73
     0
 74
     5
  7

 75
    16
147
1.0
148
0.0
149
0.0
100
AcDbLayout
  1
Layout1
 70
     1
 71
     1
 10
0.0
 20
0.0
 11
420.0
 21
297.0
 12
0.0
 22
0.0
 32
0.0
 14
1.0000000000E+20
 24
1.0000000000E+20
 34
1.0000000000E+20
 15
-1.0000000000E+20
 25
-1.0000000000E+20
 35
-1.0000000000E+20
146
0.0
 13
0.0
 23
0.0
 33
0.0
 16
1.0
 26
0.0
 36
0.0
 17
0.0
 27
1.0
 37
0.0
 76
     0
330
1B
  0
LAYOUT
  5
26
102
{ACAD_REACTORS
330
1A
102
}
330
1A
100
AcDbPlotSettings
  1

  2
none_device
  4

  6

 40
0.0
 41
0.0
 42
0.0
 43
0.0
 44
0.0
 45
0.0
 46
0.0
 47
0.0
 48
0.0
 49
0.0
140
0.0
141
0.0
142
1.0
143
1.0
 70
   688
 72
     1
 73
     0
 74
     5
  7

 75
    16
147
1.0
148
0.0
149
0.0
100
AcDbLayout
  1
Layout2
 70
     1
 71
     2
 10
0.0
 20
0.0
 11
0.0
 21
0.0
 12
0.0
 22
0.0
 32
0.0
 14
0.0
 24
0.0
 34
0.0
 15
0.0
 25
0.0
 35
0.0
146
0.0
 13
0.0
 23
0.0
 33
0.0
 16
1.0
 26
0.0
 36
0.0
 17
0.0
 27
1.0
 37
0.0
 76
     0
330
23
  0
LAYOUT
  5
22
102
{ACAD_REACTORS
330
1A
102
}
330
1A
100
AcDbPlotSettings
  1

  2
none_device
  4
Letter_(8.50_x_11.00_Inches)
  6

 40
6.35
 41
6.35
 42
6.35000508
 43
6.35000508
 44
215.9
 45
279.4
 46
0.0
 47
0.0
 48
0.0
 49
0.0
140
0.0
141
0.0
142
1.0
143
1.0
 70
  1712
 72
     1
 73
     0
 74
     0
  7

 75
     0
147
1.0
148
0.0
149
0.0
100
AcDbLayout
  1
Model
 70
     1
 71
     0
 10
0.0
 20
0.0
 11
428.0
 21
325.0
 12
0.0
 22
0.0
 32
0.0
 14
0.0
 24
0.0
 34
0.0
 15
428.0
 25
325.0
 35
0.0
146
0.0
 13
0.0
 23
0.0
 33
0.0
 16
1.0
 26
0.0
 36
0.0
 17
0.0
 27
1.0
 37
0.0
 76
     0
330
1F
331
29
  0
MLINESTYLE
  5
18
102
{ACAD_REACTORS
330
17
102
}
330
17
100
AcDbMlineStyle
  2
Standard
 70
     0
  3

 62
   256
 51
90.0
 52
90.0
 71
     2
 49
0.5
 62
   256
  6
BYLAYER
 49
-0.5
 62
   256
  6
BYLAYER
  0
ACDBPLACEHOLDER
  5
F
102
{ACAD_REACTORS
330
E
102
}
330
E
  0
SCALE
  5
48
102
{ACAD_REACTORS
330
47
102
}
330
47
100
AcDbScale
 70
     0
300
1:1
140
1.0
141
1.0
290
     1
  0
SCALE
  5
49
102
{ACAD_REACTORS
330
47
102
}
330
47
100
AcDbScale
 70
     0
300
1:2
140
1.0
141
2.0
290
     0
  0
SCALE
  5
4A
102
{ACAD_REACTORS
330
47
102
}
330
47
100
AcDbScale
 70
     0
300
1:4
140
1.0
141
4.0
290
     0
  0
SCALE
  5
4B
102
{ACAD_REACTORS
330
47
102
}
330
47
100
AcDbScale
 70
     0
300
1:5
140
1.0
141
5.0
290
     0
  0
SCALE
  5
4C
102
{ACAD_REACTORS
330
47
102
}
330
47
100
AcDbScale
 70
     0
300
1:8
140
1.0
141
8.0
290
     0
  0
SCALE
  5
4D
102
{ACAD_REACTORS
330
47
102
}
330
47
100
AcDbScale
 70
     0
300
1:10
140
1.0
141
10.0
290
     0
  0
SCALE
  5
4E
102
{ACAD_REACTORS
330
47
102
}
330
47
100
AcDbScale
 70
     0
300
1:16
140
1.0
141
16.0
290
     0
  0
SCALE
  5
4F
102
{ACAD_REACTORS
330
47
102
}
330
47
100
AcDbScale
 70
     0
300
1:20
140
1.0
141
20.0
290
     0
  0
SCALE
  5
50
102
{ACAD_REACTORS
330
47
102
}
330
47
100
AcDbScale
 70
     0
300
1:30
140
1.0
141
30.0
290
     0
  0
SCALE
  5
51
102
{ACAD_REACTORS
330
47
102
}
330
47
100
AcDbScale
 70
     0
300
1:40
140
1.0
141
40.0
290
     0
  0
SCALE
  5
52
102
{ACAD_REACTORS
330
47
102
}
330
47
100
AcDbScale
 70
     0
300
1:50
140
1.0
141
50.0
290
     0
  0
SCALE
  5
53
102
{ACAD_REACTORS
330
47
102
}
330
47
100
AcDbScale
 70
     0
300
1:100
140
1.0
141
100.0
290
     0
  0
SCALE
  5
54
102
{ACAD_REACTORS
330
47
102
}
330
47
100
AcDbScale
 70
     0
300
2:1
140
2.0
141
1.0
290
     0
  0
SCALE
  5
55
102
{ACAD_REACTORS
330
47
102
}
330
47
100
AcDbScale
 70
     0
300
4:1
140
4.0
141
1.0
290
     0
  0
SCALE
  5
56
102
{ACAD_REACTORS
330
47
102
}
330
47
100
AcDbScale
 70
     0
300
8:1
140
8.0
141
1.0
290
     0
  0
SCALE
  5
57
102
{ACAD_REACTORS
330
47
102
}
330
47
100
AcDbScale
 70
     0
300
10:1
140
10.0
141
1.0
290
     0
  0
SCALE
  5
58
102
{ACAD_REACTORS
330
47
102
}
330
47
100
AcDbScale
 70
     0
300
100:1
140
100.0
141
1.0
290
     0
  0
SCALE
  5
59
102
{ACAD_REACTORS
330
47
102
}
330
47
100
AcDbScale
 70
     0
300
1/128" = 1'-0"
140
0.0078125
141
12.0
290
     0
  0
SCALE
  5
5A
102
{ACAD_REACTORS
330
47
102
}
330
47
100
AcDbScale
 70
     0
300
1/64" = 1'-0"
140
0.015625
141
12.0
290
     0
  0
SCALE
  5
5B
102
{ACAD_REACTORS
330
47
102
}
330
47
100
AcDbScale
 70
     0
300
1/32" = 1'-0"
140
0.03125
141
12.0
290
     0
  0
SCALE
  5
5C
102
{ACAD_REACTORS
330
47
102
}
330
47
100
AcDbScale
 70
     0
300
1/16" = 1'-0"
140
0.0625
141
12.0
290
     0
  0
SCALE
  5
5D
102
{ACAD_REACTORS
330
47
102
}
330
47
100
AcDbScale
 70
     0
300
3/32" = 1'-0"
140
0.09375
141
12.0
290
     0
  0
SCALE
  5
5E
102
{ACAD_REACTORS
330
47
102
}
330
47
100
AcDbScale
 70
     0
300
1/8" = 1'-0"
140
0.125
141
12.0
290
     0
  0
SCALE
  5
5F
102
{ACAD_REACTORS
330
47
102
}
330
47
100
AcDbScale
 70
     0
300
3/16" = 1'-0"
140
0.1875
141
12.0
290
     0
  0
SCALE
  5
60
102
{ACAD_REACTORS
330
47
102
}
330
47
100
AcDbScale
 70
     0
300
1/4" = 1'-0"
140
0.25
141
12.0
290
     0
  0
SCALE
  5
61
102
{ACAD_REACTORS
330
47
102
}
330
47
100
AcDbScale
 70
     0
300
3/8" = 1'-0"
140
0.375
141
12.0
290
     0
  0
SCALE
  5
62
102
{ACAD_REACTORS
330
47
102
}
330
47
100
AcDbScale
 70
     0
300
1/2" = 1'-0"
140
0.5
141
12.0
290
     0
  0
SCALE
  5
63
102
{ACAD_REACTORS
330
47
102
}
330
47
100
AcDbScale
 70
     0
300
3/4" = 1'-0"
140
0.75
141
12.0
290
     0
  0
SCALE
  5
64
102
{ACAD_REACTORS
330
47
102
}
330
47
100
AcDbScale
 70
     0
300
1" = 1'-0"
140
1.0
141
12.0
290
     0
  0
SCALE
  5
65
102
{ACAD_REACTORS
330
47
102
}
330
47
100
AcDbScale
 70
     0
300
1-1/2" = 1'-0"
140
1.5
141
12.0
290
     0
  0
SCALE
  5
66
102
{ACAD_REACTORS
330
47
102
}
330
47
100
AcDbScale
 70
     0
300
3" = 1'-0"
140
3.0
141
12.0
290
     0
  0
SCALE
  5
67
102
{ACAD_REACTORS
330
47
102
}
330
47
100
AcDbScale
 70
     0
300
6" = 1'-0"
140
6.0
141
12.0
290
     0
  0
SCALE
  5
68
102
{ACAD_REACTORS
330
47
102
}
330
47
100
AcDbScale
 70
     0
300
1'-0" = 1'-0"
140
12.0
141
12.0
290
     0
  0
ENDSEC
  0
EOF
