  0
SECTION
  2
HEADER
  9
$ACADVER
  1
AC1015
  9
$ACADMAINTVER
 70
     6
  9
$DWGCODEPAGE
  3
ANSI_1252
  9
$INSBASE
 10
0.0
 20
0.0
 30
0.0
  9
$EXTMIN
 10
0.0
 20
0.0
 30
0.0
  9
$EXTMAX
 10
495.0
 20
1997.0
 30
0.0
  9
$LIMMIN
 10
0.0
 20
0.0
  9
$LIMMAX
 10
495.0
 20
1997.0
  9
$ORTHOMODE
 70
     0
  9
$REGENMODE
 70
     1
  9
$FILLMODE
 70
     1
  9
$QTEXTMODE
 70
     0
  9
$MIRRTEXT
 70
     1
  9
$LTSCALE
 40
1.0
  9
$ATTMODE
 70
     1
  9
$TEXTSIZE
 40
3.5
  9
$TRACEWID
 40
1.0
  9
$TEXTSTYLE
  7
Standard
  9
$CLAYER
  8
0
  9
$CELTYPE
  6
ByLayer
  9
$CECOLOR
 62
   256
  9
$CELTSCALE
 40
1.0
  9
$DISPSILH
 70
     0
  9
$DIMSCALE
 40
1.0
  9
$DIMASZ
 40
3.302
  9
$DIMEXO
 40
1.0
  9
$DIMDLI
 40
3.75
  9
$DIMRND
 40
0.0
  9
$DIMDLE
 40
0.0
  9
$DIMEXE
 40
1.0
  9
$DIMTP
 40
0.0
  9
$DIMTM
 40
0.0
  9
$DIMTXT
 40
2.8
  9
$DIMCEN
 40
2.5
  9
$DIMTSZ
 40
0.0
  9
$DIMTOL
 70
     0
  9
$DIMLIM
 70
     0
  9
$DIMTIH
 70
     1
  9
$DIMTOH
 70
     1
  9
$DIMSE1
 70
     0
  9
$DIMSE2
 70
     0
  9
$DIMTAD
 70
     1
  9
$DIMZIN
 70
     0
  9
$DIMBLK
  1

  9
$DIMASO
 70
     1
  9
$DIMSHO
 70
     1
  9
$DIMPOST
  1

  9
$DIMAPOST
  1

  9
$DIMALT
 70
     0
  9
$DIMALTD
 70
     3
  9
$DIMALTF
 40
0.0393700787
  9
$DIMLFAC
 40
1.0
  9
$DIMTOFL
 70
     1
  9
$DIMTVP
 40
0.0
  9
$DIMTIX
 70
     0
  9
$DIMSOXD
 70
     0
  9
$DIMSAH
 70
     0
  9
$DIMBLK1
  1

  9
$DIMBLK2
  1

  9
$DIMSTYLE
  2
ISO-25
  9
$DIMCLRD
 70
     0
  9
$DIMCLRE
 70
     0
  9
$DIMCLRT
 70
     0
  9
$DIMTFAC
 40
1.0
  9
$DIMGAP
 40
1.524
  9
$DIMJUST
 70
     0
  9
$DIMSD1
 70
     0
  9
$DIMSD2
 70
     0
  9
$DIMTOLJ
 70
     0
  9
$DIMTZIN
 70
     0
  9
$DIMALTZ
 70
     0
  9
$DIMALTTZ
 70
     0
  9
$DIMUPT
 70
     0
  9
$DIMDEC
 70
     2
  9
$DIMTDEC
 70
     2
  9
$DIMALTU
 70
     2
  9
$DIMALTTD
 70
     3
  9
$DIMTXSTY
  7
Standard
  9
$DIMAUNIT
 70
     0
  9
$DIMADEC
 70
     2
  9
$DIMALTRND
 40
0.0
  9
$DIMAZIN
 70
     0
  9
$DIMDSEP
 70
    44
  9
$DIMATFIT
 70
     3
  9
$DIMFRAC
 70
     0
  9
$DIMLDRBLK
  1

  9
$DIMLUNIT
 70
     2
  9
$DIMLWD
 70
    -2
  9
$DIMLWE
 70
    -2
  9
$DIMTMOVE
 70
     0
  9
$LUNITS
 70
     2
  9
$LUPREC
 70
     2
  9
$SKETCHINC
 40
1.0
  9
$FILLETRAD
 40
10.0
  9
$AUNITS
 70
     0
  9
$AUPREC
 70
     2
  9
$MENU
  1
.
  9
$ELEVATION
 40
0.0
  9
$PELEVATION
 40
0.0
  9
$THICKNESS
 40
0.0
  9
$LIMCHECK
 70
     0
  9
$CHAMFERA
 40
0.0
  9
$CHAMFERB
 40
0.0
  9
$CHAMFERC
 40
0.0
  9
$CHAMFERD
 40
0.0
  9
$SKPOLY
 70
     0
  9
$TDCREATE
 40
2458647.616008021
  9
$TDUCREATE
 40
2458647.491008021
  9
$TDUPDATE
 40
2458647.616008449
  9
$TDUUPDATE
 40
2458647.491008449
  9
$TDINDWG
 40
0.0000000116
  9
$TDUSRTIMER
 40
0.0000000116
  9
$USRTIMER
 70
     1
  9
$ANGBASE
 50
0.0
  9
$ANGDIR
 70
     0
  9
$PDMODE
 70
     0
  9
$PDSIZE
 40
-1.0
  9
$PLINEWID
 40
0.0
  9
$SPLFRAME
 70
     0
  9
$SPLINETYPE
 70
     6
  9
$SPLINESEGS
 70
     8
  9
$HANDSEED
  5
190
  9
$SURFTAB1
 70
     6
  9
$SURFTAB2
 70
     6
  9
$SURFTYPE
 70
     6
  9
$SURFU
 70
     6
  9
$SURFV
 70
     6
  9
$UCSBASE
  2

  9
$UCSNAME
  2

  9
$UCSORG
 10
0.0
 20
0.0
 30
0.0
  9
$UCSXDIR
 10
1.0
 20
0.0
 30
0.0
  9
$UCSYDIR
 10
0.0
 20
1.0
 30
0.0
  9
$UCSORTHOREF
  2

  9
$UCSORTHOVIEW
 70
     0
  9
$UCSORGTOP
 10
0.0
 20
0.0
 30
0.0
  9
$UCSORGBOTTOM
 10
0.0
 20
0.0
 30
0.0
  9
$UCSORGLEFT
 10
0.0
 20
0.0
 30
0.0
  9
$UCSORGRIGHT
 10
0.0
 20
0.0
 30
0.0
  9
$UCSORGFRONT
 10
0.0
 20
0.0
 30
0.0
  9
$UCSORGBACK
 10
0.0
 20
0.0
 30
0.0
  9
$PUCSBASE
  2

  9
$PUCSNAME
  2

  9
$PUCSORG
 10
0.0
 20
0.0
 30
0.0
  9
$PUCSXDIR
 10
1.0
 20
0.0
 30
0.0
  9
$PUCSYDIR
 10
0.0
 20
1.0
 30
0.0
  9
$PUCSORTHOREF
  2

  9
$PUCSORTHOVIEW
 70
     0
  9
$PUCSORGTOP
 10
0.0
 20
0.0
 30
0.0
  9
$PUCSORGBOTTOM
 10
0.0
 20
0.0
 30
0.0
  9
$PUCSORGLEFT
 10
0.0
 20
0.0
 30
0.0
  9
$PUCSORGRIGHT
 10
0.0
 20
0.0
 30
0.0
  9
$PUCSORGFRONT
 10
0.0
 20
0.0
 30
0.0
  9
$PUCSORGBACK
 10
0.0
 20
0.0
 30
0.0
  9
$USERI1
 70
     0
  9
$USERI2
 70
     0
  9
$USERI3
 70
     0
  9
$USERI4
 70
     0
  9
$USERI5
 70
     0
  9
$USERR1
 40
0.0
  9
$USERR2
 40
0.0
  9
$USERR3
 40
0.0
  9
$USERR4
 40
0.0
  9
$USERR5
 40
0.0
  9
$WORLDVIEW
 70
     1
  9
$SHADEDGE
 70
     3
  9
$SHADEDIF
 70
    70
  9
$TILEMODE
 70
     1
  9
$MAXACTVP
 70
    64
  9
$PINSBASE
 10
0.0
 20
0.0
 30
0.0
  9
$PLIMCHECK
 70
     0
  9
$PEXTMIN
 10
1.0000000000E+20
 20
1.0000000000E+20
 30
1.0000000000E+20
  9
$PEXTMAX
 10
-1.0000000000E+20
 20
-1.0000000000E+20
 30
-1.0000000000E+20
  9
$PLIMMIN
 10
0.0
 20
0.0
  9
$PLIMMAX
 10
420.0
 20
297.0
  9
$UNITMODE
 70
     0
  9
$VISRETAIN
 70
     1
  9
$PLINEGEN
 70
     0
  9
$PSLTSCALE
 70
     1
  9
$TREEDEPTH
 70
  3020
  9
$CMLSTYLE
  2
Standard
  9
$CMLJUST
 70
     0
  9
$CMLSCALE
 40
20.0
  9
$PROXYGRAPHICS
 70
     1
  9
$MEASUREMENT
 70
     1
  9
$CELWEIGHT
370
    -1
  9
$ENDCAPS
280
     0
  9
$JOINSTYLE
280
     0
  9
$LWDISPLAY
290
     1
  9
$INSUNITS
 70
     4
  9
$HYPERLINKBASE
  1

  9
$STYLESHEET
  1

  9
$XEDIT
290
     1
  9
$CEPSNTYPE
380
     0
  9
$PSTYLEMODE
290
     1
  9
$FINGERPRINTGUID
  2
{07D02917-6B61-4DE6-AB30-97D6786BC18F}
  9
$VERSIONGUID
  2
{FAEB1C32-E019-11D5-929B-00C0DF256EC4}
  9
$EXTNAMES
290
     1
  9
$PSVPSCALE
 40
0.0
  9
$OLESTARTUP
290
     0
  0
ENDSEC
  0
SECTION
  2
CLASSES
  0
CLASS
  1
ACDBDICTIONARYWDFLT
  2
AcDbDictionaryWithDefault
  3
ObjectDBX Classes
 90
        0
280
     0
281
     0
  0
CLASS
  1
VISUALSTYLE
  2
AcDbVisualStyle
  3
ObjectDBX Classes
 90
     4095
280
     0
281
     0
  0
CLASS
  1
MATERIAL
  2
AcDbMaterial
  3
ObjectDBX Classes
 90
     1153
280
     0
281
     0
  0
CLASS
  1
SCALE
  2
AcDbScale
  3
ObjectDBX Classes
 90
     1153
280
     0
281
     0
  0
CLASS
  1
TABLESTYLE
  2
AcDbTableStyle
  3
ObjectDBX Classes
 90
     4095
280
     0
281
     0
  0
CLASS
  1
MLEADERSTYLE
  2
AcDbMLeaderStyle
  3
ACDB_MLEADERSTYLE_CLASS
 90
     4095
280
     0
281
     0
  0
CLASS
  1
SUN
  2
AcDbSun
  3
SCENEOE
 90
     1153
280
     0
281
     0
  0
CLASS
  1
ACDBPLACEHOLDER
  2
AcDbPlaceHolder
  3
ObjectDBX Classes
 90
        0
280
     0
281
     0
  0
CLASS
  1
LAYOUT
  2
AcDbLayout
  3
ObjectDBX Classes
 90
        0
280
     0
281
     0
  0
ENDSEC
  0
SECTION
  2
TABLES
  0
TABLE
  2
VPORT
  5
8
330
0
100
AcDbSymbolTable
 70
     1
  0
VPORT
  5
29
330
8
100
AcDbSymbolTableRecord
100
AcDbViewportTableRecord
  2
*Active
 70
     0
 10
0.0
 20
0.0
 11
1.0
 21
1.0
 12
247.5
 22
998.5
 13
0.0
 23
0.0
 14
10.0
 24
10.0
 15
10.0
 25
10.0
 16
0.0
 26
0.0
 36
1.0
 17
0.0
 27
0.0
 37
0.0
 40
1997.0
 41
0.2478718077
 42
50.0
 43
0.0
 44
0.0
 50
0.0
 51
0.0
 71
     0
 72
  2000
 73
     1
 74
     3
 75
     0
 76
     0
 77
     0
 78
     0
281
     0
 65
     1
110
0.0
120
0.0
130
0.0
111
1.0
121
0.0
131
0.0
112
0.0
122
1.0
132
0.0
 79
     0
146
0.0
  0
ENDTAB
  0
TABLE
  2
LTYPE
  5
5
330
0
100
AcDbSymbolTable
 70
     6
  0
LTYPE
  5
14
330
5
100
AcDbSymbolTableRecord
100
AcDbLinetypeTableRecord
  2
ByBlock
 70
     0
  3

 72
    65
 73
     0
 40
0.0
  0
LTYPE
  5
15
330
5
100
AcDbSymbolTableRecord
100
AcDbLinetypeTableRecord
  2
ByLayer
 70
     0
  3

 72
    65
 73
     0
 40
0.0
  0
LTYPE
  5
16
330
5
100
AcDbSymbolTableRecord
100
AcDbLinetypeTableRecord
  2
Continuous
 70
     0
  3
Solid line
 72
    65
 73
     0
 40
0.0
  0
LTYPE
  5
6E
330
5
100
AcDbSymbolTableRecord
100
AcDbLinetypeTableRecord
  2
HIDDEN
 70
     0
  3
Hidden __ __ __ __ __ __ __ __ __ __ __ __ __ __
 72
    65
 73
     2
 40
1.905
 49
1.27
 74
     0
 49
-0.635
 74
     0
  0
LTYPE
  5
6F
330
5
100
AcDbSymbolTableRecord
100
AcDbLinetypeTableRecord
  2
PHANTOM
 70
     0
  3
Phantom ______  __  __  ______  __  __  ______
 72
    65
 73
     6
 40
12.7
 49
6.35
 74
     0
 49
-1.27
 74
     0
 49
1.27
 74
     0
 49
-1.27
 74
     0
 49
1.27
 74
     0
 49
-1.27
 74
     0
  0
LTYPE
  5
70
330
5
100
AcDbSymbolTableRecord
100
AcDbLinetypeTableRecord
  2
CENTER
 70
     0
  3
Center ____ _ ____ _ ____ _ ____ _ ____ _ ____
 72
    65
 73
     4
 40
10.16
 49
6.35
 74
     0
 49
-1.27
 74
     0
 49
1.27
 74
     0
 49
-1.27
 74
     0
  0
LTYPE
  5
71
330
5
100
AcDbSymbolTableRecord
100
AcDbLinetypeTableRecord
  2
CENTERX2
 70
     0
  3
Center (2x) ________  __  ________  __  _____
 72
    65
 73
     4
 40
20.32
 49
12.7
 74
     0
 49
-2.54
 74
     0
 49
2.54
 74
     0
 49
-2.54
 74
     0
  0
LTYPE
  5
72
330
5
100
AcDbSymbolTableRecord
100
AcDbLinetypeTableRecord
  2
DOT2
 70
     0
  3
Dot (.5x) ........................................
 72
    65
 73
     2
 40
0.635
 49
0.0
 74
     0
 49
-0.635
 74
     0
  0
ENDTAB
  0
TABLE
  2
LAYER
  5
2
330
0
100
AcDbSymbolTable
 70
     2
  0
LAYER
  5
10
330
2
100
AcDbSymbolTableRecord
100
AcDbLayerTableRecord
  2
0
 70
     0
 62
     7
  6
Continuous
370
    -3
390
F
  0
LAYER
  5
73
330
2
100
AcDbSymbolTableRecord
100
AcDbLayerTableRecord
  2
FORMAT
 70
     0
 62
     7
  6
Continuous
370
    -3
390
F
  0
ENDTAB
  0
TABLE
  2
STYLE
  5
3
330
0
100
AcDbSymbolTable
 70
     2
  0
STYLE
  5
11
330
3
100
AcDbSymbolTableRecord
100
AcDbTextStyleTableRecord
  2
Standard
 70
     0
 40
0.0
 41
1.0
 50
0.0
 71
     0
 42
3.5
  3
txt
  4

  0
STYLE
  5
74
330
3
100
AcDbSymbolTableRecord
100
AcDbTextStyleTableRecord
  2
SLDTEXTSTYLE0
 70
     0
 40
0.0
 41
0.605
 50
0.0
 71
     0
 42
3.5
  3
TXT
  4

  0
ENDTAB
  0
TABLE
  2
VIEW
  5
6
330
0
100
AcDbSymbolTable
 70
     0
  0
ENDTAB
  0
TABLE
  2
UCS
  5
7
330
0
100
AcDbSymbolTable
 70
     0
  0
ENDTAB
  0
TABLE
  2
APPID
  5
9
330
0
100
AcDbSymbolTable
 70
     1
  0
APPID
  5
12
330
9
100
AcDbSymbolTableRecord
100
AcDbRegAppTableRecord
  2
ACAD
 70
     0
  0
ENDTAB
  0
TABLE
  2
DIMSTYLE
  5
A
330
0
100
AcDbSymbolTable
 70
     1
100
AcDbDimStyleTable
  0
DIMSTYLE
105
27
330
A
100
AcDbSymbolTableRecord
100
AcDbDimStyleTableRecord
  2
ISO-25
 70
     0
 41
2.5
 42
0.625
 43
3.75
 44
1.25
 73
     0
 74
     0
 77
     1
 78
     8
140
2.5
141
2.5
143
0.0393700787
147
0.625
171
     3
172
     1
178
     0
271
     2
272
     2
274
     3
278
    44
283
     0
284
     8
340
11
  0
ENDTAB
  0
TABLE
  2
BLOCK_RECORD
  5
1
330
0
100
AcDbSymbolTable
 70
     1
  0
BLOCK_RECORD
  5
1F
330
1
100
AcDbSymbolTableRecord
100
AcDbBlockTableRecord
  2
*Model_Space
340
22
  0
BLOCK_RECORD
  5
1B
330
1
100
AcDbSymbolTableRecord
100
AcDbBlockTableRecord
  2
*Paper_Space
340
1E
  0
BLOCK_RECORD
  5
23
330
1
100
AcDbSymbolTableRecord
100
AcDbBlockTableRecord
  2
*Paper_Space0
340
26
  0
ENDTAB
  0
ENDSEC
  0
SECTION
  2
BLOCKS
  0
BLOCK
  5
20
330
1F
100
AcDbEntity
  8
0
100
AcDbBlockBegin
  2
*Model_Space
 70
     0
 10
0.0
 20
0.0
 30
0.0
  3
*Model_Space
  1

  0
ENDBLK
  5
21
330
1F
100
AcDbEntity
  8
0
100
AcDbBlockEnd
  0
BLOCK
  5
1C
330
1B
100
AcDbEntity
 67
     1
  8
0
100
AcDbBlockBegin
  2
*Paper_Space
 70
     0
 10
0.0
 20
0.0
 30
0.0
  3
*Paper_Space
  1

  0
ENDBLK
  5
1D
330
1B
100
AcDbEntity
 67
     1
  8
0
100
AcDbBlockEnd
  0
BLOCK
  5
24
330
23
100
AcDbEntity
  8
0
100
AcDbBlockBegin
  2
*Paper_Space0
 70
     0
 10
0.0
 20
0.0
 30
0.0
  3
*Paper_Space0
  1

  0
ENDBLK
  5
25
330
23
100
AcDbEntity
  8
0
100
AcDbBlockEnd
  0
ENDSEC
  0
SECTION
  2
ENTITIES
  0
MTEXT
  5
75
330
1F
100
AcDbEntity
  8
0
  6
Continuous
 62
     7
370
     0
100
AcDbMText
 10
7.2782978723
 20
22.1884790273
 30
0.0
 40
10.0
 41
0.0
 71
     1
 72
     1
  1
1:1
  7
SLDTEXTSTYLE0
 73
     1
 44
1.0
  0
LINE
  5
76
330
1F
100
AcDbEntity
  8
0
  6
Continuous
 62
     7
370
    30
100
AcDbLine
 10
277.45
 20
960.2
 30
0.0
 11
277.45
 21
1020.0121430103
 31
0.0
  0
LINE
  5
77
330
1F
100
AcDbEntity
  8
0
  6
Continuous
 62
     7
370
    30
100
AcDbLine
 10
277.45
 20
1070.2121430103
 30
0.0
 11
277.45
 21
1367.0
 31
0.0
  0
LINE
  5
78
330
1F
100
AcDbEntity
  8
0
  6
Continuous
 62
     7
370
    30
100
AcDbLine
 10
277.45
 20
1489.0
 30
0.0
 11
277.45
 21
1849.9908600319
 31
0.0
  0
LINE
  5
79
330
1F
100
AcDbEntity
  8
0
  6
Continuous
 62
     7
370
    30
100
AcDbLine
 10
277.45
 20
1900.1908600319
 30
0.0
 11
277.45
 21
1969.8
 31
0.0
  0
LINE
  5
7A
330
1F
100
AcDbEntity
  8
0
  6
Continuous
 62
     7
370
    30
100
AcDbLine
 10
254.95
 20
1969.8
 30
0.0
 11
254.95
 21
1900.1908600319
 31
0.0
  0
LINE
  5
7B
330
1F
100
AcDbEntity
  8
0
  6
Continuous
 62
     7
370
    30
100
AcDbLine
 10
254.95
 20
1849.9908600319
 30
0.0
 11
254.95
 21
1489.0
 31
0.0
  0
LINE
  5
7C
330
1F
100
AcDbEntity
  8
0
  6
Continuous
 62
     7
370
    30
100
AcDbLine
 10
254.95
 20
1367.0
 30
0.0
 11
254.95
 21
1070.2121430103
 31
0.0
  0
LINE
  5
7D
330
1F
100
AcDbEntity
  8
0
  6
Continuous
 62
     7
370
    30
100
AcDbLine
 10
254.95
 20
1020.0121430103
 30
0.0
 11
254.95
 21
960.2
 31
0.0
  0
LINE
  5
7E
330
1F
100
AcDbEntity
  8
0
  6
Continuous
 62
     7
370
    30
100
AcDbLine
 10
254.9500000004
 20
960.2
 30
0.0
 11
255.15
 21
960.0
 31
0.0
  0
LINE
  5
7F
330
1F
100
AcDbEntity
  8
0
  6
Continuous
 62
     7
370
    30
100
AcDbLine
 10
277.25
 20
960.0
 30
0.0
 11
277.4499999996
 21
960.2
 31
0.0
  0
LINE
  5
80
330
1F
100
AcDbEntity
  8
0
  6
Continuous
 62
     7
370
    30
100
AcDbLine
 10
277.45
 20
1969.8
 30
0.0
 11
277.2500000004
 21
1970.0
 31
0.0
  0
LINE
  5
81
330
1F
100
AcDbEntity
  8
0
  6
Continuous
 62
     7
370
    30
100
AcDbLine
 10
255.1499999996
 20
1970.0
 30
0.0
 11
254.95
 21
1969.8
 31
0.0
  0
ARC
  5
82
330
1F
100
AcDbEntity
  8
0
  6
Continuous
 62
     7
370
    30
100
AcDbCircle
 10
280.2
 20
1899.1908600319
 30
0.0
 40
1.000000000000227
100
AcDbArc
 50
0.0
 51
90.0
  0
ARC
  5
83
330
1F
100
AcDbEntity
  8
0
  6
Continuous
 62
     7
370
    30
100
AcDbCircle
 10
252.2
 20
1899.1908600319
 30
0.0
 40
1.000000000000227
100
AcDbArc
 50
90.0
 51
180.0
  0
ARC
  5
84
330
1F
100
AcDbEntity
  8
0
  6
Continuous
 62
     7
370
    30
100
AcDbCircle
 10
280.2
 20
1850.9908600319
 30
0.0
 40
1.0
100
AcDbArc
 50
270.0
 51
0.0
  0
ARC
  5
85
330
1F
100
AcDbEntity
  8
0
  6
Continuous
 62
     7
370
    30
100
AcDbCircle
 10
252.2
 20
1850.9908600319
 30
0.0
 40
1.0
100
AcDbArc
 50
180.0
 51
270.0
  0
LINE
  5
86
330
1F
100
AcDbEntity
  8
0
  6
Continuous
 62
     7
370
    30
100
AcDbLine
 10
281.2
 20
1850.9908600319
 30
0.0
 11
281.2
 21
1899.1908600319
 31
0.0
  0
LINE
  5
87
330
1F
100
AcDbEntity
  8
0
  6
Continuous
 62
     7
370
    30
100
AcDbLine
 10
251.2
 20
1899.1908600319
 30
0.0
 11
251.2
 21
1850.9908600319
 31
0.0
  0
ARC
  5
88
330
1F
100
AcDbEntity
  8
0
  6
Continuous
 62
     7
370
    30
100
AcDbCircle
 10
252.2
 20
1021.0121430103
 30
0.0
 40
1.0
100
AcDbArc
 50
180.0
 51
270.0
  0
ARC
  5
89
330
1F
100
AcDbEntity
  8
0
  6
Continuous
 62
     7
370
    30
100
AcDbCircle
 10
280.2
 20
1021.0121430103
 30
0.0
 40
1.0
100
AcDbArc
 50
270.0
 51
0.0
  0
ARC
  5
8A
330
1F
100
AcDbEntity
  8
0
  6
Continuous
 62
     7
370
    30
100
AcDbCircle
 10
252.2
 20
1069.2121430103
 30
0.0
 40
1.0
100
AcDbArc
 50
90.0
 51
180.0
  0
ARC
  5
8B
330
1F
100
AcDbEntity
  8
0
  6
Continuous
 62
     7
370
    30
100
AcDbCircle
 10
280.2
 20
1069.2121430103
 30
0.0
 40
1.0
100
AcDbArc
 50
0.0
 51
90.0
  0
LINE
  5
8C
330
1F
100
AcDbEntity
  8
0
  6
Continuous
 62
     7
370
    30
100
AcDbLine
 10
251.2
 20
1069.2121430103
 30
0.0
 11
251.2
 21
1021.0121430103
 31
0.0
  0
LINE
  5
8D
330
1F
100
AcDbEntity
  8
0
  6
Continuous
 62
     7
370
    30
100
AcDbLine
 10
281.2
 20
1021.0121430103
 30
0.0
 11
281.2
 21
1069.2121430103
 31
0.0
  0
LINE
  5
8E
330
1F
100
AcDbEntity
  8
0
  6
Continuous
 62
     7
370
    30
100
AcDbLine
 10
220.6732773508
 20
1483.186016776
 30
0.0
 11
214.8
 21
1483.186016776
 31
0.0
  0
LINE
  5
8F
330
1F
100
AcDbEntity
  8
0
  6
Continuous
 62
     7
370
    30
100
AcDbLine
 10
249.2
 20
1483.186016776
 30
0.0
 11
243.4938398705
 21
1483.186016776
 31
0.0
  0
LINE
  5
90
330
1F
100
AcDbEntity
  8
0
  6
Continuous
 62
     7
370
    30
100
AcDbLine
 10
243.4939932142
 20
1446.186016776
 30
0.0
 11
249.2
 21
1446.186016776
 31
0.0
  0
LINE
  5
91
330
1F
100
AcDbEntity
  8
0
  6
Continuous
 62
     7
370
    30
100
AcDbLine
 10
214.8
 20
1446.186016776
 30
0.0
 11
220.6731661444
 21
1446.186016776
 31
0.0
  0
ARC
  5
92
330
1F
100
AcDbEntity
  8
0
  6
Continuous
 62
     7
370
    30
100
AcDbCircle
 10
214.8
 20
1447.186016776
 30
0.0
 40
1.0
100
AcDbArc
 50
180.0
 51
270.0
  0
ARC
  5
93
330
1F
100
AcDbEntity
  8
0
  6
Continuous
 62
     7
370
    30
100
AcDbCircle
 10
214.8
 20
1482.186016776
 30
0.0
 40
1.0
100
AcDbArc
 50
90.0
 51
180.0
  0
ARC
  5
94
330
1F
100
AcDbEntity
  8
0
  6
Continuous
 62
     7
370
    30
100
AcDbCircle
 10
249.2
 20
1447.186016776
 30
0.0
 40
1.0
100
AcDbArc
 50
270.0
 51
0.0
  0
ARC
  5
95
330
1F
100
AcDbEntity
  8
0
  6
Continuous
 62
     7
370
    30
100
AcDbCircle
 10
249.2
 20
1482.186016776
 30
0.0
 40
1.0
100
AcDbArc
 50
0.0
 51
90.0
  0
LINE
  5
96
330
1F
100
AcDbEntity
  8
0
  6
Continuous
 62
     7
370
    30
100
AcDbLine
 10
250.2
 20
1448.4529073901
 30
0.0
 11
251.2
 21
1448.4529073901
 31
0.0
  0
LINE
  5
97
330
1F
100
AcDbEntity
  8
0
  6
Continuous
 62
     7
370
    30
100
AcDbLine
 10
251.2
 20
1480.9191261619
 30
0.0
 11
250.2
 21
1480.9191261619
 31
0.0
  0
SPLINE
  5
98
330
1F
100
AcDbEntity
  8
0
  6
Continuous
 62
     7
370
    30
100
AcDbSpline
210
0.0
220
0.0
230
1.0
 70
     8
 71
     3
 72
    70
 73
    66
 74
     0
 42
0.000000001
 43
0.00000001
 40
0.0
 40
0.0
 40
0.0
 40
0.0
 40
0.0077899189401812
 40
0.0248591264264501
 40
0.0417231061725539
 40
0.0590268308921738
 40
0.0761840511182161
 40
0.0933316065711527
 40
0.1104664993380535
 40
0.1275857573570555
 40
0.1446854323063065
 40
0.1617601611409013
 40
0.1788029978925673
 40
0.1958054247983983
 40
0.2127574834704097
 40
0.2296479868521841
 40
0.2464647846801439
 40
0.2631950620471966
 40
0.2798260789708918
 40
0.2964156011769899
 40
0.3129525645822269
 40
0.3295041396718147
 40
0.3460281207060024
 40
0.362488946022253
 40
0.3788533279600699
 40
0.3950889601011779
 40
0.4111684129345162
 40
0.4271874884095057
 40
0.4431495656607111
 40
0.4590263734123819
 40
0.4748327491177866
 40
0.4905836135615976
 40
0.5062939445777873
 40
0.5219768816697369
 40
0.5376248162949274
 40
0.5530562800006713
 40
0.5685715189385986
 40
0.5841271312880607
 40
0.5996761483573818
 40
0.6151654369450534
 40
0.6305530959680685
 40
0.6458115009398598
 40
0.6610739653261848
 40
0.6765086604586219
 40
0.6919542381777434
 40
0.7074240055896865
 40
0.7229336976656109
 40
0.7384990159018032
 40
0.7541356331306655
 40
0.7698530660511668
 40
0.7855517135338862
 40
0.8013725734898435
 40
0.8173120074888883
 40
0.8333410283674094
 40
0.8494291656587679
 40
0.8655447643380733
 40
0.8816535146373575
 40
0.8978124737746481
 40
0.9142417709089462
 40
0.930720554322935
 40
0.9472554580218533
 40
0.9638531166778354
 40
0.9805203392913422
 40
0.9963798554130389
 40
0.9999999999999999
 40
0.9999999999999999
 40
0.9999999999999999
 40
0.9999999999999999
 10
243.4530433856764
 20
1483.185165373744
 30
0.0
 10
243.4186514391102
 20
1483.185184508433
 30
0.0
 10
243.3089001369068
 20
1483.185245570899
 30
0.0
 10
243.1188900747966
 20
1483.179946320103
 30
0.0
 10
242.8814177378889
 20
1483.169859433262
 30
0.0
 10
242.6378786159022
 20
1483.155185644311
 30
0.0
 10
242.3875165657942
 20
1483.136500683514
 30
0.0
 10
242.1324634861311
 20
1483.114208548218
 30
0.0
 10
241.8721359751721
 20
1483.088608885211
 30
0.0
 10
241.6066271704636
 20
1483.060012266709
 30
0.0
 10
241.3360658853602
 20
1483.028733496737
 30
0.0
 10
241.0606151098075
 20
1482.995083604494
 30
0.0
 10
240.7804773977222
 20
1482.959374829006
 30
0.0
 10
240.495894789162
 20
1482.921921010867
 30
0.0
 10
240.207147672232
 20
1482.883038130546
 30
0.0
 10
239.9145519681699
 20
1482.843043904476
 30
0.0
 10
239.6184553540954
 20
1482.802256593472
 30
0.0
 10
239.3192296698669
 20
1482.76099381517
 30
0.0
 10
239.0168394531594
 20
1482.719509532186
 30
0.0
 10
238.7112282675066
 20
1482.678059242547
 30
0.0
 10
238.4018935864219
 20
1482.636786813139
 30
0.0
 10
238.0889388409343
 20
1482.595915675971
 30
0.0
 10
237.7725991517108
 20
1482.555688797884
 30
0.0
 10
237.4537623851961
 20
1482.516427420987
 30
0.0
 10
237.1332741909827
 20
1482.478437343596
 30
0.0
 10
236.8119485117997
 20
1482.442006221532
 30
0.0
 10
236.4897512057764
 20
1482.407322295294
 30
0.0
 10
236.166470761346
 20
1482.374480467695
 30
0.0
 10
235.8418240883339
 20
1482.34357887644
 30
0.0
 10
235.5160934684433
 20
1482.31476679687
 30
0.0
 10
235.1894885791133
 20
1482.28817787366
 30
0.0
 10
234.8619254698291
 20
1482.263915999655
 30
0.0
 10
234.5333249320254
 20
1482.242092685552
 30
0.0
 10
234.2037812699698
 20
1482.222804387047
 30
0.0
 10
233.8747109847457
 20
1482.206314875461
 30
0.0
 10
233.5455854574363
 20
1482.192561208247
 30
0.0
 10
233.2161219725585
 20
1482.181510299147
 30
0.0
 10
232.8850528968865
 20
1482.17315681738
 30
0.0
 10
232.5536167601826
 20
1482.167577040349
 30
0.0
 10
232.2230476672777
 20
1482.164827760314
 30
0.0
 10
231.8944448570804
 20
1482.164933460085
 30
0.0
 10
231.5675873025786
 20
1482.16794772084
 30
0.0
 10
231.2407421522337
 20
1482.173771364701
 30
0.0
 10
230.9131356879706
 20
1482.182392257804
 30
0.0
 10
230.5848583981037
 20
1482.193790860961
 30
0.0
 10
230.2570744236583
 20
1482.207881533094
 30
0.0
 10
229.9296912510383
 20
1482.224614363697
 30
0.0
 10
229.6026019514456
 20
1482.243944346724
 30
0.0
 10
229.2757386933056
 20
1482.265821099688
 30
0.0
 10
228.9498532590172
 20
1482.290155737942
 30
0.0
 10
228.624817776397
 20
1482.316851544184
 30
0.0
 10
228.3005579614968
 20
1482.345751570369
 30
0.0
 10
227.9765517904227
 20
1482.376777691776
 30
0.0
 10
227.6534485064771
 20
1482.40974016575
 30
0.0
 10
227.3320813751801
 20
1482.444420975047
 30
0.0
 10
227.0132965125824
 20
1482.480583011505
 30
0.0
 10
226.6973934603018
 20
1482.518059495683
 30
0.0
 10
226.3828733575302
 20
1482.556836662273
 30
0.0
 10
226.0696149450916
 20
1482.596724064009
 30
0.0
 10
225.7578257248035
 20
1482.637500361835
 30
0.0
 10
225.4490175807805
 20
1482.678748973445
 30
0.0
 10
225.143232271633
 20
1482.720240477337
 30
0.0
 10
224.8459140937711
 20
1482.761001736569
 30
0.0
 10
224.6302128094625
 20
1482.790717147327
 30
0.0
 10
224.5151256364428
 20
1482.80656762537
 30
0.0
 10
224.4937375736491
 20
1482.809513314371
 30
0.0
  0
SPLINE
  5
99
330
1F
100
AcDbEntity
  8
0
  6
Continuous
 62
     7
370
    30
100
AcDbSpline
210
0.0
220
0.0
230
1.0
 70
     8
 71
     3
 72
    84
 73
    80
 74
     0
 42
0.000000001
 43
0.00000001
 40
0.0
 40
0.0
 40
0.0
 40
0.0
 40
0.0045975277895525
 40
0.018449384733308
 40
0.0322657568264488
 40
0.0460995920570211
 40
0.059905483945058
 40
0.0736910165898571
 40
0.0874661347440522
 40
0.1012422646159592
 40
0.1150293069634467
 40
0.1288385231473114
 40
0.1424682257517522
 40
0.156126134794578
 40
0.1697872599375166
 40
0.1834229015925843
 40
0.1970087965337051
 40
0.2105193216184306
 40
0.2239286508445979
 40
0.237378736613702
 40
0.2505945725545505
 40
0.2638256993651623
 40
0.2770600844368655
 40
0.2902821636658756
 40
0.3034796158709739
 40
0.316640036339041
 40
0.3297511250842471
 40
0.3428008678780246
 40
0.3557777065734341
 40
0.3686706950096655
 40
0.3814696374217198
 40
0.3941652070878222
 40
0.4067490438338632
 40
0.4192338973931249
 40
0.4316633372295496
 40
0.4441934973608939
 40
0.4567245258332532
 40
0.4692451504082469
 40
0.4817468699291076
 40
0.4942216259142555
 40
0.5066618611162785
 40
0.5190478711130866
 40
0.531467899772079
 40
0.5439044439629844
 40
0.5563523164470966
 40
0.5688238862305857
 40
0.5813323908794666
 40
0.5938910491291659
 40
0.6065126096245602
 40
0.6191719323210042
 40
0.6318742372226089
 40
0.6446983303814906
 40
0.6576151418056323
 40
0.67059468595819
 40
0.6836059451285882
 40
0.6966147689214702
 40
0.7095904799297457
 40
0.7227202629352875
 40
0.7359672070780482
 40
0.7492510633558456
 40
0.7625818171561733
 40
0.7759693698172723
 40
0.7894236323015088
 40
0.8029543573088699
 40
0.8165529528351183
 40
0.8300823631971094
 40
0.8436854952818551
 40
0.8573532270720028
 40
0.8710773183110608
 40
0.8848502614577238
 40
0.8986654815465307
 40
0.9125174902855795
 40
0.9264019677294105
 40
0.9403157318223262
 40
0.9542565365929531
 40
0.9682226099997847
 40
0.9822118001693153
 40
0.9962201467361436
 40
1.0
 40
1.0
 40
1.0
 40
1.0
 10
220.8129714931382
 20
1446.187609230565
 30
0.0
 10
220.8383340790852
 20
1446.18779789578
 30
0.0
 10
220.9401114097258
 20
1446.188554989006
 30
0.0
 10
221.1236911724379
 20
1446.195017522436
 30
0.0
 10
221.3634707176895
 20
1446.206506518873
 30
0.0
 10
221.6089323798778
 20
1446.222511252008
 30
0.0
 10
221.8595807810505
 20
1446.242276533224
 30
0.0
 10
222.1153923487421
 20
1446.265587214781
 30
0.0
 10
222.3764622245696
 20
1446.292108340668
 30
0.0
 10
222.6429562367862
 20
1446.321557004954
 30
0.0
 10
222.9149918983841
 20
1446.353641096402
 30
0.0
 10
223.1913913909054
 20
1446.387922780788
 30
0.0
 10
223.4721800096524
 20
1446.42412358921
 30
0.0
 10
223.7570145721217
 20
1446.461907640231
 30
0.0
 10
224.0468541952426
 20
1446.501136093282
 30
0.0
 10
224.3410341418989
 20
1446.541454981035
 30
0.0
 10
224.6388492311263
 20
1446.582505530817
 30
0.0
 10
224.9396286978712
 20
1446.623931136297
 30
0.0
 10
225.2437810365553
 20
1446.665542505353
 30
0.0
 10
225.5500945994937
 20
1446.706758305207
 30
0.0
 10
225.859269567637
 20
1446.747534878902
 30
0.0
 10
226.1707401259835
 20
1446.787632018897
 30
0.0
 10
226.4860608616493
 20
1446.827081447929
 30
0.0
 10
226.8047368576046
 20
1446.865645351433
 30
0.0
 10
227.1262597351245
 20
1446.903089439125
 30
0.0
 10
227.4501359620706
 20
1446.939186462914
 30
0.0
 10
227.7758645364103
 20
1446.973714874509
 30
0.0
 10
228.1029418400447
 20
1447.006460468371
 30
0.0
 10
228.4308665763429
 20
1447.037218041816
 30
0.0
 10
228.7591446149943
 20
1447.065792597611
 30
0.0
 10
229.0872928768158
 20
1447.092001206498
 30
0.0
 10
229.4148452028048
 20
1447.115671384397
 30
0.0
 10
229.741522449163
 20
1447.136662303619
 30
0.0
 10
230.0675243235747
 20
1447.154837196832
 30
0.0
 10
230.3944291725238
 20
1447.170393256199
 30
0.0
 10
230.7228857170622
 20
1447.183314122518
 30
0.0
 10
231.0530742818444
 20
1447.19355276923
 30
0.0
 10
231.3837213745594
 20
1447.201026502724
 30
0.0
 10
231.7143557055352
 20
1447.205692366785
 30
0.0
 10
232.0445370727484
 20
1447.207515870566
 30
0.0
 10
232.3737253533426
 20
1447.206465917605
 30
0.0
 10
232.7022296914674
 20
1447.202527254934
 30
0.0
 10
233.0302812907753
 20
1447.195781563785
 30
0.0
 10
233.3582312261976
 20
1447.186255207592
 30
0.0
 10
233.6857638104979
 20
1447.174006876342
 30
0.0
 10
234.0128346061032
 20
1447.159090020269
 30
0.0
 10
234.3395612896748
 20
1447.141552279869
 30
0.0
 10
234.6660602558588
 20
1447.12143552815
 30
0.0
 10
234.992129164659
 20
1447.098813181898
 30
0.0
 10
235.317444157032
 20
1447.073728722637
 30
0.0
 10
235.6423180940927
 20
1447.046310191493
 30
0.0
 10
235.9670113308212
 20
1447.016675291371
 30
0.0
 10
236.2914665867934
 20
1446.984951851699
 30
0.0
 10
236.6147040352721
 20
1446.951363265819
 30
0.0
 10
236.9357171892104
 20
1446.916149501123
 30
0.0
 10
237.2535018336088
 20
1446.879566992349
 30
0.0
 10
237.5688586335753
 20
1446.841655051725
 30
0.0
 10
237.8826712945996
 20
1446.802548878829
 30
0.0
 10
238.1952112905531
 20
1446.762393339417
 30
0.0
 10
238.5054215777426
 20
1446.72153008131
 30
0.0
 10
238.812642253876
 20
1446.680264114201
 30
0.0
 10
239.1169292435036
 20
1446.63881182701
 30
0.0
 10
239.4183274568655
 20
1446.597395989666
 30
0.0
 10
239.7167764034557
 20
1446.556252071118
 30
0.0
 10
240.0110497382354
 20
1446.515804378554
 30
0.0
 10
240.3009918681606
 20
1446.476345102411
 30
0.0
 10
240.5865009597612
 20
1446.438150985574
 30
0.0
 10
240.8683270931057
 20
1446.401396420941
 30
0.0
 10
241.1461690340975
 20
1446.366404158229
 30
0.0
 10
241.4197581313117
 20
1446.333498212823
 30
0.0
 10
241.6888607781686
 20
1446.303003957796
 30
0.0
 10
241.9532823034066
 20
1446.275247584043
 30
0.0
 10
242.2128642198463
 20
1446.250561891125
 30
0.0
 10
242.4675007075252
 20
1446.229272336348
 30
0.0
 10
242.7170726988994
 20
1446.211761958003
 30
0.0
 10
242.961676472396
 20
1446.198245950946
 30
0.0
 10
243.200730148276
 20
1446.18963689212
 30
0.0
 10
243.3788528190695
 20
1446.185624617487
 30
0.0
 10
243.4754953163297
 20
1446.186391248978
 30
0.0
 10
243.4960310907292
 20
1446.186554152171
 30
0.0
  0
SPLINE
  5
9A
330
1F
100
AcDbEntity
  8
0
  6
Continuous
 62
     7
370
    30
100
AcDbSpline
210
0.0
220
0.0
230
1.0
 70
     8
 71
     3
 72
    22
 73
    18
 74
     0
 42
0.000000001
 43
0.00000001
 40
0.0
 40
0.0
 40
0.0
 40
0.0
 40
0.0352432419198426
 40
0.1039216415927319
 40
0.172595632644518
 40
0.2413341128465073
 40
0.3101933517790296
 40
0.3792318616722193
 40
0.4485086867414347
 40
0.5180924859765252
 40
0.5882833003376856
 40
0.6579490825073873
 40
0.7280331872420844
 40
0.7984647481954634
 40
0.8691785428691
 40
0.9401089776738013
 40
1.0
 40
1.0
 40
1.0
 40
1.0
 10
224.4937375736491
 20
1482.809513314371
 30
0.0
 10
224.442826400204
 20
1482.816521988628
 30
0.0
 10
224.2927047759829
 20
1482.837188445358
 30
0.0
 10
224.0469177509389
 20
1482.870873359996
 30
0.0
 10
223.7580599727222
 20
1482.909980270403
 30
0.0
 10
223.4739852918445
 20
1482.947678982415
 30
0.0
 10
223.1944771367425
 20
1482.983727844409
 30
0.0
 10
222.9194271033274
 20
1483.017861209398
 30
0.0
 10
222.6486933506452
 20
1483.049806392904
 30
0.0
 10
222.3817888766386
 20
1483.079328345117
 30
0.0
 10
222.1198294261273
 20
1483.105955399169
 30
0.0
 10
221.8628027439608
 20
1483.129387652374
 30
0.0
 10
221.6109911579481
 20
1483.149289574418
 30
0.0
 10
221.3634123774558
 20
1483.165436651002
 30
0.0
 10
221.1205052511197
 20
1483.177242897012
 30
0.0
 10
220.8943467463987
 20
1483.184587590575
 30
0.0
 10
220.7517556393324
 20
1483.185316071475
 30
0.0
 10
220.6864763849644
 20
1483.185649575373
 30
0.0
  0
LINE
  5
9B
330
1F
100
AcDbEntity
  8
0
  6
Continuous
 62
     7
370
    30
100
AcDbLine
 10
281.2
 20
1481.3207419014
 30
0.0
 11
281.2
 21
1489.0
 31
0.0
  0
LINE
  5
9C
330
1F
100
AcDbEntity
  8
0
  6
Continuous
 62
     7
370
    30
100
AcDbLine
 10
281.2
 20
1367.0
 30
0.0
 11
281.2
 21
1447.5419850015
 31
0.0
  0
LINE
  5
9D
330
1F
100
AcDbEntity
  8
0
  6
Continuous
 62
     7
370
    30
100
AcDbLine
 10
251.2
 20
1447.5419850015
 30
0.0
 11
251.2
 21
1367.0
 31
0.0
  0
LINE
  5
9E
330
1F
100
AcDbEntity
  8
0
  6
Continuous
 62
     7
370
    30
100
AcDbLine
 10
251.2
 20
1489.0
 30
0.0
 11
251.2
 21
1481.3207419014
 31
0.0
  0
LINE
  5
9F
330
1F
100
AcDbEntity
  8
0
  6
Continuous
 62
     7
370
    30
100
AcDbLine
 10
254.95
 20
960.2
 30
0.0
 11
277.45
 21
960.2
 31
0.0
  0
LINE
  5
A0
330
1F
100
AcDbEntity
  8
0
  6
Continuous
 62
     7
370
    30
100
AcDbLine
 10
277.45
 20
1969.8
 30
0.0
 11
254.95
 21
1969.8
 31
0.0
  0
LINE
  5
A1
330
1F
100
AcDbEntity
  8
0
  6
Continuous
 62
     7
370
    30
100
AcDbLine
 10
277.25
 20
960.0
 30
0.0
 11
255.15
 21
960.0
 31
0.0
  0
LINE
  5
A2
330
1F
100
AcDbEntity
  8
0
  6
Continuous
 62
     7
370
    30
100
AcDbLine
 10
255.1499999996
 20
1970.0
 30
0.0
 11
277.2500000004
 21
1970.0
 31
0.0
  0
LINE
  5
A3
330
1F
100
AcDbEntity
  8
0
  6
Continuous
 62
     7
370
    30
100
AcDbLine
 10
252.2
 20
1900.1908600319
 30
0.0
 11
280.2
 21
1900.1908600319
 31
0.0
  0
LINE
  5
A4
330
1F
100
AcDbEntity
  8
0
  6
Continuous
 62
     7
370
    30
100
AcDbLine
 10
280.2
 20
1849.9908600319
 30
0.0
 11
252.2
 21
1849.9908600319
 31
0.0
  0
LINE
  5
A5
330
1F
100
AcDbEntity
  8
0
  6
Continuous
 62
     7
370
    30
100
AcDbLine
 10
280.2
 20
1020.0121430103
 30
0.0
 11
252.2
 21
1020.0121430103
 31
0.0
  0
LINE
  5
A6
330
1F
100
AcDbEntity
  8
0
  6
Continuous
 62
     7
370
    30
100
AcDbLine
 10
252.2
 20
1070.2121430103
 30
0.0
 11
280.2
 21
1070.2121430103
 31
0.0
  0
LINE
  5
A7
330
1F
100
AcDbEntity
  8
0
  6
Continuous
 62
     7
370
    30
100
AcDbLine
 10
220.6864668308
 20
1483.1847018401
 30
0.0
 11
220.6732773508
 21
1483.1848241161
 31
0.0
  0
LINE
  5
A8
330
1F
100
AcDbEntity
  8
0
  6
Continuous
 62
     7
370
    30
100
AcDbLine
 10
220.6731661444
 20
1446.1871791956
 30
0.0
 11
220.6852717895
 21
1446.1871277172
 31
0.0
  0
LINE
  5
A9
330
1F
100
AcDbEntity
  8
0
  6
Continuous
 62
     7
370
    30
100
AcDbLine
 10
213.8
 20
1447.186016776
 30
0.0
 11
213.8
 21
1482.186016776
 31
0.0
  0
LINE
  5
AA
330
1F
100
AcDbEntity
  8
0
  6
Continuous
 62
     7
370
    30
100
AcDbLine
 10
250.2
 20
1447.186016776
 30
0.0
 11
250.2
 21
1482.186016776
 31
0.0
  0
LINE
  5
AB
330
1F
100
AcDbEntity
  8
0
  6
Continuous
 62
     7
370
    30
100
AcDbLine
 10
251.2
 20
1480.8201776735
 30
0.0
 11
251.2
 21
1449.3382535223
 31
0.0
  0
LINE
  5
AC
330
1F
100
AcDbEntity
  8
0
  6
Continuous
 62
     7
370
    30
100
AcDbLine
 10
252.2
 20
1482.3207419014
 30
0.0
 11
280.2
 21
1482.3207419014
 31
0.0
  0
LINE
  5
AD
330
1F
100
AcDbEntity
  8
0
  6
Continuous
 62
     7
370
    30
100
AcDbLine
 10
252.2
 20
1446.5419850015
 30
0.0
 11
280.2
 21
1446.5419850015
 31
0.0
  0
ARC
  5
AE
330
1F
100
AcDbEntity
  8
0
  6
Continuous
 62
     7
370
    30
100
AcDbCircle
 10
280.2
 20
1481.3207419014
 30
0.0
 40
1.000000000000227
100
AcDbArc
 50
0.0
 51
90.0
  0
LINE
  5
AF
330
1F
100
AcDbEntity
  8
0
  6
Continuous
 62
     7
370
    30
100
AcDbLine
 10
281.2
 20
1481.3207419014
 30
0.0
 11
281.2
 21
1447.5419850015
 31
0.0
  0
ARC
  5
B0
330
1F
100
AcDbEntity
  8
0
  6
Continuous
 62
     7
370
    30
100
AcDbCircle
 10
280.2
 20
1447.5419850015
 30
0.0
 40
1.000000000000227
100
AcDbArc
 50
270.0
 51
0.0
  0
LINE
  5
B1
330
1F
100
AcDbEntity
  8
0
  6
Continuous
 62
     7
370
    30
100
AcDbLine
 10
251.2
 20
1447.5419850015
 30
0.0
 11
251.2
 21
1449.3382535223
 31
0.0
  0
LINE
  5
B2
330
1F
100
AcDbEntity
  8
0
  6
Continuous
 62
     7
370
    30
100
AcDbLine
 10
251.2
 20
1480.8201776735
 30
0.0
 11
251.2
 21
1481.3207419014
 31
0.0
  0
ARC
  5
B3
330
1F
100
AcDbEntity
  8
0
  6
Continuous
 62
     7
370
    30
100
AcDbCircle
 10
252.2
 20
1481.3207419014
 30
0.0
 40
1.000000000000227
100
AcDbArc
 50
90.0
 51
180.0
  0
ARC
  5
B4
330
1F
100
AcDbEntity
  8
0
  6
Continuous
 62
     7
370
    30
100
AcDbCircle
 10
252.2
 20
1447.5419850015
 30
0.0
 40
1.000000000000227
100
AcDbArc
 50
180.0
 51
270.0
  0
LINE
  5
B5
330
1F
100
AcDbEntity
  8
0
  6
Continuous
 62
     7
370
    30
100
AcDbLine
 10
266.2
 20
1489.0
 30
0.0
 11
281.2
 21
1489.0
 31
0.0
  0
LINE
  5
B6
330
1F
100
AcDbEntity
  8
0
  6
Continuous
 62
     7
370
    30
100
AcDbLine
 10
251.2
 20
1489.0
 30
0.0
 11
266.2
 21
1489.0
 31
0.0
  0
LINE
  5
B7
330
1F
100
AcDbEntity
  8
0
  6
Continuous
 62
     7
370
    30
100
AcDbLine
 10
266.2
 20
1367.0
 30
0.0
 11
281.2
 21
1367.0
 31
0.0
  0
LINE
  5
B8
330
1F
100
AcDbEntity
  8
0
  6
Continuous
 62
     7
370
    30
100
AcDbLine
 10
251.2
 20
1367.0
 30
0.0
 11
266.2
 21
1367.0
 31
0.0
  0
LINE
  5
B9
330
1F
100
AcDbEntity
  8
0
  6
Continuous
 62
     7
370
    30
100
AcDbLine
 10
425.7997586344
 20
960.2
 30
0.0
 11
425.7997586344
 21
1020.0121430103
 31
0.0
  0
LINE
  5
BA
330
1F
100
AcDbEntity
  8
0
  6
Continuous
 62
     7
370
    30
100
AcDbLine
 10
425.7997586344
 20
1070.2121430103
 30
0.0
 11
425.7997586344
 21
1367.0
 31
0.0
  0
LINE
  5
BB
330
1F
100
AcDbEntity
  8
0
  6
Continuous
 62
     7
370
    30
100
AcDbLine
 10
425.7997586344
 20
1489.0
 30
0.0
 11
425.7997586344
 21
1849.9908600319
 31
0.0
  0
LINE
  5
BC
330
1F
100
AcDbEntity
  8
0
  6
Continuous
 62
     7
370
    30
100
AcDbLine
 10
425.7997586344
 20
1900.1908600319
 30
0.0
 11
425.7997586344
 21
1969.8
 31
0.0
  0
LINE
  5
BD
330
1F
100
AcDbEntity
  8
0
  6
Continuous
 62
     7
370
    30
100
AcDbLine
 10
403.2997586344
 20
1969.8
 30
0.0
 11
403.2997586344
 21
1900.1908600319
 31
0.0
  0
LINE
  5
BE
330
1F
100
AcDbEntity
  8
0
  6
Continuous
 62
     7
370
    30
100
AcDbLine
 10
403.2997586344
 20
1849.9908600319
 30
0.0
 11
403.2997586344
 21
1489.0
 31
0.0
  0
LINE
  5
BF
330
1F
100
AcDbEntity
  8
0
  6
Continuous
 62
     7
370
    30
100
AcDbLine
 10
403.2997586344
 20
1367.0
 30
0.0
 11
403.2997586344
 21
1070.2121430103
 31
0.0
  0
LINE
  5
C0
330
1F
100
AcDbEntity
  8
0
  6
Continuous
 62
     7
370
    30
100
AcDbLine
 10
403.2997586344
 20
1020.0121430103
 30
0.0
 11
403.2997586344
 21
960.2
 31
0.0
  0
LINE
  5
C1
330
1F
100
AcDbEntity
  8
0
  6
Continuous
 62
     7
370
    30
100
AcDbLine
 10
403.2997586347
 20
960.2
 30
0.0
 11
403.4997586344
 21
960.0
 31
0.0
  0
LINE
  5
C2
330
1F
100
AcDbEntity
  8
0
  6
Continuous
 62
     7
370
    30
100
AcDbLine
 10
425.5997586344
 20
960.0
 30
0.0
 11
425.799758634
 21
960.2
 31
0.0
  0
LINE
  5
C3
330
1F
100
AcDbEntity
  8
0
  6
Continuous
 62
     7
370
    30
100
AcDbLine
 10
425.7997586344
 20
1969.8
 30
0.0
 11
425.5997586347
 21
1970.0
 31
0.0
  0
LINE
  5
C4
330
1F
100
AcDbEntity
  8
0
  6
Continuous
 62
     7
370
    30
100
AcDbLine
 10
403.499758634
 20
1970.0
 30
0.0
 11
403.2997586344
 21
1969.8
 31
0.0
  0
ARC
  5
C5
330
1F
100
AcDbEntity
  8
0
  6
Continuous
 62
     7
370
    30
100
AcDbCircle
 10
428.5497586344
 20
1899.1908600319
 30
0.0
 40
1.000000000000227
100
AcDbArc
 50
0.0
 51
90.0
  0
ARC
  5
C6
330
1F
100
AcDbEntity
  8
0
  6
Continuous
 62
     7
370
    30
100
AcDbCircle
 10
428.5497586344
 20
1850.9908600319
 30
0.0
 40
1.0
100
AcDbArc
 50
270.0
 51
0.0
  0
LINE
  5
C7
330
1F
100
AcDbEntity
  8
0
  6
Continuous
 62
     7
370
    30
100
AcDbLine
 10
429.5497586344
 20
1850.9908600319
 30
0.0
 11
429.5497586344
 21
1899.1908600319
 31
0.0
  0
LINE
  5
C8
330
1F
100
AcDbEntity
  8
0
  6
Continuous
 62
     7
370
    30
100
AcDbLine
 10
429.5497586344
 20
1021.0121430103
 30
0.0
 11
429.5497586344
 21
1069.2121430103
 31
0.0
  0
ARC
  5
C9
330
1F
100
AcDbEntity
  8
0
  6
Continuous
 62
     7
370
    30
100
AcDbCircle
 10
428.5497586344
 20
1021.0121430103
 30
0.0
 40
1.0
100
AcDbArc
 50
270.0
 51
0.0
  0
ARC
  5
CA
330
1F
100
AcDbEntity
  8
0
  6
Continuous
 62
     7
370
    30
100
AcDbCircle
 10
428.5497586344
 20
1069.2121430103
 30
0.0
 40
1.0
100
AcDbArc
 50
0.0
 51
90.0
  0
LINE
  5
CB
330
1F
100
AcDbEntity
  8
0
  6
Continuous
 62
     7
370
    30
100
AcDbLine
 10
429.5497586344
 20
1483.3207419014
 30
0.0
 11
429.5497586344
 21
1489.0
 31
0.0
  0
LINE
  5
CC
330
1F
100
AcDbEntity
  8
0
  6
Continuous
 62
     7
370
    30
100
AcDbLine
 10
429.5497586344
 20
1367.0
 30
0.0
 11
429.5497586344
 21
1445.5419850015
 31
0.0
  0
LINE
  5
CD
330
1F
100
AcDbEntity
  8
0
  6
Continuous
 62
     7
370
    30
100
AcDbLine
 10
399.5497586344
 20
1489.0
 30
0.0
 11
399.5497586344
 21
1367.0
 31
0.0
  0
ARC
  5
CE
330
1F
100
AcDbEntity
  8
0
  6
Continuous
 62
     7
370
    30
100
AcDbCircle
 10
430.5497586344
 20
1445.5419850015
 30
0.0
 40
1.0
100
AcDbArc
 50
90.0
 51
180.0
  0
ARC
  5
CF
330
1F
100
AcDbEntity
  8
0
  6
Continuous
 62
     7
370
    30
100
AcDbCircle
 10
430.5497586344
 20
1483.3207419014
 30
0.0
 40
1.0
100
AcDbArc
 50
180.0
 51
270.0
  0
LINE
  5
D0
330
1F
100
AcDbEntity
  8
0
  6
Continuous
 62
     7
370
    30
100
AcDbLine
 10
414.5497586344
 20
960.2
 30
0.0
 11
425.7997586344
 21
960.2
 31
0.0
  0
LINE
  5
D1
330
1F
100
AcDbEntity
  8
0
  6
Continuous
 62
     7
370
    30
100
AcDbLine
 10
403.2997586344
 20
960.2
 30
0.0
 11
414.5497586344
 21
960.2
 31
0.0
  0
LINE
  5
D2
330
1F
100
AcDbEntity
  8
0
  6
Continuous
 62
     7
370
    30
100
AcDbLine
 10
414.5497586344
 20
1969.8
 30
0.0
 11
403.2997586344
 21
1969.8
 31
0.0
  0
LINE
  5
D3
330
1F
100
AcDbEntity
  8
0
  6
Continuous
 62
     7
370
    30
100
AcDbLine
 10
425.7997586344
 20
1969.8
 30
0.0
 11
414.5497586344
 21
1969.8
 31
0.0
  0
LINE
  5
D4
330
1F
100
AcDbEntity
  8
0
  6
Continuous
 62
     7
370
    30
100
AcDbLine
 10
425.5997586344
 20
960.0
 30
0.0
 11
403.4997586344
 21
960.0
 31
0.0
  0
LINE
  5
D5
330
1F
100
AcDbEntity
  8
0
  6
Continuous
 62
     7
370
    30
100
AcDbLine
 10
403.4997586344
 20
1970.0
 30
0.0
 11
425.5997586347
 21
1970.0
 31
0.0
  0
LINE
  5
D6
330
1F
100
AcDbEntity
  8
0
  6
Continuous
 62
     7
370
    30
100
AcDbLine
 10
404.6826456298
 20
1900.1908600319
 30
0.0
 11
428.5497586344
 21
1900.1908600319
 31
0.0
  0
SPLINE
  5
D7
330
1F
100
AcDbEntity
  8
0
  6
Continuous
 62
     7
370
    30
100
AcDbSpline
210
0.0
220
0.0
230
1.0
 70
     8
 71
     3
 72
    18
 73
    14
 74
     0
 42
0.000000001
 43
0.00000001
 40
0.0
 40
0.0
 40
0.0
 40
0.0
 40
0.0046169110100992
 40
0.0980626953461985
 40
0.1931672339313682
 40
0.2991228862299792
 40
0.407720663082107
 40
0.5070193500359098
 40
0.6087978657002424
 40
0.7052311616357668
 40
0.8042671947982926
 40
0.900705662116902
 40
1.0
 40
1.0
 40
1.0
 40
1.0
 10
404.6826456297636
 20
1900.190860031881
 30
0.0
 10
404.6816885225795
 20
1900.190854720468
 30
0.0
 10
404.6613596685025
 20
1900.190741906645
 30
0.0
 10
404.6213927964694
 20
1900.183125023504
 30
0.0
 10
404.5618970005852
 20
1900.150600386321
 30
0.0
 10
404.5020756991173
 20
1900.093008549964
 30
0.0
 10
404.4458946020144
 20
1900.010108284537
 30
0.0
 10
404.3961969545787
 20
1899.906172806778
 30
0.0
 10
404.3550274576011
 20
1899.787374712799
 30
0.0
 10
404.3215508128553
 20
1899.652496544485
 30
0.0
 10
404.2973452806979
 20
1899.507255831498
 30
0.0
 10
404.2816007886886
 20
1899.351533963088
 30
0.0
 10
404.2796203844812
 20
1899.244936451587
 30
0.0
 10
404.2786157346766
 20
1899.19086003188
 30
0.0
  0
LINE
  5
D8
330
1F
100
AcDbEntity
  8
0
  6
Continuous
 62
     7
370
    30
100
AcDbLine
 10
428.5497586344
 20
1849.9908600319
 30
0.0
 11
404.6826456298
 21
1849.9908600319
 31
0.0
  0
SPLINE
  5
D9
330
1F
100
AcDbEntity
  8
0
  6
Continuous
 62
     7
370
    30
100
AcDbSpline
210
0.0
220
0.0
230
1.0
 70
     8
 71
     3
 72
    18
 73
    14
 74
     0
 42
0.000000001
 43
0.00000001
 40
0.0
 40
0.0
 40
0.0
 40
0.0
 40
0.0964273136467362
 40
0.1957327204301943
 40
0.2921403294283263
 40
0.3912021416768707
 40
0.4904707984279029
 40
0.592279458450484
 40
0.6982080024956393
 40
0.8068329483027054
 40
0.9002721850949557
 40
0.9953830946721517
 40
1.0
 40
1.0
 40
1.0
 40
1.0
 10
404.2786157346766
 20
1850.990860031881
 30
0.0
 10
404.2795662140022
 20
1850.938350999045
 30
0.0
 10
404.2814955418772
 20
1850.83176568151
 30
0.0
 10
404.2969692986942
 20
1850.677271707711
 30
0.0
 10
404.3212860207936
 20
1850.530506141002
 30
0.0
 10
404.3543837986209
 20
1850.396528536691
 30
0.0
 10
404.3958122949398
 20
1850.276490790804
 30
0.0
 10
404.4450201127028
 20
1850.173168005521
 30
0.0
 10
404.5015669349027
 20
1850.089325335492
 30
0.0
 10
404.561038370575
 20
1850.031723743843
 30
0.0
 10
404.6210464541133
 20
1849.998721619436
 30
0.0
 10
404.6610144768042
 20
1849.990980080628
 30
0.0
 10
404.6816885234997
 20
1849.990865343637
 30
0.0
 10
404.6826456297637
 20
1849.99086003188
 30
0.0
  0
LINE
  5
DA
330
1F
100
AcDbEntity
  8
0
  6
Continuous
 62
     7
370
    30
100
AcDbLine
 10
404.2786157347
 20
1899.1908600319
 30
0.0
 11
404.2786157347
 21
1850.9908600319
 31
0.0
  0
LINE
  5
DB
330
1F
100
AcDbEntity
  8
0
  6
Continuous
 62
     7
370
    30
100
AcDbLine
 10
364.8048206251
 20
1849.9908600319
 30
0.0
 11
364.8048206251
 21
1850.9908600319
 31
0.0
  0
LINE
  5
DC
330
1F
100
AcDbEntity
  8
0
  6
Continuous
 62
     7
370
    30
100
AcDbLine
 10
404.6826456298
 20
1849.9908600319
 30
0.0
 11
364.8048206251
 21
1849.9908600319
 31
0.0
  0
LINE
  5
DD
330
1F
100
AcDbEntity
  8
0
  6
Continuous
 62
     7
370
    30
100
AcDbLine
 10
364.8048206251
 20
1899.1908600319
 30
0.0
 11
364.8048206251
 21
1850.9908600319
 31
0.0
  0
LINE
  5
DE
330
1F
100
AcDbEntity
  8
0
  6
Continuous
 62
     7
370
    30
100
AcDbLine
 10
364.8048206251
 20
1899.1908600319
 30
0.0
 11
364.8048206251
 21
1900.1908600319
 31
0.0
  0
LINE
  5
DF
330
1F
100
AcDbEntity
  8
0
  6
Continuous
 62
     7
370
    30
100
AcDbLine
 10
364.8048206251
 20
1900.1908600319
 30
0.0
 11
404.6826456298
 21
1900.1908600319
 31
0.0
  0
LINE
  5
E0
330
1F
100
AcDbEntity
  8
0
  6
Continuous
 62
     7
370
    30
100
AcDbLine
 10
404.2786157347
 20
1021.0121430103
 30
0.0
 11
404.2786157347
 21
1069.2121430103
 31
0.0
  0
LINE
  5
E1
330
1F
100
AcDbEntity
  8
0
  6
Continuous
 62
     7
370
    30
100
AcDbLine
 10
428.5497586344
 20
1020.0121430103
 30
0.0
 11
404.6826456298
 21
1020.0121430103
 31
0.0
  0
SPLINE
  5
E2
330
1F
100
AcDbEntity
  8
0
  6
Continuous
 62
     7
370
    30
100
AcDbSpline
210
0.0
220
0.0
230
1.0
 70
     8
 71
     3
 72
    18
 73
    14
 74
     0
 42
0.000000001
 43
0.00000001
 40
0.0
 40
0.0
 40
0.0
 40
0.0
 40
0.0046169110100949
 40
0.0980626953462394
 40
0.1931672339314546
 40
0.2991228862300588
 40
0.4077206630821787
 40
0.5070193500359691
 40
0.6087978657003379
 40
0.7052311616357946
 40
0.8042671947983114
 40
0.900705662116978
 40
1.0
 40
1.0
 40
1.0
 40
1.0
 10
404.6826456297571
 20
1020.01214301032
 30
0.0
 10
404.6816885225729
 20
1020.012148321732
 30
0.0
 10
404.6613596684959
 20
1020.012261135555
 30
0.0
 10
404.6213927964627
 20
1020.019878018696
 30
0.0
 10
404.5618970005784
 20
1020.052402655879
 30
0.0
 10
404.5020756991105
 20
1020.109994492237
 30
0.0
 10
404.4458946020075
 20
1020.192894757663
 30
0.0
 10
404.3961969545718
 20
1020.296830235423
 30
0.0
 10
404.3550274575942
 20
1020.415628329402
 30
0.0
 10
404.3215508128483
 20
1020.550506497716
 30
0.0
 10
404.297345280691
 20
1020.695747210702
 30
0.0
 10
404.2816007886817
 20
1020.851469079112
 30
0.0
 10
404.2796203844743
 20
1020.958066590613
 30
0.0
 10
404.2786157346696
 20
1021.01214301032
 30
0.0
  0
SPLINE
  5
E3
330
1F
100
AcDbEntity
  8
0
  6
Continuous
 62
     7
370
    30
100
AcDbSpline
210
0.0
220
0.0
230
1.0
 70
     8
 71
     3
 72
    18
 73
    14
 74
     0
 42
0.000000001
 43
0.00000001
 40
0.0
 40
0.0
 40
0.0
 40
0.0
 40
0.0964273136467301
 40
0.1957327204301814
 40
0.2921403294283058
 40
0.3912021416767842
 40
0.490470798427807
 40
0.5922794584503761
 40
0.6982080024955624
 40
0.8068329483026009
 40
0.9002721850949102
 40
0.9953830946721558
 40
1.0
 40
1.0
 40
1.0
 40
1.0
 10
404.2786157346696
 20
1069.21214301032
 30
0.0
 10
404.2795662139953
 20
1069.264652043155
 30
0.0
 10
404.2814955418703
 20
1069.37123736069
 30
0.0
 10
404.2969692986873
 20
1069.525731334489
 30
0.0
 10
404.3212860207867
 20
1069.672496901199
 30
0.0
 10
404.354383798614
 20
1069.806474505509
 30
0.0
 10
404.3958122949329
 20
1069.926512251396
 30
0.0
 10
404.4450201126959
 20
1070.02983503668
 30
0.0
 10
404.5015669348958
 20
1070.113677706708
 30
0.0
 10
404.5610383705683
 20
1070.171279298357
 30
0.0
 10
404.6210464541065
 20
1070.204281422765
 30
0.0
 10
404.6610144767978
 20
1070.212022961572
 30
0.0
 10
404.6816885234932
 20
1070.212137698564
 30
0.0
 10
404.6826456297571
 20
1070.21214301032
 30
0.0
  0
LINE
  5
E4
330
1F
100
AcDbEntity
  8
0
  6
Continuous
 62
     7
370
    30
100
AcDbLine
 10
404.6826456298
 20
1070.2121430103
 30
0.0
 11
428.5497586344
 21
1070.2121430103
 31
0.0
  0
LINE
  5
E5
330
1F
100
AcDbEntity
  8
0
  6
Continuous
 62
     7
370
    30
100
AcDbLine
 10
364.8048206251
 20
1021.0121430103
 30
0.0
 11
364.8048206251
 21
1069.2121430103
 31
0.0
  0
LINE
  5
E6
330
1F
100
AcDbEntity
  8
0
  6
Continuous
 62
     7
370
    30
100
AcDbLine
 10
364.8048206251
 20
1020.0121430103
 30
0.0
 11
364.8048206251
 21
1021.0121430103
 31
0.0
  0
LINE
  5
E7
330
1F
100
AcDbEntity
  8
0
  6
Continuous
 62
     7
370
    30
100
AcDbLine
 10
404.6826456298
 20
1020.0121430103
 30
0.0
 11
364.8048206251
 21
1020.0121430103
 31
0.0
  0
LINE
  5
E8
330
1F
100
AcDbEntity
  8
0
  6
Continuous
 62
     7
370
    30
100
AcDbLine
 10
364.8048206251
 20
1069.2121430103
 30
0.0
 11
364.8048206251
 21
1070.2121430103
 31
0.0
  0
LINE
  5
E9
330
1F
100
AcDbEntity
  8
0
  6
Continuous
 62
     7
370
    30
100
AcDbLine
 10
364.8048206251
 20
1070.2121430103
 30
0.0
 11
404.6826456298
 21
1070.2121430103
 31
0.0
  0
CIRCLE
  5
EA
330
1F
100
AcDbEntity
  8
0
  6
Continuous
 62
     7
370
    30
100
AcDbCircle
 10
449.6951793748
 20
1464.686016776
 30
0.0
 40
18.5
  0
LINE
  5
EB
330
1F
100
AcDbEntity
  8
0
  6
Continuous
 62
     7
370
    30
100
AcDbLine
 10
399.5497586344
 20
1367.0
 30
0.0
 11
429.5497586344
 21
1367.0
 31
0.0
  0
LINE
  5
EC
330
1F
100
AcDbEntity
  8
0
  6
Continuous
 62
     7
370
    30
100
AcDbLine
 10
399.5497586344
 20
1489.0
 30
0.0
 11
429.5497586344
 21
1489.0
 31
0.0
  0
LINE
  5
ED
330
1F
100
AcDbEntity
  8
0
  6
Continuous
 62
     7
370
    30
100
AcDbLine
 10
446.0835161893
 20
1446.5419850015
 30
0.0
 11
422.2957253268
 21
1446.5419850015
 31
0.0
  0
LINE
  5
EE
330
1F
100
AcDbEntity
  8
0
  6
Continuous
 62
     7
370
    30
100
AcDbLine
 10
422.2957253268
 20
1482.3207419014
 30
0.0
 11
444.1035365259
 21
1482.3207419014
 31
0.0
  0
LINE
  5
EF
330
1F
100
AcDbEntity
  8
0
  6
Continuous
 62
     7
370
    30
100
AcDbLine
 10
91.7002413656
 20
960.2
 30
0.0
 11
91.7002413656
 21
1020.0121430103
 31
0.0
  0
LINE
  5
F0
330
1F
100
AcDbEntity
  8
0
  6
Continuous
 62
     7
370
    30
100
AcDbLine
 10
91.7002413656
 20
1070.2121430103
 30
0.0
 11
91.7002413656
 21
1367.0
 31
0.0
  0
LINE
  5
F1
330
1F
100
AcDbEntity
  8
0
  6
Continuous
 62
     7
370
    30
100
AcDbLine
 10
91.7002413656
 20
1489.0
 30
0.0
 11
91.7002413656
 21
1849.9908600319
 31
0.0
  0
LINE
  5
F2
330
1F
100
AcDbEntity
  8
0
  6
Continuous
 62
     7
370
    30
100
AcDbLine
 10
91.7002413656
 20
1900.1908600319
 30
0.0
 11
91.7002413656
 21
1969.8
 31
0.0
  0
LINE
  5
F3
330
1F
100
AcDbEntity
  8
0
  6
Continuous
 62
     7
370
    30
100
AcDbLine
 10
69.2002413656
 20
1969.8
 30
0.0
 11
69.2002413656
 21
1900.1908600319
 31
0.0
  0
LINE
  5
F4
330
1F
100
AcDbEntity
  8
0
  6
Continuous
 62
     7
370
    30
100
AcDbLine
 10
69.2002413656
 20
1849.9908600319
 30
0.0
 11
69.2002413656
 21
1489.0
 31
0.0
  0
LINE
  5
F5
330
1F
100
AcDbEntity
  8
0
  6
Continuous
 62
     7
370
    30
100
AcDbLine
 10
69.2002413656
 20
1367.0
 30
0.0
 11
69.2002413656
 21
1070.2121430103
 31
0.0
  0
LINE
  5
F6
330
1F
100
AcDbEntity
  8
0
  6
Continuous
 62
     7
370
    30
100
AcDbLine
 10
69.2002413656
 20
1020.0121430103
 30
0.0
 11
69.2002413656
 21
960.2
 31
0.0
  0
LINE
  5
F7
330
1F
100
AcDbEntity
  8
0
  6
Continuous
 62
     7
370
    30
100
AcDbLine
 10
91.7002413656
 20
1969.8
 30
0.0
 11
91.500241366
 21
1970.0
 31
0.0
  0
LINE
  5
F8
330
1F
100
AcDbEntity
  8
0
  6
Continuous
 62
     7
370
    30
100
AcDbLine
 10
69.4002413653
 20
1970.0
 30
0.0
 11
69.2002413656
 21
1969.8
 31
0.0
  0
LINE
  5
F9
330
1F
100
AcDbEntity
  8
0
  6
Continuous
 62
     7
370
    30
100
AcDbLine
 10
69.200241366
 20
960.2
 30
0.0
 11
69.4002413656
 21
960.0
 31
0.0
  0
LINE
  5
FA
330
1F
100
AcDbEntity
  8
0
  6
Continuous
 62
     7
370
    30
100
AcDbLine
 10
91.5002413656
 20
960.0
 30
0.0
 11
91.7002413653
 21
960.2
 31
0.0
  0
ARC
  5
FB
330
1F
100
AcDbEntity
  8
0
  6
Continuous
 62
     7
370
    30
100
AcDbCircle
 10
66.4502413656
 20
1850.9908600319
 30
0.0
 40
1.0
100
AcDbArc
 50
180.0
 51
270.0
  0
ARC
  5
FC
330
1F
100
AcDbEntity
  8
0
  6
Continuous
 62
     7
370
    30
100
AcDbCircle
 10
66.4502413656
 20
1899.1908600319
 30
0.0
 40
1.000000000000227
100
AcDbArc
 50
90.0
 51
180.0
  0
LINE
  5
FD
330
1F
100
AcDbEntity
  8
0
  6
Continuous
 62
     7
370
    30
100
AcDbLine
 10
65.4502413656
 20
1899.1908600319
 30
0.0
 11
65.4502413656
 21
1850.9908600319
 31
0.0
  0
ARC
  5
FE
330
1F
100
AcDbEntity
  8
0
  6
Continuous
 62
     7
370
    30
100
AcDbCircle
 10
66.4502413656
 20
1069.2121430103
 30
0.0
 40
1.0
100
AcDbArc
 50
90.0
 51
180.0
  0
ARC
  5
FF
330
1F
100
AcDbEntity
  8
0
  6
Continuous
 62
     7
370
    30
100
AcDbCircle
 10
66.4502413656
 20
1021.0121430103
 30
0.0
 40
1.0
100
AcDbArc
 50
180.0
 51
270.0
  0
LINE
  5
100
330
1F
100
AcDbEntity
  8
0
  6
Continuous
 62
     7
370
    30
100
AcDbLine
 10
65.4502413656
 20
1069.2121430103
 30
0.0
 11
65.4502413656
 21
1021.0121430103
 31
0.0
  0
LINE
  5
101
330
1F
100
AcDbEntity
  8
0
  6
Continuous
 62
     7
370
    30
100
AcDbLine
 10
95.4502413656
 20
1367.0
 30
0.0
 11
95.4502413656
 21
1489.0
 31
0.0
  0
LINE
  5
102
330
1F
100
AcDbEntity
  8
0
  6
Continuous
 62
     7
370
    30
100
AcDbLine
 10
65.4502413656
 20
1445.5419850015
 30
0.0
 11
65.4502413656
 21
1367.0
 31
0.0
  0
LINE
  5
103
330
1F
100
AcDbEntity
  8
0
  6
Continuous
 62
     7
370
    30
100
AcDbLine
 10
65.4502413656
 20
1489.0
 30
0.0
 11
65.4502413656
 21
1483.3207419014
 31
0.0
  0
ARC
  5
104
330
1F
100
AcDbEntity
  8
0
  6
Continuous
 62
     7
370
    30
100
AcDbCircle
 10
64.4502413656
 20
1445.5419850015
 30
0.0
 40
1.0
100
AcDbArc
 50
0.0
 51
90.0
  0
ARC
  5
105
330
1F
100
AcDbEntity
  8
0
  6
Continuous
 62
     7
370
    30
100
AcDbCircle
 10
64.4502413656
 20
1483.3207419014
 30
0.0
 40
1.0
100
AcDbArc
 50
270.0
 51
0.0
  0
LINE
  5
106
330
1F
100
AcDbEntity
  8
0
  6
Continuous
 62
     7
370
    30
100
AcDbLine
 10
69.2002413656
 20
960.2
 30
0.0
 11
91.7002413656
 21
960.2
 31
0.0
  0
LINE
  5
107
330
1F
100
AcDbEntity
  8
0
  6
Continuous
 62
     7
370
    30
100
AcDbLine
 10
91.7002413656
 20
1969.8
 30
0.0
 11
69.2002413656
 21
1969.8
 31
0.0
  0
LINE
  5
108
330
1F
100
AcDbEntity
  8
0
  6
Continuous
 62
     7
370
    30
100
AcDbLine
 10
69.4002413653
 20
1970.0
 30
0.0
 11
91.5002413656
 21
1970.0
 31
0.0
  0
LINE
  5
109
330
1F
100
AcDbEntity
  8
0
  6
Continuous
 62
     7
370
    30
100
AcDbLine
 10
80.4502413656
 20
960.0
 30
0.0
 11
69.4002413656
 21
960.0
 31
0.0
  0
LINE
  5
10A
330
1F
100
AcDbEntity
  8
0
  6
Continuous
 62
     7
370
    30
100
AcDbLine
 10
91.5002413656
 20
960.0
 30
0.0
 11
80.4502413656
 21
960.0
 31
0.0
  0
SPLINE
  5
10B
330
1F
100
AcDbEntity
  8
0
  6
Continuous
 62
     7
370
    30
100
AcDbSpline
210
0.0
220
0.0
230
1.0
 70
     8
 71
     3
 72
    18
 73
    14
 74
     0
 42
0.000000001
 43
0.00000001
 40
0.0
 40
0.0
 40
0.0
 40
0.0
 40
0.0964273136467301
 40
0.1957327204301814
 40
0.2921403294283058
 40
0.3912021416767842
 40
0.490470798427807
 40
0.5922794584503761
 40
0.6982080024955624
 40
0.8068329483026009
 40
0.9002721850949102
 40
0.9953830946721558
 40
1.0
 40
1.0
 40
1.0
 40
1.0
 10
90.72138426533027
 20
1850.99086003188
 30
0.0
 10
90.72043378600458
 20
1850.938350999045
 30
0.0
 10
90.71850445812957
 20
1850.83176568151
 30
0.0
 10
90.70303070131258
 20
1850.677271707711
 30
0.0
 10
90.67871397921323
 20
1850.530506141001
 30
0.0
 10
90.64561620138589
 20
1850.396528536691
 30
0.0
 10
90.60418770506693
 20
1850.276490790804
 30
0.0
 10
90.5549798873039
 20
1850.173168005521
 30
0.0
 10
90.49843306510404
 20
1850.089325335492
 30
0.0
 10
90.43896162943155
 20
1850.031723743843
 30
0.0
 10
90.37895354589338
 20
1849.998721619436
 30
0.0
 10
90.33898552320203
 20
1849.990980080628
 30
0.0
 10
90.31831147650671
 20
1849.990865343637
 30
0.0
 10
90.31735437024275
 20
1849.99086003188
 30
0.0
  0
LINE
  5
10C
330
1F
100
AcDbEntity
  8
0
  6
Continuous
 62
     7
370
    30
100
AcDbLine
 10
90.3173543702
 20
1849.9908600319
 30
0.0
 11
66.4502413656
 21
1849.9908600319
 31
0.0
  0
LINE
  5
10D
330
1F
100
AcDbEntity
  8
0
  6
Continuous
 62
     7
370
    30
100
AcDbLine
 10
66.4502413656
 20
1900.1908600319
 30
0.0
 11
90.3173543702
 21
1900.1908600319
 31
0.0
  0
SPLINE
  5
10E
330
1F
100
AcDbEntity
  8
0
  6
Continuous
 62
     7
370
    30
100
AcDbSpline
210
0.0
220
0.0
230
1.0
 70
     8
 71
     3
 72
    18
 73
    14
 74
     0
 42
0.000000001
 43
0.00000001
 40
0.0
 40
0.0
 40
0.0
 40
0.0
 40
0.0046169110100949
 40
0.0980626953462394
 40
0.1931672339314546
 40
0.2991228862300588
 40
0.4077206630821787
 40
0.5070193500359691
 40
0.6087978657003379
 40
0.7052311616357946
 40
0.8042671947983114
 40
0.900705662116978
 40
1.0
 40
1.0
 40
1.0
 40
1.0
 10
90.3173543702428
 20
1900.190860031881
 30
0.0
 10
90.31831147742692
 20
1900.190854720468
 30
0.0
 10
90.33864033150397
 20
1900.190741906646
 30
0.0
 10
90.37860720353717
 20
1900.183125023504
 30
0.0
 10
90.4381029994214
 20
1900.150600386321
 30
0.0
 10
90.4979243008893
 20
1900.093008549964
 30
0.0
 10
90.5541053979923
 20
1900.010108284538
 30
0.0
 10
90.60380304542808
 20
1899.906172806778
 30
0.0
 10
90.64497254240565
 20
1899.787374712799
 30
0.0
 10
90.67844918715156
 20
1899.652496544485
 30
0.0
 10
90.70265471930885
 20
1899.507255831498
 30
0.0
 10
90.71839921131819
 20
1899.351533963088
 30
0.0
 10
90.72037961552559
 20
1899.244936451587
 30
0.0
 10
90.72138426533027
 20
1899.19086003188
 30
0.0
  0
LINE
  5
10F
330
1F
100
AcDbEntity
  8
0
  6
Continuous
 62
     7
370
    30
100
AcDbLine
 10
90.7213842653
 20
1899.1908600319
 30
0.0
 11
90.7213842653
 21
1850.9908600319
 31
0.0
  0
LINE
  5
110
330
1F
100
AcDbEntity
  8
0
  6
Continuous
 62
     7
370
    30
100
AcDbLine
 10
130.1951793748
 20
1900.1908600319
 30
0.0
 11
130.1951793748
 21
1899.1908600319
 31
0.0
  0
LINE
  5
111
330
1F
100
AcDbEntity
  8
0
  6
Continuous
 62
     7
370
    30
100
AcDbLine
 10
90.3173543702
 20
1900.1908600319
 30
0.0
 11
130.1951793748
 21
1900.1908600319
 31
0.0
  0
LINE
  5
112
330
1F
100
AcDbEntity
  8
0
  6
Continuous
 62
     7
370
    30
100
AcDbLine
 10
130.1951793748
 20
1899.1908600319
 30
0.0
 11
130.1951793748
 21
1850.9908600319
 31
0.0
  0
LINE
  5
113
330
1F
100
AcDbEntity
  8
0
  6
Continuous
 62
     7
370
    30
100
AcDbLine
 10
130.1951793748
 20
1850.9908600319
 30
0.0
 11
130.1951793748
 21
1849.9908600319
 31
0.0
  0
LINE
  5
114
330
1F
100
AcDbEntity
  8
0
  6
Continuous
 62
     7
370
    30
100
AcDbLine
 10
130.1951793748
 20
1849.9908600319
 30
0.0
 11
90.3173543702
 21
1849.9908600319
 31
0.0
  0
LINE
  5
115
330
1F
100
AcDbEntity
  8
0
  6
Continuous
 62
     7
370
    30
100
AcDbLine
 10
66.4502413656
 20
1070.2121430103
 30
0.0
 11
90.3173543702
 21
1070.2121430103
 31
0.0
  0
SPLINE
  5
116
330
1F
100
AcDbEntity
  8
0
  6
Continuous
 62
     7
370
    30
100
AcDbSpline
210
0.0
220
0.0
230
1.0
 70
     8
 71
     3
 72
    18
 73
    14
 74
     0
 42
0.000000001
 43
0.00000001
 40
0.0
 40
0.0
 40
0.0
 40
0.0
 40
0.0964273136467362
 40
0.1957327204301943
 40
0.2921403294283263
 40
0.3912021416768707
 40
0.4904707984279029
 40
0.592279458450484
 40
0.6982080024956393
 40
0.8068329483027054
 40
0.9002721850949557
 40
0.9953830946721517
 40
1.0
 40
1.0
 40
1.0
 40
1.0
 10
90.7213842653233
 20
1069.21214301032
 30
0.0
 10
90.7204337859976
 20
1069.264652043155
 30
0.0
 10
90.7185044581226
 20
1069.37123736069
 30
0.0
 10
90.70303070130564
 20
1069.525731334489
 30
0.0
 10
90.67871397920626
 20
1069.672496901199
 30
0.0
 10
90.645616201379
 20
1069.806474505509
 30
0.0
 10
90.60418770506006
 20
1069.926512251396
 30
0.0
 10
90.55497988729708
 20
1070.02983503668
 30
0.0
 10
90.49843306509719
 20
1070.113677706708
 30
0.0
 10
90.43896162942488
 20
1070.171279298357
 30
0.0
 10
90.37895354588657
 20
1070.204281422765
 30
0.0
 10
90.33898552319575
 20
1070.212022961571
 30
0.0
 10
90.31831147650013
 20
1070.212137698564
 30
0.0
 10
90.31735437023616
 20
1070.21214301032
 30
0.0
  0
LINE
  5
117
330
1F
100
AcDbEntity
  8
0
  6
Continuous
 62
     7
370
    30
100
AcDbLine
 10
90.3173543702
 20
1020.0121430103
 30
0.0
 11
66.4502413656
 21
1020.0121430103
 31
0.0
  0
SPLINE
  5
118
330
1F
100
AcDbEntity
  8
0
  6
Continuous
 62
     7
370
    30
100
AcDbSpline
210
0.0
220
0.0
230
1.0
 70
     8
 71
     3
 72
    18
 73
    14
 74
     0
 42
0.000000001
 43
0.00000001
 40
0.0
 40
0.0
 40
0.0
 40
0.0
 40
0.0046169110100992
 40
0.0980626953461985
 40
0.1931672339313682
 40
0.2991228862299792
 40
0.407720663082107
 40
0.5070193500359098
 40
0.6087978657002424
 40
0.7052311616357668
 40
0.8042671947982926
 40
0.900705662116902
 40
1.0
 40
1.0
 40
1.0
 40
1.0
 10
90.31735437023619
 20
1020.01214301032
 30
0.0
 10
90.31831147742034
 20
1020.012148321732
 30
0.0
 10
90.33864033149739
 20
1020.012261135555
 30
0.0
 10
90.37860720353049
 20
1020.019878018696
 30
0.0
 10
90.43810299941465
 20
1020.052402655879
 30
0.0
 10
90.49792430088249
 20
1020.109994492237
 30
0.0
 10
90.55410539798547
 20
1020.192894757663
 30
0.0
 10
90.60380304542117
 20
1020.296830235423
 30
0.0
 10
90.64497254239879
 20
1020.415628329402
 30
0.0
 10
90.6784491871446
 20
1020.550506497716
 30
0.0
 10
90.7026547193019
 20
1020.695747210702
 30
0.0
 10
90.71839921131124
 20
1020.851469079112
 30
0.0
 10
90.72037961551862
 20
1020.958066590613
 30
0.0
 10
90.7213842653233
 20
1021.01214301032
 30
0.0
  0
LINE
  5
119
330
1F
100
AcDbEntity
  8
0
  6
Continuous
 62
     7
370
    30
100
AcDbLine
 10
90.7213842653
 20
1021.0121430103
 30
0.0
 11
90.7213842653
 21
1069.2121430103
 31
0.0
  0
LINE
  5
11A
330
1F
100
AcDbEntity
  8
0
  6
Continuous
 62
     7
370
    30
100
AcDbLine
 10
130.1951793748
 20
1070.2121430103
 30
0.0
 11
130.1951793748
 21
1069.2121430103
 31
0.0
  0
LINE
  5
11B
330
1F
100
AcDbEntity
  8
0
  6
Continuous
 62
     7
370
    30
100
AcDbLine
 10
90.3173543702
 20
1070.2121430103
 30
0.0
 11
130.1951793748
 21
1070.2121430103
 31
0.0
  0
LINE
  5
11C
330
1F
100
AcDbEntity
  8
0
  6
Continuous
 62
     7
370
    30
100
AcDbLine
 10
130.1951793748
 20
1021.0121430103
 30
0.0
 11
130.1951793748
 21
1069.2121430103
 31
0.0
  0
LINE
  5
11D
330
1F
100
AcDbEntity
  8
0
  6
Continuous
 62
     7
370
    30
100
AcDbLine
 10
130.1951793748
 20
1021.0121430103
 30
0.0
 11
130.1951793748
 21
1020.0121430103
 31
0.0
  0
LINE
  5
11E
330
1F
100
AcDbEntity
  8
0
  6
Continuous
 62
     7
370
    30
100
AcDbLine
 10
130.1951793748
 20
1020.0121430103
 30
0.0
 11
90.3173543702
 21
1020.0121430103
 31
0.0
  0
LINE
  5
11F
330
1F
100
AcDbEntity
  8
0
  6
Continuous
 62
     7
370
    30
100
AcDbLine
 10
65.4502413656
 20
1367.0
 30
0.0
 11
95.4502413656
 21
1367.0
 31
0.0
  0
LINE
  5
120
330
1F
100
AcDbEntity
  8
0
  6
Continuous
 62
     7
370
    30
100
AcDbLine
 10
65.4502413656
 20
1489.0
 30
0.0
 11
95.4502413656
 21
1489.0
 31
0.0
  0
LINE
  5
121
330
1F
100
AcDbEntity
  8
0
  6
Continuous
 62
     7
370
    30
100
AcDbLine
 10
47.5966195742
 20
1482.3207419014
 30
0.0
 11
72.7042746732
 21
1482.3207419014
 31
0.0
  0
LINE
  5
122
330
1F
100
AcDbEntity
  8
0
  6
Continuous
 62
     7
370
    30
100
AcDbLine
 10
72.7042746732
 20
1446.5419850015
 30
0.0
 11
47.5966195742
 21
1446.5419850015
 31
0.0
  0
ARC
  5
123
330
1F
100
AcDbEntity
  8
0
  6
Continuous
 62
     7
370
    30
100
AcDbCircle
 10
47.5966195742
 20
1464.4313634514
 30
0.0
 40
17.88937844996258
100
AcDbArc
 50
90.0
 51
270.0
  0
ARC
  5
124
330
1F
100
AcDbEntity
  8
0
  6
Continuous
 62
     7
370
    30
100
AcDbCircle
 10
45.3048206251
 20
1464.686016776
 30
0.0
 40
16.23310938593039
100
AcDbArc
 50
126.8080784857
 51
220.5110936597
  0
ARC
  5
125
330
1F
100
AcDbEntity
  8
0
  6
Continuous
 62
     7
370
    30
100
AcDbCircle
 10
45.3048206251
 20
1464.686016776
 30
0.0
 40
18.50000000000008
100
AcDbArc
 50
72.407148433
 51
270.0
  0
ARC
  5
126
330
1F
100
AcDbEntity
  8
0
  6
Continuous
 62
     7
370
    30
100
AcDbCircle
 10
45.3048206251
 20
1464.686016776
 30
0.0
 40
18.50000000000026
100
AcDbArc
 50
270.0
 51
281.2578699273
  0
SPLINE
  5
127
330
1F
100
AcDbEntity
  8
0
  6
Continuous
 62
     7
370
    30
100
AcDbSpline
210
0.0
220
0.0
230
1.0
 70
     8
 71
     3
 72
    43
 73
    39
 74
     0
 42
0.000000001
 43
0.00000001
 40
0.0
 40
0.0
 40
0.0
 40
0.0
 40
0.0248108780296766
 40
0.0608801439114412
 40
0.0971090196336848
 40
0.1334561352090704
 40
0.1698917538673489
 40
0.2063937692630385
 40
0.2468337181876018
 40
0.2866010745190417
 40
0.325625042474435
 40
0.3639638629897247
 40
0.4016593253662595
 40
0.4387381284114467
 40
0.4752147551134525
 40
0.5110931437404518
 40
0.5463674928423689
 40
0.5810223928063033
 40
0.6150323593180987
 40
0.648360762525287
 40
0.6809580695939003
 40
0.7127592348396574
 40
0.7436799564613589
 40
0.7736113269626979
 40
0.8024120083424758
 40
0.8298959728028046
 40
0.8558099705180379
 40
0.8797783298787076
 40
0.9011251198794009
 40
0.9184771753368632
 40
0.930811479504474
 40
0.9397196844095561
 40
0.9472578317358964
 40
0.9550998154034132
 40
0.9643962485742595
 40
0.9768734657513344
 40
0.9951224657834793
 40
1.0
 40
1.0
 40
1.0
 40
1.0
 10
242.4687741730828
 20
839.8039656864811
 30
0.0
 10
242.4488815759836
 20
839.8039820874753
 30
0.0
 10
242.4000697534948
 20
839.8040223317138
 30
0.0
 10
242.3225488281664
 20
839.7954500857875
 30
0.0
 10
242.2369021712983
 20
839.7794073706118
 30
0.0
 10
242.1527165945773
 20
839.7556008972653
 30
0.0
 10
242.0707224414473
 20
839.724524212953
 30
0.0
 10
241.9888120530257
 20
839.6849372077407
 30
0.0
 10
241.908591759774
 20
839.6365598612216
 30
0.0
 10
241.8317859956982
 20
839.5794774835252
 30
0.0
 10
241.7619804107881
 20
839.5165178534716
 30
0.0
 10
241.6994547060636
 20
839.448572918585
 30
0.0
 10
241.6443440498713
 20
839.3764467856262
 30
0.0
 10
241.5967315934807
 20
839.3009309155029
 30
0.0
 10
241.556643135551
 20
839.2228051509568
 30
0.0
 10
241.5240428865918
 20
839.1428356134111
 30
0.0
 10
241.4988306277449
 20
839.0617719845363
 30
0.0
 10
241.4808397992984
 20
838.9803445738481
 30
0.0
 10
241.4698359693493
 20
838.8992614772376
 30
0.0
 10
241.4655152577606
 20
838.8192060887932
 30
0.0
 10
241.4675022572336
 20
838.7408352384683
 30
0.0
 10
241.4753469114577
 20
838.664778291292
 30
0.0
 10
241.4885196321842
 20
838.5916377029147
 30
0.0
 10
241.5064035990864
 20
838.5219919033802
 30
0.0
 10
241.5282823774368
 20
838.4564024748399
 30
0.0
 10
241.5533185565573
 20
838.3954311899228
 30
0.0
 10
241.5805088342086
 20
838.3396873465721
 30
0.0
 10
241.6085577023084
 20
838.2899828917446
 30
0.0
 10
241.6355387780454
 20
838.2477206065545
 30
0.0
 10
241.6589715211136
 20
838.214519013076
 30
0.0
 10
241.6772290265325
 20
838.1904977764248
 30
0.0
 10
241.6903881105498
 20
838.174035998519
 30
0.0
 10
241.6998564966432
 20
838.1625942780639
 30
0.0
 10
241.7067537459513
 20
838.1544642434798
 30
0.0
 10
241.7120095555275
 20
838.1483789695759
 30
0.0
 10
241.7162285339748
 20
838.1435608095014
 30
0.0
 10
241.7186655937066
 20
838.1408051788297
 30
0.0
 10
241.7195915165369
 20
838.1397677044039
 30
0.0
 10
241.7197867995931
 20
838.1395488944016
 30
0.0
  0
SPLINE
  5
128
330
1F
100
AcDbEntity
  8
0
  6
Continuous
 62
     7
370
    30
100
AcDbSpline
210
0.0
220
0.0
230
1.0
 70
     8
 71
     3
 72
    41
 73
    37
 74
     0
 42
0.000000001
 43
0.00000001
 40
0.0
 40
0.0
 40
0.0
 40
0.0
 40
0.0099926703048514
 40
0.0301578829630288
 40
0.0411138224285283
 40
0.0495866607548672
 40
0.0577727569283291
 40
0.0676545710988041
 40
0.0820404529641068
 40
0.1024258740297683
 40
0.1289842111530381
 40
0.1621387680030477
 40
0.1940201786758423
 40
0.2253891068318055
 40
0.2587385963161003
 40
0.2931723818281938
 40
0.3283267139430998
 40
0.3639634656485954
 40
0.3999329092020308
 40
0.4361381293828583
 40
0.4725143815994457
 40
0.5090169569323256
 40
0.545613939556307
 40
0.5822817702762381
 40
0.6230682588537247
 40
0.6631765772344529
 40
0.7025243838947187
 40
0.7411739272366492
 40
0.779170457360929
 40
0.8165433479836419
 40
0.8533092652314904
 40
0.8894740422265263
 40
0.925033630281586
 40
0.959974347593276
 40
0.9942725201952278
 40
1.0
 40
1.0
 40
1.0
 40
1.0
 10
222.4456240018601
 20
838.1398565283641
 30
0.0
 10
222.4460561429306
 20
838.1403412071687
 30
0.0
 10
222.4473603448538
 20
838.1418039679944
 30
0.0
 10
222.4508546261251
 20
838.1457609409991
 30
0.0
 10
222.4574120868946
 20
838.1533200388535
 30
0.0
 10
222.4653744360669
 20
838.1626902472576
 30
0.0
 10
222.4762072403408
 20
838.1758070320088
 30
0.0
 10
222.4913250471285
 20
838.1948526510024
 30
0.0
 10
222.5123475634035
 20
838.2229314066809
 30
0.0
 10
222.5399229684111
 20
838.2631254005045
 30
0.0
 10
222.5730391226848
 20
838.3177214972691
 30
0.0
 10
222.6063944618316
 20
838.3827701863506
 30
0.0
 10
222.6360750325084
 20
838.4537611898539
 30
0.0
 10
222.6603539235382
 20
838.5269433363762
 30
0.0
 10
222.6793920454651
 20
838.6037744448004
 30
0.0
 10
222.6926307805291
 20
838.6848842404902
 30
0.0
 10
222.6992213406081
 20
838.7686392791965
 30
0.0
 10
222.6986944672067
 20
838.8538807700694
 30
0.0
 10
222.6907974903097
 20
838.9396021593824
 30
0.0
 10
222.675430925837
 20
839.024905498255
 30
0.0
 10
222.6526110081899
 20
839.1089663244976
 30
0.0
 10
222.6224482691006
 20
839.1910143712204
 30
0.0
 10
222.5851331878788
 20
839.270325542407
 30
0.0
 10
222.5392971836802
 20
839.3490188131416
 30
0.0
 10
222.4847252523273
 20
839.4254415668454
 30
0.0
 10
222.4216209015772
 20
839.4978383385044
 30
0.0
 10
222.3531702325106
 20
839.5627397436656
 30
0.0
 10
222.2802992987624
 20
839.6199341498236
 30
0.0
 10
222.2038244812466
 20
839.6693565038044
 30
0.0
 10
222.1245446213253
 20
839.7109852553315
 30
0.0
 10
222.0432414904928
 20
839.7448750313412
 30
0.0
 10
221.9606791601851
 20
839.7710626087223
 30
0.0
 10
221.8775949974104
 20
839.7899280325554
 30
0.0
 10
221.794718637669
 20
839.8008930361498
 30
0.0
 10
221.7349336244334
 20
839.8054587977671
 30
0.0
 10
221.7030257508829
 20
839.8044402852514
 30
0.0
 10
221.6984598864838
 20
839.804294540972
 30
0.0
  0
ARC
  5
129
330
1F
100
AcDbEntity
  8
0
  6
Continuous
 62
     7
370
    30
100
AcDbCircle
 10
249.2
 20
803.8048206252
 30
0.0
 40
1.0
100
AcDbArc
 50
270.0
 51
0.0
  0
ARC
  5
12A
330
1F
100
AcDbEntity
  8
0
  6
Continuous
 62
     7
370
    30
100
AcDbCircle
 10
249.2
 20
838.8048206252
 30
0.0
 40
1.0
100
AcDbArc
 50
0.0
 51
90.0
  0
LINE
  5
12B
330
1F
100
AcDbEntity
  8
0
  6
Continuous
 62
     7
370
    30
100
AcDbLine
 10
221.6983835264
 20
839.8048206252
 30
0.0
 11
214.8
 21
839.8048206252
 31
0.0
  0
LINE
  5
12C
330
1F
100
AcDbEntity
  8
0
  6
Continuous
 62
     7
370
    30
100
AcDbLine
 10
249.2
 20
839.8048206252
 30
0.0
 11
242.4688159163
 21
839.8048206252
 31
0.0
  0
LINE
  5
12D
330
1F
100
AcDbEntity
  8
0
  6
Continuous
 62
     7
370
    30
100
AcDbLine
 10
214.8
 20
802.8048206252
 30
0.0
 11
249.2
 21
802.8048206252
 31
0.0
  0
ARC
  5
12E
330
1F
100
AcDbEntity
  8
0
  6
Continuous
 62
     7
370
    30
100
AcDbCircle
 10
214.8
 20
803.8048206252
 30
0.0
 40
1.0
100
AcDbArc
 50
180.0
 51
270.0
  0
ARC
  5
12F
330
1F
100
AcDbEntity
  8
0
  6
Continuous
 62
     7
370
    30
100
AcDbCircle
 10
214.8
 20
838.8048206252
 30
0.0
 40
1.0
100
AcDbArc
 50
90.0
 51
180.0
  0
LINE
  5
130
330
1F
100
AcDbEntity
  8
0
  6
Continuous
 62
     7
370
    30
100
AcDbLine
 10
252.2
 20
805.7072411242
 30
0.0
 11
280.2
 21
805.7072411242
 31
0.0
  0
ARC
  5
131
330
1F
100
AcDbEntity
  8
0
  6
Continuous
 62
     7
370
    30
100
AcDbCircle
 10
280.2
 20
806.7072411242
 30
0.0
 40
1.0
100
AcDbArc
 50
270.0
 51
360.0
  0
ARC
  5
132
330
1F
100
AcDbEntity
  8
0
  6
Continuous
 62
     7
370
    30
100
AcDbCircle
 10
252.2
 20
806.7072411242
 30
0.0
 40
1.0
100
AcDbArc
 50
180.0
 51
270.0
  0
LINE
  5
133
330
1F
100
AcDbEntity
  8
0
  6
Continuous
 62
     7
370
    30
100
AcDbLine
 10
250.2
 20
805.0717112392
 30
0.0
 11
251.2
 21
805.0717112392
 31
0.0
  0
LINE
  5
134
330
1F
100
AcDbEntity
  8
0
  6
Continuous
 62
     7
370
    30
100
AcDbLine
 10
251.2
 20
837.5379300111
 30
0.0
 11
250.2
 21
837.5379300111
 31
0.0
  0
CIRCLE
  5
135
330
1F
100
AcDbEntity
  8
0
  6
Continuous
 62
     7
370
    30
100
AcDbCircle
 10
266.2
 20
856.4502413656
 30
0.0
 40
11.25000000000003
  0
CIRCLE
  5
136
330
1F
100
AcDbEntity
  8
0
  6
Continuous
 62
     7
370
    30
100
AcDbCircle
 10
266.2
 20
856.4502413656
 30
0.0
 40
11.05000000000007
  0
LINE
  5
137
330
1F
100
AcDbEntity
  8
0
  6
Continuous
 62
     7
370
    30
100
AcDbLine
 10
277.1317712899
 20
906.1951793749
 30
0.0
 11
277.1317712899
 21
866.7213842653
 31
0.0
  0
SPLINE
  5
138
330
1F
100
AcDbEntity
  8
0
  6
Continuous
 62
     7
370
    30
100
AcDbSpline
210
0.0
220
0.0
230
1.0
 70
     8
 71
     3
 72
    18
 73
    14
 74
     0
 42
0.000000001
 43
0.00000001
 40
0.0
 40
0.0
 40
0.0
 40
0.0
 40
0.0046169110100949
 40
0.0980626953462394
 40
0.1931672339314546
 40
0.2991228862300588
 40
0.4077206630821787
 40
0.5070193500359691
 40
0.6087978657003379
 40
0.7052311616357946
 40
0.8042671947983114
 40
0.900705662116978
 40
1.0
 40
1.0
 40
1.0
 40
1.0
 10
276.1317712898688
 20
866.317354370244
 30
0.0
 10
276.1340928863672
 20
866.3183114774281
 30
0.0
 10
276.1834033473306
 20
866.3386403315051
 30
0.0
 10
276.2806586711723
 20
866.3786072035383
 30
0.0
 10
276.4262804582209
 20
866.4381029994225
 30
0.0
 10
276.5735860202032
 20
866.4979243008904
 30
0.0
 10
276.7127631397362
 20
866.5541053979935
 30
0.0
 10
276.8365268122739
 20
866.6038030454292
 30
0.0
 10
276.9395137380328
 20
866.6449725424068
 30
0.0
 10
277.0235652272701
 20
866.6784491871528
 30
0.0
 10
277.0845114096094
 20
866.70265471931
 30
0.0
 10
277.1242329192175
 20
866.7183992113194
 30
0.0
 10
277.1292341757758
 20
866.7203796155268
 30
0.0
 10
277.1317712898688
 20
866.7213842653314
 30
0.0
  0
LINE
  5
139
330
1F
100
AcDbEntity
  8
0
  6
Continuous
 62
     7
370
    30
100
AcDbLine
 10
276.1317712899
 20
906.1951793749
 30
0.0
 11
277.1317712899
 21
906.1951793749
 31
0.0
  0
LINE
  5
13A
330
1F
100
AcDbEntity
  8
0
  6
Continuous
 62
     7
370
    30
100
AcDbLine
 10
256.2682287101
 20
906.1951793749
 30
0.0
 11
276.1317712899
 21
906.1951793749
 31
0.0
  0
SPLINE
  5
13B
330
1F
100
AcDbEntity
  8
0
  6
Continuous
 62
     7
370
    30
100
AcDbSpline
210
0.0
220
0.0
230
1.0
 70
     8
 71
     3
 72
    18
 73
    14
 74
     0
 42
0.000000001
 43
0.00000001
 40
0.0
 40
0.0
 40
0.0
 40
0.0
 40
0.0046169110100992
 40
0.0980626953461985
 40
0.1931672339313682
 40
0.2991228862299792
 40
0.407720663082107
 40
0.5070193500359098
 40
0.6087978657002424
 40
0.7052311616357668
 40
0.8042671947982926
 40
0.900705662116902
 40
1.0
 40
1.0
 40
1.0
 40
1.0
 10
256.2682287101247
 20
866.3173543702374
 30
0.0
 10
256.2659071136263
 20
866.3183114774214
 30
0.0
 10
256.216596652663
 20
866.3386403314986
 30
0.0
 10
256.1193413288212
 20
866.3786072035317
 30
0.0
 10
255.9737195417727
 20
866.4381029994158
 30
0.0
 10
255.8264139797905
 20
866.4979243008837
 30
0.0
 10
255.6872368602573
 20
866.5541053979866
 30
0.0
 10
255.5634731877197
 20
866.6038030454223
 30
0.0
 10
255.4604862619607
 20
866.6449725424
 30
0.0
 10
255.3764347727234
 20
866.6784491871458
 30
0.0
 10
255.3154885903842
 20
866.702654719303
 30
0.0
 10
255.2757670807759
 20
866.7183992113124
 30
0.0
 10
255.2707658242176
 20
866.7203796155197
 30
0.0
 10
255.2682287101247
 20
866.7213842653244
 30
0.0
  0
LINE
  5
13C
330
1F
100
AcDbEntity
  8
0
  6
Continuous
 62
     7
370
    30
100
AcDbLine
 10
255.2682287101
 20
866.7213842653
 30
0.0
 11
255.2682287101
 21
906.1951793749
 31
0.0
  0
LINE
  5
13D
330
1F
100
AcDbEntity
  8
0
  6
Continuous
 62
     7
370
    30
100
AcDbLine
 10
255.2682287101
 20
906.1951793749
 30
0.0
 11
256.2682287101
 21
906.1951793749
 31
0.0
  0
ARC
  5
13E
330
1F
100
AcDbEntity
  8
0
  6
Continuous
 62
     7
370
    30
100
AcDbCircle
 10
266.2
 20
856.4502413656
 30
0.0
 40
15.00000000000004
100
AcDbArc
 50
136.784612101
 51
43.215387899
  0
ARC
  5
13F
330
1F
100
AcDbEntity
  8
0
  6
Continuous
 62
     7
370
    30
100
AcDbCircle
 10
266.2
 20
856.4502413656
 30
0.0
 40
15.00000000000002
100
AcDbArc
 50
270.0
 51
43.2164547838
  0
ARC
  5
140
330
1F
100
AcDbEntity
  8
0
  6
Continuous
 62
     7
370
    30
100
AcDbCircle
 10
266.2
 20
856.4502413656
 30
0.0
 40
15.0
100
AcDbArc
 50
136.7779421042
 51
270.0
  0
SPLINE
  5
141
330
1F
100
AcDbEntity
  8
0
  6
Continuous
 62
     7
370
    30
100
AcDbSpline
210
0.0
220
0.0
230
1.0
 70
     8
 71
     3
 72
    15
 73
    11
 74
     0
 42
0.000000001
 43
0.00000001
 40
0.0
 40
0.0
 40
0.0
 40
0.0
 40
0.1235041081496486
 40
0.2472332268297798
 40
0.3718337810280442
 40
0.4964356251398124
 40
0.6218707702489246
 40
0.7473068707761087
 40
0.8735544630893161
 40
1.0
 40
1.0
 40
1.0
 40
1.0
 10
221.922249328795
 20
821.3048206251511
 30
0.0
 10
222.0284721510838
 20
821.174752469104
 30
0.0
 10
222.2411113216417
 20
820.9143791875256
 30
0.0
 10
222.5795096951015
 20
820.5392579089327
 30
0.0
 10
222.9318618691825
 20
820.1759582114915
 30
0.0
 10
223.2996659322102
 20
819.8257198611269
 30
0.0
 10
223.6811904269697
 20
819.4895992530998
 30
0.0
 10
224.0771289556357
 20
819.1679235508275
 30
0.0
 10
224.48535878969
 20
818.8602652981184
 30
0.0
 10
224.7677907022745
 20
818.668739998898
 30
0.0
 10
224.9091172786525
 20
818.5729023345884
 30
0.0
  0
SPLINE
  5
142
330
1F
100
AcDbEntity
  8
0
  6
Continuous
 62
     7
370
    30
100
AcDbSpline
210
0.0
220
0.0
230
1.0
 70
     8
 71
     3
 72
    61
 73
    57
 74
     0
 42
0.000000001
 43
0.00000001
 40
0.0
 40
0.0
 40
0.0
 40
0.0
 40
0.0121979462364757
 40
0.0260278343492625
 40
0.0398577473999406
 40
0.053728606997108
 40
0.0675995087937635
 40
0.0817197706852447
 40
0.0958400901342033
 40
0.10999925589647
 40
0.1241584853074886
 40
0.1382340297338414
 40
0.1523096353905081
 40
0.1805240480993805
 40
0.2050789012731219
 40
0.2296706904066502
 40
0.254392671303243
 40
0.2791483558176068
 40
0.3040724493387036
 40
0.3290292718487914
 40
0.3541144687215153
 40
0.379233507228024
 40
0.4028324901487998
 40
0.4264618337640971
 40
0.4502265380393078
 40
0.474026151521934
 40
0.4980133476545253
 40
0.5220423366132904
 40
0.546224796227233
 40
0.5704581782555743
 40
0.5867384302621725
 40
0.6030368127396392
 40
0.6194141884122462
 40
0.6357913582688868
 40
0.6522570897246562
 40
0.6687226027812015
 40
0.6852861767377272
 40
0.701876594675321
 40
0.7183395851511749
 40
0.7348314190366422
 40
0.7514457711430608
 40
0.7680599689360947
 40
0.7848058179848268
 40
0.801551570463066
 40
0.8184359245769679
 40
0.8353561639417416
 40
0.851399776346406
 40
0.8674740842821116
 40
0.8836713558781818
 40
0.899868723880834
 40
0.916187843036932
 40
0.9325071007105411
 40
0.9489456960921292
 40
0.965413196391129
 40
0.9879905876371765
 40
1.0
 40
1.0
 40
1.0
 40
1.0
 10
222.4389507485339
 20
838.1323980044934
 30
0.0
 10
222.4374543573634
 20
838.130742222883
 30
0.0
 10
222.434261375467
 20
838.1272091355385
 30
0.0
 10
222.4205204237014
 20
838.1119820488873
 30
0.0
 10
222.3999234991435
 20
838.0890534585653
 30
0.0
 10
222.3722034659151
 20
838.0580333362175
 30
0.0
 10
222.3375743019728
 20
838.0189895553377
 30
0.0
 10
222.2960486107959
 20
837.9717600272785
 30
0.0
 10
222.2477425328691
 20
837.9162237587019
 30
0.0
 10
222.1931482019325
 20
837.8526917175433
 30
0.0
 10
222.132703182827
 20
837.7813649513351
 30
0.0
 10
222.0668216521299
 20
837.7024252328484
 30
0.0
 10
221.9721633757898
 20
837.587077932807
 30
0.0
 10
221.8484545896793
 20
837.4322894790988
 30
0.0
 10
221.6913692543775
 20
837.227701489515
 30
0.0
 10
221.5310143449618
 20
837.0100378716206
 30
0.0
 10
221.361832683132
 20
836.7696245712691
 30
0.0
 10
221.1854606991649
 20
836.5060313604484
 30
0.0
 10
221.0040563534994
 20
836.2195179912482
 30
0.0
 10
220.8193284665793
 20
835.9095844292272
 30
0.0
 10
220.6335513302981
 20
835.5766319038414
 30
0.0
 10
220.4524930954606
 20
835.2278431752009
 30
0.0
 10
220.2781264393009
 20
834.865160943511
 30
0.0
 10
220.1116192835221
 20
834.489499956293
 30
0.0
 10
219.9509231341949
 20
834.0928897012643
 30
0.0
 10
219.7974612908739
 20
833.6742558355968
 30
0.0
 10
219.6533011431961
 20
833.2339510488318
 30
0.0
 10
219.5201777558323
 20
832.7711143559209
 30
0.0
 10
219.4003993933757
 20
832.2866132682798
 30
0.0
 10
219.3075705210411
 20
831.8362419558794
 30
0.0
 10
219.2377834567968
 20
831.4281669003267
 30
0.0
 10
219.1863958270124
 20
831.0679928503511
 30
0.0
 10
219.1443432117366
 20
830.6988075754501
 30
0.0
 10
219.1122705283484
 20
830.3203565338966
 30
0.0
 10
219.0909704377928
 20
829.9335579083302
 30
0.0
 10
219.0811096314896
 20
829.5380577447974
 30
0.0
 10
219.0834510734643
 20
829.1348005775563
 30
0.0
 10
219.09866385112
 20
828.7253976937907
 30
0.0
 10
219.127243083827
 20
828.3111326162674
 30
0.0
 10
219.1697076609057
 20
827.8919792647462
 30
0.0
 10
219.2267743184995
 20
827.4676452323123
 30
0.0
 10
219.2991103322862
 20
827.0381259086289
 30
0.0
 10
219.3871232993606
 20
826.6053965787614
 30
0.0
 10
219.4914586809777
 20
826.169280264015
 30
0.0
 10
219.6123667968926
 20
825.731663482493
 30
0.0
 10
219.7477482845075
 20
825.3012327016772
 30
0.0
 10
219.8964439789837
 20
824.879925908316
 30
0.0
 10
220.0577758286575
 20
824.467819165207
 30
0.0
 10
220.2344571892624
 20
824.0583620460108
 30
0.0
 10
220.4267611066949
 20
823.6517450623653
 30
0.0
 10
220.6341622161535
 20
823.249948970594
 30
0.0
 10
220.856983334201
 20
822.8529025065592
 30
0.0
 10
221.0945886038299
 20
822.4621880279252
 30
0.0
 10
221.3781798371189
 20
822.0314096391091
 30
0.0
 10
221.654755360676
 20
821.6453332655491
 30
0.0
 10
221.853307134655
 20
821.3925821875016
 30
0.0
 10
221.922249328795
 20
821.3048206251511
 30
0.0
  0
LINE
  5
143
330
1F
100
AcDbEntity
  8
0
  6
Continuous
 62
     7
370
    30
100
AcDbLine
 10
221.6983835264
 20
839.8043564107
 30
0.0
 11
221.6984559716
 21
839.8044411701
 31
0.0
  0
LINE
  5
144
330
1F
100
AcDbEntity
  8
0
  6
Continuous
 62
     7
370
    30
100
AcDbLine
 10
250.2
 20
838.8048206252
 30
0.0
 11
250.2
 21
803.8048206252
 31
0.0
  0
LINE
  5
145
330
1F
100
AcDbEntity
  8
0
  6
Continuous
 62
     7
370
    30
100
AcDbLine
 10
213.8
 20
803.8048206252
 30
0.0
 11
213.8
 21
838.8048206252
 31
0.0
  0
LINE
  5
146
330
1F
100
AcDbEntity
  8
0
  6
Continuous
 62
     7
370
    30
100
AcDbLine
 10
281.2
 20
856.4502413656
 30
0.0
 11
281.2
 21
823.5966195742
 31
0.0
  0
LINE
  5
147
330
1F
100
AcDbEntity
  8
0
  6
Continuous
 62
     7
370
    30
100
AcDbLine
 10
251.2
 20
823.5966195742
 30
0.0
 11
251.2
 21
856.4502413656
 31
0.0
  0
LINE
  5
148
330
1F
100
AcDbEntity
  8
0
  6
Continuous
 62
     7
370
    30
100
AcDbLine
 10
281.2
 20
823.5966195742
 30
0.0
 11
281.2
 21
806.7072411242
 31
0.0
  0
LINE
  5
149
330
1F
100
AcDbEntity
  8
0
  6
Continuous
 62
     7
370
    30
100
AcDbLine
 10
251.2
 20
819.5152138332
 30
0.0
 11
251.2
 21
823.5966195742
 31
0.0
  0
LINE
  5
14A
330
1F
100
AcDbEntity
  8
0
  6
Continuous
 62
     7
370
    30
100
AcDbLine
 10
251.2
 20
819.5152138332
 30
0.0
 11
251.2
 21
805.0717112392
 31
0.0
  0
LINE
  5
14B
330
1F
100
AcDbEntity
  8
0
  6
Continuous
 62
     7
370
    30
100
AcDbLine
 10
430.0581695936
 20
883.9440317341
 30
0.0
 11
429.916725258
 21
884.0257123534
 31
0.0
  0
LINE
  5
14C
330
1F
100
AcDbEntity
  8
0
  6
Continuous
 62
     7
370
    30
100
AcDbLine
 10
414.2871261476
 20
884.0257123534
 30
0.0
 11
414.145681812
 21
883.9440317341
 31
0.0
  0
LINE
  5
14D
330
1F
100
AcDbEntity
  8
0
  6
Continuous
 62
     7
370
    30
100
AcDbLine
 10
433.3519257028
 20
54.97287875
 30
0.0
 11
433.3519257028
 21
98.5817531975
 31
0.0
  0
LINE
  5
14E
330
1F
100
AcDbEntity
  8
0
  6
Continuous
 62
     7
370
    30
100
AcDbLine
 10
433.3519257028
 20
144.8022833209
 30
0.0
 11
433.3519257028
 21
381.4140820709
 31
0.0
  0
LINE
  5
14F
330
1F
100
AcDbEntity
  8
0
  6
Continuous
 62
     7
370
    30
100
AcDbLine
 10
433.3519257028
 20
486.7596600752
 30
0.0
 11
433.3519257028
 21
776.2932486422
 31
0.0
  0
LINE
  5
150
330
1F
100
AcDbEntity
  8
0
  6
Continuous
 62
     7
370
    30
100
AcDbLine
 10
433.3519257028
 20
822.5137787656
 30
0.0
 11
433.3519257028
 21
879.3524824298
 31
0.0
  0
LINE
  5
151
330
1F
100
AcDbEntity
  8
0
  6
Continuous
 62
     7
370
    30
100
AcDbLine
 10
410.8519257028
 20
879.3524824298
 30
0.0
 11
410.8519257028
 21
822.5137787656
 31
0.0
  0
LINE
  5
152
330
1F
100
AcDbEntity
  8
0
  6
Continuous
 62
     7
370
    30
100
AcDbLine
 10
410.8519257028
 20
776.2937354158
 30
0.0
 11
410.8519257028
 21
486.7596600752
 31
0.0
  0
LINE
  5
153
330
1F
100
AcDbEntity
  8
0
  6
Continuous
 62
     7
370
    30
100
AcDbLine
 10
410.8519257028
 20
381.4140820709
 30
0.0
 11
410.8519257028
 21
144.8022833209
 31
0.0
  0
LINE
  5
154
330
1F
100
AcDbEntity
  8
0
  6
Continuous
 62
     7
370
    30
100
AcDbLine
 10
410.8519257028
 20
98.5822399712
 30
0.0
 11
410.8519257028
 21
54.97287875
 31
0.0
  0
LINE
  5
155
330
1F
100
AcDbEntity
  8
0
  6
Continuous
 62
     7
370
    30
100
AcDbLine
 10
414.1456818122
 20
50.3813294459
 30
0.0
 11
414.2871261478
 21
50.2996488266
 31
0.0
  0
LINE
  5
156
330
1F
100
AcDbEntity
  8
0
  6
Continuous
 62
     7
370
    30
100
AcDbLine
 10
429.9167252578
 20
50.2996488266
 30
0.0
 11
430.0581695933
 21
50.3813294459
 31
0.0
  0
SPLINE
  5
157
330
1F
100
AcDbEntity
  8
0
  6
Continuous
 62
     7
370
    30
100
AcDbSpline
210
0.0
220
0.0
230
1.0
 70
     8
 71
     3
 72
    36
 73
    32
 74
     0
 42
0.000000001
 43
0.00000001
 40
0.0
 40
0.0
 40
0.0
 40
0.0
 40
0.0064269027064513
 40
0.0429327158325624
 40
0.0794288568329608
 40
0.1159092397642168
 40
0.15236697593259
 40
0.1887943717223804
 40
0.2251829538904835
 40
0.261523528585162
 40
0.2978062798508164
 40
0.3340209121681124
 40
0.3701568395502647
 40
0.4062034208672367
 40
0.4421502375308038
 40
0.4779874057295328
 40
0.513705911484726
 40
0.5492979534287805
 40
0.5847572759145139
 40
0.6200794742689582
 40
0.6552622549219398
 40
0.6903056357116083
 40
0.7252120755667353
 40
0.7599865274557104
 40
0.7946364133456051
 40
0.8291715243396893
 40
0.8636038527055772
 40
0.8979473649242223
 40
0.9322177261475957
 40
0.9664319867015058
 40
0.9999999999999999
 40
0.9999999999999999
 40
0.9999999999999999
 40
0.9999999999999999
 10
410.8519257027781
 20
827.7438341162954
 30
0.0
 10
410.8368097893915
 20
827.733731666882
 30
0.0
 10
410.7358331224627
 20
827.6662457238567
 30
0.0
 10
410.5559478630838
 20
827.5372660770722
 30
0.0
 10
410.3129209879453
 20
827.356767032487
 30
0.0
 10
410.0781515220796
 20
827.1718615792352
 30
0.0
 10
409.8510049332558
 20
826.9831572738148
 30
0.0
 10
409.6318886686771
 20
826.7906433969315
 30
0.0
 10
409.420926973981
 20
826.5944851065462
 30
0.0
 10
409.2183144459518
 20
826.3948113241346
 30
0.0
 10
409.0242199685894
 20
826.1917717968394
 30
0.0
 10
408.8388107741641
 20
825.9855218648737
 30
0.0
 10
408.6622442165758
 20
825.7762262546953
 30
0.0
 10
408.4946680967582
 20
825.5640574270944
 30
0.0
 10
408.3362187105656
 20
825.3491950002701
 30
0.0
 10
408.1870196211166
 20
825.1318245075406
 30
0.0
 10
408.047180469504
 20
824.9121359870262
 30
0.0
 10
407.9167961203643
 20
824.6903223337845
 30
0.0
 10
407.7959461635424
 20
824.4665775241832
 30
0.0
 10
407.6846948348849
 20
824.2410947952548
 30
0.0
 10
407.5830913936186
 20
824.0140648794445
 30
0.0
 10
407.4911708828294
 20
823.7856743889398
 30
0.0
 10
407.4089554757878
 20
823.5561044318209
 30
0.0
 10
407.3364554363659
 20
823.3255295233423
 30
0.0
 10
407.2736729614532
 20
823.0941168286122
 30
0.0
 10
407.2205963531631
 20
822.8620257611665
 30
0.0
 10
407.1772306712905
 20
822.62940789343
 30
0.0
 10
407.1434929423187
 20
822.3964072910062
 30
0.0
 10
407.1196106074407
 20
822.1631607274556
 30
0.0
 10
407.1047356919239
 20
821.9311822322652
 30
0.0
 10
407.1029131935995
 20
821.7769411374614
 30
0.0
 10
407.1020106324355
 20
821.7005558699384
 30
0.0
  0
LINE
  5
158
330
1F
100
AcDbEntity
  8
0
  6
Continuous
 62
     7
370
    30
100
AcDbLine
 10
407.1019257028
 20
821.6972379537
 30
0.0
 11
407.1019257028
 21
782.3399708208
 31
0.0
  0
SPLINE
  5
159
330
1F
100
AcDbEntity
  8
0
  6
Continuous
 62
     7
370
    30
100
AcDbSpline
210
0.0
220
0.0
230
1.0
 70
     8
 71
     3
 72
   130
 73
   126
 74
     0
 42
0.000000001
 43
0.00000001
 40
0.0
 40
0.0
 40
0.0
 40
0.0
 40
0.0076961186211395
 40
0.0154921080316307
 40
0.0232909737123336
 40
0.0310970054785446
 40
0.0389143374831233
 40
0.0467468688548124
 40
0.0545981894337352
 40
0.0624715123513865
 40
0.0703696152982849
 40
0.0782947923956532
 40
0.086248818543411
 40
0.0942329279038762
 40
0.1022478077652627
 40
0.1102936084080181
 40
0.1183699688021776
 40
0.1264760570653769
 40
0.1346106237077882
 40
0.1427720648958758
 40
0.1509584923868813
 40
0.1591678064985564
 40
0.1673977685163466
 40
0.1756460692859264
 40
0.1839103913306636
 40
0.1921884625792151
 40
0.2004781005864524
 40
0.2087772468880186
 40
0.2170839917745931
 40
0.2253965902648672
 40
0.2337134703830635
 40
0.2420332350177899
 40
0.2503546586788077
 40
0.2586765910650045
 40
0.2669979461684185
 40
0.2753180063483658
 40
0.2836361803471421
 40
0.2919519905571972
 40
0.3002650605204378
 40
0.3085751030248506
 40
0.3168819089922305
 40
0.3251853372687936
 40
0.3334853053681914
 40
0.3417817811706224
 40
0.3500747755496321
 40
0.3583643358769443
 40
0.3666505403425687
 40
0.3749334930207833
 40
0.3832133196102684
 40
0.3914901637775549
 40
0.3997641840359517
 40
0.4080355510963314
 40
0.4163044456311527
 40
0.4245710563982744
 40
0.4328355786764772
 40
0.4410982129694297
 40
0.4493591639397813
 40
0.4576186395390918
 40
0.465876850303375
 40
0.4741340087872677
 40
0.4823903291128344
 40
0.490646026611517
 40
0.498901317539783
 40
0.5071564188506732
 40
0.5154115480047985
 40
0.5236668678314951
 40
0.5319225787485574
 40
0.5401788988515138
 40
0.548436046135423
 40
0.5566942382877131
 40
0.5649536924344258
 40
0.5732146248217175
 40
0.5814772504138822
 40
0.5897417823872677
 40
0.5980084314970396
 40
0.6062774052910552
 40
0.6145489071417737
 40
0.6228231350634457
 40
0.6311002802776488
 40
0.6393805254854569
 40
0.6476640427996054
 40
0.6559509912844934
 40
0.6642415140462959
 40
0.6725357348099547
 40
0.6808337539146042
 40
0.6891356436547132
 40
0.6974414428914198
 40
0.7057511508581947
 40
0.7140647200881635
 40
0.7223820483988563
 40
0.730702969885568
 40
0.7390272448992659
 40
0.7473545490220954
 40
0.7556844611056552
 40
0.764016450508044
 40
0.7723498637580642
 40
0.7806838412657422
 40
0.7890171652864973
 40
0.797348678238922
 40
0.8056770472062507
 40
0.8140007572472474
 40
0.8223181092368991
 40
0.8306272235290802
 40
0.8389260508767953
 40
0.8472123919765935
 40
0.8554839267812555
 40
0.8637382543212205
 40
0.871972943181745
 40
0.8801855920188306
 40
0.888373898616447
 40
0.8965357350792508
 40
0.9046692259334058
 40
0.9127728252960825
 40
0.9208453889781871
 40
0.9288862374705625
 40
0.9368952062383638
 40
0.9448726805549247
 40
0.952819613135488
 40
0.9607375239428765
 40
0.9686284825907113
 40
0.9764950746499165
 40
0.9843403537992538
 40
0.9921677821285587
 40
0.9999811610262923
 40
1.0
 40
1.0
 40
1.0
 40
1.0
 10
407.1019881293413
 20
782.3361281374946
 30
0.0
 10
407.102915105995
 20
782.2594059027085
 30
0.0
 10
407.1047810884686
 20
782.104965826061
 30
0.0
 10
407.1197005492605
 20
781.8730270626672
 30
0.0
 10
407.1435442230887
 20
781.6404870370977
 30
0.0
 10
407.1771353490163
 20
781.4084701388005
 30
0.0
 10
407.2202200071183
 20
781.1770906133481
 30
0.0
 10
407.2728535307386
 20
780.9464643610305
 30
0.0
 10
407.3350101279267
 20
780.7167099576832
 30
0.0
 10
407.4066862371811
 20
780.4879499253008
 30
0.0
 10
407.4878709505467
 20
780.2603117334263
 30
0.0
 10
407.5785518710426
 20
780.0339286023204
 30
0.0
 10
407.6787112463986
 20
779.8089400244268
 30
0.0
 10
407.7883246324454
 20
779.5854919723464
 30
0.0
 10
407.9073589109303
 20
779.3637367647048
 30
0.0
 10
408.0357706436793
 20
779.1438325838585
 30
0.0
 10
408.1735046208537
 20
778.925942661403
 30
0.0
 10
408.320492747965
 20
778.7102341713548
 30
0.0
 10
408.4766533127902
 20
778.4968768925266
 30
0.0
 10
408.6418906669976
 20
778.286041718386
 30
0.0
 10
408.8160953205078
 20
778.0778991022206
 30
0.0
 10
408.9991444183387
 20
777.872617526463
 30
0.0
 10
409.1909025439482
 20
777.6703620776156
 30
0.0
 10
409.3912227751439
 20
777.4712931937172
 30
0.0
 10
409.599947909251
 20
777.2755656319841
 30
0.0
 10
409.8169117736151
 20
777.083327682927
 30
0.0
 10
410.0419405444461
 20
776.8947206365971
 30
0.0
 10
410.2748540094359
 20
776.7098784887938
 30
0.0
 10
410.5154667251443
 20
776.5289278615118
 30
0.0
 10
410.7635890365427
 20
776.3519881031227
 30
0.0
 10
411.0190279415139
 20
776.1791715296412
 30
0.0
 10
411.2815877962091
 20
776.0105837681926
 30
0.0
 10
411.5510699029973
 20
775.8463247543494
 30
0.0
 10
411.8272717904655
 20
775.6864896679452
 30
0.0
 10
412.1099898035865
 20
775.5311678028238
 30
0.0
 10
412.3990203992687
 20
775.3804425547363
 30
0.0
 10
412.6941614954149
 20
775.2343914861809
 30
0.0
 10
412.9952099524744
 20
775.0930881652298
 30
0.0
 10
413.3019615512062
 20
774.9566024921191
 30
0.0
 10
413.6142109429688
 20
774.8250009807133
 30
0.0
 10
413.9317515845919
 20
774.6983469954868
 30
0.0
 10
414.2543756669665
 20
774.5767009465263
 30
0.0
 10
414.5818740444058
 20
774.4601204460172
 30
0.0
 10
414.9140361700545
 20
774.3486604301795
 30
0.0
 10
415.2506500411258
 20
774.2423732508572
 30
0.0
 10
415.5915021565193
 20
774.1413087409026
 30
0.0
 10
415.9363774883955
 20
774.0455142573471
 30
0.0
 10
416.2850594685156
 20
773.9550347060646
 30
0.0
 10
416.6373299895729
 20
773.8699125513023
 30
0.0
 10
416.992969421313
 20
773.7901878131064
 30
0.0
 10
417.3517566409237
 20
773.7158980553307
 30
0.0
 10
417.7134690769654
 20
773.6470783665478
 30
0.0
 10
418.0778827659678
 20
773.5837613359095
 30
0.0
 10
418.4447724207357
 20
773.5259770256857
 30
0.0
 10
418.8139115093641
 20
773.4737529419621
 30
0.0
 10
419.1850723439494
 20
773.4271140047625
 30
0.0
 10
419.5580261779922
 20
773.3860825186385
 30
0.0
 10
419.9325433115094
 20
773.3506781446237
 30
0.0
 10
420.3083932029027
 20
773.320917874272
 30
0.0
 10
420.685344586665
 20
773.2968160063991
 30
0.0
 10
421.063165596044
 20
773.2783841270062
 30
0.0
 10
421.4416238898081
 20
773.2656310927982
 30
0.0
 10
421.8204867823073
 20
773.2585630186062
 30
0.0
 10
422.1995213759957
 20
773.257183268956
 30
0.0
 10
422.5784938545612
 20
773.2614924444092
 30
0.0
 10
422.9571701934246
 20
773.2714883275781
 30
0.0
 10
423.3353165746043
 20
773.2871658771905
 30
0.0
 10
423.7127003652171
 20
773.3085173043597
 30
0.0
 10
424.0890896785234
 20
773.3355321027192
 30
0.0
 10
424.4642532367826
 20
773.3681970601799
 30
0.0
 10
424.8379605005957
 20
773.4064962821373
 30
0.0
 10
425.2099817947932
 20
773.4504112188216
 30
0.0
 10
425.5800884300125
 20
773.499920696547
 30
0.0
 10
425.9480528190883
 20
773.5550009525025
 30
0.0
 10
426.3136485873425
 20
773.6156256726599
 30
0.0
 10
426.676650675809
 20
773.68176603224
 30
0.0
 10
427.0368354363885
 20
773.7533907380636
 30
0.0
 10
427.3939807178801
 20
773.8304660719515
 30
0.0
 10
427.7478659417977
 20
773.9129559341598
 30
0.0
 10
428.0982721668479
 20
774.0008218856253
 30
0.0
 10
428.4449821409291
 20
774.0940231875617
 30
0.0
 10
428.7877803395218
 20
774.1925168366463
 30
0.0
 10
429.1264529893799
 20
774.2962575937488
 30
0.0
 10
429.4607880765231
 20
774.4051980037605
 30
0.0
 10
429.7905753376832
 20
774.5192884037128
 30
0.0
 10
430.1156062345941
 20
774.6384769159253
 30
0.0
 10
430.4356739108627
 20
774.7627094224586
 30
0.0
 10
430.7505731316385
 20
774.891929516706
 30
0.0
 10
431.0601002069594
 20
775.0260784274559
 30
0.0
 10
431.3640529005073
 20
775.1650949103893
 30
0.0
 10
431.662230326624
 20
775.3089151016375
 30
0.0
 10
431.9544328398189
 20
775.4574723278893
 30
0.0
 10
432.2404619227135
 20
775.6106968676347
 30
0.0
 10
432.5201200803913
 20
775.7685156585943
 30
0.0
 10
432.7932107514775
 20
775.9308519473549
 30
0.0
 10
433.0595375060785
 20
776.0976244136506
 30
0.0
 10
433.3189019763546
 20
776.2687452062355
 30
0.0
 10
433.5711065913169
 20
776.4441207154692
 30
0.0
 10
433.8159554587783
 20
776.623651458728
 30
0.0
 10
434.0532564866813
 20
776.8072330625677
 30
0.0
 10
434.2828194700052
 20
776.9947541175462
 30
0.0
 10
434.5044566772183
 20
777.186095603603
 30
0.0
 10
434.7179836115106
 20
777.3811303786296
 30
0.0
 10
434.9232199537055
 20
777.5797227723733
 30
0.0
 10
435.1199906836223
 20
777.7817283327394
 30
0.0
 10
435.3081273621071
 20
777.9869937724831
 30
0.0
 10
435.4874695388888
 20
778.1953571606788
 30
0.0
 10
435.6578662332115
 20
778.4066483943847
 30
0.0
 10
435.8191774168587
 20
778.6206899711565
 30
0.0
 10
435.9712754155853
 20
778.8372980631175
 30
0.0
 10
436.1140461365905
 20
779.0562838696897
 30
0.0
 10
436.2473900331106
 20
779.2774552012647
 30
0.0
 10
436.3712227175323
 20
779.5006182236576
 30
0.0
 10
436.4854751915238
 20
779.7255792748475
 30
0.0
 10
436.5900935508319
 20
779.9521466596831
 30
0.0
 10
436.685038567644
 20
780.1801323155288
 30
0.0
 10
436.7702836815423
 20
780.409353299556
 30
0.0
 10
436.8458170245372
 20
780.6396328882511
 30
0.0
 10
436.911626909875
 20
780.8708017623526
 30
0.0
 10
436.9677475353149
 20
781.1026973259666
 30
0.0
 10
437.0140803796602
 20
781.3351683238111
 30
0.0
 10
437.0510486636334
 20
781.5680581677328
 30
0.0
 10
437.0771553733491
 20
781.8012659020063
 30
0.0
 10
437.091118218512
 20
781.9570669195007
 30
0.0
 10
437.0937135456745
 20
782.0351156032115
 30
0.0
 10
437.0937197882614
 20
782.0353033351059
 30
0.0
  0
LINE
  5
15A
330
1F
100
AcDbEntity
  8
0
  6
Continuous
 62
     7
370
    30
100
AcDbLine
 10
449.7541265042
 20
846.9235615954
 30
0.0
 11
433.3519257028
 21
837.4547726216
 31
0.0
  0
LINE
  5
15B
330
1F
100
AcDbEntity
  8
0
  6
Continuous
 62
     7
370
    30
100
AcDbLine
 10
437.066361611
 20
781.715707882
 30
0.0
 11
464.7996908934
 21
797.725818092
 31
0.0
  0
SPLINE
  5
15C
330
1F
100
AcDbEntity
  8
0
  6
Continuous
 62
     7
370
    30
100
AcDbSpline
210
0.0
220
0.0
230
1.0
 70
     8
 71
     3
 72
    36
 73
    32
 74
     0
 42
0.000000001
 43
0.00000001
 40
0.0
 40
0.0
 40
0.0
 40
0.0
 40
0.0064269027054392
 40
0.0429327158315576
 40
0.0794288568319591
 40
0.1159092397631993
 40
0.1523669759315842
 40
0.1887943717213823
 40
0.2251829538894811
 40
0.2615235285841598
 40
0.2978062798498236
 40
0.334020912167127
 40
0.3701568395492784
 40
0.4062034208662514
 40
0.4421502375298197
 40
0.4779874057285535
 40
0.513705911483752
 40
0.549297953427802
 40
0.5847572759135471
 40
0.6200794742679935
 40
0.6552622549209774
 40
0.6903056357106411
 40
0.72521207556578
 40
0.7599865274547646
 40
0.7946364133446666
 40
0.8291715243387342
 40
0.8636038527046309
 40
0.8979473649232753
 40
0.9322177261466496
 40
0.9664319867005731
 40
1.0
 40
1.0
 40
1.0
 40
1.0
 10
410.8519257027781
 20
150.0323386716173
 30
0.0
 10
410.8368097893939
 20
150.0222362222055
 30
0.0
 10
410.7358331224674
 20
149.9547502791819
 30
0.0
 10
410.5559478630906
 20
149.8257706323992
 30
0.0
 10
410.312920987952
 20
149.6452715878137
 30
0.0
 10
410.078151522086
 20
149.4603661345625
 30
0.0
 10
409.8510049332621
 20
149.2716618291419
 30
0.0
 10
409.6318886686831
 20
149.0791479522588
 30
0.0
 10
409.4209269739867
 20
148.8829896618735
 30
0.0
 10
409.2183144459573
 20
148.6833158794622
 30
0.0
 10
409.0242199685946
 20
148.4802763521669
 30
0.0
 10
408.8388107741691
 20
148.274026420201
 30
0.0
 10
408.6622442165806
 20
148.064730810023
 30
0.0
 10
408.4946680967627
 20
147.8525619824224
 30
0.0
 10
408.3362187105699
 20
147.6376995555976
 30
0.0
 10
408.1870196211206
 20
147.4203290628685
 30
0.0
 10
408.0471804695078
 20
147.2006405423542
 30
0.0
 10
407.9167961203677
 20
146.9788268891124
 30
0.0
 10
407.7959461635456
 20
146.7550820795112
 30
0.0
 10
407.6846948348878
 20
146.5295993505827
 30
0.0
 10
407.5830913936213
 20
146.3025694347727
 30
0.0
 10
407.4911708828317
 20
146.0741789442679
 30
0.0
 10
407.4089554757899
 20
145.8446089871492
 30
0.0
 10
407.3364554363677
 20
145.6140340786705
 30
0.0
 10
407.2736729614548
 20
145.3826213839403
 30
0.0
 10
407.2205963531644
 20
145.1505303164951
 30
0.0
 10
407.1772306712916
 20
144.9179124487581
 30
0.0
 10
407.1434929423195
 20
144.6849118463342
 30
0.0
 10
407.1196106074413
 20
144.4516652827841
 30
0.0
 10
407.1047356919241
 20
144.2196867875912
 30
0.0
 10
407.1029131935995
 20
144.0654456927855
 30
0.0
 10
407.1020106324353
 20
143.9890604252602
 30
0.0
  0
LINE
  5
15D
330
1F
100
AcDbEntity
  8
0
  6
Continuous
 62
     7
370
    30
100
AcDbLine
 10
407.1019257028
 20
143.985742509
 30
0.0
 11
407.1019257028
 21
104.6284753761
 31
0.0
  0
SPLINE
  5
15E
330
1F
100
AcDbEntity
  8
0
  6
Continuous
 62
     7
370
    30
100
AcDbSpline
210
0.0
220
0.0
230
1.0
 70
     8
 71
     3
 72
   130
 73
   126
 74
     0
 42
0.000000001
 43
0.00000001
 40
0.0
 40
0.0
 40
0.0
 40
0.0
 40
0.0076961114883471
 40
0.0154920936736758
 40
0.0232909521265515
 40
0.0310969766582974
 40
0.0389143014179345
 40
0.0467468255305945
 40
0.0545981388330803
 40
0.0624714544538979
 40
0.070369550080999
 40
0.0782947198334794
 40
0.0862487386096109
 40
0.0942328405705694
 40
0.1022477130039308
 40
0.1102935061900029
 40
0.1183698590991602
 40
0.1264759398498049
 40
0.1346104989532687
 40
0.1427719325775038
 40
0.1509583524814963
 40
0.1591676589849513
 40
0.1673976133753824
 40
0.1756459065006059
 40
0.1839102208861428
 40
0.1921882844627492
 40
0.2004779147873241
 40
0.2087770533974119
 40
0.2170837905854703
 40
0.2253963813718027
 40
0.2337132537820857
 40
0.2420330107062267
 40
0.2503544266551215
 40
0.2586763513287238
 40
0.2669976987200802
 40
0.2753177511891682
 40
0.2836359174788336
 40
0.2919517199819704
 40
0.3002647822408311
 40
0.3085748170436676
 40
0.3168816153124724
 40
0.3251850358935917
 40
0.3334849963007546
 40
0.3417814644141834
 40
0.3500744511074185
 40
0.3583640037521373
 40
0.3666502005382798
 40
0.3749331455400275
 40
0.3832129644559426
 40
0.3914898009524227
 40
0.3997638135426301
 40
0.4080351729372804
 40
0.41630405980866
 40
0.4245706629144598
 40
0.4328351775332745
 40
0.4410978041685943
 40
0.4493587474828661
 40
0.4576182154274682
 40
0.4658764185382145
 40
0.4741335693695419
 40
0.4823898820433221
 40
0.4906455718907977
 40
0.4989008551682321
 40
0.5071559488284654
 40
0.5154110703319078
 40
0.523666382507747
 40
0.5319220857735864
 40
0.5401783982247608
 40
0.5484355378561164
 40
0.5566937223548845
 40
0.5649531688469074
 40
0.5732140935781387
 40
0.581476711512675
 40
0.5897412358266637
 40
0.5980078772750766
 40
0.606276843405579
 40
0.6145483375904413
 40
0.6228225578437324
 40
0.6310996953868492
 40
0.6393799329206985
 40
0.6476634425578573
 40
0.6559503833625749
 40
0.6642408984408947
 40
0.6725351115176433
 40
0.680833122931859
 40
0.6891350049779474
 40
0.6974407965170157
 40
0.7057504967825262
 40
0.7140640583076493
 40
0.7223813789100189
 40
0.7307022926850735
 40
0.7390265599840058
 40
0.7473538563892622
 40
0.7556837607528364
 40
0.7640157424333112
 40
0.7723491479600962
 40
0.7806831177440163
 40
0.7890164340416208
 40
0.7973479392725737
 40
0.805676300521343
 40
0.8140000028480986
 40
0.8223173471294006
 40
0.8306264537208686
 40
0.8389252733774033
 40
0.8472116067975927
 40
0.8554831339363689
 40
0.8637374538263964
 40
0.8719721350551836
 40
0.8801847762809577
 40
0.888373075289822
 40
0.8965349041884071
 40
0.9046683875046144
 40
0.9127719793570445
 40
0.9208445355576674
 40
0.928885376597952
 40
0.9368943379432082
 40
0.9448718048664159
 40
0.9528187300819299
 40
0.9607366335511639
 40
0.9686275848858236
 40
0.9764941696544343
 40
0.9843394415329322
 40
0.992166862607939
 40
0.9999802342643974
 40
1.0
 40
1.0
 40
1.0
 40
1.0
 10
407.1019881293414
 20
104.6246326928173
 30
0.0
 10
407.102915105995
 20
104.5479104580329
 30
0.0
 10
407.1047810884684
 20
104.3934703813874
 30
0.0
 10
407.11970054926
 20
104.1615316179956
 30
0.0
 10
407.1435442230879
 20
103.9289915924261
 30
0.0
 10
407.1771353490152
 20
103.6969746941288
 30
0.0
 10
407.220220007117
 20
103.4655951686764
 30
0.0
 10
407.2728535307371
 20
103.2349689163591
 30
0.0
 10
407.3350101279248
 20
103.0052145130114
 30
0.0
 10
407.406686237179
 20
102.7764544806289
 30
0.0
 10
407.4878709505443
 20
102.5488162887546
 30
0.0
 10
407.57855187104
 20
102.3224331576487
 30
0.0
 10
407.6787112463957
 20
102.0974445797546
 30
0.0
 10
407.7883246324423
 20
101.8739965276745
 30
0.0
 10
407.9073589109269
 20
101.6522413200327
 30
0.0
 10
408.0357706436756
 20
101.4323371391864
 30
0.0
 10
408.1735046208498
 20
101.2144472167307
 30
0.0
 10
408.3204927479608
 20
100.9987387266825
 30
0.0
 10
408.4766533127857
 20
100.7853814478543
 30
0.0
 10
408.6418906669929
 20
100.5745462737134
 30
0.0
 10
408.8160953205029
 20
100.3664036575481
 30
0.0
 10
408.9991444183336
 20
100.1611220817904
 30
0.0
 10
409.1909025439427
 20
99.95886663294284
 30
0.0
 10
409.3912227751383
 20
99.75979774904464
 30
0.0
 10
409.5999479092451
 20
99.56407018731139
 30
0.0
 10
409.816911773609
 20
99.37183223825419
 30
0.0
 10
410.0419405444397
 20
99.18322519192402
 30
0.0
 10
410.2748540094294
 20
98.99838304412079
 30
0.0
 10
410.5154667251375
 20
98.81743241683849
 30
0.0
 10
410.7635890365358
 20
98.6404926584492
 30
0.0
 10
411.0190279415067
 20
98.46767608496776
 30
0.0
 10
411.2815877962016
 20
98.29908832351919
 30
0.0
 10
411.5510699029896
 20
98.13482930967565
 30
0.0
 10
411.8272717904577
 20
97.97499422327138
 30
0.0
 10
412.1099898035785
 20
97.81967235815003
 30
0.0
 10
412.3990203992606
 20
97.66894711006213
 30
0.0
 10
412.6941614954065
 20
97.522896041507
 30
0.0
 10
412.9952099524659
 20
97.38159272055546
 30
0.0
 10
413.3019615511974
 20
97.24510704744482
 30
0.0
 10
413.61421094296
 20
97.11350553603887
 30
0.0
 10
413.9317515845829
 20
96.98685155081188
 30
0.0
 10
414.2543756669573
 20
96.86520550185162
 30
0.0
 10
414.5818740443965
 20
96.74862500134208
 30
0.0
 10
414.9140361700451
 20
96.63716498550434
 30
0.0
 10
415.2506500411162
 20
96.53087780618208
 30
0.0
 10
415.5915021565095
 20
96.42981329622707
 30
0.0
 10
415.9363774883856
 20
96.33401881267156
 30
0.0
 10
416.2850594685056
 20
96.24353926138896
 30
0.0
 10
416.6373299895629
 20
96.15841710662609
 30
0.0
 10
416.9929694213029
 20
96.07869236843052
 30
0.0
 10
417.3517566409134
 20
96.00440261065457
 30
0.0
 10
417.7134690769551
 20
95.93558292187122
 30
0.0
 10
418.0778827659574
 20
95.87226589123298
 30
0.0
 10
418.4447724207253
 20
95.81448158100886
 30
0.0
 10
418.8139115093536
 20
95.76225749728539
 30
0.0
 10
419.1850723439389
 20
95.71561856008537
 30
0.0
 10
419.5580261779817
 20
95.67458707396138
 30
0.0
 10
419.9325433114989
 20
95.63918269994609
 30
0.0
 10
420.308393202892
 20
95.60942242959469
 30
0.0
 10
420.6853445866543
 20
95.58532056172153
 30
0.0
 10
421.0631655960332
 20
95.56688868232848
 30
0.0
 10
421.4416238897973
 20
95.55413564812054
 30
0.0
 10
421.8204867822965
 20
95.54706757392827
 30
0.0
 10
422.1995213759849
 20
95.54568782427786
 30
0.0
 10
422.5784938545504
 20
95.549996999731
 30
0.0
 10
422.9571701934137
 20
95.55999288289973
 30
0.0
 10
423.3353165745935
 20
95.5756704325117
 30
0.0
 10
423.7127003652063
 20
95.5970218596809
 30
0.0
 10
424.0890896785127
 20
95.62403665803998
 30
0.0
 10
424.4642532367718
 20
95.65670161550077
 30
0.0
 10
424.837960500585
 20
95.6950008374578
 30
0.0
 10
425.2099817947826
 20
95.73891577414211
 30
0.0
 10
425.5800884300019
 20
95.78842525186715
 30
0.0
 10
425.9480528190777
 20
95.84350550782273
 30
0.0
 10
426.313648587332
 20
95.90413022797995
 30
0.0
 10
426.6766506757986
 20
95.97027058755981
 30
0.0
 10
427.0368354363781
 20
96.04189529338319
 30
0.0
 10
427.3939807178698
 20
96.11897062727104
 30
0.0
 10
427.7478659417875
 20
96.20146048947909
 30
0.0
 10
428.0982721668378
 20
96.28932644094468
 30
0.0
 10
428.4449821409191
 20
96.3825277428807
 30
0.0
 10
428.787780339512
 20
96.4810213919653
 30
0.0
 10
429.1264529893703
 20
96.58476214906742
 30
0.0
 10
429.4607880765136
 20
96.69370255907894
 30
0.0
 10
429.7905753376738
 20
96.80779295903163
 30
0.0
 10
430.1156062345848
 20
96.92698147124335
 30
0.0
 10
430.4356739108536
 20
97.05121397777683
 30
0.0
 10
430.7505731316296
 20
97.18043407202414
 30
0.0
 10
431.0601002069505
 20
97.31458298277373
 30
0.0
 10
431.3640529004986
 20
97.45359946570692
 30
0.0
 10
431.6622303266155
 20
97.59741965695513
 30
0.0
 10
431.9544328398106
 20
97.74597688320708
 30
0.0
 10
432.2404619227054
 20
97.89920142295183
 30
0.0
 10
432.5201200803834
 20
98.0570202139116
 30
0.0
 10
432.7932107514699
 20
98.219356502672
 30
0.0
 10
433.0595375060709
 20
98.38612896896743
 30
0.0
 10
433.3189019763473
 20
98.55724976155233
 30
0.0
 10
433.5711065913098
 20
98.73262527078586
 30
0.0
 10
433.8159554587714
 20
98.91215601404468
 30
0.0
 10
434.0532564866747
 20
99.09573761788404
 30
0.0
 10
434.2828194699987
 20
99.2832586728627
 30
0.0
 10
434.504456677212
 20
99.47460015891907
 30
0.0
 10
434.7179836115046
 20
99.66963493394576
 30
0.0
 10
434.9232199536997
 20
99.86822732768918
 30
0.0
 10
435.1199906836167
 20
100.0702328880554
 30
0.0
 10
435.3081273621018
 20
100.2754983277988
 30
0.0
 10
435.4874695388838
 20
100.4838617159946
 30
0.0
 10
435.6578662332067
 20
100.6951529497004
 30
0.0
 10
435.8191774168542
 20
100.9091945264719
 30
0.0
 10
435.971275415581
 20
101.125802618433
 30
0.0
 10
436.1140461365865
 20
101.3447884250049
 30
0.0
 10
436.2473900331067
 20
101.5659597565802
 30
0.0
 10
436.3712227175292
 20
101.7891227789729
 30
0.0
 10
436.4854751915195
 20
102.0140838301629
 30
0.0
 10
436.5900935508334
 20
102.2406512149982
 30
0.0
 10
436.685038567625
 20
102.4686368708444
 30
0.0
 10
436.7702836816008
 20
102.6978578548695
 30
0.0
 10
436.8458170243092
 20
102.9281374435726
 30
0.0
 10
436.9116269107122
 20
103.159306317644
 30
0.0
 10
436.967747532198
 20
103.3912018813699
 30
0.0
 10
437.0140803912345
 20
103.6236728787979
 30
0.0
 10
437.0510486205994
 20
103.8565627242682
 30
0.0
 10
437.0771555334374
 20
104.0897704527818
 30
0.0
 10
437.091118699901
 20
104.2455807053232
 30
0.0
 10
437.0937141615647
 20
104.3236386293581
 30
0.0
 10
437.093720710819
 20
104.3238355967048
 30
0.0
  0
LINE
  5
15F
330
1F
100
AcDbEntity
  8
0
  6
Continuous
 62
     7
370
    30
100
AcDbLine
 10
449.7541265042
 20
169.2120661508
 30
0.0
 11
433.3519257028
 21
159.7432771769
 31
0.0
  0
LINE
  5
160
330
1F
100
AcDbEntity
  8
0
  6
Continuous
 62
     7
370
    30
100
AcDbLine
 10
437.066361611
 20
104.0042124374
 30
0.0
 11
464.7996908934
 21
120.0143226473
 31
0.0
  0
SPLINE
  5
161
330
1F
100
AcDbEntity
  8
0
  6
Continuous
 62
     7
370
    30
100
AcDbSpline
210
0.0
220
0.0
230
1.0
 70
     8
 71
     3
 72
    43
 73
    39
 74
     0
 42
0.000000001
 43
0.00000001
 40
0.0
 40
0.0
 40
0.0
 40
0.0
 40
0.0018988352802396
 40
0.0301141894685725
 40
0.0583281985713418
 40
0.0865510940590387
 40
0.1147946103631458
 40
0.143070071090932
 40
0.1713881873343344
 40
0.1997588701722054
 40
0.2281910618144065
 40
0.2566925896793236
 40
0.2852700474939974
 40
0.3139287070863495
 40
0.3426724638443742
 40
0.3715038178177101
 40
0.4004238911464414
 40
0.4294324809919442
 40
0.4585281455149029
 40
0.4877083188559853
 40
0.5169694496756988
 40
0.5463071567585785
 40
0.5757163945919666
 40
0.6051916217511545
 40
0.6347269653495703
 40
0.6643163756760769
 40
0.6939537663261639
 40
0.7236331364919811
 40
0.7533486734692411
 40
0.7830948347372352
 40
0.8128664100808609
 40
0.8426585650931605
 40
0.8724668680060381
 40
0.9022873021578822
 40
0.9321162665482576
 40
0.9619505669026751
 40
0.9917873995115136
 40
0.9999999999999999
 40
0.9999999999999999
 40
0.9999999999999999
 40
0.9999999999999999
 10
399.8278926762547
 20
432.0789605325692
 30
0.0
 10
399.832743597181
 20
432.0760469767635
 30
0.0
 10
399.9096757847137
 20
432.0298400348167
 30
0.0
 10
400.063183189224
 20
431.9480770953442
 30
0.0
 10
400.2885698459617
 20
431.8344262677932
 30
0.0
 10
400.5189680798259
 20
431.7301612440161
 30
0.0
 10
400.753597951945
 20
431.6341693084558
 30
0.0
 10
400.9925443514001
 20
431.546805327887
 30
0.0
 10
401.2356610550439
 20
431.4680321546834
 30
0.0
 10
401.4828619488478
 20
431.397919928826
 30
0.0
 10
401.734041345534
 20
431.3365117303317
 30
0.0
 10
401.9890938723914
 20
431.2838590076082
 30
0.0
 10
402.2479077056141
 20
431.2400111459229
 30
0.0
 10
402.5103651152361
 20
431.2050171249305
 30
0.0
 10
402.7763412553788
 20
431.1789237406474
 30
0.0
 10
403.0457036909735
 20
431.1617746225951
 30
0.0
 10
403.3183120336521
 20
431.1536089736743
 30
0.0
 10
403.594017882627
 20
431.1544603912327
 30
0.0
 10
403.8726650262572
 20
431.1643557430178
 30
0.0
 10
404.1540899044261
 20
431.1833141705642
 30
0.0
 10
404.4381223001237
 20
431.2113462564993
 30
0.0
 10
404.724586219792
 20
431.2484533884543
 30
0.0
 10
405.0133009111826
 20
431.2946273369639
 30
0.0
 10
405.3040819626
 20
431.3498500514049
 30
0.0
 10
405.5967424269016
 20
431.4140936645329
 30
0.0
 10
405.8910939176059
 20
431.4873206854755
 30
0.0
 10
406.1869476322325
 20
431.5694843505533
 30
0.0
 10
406.4841152674848
 20
431.6605291035128
 30
0.0
 10
406.7824098042664
 20
431.7603911469461
 30
0.0
 10
407.0816461436183
 20
431.8689991115991
 30
0.0
 10
407.3816416149218
 20
431.9862745047221
 30
0.0
 10
407.682216273393
 20
432.112133056291
 30
0.0
 10
407.9831933312504
 20
432.2464826590895
 30
0.0
 10
408.2843984982254
 20
432.3892338822015
 30
0.0
 10
408.5856628834089
 20
432.5402633123056
 30
0.0
 10
408.8868121772399
 20
432.6995527572326
 30
0.0
 10
409.1150133471889
 20
432.8262972587643
 30
0.0
 10
409.2427833389606
 20
432.8997561494124
 30
0.0
 10
409.2703612504148
 20
432.9156115373148
 30
0.0
  0
LINE
  5
162
330
1F
100
AcDbEntity
  8
0
  6
Continuous
 62
     7
370
    30
100
AcDbLine
 10
380.0274496972
 20
443.5091649017
 30
0.0
 11
399.8264395704
 21
432.0794513362
 31
0.0
  0
SPLINE
  5
163
330
1F
100
AcDbEntity
  8
0
  6
Continuous
 62
     7
370
    30
100
AcDbSpline
210
0.0
220
0.0
230
1.0
 70
     8
 71
     3
 72
    29
 73
    25
 74
     0
 42
0.000000001
 43
0.00000001
 40
0.0
 40
0.0
 40
0.0
 40
0.0
 40
0.0104583237178309
 40
0.057790565418524
 40
0.1051225688437887
 40
0.1524714888199872
 40
0.1998558999245741
 40
0.2472936869553532
 40
0.2948017321435222
 40
0.3423956256501361
 40
0.3900894062828677
 40
0.4378953389951237
 40
0.485823735299955
 40
0.5338828219635192
 40
0.5820786621832458
 40
0.6304151318533304
 40
0.6788939515369418
 40
0.7275147724781597
 40
0.7762753125934018
 40
0.8251715360652667
 40
0.874197868170759
 40
0.9233474355035538
 40
0.972612320946819
 40
0.9999999999999999
 40
0.9999999999999999
 40
0.9999999999999999
 40
0.9999999999999999
 10
375.9803312742443
 20
443.4782962297281
 30
0.0
 10
375.9965369013776
 20
443.4686462680127
 30
0.0
 10
376.086085894148
 20
443.4153225462719
 30
0.0
 10
376.253696872898
 20
443.3265029751858
 30
0.0
 10
376.4831777529366
 20
443.2123288587111
 30
0.0
 10
376.7175362913304
 20
443.1073316218734
 30
0.0
 10
376.9561562824097
 20
443.0106665502489
 30
0.0
 10
377.1990810152835
 20
442.9226161000535
 30
0.0
 10
377.4461770135649
 20
442.8431620387813
 30
0.0
 10
377.6973561377922
 20
442.7723687067069
 30
0.0
 10
377.9525145392606
 20
442.71027979514
 30
0.0
 10
378.2115476406806
 20
442.656945424776
 30
0.0
 10
378.4743447904247
 20
442.6124139811659
 30
0.0
 10
378.7407895304708
 20
442.5767332328355
 30
0.0
 10
379.010758543851
 20
442.5499486899375
 30
0.0
 10
379.2841212657505
 20
442.5321029565731
 30
0.0
 10
379.5607393898462
 20
442.5232333951045
 30
0.0
 10
379.8404675168235
 20
442.5233753839715
 30
0.0
 10
380.1231507991062
 20
442.5325449246174
 30
0.0
 10
380.4086349862634
 20
442.5507989791878
 30
0.0
 10
380.6967310993909
 20
442.5780051086737
 30
0.0
 10
380.9873510570079
 20
442.614701068113
 30
0.0
 10
381.2364702898053
 20
442.6523016022102
 30
0.0
 10
381.3892257687248
 20
442.6811964997103
 30
0.0
 10
381.4438047388838
 20
442.6915205401934
 30
0.0
  0
LINE
  5
164
330
1F
100
AcDbEntity
  8
0
  6
Continuous
 62
     7
370
    30
100
AcDbLine
 10
372.9461087362
 20
487.95172433
 30
0.0
 11
370.1543200934
 21
489.5633896082
 31
0.0
  0
LINE
  5
165
330
1F
100
AcDbEntity
  8
0
  6
Continuous
 62
     7
370
    30
100
AcDbLine
 10
393.0878488912
 20
476.3241452385
 30
0.0
 11
391.8038799282
 21
477.0653647435
 31
0.0
  0
LINE
  5
166
330
1F
100
AcDbEntity
  8
0
  6
Continuous
 62
     7
370
    30
100
AcDbLine
 10
351.6558235397
 20
457.5195817001
 30
0.0
 11
375.9802968125
 21
443.4773621767
 31
0.0
  0
SPLINE
  5
167
330
1F
100
AcDbEntity
  8
0
  6
Continuous
 62
     7
370
    30
100
AcDbSpline
210
0.0
220
0.0
230
1.0
 70
     8
 71
     3
 72
   108
 73
   104
 74
     0
 42
0.000000001
 43
0.00000001
 40
0.0
 40
0.0
 40
0.0
 40
0.0
 40
0.005324349117356
 40
0.0153760153475982
 40
0.0254254803305877
 40
0.0354731165910025
 40
0.0455185247015849
 40
0.0555613835207986
 40
0.0656014415415753
 40
0.0756385089109524
 40
0.0856724500538862
 40
0.0957031769270363
 40
0.105730642904892
 40
0.115754837281947
 40
0.1257757803634959
 40
0.1357935191087733
 40
0.145808123285784
 40
0.1558196820957661
 40
0.1658283012236686
 40
0.1758341002733737
 40
0.1858372105470945
 40
0.1958377731320625
 40
0.20583593725879
 40
0.2158318588998672
 40
0.2258256995793131
 40
0.2358176253667466
 40
0.2458078060322547
 40
0.2557964143407907
 40
0.2657836254668301
 40
0.2757696165123631
 40
0.2857545661125734
 40
0.2957386541155998
 40
0.3057220613237261
 40
0.3157049692847592
 40
0.3256875601230731
 40
0.3356700164007144
 40
0.3456525209993218
 40
0.3556352021214438
 40
0.3656182368868368
 40
0.3756018085677905
 40
0.385586100360427
 40
0.3955712952508919
 40
0.4055575758535935
 40
0.415545124211806
 40
0.4255341215502848
 40
0.4355247479685175
 40
0.4455171820623013
 40
0.4555116004600404
 40
0.4655081772583711
 40
0.4755070833401679
 40
0.4855084855559985
 40
0.4955125457478152
 40
0.5055194195910041
 40
0.5155292552288464
 40
0.5255421916699313
 40
0.5355583569163885
 40
0.5455778657880396
 40
0.5556008174040165
 40
0.5656272922811855
 40
0.5756573490061798
 40
0.585691020436248
 40
0.5957283093838011
 40
0.6057691837407461
 40
0.615813571002012
 40
0.6258613521544713
 40
0.6359123549077779
 40
0.6459663462595778
 40
0.6560230244095313
 40
0.6660820100669153
 40
0.6761428372360226
 40
0.6862049436136317
 40
0.6962676308394098
 40
0.7063298565051401
 40
0.7163906680640356
 40
0.7264489772498909
 40
0.7365035537743005
 40
0.7465530214769577
 40
0.7565958576550298
 40
0.7666303964354684
 40
0.7766548370805473
 40
0.7866672580857005
 40
0.7966656378204632
 40
0.8066478822652924
 40
0.8166118600999915
 40
0.8265554450070454
 40
0.8364765645812673
 40
0.8463732547169516
 40
0.856243717821213
 40
0.8660863827332256
 40
0.8758999638706351
 40
0.8856835169290707
 40
0.895436488461576
 40
0.9051587568730016
 40
0.9148506627627252
 40
0.9245130270952778
 40
0.9341471563123288
 40
0.9437548341542695
 40
0.9533383005707972
 40
0.9629002186180209
 40
0.972443630634684
 40
0.9819719052522935
 40
0.9914886769331323
 40
1.0
 40
1.0
 40
1.0
 40
1.0
 10
388.4714526445554
 20
473.6591564111501
 30
0.0
 10
388.4184015019489
 20
473.6282987662159
 30
0.0
 10
388.2651968256692
 20
473.5391859729634
 30
0.0
 10
388.0122666724438
 20
473.3857676574675
 30
0.0
 10
387.7130164966014
 20
473.1964723271211
 30
0.0
 10
387.4146618382062
 20
472.9994363859668
 30
0.0
 10
387.1173387892046
 20
472.7949150392759
 30
0.0
 10
386.8211993682697
 20
472.5829969294821
 30
0.0
 10
386.5263914235725
 20
472.3638199926639
 30
0.0
 10
386.2330619143384
 20
472.1375121257592
 30
0.0
 10
385.941356188531
 20
471.9042070315926
 30
0.0
 10
385.6514183074154
 20
471.6640399425336
 30
0.0
 10
385.3633910648965
 20
471.4171487439162
 30
0.0
 10
385.0774160647867
 20
471.1636736577589
 30
0.0
 10
384.7936337601842
 20
470.9037573153376
 30
0.0
 10
384.5121834823367
 20
470.6375447262436
 30
0.0
 10
384.2332034535195
 20
470.3651832736903
 30
0.0
 10
383.9568307873091
 20
470.0868226996924
 30
0.0
 10
383.6832014772449
 20
469.8026150886172
 30
0.0
 10
383.4124503754584
 20
469.5127148459359
 30
0.0
 10
383.1447111625888
 20
469.2172786723925
 30
0.0
 10
382.8801163102702
 20
468.9164655331282
 30
0.0
 10
382.6187970373546
 20
468.6104366216605
 30
0.0
 10
382.3608832609495
 20
468.2993553186655
 30
0.0
 10
382.1065035432375
 20
467.9833871456093
 30
0.0
 10
381.8557850349637
 20
467.662699713345
 30
0.0
 10
381.6088534163823
 20
467.337462665826
 30
0.0
 10
381.3658328363737
 20
467.0078476191509
 30
0.0
 10
381.1268458503712
 20
466.6740280961546
 30
0.0
 10
380.892013357669
 20
466.3361794568076
 30
0.0
 10
380.6614545386217
 20
465.9944788246821
 30
0.0
 10
380.4352867921955
 20
465.6491050097674
 30
0.0
 10
380.2136256742797
 20
465.3002384279199
 30
0.0
 10
379.9965848371311
 20
464.9480610172411
 30
0.0
 10
379.7842759702785
 20
464.5927561516779
 30
0.0
 10
379.5768087432029
 20
464.2345085521818
 30
0.0
 10
379.3742911212178
 20
463.8735048573386
 30
0.0
 10
379.1768289397888
 20
463.5099329640897
 30
0.0
 10
378.984525805946
 20
463.1439818557265
 30
0.0
 10
378.7974827199041
 20
462.7758408210636
 30
0.0
 10
378.6157983658088
 20
462.4056999429012
 30
0.0
 10
378.4395691103464
 20
462.0337500751654
 30
0.0
 10
378.2688889642184
 20
461.660182745682
 30
0.0
 10
378.103849546938
 20
461.285190059237
 30
0.0
 10
377.9445400550637
 20
460.9089646013543
 30
0.0
 10
377.7910472339577
 20
460.5316993432781
 30
0.0
 10
377.6434553531381
 20
460.1535875486521
 30
0.0
 10
377.5018461852523
 20
459.7748226824585
 30
0.0
 10
377.3662989886747
 20
459.3955983228015
 30
0.0
 10
377.2368904936748
 20
459.0161080761853
 30
0.0
 10
377.1136948920596
 20
458.6365454969839
 30
0.0
 10
376.9967838301246
 20
458.2571040118601
 30
0.0
 10
376.8862264046708
 20
457.8779768499518
 30
0.0
 10
376.7820891617584
 20
457.4993569797095
 30
0.0
 10
376.6844360977508
 20
457.1214370533269
 30
0.0
 10
376.5933286620782
 20
456.7444093597704
 30
0.0
 10
376.5088257609924
 20
456.3684657874706
 30
0.0
 10
376.4309837614053
 20
455.9937977977692
 30
0.0
 10
376.3598564936922
 20
455.6205964102566
 30
0.0
 10
376.2954952520996
 20
455.2490522011191
 30
0.0
 10
376.2379487911218
 20
454.8793553155922
 30
0.0
 10
376.1872633158983
 20
454.5116954955197
 30
0.0
 10
376.1434824643428
 20
454.1462621228781
 30
0.0
 10
376.1066472783417
 20
453.7832442798896
 30
0.0
 10
376.0767961609658
 20
453.4228308260096
 30
0.0
 10
376.0539648162385
 20
453.0652104916167
 30
0.0
 10
376.0381861676128
 20
452.7105719876018
 30
0.0
 10
376.0294902509596
 20
452.3591041292607
 30
0.0
 10
376.027904077595
 20
452.0109959718752
 30
0.0
 10
376.0334514627347
 20
451.6664369541125
 30
0.0
 10
376.0461528021947
 20
451.3256173821933
 30
0.0
 10
376.0660246289434
 20
450.9887310966019
 30
0.0
 10
376.093079166492
 20
450.655973035404
 30
0.0
 10
376.1273239625251
 20
450.3275389867881
 30
0.0
 10
376.1687618599596
 20
450.0036232424582
 30
0.0
 10
376.2173904002075
 20
449.6844210063164
 30
0.0
 10
376.2732013301759
 20
449.3701282981194
 30
0.0
 10
376.3361800796501
 20
449.0609417626191
 30
0.0
 10
376.4063052231389
 20
448.7570583680208
 30
0.0
 10
376.4835479450555
 20
448.4586749786795
 30
0.0
 10
376.5678715318049
 20
448.1659877907744
 30
0.0
 10
376.6592309185539
 20
447.8791916254896
 30
0.0
 10
376.7575723215827
 20
447.5984790820871
 30
0.0
 10
376.8628329885179
 20
447.3240395629503
 30
0.0
 10
376.9749410978236
 20
447.0560581936465
 30
0.0
 10
377.0938158351877
 20
446.7947146724676
 30
0.0
 10
377.2193676676945
 20
446.5401820945453
 30
0.0
 10
377.3514988270267
 20
446.2926258041601
 30
0.0
 10
377.4901040010672
 20
446.0522023341134
 30
0.0
 10
377.6350712197399
 20
445.819058491192
 30
0.0
 10
377.7862829085845
 20
445.5933306439975
 30
0.0
 10
377.9436170679193
 20
445.3751442535307
 30
0.0
 10
378.106948539798
 20
445.1646136965963
 30
0.0
 10
378.2761502685768
 20
444.9618423278271
 30
0.0
 10
378.451094647859
 20
444.7669230328458
 30
0.0
 10
378.6316543490111
 20
444.5799383011378
 30
0.0
 10
378.8177046338848
 20
444.4009633151903
 30
0.0
 10
379.0091194948432
 20
444.2300588797654
 30
0.0
 10
379.2057899174345
 20
444.067302947974
 30
0.0
 10
379.4075589002907
 20
443.9126791401273
 30
0.0
 10
379.614465223246
 20
443.7664977391249
 30
0.0
 10
379.8184505323813
 20
443.6326794938713
 30
0.0
 10
379.9558724579987
 20
443.551760880329
 30
0.0
 10
380.0207513274394
 20
443.5135580379531
 30
0.0
  0
LINE
  5
168
330
1F
100
AcDbEntity
  8
0
  6
Continuous
 62
     7
370
    30
100
AcDbLine
 10
437.1019257028
 20
387.1416810251
 30
0.0
 11
437.1019257028
 21
486.7596600752
 31
0.0
  0
LINE
  5
169
330
1F
100
AcDbEntity
  8
0
  6
Continuous
 62
     7
370
    30
100
AcDbLine
 10
407.1019257028
 20
431.87832348
 30
0.0
 11
407.1019257028
 21
387.1416810251
 31
0.0
  0
LINE
  5
16A
330
1F
100
AcDbEntity
  8
0
  6
Continuous
 62
     7
370
    30
100
AcDbLine
 10
407.1019257028
 20
486.7596600752
 30
0.0
 11
407.1019257028
 21
482.1223140564
 31
0.0
  0
LINE
  5
16B
330
1F
100
AcDbEntity
  8
0
  6
Continuous
 62
     7
370
    30
100
AcDbLine
 10
377.8207567886
 20
445.0323961583
 30
0.0
 11
378.5278635698
 21
444.6241921024
 31
0.0
  0
SPLINE
  5
16C
330
1F
100
AcDbEntity
  8
0
  6
Continuous
 62
     7
370
    30
100
AcDbSpline
210
0.0
220
0.0
230
1.0
 70
     8
 71
     3
 72
   107
 73
   103
 74
     0
 42
0.000000001
 43
0.00000001
 40
0.0
 40
0.0
 40
0.0
 40
0.0
 40
0.0077956915928357
 40
0.0186116253766768
 40
0.0295670378867536
 40
0.0406345697775096
 40
0.0517749675251375
 40
0.062932314794373
 40
0.0743214503839637
 40
0.0857159966947406
 40
0.0971132542013246
 40
0.1084771351556964
 40
0.1197805137292588
 40
0.1310038979289369
 40
0.1421391192980245
 40
0.1528780393284651
 40
0.1637319784529386
 40
0.1744371717399363
 40
0.1849804335834297
 40
0.1953519380805183
 40
0.2055436199112437
 40
0.2155485470814098
 40
0.2255460209977829
 40
0.2355180573693113
 40
0.2454024077791626
 40
0.2552140346069856
 40
0.2649681128661279
 40
0.2746797457871304
 40
0.2843639120370514
 40
0.2940116746485349
 40
0.3035708170286758
 40
0.3131011499414365
 40
0.3226214709864777
 40
0.3321376888780929
 40
0.3416554040614129
 40
0.3511786702439589
 40
0.3607120050714744
 40
0.3702700967022312
 40
0.3797923022661819
 40
0.389366483143305
 40
0.3990108141525535
 40
0.4087039595721643
 40
0.4184227664713567
 40
0.428140515137398
 40
0.4378243419668036
 40
0.4474974934602601
 40
0.4572313538121002
 40
0.4670288120867081
 40
0.4768856787671865
 40
0.4867966584515651
 40
0.4967553323990749
 40
0.5067541957348892
 40
0.5167847224205857
 40
0.5268374603334235
 40
0.5369021572870211
 40
0.5469666356560889
 40
0.557017014250185
 40
0.5670416454227776
 40
0.5770289355733407
 40
0.5869779533901136
 40
0.5969589471381365
 40
0.6069997925603758
 40
0.6170463698672141
 40
0.6270652884826684
 40
0.6370319393436438
 40
0.646922817497007
 40
0.6567215913855113
 40
0.6665533821568929
 40
0.6763683848038862
 40
0.6861468934828361
 40
0.6959019253668011
 40
0.7056467508593733
 40
0.7153948669242858
 40
0.7251501763016706
 40
0.7346981569622006
 40
0.7444791967253647
 40
0.7542918293313221
 40
0.7641045242338382
 40
0.7738775632193651
 40
0.7835815429635776
 40
0.7931927024340062
 40
0.8028230355797211
 40
0.8126311694271222
 40
0.8224597539389625
 40
0.8323223259304907
 40
0.8422320499273982
 40
0.8522019008644408
 40
0.862242234195779
 40
0.872162346316985
 40
0.8822942006145581
 40
0.892495140101232
 40
0.9027413836415399
 40
0.9130071968354665
 40
0.9232618181101861
 40
0.9334802182364871
 40
0.9437866089213142
 40
0.9541717710125052
 40
0.9645703907547818
 40
0.9749871265564948
 40
0.9854268383557805
 40
0.9958946214142494
 40
1.0
 40
1.0
 40
1.0
 40
1.0
 10
391.8006594867094
 20
477.0660287872171
 30
0.0
 10
391.7614716566312
 20
477.0884457906681
 30
0.0
 10
391.6679136696259
 20
477.1419646947101
 30
0.0
 10
391.5127403172121
 20
477.2182560341592
 30
0.0
 10
391.3354999475768
 20
477.2966174947677
 30
0.0
 10
391.15058221697
 20
477.3682177531069
 30
0.0
 10
390.9586171350412
 20
477.4332510295285
 30
0.0
 10
390.7589468861306
 20
477.4918009644663
 30
0.0
 10
390.5523037205801
 20
477.5438940750484
 30
0.0
 10
390.3378544773449
 20
477.5897885042291
 30
0.0
 10
390.1172645981387
 20
477.6293099835073
 30
0.0
 10
389.8907864107998
 20
477.6626962110556
 30
0.0
 10
389.6588540660754
 20
477.6901962166339
 30
0.0
 10
389.421920795156
 20
477.7121080870059
 30
0.0
 10
389.1819496541345
 20
477.7286331310905
 30
0.0
 10
388.9379760567774
 20
477.7401799295768
 30
0.0
 10
388.6907364107269
 20
477.7471755551982
 30
0.0
 10
388.4383842044705
 20
477.749960128085
 30
0.0
 10
388.1832978124326
 20
477.7488223545114
 30
0.0
 10
387.9259204952612
 20
477.7440761513972
 30
0.0
 10
387.6666860775782
 20
477.7360214302345
 30
0.0
 10
387.4044029079808
 20
477.7248437381113
 30
0.0
 10
387.1382577467865
 20
477.710780779457
 30
0.0
 10
386.8673339812178
 20
477.6939748807606
 30
0.0
 10
386.5924111898123
 20
477.6746592846939
 30
0.0
 10
386.313988497564
 20
477.6530671162171
 30
0.0
 10
386.0318672135193
 20
477.6293713820746
 30
0.0
 10
385.7458380497041
 20
477.6037306245767
 30
0.0
 10
385.4559186828037
 20
477.5763125811566
 30
0.0
 10
385.162838413449
 20
477.5473490414224
 30
0.0
 10
384.8668434428208
 20
477.5170542816994
 30
0.0
 10
384.5679315127122
 20
477.4856009219839
 30
0.0
 10
384.265460725596
 20
477.4530904492894
 30
0.0
 10
383.9593389025587
 20
477.4196792489535
 30
0.0
 10
383.6496284125671
 20
477.3855415340258
 30
0.0
 10
383.3364047077102
 20
477.3508550467857
 30
0.0
 10
383.0196517957886
 20
477.3157875668867
 30
0.0
 10
382.7000396523007
 20
477.2805907872075
 30
0.0
 10
382.3773330093835
 20
477.2454258838173
 30
0.0
 10
382.0513116888428
 20
477.2104422760855
 30
0.0
 10
381.7212451628186
 20
477.1757489311993
 30
0.0
 10
381.3876591106706
 20
477.1415976993565
 30
0.0
 10
381.0515998676522
 20
477.1082966517019
 30
0.0
 10
380.7142606003815
 20
477.0761685635111
 30
0.0
 10
380.3763048607235
 20
477.0454713587832
 30
0.0
 10
380.0372690233035
 20
477.0164083683429
 30
0.0
 10
379.6962704759796
 20
476.9890985964223
 30
0.0
 10
379.3527329285203
 20
476.9637055920956
 30
0.0
 10
379.0069747300578
 20
476.9404780090434
 30
0.0
 10
378.6594233632946
 20
476.9196752665625
 30
0.0
 10
378.3105453415108
 20
476.9015609012421
 30
0.0
 10
377.9608446697188
 20
476.8864000168247
 30
0.0
 10
377.6108599408229
 20
476.874456699165
 30
0.0
 10
377.2611602736955
 20
476.8659911044016
 30
0.0
 10
376.9123549038808
 20
476.8612565556556
 30
0.0
 10
376.5651009188875
 20
476.8604956222728
 30
0.0
 10
376.220066408171
 20
476.863934786067
 30
0.0
 10
375.8779075245213
 20
476.8717834805431
 30
0.0
 10
375.5391250838717
 20
476.884231200792
 30
0.0
 10
375.2033066996188
 20
476.9015191837232
 30
0.0
 10
374.8695384952756
 20
476.9238650422999
 30
0.0
 10
374.5375673624133
 20
476.9514644331208
 30
0.0
 10
374.2082947027798
 20
476.9844484297647
 30
0.0
 10
373.8831754509076
 20
477.0228378475932
 30
0.0
 10
373.5633028399697
 20
477.0666390655323
 30
0.0
 10
373.2495755234538
 20
477.1158263724788
 30
0.0
 10
372.9412833644373
 20
477.1706558338822
 30
0.0
 10
372.6378496696602
 20
477.2312147348421
 30
0.0
 10
372.3390277870564
 20
477.2977029750942
 30
0.0
 10
372.0455895697815
 20
477.3700522697427
 30
0.0
 10
371.7576677401489
 20
477.4483036692608
 30
0.0
 10
371.4750646020141
 20
477.5325798548444
 30
0.0
 10
371.1976543108463
 20
477.6230152402792
 30
0.0
 10
370.9275184349297
 20
477.7188988142324
 30
0.0
 10
370.6628371573398
 20
477.8210771385799
 30
0.0
 10
370.4031991652714
 20
477.9296144138859
 30
0.0
 10
370.1471743676454
 20
478.0452458676312
 30
0.0
 10
369.8973834442995
 20
478.1668445022576
 30
0.0
 10
369.6549162555567
 20
478.2938496006968
 30
0.0
 10
369.4206751983188
 20
478.4256903453792
 30
0.0
 10
369.1945697334389
 20
478.5624204533502
 30
0.0
 10
368.9739547671377
 20
478.7054402544747
 30
0.0
 10
368.7587472986393
 20
478.8548501766425
 30
0.0
 10
368.5490403515986
 20
479.0107990409128
 30
0.0
 10
368.3460212235786
 20
479.1724495854181
 30
0.0
 10
368.1495882110707
 20
479.3398882520631
 30
0.0
 10
367.9597077277165
 20
479.5131840339345
 30
0.0
 10
367.7775080670501
 20
479.6912183719904
 30
0.0
 10
367.6025852856957
 20
479.8744371773555
 30
0.0
 10
367.434644953307
 20
480.0630566353692
 30
0.0
 10
367.2732017646162
 20
480.2576902964468
 30
0.0
 10
367.1195004541142
 20
480.4568427350273
 30
0.0
 10
366.9741544005303
 20
480.6596296918351
 30
0.0
 10
366.8377036551107
 20
480.8651131661368
 30
0.0
 10
366.7100350938631
 20
481.0734123869812
 30
0.0
 10
366.5904453839531
 20
481.2852864511709
 30
0.0
 10
366.4792685474267
 20
481.5002025097058
 30
0.0
 10
366.3768673672041
 20
481.7174601934733
 30
0.0
 10
366.2835061940746
 20
481.9362534827351
 30
0.0
 10
366.1993304214384
 20
482.1563096194
 30
0.0
 10
366.1392296410535
 20
482.332349352881
 30
0.0
 10
366.1076830977798
 20
482.4349092133985
 30
0.0
 10
366.0987961790472
 20
482.4638011632309
 30
0.0
  0
SPLINE
  5
16D
330
1F
100
AcDbEntity
  8
0
  6
Continuous
 62
     7
370
    30
100
AcDbSpline
210
0.0
220
0.0
230
1.0
 70
     8
 71
     3
 72
    15
 73
    11
 74
     0
 42
0.000000001
 43
0.00000001
 40
0.0
 40
0.0
 40
0.0
 40
0.0
 40
0.0690142717077914
 40
0.2070465853634626
 40
0.3445490847959391
 40
0.4817201977613183
 40
0.6186867326051536
 40
0.7555802805705906
 40
0.892537175737409
 40
1.0
 40
1.0
 40
1.0
 40
1.0
 10
366.0987961790472
 20
482.4638011632309
 30
0.0
 10
366.087997113216
 20
482.5002449578747
 30
0.0
 10
366.055599325771
 20
482.609578332725
 30
0.0
 10
366.0084608363499
 20
482.7910534024608
 30
0.0
 10
365.9607182110984
 20
483.0073723967881
 30
0.0
 10
365.9223630765421
 20
483.2216366865345
 30
0.0
 10
365.8930245869415
 20
483.4337558866499
 30
0.0
 10
365.8729818894879
 20
483.6433279280611
 30
0.0
 10
365.8616722271163
 20
483.8359792135679
 30
0.0
 10
365.8611477798385
 20
483.9566085256201
 30
0.0
 10
365.8609171986653
 20
484.0096450260801
 30
0.0
  0
SPLINE
  5
16E
330
1F
100
AcDbEntity
  8
0
  6
Continuous
 62
     7
370
    30
100
AcDbSpline
210
0.0
220
0.0
230
1.0
 70
     8
 71
     3
 72
    48
 73
    44
 74
     0
 42
0.000000001
 43
0.00000001
 40
0.0
 40
0.0
 40
0.0
 40
0.0
 40
0.0138943825835215
 40
0.0365524488790822
 40
0.059161220181044
 40
0.0814501430746565
 40
0.1037820881757288
 40
0.1262854007566363
 40
0.148917857874846
 40
0.1716349369171422
 40
0.1943894578095432
 40
0.2171222656016496
 40
0.2397844049797046
 40
0.2625999664597179
 40
0.2857320482113291
 40
0.3091593039753213
 40
0.3328837915710915
 40
0.3569046919861193
 40
0.3812182647987939
 40
0.4058175639168285
 40
0.4306921593142524
 40
0.4558278758732224
 40
0.4812065664144767
 40
0.5068059397752375
 40
0.5325994679520721
 40
0.5585563980737013
 40
0.5846234594340695
 40
0.6108808638789243
 40
0.6375567266560839
 40
0.6643149520953601
 40
0.6911536045811533
 40
0.7180692175381197
 40
0.7450645123315562
 40
0.7721610798196857
 40
0.7990065299555574
 40
0.8258599756984414
 40
0.852639308921317
 40
0.87928188479979
 40
0.9057283360865315
 40
0.931926087872977
 40
0.9579057376753713
 40
0.9838310192257564
 40
1.0
 40
1.0
 40
1.0
 40
1.0
 10
379.1126847267421
 20
476.9479907335055
 30
0.0
 10
379.1187377878844
 20
477.0106604265155
 30
0.0
 10
379.1346617921813
 20
477.1755278278735
 30
0.0
 10
379.1495969842578
 20
477.442777783803
 30
0.0
 10
379.1585075037584
 20
477.7483231163226
 30
0.0
 10
379.1571821691432
 20
478.0521469515959
 30
0.0
 10
379.1465111666802
 20
478.3549801950381
 30
0.0
 10
379.1263222337283
 20
478.6586650109767
 30
0.0
 10
379.0965894536764
 20
478.9631751507835
 30
0.0
 10
379.0573013519074
 20
479.267708139433
 30
0.0
 10
379.0085212305119
 20
479.5713631262042
 30
0.0
 10
378.9503382434864
 20
479.8733181358624
 30
0.0
 10
378.8827140923727
 20
480.1736066374552
 30
0.0
 10
378.8056013357451
 20
480.4733563942203
 30
0.0
 10
378.7186241890693
 20
480.7739276361091
 30
0.0
 10
378.6215822006204
 20
481.0756246533998
 30
0.0
 10
378.5144761831816
 20
481.3780517940706
 30
0.0
 10
378.3972982957991
 20
481.6808830666786
 30
0.0
 10
378.2700667707526
 20
481.9837531621737
 30
0.0
 10
378.1328312244555
 20
482.2862548568044
 30
0.0
 10
377.9856778442263
 20
482.5879375374523
 30
0.0
 10
377.8287343651432
 20
482.8883065967351
 30
0.0
 10
377.6621770588468
 20
483.186821327724
 30
0.0
 10
377.486229370541
 20
483.4829035986747
 30
0.0
 10
377.301190455056
 20
483.7759114686328
 30
0.0
 10
377.1073935463145
 20
484.0651836034825
 30
0.0
 10
376.9052055409154
 20
484.3501429001952
 30
0.0
 10
376.6942333750733
 20
484.6316794463426
 30
0.0
 10
376.4745634677915
 20
484.9093041230872
 30
0.0
 10
376.2466710673718
 20
485.1822434910084
 30
0.0
 10
376.0117666551204
 20
485.4490422259026
 30
0.0
 10
375.7701501562836
 20
485.7094173445944
 30
0.0
 10
375.5220584626207
 20
485.9632401665718
 30
0.0
 10
375.2686074094469
 20
486.2092345444248
 30
0.0
 10
375.0104972561019
 20
486.4469172286047
 30
0.0
 10
374.7485791145568
 20
486.675732559314
 30
0.0
 10
374.4827757100564
 20
486.8958616279171
 30
0.0
 10
374.2140725550457
 20
487.1066173414774
 30
0.0
 10
373.9432587551321
 20
487.307442829316
 30
0.0
 10
373.6712548626172
 20
487.4980376935198
 30
0.0
 10
373.3975593434632
 20
487.6784593773911
 30
0.0
 10
373.1566710876955
 20
487.8292668302574
 30
0.0
 10
373.0057926742572
 20
487.916208309676
 30
0.0
 10
372.9478382160624
 20
487.9496037187311
 30
0.0
  0
LINE
  5
16F
330
1F
100
AcDbEntity
  8
0
  6
Continuous
 62
     7
370
    30
100
AcDbLine
 10
407.1019257028
 20
484.414299578
 30
0.0
 11
388.4714526446
 21
473.6591564112
 31
0.0
  0
LINE
  5
170
330
1F
100
AcDbEntity
  8
0
  6
Continuous
 62
     7
370
    30
100
AcDbLine
 10
409.2703612504
 20
432.9156115373
 30
0.0
 11
429.4713105991
 21
444.5773713688
 31
0.0
  0
SPLINE
  5
171
330
1F
100
AcDbEntity
  8
0
  6
Continuous
 62
     7
370
    30
100
AcDbSpline
210
0.0
220
0.0
230
1.0
 70
     8
 71
     3
 72
   145
 73
   141
 74
     0
 42
0.000000001
 43
0.00000001
 40
0.0
 40
0.0
 40
0.0
 40
0.0
 40
0.0024045079002002
 40
0.009400750194789
 40
0.0163971657321325
 40
0.0233963909799211
 40
0.0304011625182449
 40
0.0374141096830736
 40
0.0444377086638602
 40
0.0514742401593988
 40
0.0585257516106016
 40
0.0655940249750934
 40
0.072680550939902
 40
0.0797865103495723
 40
0.0869127634476753
 40
0.0940598472867197
 40
0.1012279813620063
 40
0.1084170811840362
 40
0.1156267791498488
 40
0.1228564517351541
 40
0.1301052517416411
 40
0.1373721441265312
 40
0.144655943834933
 40
0.1519553540597387
 40
0.1592690034630554
 40
0.1665954810929406
 40
0.1739333679909457
 40
0.1812812647828537
 40
0.1886378148445993
 40
0.1960017229140626
 40
0.2033717692566707
 40
0.2107468196792165
 40
0.2181258318167788
 40
0.2255078581963358
 40
0.2328920466119682
 40
0.240277638342825
 40
0.2476639647124357
 40
0.2550503325003864
 40
0.2624361974589278
 40
0.2698211536472734
 40
0.2772048607978196
 40
0.2845870381456934
 40
0.2919674584300737
 40
0.299345942181527
 40
0.3067223523620803
 40
0.3140965893983713
 40
0.3214685866264345
 40
0.3288383061513094
 40
0.3362057351126073
 40
0.3435708823388968
 40
0.3509337753689357
 40
0.3582944578136653
 40
0.3656529870321209
 40
0.373009432093252
 40
0.3803638719968419
 40
0.3877163941272315
 40
0.3950670929151629
 40
0.4024160686849694
 40
0.4097634266658315
 40
0.4171092761476436
 40
0.4244537297642803
 40
0.4317969028878082
 40
0.439138913119896
 40
0.4464798798671534
 40
0.4538199239889551
 40
0.4611591675076052
 40
0.4684977333710463
 40
0.4758357452602138
 40
0.4831733274329727
 40
0.490510604597903
 40
0.4978477018114013
 40
0.5051847443920824
 40
0.51252184941932
 40
0.5198591091024162
 40
0.5271966491444536
 40
0.5345345952541535
 40
0.5418730730665882
 40
0.5492122080515217
 40
0.5565521254021465
 40
0.5638929498979495
 40
0.5712348057349087
 40
0.5785778163160102
 40
0.585922103993629
 40
0.5932677897553912
 40
0.6006149928432165
 40
0.6079638302949428
 40
0.6153144163959932
 40
0.6226668620276352
 40
0.6300212738965456
 40
0.6373777536288252
 40
0.644736396709846
 40
0.6520972912493099
 40
0.6594605165491565
 40
0.6668261414499527
 40
0.6741942224297931
 40
0.6815648014279647
 40
0.6889379033649932
 40
0.6963135333298778
 40
0.7036916734061256
 40
0.7110722791100424
 40
0.7184552754182698
 40
0.7258405523677728
 40
0.7332279602205171
 40
0.7406173041976809
 40
0.748008338806095
 40
0.7554007618023606
 40
0.7627942078697878
 40
0.7701882421199359
 40
0.7775822074034962
 40
0.7849754399271205
 40
0.7923672277479669
 40
0.7997567642530597
 40
0.8071431447958813
 40
0.8145253651814703
 40
0.8219023225258102
 40
0.8292728190609975
 40
0.8366355694587695
 40
0.8439892122046467
 40
0.8513323254627797
 40
0.8586634477197396
 40
0.8659811032823062
 40
0.8732838324332275
 40
0.8805702257341511
 40
0.8878389616281857
 40
0.8950888461668615
 40
0.9023188534023249
 40
0.9095281647808081
 40
0.9167162057775191
 40
0.9238826780430137
 40
0.9310275854917732
 40
0.9381512530379723
 40
0.9452543370471473
 40
0.9523378269838327
 40
0.959403038154949
 40
0.9664515958377884
 40
0.9734854114104347
 40
0.9805066513539001
 40
0.9875177001646204
 40
0.9945211183095304
 40
0.9999999999999999
 40
0.9999999999999999
 40
0.9999999999999999
 40
0.9999999999999999
 10
370.1566824760764
 20
489.5607748388455
 30
0.0
 10
370.1314311941784
 20
489.5757095183305
 30
0.0
 10
370.0327078781933
 20
489.6340986760732
 30
0.0
 10
369.8556072780377
 20
489.7273983261955
 30
0.0
 10
369.6255621003336
 20
489.8405278987049
 30
0.0
 10
369.390728564172
 20
489.9446063571007
 30
0.0
 10
369.1516234431508
 20
490.040312694516
 30
0.0
 10
368.9082298054931
 20
490.1274088179746
 30
0.0
 10
368.6606742199638
 20
490.2059008408202
 30
0.0
 10
368.4090470024327
 20
490.2757274827726
 30
0.0
 10
368.1534518994266
 20
490.3368440961068
 30
0.0
 10
367.893994150716
 20
490.3892007703353
 30
0.0
 10
367.6307850031651
 20
490.4327491246948
 30
0.0
 10
367.3639416494901
 20
490.4674416002116
 30
0.0
 10
367.0935881874035
 20
490.493232929335
 30
0.0
 10
366.8198560482835
 20
490.5100811268658
 30
0.0
 10
366.5428842771508
 20
490.5179486553071
 30
0.0
 10
366.2628195407991
 20
490.5168035246678
 30
0.0
 10
365.9798158939109
 20
490.5066203278957
 30
0.0
 10
365.6940343098715
 20
490.4873811534386
 30
0.0
 10
365.4056420064704
 20
490.4590763417761
 30
0.0
 10
365.1148116051484
 20
490.4217050585685
 30
0.0
 10
364.8217201710372
 20
490.3752756703325
 30
0.0
 10
364.5265481847486
 20
490.3198059205678
 30
0.0
 10
364.2294784966977
 20
490.2553229159014
 30
0.0
 10
363.9306953107187
 20
490.1818629415634
 30
0.0
 10
363.6303832367102
 20
490.0994711327532
 30
0.0
 10
363.3287264430053
 20
490.0082010328959
 30
0.0
 10
363.0259079292151
 20
489.9081140713696
 30
0.0
 10
362.7221089304788
 20
489.7992789924086
 30
0.0
 10
362.4175084551802
 20
489.6817712640075
 30
0.0
 10
362.1122829508429
 20
489.5556724914439
 30
0.0
 10
361.8066060873629
 20
489.4210698550987
 30
0.0
 10
361.5006486430502
 20
489.2780555871378
 30
0.0
 10
361.1945784769246
 20
489.1267264967551
 30
0.0
 10
360.8885605702363
 20
488.9671835493967
 30
0.0
 10
360.5827586376925
 20
488.7995323334508
 30
0.0
 10
360.2773342973665
 20
488.623882421092
 30
0.0
 10
359.9724463259246
 20
488.4403466497839
 30
0.0
 10
359.6682493444921
 20
488.2490398680621
 30
0.0
 10
359.3648949817492
 20
488.0500791859172
 30
0.0
 10
359.0625329593184
 20
487.8435843806151
 30
0.0
 10
358.7613112503522
 20
487.6296778049611
 30
0.0
 10
358.4613762235192
 20
487.4084843191831
 30
0.0
 10
358.1628727702159
 20
487.1801312414505
 30
0.0
 10
357.8659444139796
 20
486.9447483126771
 30
0.0
 10
357.5707334018537
 20
486.7024676718027
 30
0.0
 10
357.2773807780346
 20
486.4534238382989
 30
0.0
 10
356.9860264405494
 20
486.1977536991623
 30
0.0
 10
356.6968091819946
 20
485.9355964981267
 30
0.0
 10
356.4098667155519
 20
485.6670938252557
 30
0.0
 10
356.1253356875884
 20
485.392389605444
 30
0.0
 10
355.8433516781918
 20
485.1116300846885
 30
0.0
 10
355.5640491909735
 20
484.8249638132481
 30
0.0
 10
355.2875616334373
 20
484.5325416250536
 30
0.0
 10
355.0140212891407
 20
484.2345166129152
 30
0.0
 10
354.7435592828062
 20
483.9310440992302
 30
0.0
 10
354.4763055394498
 20
483.6222816020246
 30
0.0
 10
354.2123887385089
 20
483.30838879626
 30
0.0
 10
353.9519362638657
 20
482.9895274704195
 30
0.0
 10
353.6950741505819
 20
482.6658614784528
 30
0.0
 10
353.4419270290737
 20
482.3375566872036
 30
0.0
 10
353.1926180673959
 20
482.0047809194884
 30
0.0
 10
352.9472689122235
 20
481.6677038930174
 30
0.0
 10
352.705999629069
 20
481.326497155371
 30
0.0
 10
352.4689286422114
 20
480.9813340152672
 30
0.0
 10
352.2361726747682
 20
480.6323894703546
 30
0.0
 10
352.0078466892967
 20
480.2798401317917
 30
0.0
 10
351.7840638292708
 20
479.9238641458608
 30
0.0
 10
351.5649353617464
 20
479.5646411128871
 30
0.0
 10
351.350570621501
 20
479.2023520037288
 30
0.0
 10
351.1410770371092
 20
478.837179213928
 30
0.0
 10
350.9365603004834
 20
478.4693068995106
 30
0.0
 10
350.7371239709445
 20
478.0989203452348
 30
0.0
 10
350.5428693533381
 20
477.7262057247527
 30
0.0
 10
350.3538952567478
 20
477.3513495717609
 30
0.0
 10
350.1702982627276
 20
476.974539246172
 30
0.0
 10
349.9921726858854
 20
476.5959628414278
 30
0.0
 10
349.819610537396
 20
476.2158090917156
 30
0.0
 10
349.6527014915879
 20
475.8342672795045
 30
0.0
 10
349.4915328556961
 20
475.4515271437922
 30
0.0
 10
349.3361895428614
 20
475.06777878949
 30
0.0
 10
349.1867540484268
 20
474.6832125983967
 30
0.0
 10
349.0433064295609
 20
474.2980191422601
 30
0.0
 10
348.9059242881957
 20
473.9123890984507
 30
0.0
 10
348.7746827572415
 20
473.5265131688284
 30
0.0
 10
348.6496544899777
 20
473.1405820024233
 30
0.0
 10
348.5309096524791
 20
472.7547861226021
 30
0.0
 10
348.4185159188566
 20
472.369315859453
 30
0.0
 10
348.3125384690209
 20
471.9843612881612
 30
0.0
 10
348.2130399885747
 20
471.6001121742214
 30
0.0
 10
348.120080670332
 20
471.2167579263693
 30
0.0
 10
348.033718216826
 20
470.8344875581675
 30
0.0
 10
347.9540078430113
 20
470.453489659222
 30
0.0
 10
347.8810022781881
 20
470.073952377023
 30
0.0
 10
347.8147517659657
 20
469.6960634104063
 30
0.0
 10
347.7553040608455
 20
469.3200100156103
 30
0.0
 10
347.7027044197397
 20
468.9459790258264
 30
0.0
 10
347.6569955864462
 20
468.5741568850275
 30
0.0
 10
347.6182177667787
 20
468.2047296966699
 30
0.0
 10
347.5864085917148
 20
467.8378832875903
 30
0.0
 10
347.5616030655707
 20
467.4738032870392
 30
0.0
 10
347.5438334958705
 20
467.1126752202913
 30
0.0
 10
347.5331294012593
 20
466.7546846156082
 30
0.0
 10
347.5295173935497
 20
466.4000171225151
 30
0.0
 10
347.5330210298283
 20
466.0488586382946
 30
0.0
 10
347.5436606305235
 20
465.7013954384883
 30
0.0
 10
347.5614529423102
 20
465.3578165694876
 30
0.0
 10
347.5864107023735
 20
465.0183126614068
 30
0.0
 10
347.6185422651087
 20
464.6830753335435
 30
0.0
 10
347.6578515247578
 20
464.3522950986587
 30
0.0
 10
347.704337526917
 20
464.026162611422
 30
0.0
 10
347.7579939825861
 20
463.7048692491348
 30
0.0
 10
347.8188087979042
 20
463.3886069749289
 30
0.0
 10
347.8867635832693
 20
463.077568107859
 30
0.0
 10
347.961833156565
 20
462.7719449856484
 30
0.0
 10
348.0439850594283
 20
462.4719295080943
 30
0.0
 10
348.1331791094788
 20
462.1777125532615
 30
0.0
 10
348.2293670147816
 20
461.8894832644834
 30
0.0
 10
348.3324920789921
 20
461.6074282137991
 30
0.0
 10
348.4424890260992
 20
461.331730456498
 30
0.0
 10
348.5592839719526
 20
461.0625685013376
 30
0.0
 10
348.6827945654897
 20
460.8001152309135
 30
0.0
 10
348.8129303157008
 20
460.5445368155352
 30
0.0
 10
348.949593111078
 20
460.2959916705854
 30
0.0
 10
349.0926779273287
 20
460.0546295108856
 30
0.0
 10
349.2420737068857
 20
459.8205905542889
 30
0.0
 10
349.3976643833473
 20
459.5940049236873
 30
0.0
 10
349.5593300091811
 20
459.3749922791424
 30
0.0
 10
349.7269479546446
 20
459.163661728554
 30
0.0
 10
349.9003940775399
 20
458.9601119395521
 30
0.0
 10
350.0795440006527
 20
458.7644317696049
 30
0.0
 10
350.2642737525903
 20
458.5767001912861
 30
0.0
 10
350.4544623187779
 20
458.3969899437353
 30
0.0
 10
350.6499864445707
 20
458.2253582647643
 30
0.0
 10
350.8507434545738
 20
458.0618863894779
 30
0.0
 10
351.0565689281946
 20
457.906538089751
 30
0.0
 10
351.2675447674745
 20
457.7596920127232
 30
0.0
 10
351.4672819692196
 20
457.6302549337709
 30
0.0
 10
351.5989100662931
 20
457.553650356862
 30
0.0
 10
351.6566858592574
 20
457.5200261514378
 30
0.0
  0
LWPOLYLINE
  5
172
330
1F
100
AcDbEntity
  8
0
  6
Continuous
 62
     7
370
    30
100
AcDbPolyline
 90
      155
 70
   128
 43
0.0
 10
430.0581695936
 20
883.9440317341
 10
430.2980773053
 20
883.8011800108
 10
430.5315030732
 20
883.6533621035
 10
430.7569328763
 20
883.5014645514
 10
430.9741528809
 20
883.3456314385
 10
431.1829570406
 20
883.1860105818
 10
431.383147292
 20
883.0227533915
 10
431.5745337425
 20
882.8560147268
 10
431.7569348505
 20
882.6859527495
 10
431.9301775975
 20
882.5127287737
 10
432.0940976523
 20
882.3365071128
 10
432.2485395267
 20
882.1574549238
 10
432.3933567233
 20
881.9757420485
 10
432.5284118741
 20
881.7915408525
 10
432.6535768713
 20
881.6050260618
 10
432.7687329882
 20
881.4163745971
 10
432.8737709922
 20
881.2257654056
 10
432.9685912485
 20
881.0333792917
 10
433.0531038143
 20
880.8393987454
 10
433.1272285244
 20
880.6440077689
 10
433.1908950668
 20
880.4473917023
 10
433.2440430501
 20
880.249737048
 10
433.2866220602
 20
880.0512312934
 10
433.3185917083
 20
879.8520627331
 10
433.3399216693
 20
879.6524202906
 10
433.3505917104
 20
879.4524933389
 10
433.3505917104
 20
879.2524715208
 10
433.3399216693
 20
879.0525445691
 10
433.3185917083
 20
878.8529021266
 10
433.2866220602
 20
878.6537335663
 10
433.2440430501
 20
878.4552278117
 10
433.1908950668
 20
878.2575731574
 10
433.1272285244
 20
878.0609570908
 10
433.0531038143
 20
877.8655661143
 10
432.9685912485
 20
877.6715855679
 10
432.8737709922
 20
877.4791994541
 10
432.7687329882
 20
877.2885902626
 10
432.6535768713
 20
877.0999387979
 10
432.5284118741
 20
876.9134240072
 10
432.3933567233
 20
876.7292228112
 10
432.2485395267
 20
876.5475099359
 10
432.0940976523
 20
876.3684577468
 10
431.9301775975
 20
876.192236086
 10
431.7569348505
 20
876.0190121102
 10
431.5745337425
 20
875.8489501329
 10
431.383147292
 20
875.6822114682
 10
431.1829570406
 20
875.5189542779
 10
430.9741528809
 20
875.3593334212
 10
430.7569328763
 20
875.2035003083
 10
430.5315030732
 20
875.0516027561
 10
430.2980773053
 20
874.9037848489
 10
430.0568769911
 20
874.7601868008
 10
429.8081309238
 20
874.6209448233
 10
429.5520750541
 20
874.4861909958
 10
429.2889522664
 20
874.3560531405
 10
429.0190121486
 20
874.2306547011
 10
428.7425107554
 20
874.1101146254
 10
428.459710365
 20
873.9945472532
 10
428.1708792308
 20
873.8840622071
 10
427.8762913265
 20
873.7787642888
 10
427.5762260867
 20
873.6787533797
 10
427.2709681413
 20
873.5841243463
 10
426.9608070461
 20
873.49496695
 10
426.6460370076
 20
873.4113657619
 10
426.3269566043
 20
873.3334000829
 10
426.0038685032
 20
873.261143868
 10
425.6770791731
 20
873.1946656568
 10
425.3468985933
 20
873.1340285078
 10
425.0136399602
 20
873.0792899389
 10
424.6776193897
 20
873.0305018732
 10
424.3391556178
 20
872.9877105889
 10
423.9985696977
 20
872.9509566763
 10
423.656184696
 20
872.9202749986
 10
423.3123253854
 20
872.8956946593
 10
422.9673179375
 20
872.8772389743
 10
422.6214896125
 20
872.8649254499
 10
422.2751684498
 20
872.8587657663
 10
421.9286829558
 20
872.8587657663
 10
421.582361793
 20
872.8649254499
 10
421.2365334681
 20
872.8772389743
 10
420.8915260201
 20
872.8956946593
 10
420.5476667096
 20
872.9202749986
 10
420.2052817078
 20
872.9509566763
 10
419.8646957878
 20
872.9877105889
 10
419.5262320158
 20
873.0305018732
 10
419.1902114454
 20
873.0792899389
 10
418.8569528123
 20
873.1340285078
 10
418.5267722325
 20
873.1946656568
 10
418.1999829023
 20
873.261143868
 10
417.8768948013
 20
873.3334000829
 10
417.557814398
 20
873.4113657619
 10
417.2430443595
 20
873.49496695
 10
416.9328832643
 20
873.5841243463
 10
416.6276253189
 20
873.6787533797
 10
416.3275600791
 20
873.7787642888
 10
416.0329721748
 20
873.8840622071
 10
415.7441410405
 20
873.9945472532
 10
415.4613406501
 20
874.1101146254
 10
415.1848392569
 20
874.2306547011
 10
414.9148991392
 20
874.3560531405
 10
414.6517763515
 20
874.4861909958
 10
414.3957204817
 20
874.6209448233
 10
414.1469744144
 20
874.7601868008
 10
413.9057741003
 20
874.9037848489
 10
413.6723483324
 20
875.0516027561
 10
413.4469185292
 20
875.2035003083
 10
413.2296985246
 20
875.3593334212
 10
413.0208943649
 20
875.5189542779
 10
412.8207041135
 20
875.6822114682
 10
412.629317663
 20
875.8489501329
 10
412.446916555
 20
876.0190121102
 10
412.273673808
 20
876.192236086
 10
412.1097537533
 20
876.3684577468
 10
411.9553118789
 20
876.5475099359
 10
411.8104946823
 20
876.7292228112
 10
411.6754395314
 20
876.9134240072
 10
411.5502745343
 20
877.0999387979
 10
411.4351184174
 20
877.2885902626
 10
411.3300804133
 20
877.4791994541
 10
411.235260157
 20
877.6715855679
 10
411.1507475912
 20
877.8655661143
 10
411.0766228812
 20
878.0609570908
 10
411.0129563387
 20
878.2575731574
 10
410.9598083554
 20
878.4552278117
 10
410.9172293453
 20
878.6537335663
 10
410.8852596972
 20
878.8529021266
 10
410.8639297363
 20
879.0525445691
 10
410.8532596952
 20
879.2524715208
 10
410.8532596952
 20
879.4524933389
 10
410.8639297363
 20
879.6524202906
 10
410.8852596972
 20
879.8520627331
 10
410.9172293453
 20
880.0512312934
 10
410.9598083554
 20
880.249737048
 10
411.0129563387
 20
880.4473917023
 10
411.0766228812
 20
880.6440077689
 10
411.1507475912
 20
880.8393987454
 10
411.235260157
 20
881.0333792917
 10
411.3300804133
 20
881.2257654056
 10
411.4351184174
 20
881.4163745971
 10
411.5502745343
 20
881.6050260618
 10
411.6754395314
 20
881.7915408525
 10
411.8104946823
 20
881.9757420485
 10
411.9553118789
 20
882.1574549238
 10
412.1097537533
 20
882.3365071128
 10
412.273673808
 20
882.5127287737
 10
412.446916555
 20
882.6859527495
 10
412.629317663
 20
882.8560147268
 10
412.8207041135
 20
883.0227533915
 10
413.0208943649
 20
883.1860105818
 10
413.2296985246
 20
883.3456314385
 10
413.4469185292
 20
883.5014645514
 10
413.6723483324
 20
883.6533621035
 10
413.9057741003
 20
883.8011800108
 10
414.1469744144
 20
883.9447780588
 10
414.1469744144
 20
883.9447780588
  0
LWPOLYLINE
  5
173
330
1F
100
AcDbEntity
  8
0
  6
Continuous
 62
     7
370
    30
100
AcDbPolyline
 90
      203
 70
   128
 43
0.0
 10
429.9154556349
 20
884.02644541
 10
429.6686763874
 20
884.16454427
 10
429.4145767973
 20
884.298145761
 10
429.1534026895
 20
884.4271206323
 10
428.8854067331
 20
884.5513441089
 10
428.610848197
 20
884.6706960128
 10
428.3299926987
 20
884.7850608785
 10
428.0431119479
 20
884.8943280656
 10
427.750483483
 20
884.998391865
 10
427.4523904033
 20
885.0971516018
 10
427.1491210946
 20
885.1905117323
 10
426.8409689503
 20
885.2783819365
 10
426.5282320877
 20
885.3606772059
 10
426.2112130595
 20
885.4373179249
 10
425.8902185613
 20
885.5082299486
 10
425.5655591343
 20
885.5733446743
 10
425.2375488657
 20
885.6325991076
 10
424.9065050842
 20
885.6859359237
 10
424.5727480533
 20
885.7333035228
 10
424.2366006613
 20
885.7746560796
 10
423.8983881092
 20
885.8099535883
 10
423.5584375957
 20
885.8391619007
 10
423.2170780011
 20
885.8622527599
 10
422.8746395686
 20
885.8792038267
 10
422.5314535853
 20
885.8899987022
 10
422.1878520616
 20
885.8946269431
 10
421.8441674096
 20
885.8930840718
 10
421.5007321222
 20
885.8853715808
 10
421.1578784507
 20
885.8714969317
 10
420.815938084
 20
885.8514735471
 10
420.4752418272
 20
885.8253207985
 10
420.1361192821
 20
885.7930639869
 10
419.7988985276
 20
885.7547343187
 10
419.4639058033
 20
885.7103688754
 10
419.1314651928
 20
885.6600105776
 10
418.801898311
 20
885.6037081438
 10
418.4755239926
 20
885.541516043
 10
418.1526579836
 20
885.473494442
 10
417.8336126361
 20
885.3997091473
 10
417.5186966058
 20
885.3202315414
 10
417.2082145537
 20
885.2351385137
 10
416.902466851
 20
885.1445123863
 10
416.601749289
 20
885.0484408341
 10
416.3063527924
 20
884.9470168001
 10
416.0165631384
 20
884.8403384055
 10
415.7326606795
 20
884.7285088548
 10
415.4549200733
 20
884.6116363358
 10
415.1836100157
 20
884.4898339152
 10
414.9189929817
 20
884.3632194289
 10
414.6613249713
 20
884.2319153683
 10
414.4108552614
 20
884.0960487615
 10
414.1678261656
 20
883.9557510508
 10
413.9324727986
 20
883.8111579651
 10
413.7050228497
 20
883.6624093888
 10
413.4856963619
 20
883.5096492267
 10
413.2747055196
 20
883.3530252643
 10
413.0722544428
 20
883.1926890252
 10
412.8785389897
 20
883.0287956243
 10
412.6937465675
 20
882.8615036179
 10
412.5180559511
 20
882.6909748502
 10
412.3516371097
 20
882.5173742968
 10
412.1946510428
 20
882.3408699051
 10
412.0472496242
 20
882.1616324316
 10
411.9095754554
 20
881.979835277
 10
411.7817617272
 20
881.7956543182
 10
411.6639320912
 20
881.6092677386
 10
411.5562005398
 20
881.4208558551
 10
411.4586712964
 20
881.2306009439
 10
411.3714387143
 20
881.0386870645
 10
411.2945871853
 20
880.845299881
 10
411.2281910584
 20
880.6506264832
 10
411.1723145675
 20
880.454855205
 10
411.1270117694
 20
880.2581754424
 10
411.0923264918
 20
880.0607774705
 10
411.0682922904
 20
879.8628522589
 10
411.0549324167
 20
879.6645912875
 10
411.0522597956
 20
879.4661863611
 10
411.0602770126
 20
879.2678294236
 10
411.0789763115
 20
879.0697123725
 10
411.1083396022
 20
878.8720268733
 10
411.1483384773
 20
878.6749641739
 10
411.1989342407
 20
878.4787149198
 10
411.2600779442
 20
878.2834689693
 10
411.3317104351
 20
878.0894152105
 10
411.4137624137
 20
877.8967413777
 10
411.5061545001
 20
877.7056338705
 10
411.6087973107
 20
877.516277573
 10
411.7215915454
 20
877.3288556752
 10
411.844428083
 20
877.1435494957
 10
411.9771880871
 20
876.9605383063
 10
412.1197431209
 20
876.7799991584
 10
412.2719552716
 20
876.602106712
 10
412.4336772839
 20
876.4270330666
 10
412.6047527022
 20
876.2549475947
 10
412.7850160219
 20
876.0860167777
 10
412.9742928501
 20
875.9204040454
 10
413.1724000735
 20
875.7582696174
 10
413.3791460363
 20
875.5997703482
 10
413.594330725
 20
875.4450595757
 10
413.8177459624
 20
875.2942869726
 10
414.0491756087
 20
875.1475984016
 10
414.2883957707
 20
875.0051357744
 10
414.5351750182
 20
874.8670369144
 10
414.7892746083
 20
874.7334354234
 10
415.0504487161
 20
874.6044605521
 10
415.3184446724
 20
874.4802370755
 10
415.5930032086
 20
874.3608851717
 10
415.8738587068
 20
874.2465203059
 10
416.1607394577
 20
874.1372531189
 10
416.4533679225
 20
874.0331893194
 10
416.7514610022
 20
873.9344295826
 10
417.054730311
 20
873.8410694522
 10
417.3628824553
 20
873.7531992479
 10
417.6756193179
 20
873.6709039786
 10
417.992638346
 20
873.5942632596
 10
418.3136328443
 20
873.5233512358
 10
418.6382922712
 20
873.4582365102
 10
418.9663025398
 20
873.3989820768
 10
419.2973463213
 20
873.3456452607
 10
419.6311033522
 20
873.2982776617
 10
419.9672507442
 20
873.2569251049
 10
420.3054632963
 20
873.2216275962
 10
420.6454138098
 20
873.1924192837
 10
420.9867734045
 20
873.1693284246
 10
421.329211837
 20
873.1523773577
 10
421.6723978202
 20
873.1415824822
 10
422.015999344
 20
873.1369542413
 10
422.3596839959
 20
873.1384971127
 10
422.7031192834
 20
873.1462096036
 10
423.0459729548
 20
873.1600842528
 10
423.3879133216
 20
873.1801076373
 10
423.7286095783
 20
873.2062603859
 10
424.0677321235
 20
873.2385171975
 10
424.4049528779
 20
873.2768468658
 10
424.7399456023
 20
873.3212123091
 10
425.0723862128
 20
873.3715706068
 10
425.4019530946
 20
873.4278730406
 10
425.728327413
 20
873.4900651414
 10
426.051193422
 20
873.5580867424
 10
426.3702387695
 20
873.6318720372
 10
426.6851547998
 20
873.7113496431
 10
426.9956368519
 20
873.7964426707
 10
427.3013845546
 20
873.8870687981
 10
427.6021021166
 20
873.9831403504
 10
427.8974986131
 20
874.0845643843
 10
428.1872882672
 20
874.1912427789
 10
428.471190726
 20
874.3030723296
 10
428.7489313323
 20
874.4199448486
 10
429.0202413899
 20
874.5417472692
 10
429.2848584238
 20
874.6683617555
 10
429.5425264343
 20
874.7996658162
 10
429.7929961441
 20
874.9355324229
 10
430.03602524
 20
875.0758301337
 10
430.271378607
 20
875.2204232194
 10
430.4988285559
 20
875.3691717956
 10
430.7181550436
 20
875.5219319577
 10
430.9291458859
 20
875.6785559202
 10
431.1315969628
 20
875.8388921593
 10
431.3253124159
 20
876.0027855602
 10
431.510104838
 20
876.1700775666
 10
431.6857954545
 20
876.3406063342
 10
431.8522142959
 20
876.5142068876
 10
432.0092003628
 20
876.6907112793
 10
432.1566017813
 20
876.8699487529
 10
432.2942759501
 20
877.0517459075
 10
432.4220896783
 20
877.2359268662
 10
432.5399193144
 20
877.4223134458
 10
432.6476508658
 20
877.6107253294
 10
432.7451801091
 20
877.8009802406
 10
432.8324126912
 20
877.99289412
 10
432.9092642202
 20
878.1862813034
 10
432.9756603472
 20
878.3809547012
 10
433.0315368381
 20
878.5767259794
 10
433.0768396361
 20
878.773405742
 10
433.1115249137
 20
878.970803714
 10
433.1355591152
 20
879.1687289256
 10
433.1489189888
 20
879.3669898969
 10
433.15159161
 20
879.5653948233
 10
433.143574393
 20
879.7637517608
 10
433.124875094
 20
879.9618688119
 10
433.0955118034
 20
880.1595543111
 10
433.0555129282
 20
880.3566170105
 10
433.0049171649
 20
880.5528662647
 10
432.9437734614
 20
880.7481122151
 10
432.8721409705
 20
880.9421659739
 10
432.7900889918
 20
881.1348398067
 10
432.6976969055
 20
881.3259473139
 10
432.5950540948
 20
881.5153036114
 10
432.4822598601
 20
881.7027255092
 10
432.3594233225
 20
881.8880316887
 10
432.2266633185
 20
882.0710428782
 10
432.0841082847
 20
882.251582026
 10
431.9318961339
 20
882.4294744724
 10
431.7701741216
 20
882.6045481178
 10
431.5990987034
 20
882.7766335898
 10
431.4188353836
 20
882.9455644067
 10
431.2295585555
 20
883.111177139
 10
431.0314513321
 20
883.2733115671
 10
430.8247053693
 20
883.4318108362
 10
430.6095206806
 20
883.5865216087
 10
430.3861054431
 20
883.7372942118
 10
430.1546757968
 20
883.8839827829
 10
429.9154556349
 20
884.02644541
  0
LWPOLYLINE
  5
174
330
1F
100
AcDbEntity
  8
0
  6
Continuous
 62
     7
370
    30
100
AcDbPolyline
 90
      104
 70
   128
 43
0.0
 10
410.8519257028
 20
54.97287875
 10
410.8532596952
 20
54.8728678409
 10
410.8639297363
 20
54.6729408892
 10
410.8852596972
 20
54.4732984468
 10
410.9172293453
 20
54.2741298865
 10
410.9598083554
 20
54.0756241318
 10
411.0129563387
 20
53.8779694775
 10
411.0766228812
 20
53.681353411
 10
411.1507475912
 20
53.4859624344
 10
411.235260157
 20
53.2919818881
 10
411.3300804133
 20
53.0995957742
 10
411.4351184174
 20
52.9089865828
 10
411.5502745343
 20
52.720335118
 10
411.6754395314
 20
52.5338203274
 10
411.8104946823
 20
52.3496191314
 10
411.9553118789
 20
52.167906256
 10
412.1097537533
 20
51.988854067
 10
412.273673808
 20
51.8126324061
 10
412.446916555
 20
51.6394084303
 10
412.629317663
 20
51.4693464531
 10
412.8207041135
 20
51.3026077884
 10
413.0208943649
 20
51.139350598
 10
413.2296985246
 20
50.9797297414
 10
413.4469185292
 20
50.8238966284
 10
413.6723483324
 20
50.6719990763
 10
413.9057741003
 20
50.5241811691
 10
414.1469744144
 20
50.380583121
 10
414.3957204817
 20
50.2413411435
 10
414.6517763515
 20
50.106587316
 10
414.9148991392
 20
49.9764494607
 10
415.1848392569
 20
49.8510510212
 10
415.4613406501
 20
49.7305109456
 10
415.7441410405
 20
49.6149435734
 10
416.0329721748
 20
49.5044585272
 10
416.3275600791
 20
49.3991606089
 10
416.6276253189
 20
49.2991496999
 10
416.9328832643
 20
49.2045206665
 10
417.2430443595
 20
49.1153632702
 10
417.557814398
 20
49.0317620821
 10
417.8768948013
 20
48.953796403
 10
418.1999829023
 20
48.8815401882
 10
418.5267722325
 20
48.8150619769
 10
418.8569528123
 20
48.7544248279
 10
419.1902114454
 20
48.6996862591
 10
419.5262320158
 20
48.6508981933
 10
419.8646957878
 20
48.6081069091
 10
420.2052817078
 20
48.5713529964
 10
420.5476667096
 20
48.5406713188
 10
420.8915260201
 20
48.5160909794
 10
421.2365334681
 20
48.4976352944
 10
421.582361793
 20
48.48532177
 10
421.9286829558
 20
48.4791620864
 10
422.2751684498
 20
48.4791620864
 10
422.6214896125
 20
48.48532177
 10
422.9673179375
 20
48.4976352944
 10
423.3123253854
 20
48.5160909794
 10
423.656184696
 20
48.5406713188
 10
423.9985696977
 20
48.5713529964
 10
424.3391556178
 20
48.6081069091
 10
424.6776193897
 20
48.6508981933
 10
425.0136399602
 20
48.6996862591
 10
425.3468985933
 20
48.7544248279
 10
425.6770791731
 20
48.8150619769
 10
426.0038685032
 20
48.8815401882
 10
426.3269566043
 20
48.953796403
 10
426.6460370076
 20
49.0317620821
 10
426.9608070461
 20
49.1153632702
 10
427.2709681413
 20
49.2045206665
 10
427.5762260867
 20
49.2991496999
 10
427.8762913265
 20
49.3991606089
 10
428.1708792308
 20
49.5044585272
 10
428.459710365
 20
49.6149435734
 10
428.7425107554
 20
49.7305109456
 10
429.0190121486
 20
49.8510510212
 10
429.2889522664
 20
49.9764494607
 10
429.5520750541
 20
50.106587316
 10
429.8081309238
 20
50.2413411435
 10
430.0568769911
 20
50.380583121
 10
430.2980773053
 20
50.5241811691
 10
430.5315030732
 20
50.6719990763
 10
430.7569328763
 20
50.8238966284
 10
430.9741528809
 20
50.9797297414
 10
431.1829570406
 20
51.139350598
 10
431.383147292
 20
51.3026077884
 10
431.5745337425
 20
51.4693464531
 10
431.7569348505
 20
51.6394084303
 10
431.9301775975
 20
51.8126324061
 10
432.0940976523
 20
51.988854067
 10
432.2485395267
 20
52.167906256
 10
432.3933567233
 20
52.3496191314
 10
432.5284118741
 20
52.5338203274
 10
432.6535768713
 20
52.720335118
 10
432.7687329882
 20
52.9089865828
 10
432.8737709922
 20
53.0995957742
 10
432.9685912485
 20
53.2919818881
 10
433.0531038143
 20
53.4859624344
 10
433.1272285244
 20
53.681353411
 10
433.1908950668
 20
53.8779694775
 10
433.2440430501
 20
54.0756241318
 10
433.2866220602
 20
54.2741298865
 10
433.3185917083
 20
54.4732984468
 10
433.3399216693
 20
54.6729408892
 10
433.3505917104
 20
54.8728678409
 10
433.3519257028
 20
54.97287875
  0
ARC
  5
175
330
1F
100
AcDbEntity
  8
0
  6
Continuous
 62
     7
370
    30
100
AcDbCircle
 10
422.1019972159
 20
65.357696161
 30
0.0
 40
16.96517018290351
100
AcDbArc
 50
242.5714532936
 51
297.4231717161
  0
SPLINE
  5
176
330
1F
100
AcDbEntity
  8
0
  6
Continuous
 62
     7
370
    30
100
AcDbSpline
210
0.0
220
0.0
230
1.0
 70
     8
 71
     3
 72
    18
 73
    14
 74
     0
 42
0.000000001
 43
0.00000001
 40
0.0
 40
0.0
 40
0.0
 40
0.0
 40
0.0046169110100949
 40
0.0980626953462394
 40
0.1931672339314546
 40
0.2991228862300588
 40
0.4077206630821787
 40
0.5070193500359691
 40
0.6087978657003379
 40
0.7052311616357946
 40
0.8042671947983114
 40
0.900705662116978
 40
1.0
 40
1.0
 40
1.0
 40
1.0
 10
436.1018510473317
 20
822.4873849913135
 30
0.0
 10
436.1041694409391
 20
822.4868236642565
 30
0.0
 10
436.1534118728413
 20
822.4749011376887
 30
0.0
 10
436.2504426180738
 20
822.4452962633582
 30
0.0
 10
436.3954826519062
 20
822.3835815907945
 30
0.0
 10
436.5419434616177
 20
822.3008440760063
 30
0.0
 10
436.6800825813617
 20
822.1992733129895
 30
0.0
 10
436.8027382569884
 20
822.0841717017439
 30
0.0
 10
436.904672241057
 20
821.9619340844814
 30
0.0
 10
436.9877771815767
 20
821.8311556987719
 30
0.0
 10
437.0479885363269
 20
821.6975630466501
 30
0.0
 10
437.0872089221959
 20
821.5606222699575
 30
0.0
 10
437.0921457018673
 20
821.4723479271896
 30
0.0
 10
437.0946501071367
 20
821.4275667654007
 30
0.0
  0
LINE
  5
177
330
1F
100
AcDbEntity
  8
0
  6
Continuous
 62
     7
370
    30
100
AcDbLine
 10
437.0946501071
 20
821.4275667654
 30
0.0
 11
437.0946501071
 21
782.0702996325
 31
0.0
  0
LINE
  5
178
330
1F
100
AcDbEntity
  8
0
  6
Continuous
 62
     7
370
    30
100
AcDbLine
 10
407.1019257028
 20
782.3399708208
 30
0.0
 11
407.1019268566
 21
782.3365743641
 31
0.0
  0
LINE
  5
179
330
1F
100
AcDbEntity
  8
0
  6
Continuous
 62
     7
370
    30
100
AcDbLine
 10
450.2540858705
 20
846.8740535449
 30
0.0
 11
464.2997315271
 21
838.7656748991
 31
0.0
  0
ARC
  5
17A
330
1F
100
AcDbEntity
  8
0
  6
Continuous
 62
     7
370
    30
100
AcDbCircle
 10
463.4757081861
 20
837.4734282203
 30
0.0
 40
1.532617351256248
100
AcDbArc
 50
2.5243224443
 51
57.4756777014
  0
LINE
  5
17B
330
1F
100
AcDbEntity
  8
0
  6
Continuous
 62
     7
370
    30
100
AcDbLine
 10
465.0068383082
 20
837.5409300313
 30
0.0
 11
465.0068383082
 21
798.1836628984
 31
0.0
  0
LINE
  5
17C
330
1F
100
AcDbEntity
  8
0
  6
Continuous
 62
     7
370
    30
100
AcDbLine
 10
437.0946501071
 20
782.0702996325
 30
0.0
 11
437.0912486149
 21
782.0354819925
 31
0.0
  0
ARC
  5
17D
330
1F
100
AcDbEntity
  8
0
  6
Continuous
 62
     7
370
    30
100
AcDbCircle
 10
449.9617915677
 20
846.4714914014
 30
0.0
 40
0.4974859182909641
100
AcDbArc
 50
54.0171641951
 51
114.6723773757
  0
ARC
  5
17E
330
1F
100
AcDbEntity
  8
0
  6
Continuous
 62
     7
370
    30
100
AcDbCircle
 10
464.5119849629
 20
798.1317711491
 30
0.0
 40
0.4975666659289861
100
AcDbArc
 50
305.3258580115
 51
5.9863223819
  0
SPLINE
  5
17F
330
1F
100
AcDbEntity
  8
0
  6
Continuous
 62
     7
370
    30
100
AcDbSpline
210
0.0
220
0.0
230
1.0
 70
     8
 71
     3
 72
    18
 73
    14
 74
     0
 42
0.000000001
 43
0.00000001
 40
0.0
 40
0.0
 40
0.0
 40
0.0
 40
0.0964273136467362
 40
0.1957327204301943
 40
0.2921403294283263
 40
0.3912021416768707
 40
0.4904707984279029
 40
0.592279458450484
 40
0.6982080024956393
 40
0.8068329483027054
 40
0.9002721850949557
 40
0.9953830946721517
 40
1.0
 40
1.0
 40
1.0
 40
1.0
 10
437.0946501071364
 20
143.7160713207168
 30
0.0
 10
437.0922807748295
 20
143.7595388964146
 30
0.0
 10
437.0874713920883
 20
143.8477714367611
 30
0.0
 10
437.048924323887
 20
143.9835419197823
 30
0.0
 10
436.9884356534644
 20
144.1184489917612
 30
0.0
 10
436.9062678042209
 20
144.2482603689542
 30
0.0
 10
436.8036896763139
 20
144.3716706197517
 30
0.0
 10
436.6822368010011
 20
144.4859774816624
 30
0.0
 10
436.5431922677902
 20
144.5885418596316
 30
0.0
 10
436.3975792289386
 20
144.6710835655861
 30
0.0
 10
436.2512853144843
 20
144.7334937400358
 30
0.0
 10
436.1542480278565
 20
144.7632032376644
 30
0.0
 10
436.1041694386984
 20
144.7753282198343
 30
0.0
 10
436.1018510473316
 20
144.7758895466299
 30
0.0
  0
LINE
  5
180
330
1F
100
AcDbEntity
  8
0
  6
Continuous
 62
     7
370
    30
100
AcDbLine
 10
407.1019257028
 20
104.6284753761
 30
0.0
 11
407.1019268566
 21
104.6250789194
 31
0.0
  0
LINE
  5
181
330
1F
100
AcDbEntity
  8
0
  6
Continuous
 62
     7
370
    30
100
AcDbLine
 10
437.0946501071
 20
104.3588041878
 30
0.0
 11
437.0946501071
 21
143.7160713207
 31
0.0
  0
LINE
  5
182
330
1F
100
AcDbEntity
  8
0
  6
Continuous
 62
     7
370
    30
100
AcDbLine
 10
464.2997315271
 20
161.0541794544
 30
0.0
 11
450.2540858705
 21
169.1625581003
 31
0.0
  0
ARC
  5
183
330
1F
100
AcDbEntity
  8
0
  6
Continuous
 62
     7
370
    30
100
AcDbCircle
 10
463.4757081861
 20
159.7619327756
 30
0.0
 40
1.532617351255945
100
AcDbArc
 50
2.5243224443
 51
57.4756777014
  0
LINE
  5
184
330
1F
100
AcDbEntity
  8
0
  6
Continuous
 62
     7
370
    30
100
AcDbLine
 10
465.0068383083
 20
120.4721674537
 30
0.0
 11
465.0068383083
 21
159.8294345866
 31
0.0
  0
LINE
  5
185
330
1F
100
AcDbEntity
  8
0
  6
Continuous
 62
     7
370
    30
100
AcDbLine
 10
437.0911483537
 20
104.3240262114
 30
0.0
 11
437.0946501071
 21
104.3588041878
 31
0.0
  0
ARC
  5
186
330
1F
100
AcDbEntity
  8
0
  6
Continuous
 62
     7
370
    30
100
AcDbCircle
 10
449.9617915677
 20
168.7599959567
 30
0.0
 40
0.4974859182899614
100
AcDbArc
 50
54.0171641951
 51
114.6723773758
  0
ARC
  5
187
330
1F
100
AcDbEntity
  8
0
  6
Continuous
 62
     7
370
    30
100
AcDbCircle
 10
464.5119849629
 20
120.4202757044
 30
0.0
 40
0.4975666659292846
100
AcDbArc
 50
305.3258580115
 51
5.9863223819
  0
LWPOLYLINE
  5
188
330
1F
100
AcDbEntity
  8
0
  6
Continuous
 62
     7
370
    30
100
AcDbPolyline
 90
        3
 70
   128
 43
0.0
 10
380.0212161969
 20
443.5127684435
 10
380.0267227859
 20
443.5095846069
 10
380.0274496972
 20
443.5091649017
  0
LWPOLYLINE
  5
189
330
1F
100
AcDbEntity
  8
0
  6
Continuous
 62
     7
370
    30
100
AcDbPolyline
 90
       90
 70
   128
 43
0.0
 10
411.495323985
 20
381.0186201864
 10
411.7826693891
 20
380.8571161164
 10
412.0773912285
 20
380.7001043941
 10
412.3792788295
 20
380.5476972548
 10
412.6881163961
 20
380.4000036428
 10
413.0036831643
 20
380.2571291325
 10
413.3257535598
 20
380.1191758541
 10
413.6540973595
 20
379.9862424195
 10
413.988479856
 20
379.8584238525
 10
414.3286620252
 20
379.7358115208
 10
414.6744006972
 20
379.6184930703
 10
415.0254487303
 20
379.5065523629
 10
415.3815551875
 20
379.4000694163
 10
415.7424655159
 20
379.299120347
 10
416.1079217288
 20
379.2037773155
 10
416.4776625898
 20
379.1141084753
 10
416.8514238
 20
379.0301779235
 10
417.2289381865
 20
378.9520456557
 10
417.6099358934
 20
378.8797675226
 10
417.9941445752
 20
378.81339519
 10
418.3812895909
 20
378.7529761026
 10
418.7710942006
 20
378.6985534492
 10
419.1632797631
 20
378.6501661323
 10
419.5575659355
 20
378.6078487403
 10
419.9536708733
 20
378.5716315226
 10
420.3513114316
 20
378.541540368
 10
420.7502033682
 20
378.5175967865
 10
421.1500615462
 20
378.4998178933
 10
421.550600138
 20
378.4882163974
 10
421.9515328296
 20
378.4828005915
 10
422.3525730254
 20
378.4835743472
 10
422.7534340529
 20
378.4905371113
 10
423.1538293677
 20
378.5036839067
 10
423.5534727582
 20
378.5230053357
 10
423.9520785503
 20
378.5484875869
 10
424.3493618118
 20
378.5801124452
 10
424.7450385557
 20
378.6178573042
 10
425.1388259434
 20
378.6616951832
 10
425.5304424868
 20
378.7115947459
 10
425.9196082496
 20
378.7675203228
 10
426.3060450476
 20
378.8294319373
 10
426.689476647
 20
378.8972853334
 10
427.0696289623
 20
378.971032008
 10
427.4462302521
 20
379.0506192454
 10
427.8190113135
 20
379.1359901548
 10
428.1877056741
 20
379.2270837113
 10
428.552049783
 20
379.323834799
 10
428.9117831989
 20
379.4261742581
 10
429.2666487762
 20
379.5340289341
 10
429.6163928492
 20
379.6473217301
 10
429.9607654128
 20
379.7659716618
 10
430.299520302
 20
379.8898939156
 10
430.6324153671
 20
380.0189999092
 10
430.9592126473
 20
380.1531973546
 10
431.2796785406
 20
380.2923903245
 10
431.5935839707
 20
380.4364793207
 10
431.9007045512
 20
380.5853613451
 10
432.2008207452
 20
380.7389299736
 10
432.493718023
 20
380.8970754317
 10
432.7791870152
 20
381.0596846737
 10
433.057023662
 20
381.2266414628
 10
433.3270293596
 20
381.3978264546
 10
433.589011102
 20
381.5731172821
 10
433.8427816186
 20
381.7523886436
 10
434.0881595087
 20
381.9355123919
 10
434.3249693707
 20
382.1223576261
 10
434.5530419274
 20
382.3127907849
 10
434.7722141477
 20
382.5066757426
 10
434.9823293623
 20
382.7038739057
 10
435.183237376
 20
382.9042443127
 10
435.3747945755
 20
383.1076437343
 10
435.5568640312
 20
383.313926776
 10
435.729315596
 20
383.5229459821
 10
435.8920259975
 20
383.734551941
 10
436.0448789266
 20
383.9485933921
 10
436.1877651208
 20
384.1649173336
 10
436.3205824418
 20
384.3833691324
 10
436.4432359488
 20
384.6037926343
 10
436.5556379662
 20
384.8260302756
 10
436.6577081467
 20
385.0499231958
 10
436.7493735281
 20
385.2753113514
 10
436.830568586
 20
385.5020336298
 10
436.9012352804
 20
385.7299279648
 10
436.9613230972
 20
385.9588314526
 10
437.0107890841
 20
386.1885804676
 10
437.0495978819
 20
386.4190107803
 10
437.0777217491
 20
386.6499576738
 10
437.0951405821
 20
386.8812560622
 10
437.1018419296
 20
387.1127406082
 10
437.1019257028
 20
387.1416810251
  0
ARC
  5
18A
330
1F
100
AcDbEntity
  8
0
  6
Continuous
 62
     7
370
    30
100
AcDbCircle
 10
414.5897974846
 20
387.8766552303
 30
0.0
 40
7.523856119243852
100
AcDbArc
 50
185.6059263568
 51
245.7142146008
  0
LWPOLYLINE
  5
18B
330
1F
100
AcDbEntity
  8
0
  6
Continuous
 62
     7
370
    30
100
AcDbPolyline
 90
      117
 70
   128
 43
0.0
 10
411.495323985
 20
480.6365992365
 10
411.7826693891
 20
480.4750951665
 10
412.0773912285
 20
480.3180834441
 10
412.3792788295
 20
480.1656763049
 10
412.6881163961
 20
480.0179826928
 10
413.0036831643
 20
479.8751081826
 10
413.3257535598
 20
479.7371549042
 10
413.6540973595
 20
479.6042214695
 10
413.988479856
 20
479.4764029026
 10
414.3286620252
 20
479.3537905708
 10
414.6744006972
 20
479.2364721203
 10
415.0254487303
 20
479.1245314129
 10
415.3815551875
 20
479.0180484664
 10
415.7424655159
 20
478.9170993971
 10
416.1079217288
 20
478.8217563656
 10
416.4776625898
 20
478.7320875253
 10
416.8514238
 20
478.6481569736
 10
417.2289381865
 20
478.5700247058
 10
417.6099358934
 20
478.4977465726
 10
417.9941445752
 20
478.4313742401
 10
418.3812895909
 20
478.3709551527
 10
418.7710942006
 20
478.3165324993
 10
419.1632797631
 20
478.2681451824
 10
419.5575659355
 20
478.2258277904
 10
419.9536708733
 20
478.1896105727
 10
420.3513114316
 20
478.1595194181
 10
420.7502033682
 20
478.1355758365
 10
421.1500615462
 20
478.1177969434
 10
421.550600138
 20
478.1061954474
 10
421.9515328296
 20
478.1007796416
 10
422.3525730254
 20
478.1015533973
 10
422.7534340529
 20
478.1085161614
 10
423.1538293677
 20
478.1216629567
 10
423.5534727582
 20
478.1409843857
 10
423.9520785503
 20
478.166466637
 10
424.3493618118
 20
478.1980914952
 10
424.7450385557
 20
478.2358363543
 10
425.1388259434
 20
478.2796742333
 10
425.5304424868
 20
478.3295737959
 10
425.9196082496
 20
478.3854993729
 10
426.3060450476
 20
478.4474109873
 10
426.689476647
 20
478.5152643834
 10
427.0696289623
 20
478.5890110581
 10
427.4462302521
 20
478.6685982955
 10
427.8190113135
 20
478.7539692049
 10
428.1877056741
 20
478.8450627613
 10
428.552049783
 20
478.941813849
 10
428.9117831989
 20
479.0441533081
 10
429.2666487762
 20
479.1520079842
 10
429.6163928492
 20
479.2653007802
 10
429.9607654128
 20
479.3839507119
 10
430.299520302
 20
479.5078729657
 10
430.6324153671
 20
479.6369789593
 10
430.9592126473
 20
479.7711764047
 10
431.2796785406
 20
479.9103693746
 10
431.5935839707
 20
480.0544583708
 10
431.9007045512
 20
480.2033403952
 10
432.2008207452
 20
480.3569090236
 10
432.493718023
 20
480.5150544818
 10
432.7791870152
 20
480.6776637238
 10
433.057023662
 20
480.8446205129
 10
433.3270293596
 20
481.0158055046
 10
433.589011102
 20
481.1910963322
 10
433.8427816186
 20
481.3703676937
 10
434.0881595087
 20
481.553491442
 10
434.3249693707
 20
481.7403366762
 10
434.5530419274
 20
481.930769835
 10
434.7722141477
 20
482.1246547927
 10
434.9823293623
 20
482.3218529558
 10
435.183237376
 20
482.5222233628
 10
435.3747945755
 20
482.7256227844
 10
435.5568640312
 20
482.9319058261
 10
435.729315596
 20
483.1409250322
 10
435.8920259975
 20
483.3525309911
 10
436.0448789266
 20
483.5665724421
 10
436.1877651208
 20
483.7828963836
 10
436.3205824418
 20
484.0013481824
 10
436.4432359488
 20
484.2217716843
 10
436.5556379662
 20
484.4440093256
 10
436.6577081467
 20
484.6679022459
 10
436.7493735281
 20
484.8932904015
 10
436.830568586
 20
485.1200126799
 10
436.9012352804
 20
485.3479070149
 10
436.9613230972
 20
485.5768105026
 10
437.0107890841
 20
485.8065595177
 10
437.0495978819
 20
486.0369898304
 10
437.0777217491
 20
486.2679367239
 10
437.0951405821
 20
486.4992351123
 10
437.1018419296
 20
486.7307196583
 10
437.0978210013
 20
486.9622248915
 10
437.0830806715
 20
487.1935853269
 10
437.0576314769
 20
487.4246355828
 10
437.0214916091
 20
487.6552104993
 10
436.9746869016
 20
487.8851452563
 10
436.9172508117
 20
488.1142754914
 10
436.8492243958
 20
488.342437417
 10
436.7706562808
 20
488.569467938
 10
436.681602629
 20
488.7952047678
 10
436.5821270977
 20
489.0194865447
 10
436.4723007945
 20
489.2421529471
 10
436.3522022256
 20
489.463044808
 10
436.2219172401
 20
489.682004229
 10
436.0815389687
 20
489.898874693
 10
435.9311677569
 20
490.1135011762
 10
435.7709110934
 20
490.3257302586
 10
435.6008835332
 20
490.5354102344
 10
435.4212066159
 20
490.7423912194
 10
435.2320087786
 20
490.946525259
 10
435.033425264
 20
491.1476664337
 10
434.8255980241
 20
491.3456709633
 10
434.6086756186
 20
491.5403973097
 10
434.3828131083
 20
491.7317062781
 10
434.1481719448
 20
491.9194611166
 10
433.904919855
 20
492.1035276139
 10
433.6532307209
 20
492.283774195
 10
433.3932844554
 20
492.4600720158
 10
433.3519257028
 20
492.4872590293
  0
LWPOLYLINE
  5
18C
330
1F
100
AcDbEntity
  8
0
  6
Continuous
 62
     7
370
    30
100
AcDbPolyline
 90
       58
 70
   128
 43
0.0
 10
410.8519257028
 20
492.4872590293
 10
410.7448163399
 20
492.4163746978
 10
410.4869171654
 20
492.2390777606
 10
410.2373206589
 20
492.057864013
 10
409.9962052375
 20
491.8728629907
 10
409.7637432561
 20
491.6842069365
 10
409.5401008836
 20
491.492030706
 10
409.3254379846
 20
491.296471671
 10
409.119908005
 20
491.0976696216
 10
408.9236578621
 20
490.895766666
 10
408.73682784
 20
490.6909071287
 10
408.5595514889
 20
490.4832374481
 10
408.3919555299
 20
490.2729060711
 10
408.2341597645
 20
490.0600633472
 10
408.0862769884
 20
489.8448614212
 10
407.9484129118
 20
489.6274541242
 10
407.8206660828
 20
489.4079968638
 10
407.7031278177
 20
489.1866465131
 10
407.5958821357
 20
488.9635612981
 10
407.4990056981
 20
488.7389006852
 10
407.4125677546
 20
488.5128252669
 10
407.3366300929
 20
488.2854966468
 10
407.2712469949
 20
488.0570773246
 10
407.216465198
 20
487.8277305795
 10
407.1723238613
 20
487.5976203538
 10
407.1388545381
 20
487.3669111352
 10
407.116081153
 20
487.13576784
 10
407.104019985
 20
486.9043556946
 10
407.1026796556
 20
486.6728401175
 10
407.112061123
 20
486.4413866012
 10
407.1321576809
 20
486.210160594
 10
407.1629549641
 20
485.9793273813
 10
407.2044309579
 20
485.7490519678
 10
407.2565560143
 20
485.5194989597
 10
407.3192928732
 20
485.2908324464
 10
407.3925966888
 20
485.063215884
 10
407.476415062
 20
484.8368119779
 10
407.5706880775
 20
484.6117825667
 10
407.6753483468
 20
484.3882885063
 10
407.7903210565
 20
484.1664895554
 10
407.9155240214
 20
483.9465442609
 10
408.0508677437
 20
483.7286098444
 10
408.1962554767
 20
483.5128420905
 10
408.351583294
 20
483.2993952348
 10
408.5167401637
 20
483.0884218538
 10
408.6916080281
 20
482.880072756
 10
408.8760618876
 20
482.6744968741
 10
409.0699698906
 20
482.4718411582
 10
409.2731934272
 20
482.2722504713
 10
409.4855872287
 20
482.0758674852
 10
409.7069994713
 20
481.8828325788
 10
409.9372718846
 20
481.6932837379
 10
410.1762398646
 20
481.5073564561
 10
410.4237325918
 20
481.3251836385
 10
410.6795731527
 20
481.1468955063
 10
410.9435786668
 20
480.9726195038
 10
411.2155604171
 20
480.8024802074
 10
411.495323985
 20
480.6365992365
  0
LWPOLYLINE
  5
18D
330
1F
100
AcDbEntity
  8
0
  6
Continuous
 62
     7
370
    30
100
AcDbPolyline
 90
       99
 70
   128
 43
0.0
 10
377.8207567886
 20
445.0323961583
 10
377.8200971776
 20
445.0327770055
 10
377.6104118855
 20
445.1602886777
 10
377.4064329824
 20
445.2973478062
 10
377.2083002653
 20
445.4438604574
 10
377.0161495244
 20
445.5997262189
 10
376.8301124501
 20
445.7648382681
 10
376.6503165431
 20
445.9390834455
 10
376.4768850265
 20
446.122342332
 10
376.3099367616
 20
446.3144893313
 10
376.1495861663
 20
446.5153927553
 10
375.995943137
 20
446.7249149148
 10
375.8491129729
 20
446.942912214
 10
375.709196304
 20
447.1692352482
 10
375.5762890224
 20
447.4037289071
 10
375.4504822159
 20
447.6462324803
 10
375.3318621063
 20
447.896579768
 10
375.2205099899
 20
448.1545991947
 10
375.1165021819
 20
448.4201139268
 10
375.019909964
 20
448.6929419937
 10
374.9307995356
 20
448.9728964127
 10
374.8492319687
 20
449.2597853171
 10
374.7752631656
 20
449.5534120875
 10
374.7089438208
 20
449.8535754867
 10
374.6503193863
 20
450.1600697979
 10
374.5994300402
 20
450.472684965
 10
374.5563106597
 20
450.7912067373
 10
374.5209907966
 20
451.1154168159
 10
374.4934946574
 20
451.4450930033
 10
374.4738410865
 20
451.780009356
 10
374.4620435536
 20
452.1199363391
 10
374.458110144
 20
452.4646409835
 10
374.4620435536
 20
452.8138870459
 10
374.4738410865
 20
453.1674351705
 10
374.4934946574
 20
453.5250430532
 10
374.5209907966
 20
453.8864656072
 10
374.5563106597
 20
454.2514551317
 10
374.5994300402
 20
454.619761481
 10
374.6503193863
 20
454.9911322365
 10
374.7089438208
 20
455.365312879
 10
374.7752631656
 20
455.7420469639
 10
374.8492319687
 20
456.1210762965
 10
374.9307995356
 20
456.502141109
 10
375.019909964
 20
456.8849802386
 10
375.1165021819
 20
457.2693313065
 10
375.2205099899
 20
457.6549308977
 10
375.3318621063
 20
458.0415147415
 10
375.4504822159
 20
458.4288178925
 10
375.5762890224
 20
458.8165749127
 10
375.709196304
 20
459.2045200526
 10
375.8491129729
 20
459.5923874341
 10
375.995943137
 20
459.9799112323
 10
376.1495861663
 20
460.3668258576
 10
376.3099367616
 20
460.7528661381
 10
376.4768850265
 20
461.1377675012
 10
376.6503165431
 20
461.5212661546
 10
376.8301124501
 20
461.9030992675
 10
377.0161495244
 20
462.2830051506
 10
377.2083002653
 20
462.6607234354
 10
377.4064329824
 20
463.0359952525
 10
377.6104118855
 20
463.4085634095
 10
377.8200971776
 20
463.7781725668
 10
378.0353451508
 20
464.1445694126
 10
378.256008285
 20
464.507502837
 10
378.4819353486
 20
464.8667241034
 10
378.7129715025
 20
465.2219870196
 10
378.9489584062
 20
465.573048106
 10
379.1897343259
 20
465.919666763
 10
379.4351342458
 20
466.2616054355
 10
379.6849899812
 20
466.5986297757
 10
379.9391302934
 20
466.930508804
 10
380.1973810073
 20
467.2570150671
 10
380.4595651307
 20
467.577924794
 10
380.7255029758
 20
467.893018049
 10
380.9950122821
 20
468.2020788831
 10
381.2679083413
 20
468.5048954814
 10
381.5440041241
 20
468.8012603085
 10
381.8231104082
 20
469.0909702508
 10
382.1050359082
 20
469.3738267555
 10
382.3895874064
 20
469.6496359669
 10
382.6765698854
 20
469.9182088592
 10
382.9657866617
 20
470.1793613659
 10
383.2570395207
 20
470.4329145062
 10
383.5501288521
 20
470.6786945073
 10
383.8448537871
 20
470.916532924
 10
384.1410123361
 20
471.1462667536
 10
384.4384015267
 20
471.3677385482
 10
384.7368175433
 20
471.5807965219
 10
385.0360558664
 20
471.7852946555
 10
385.335911413
 20
471.9810927962
 10
385.6361786771
 20
472.1680567537
 10
385.9366518705
 20
472.3460583923
 10
386.237125064
 20
472.5149757185
 10
386.5373923281
 20
472.6746929648
 10
386.8372478747
 20
472.825100669
 10
387.1364861978
 20
472.9660957492
 10
387.4349022143
 20
473.0975815744
 10
387.732291405
 20
473.2194680308
 10
387.7653103259
 20
473.2324334594
  0
LWPOLYLINE
  5
18E
330
1F
100
AcDbEntity
  8
0
  6
Continuous
 62
     7
370
    30
100
AcDbPolyline
 90
       83
 70
   128
 43
0.0
 10
383.5508278208
 20
469.6620869249
 10
383.3567773168
 20
469.4852337238
 10
383.0751626311
 20
469.2208961284
 10
382.7959062927
 20
468.9495943506
 10
382.5191928514
 20
468.6715076832
 10
382.2452051763
 20
468.386819903
 10
381.9741243354
 20
468.0957191491
 10
381.7061294754
 20
467.7983977987
 10
381.4413977039
 20
467.4950523401
 10
381.1801039719
 20
467.1858832426
 10
380.9224209582
 20
466.8710948241
 10
380.6685189557
 20
466.5508951161
 10
380.4185657584
 20
466.2254957262
 10
380.1727265506
 20
465.8951116983
 10
379.9311637981
 20
465.5599613705
 10
379.6940371403
 20
465.2202662306
 10
379.4615032851
 20
464.8762507701
 10
379.2337159051
 20
464.5281423354
 10
379.0108255362
 20
464.1761709781
 10
378.792979478
 20
463.8205693024
 10
378.5803216967
 20
463.4615723118
 10
378.3729927294
 20
463.0994172533
 10
378.1711295919
 20
462.7343434614
 10
377.9748656878
 20
462.3665921993
 10
377.7843307203
 20
461.9964064995
 10
377.5996506066
 20
461.6240310034
 10
377.4209473947
 20
461.2497117997
 10
377.2483391826
 20
460.8736962615
 10
377.0819400403
 20
460.4962328829
 10
376.9218599348
 20
460.1175711148
 10
376.7682046567
 20
459.7379612003
 10
376.6210757509
 20
459.3576540088
 10
376.4805704491
 20
458.9769008707
 10
376.346781606
 20
458.595953411
 10
376.2197976374
 20
458.2150633833
 10
376.099702462
 20
457.8344825029
 10
375.9865754463
 20
457.4544622812
 10
375.8804913514
 20
457.0752538588
 10
375.7815202841
 20
456.6971078398
 10
375.6897276508
 20
456.3202741265
 10
375.6051741136
 20
455.9450017537
 10
375.5279155506
 20
455.5715387243
 10
375.458003019
 20
455.2001318457
 10
375.3954827214
 20
454.8310265664
 10
375.340395975
 20
454.4644668137
 10
375.2927791845
 20
454.1006948328
 10
375.252663818
 20
453.7399510267
 10
375.2200763862
 20
453.3824737969
 10
375.1950384249
 20
453.0284993864
 10
375.1775664806
 20
452.6782617231
 10
375.1676721
 20
452.3319922657
 10
375.1653618218
 20
451.9899198501
 10
375.1706371728
 20
451.652270539
 10
375.1834946667
 20
451.3192674716
 10
375.2039258066
 20
450.9911307169
 10
375.2319170902
 20
450.6680771277
 10
375.2674500193
 20
450.3503201977
 10
375.3105011114
 20
450.0380699202
 10
375.3610419157
 20
449.7315326493
 10
375.4190390319
 20
449.4309109636
 10
375.4844541317
 20
449.1364035325
 10
375.557243985
 20
448.8482049846
 10
375.6373604878
 20
448.566505779
 10
375.724750694
 20
448.29149208
 10
375.819356851
 20
448.0233456334
 10
375.9211164371
 20
447.762243647
 10
376.0299622034
 20
447.5083586728
 10
376.1458222179
 20
447.2618584938
 10
376.2686199131
 20
447.0229060123
 10
376.398274137
 20
446.7916591429
 10
376.5346992059
 20
446.5682707075
 10
376.6778049618
 20
446.3528883351
 10
376.8274968316
 20
446.1456543636
 10
376.9836758899
 20
445.9467057458
 10
377.1462389237
 20
445.7561739592
 10
377.3150785016
 20
445.5741849189
 10
377.490083044
 20
445.4008588944
 10
377.6711368971
 20
445.2363104303
 10
377.8581204095
 20
445.0806482702
 10
378.0509100109
 20
444.9339752853
 10
378.2493782941
 20
444.7963884061
 10
378.4533940991
 20
444.6679785583
 10
378.6602248573
 20
444.5502338356
  0
LINE
  5
18F
330
1F
100
AcDbEntity
  8
0
  6
Continuous
 62
     7
370
    30
100
AcDbLine
 10
429.4631609179
 20
444.5766107943
 30
0.0
 11
429.4696782682
 21
444.5803171542
 31
0.0
  0
ENDSEC
  0
SECTION
  2
OBJECTS
  0
DICTIONARY
  5
C
330
0
100
AcDbDictionary
281
     1
  3
ACAD_GROUP
350
D
  3
ACAD_LAYOUT
350
1A
  3
ACAD_MLINESTYLE
350
17
  3
ACAD_PLOTSETTINGS
350
19
  3
ACAD_PLOTSTYLENAME
350
E
  3
ACAD_SCALELIST
350
47
  0
DICTIONARY
  5
D
102
{ACAD_REACTORS
330
C
102
}
330
C
100
AcDbDictionary
281
     1
  0
DICTIONARY
  5
1A
102
{ACAD_REACTORS
330
C
102
}
330
C
100
AcDbDictionary
281
     1
  3
Layout1
350
1E
  3
Layout2
350
26
  3
Model
350
22
  0
DICTIONARY
  5
17
102
{ACAD_REACTORS
330
C
102
}
330
C
100
AcDbDictionary
281
     1
  3
Standard
350
18
  0
DICTIONARY
  5
19
102
{ACAD_REACTORS
330
C
102
}
330
C
100
AcDbDictionary
281
     1
  0
ACDBDICTIONARYWDFLT
  5
E
102
{ACAD_REACTORS
330
C
102
}
330
C
100
AcDbDictionary
281
     1
  3
Normal
350
F
100
AcDbDictionaryWithDefault
340
F
  0
DICTIONARY
  5
47
102
{ACAD_REACTORS
330
C
102
}
330
C
100
AcDbDictionary
281
     1
  3
A0
350
48
  3
A1
350
49
  3
A2
350
4A
  3
A3
350
4B
  3
A4
350
4C
  3
A5
350
4D
  3
A6
350
4E
  3
A7
350
4F
  3
A8
350
50
  3
A9
350
51
  3
B0
350
52
  3
B1
350
53
  3
B2
350
54
  3
B3
350
55
  3
B4
350
56
  3
B5
350
57
  3
B6
350
58
  3
B7
350
59
  3
B8
350
5A
  3
B9
350
5B
  3
C0
350
5C
  3
C1
350
5D
  3
C2
350
5E
  3
C3
350
5F
  3
C4
350
60
  3
C5
350
61
  3
C6
350
62
  3
C7
350
63
  3
C8
350
64
  3
C9
350
65
  3
D0
350
66
  3
D1
350
67
  3
D2
350
68
  0
LAYOUT
  5
1E
102
{ACAD_REACTORS
330
1A
102
}
330
1A
100
AcDbPlotSettings
  1

  2
none_device
  4

  6

 40
0.0
 41
0.0
 42
0.0
 43
0.0
 44
0.0
 45
0.0
 46
0.0
 47
0.0
 48
0.0
 49
0.0
140
0.0
141
0.0
142
1.0
143
1.0
 70
   688
 72
     1
 73
     0
 74
     5
  7

 75
    16
147
1.0
148
0.0
149
0.0
100
AcDbLayout
  1
Layout1
 70
     1
 71
     1
 10
0.0
 20
0.0
 11
420.0
 21
297.0
 12
0.0
 22
0.0
 32
0.0
 14
1.0000000000E+20
 24
1.0000000000E+20
 34
1.0000000000E+20
 15
-1.0000000000E+20
 25
-1.0000000000E+20
 35
-1.0000000000E+20
146
0.0
 13
0.0
 23
0.0
 33
0.0
 16
1.0
 26
0.0
 36
0.0
 17
0.0
 27
1.0
 37
0.0
 76
     0
330
1B
  0
LAYOUT
  5
26
102
{ACAD_REACTORS
330
1A
102
}
330
1A
100
AcDbPlotSettings
  1

  2
none_device
  4

  6

 40
0.0
 41
0.0
 42
0.0
 43
0.0
 44
0.0
 45
0.0
 46
0.0
 47
0.0
 48
0.0
 49
0.0
140
0.0
141
0.0
142
1.0
143
1.0
 70
   688
 72
     1
 73
     0
 74
     5
  7

 75
    16
147
1.0
148
0.0
149
0.0
100
AcDbLayout
  1
Layout2
 70
     1
 71
     2
 10
0.0
 20
0.0
 11
0.0
 21
0.0
 12
0.0
 22
0.0
 32
0.0
 14
0.0
 24
0.0
 34
0.0
 15
0.0
 25
0.0
 35
0.0
146
0.0
 13
0.0
 23
0.0
 33
0.0
 16
1.0
 26
0.0
 36
0.0
 17
0.0
 27
1.0
 37
0.0
 76
     0
330
23
  0
LAYOUT
  5
22
102
{ACAD_REACTORS
330
1A
102
}
330
1A
100
AcDbPlotSettings
  1

  2
none_device
  4
Letter_(8.50_x_11.00_Inches)
  6

 40
6.35
 41
6.35
 42
6.35000508
 43
6.35000508
 44
215.9
 45
279.4
 46
0.0
 47
0.0
 48
0.0
 49
0.0
140
0.0
141
0.0
142
1.0
143
1.0
 70
  1712
 72
     1
 73
     0
 74
     0
  7

 75
     0
147
1.0
148
0.0
149
0.0
100
AcDbLayout
  1
Model
 70
     1
 71
     0
 10
0.0
 20
0.0
 11
495.0
 21
1997.0
 12
0.0
 22
0.0
 32
0.0
 14
0.0
 24
0.0
 34
0.0
 15
495.0
 25
1997.0
 35
0.0
146
0.0
 13
0.0
 23
0.0
 33
0.0
 16
1.0
 26
0.0
 36
0.0
 17
0.0
 27
1.0
 37
0.0
 76
     0
330
1F
331
29
  0
MLINESTYLE
  5
18
102
{ACAD_REACTORS
330
17
102
}
330
17
100
AcDbMlineStyle
  2
Standard
 70
     0
  3

 62
   256
 51
90.0
 52
90.0
 71
     2
 49
0.5
 62
   256
  6
BYLAYER
 49
-0.5
 62
   256
  6
BYLAYER
  0
ACDBPLACEHOLDER
  5
F
102
{ACAD_REACTORS
330
E
102
}
330
E
  0
SCALE
  5
48
102
{ACAD_REACTORS
330
47
102
}
330
47
100
AcDbScale
 70
     0
300
1:1
140
1.0
141
1.0
290
     1
  0
SCALE
  5
49
102
{ACAD_REACTORS
330
47
102
}
330
47
100
AcDbScale
 70
     0
300
1:2
140
1.0
141
2.0
290
     0
  0
SCALE
  5
4A
102
{ACAD_REACTORS
330
47
102
}
330
47
100
AcDbScale
 70
     0
300
1:4
140
1.0
141
4.0
290
     0
  0
SCALE
  5
4B
102
{ACAD_REACTORS
330
47
102
}
330
47
100
AcDbScale
 70
     0
300
1:5
140
1.0
141
5.0
290
     0
  0
SCALE
  5
4C
102
{ACAD_REACTORS
330
47
102
}
330
47
100
AcDbScale
 70
     0
300
1:8
140
1.0
141
8.0
290
     0
  0
SCALE
  5
4D
102
{ACAD_REACTORS
330
47
102
}
330
47
100
AcDbScale
 70
     0
300
1:10
140
1.0
141
10.0
290
     0
  0
SCALE
  5
4E
102
{ACAD_REACTORS
330
47
102
}
330
47
100
AcDbScale
 70
     0
300
1:16
140
1.0
141
16.0
290
     0
  0
SCALE
  5
4F
102
{ACAD_REACTORS
330
47
102
}
330
47
100
AcDbScale
 70
     0
300
1:20
140
1.0
141
20.0
290
     0
  0
SCALE
  5
50
102
{ACAD_REACTORS
330
47
102
}
330
47
100
AcDbScale
 70
     0
300
1:30
140
1.0
141
30.0
290
     0
  0
SCALE
  5
51
102
{ACAD_REACTORS
330
47
102
}
330
47
100
AcDbScale
 70
     0
300
1:40
140
1.0
141
40.0
290
     0
  0
SCALE
  5
52
102
{ACAD_REACTORS
330
47
102
}
330
47
100
AcDbScale
 70
     0
300
1:50
140
1.0
141
50.0
290
     0
  0
SCALE
  5
53
102
{ACAD_REACTORS
330
47
102
}
330
47
100
AcDbScale
 70
     0
300
1:100
140
1.0
141
100.0
290
     0
  0
SCALE
  5
54
102
{ACAD_REACTORS
330
47
102
}
330
47
100
AcDbScale
 70
     0
300
2:1
140
2.0
141
1.0
290
     0
  0
SCALE
  5
55
102
{ACAD_REACTORS
330
47
102
}
330
47
100
AcDbScale
 70
     0
300
4:1
140
4.0
141
1.0
290
     0
  0
SCALE
  5
56
102
{ACAD_REACTORS
330
47
102
}
330
47
100
AcDbScale
 70
     0
300
8:1
140
8.0
141
1.0
290
     0
  0
SCALE
  5
57
102
{ACAD_REACTORS
330
47
102
}
330
47
100
AcDbScale
 70
     0
300
10:1
140
10.0
141
1.0
290
     0
  0
SCALE
  5
58
102
{ACAD_REACTORS
330
47
102
}
330
47
100
AcDbScale
 70
     0
300
100:1
140
100.0
141
1.0
290
     0
  0
SCALE
  5
59
102
{ACAD_REACTORS
330
47
102
}
330
47
100
AcDbScale
 70
     0
300
1/128" = 1'-0"
140
0.0078125
141
12.0
290
     0
  0
SCALE
  5
5A
102
{ACAD_REACTORS
330
47
102
}
330
47
100
AcDbScale
 70
     0
300
1/64" = 1'-0"
140
0.015625
141
12.0
290
     0
  0
SCALE
  5
5B
102
{ACAD_REACTORS
330
47
102
}
330
47
100
AcDbScale
 70
     0
300
1/32" = 1'-0"
140
0.03125
141
12.0
290
     0
  0
SCALE
  5
5C
102
{ACAD_REACTORS
330
47
102
}
330
47
100
AcDbScale
 70
     0
300
1/16" = 1'-0"
140
0.0625
141
12.0
290
     0
  0
SCALE
  5
5D
102
{ACAD_REACTORS
330
47
102
}
330
47
100
AcDbScale
 70
     0
300
3/32" = 1'-0"
140
0.09375
141
12.0
290
     0
  0
SCALE
  5
5E
102
{ACAD_REACTORS
330
47
102
}
330
47
100
AcDbScale
 70
     0
300
1/8" = 1'-0"
140
0.125
141
12.0
290
     0
  0
SCALE
  5
5F
102
{ACAD_REACTORS
330
47
102
}
330
47
100
AcDbScale
 70
     0
300
3/16" = 1'-0"
140
0.1875
141
12.0
290
     0
  0
SCALE
  5
60
102
{ACAD_REACTORS
330
47
102
}
330
47
100
AcDbScale
 70
     0
300
1/4" = 1'-0"
140
0.25
141
12.0
290
     0
  0
SCALE
  5
61
102
{ACAD_REACTORS
330
47
102
}
330
47
100
AcDbScale
 70
     0
300
3/8" = 1'-0"
140
0.375
141
12.0
290
     0
  0
SCALE
  5
62
102
{ACAD_REACTORS
330
47
102
}
330
47
100
AcDbScale
 70
     0
300
1/2" = 1'-0"
140
0.5
141
12.0
290
     0
  0
SCALE
  5
63
102
{ACAD_REACTORS
330
47
102
}
330
47
100
AcDbScale
 70
     0
300
3/4" = 1'-0"
140
0.75
141
12.0
290
     0
  0
SCALE
  5
64
102
{ACAD_REACTORS
330
47
102
}
330
47
100
AcDbScale
 70
     0
300
1" = 1'-0"
140
1.0
141
12.0
290
     0
  0
SCALE
  5
65
102
{ACAD_REACTORS
330
47
102
}
330
47
100
AcDbScale
 70
     0
300
1-1/2" = 1'-0"
140
1.5
141
12.0
290
     0
  0
SCALE
  5
66
102
{ACAD_REACTORS
330
47
102
}
330
47
100
AcDbScale
 70
     0
300
3" = 1'-0"
140
3.0
141
12.0
290
     0
  0
SCALE
  5
67
102
{ACAD_REACTORS
330
47
102
}
330
47
100
AcDbScale
 70
     0
300
6" = 1'-0"
140
6.0
141
12.0
290
     0
  0
SCALE
  5
68
102
{ACAD_REACTORS
330
47
102
}
330
47
100
AcDbScale
 70
     0
300
1'-0" = 1'-0"
140
12.0
141
12.0
290
     0
  0
ENDSEC
  0
EOF
