  0
SECTION
  2
HEADER
  9
$ACADVER
  1
AC1015
  9
$ACADMAINTVER
 70
     6
  9
$DWGCODEPAGE
  3
ANSI_1252
  9
$INSBASE
 10
0.0
 20
0.0
 30
0.0
  9
$EXTMIN
 10
0.0
 20
0.0
 30
0.0
  9
$EXTMAX
 10
417.0
 20
284.0
 30
0.0
  9
$LIMMIN
 10
0.0
 20
0.0
  9
$LIMMAX
 10
417.0
 20
284.0
  9
$ORTHOMODE
 70
     0
  9
$REGENMODE
 70
     1
  9
$FILLMODE
 70
     1
  9
$QTEXTMODE
 70
     0
  9
$MIRRTEXT
 70
     1
  9
$LTSCALE
 40
1.0
  9
$ATTMODE
 70
     1
  9
$TEXTSIZE
 40
3.5
  9
$TRACEWID
 40
1.0
  9
$TEXTSTYLE
  7
Standard
  9
$CLAYER
  8
0
  9
$CELTYPE
  6
ByLayer
  9
$CECOLOR
 62
   256
  9
$CELTSCALE
 40
1.0
  9
$DISPSILH
 70
     0
  9
$DIMSCALE
 40
1.0
  9
$DIMASZ
 40
3.302
  9
$DIMEXO
 40
1.0
  9
$DIMDLI
 40
3.75
  9
$DIMRND
 40
0.0
  9
$DIMDLE
 40
0.0
  9
$DIMEXE
 40
1.0
  9
$DIMTP
 40
0.0
  9
$DIMTM
 40
0.0
  9
$DIMTXT
 40
2.8
  9
$DIMCEN
 40
2.5
  9
$DIMTSZ
 40
0.0
  9
$DIMTOL
 70
     0
  9
$DIMLIM
 70
     0
  9
$DIMTIH
 70
     1
  9
$DIMTOH
 70
     1
  9
$DIMSE1
 70
     0
  9
$DIMSE2
 70
     0
  9
$DIMTAD
 70
     1
  9
$DIMZIN
 70
     0
  9
$DIMBLK
  1

  9
$DIMASO
 70
     1
  9
$DIMSHO
 70
     1
  9
$DIMPOST
  1

  9
$DIMAPOST
  1

  9
$DIMALT
 70
     0
  9
$DIMALTD
 70
     3
  9
$DIMALTF
 40
0.0393700787
  9
$DIMLFAC
 40
1.0
  9
$DIMTOFL
 70
     1
  9
$DIMTVP
 40
0.0
  9
$DIMTIX
 70
     0
  9
$DIMSOXD
 70
     0
  9
$DIMSAH
 70
     0
  9
$DIMBLK1
  1

  9
$DIMBLK2
  1

  9
$DIMSTYLE
  2
ISO-25
  9
$DIMCLRD
 70
     0
  9
$DIMCLRE
 70
     0
  9
$DIMCLRT
 70
     0
  9
$DIMTFAC
 40
1.0
  9
$DIMGAP
 40
1.524
  9
$DIMJUST
 70
     0
  9
$DIMSD1
 70
     0
  9
$DIMSD2
 70
     0
  9
$DIMTOLJ
 70
     0
  9
$DIMTZIN
 70
     0
  9
$DIMALTZ
 70
     0
  9
$DIMALTTZ
 70
     0
  9
$DIMUPT
 70
     0
  9
$DIMDEC
 70
     2
  9
$DIMTDEC
 70
     2
  9
$DIMALTU
 70
     2
  9
$DIMALTTD
 70
     3
  9
$DIMTXSTY
  7
Standard
  9
$DIMAUNIT
 70
     0
  9
$DIMADEC
 70
     2
  9
$DIMALTRND
 40
0.0
  9
$DIMAZIN
 70
     0
  9
$DIMDSEP
 70
    44
  9
$DIMATFIT
 70
     3
  9
$DIMFRAC
 70
     0
  9
$DIMLDRBLK
  1

  9
$DIMLUNIT
 70
     2
  9
$DIMLWD
 70
    -2
  9
$DIMLWE
 70
    -2
  9
$DIMTMOVE
 70
     0
  9
$LUNITS
 70
     2
  9
$LUPREC
 70
     2
  9
$SKETCHINC
 40
1.0
  9
$FILLETRAD
 40
10.0
  9
$AUNITS
 70
     0
  9
$AUPREC
 70
     2
  9
$MENU
  1
.
  9
$ELEVATION
 40
0.0
  9
$PELEVATION
 40
0.0
  9
$THICKNESS
 40
0.0
  9
$LIMCHECK
 70
     0
  9
$CHAMFERA
 40
0.0
  9
$CHAMFERB
 40
0.0
  9
$CHAMFERC
 40
0.0
  9
$CHAMFERD
 40
0.0
  9
$SKPOLY
 70
     0
  9
$TDCREATE
 40
2459188.464050174
  9
$TDUCREATE
 40
2459188.38071684
  9
$TDUPDATE
 40
2459188.46405059
  9
$TDUUPDATE
 40
2459188.380717257
  9
$TDINDWG
 40
0.0000000116
  9
$TDUSRTIMER
 40
0.0000000116
  9
$USRTIMER
 70
     1
  9
$ANGBASE
 50
0.0
  9
$ANGDIR
 70
     0
  9
$PDMODE
 70
     0
  9
$PDSIZE
 40
-1.0
  9
$PLINEWID
 40
0.0
  9
$SPLFRAME
 70
     0
  9
$SPLINETYPE
 70
     6
  9
$SPLINESEGS
 70
     8
  9
$HANDSEED
  5
FF
  9
$SURFTAB1
 70
     6
  9
$SURFTAB2
 70
     6
  9
$SURFTYPE
 70
     6
  9
$SURFU
 70
     6
  9
$SURFV
 70
     6
  9
$UCSBASE
  2

  9
$UCSNAME
  2

  9
$UCSORG
 10
0.0
 20
0.0
 30
0.0
  9
$UCSXDIR
 10
1.0
 20
0.0
 30
0.0
  9
$UCSYDIR
 10
0.0
 20
1.0
 30
0.0
  9
$UCSORTHOREF
  2

  9
$UCSORTHOVIEW
 70
     0
  9
$UCSORGTOP
 10
0.0
 20
0.0
 30
0.0
  9
$UCSORGBOTTOM
 10
0.0
 20
0.0
 30
0.0
  9
$UCSORGLEFT
 10
0.0
 20
0.0
 30
0.0
  9
$UCSORGRIGHT
 10
0.0
 20
0.0
 30
0.0
  9
$UCSORGFRONT
 10
0.0
 20
0.0
 30
0.0
  9
$UCSORGBACK
 10
0.0
 20
0.0
 30
0.0
  9
$PUCSBASE
  2

  9
$PUCSNAME
  2

  9
$PUCSORG
 10
0.0
 20
0.0
 30
0.0
  9
$PUCSXDIR
 10
1.0
 20
0.0
 30
0.0
  9
$PUCSYDIR
 10
0.0
 20
1.0
 30
0.0
  9
$PUCSORTHOREF
  2

  9
$PUCSORTHOVIEW
 70
     0
  9
$PUCSORGTOP
 10
0.0
 20
0.0
 30
0.0
  9
$PUCSORGBOTTOM
 10
0.0
 20
0.0
 30
0.0
  9
$PUCSORGLEFT
 10
0.0
 20
0.0
 30
0.0
  9
$PUCSORGRIGHT
 10
0.0
 20
0.0
 30
0.0
  9
$PUCSORGFRONT
 10
0.0
 20
0.0
 30
0.0
  9
$PUCSORGBACK
 10
0.0
 20
0.0
 30
0.0
  9
$USERI1
 70
     0
  9
$USERI2
 70
     0
  9
$USERI3
 70
     0
  9
$USERI4
 70
     0
  9
$USERI5
 70
     0
  9
$USERR1
 40
0.0
  9
$USERR2
 40
0.0
  9
$USERR3
 40
0.0
  9
$USERR4
 40
0.0
  9
$USERR5
 40
0.0
  9
$WORLDVIEW
 70
     1
  9
$SHADEDGE
 70
     3
  9
$SHADEDIF
 70
    70
  9
$TILEMODE
 70
     1
  9
$MAXACTVP
 70
    64
  9
$PINSBASE
 10
0.0
 20
0.0
 30
0.0
  9
$PLIMCHECK
 70
     0
  9
$PEXTMIN
 10
1.0000000000E+20
 20
1.0000000000E+20
 30
1.0000000000E+20
  9
$PEXTMAX
 10
-1.0000000000E+20
 20
-1.0000000000E+20
 30
-1.0000000000E+20
  9
$PLIMMIN
 10
0.0
 20
0.0
  9
$PLIMMAX
 10
420.0
 20
297.0
  9
$UNITMODE
 70
     0
  9
$VISRETAIN
 70
     1
  9
$PLINEGEN
 70
     0
  9
$PSLTSCALE
 70
     1
  9
$TREEDEPTH
 70
  3020
  9
$CMLSTYLE
  2
Standard
  9
$CMLJUST
 70
     0
  9
$CMLSCALE
 40
20.0
  9
$PROXYGRAPHICS
 70
     1
  9
$MEASUREMENT
 70
     1
  9
$CELWEIGHT
370
    -1
  9
$ENDCAPS
280
     0
  9
$JOINSTYLE
280
     0
  9
$LWDISPLAY
290
     1
  9
$INSUNITS
 70
     4
  9
$HYPERLINKBASE
  1

  9
$STYLESHEET
  1

  9
$XEDIT
290
     1
  9
$CEPSNTYPE
380
     0
  9
$PSTYLEMODE
290
     1
  9
$FINGERPRINTGUID
  2
{B3585476-05B3-4E09-AD43-C4AD1714E3CA}
  9
$VERSIONGUID
  2
{FAEB1C32-E019-11D5-929B-00C0DF256EC4}
  9
$EXTNAMES
290
     1
  9
$PSVPSCALE
 40
0.0
  9
$OLESTARTUP
290
     0
  0
ENDSEC
  0
SECTION
  2
CLASSES
  0
CLASS
  1
ACDBDICTIONARYWDFLT
  2
AcDbDictionaryWithDefault
  3
ObjectDBX Classes
 90
        0
280
     0
281
     0
  0
CLASS
  1
VISUALSTYLE
  2
AcDbVisualStyle
  3
ObjectDBX Classes
 90
     4095
280
     0
281
     0
  0
CLASS
  1
MATERIAL
  2
AcDbMaterial
  3
ObjectDBX Classes
 90
     1153
280
     0
281
     0
  0
CLASS
  1
SCALE
  2
AcDbScale
  3
ObjectDBX Classes
 90
     1153
280
     0
281
     0
  0
CLASS
  1
TABLESTYLE
  2
AcDbTableStyle
  3
ObjectDBX Classes
 90
     4095
280
     0
281
     0
  0
CLASS
  1
MLEADERSTYLE
  2
AcDbMLeaderStyle
  3
ACDB_MLEADERSTYLE_CLASS
 90
     4095
280
     0
281
     0
  0
CLASS
  1
SUN
  2
AcDbSun
  3
SCENEOE
 90
     1153
280
     0
281
     0
  0
CLASS
  1
ACDBPLACEHOLDER
  2
AcDbPlaceHolder
  3
ObjectDBX Classes
 90
        0
280
     0
281
     0
  0
CLASS
  1
LAYOUT
  2
AcDbLayout
  3
ObjectDBX Classes
 90
        0
280
     0
281
     0
  0
ENDSEC
  0
SECTION
  2
TABLES
  0
TABLE
  2
VPORT
  5
8
330
0
100
AcDbSymbolTable
 70
     1
  0
VPORT
  5
29
330
8
100
AcDbSymbolTableRecord
100
AcDbViewportTableRecord
  2
*Active
 70
     0
 10
0.0
 20
0.0
 11
1.0
 21
1.0
 12
208.5
 22
142.0
 13
0.0
 23
0.0
 14
10.0
 24
10.0
 15
10.0
 25
10.0
 16
0.0
 26
0.0
 36
1.0
 17
0.0
 27
0.0
 37
0.0
 40
284.0
 41
1.4683098592
 42
50.0
 43
0.0
 44
0.0
 50
0.0
 51
0.0
 71
     0
 72
  2000
 73
     1
 74
     3
 75
     0
 76
     0
 77
     0
 78
     0
281
     0
 65
     1
110
0.0
120
0.0
130
0.0
111
1.0
121
0.0
131
0.0
112
0.0
122
1.0
132
0.0
 79
     0
146
0.0
  0
ENDTAB
  0
TABLE
  2
LTYPE
  5
5
330
0
100
AcDbSymbolTable
 70
     6
  0
LTYPE
  5
14
330
5
100
AcDbSymbolTableRecord
100
AcDbLinetypeTableRecord
  2
ByBlock
 70
     0
  3

 72
    65
 73
     0
 40
0.0
  0
LTYPE
  5
15
330
5
100
AcDbSymbolTableRecord
100
AcDbLinetypeTableRecord
  2
ByLayer
 70
     0
  3

 72
    65
 73
     0
 40
0.0
  0
LTYPE
  5
16
330
5
100
AcDbSymbolTableRecord
100
AcDbLinetypeTableRecord
  2
Continuous
 70
     0
  3
Solid line
 72
    65
 73
     0
 40
0.0
  0
LTYPE
  5
6E
330
5
100
AcDbSymbolTableRecord
100
AcDbLinetypeTableRecord
  2
HIDDEN
 70
     0
  3
Hidden __ __ __ __ __ __ __ __ __ __ __ __ __ __
 72
    65
 73
     2
 40
1.905
 49
1.27
 74
     0
 49
-0.635
 74
     0
  0
LTYPE
  5
6F
330
5
100
AcDbSymbolTableRecord
100
AcDbLinetypeTableRecord
  2
PHANTOM
 70
     0
  3
Phantom ______  __  __  ______  __  __  ______
 72
    65
 73
     6
 40
12.7
 49
6.35
 74
     0
 49
-1.27
 74
     0
 49
1.27
 74
     0
 49
-1.27
 74
     0
 49
1.27
 74
     0
 49
-1.27
 74
     0
  0
LTYPE
  5
70
330
5
100
AcDbSymbolTableRecord
100
AcDbLinetypeTableRecord
  2
CENTER
 70
     0
  3
Center ____ _ ____ _ ____ _ ____ _ ____ _ ____
 72
    65
 73
     4
 40
10.16
 49
6.35
 74
     0
 49
-1.27
 74
     0
 49
1.27
 74
     0
 49
-1.27
 74
     0
  0
LTYPE
  5
71
330
5
100
AcDbSymbolTableRecord
100
AcDbLinetypeTableRecord
  2
CENTERX2
 70
     0
  3
Center (2x) ________  __  ________  __  _____
 72
    65
 73
     4
 40
20.32
 49
12.7
 74
     0
 49
-2.54
 74
     0
 49
2.54
 74
     0
 49
-2.54
 74
     0
  0
LTYPE
  5
72
330
5
100
AcDbSymbolTableRecord
100
AcDbLinetypeTableRecord
  2
DOT2
 70
     0
  3
Dot (.5x) ........................................
 72
    65
 73
     2
 40
0.635
 49
0.0
 74
     0
 49
-0.635
 74
     0
  0
ENDTAB
  0
TABLE
  2
LAYER
  5
2
330
0
100
AcDbSymbolTable
 70
     2
  0
LAYER
  5
10
330
2
100
AcDbSymbolTableRecord
100
AcDbLayerTableRecord
  2
0
 70
     0
 62
     7
  6
Continuous
370
    -3
390
F
  0
LAYER
  5
73
330
2
100
AcDbSymbolTableRecord
100
AcDbLayerTableRecord
  2
FORMAT
 70
     0
 62
     7
  6
Continuous
370
    -3
390
F
  0
ENDTAB
  0
TABLE
  2
STYLE
  5
3
330
0
100
AcDbSymbolTable
 70
     2
  0
STYLE
  5
11
330
3
100
AcDbSymbolTableRecord
100
AcDbTextStyleTableRecord
  2
Standard
 70
     0
 40
0.0
 41
1.0
 50
0.0
 71
     0
 42
3.5
  3
txt
  4

  0
STYLE
  5
74
330
3
100
AcDbSymbolTableRecord
100
AcDbTextStyleTableRecord
  2
SLDTEXTSTYLE0
 70
     0
 40
0.0
 41
0.605
 50
0.0
 71
     0
 42
3.5
  3
TXT
  4

  0
ENDTAB
  0
TABLE
  2
VIEW
  5
6
330
0
100
AcDbSymbolTable
 70
     0
  0
ENDTAB
  0
TABLE
  2
UCS
  5
7
330
0
100
AcDbSymbolTable
 70
     0
  0
ENDTAB
  0
TABLE
  2
APPID
  5
9
330
0
100
AcDbSymbolTable
 70
     1
  0
APPID
  5
12
330
9
100
AcDbSymbolTableRecord
100
AcDbRegAppTableRecord
  2
ACAD
 70
     0
  0
ENDTAB
  0
TABLE
  2
DIMSTYLE
  5
A
330
0
100
AcDbSymbolTable
 70
     1
100
AcDbDimStyleTable
  0
DIMSTYLE
105
27
330
A
100
AcDbSymbolTableRecord
100
AcDbDimStyleTableRecord
  2
ISO-25
 70
     0
 41
2.5
 42
0.625
 43
3.75
 44
1.25
 73
     0
 74
     0
 77
     1
 78
     8
140
2.5
141
2.5
143
0.0393700787
147
0.625
171
     3
172
     1
178
     0
271
     2
272
     2
274
     3
278
    44
283
     0
284
     8
340
11
  0
ENDTAB
  0
TABLE
  2
BLOCK_RECORD
  5
1
330
0
100
AcDbSymbolTable
 70
     1
  0
BLOCK_RECORD
  5
1F
330
1
100
AcDbSymbolTableRecord
100
AcDbBlockTableRecord
  2
*Model_Space
340
22
  0
BLOCK_RECORD
  5
1B
330
1
100
AcDbSymbolTableRecord
100
AcDbBlockTableRecord
  2
*Paper_Space
340
1E
  0
BLOCK_RECORD
  5
23
330
1
100
AcDbSymbolTableRecord
100
AcDbBlockTableRecord
  2
*Paper_Space0
340
26
  0
ENDTAB
  0
ENDSEC
  0
SECTION
  2
BLOCKS
  0
BLOCK
  5
20
330
1F
100
AcDbEntity
  8
0
100
AcDbBlockBegin
  2
*Model_Space
 70
     0
 10
0.0
 20
0.0
 30
0.0
  3
*Model_Space
  1

  0
ENDBLK
  5
21
330
1F
100
AcDbEntity
  8
0
100
AcDbBlockEnd
  0
BLOCK
  5
1C
330
1B
100
AcDbEntity
 67
     1
  8
0
100
AcDbBlockBegin
  2
*Paper_Space
 70
     0
 10
0.0
 20
0.0
 30
0.0
  3
*Paper_Space
  1

  0
ENDBLK
  5
1D
330
1B
100
AcDbEntity
 67
     1
  8
0
100
AcDbBlockEnd
  0
BLOCK
  5
24
330
23
100
AcDbEntity
  8
0
100
AcDbBlockBegin
  2
*Paper_Space0
 70
     0
 10
0.0
 20
0.0
 30
0.0
  3
*Paper_Space0
  1

  0
ENDBLK
  5
25
330
23
100
AcDbEntity
  8
0
100
AcDbBlockEnd
  0
ENDSEC
  0
SECTION
  2
ENTITIES
  0
MTEXT
  5
75
330
1F
100
AcDbEntity
  8
0
  6
Continuous
 62
     7
370
     0
100
AcDbMText
 10
7.2782978723
 20
22.1884790273
 30
0.0
 40
10.0
 41
0.0
 71
     1
 72
     1
  1
1:1
  7
SLDTEXTSTYLE0
 73
     1
 44
1.0
  0
LINE
  5
76
330
1F
100
AcDbEntity
  8
0
  6
Continuous
 62
     7
370
    30
100
AcDbLine
 10
198.0
 20
208.7878573572
 30
0.0
 11
198.0
 21
202.2249319686
 31
0.0
  0
LINE
  5
77
330
1F
100
AcDbEntity
  8
0
  6
Continuous
 62
     7
370
    30
100
AcDbLine
 10
219.0
 20
202.2249319686
 30
0.0
 11
219.0
 21
208.7878573572
 31
0.0
  0
LINE
  5
78
330
1F
100
AcDbEntity
  8
0
  6
Continuous
 62
     7
370
    30
100
AcDbLine
 10
198.0225
 20
202.2249319686
 30
0.0
 11
198.0225
 21
194.9088033625
 31
0.0
  0
LINE
  5
79
330
1F
100
AcDbEntity
  8
0
  6
Continuous
 62
     7
370
    30
100
AcDbLine
 10
218.9775
 20
194.9088033625
 30
0.0
 11
218.9775
 21
202.2249319686
 31
0.0
  0
LINE
  5
7A
330
1F
100
AcDbEntity
  8
0
  6
Continuous
 62
     7
370
    30
100
AcDbLine
 10
198.0225
 20
194.9088033625
 30
0.0
 11
199.1845
 21
194.2249319686
 31
0.0
  0
LINE
  5
7B
330
1F
100
AcDbEntity
  8
0
  6
Continuous
 62
     7
370
    30
100
AcDbLine
 10
217.8155
 20
194.2249319686
 30
0.0
 11
218.9775
 21
194.9088033625
 31
0.0
  0
LINE
  5
7C
330
1F
100
AcDbEntity
  8
0
  6
Continuous
 62
     7
370
    30
100
AcDbLine
 10
198.0
 20
202.2249319686
 30
0.0
 11
219.0
 21
202.2249319686
 31
0.0
  0
LINE
  5
7D
330
1F
100
AcDbEntity
  8
0
  6
Continuous
 62
     7
370
    30
100
AcDbLine
 10
218.9775
 20
194.9088033625
 30
0.0
 11
198.0225
 21
194.9088033625
 31
0.0
  0
LINE
  5
7E
330
1F
100
AcDbEntity
  8
0
  6
Continuous
 62
     7
370
    30
100
AcDbLine
 10
199.1845
 20
194.2249319686
 30
0.0
 11
217.8155
 21
194.2249319686
 31
0.0
  0
ELLIPSE
  5
7F
330
1F
100
AcDbEntity
  8
0
  6
Continuous
 62
     7
370
    30
100
AcDbEllipse
 10
173.0003046561
 20
254.9996953439
 30
0.0
 11
1.414644378339176
 21
-1.414644378339176
 31
0.0
210
0.0
220
0.0
230
1.0
 40
0.9996954599
 41
2.356346783439914
 42
3.9268385237397
  0
ELLIPSE
  5
80
330
1F
100
AcDbEntity
  8
0
  6
Continuous
 62
     7
370
    30
100
AcDbEllipse
 10
173.0003046561
 20
184.0003046561
 30
0.0
 11
1.414644378339176
 21
1.414644378339176
 31
0.0
210
0.0
220
0.0
230
1.0
 40
0.9996954599
 41
2.356346783439909
 42
3.926838523739691
  0
ELLIPSE
  5
81
330
1F
100
AcDbEntity
  8
0
  6
Continuous
 62
     7
370
    30
100
AcDbEllipse
 10
243.9996953439
 20
254.9996953439
 30
0.0
 11
-1.414644378339176
 21
-1.414644378339176
 31
0.0
210
0.0
220
0.0
230
1.0
 40
0.9996954599
 41
2.3563467834399
 42
3.926838523739672
  0
ELLIPSE
  5
82
330
1F
100
AcDbEntity
  8
0
  6
Continuous
 62
     7
370
    30
100
AcDbEllipse
 10
243.9996953439
 20
184.0003046561
 30
0.0
 11
-1.414644378339148
 21
1.414644378339204
 31
0.0
210
0.0
220
0.0
230
1.0
 40
0.9996954599
 41
2.356346783439954
 42
3.926838523739701
  0
LINE
  5
83
330
1F
100
AcDbEntity
  8
0
  6
Continuous
 62
     7
370
    30
100
AcDbLine
 10
244.0003046097
 20
257.0
 30
0.0
 11
172.9996953903
 21
257.0
 31
0.0
  0
LINE
  5
84
330
1F
100
AcDbEntity
  8
0
  6
Continuous
 62
     7
370
    30
100
AcDbLine
 10
171.0
 20
255.0003046097
 30
0.0
 11
171.0
 21
183.9996953903
 31
0.0
  0
LINE
  5
85
330
1F
100
AcDbEntity
  8
0
  6
Continuous
 62
     7
370
    30
100
AcDbLine
 10
172.9996953903
 20
182.0
 30
0.0
 11
244.0003046097
 21
182.0
 31
0.0
  0
LINE
  5
86
330
1F
100
AcDbEntity
  8
0
  6
Continuous
 62
     7
370
    30
100
AcDbLine
 10
246.0
 20
183.9996953903
 30
0.0
 11
246.0
 21
255.0003046097
 31
0.0
  0
CIRCLE
  5
87
330
1F
100
AcDbEntity
  8
0
  6
Continuous
 62
     7
370
    30
100
AcDbCircle
 10
208.5
 20
219.5
 30
0.0
 40
15.0
  0
LINE
  5
88
330
1F
100
AcDbEntity
  8
0
  6
Continuous
 62
     7
370
    30
100
AcDbLine
 10
364.4994257833
 20
204.5
 30
0.0
 11
364.4994257833
 21
202.2249319686
 31
0.0
  0
LINE
  5
89
330
1F
100
AcDbEntity
  8
0
  6
Continuous
 62
     7
370
    30
100
AcDbLine
 10
385.4994257833
 20
202.2249319686
 30
0.0
 11
385.4994257833
 21
204.5
 31
0.0
  0
LINE
  5
8A
330
1F
100
AcDbEntity
  8
0
  6
Continuous
 62
     7
370
    30
100
AcDbLine
 10
364.5219257833
 20
194.9088033625
 30
0.0
 11
365.6839257833
 21
194.2249319686
 31
0.0
  0
LINE
  5
8B
330
1F
100
AcDbEntity
  8
0
  6
Continuous
 62
     7
370
    30
100
AcDbLine
 10
384.3149257833
 20
194.2249319686
 30
0.0
 11
385.4769257834
 21
194.9088033625
 31
0.0
  0
LINE
  5
8C
330
1F
100
AcDbEntity
  8
0
  6
Continuous
 62
     7
370
    30
100
AcDbLine
 10
364.5219257833
 20
202.2249319686
 30
0.0
 11
364.5219257833
 21
194.9088033625
 31
0.0
  0
LINE
  5
8D
330
1F
100
AcDbEntity
  8
0
  6
Continuous
 62
     7
370
    30
100
AcDbLine
 10
385.4769257833
 20
194.9088033625
 30
0.0
 11
385.4769257833
 21
202.2249319686
 31
0.0
  0
SPLINE
  5
8E
330
1F
100
AcDbEntity
  8
0
  6
Continuous
 62
     7
370
    30
100
AcDbSpline
210
0.0
220
0.0
230
1.0
 70
     8
 71
     3
 72
    48
 73
    44
 74
     0
 42
0.000000001
 43
0.00000001
 40
0.0
 40
0.0
 40
0.0
 40
0.0
 40
0.0105427322833632
 40
0.0200415441488072
 40
0.0286930387259964
 40
0.0347839460180503
 40
0.0406793470600468
 40
0.0465318003373641
 40
0.052502282741123
 40
0.0643065160524379
 40
0.076377533541528
 40
0.0886636530327941
 40
0.1011660651886658
 40
0.1212516599851748
 40
0.1418773744157199
 40
0.1671472310862556
 40
0.1931997817499442
 40
0.2200337776952015
 40
0.2514690706386673
 40
0.2838957307377922
 40
0.3172759443716267
 40
0.3512651666407821
 40
0.3857131575848142
 40
0.4205756962668167
 40
0.455805002941294
 40
0.491350044465303
 40
0.5271569087939008
 40
0.5631692433492089
 40
0.5991788797979964
 40
0.6344143959556116
 40
0.6687399314037219
 40
0.7021212335439359
 40
0.734531351975851
 40
0.7659502264931526
 40
0.799945091869494
 40
0.832616391196642
 40
0.8639152652787081
 40
0.8938509569138098
 40
0.9122471274181349
 40
0.9318771897863707
 40
0.9529218259440365
 40
0.9754743008391747
 40
1.0
 40
1.0
 40
1.0
 40
1.0
 10
341.9993655500091
 20
255.8188175234646
 30
0.0
 10
341.9993364723502
 20
255.8210948107401
 30
0.0
 10
341.9992811962443
 20
255.8254238928268
 30
0.0
 10
341.9991013472593
 20
255.8334473435106
 30
0.0
 10
341.9988426457414
 20
255.8416901458262
 30
0.0
 10
341.9985096198281
 20
255.8499362236314
 30
0.0
 10
341.9981251158674
 20
255.857903524925
 30
0.0
 10
341.9976393300931
 20
255.8664955043109
 30
0.0
 10
341.9968514557901
 20
255.878571622205
 30
0.0
 10
341.9956272464814
 20
255.8941580308765
 30
0.0
 10
341.993798104543
 20
255.9128868505635
 30
0.0
 10
341.9915675753119
 20
255.9319728383577
 30
0.0
 10
341.9884018638542
 20
255.9551404835481
 30
0.0
 10
341.9839466863104
 20
255.982516061791
 30
0.0
 10
341.9773427144215
 20
256.016264890214
 30
0.0
 10
341.96882180983
 20
256.0527879275384
 30
0.0
 10
341.9579775567529
 20
256.0920593621551
 30
0.0
 10
341.9445320741124
 20
256.1339093458622
 30
0.0
 10
341.9280281764865
 20
256.1782230225784
 30
0.0
 10
341.9079776981863
 20
256.2247934101763
 30
0.0
 10
341.8849632914385
 20
256.2714667252861
 30
0.0
 10
341.8590017755291
 20
256.3177838072095
 30
0.0
 10
341.8301803633315
 20
256.3632998363801
 30
0.0
 10
341.7985544909109
 20
256.4077153701064
 30
0.0
 10
341.7641801293576
 20
256.4507796805226
 30
0.0
 10
341.7271424747054
 20
256.492244795784
 30
0.0
 10
341.6875559568971
 20
256.531869699821
 30
0.0
 10
341.6456218262441
 20
256.5693724480867
 30
0.0
 10
341.601871524907
 20
256.6042700443475
 30
0.0
 10
341.556960350899
 20
256.6361675795951
 30
0.0
 10
341.511538544291
 20
256.6648440158217
 30
0.0
 10
341.4659474592945
 20
256.6903566117932
 30
0.0
 10
341.4204630282317
 20
256.7128195280235
 30
0.0
 10
341.3736200730717
 20
256.7331125613593
 30
0.0
 10
341.3256668080538
 20
256.7510340971181
 30
0.0
 10
341.2769048439638
 20
256.766413885211
 30
0.0
 10
341.2294850714151
 20
256.7788010239772
 30
0.0
 10
341.1888163007943
 20
256.7873695965265
 30
0.0
 10
341.1538642289162
 20
256.7933631944226
 30
0.0
 10
341.1233418205677
 20
256.7976731216327
 30
0.0
 10
341.0905404748559
 20
256.8012230796119
 30
0.0
 10
341.0550893566747
 20
256.8039353597923
 30
0.0
 10
341.0305336146097
 20
256.8046550062839
 30
0.0
 10
341.0177411315827
 20
256.8050299110823
 30
0.0
  0
SPLINE
  5
8F
330
1F
100
AcDbEntity
  8
0
  6
Continuous
 62
     7
370
    30
100
AcDbSpline
210
0.0
220
0.0
230
1.0
 70
     8
 71
     3
 72
    44
 73
    40
 74
     0
 42
0.000000001
 43
0.00000001
 40
0.0
 40
0.0
 40
0.0
 40
0.0
 40
0.0339702578486635
 40
0.0673213333861785
 40
0.1001766903243557
 40
0.1324792558653041
 40
0.1653894063491012
 40
0.1996189198287548
 40
0.2351622820952175
 40
0.2673300438150226
 40
0.300475499520935
 40
0.334330858227258
 40
0.3686555389036398
 40
0.4034062625469886
 40
0.4385361265993401
 40
0.4739948926498864
 40
0.5097293440935501
 40
0.5456837091694661
 40
0.5817544617792101
 40
0.6172000445301511
 40
0.651745854700316
 40
0.6853557843724567
 40
0.7180011126594157
 40
0.7496601161684243
 40
0.7803175983221868
 40
0.8099471050664875
 40
0.8384865589395056
 40
0.8659349505806695
 40
0.8923007988820337
 40
0.91803109360383
 40
0.9436825234896498
 40
0.9500112332775859
 40
0.9561380557258573
 40
0.9622800046836534
 40
0.9686645500734493
 40
0.9754884997391554
 40
0.9829097535889771
 40
0.991049589654408
 40
1.0
 40
1.0
 40
1.0
 40
1.0
 10
341.0177411315827
 20
182.1949700889177
 30
0.0
 10
341.0354654018914
 20
182.1955661508306
 30
0.0
 10
341.0705908788835
 20
182.1967474101235
 30
0.0
 10
341.1226479150989
 20
182.2019957618396
 30
0.0
 10
341.1735127154216
 20
182.2096046654334
 30
0.0
 10
341.2236932853061
 20
182.2197995605866
 30
0.0
 10
341.2739841315091
 20
182.2327038060142
 30
0.0
 10
341.3251426453521
 20
182.2487395761472
 30
0.0
 10
341.3749877934925
 20
182.2674052777438
 30
0.0
 10
341.4232481060285
 20
182.2884542294029
 30
0.0
 10
341.4695812820636
 20
182.311547054302
 30
0.0
 10
341.5156189787227
 20
182.3375892881659
 30
0.0
 10
341.5609066575726
 20
182.3664989745772
 30
0.0
 10
341.6051043883764
 20
182.3981995153578
 30
0.0
 10
341.647961971816
 20
182.4326377475731
 30
0.0
 10
341.6892314450091
 20
182.469731463891
 30
0.0
 10
341.7286712749223
 20
182.5093693091328
 30
0.0
 10
341.7660347367068
 20
182.5513935325261
 30
0.0
 10
341.8008735072939
 20
182.595336440266
 30
0.0
 10
341.8327708002136
 20
182.6405564678614
 30
0.0
 10
341.8614578337147
 20
182.6863643558675
 30
0.0
 10
341.8869485823874
 20
182.732356429704
 30
0.0
 10
341.9093557683581
 20
182.7782524192945
 30
0.0
 10
341.9288160635559
 20
182.823799287641
 30
0.0
 10
341.9454816821682
 20
182.8687638916213
 30
0.0
 10
341.9595111269815
 20
182.9129123453357
 30
0.0
 10
341.9710793452865
 20
182.9560350752076
 30
0.0
 10
341.9803755824387
 20
182.9979616687213
 30
0.0
 10
341.9876381607363
 20
183.0387936326044
 30
0.0
 10
341.9931021519118
 20
183.0789776997471
 30
0.0
 10
341.9959503667355
 20
183.1088912945557
 30
0.0
 10
341.9973396773727
 20
183.1287621886548
 30
0.0
 10
341.9979113346104
 20
183.1381710948822
 30
0.0
 10
341.9983642393406
 20
183.1469070227595
 30
0.0
 10
341.9987139352106
 20
183.1549693150159
 30
0.0
 10
341.998976089521
 20
183.162398401981
 30
0.0
 10
341.9991647432929
 20
183.1692416233452
 30
0.0
 10
341.9992959089146
 20
183.1756291289382
 30
0.0
 10
341.9993416137322
 20
183.1792737405059
 30
0.0
 10
341.9993655500091
 20
183.1811824765355
 30
0.0
  0
ARC
  5
90
330
1F
100
AcDbEntity
  8
0
  6
Continuous
 62
     7
370
    30
100
AcDbCircle
 10
388.9994257833
 20
205.5
 30
0.0
 40
1.0
100
AcDbArc
 50
270.0
 51
0.0
  0
ARC
  5
91
330
1F
100
AcDbEntity
  8
0
  6
Continuous
 62
     7
370
    30
100
AcDbCircle
 10
388.9994257833
 20
233.5
 30
0.0
 40
1.0
100
AcDbArc
 50
0.0
 51
90.0
  0
LINE
  5
92
330
1F
100
AcDbEntity
  8
0
  6
Continuous
 62
     7
370
    30
100
AcDbLine
 10
341.9994257833
 20
204.5
 30
0.0
 11
364.4994257833
 21
204.5
 31
0.0
  0
LINE
  5
93
330
1F
100
AcDbEntity
  8
0
  6
Continuous
 62
     7
370
    30
100
AcDbLine
 10
385.4994257833
 20
204.5
 30
0.0
 11
388.9994257833
 21
204.5
 31
0.0
  0
LINE
  5
94
330
1F
100
AcDbEntity
  8
0
  6
Continuous
 62
     7
370
    30
100
AcDbLine
 10
388.9994257833
 20
234.5
 30
0.0
 11
341.9994257833
 21
234.5
 31
0.0
  0
LINE
  5
95
330
1F
100
AcDbEntity
  8
0
  6
Continuous
 62
     7
370
    30
100
AcDbLine
 10
364.4994257833
 20
202.2249319686
 30
0.0
 11
385.4994257833
 21
202.2249319686
 31
0.0
  0
LINE
  5
96
330
1F
100
AcDbEntity
  8
0
  6
Continuous
 62
     7
370
    30
100
AcDbLine
 10
385.4769257834
 20
194.9088033625
 30
0.0
 11
364.5219257833
 21
194.9088033625
 31
0.0
  0
LINE
  5
97
330
1F
100
AcDbEntity
  8
0
  6
Continuous
 62
     7
370
    30
100
AcDbLine
 10
365.6839257833
 20
194.2249319686
 30
0.0
 11
384.3149257833
 21
194.2249319686
 31
0.0
  0
LINE
  5
98
330
1F
100
AcDbEntity
  8
0
  6
Continuous
 62
     7
370
    30
100
AcDbLine
 10
329.9994267493
 20
255.0003046097
 30
0.0
 11
329.9994267493
 21
183.9996953903
 31
0.0
  0
LINE
  5
99
330
1F
100
AcDbEntity
  8
0
  6
Continuous
 62
     7
370
    30
100
AcDbLine
 10
329.9994267493
 20
182.0
 30
0.0
 11
329.9994267493
 21
183.9996953903
 31
0.0
  0
LINE
  5
9A
330
1F
100
AcDbEntity
  8
0
  6
Continuous
 62
     7
370
    30
100
AcDbLine
 10
341.0168781898
 20
182.1923103471
 30
0.0
 11
341.0182511193
 21
182.21187312
 31
0.0
  0
LINE
  5
9B
330
1F
100
AcDbEntity
  8
0
  6
Continuous
 62
     7
370
    30
100
AcDbLine
 10
341.0168781898
 20
182.1923103471
 30
0.0
 11
329.9994257833
 21
182.0
 31
0.0
  0
LINE
  5
9C
330
1F
100
AcDbEntity
  8
0
  6
Continuous
 62
     7
370
    30
100
AcDbLine
 10
329.9994257833
 20
257.0
 30
0.0
 11
341.0168781898
 21
256.8076896529
 31
0.0
  0
LINE
  5
9D
330
1F
100
AcDbEntity
  8
0
  6
Continuous
 62
     7
370
    30
100
AcDbLine
 10
329.9994267493
 20
255.0003046097
 30
0.0
 11
329.9994267493
 21
257.0
 31
0.0
  0
LINE
  5
9E
330
1F
100
AcDbEntity
  8
0
  6
Continuous
 62
     7
370
    30
100
AcDbLine
 10
341.9994257833
 20
254.8079942626
 30
0.0
 11
341.9994257833
 21
184.1920057374
 31
0.0
  0
LINE
  5
9F
330
1F
100
AcDbEntity
  8
0
  6
Continuous
 62
     7
370
    30
100
AcDbLine
 10
341.9994257833
 20
184.1920057374
 30
0.0
 11
341.9991337379
 21
184.1920057374
 31
0.0
  0
LINE
  5
A0
330
1F
100
AcDbEntity
  8
0
  6
Continuous
 62
     7
370
    30
100
AcDbLine
 10
341.9994257833
 20
254.8079942626
 30
0.0
 11
341.9991337379
 21
254.8079942626
 31
0.0
  0
LINE
  5
A1
330
1F
100
AcDbEntity
  8
0
  6
Continuous
 62
     7
370
    30
100
AcDbLine
 10
341.9994257833
 20
255.8078419577
 30
0.0
 11
341.9994257833
 21
254.8079942626
 31
0.0
  0
LWPOLYLINE
  5
A2
330
1F
100
AcDbEntity
  8
0
  6
Continuous
 62
     7
370
    30
100
AcDbPolyline
 90
        3
 70
   128
 43
0.0
 10
341.9994257833
 20
255.8078419577
 10
341.998830071
 20
255.8423538372
 10
341.9973497248
 20
255.8722454283
  0
ARC
  5
A3
330
1F
100
AcDbEntity
  8
0
  6
Continuous
 62
     7
370
    30
100
AcDbCircle
 10
340.9994257833
 20
255.8078419577
 30
0.0
 40
1.000000000000042
100
AcDbArc
 50
14.3624729109
 51
89.0
  0
LINE
  5
A4
330
1F
100
AcDbEntity
  8
0
  6
Continuous
 62
     7
370
    30
100
AcDbLine
 10
341.9994257833
 20
184.1920057374
 30
0.0
 11
341.9994257833
 21
183.1921580423
 31
0.0
  0
ARC
  5
A5
330
1F
100
AcDbEntity
  8
0
  6
Continuous
 62
     7
370
    30
100
AcDbCircle
 10
340.9994257833
 20
183.1921580423
 30
0.0
 40
1.000000000000014
100
AcDbArc
 50
271.0
 51
346.0242211617
  0
LWPOLYLINE
  5
A6
330
1F
100
AcDbEntity
  8
0
  6
Continuous
 62
     7
370
    30
100
AcDbPolyline
 90
        3
 70
   128
 43
0.0
 10
341.9975618912
 20
183.1311309148
 10
341.998830071
 20
183.1576461628
 10
341.9994257833
 20
183.1921580423
  0
SPLINE
  5
A7
330
1F
100
AcDbEntity
  8
0
  6
Continuous
 62
     7
370
    30
100
AcDbSpline
210
0.0
220
0.0
230
1.0
 70
    24
 71
     3
 72
    44
 73
    40
 74
     0
 42
0.000000001
 43
0.00000001
 40
0.0
 40
0.0
 40
0.0
 40
0.0
 40
0.0036308969003051
 40
0.0359078673206102
 40
0.068184642843532
 40
0.1013308222423466
 40
0.1344949275843094
 40
0.1676861253932828
 40
0.1788705680386403
 40
0.1900594681166437
 40
0.2012531736447552
 40
0.2124520321924326
 40
0.2236563908495794
 40
0.2348665961952167
 40
0.2460829942663902
 40
0.2809129597235444
 40
0.3156971439029265
 40
0.3504460251879512
 40
0.3851701139211808
 40
0.4198799429671813
 40
0.4545860581734221
 40
0.4892990087721823
 40
0.5131737657055995
 40
0.5370601587770978
 40
0.5609616049550752
 40
0.5848815147569036
 40
0.6088232908095008
 40
0.6327903264266574
 40
0.6554541181559053
 40
0.6780262817336384
 40
0.7141069935741662
 40
0.7501555643303378
 40
0.7861837503758402
 40
0.8222033280443686
 40
0.85822608211221
 40
0.8936200813342355
 40
0.9290396572093765
 40
0.9644959336319534
 40
1.0
 40
1.0
 40
1.0
 40
1.0
 10
389.9994257833446
 20
205.5000109594218
 30
0.0
 10
389.9994257833446
 20
205.499950726151
 30
0.0
 10
389.9994257833446
 20
205.4993550473545
 30
0.0
 10
389.9994257833446
 20
205.501693399909
 30
0.0
 10
389.9994257833446
 20
205.5073387680083
 30
0.0
 10
389.9994257833446
 20
205.5171937271364
 30
0.0
 10
389.9994257833446
 20
205.530893689608
 30
0.0
 10
389.9994257833446
 20
205.5445918541043
 30
0.0
 10
389.9994257833446
 20
205.5558349588238
 30
0.0
 10
389.9994257833446
 20
205.5630626143095
 30
0.0
 10
389.9994257833446
 20
205.57072812577
 30
0.0
 10
389.9994257833446
 20
205.5788316185986
 30
0.0
 10
389.9994257833446
 20
205.5873730336007
 30
0.0
 10
389.9994257833446
 20
205.5963524816814
 30
0.0
 10
389.9994257833446
 20
205.6123761957733
 30
0.0
 10
389.9994257833446
 20
205.6371333079124
 30
0.0
 10
389.9994257833446
 20
205.6732792543922
 30
0.0
 10
389.9994257833446
 20
205.7135635663397
 30
0.0
 10
389.9994257833446
 20
205.7579864491863
 30
0.0
 10
389.9994257833446
 20
205.8065478625017
 30
0.0
 10
389.9994257833446
 20
205.8592477278857
 30
0.0
 10
389.9994257833446
 20
205.910162004252
 30
0.0
 10
389.9994257833446
 20
205.9579154171507
 30
0.0
 10
389.9994257833446
 20
206.0013444881751
 30
0.0
 10
389.9994257833446
 20
206.0467293119736
 30
0.0
 10
389.9994257833446
 20
206.0940698638998
 30
0.0
 10
389.9994257833446
 20
206.1433663109975
 30
0.0
 10
389.9994257833446
 20
206.1936686453314
 30
0.0
 10
389.9994257833446
 20
206.2447671844191
 30
0.0
 10
389.9994257833446
 20
206.3068327762944
 30
0.0
 10
389.9994257833446
 20
206.382164026016
 30
0.0
 10
389.9994257833446
 20
206.4724664247931
 30
0.0
 10
389.9994257833446
 20
206.5669603638088
 30
0.0
 10
389.9994257833446
 20
206.665643881493
 30
0.0
 10
389.9994257833446
 20
206.7679111313007
 30
0.0
 10
389.9994257833446
 20
206.87364957348
 30
0.0
 10
389.9994257833446
 20
206.9828675497408
 30
0.0
 10
389.9994257833446
 20
207.095853074131
 30
0.0
 10
389.9994257833446
 20
207.1744961256936
 30
0.0
 10
389.9994257833446
 20
207.2138441335
 30
0.0
  0
SPLINE
  5
A8
330
1F
100
AcDbEntity
  8
0
  6
Continuous
 62
     7
370
    30
100
AcDbSpline
210
0.0
220
0.0
230
1.0
 70
    24
 71
     3
 72
   205
 73
   201
 74
     0
 42
0.000000001
 43
0.00000001
 40
0.0
 40
0.0
 40
0.0
 40
0.0
 40
0.0062183421818543
 40
0.0124292643340257
 40
0.0186344305367999
 40
0.0248355095043493
 40
0.0310341732517653
 40
0.0372320957488033
 40
0.0434309515657313
 40
0.0497978341516882
 40
0.0561692737599661
 40
0.062547075505048
 40
0.0646964725198049
 40
0.0668468635906404
 40
0.068998317174795
 40
0.0712625114548187
 40
0.0735417518833009
 40
0.0758198733071844
 40
0.0780969574721201
 40
0.0841302193229014
 40
0.0901582936299228
 40
0.0961827135993861
 40
0.1022050152285459
 40
0.1082267361356715
 40
0.1142494143838151
 40
0.119551396709229
 40
0.1248563573840549
 40
0.1301653411094459
 40
0.131954161304702
 40
0.1337435956039332
 40
0.1355336836931397
 40
0.1373244652148554
 40
0.1391159797655816
 40
0.1409082668932355
 40
0.1427013660946154
 40
0.14883498437258
 40
0.1549605556806709
 40
0.1610796744293322
 40
0.1671939400768912
 40
0.1733049558923354
 40
0.1794143277031917
 40
0.185523662633358
 40
0.1917975579456055
 40
0.1980748462027311
 40
0.2043572624001345
 40
0.2073212725538852
 40
0.2102869879808126
 40
0.2132545892921962
 40
0.2162242567552244
 40
0.2191961702611066
 40
0.2254611243238409
 40
0.2317174896094309
 40
0.2379669643101616
 40
0.2442112522401966
 40
0.250452061461849
 40
0.2566911028945302
 40
0.262930088911996
 40
0.2686505837321898
 40
0.2743737889324189
 40
0.2801010206700726
 40
0.2858335923291485
 40
0.2915728136276247
 40
0.2973199897373431
 40
0.3035849440246248
 40
0.309841309463654
 40
0.3160907842601174
 40
0.3223350722416722
 40
0.3285758814841943
 40
0.3348149229207062
 40
0.3410539089386005
 40
0.3474610036733001
 40
0.3538716965727843
 40
0.3602878361231311
 40
0.36331503186494
 40
0.3663440406349669
 40
0.3693750548084965
 40
0.3724082663792474
 40
0.3754438669239998
 40
0.3815774858211692
 40
0.3877030575523731
 40
0.3938221765650258
 40
0.3999364423546665
 40
0.4060474582276787
 40
0.4121568300491118
 40
0.4182661649804532
 40
0.4245400603235016
 40
0.4308173486817777
 40
0.4370997650911864
 40
0.439216751842003
 40
0.4413345822938569
 40
0.4434533223193516
 40
0.4455730377062928
 40
0.447693794151716
 40
0.4498156572559571
 40
0.4519386925167674
 40
0.4585312941994371
 40
0.4651152304204944
 40
0.4716924845240866
 40
0.4782650459035751
 40
0.4848349082152771
 40
0.4914040675729087
 40
0.4979745207308612
 40
0.5024935250039887
 40
0.5070147317605985
 40
0.5115387877630783
 40
0.5160663385527675
 40
0.520598028177504
 40
0.5251344989223407
 40
0.5294234968317187
 40
0.5336952148252854
 40
0.5405236147875014
 40
0.5473462124516187
 40
0.5541652327790395
 40
0.5609829042335812
 40
0.5678014566015918
 40
0.5745012664601273
 40
0.5812061848758558
 40
0.5879183158246036
 40
0.5946397565091008
 40
0.6008569372911206
 40
0.6070669240800703
 40
0.6132713824010131
 40
0.6194719822339703
 40
0.6256703966776318
 40
0.6318683006004981
 40
0.6380673692848685
 40
0.6444347117444269
 40
0.6508068560890872
 40
0.6571856075857067
 40
0.6593353795524532
 40
0.6614861733449083
 40
0.663638057410344
 40
0.6659023079142239
 40
0.6681815483427178
 40
0.670459669766612
 40
0.6727367539315573
 40
0.6787700157823613
 40
0.6847980900893997
 40
0.6908225100588746
 40
0.6968448116880406
 40
0.7028665325951668
 40
0.7088892108433057
 40
0.7141911931687109
 40
0.7194961538435241
 40
0.724805137568898
 40
0.7265939577641475
 40
0.7283833920633715
 40
0.7301734801525706
 40
0.7319642616742783
 40
0.733755776224996
 40
0.7355480633526408
 40
0.737341162554011
 40
0.7434747808320372
 40
0.7496003521401792
 40
0.7557194708888808
 40
0.7618337365364695
 40
0.7679447523519325
 40
0.774054124162797
 40
0.7801634590929606
 40
0.7864373544051942
 40
0.7927146426622946
 40
0.7989970588596613
 40
0.8019610690133908
 40
0.8049267844402945
 40
0.8078943857516517
 40
0.8108640532146514
 40
0.8138359667205024
 40
0.8201009207832416
 40
0.8263572860688357
 40
0.8326067607695696
 40
0.8388510486996072
 40
0.8450918579212612
 40
0.8513308993539431
 40
0.8575698853714087
 40
0.8632903801916012
 40
0.8690135853918285
 40
0.8747408171294795
 40
0.8804733887885517
 40
0.8862126100870235
 40
0.8919597861967361
 40
0.898224740483921
 40
0.9044811059228701
 40
0.9107305807192704
 40
0.9169748687007787
 40
0.9232156779432713
 40
0.9294547193797706
 40
0.9356937053976694
 40
0.9421008001323907
 40
0.9485114930319145
 40
0.9549276325823183
 40
0.9579548283241602
 40
0.9609838370942241
 40
0.9640148512677944
 40
0.9670480628385899
 40
0.9700836633833907
 40
0.9762172822804105
 40
0.9823428540114905
 40
0.9884619730240454
 40
0.9945762388136141
 40
1.0
 40
1.0
 40
1.0
 40
1.0
 10
389.9994257833446
 20
207.2138441335
 30
0.0
 10
389.9994257833446
 20
207.2509118234593
 30
0.0
 10
389.9994257833446
 20
207.3250029723993
 30
0.0
 10
389.9994257833446
 20
207.4402304397235
 30
0.0
 10
389.9994257833446
 20
207.5583555275659
 30
0.0
 10
389.9994257833446
 20
207.6796769876991
 30
0.0
 10
389.9994257833446
 20
207.8041148382276
 30
0.0
 10
389.9994257833446
 20
207.9316904788983
 30
0.0
 10
389.9994257833446
 20
208.0635606371185
 30
0.0
 10
389.9994257833446
 20
208.1998256392795
 30
0.0
 10
389.9994257833446
 20
208.3405820466837
 30
0.0
 10
389.9994257833446
 20
208.4527469250685
 30
0.0
 10
389.9994257833446
 20
208.534292952099
 30
0.0
 10
389.9994257833446
 20
208.5839135857418
 30
0.0
 10
389.9994257833446
 20
208.6347730727105
 30
0.0
 10
389.9994257833446
 20
208.6870009273161
 30
0.0
 10
389.9994257833446
 20
208.7406040915343
 30
0.0
 10
389.9994257833446
 20
208.7946962892924
 30
0.0
 10
389.9994257833447
 20
208.8790982686461
 30
0.0
 10
389.9994257833446
 20
208.9948658741625
 30
0.0
 10
389.9994257833446
 20
209.1435550719256
 30
0.0
 10
389.9994257833446
 20
209.2947855247454
 30
0.0
 10
389.9994257833446
 20
209.4485569302651
 30
0.0
 10
389.9994257833446
 20
209.6048692771496
 30
0.0
 10
389.9994257833446
 20
209.7573650178878
 30
0.0
 10
389.9994257833446
 20
209.9056992603659
 30
0.0
 10
389.9994257833446
 20
210.0495552489502
 30
0.0
 10
389.9994257833446
 20
210.1631052471095
 30
0.0
 10
389.9994257833446
 20
210.2451498034719
 30
0.0
 10
389.9994257833446
 20
210.2949150170471
 30
0.0
 10
389.9994257833446
 20
210.3449032751434
 30
0.0
 10
389.9994257833446
 20
210.3951146092751
 30
0.0
 10
389.9994257833446
 20
210.4455489965272
 30
0.0
 10
389.9994257833446
 20
210.4962064965364
 30
0.0
 10
389.9994257833446
 20
210.5881335878058
 30
0.0
 10
389.9994257833446
 20
210.722198324003
 30
0.0
 10
389.9994257833446
 20
210.8998236962922
 30
0.0
 10
389.9994257833446
 20
211.0795086578995
 30
0.0
 10
389.9994257833446
 20
211.2612528364485
 30
0.0
 10
389.9994257833446
 20
211.4450562829863
 30
0.0
 10
389.9994257833446
 20
211.6309189620477
 30
0.0
 10
389.9994257833446
 20
211.8205117821834
 30
0.0
 10
389.9994257833446
 20
212.0139003555976
 30
0.0
 10
389.9994257833446
 20
212.211147250188
 30
0.0
 10
389.9994257833446
 20
212.3753850246156
 30
0.0
 10
389.9994257833446
 20
212.5055144810669
 30
0.0
 10
389.9994257833446
 20
212.6007501295258
 30
0.0
 10
389.9994257833446
 20
212.6964679503289
 30
0.0
 10
389.9994257833446
 20
212.7926681588605
 30
0.0
 10
389.9994257833446
 20
212.9250328660032
 30
0.0
 10
389.9994257833446
 20
213.0941296072779
 30
0.0
 10
389.9994257833446
 20
213.3007404814859
 30
0.0
 10
389.9994257833446
 20
213.5088132849046
 30
0.0
 10
389.9994257833446
 20
213.7183476920952
 30
0.0
 10
389.9994257833446
 20
213.9293437511303
 30
0.0
 10
389.9994257833446
 20
214.1418013308023
 30
0.0
 10
389.9994257833446
 20
214.3497763144028
 30
0.0
 10
389.9994257833446
 20
214.5531269065949
 30
0.0
 10
389.9994257833446
 20
214.7517269706441
 30
0.0
 10
389.9994257833446
 20
214.9515549384309
 30
0.0
 10
389.9994257833446
 20
215.1526107879739
 30
0.0
 10
389.9994257833446
 20
215.3548946296862
 30
0.0
 10
389.9994257833446
 20
215.5644077741496
 30
0.0
 10
389.9994257833446
 20
215.7810208186766
 30
0.0
 10
389.9994257833446
 20
216.0046019924218
 30
0.0
 10
389.9994257833446
 20
216.2288897933364
 30
0.0
 10
389.9994257833446
 20
216.453884221304
 30
0.0
 10
389.9994257833446
 20
216.679585207314
 30
0.0
 10
389.9994257833446
 20
216.9059927352814
 30
0.0
 10
389.9994257833446
 20
217.1351262000538
 30
0.0
 10
389.9994257833446
 20
217.3670090463531
 30
0.0
 10
389.9994257833446
 20
217.6016602917984
 30
0.0
 10
389.9994257833446
 20
217.7955273985143
 30
0.0
 10
389.9994257833446
 20
217.9482670182636
 30
0.0
 10
389.9994257833446
 20
218.0596506542696
 30
0.0
 10
389.9994257833446
 20
218.1711996294032
 30
0.0
 10
389.9994257833446
 20
218.2829141552217
 30
0.0
 10
389.9994257833446
 20
218.4328213376337
 30
0.0
 10
389.9994257833446
 20
218.6208994961036
 30
0.0
 10
389.9994257833446
 20
218.847124087972
 30
0.0
 10
389.9994257833446
 20
219.0732819824585
 30
0.0
 10
389.9994257833446
 20
219.2993727755832
 30
0.0
 10
389.9994257833446
 20
219.5253965092747
 30
0.0
 10
389.9994257833446
 20
219.7513531419173
 30
0.0
 10
389.9994257833446
 20
219.9792511659332
 30
0.0
 10
389.9994257833446
 20
220.2090897164709
 30
0.0
 10
389.9994257833446
 20
220.4408633409333
 30
0.0
 10
389.9994257833446
 20
220.6212790833654
 30
0.0
 10
389.9994257833446
 20
220.7504411038464
 30
0.0
 10
389.9994257833446
 20
220.8284301398008
 30
0.0
 10
389.9994257833446
 20
220.9064110955678
 30
0.0
 10
389.9994257833446
 20
220.9843840387082
 30
0.0
 10
389.9994257833446
 20
221.0623489369308
 30
0.0
 10
389.9994257833446
 20
221.1403058505583
 30
0.0
 10
389.9994257833446
 20
221.2729399435891
 30
0.0
 10
389.9994257833446
 20
221.4599224916459
 30
0.0
 10
389.9994257833446
 20
221.700749546966
 30
0.0
 10
389.9994257833446
 20
221.9406690686989
 30
0.0
 10
389.9994257833446
 20
222.1796802928251
 30
0.0
 10
389.9994257833446
 20
222.4177834111543
 30
0.0
 10
389.9994257833446
 20
222.6549780184054
 30
0.0
 10
389.9994257833446
 20
222.8666367555067
 30
0.0
 10
389.9994257833446
 20
223.053060751237
 30
0.0
 10
389.9994257833446
 20
223.2145387276148
 30
0.0
 10
389.9994257833446
 20
223.3755873031927
 30
0.0
 10
389.9994257833446
 20
223.5362066284965
 30
0.0
 10
389.9994257833446
 20
223.6963965873229
 30
0.0
 10
389.9994257833446
 20
223.8531888554408
 30
0.0
 10
389.9994257833446
 20
224.0063492262224
 30
0.0
 10
389.9994257833446
 20
224.1856237978062
 30
0.0
 10
389.9994257833446
 20
224.3933418994871
 30
0.0
 10
389.9994257833446
 20
224.6289900663278
 30
0.0
 10
389.9994257833446
 20
224.8628456636517
 30
0.0
 10
389.9994257833446
 20
225.0949082029206
 30
0.0
 10
389.9994257833446
 20
225.3238062402913
 30
0.0
 10
389.9994257833446
 20
225.5495762397598
 30
0.0
 10
389.9994257833446
 20
225.7722575577975
 30
0.0
 10
389.9994257833446
 20
225.9932089002172
 30
0.0
 10
389.9994257833446
 20
226.2068257317398
 30
0.0
 10
389.9994257833446
 20
226.4130654173642
 30
0.0
 10
389.9994257833446
 20
226.6118813921467
 30
0.0
 10
389.9994257833446
 20
226.808609913311
 30
0.0
 10
389.9994257833446
 20
227.0032507913642
 30
0.0
 10
389.9994257833446
 20
227.1958040136599
 30
0.0
 10
389.9994257833446
 20
227.3862695518376
 30
0.0
 10
389.9994257833446
 20
227.5763228687259
 30
0.0
 10
389.9994257833446
 20
227.7658990196143
 30
0.0
 10
389.9994257833446
 20
227.9549285421091
 30
0.0
 10
389.9994257833446
 20
228.1003923156853
 30
0.0
 10
389.9994257833446
 20
228.2037334599319
 30
0.0
 10
389.9994257833446
 20
228.265893269548
 30
0.0
 10
389.9994257833446
 20
228.3288700701153
 30
0.0
 10
389.9994257833446
 20
228.3927779164538
 30
0.0
 10
389.9994257833446
 20
228.4575723119257
 30
0.0
 10
389.9994257833446
 20
228.5221659463452
 30
0.0
 10
389.9994257833446
 20
228.6217352748414
 30
0.0
 10
389.9994257833446
 20
228.7553138612113
 30
0.0
 10
389.9994257833446
 20
228.9214535356353
 30
0.0
 10
389.9994257833446
 20
229.0850999715492
 30
0.0
 10
389.9994257833446
 20
229.2462527938494
 30
0.0
 10
389.9994257833446
 20
229.4049120104735
 30
0.0
 10
389.9994257833446
 20
229.5548276142224
 30
0.0
 10
389.9994257833446
 20
229.6963359301015
 30
0.0
 10
389.9994257833446
 20
229.8297641137055
 30
0.0
 10
389.9994257833446
 20
229.9321584475254
 30
0.0
 10
389.9994257833446
 20
230.0047626090267
 30
0.0
 10
389.9994257833446
 20
230.0483853209061
 30
0.0
 10
389.9994257833446
 20
230.0917891008367
 30
0.0
 10
389.9994257833446
 20
230.1349739754996
 30
0.0
 10
389.9994257833446
 20
230.1779399366577
 30
0.0
 10
389.9994257833446
 20
230.2206869903068
 30
0.0
 10
389.9994257833446
 20
230.2975237992141
 30
0.0
 10
389.9994257833446
 20
230.4072394629389
 30
0.0
 10
389.9994257833446
 20
230.5478858779593
 30
0.0
 10
389.9994257833446
 20
230.6855000555368
 30
0.0
 10
389.9994257833446
 20
230.8200815277879
 30
0.0
 10
389.9994257833446
 20
230.9516303749079
 30
0.0
 10
389.9994257833446
 20
231.0801465502752
 30
0.0
 10
389.9994257833446
 20
231.2067458009343
 30
0.0
 10
389.9994257833446
 20
231.3313336530042
 30
0.0
 10
389.9994257833446
 20
231.4538122382395
 30
0.0
 10
389.9994257833446
 20
231.5520513783252
 30
0.0
 10
389.9994257833446
 20
231.6277490473079
 30
0.0
 10
389.9994257833446
 20
231.6821578019528
 30
0.0
 10
389.9994257833446
 20
231.7358562304958
 30
0.0
 10
389.9994257833446
 20
231.7888443470411
 30
0.0
 10
389.9994257833446
 20
231.8604166019298
 30
0.0
 10
389.9994257833446
 20
231.949228191306
 30
0.0
 10
389.9994257833446
 20
232.0534408254806
 30
0.0
 10
389.9994257833446
 20
232.1541203397987
 30
0.0
 10
389.9994257833446
 20
232.2512663185591
 30
0.0
 10
389.9994257833446
 20
232.3448788429074
 30
0.0
 10
389.9994257833446
 20
232.4349578379641
 30
0.0
 10
389.9994257833446
 20
232.5190984756015
 30
0.0
 10
389.9994257833446
 20
232.5976351232067
 30
0.0
 10
389.9994257833446
 20
232.6708937757409
 30
0.0
 10
389.9994257833446
 20
232.7411833468925
 30
0.0
 10
389.9994257833446
 20
232.8085039368561
 30
0.0
 10
389.9994257833446
 20
232.8728552287484
 30
0.0
 10
389.9994257833446
 20
232.9360486736818
 30
0.0
 10
389.9994257833446
 20
232.997690786034
 30
0.0
 10
389.9994257833446
 20
233.0573556377409
 30
0.0
 10
389.9994257833446
 20
233.1132628023871
 30
0.0
 10
389.9994257833446
 20
233.1654118879421
 30
0.0
 10
389.9994257833446
 20
233.2138029747819
 30
0.0
 10
389.9994257833446
 20
233.2584360250419
 30
0.0
 10
389.9994257833446
 20
233.299674493432
 30
0.0
 10
389.9994257833446
 20
233.3374007016171
 30
0.0
 10
389.9994257833446
 20
233.371494983806
 30
0.0
 10
389.9994257833446
 20
233.3963119192051
 30
0.0
 10
389.9994257833446
 20
233.4139333687268
 30
0.0
 10
389.9994257833446
 20
233.4258843605996
 30
0.0
 10
389.9994257833446
 20
233.4369552498438
 30
0.0
 10
389.9994257833446
 20
233.4471457164617
 30
0.0
 10
389.9994257833446
 20
233.4596219015016
 30
0.0
 10
389.9994257833446
 20
233.4730007076924
 30
0.0
 10
389.9994257833446
 20
233.4854571072413
 30
0.0
 10
389.9994257833446
 20
233.494156364531
 30
0.0
 10
389.9994257833446
 20
233.4993323407441
 30
0.0
 10
389.9994257833446
 20
233.4997790519242
 30
0.0
 10
389.9994257833446
 20
233.4999890405787
 30
0.0
  0
LINE
  5
A9
330
1F
100
AcDbEntity
  8
0
  6
Continuous
 62
     7
370
    30
100
AcDbLine
 10
31.5005742167
 20
204.5
 30
0.0
 11
31.5005742167
 21
202.2249319686
 31
0.0
  0
LINE
  5
AA
330
1F
100
AcDbEntity
  8
0
  6
Continuous
 62
     7
370
    30
100
AcDbLine
 10
52.5005742167
 20
202.2249319686
 30
0.0
 11
52.5005742167
 21
204.5
 31
0.0
  0
LINE
  5
AB
330
1F
100
AcDbEntity
  8
0
  6
Continuous
 62
     7
370
    30
100
AcDbLine
 10
31.5230742166
 20
194.9088033625
 30
0.0
 11
32.6850742167
 21
194.2249319686
 31
0.0
  0
LINE
  5
AC
330
1F
100
AcDbEntity
  8
0
  6
Continuous
 62
     7
370
    30
100
AcDbLine
 10
51.3160742167
 20
194.2249319686
 30
0.0
 11
52.4780742167
 21
194.9088033625
 31
0.0
  0
LINE
  5
AD
330
1F
100
AcDbEntity
  8
0
  6
Continuous
 62
     7
370
    30
100
AcDbLine
 10
31.5230742167
 20
202.2249319686
 30
0.0
 11
31.5230742167
 21
194.9088033625
 31
0.0
  0
LINE
  5
AE
330
1F
100
AcDbEntity
  8
0
  6
Continuous
 62
     7
370
    30
100
AcDbLine
 10
52.4780742167
 20
194.9088033625
 30
0.0
 11
52.4780742167
 21
202.2249319686
 31
0.0
  0
SPLINE
  5
AF
330
1F
100
AcDbEntity
  8
0
  6
Continuous
 62
     7
370
    30
100
AcDbSpline
210
0.0
220
0.0
230
1.0
 70
     8
 71
     3
 72
    44
 73
    40
 74
     0
 42
0.000000001
 43
0.00000001
 40
0.0
 40
0.0
 40
0.0
 40
0.0
 40
0.0339702578486611
 40
0.0673213333861766
 40
0.1001766903243538
 40
0.1324792558653004
 40
0.1653894063490952
 40
0.1996189198287454
 40
0.2351622820952103
 40
0.2673300438150127
 40
0.3004754995209223
 40
0.3343308582272508
 40
0.3686555389036282
 40
0.4034062625469805
 40
0.4385361265993292
 40
0.4739948926498781
 40
0.5097293440935302
 40
0.5456837091694553
 40
0.5817544617792012
 40
0.6172000445301515
 40
0.6517458547003091
 40
0.6853557843724535
 40
0.7180011126594117
 40
0.7496601161684259
 40
0.7803175983221979
 40
0.8099471050665089
 40
0.8384865589395191
 40
0.8659349505806836
 40
0.8923007988820569
 40
0.9180310936038569
 40
0.9436825234896767
 40
0.9500112332776067
 40
0.9561380557258855
 40
0.9622800046836801
 40
0.9686645500734722
 40
0.9754884997391715
 40
0.9829097535889825
 40
0.9910495896544074
 40
0.9999999999999999
 40
0.9999999999999999
 40
0.9999999999999999
 40
0.9999999999999999
 10
75.98225886841726
 20
256.8050299110823
 30
0.0
 10
75.96453459810854
 20
256.8044338491693
 30
0.0
 10
75.92940912111642
 20
256.8032525898765
 30
0.0
 10
75.877352084901
 20
256.7980042381603
 30
0.0
 10
75.82648728457833
 20
256.7903953345666
 30
0.0
 10
75.7763067146939
 20
256.7802004394134
 30
0.0
 10
75.72601586849088
 20
256.7672961939858
 30
0.0
 10
75.67485735464793
 20
256.7512604238528
 30
0.0
 10
75.62501220650746
 20
256.7325947222562
 30
0.0
 10
75.57675189397153
 20
256.7115457705971
 30
0.0
 10
75.5304187179364
 20
256.688452945698
 30
0.0
 10
75.48438102127731
 20
256.6624107118341
 30
0.0
 10
75.43909334242748
 20
256.6335010254228
 30
0.0
 10
75.39489561162358
 20
256.6018004846421
 30
0.0
 10
75.35203802818398
 20
256.567362252427
 30
0.0
 10
75.31076855499101
 20
256.530268536109
 30
0.0
 10
75.27132872507772
 20
256.4906306908672
 30
0.0
 10
75.23396526329326
 20
256.4486064674739
 30
0.0
 10
75.19912649270607
 20
256.404663559734
 30
0.0
 10
75.16722919978646
 20
256.3594435321386
 30
0.0
 10
75.13854216628529
 20
256.3136356441325
 30
0.0
 10
75.11305141761257
 20
256.2676435702959
 30
0.0
 10
75.09064423164189
 20
256.2217475807056
 30
0.0
 10
75.0711839364441
 20
256.1762007123591
 30
0.0
 10
75.05451831783184
 20
256.1312361083787
 30
0.0
 10
75.04048887301848
 20
256.0870876546642
 30
0.0
 10
75.02892065471345
 20
256.0439649247924
 30
0.0
 10
75.01962441756133
 20
256.0020383312787
 30
0.0
 10
75.01236183926372
 20
255.9612063673956
 30
0.0
 10
75.0068978480881
 20
255.9210223002529
 30
0.0
 10
75.00404963326447
 20
255.8911087054443
 30
0.0
 10
75.00266032262734
 20
255.8712378113452
 30
0.0
 10
75.00208866538956
 20
255.8618289051178
 30
0.0
 10
75.00163576065945
 20
255.8530929772405
 30
0.0
 10
75.00128606478937
 20
255.8450306849841
 30
0.0
 10
75.00102391047902
 20
255.8376015980189
 30
0.0
 10
75.00083525670715
 20
255.8307583766548
 30
0.0
 10
75.00070409108531
 20
255.8243708710617
 30
0.0
 10
75.00065838626779
 20
255.820726259494
 30
0.0
 10
75.0006344499908
 20
255.8188175234644
 30
0.0
  0
SPLINE
  5
B0
330
1F
100
AcDbEntity
  8
0
  6
Continuous
 62
     7
370
    30
100
AcDbSpline
210
0.0
220
0.0
230
1.0
 70
     8
 71
     3
 72
    48
 73
    44
 74
     0
 42
0.000000001
 43
0.00000001
 40
0.0
 40
0.0
 40
0.0
 40
0.0
 40
0.0105427322834028
 40
0.0200415441488671
 40
0.0286930387260766
 40
0.0347839460181388
 40
0.0406793470601707
 40
0.0465318003374905
 40
0.0525022827412496
 40
0.0643065160525598
 40
0.0763775335416574
 40
0.0886636530329051
 40
0.1011660651887752
 40
0.1212516599852906
 40
0.1418773744158204
 40
0.1671472310863479
 40
0.1931997817500504
 40
0.2200337776952919
 40
0.2514690706387595
 40
0.2838957307378762
 40
0.3172759443716971
 40
0.3512651666408542
 40
0.3857131575848836
 40
0.4205756962668758
 40
0.4558050029413517
 40
0.4913500444653456
 40
0.5271569087939393
 40
0.5631692433492499
 40
0.5991788797980232
 40
0.6344143959556426
 40
0.6687399314037495
 40
0.7021212335439537
 40
0.7345313519758705
 40
0.7659502264931646
 40
0.7999450918695081
 40
0.8326163911966538
 40
0.8639152652787202
 40
0.8938509569138224
 40
0.9122471274181415
 40
0.9318771897863736
 40
0.952921825944039
 40
0.9754743008391774
 40
1.0
 40
1.0
 40
1.0
 40
1.0
 10
75.0006344499908
 20
183.1811824765356
 30
0.0
 10
75.00066352764979
 20
183.1789051892601
 30
0.0
 10
75.00071880375569
 20
183.1745761071734
 30
0.0
 10
75.0008986527407
 20
183.1665526564895
 30
0.0
 10
75.00115735425864
 20
183.1583098541739
 30
0.0
 10
75.00149038017193
 20
183.1500637763686
 30
0.0
 10
75.00187488413256
 20
183.142096475075
 30
0.0
 10
75.00236066990685
 20
183.1335044956891
 30
0.0
 10
75.00314854420995
 20
183.121428377795
 30
0.0
 10
75.0043727535186
 20
183.1058419691235
 30
0.0
 10
75.00620189545693
 20
183.0871131494366
 30
0.0
 10
75.00843242468814
 20
183.0680271616424
 30
0.0
 10
75.01159813614576
 20
183.0448595164519
 30
0.0
 10
75.01605331368951
 20
183.017483938209
 30
0.0
 10
75.0226572855785
 20
182.9837351097861
 30
0.0
 10
75.03117819017
 20
182.9472120724616
 30
0.0
 10
75.04202244324706
 20
182.907940637845
 30
0.0
 10
75.05546792588754
 20
182.8660906541379
 30
0.0
 10
75.07197182351344
 20
182.8217769774216
 30
0.0
 10
75.09202230181366
 20
182.7752065898237
 30
0.0
 10
75.11503670856143
 20
182.728533274714
 30
0.0
 10
75.14099822447085
 20
182.6822161927906
 30
0.0
 10
75.16981963666849
 20
182.6367001636199
 30
0.0
 10
75.20144550908897
 20
182.5922846298937
 30
0.0
 10
75.23581987064237
 20
182.5492203194774
 30
0.0
 10
75.27285752529454
 20
182.5077552042161
 30
0.0
 10
75.31244404310286
 20
182.468130300179
 30
0.0
 10
75.35437817375588
 20
182.4306275519133
 30
0.0
 10
75.39812847509295
 20
182.3957299556525
 30
0.0
 10
75.44303964910092
 20
182.3638324204049
 30
0.0
 10
75.4884614557089
 20
182.3351559841783
 30
0.0
 10
75.5340525407055
 20
182.3096433882068
 30
0.0
 10
75.5795369717682
 20
182.2871804719765
 30
0.0
 10
75.62637992692822
 20
182.2668874386407
 30
0.0
 10
75.67433319194613
 20
182.2489659028819
 30
0.0
 10
75.7230951560361
 20
182.2335861147889
 30
0.0
 10
75.77051492858477
 20
182.2211989760228
 30
0.0
 10
75.81118369920569
 20
182.2126304034735
 30
0.0
 10
75.84613577108377
 20
182.2066368055773
 30
0.0
 10
75.87665817943225
 20
182.2023268783673
 30
0.0
 10
75.90945952514409
 20
182.198776920388
 30
0.0
 10
75.94491064332531
 20
182.1960646402076
 30
0.0
 10
75.96946638539023
 20
182.1953449937161
 30
0.0
 10
75.98225886841726
 20
182.1949700889177
 30
0.0
  0
SPLINE
  5
B1
330
1F
100
AcDbEntity
  8
0
  6
Continuous
 62
     7
370
    30
100
AcDbSpline
210
0.0
220
0.0
230
1.0
 70
     8
 71
     3
 72
     9
 73
     5
 74
     0
 42
0.000000001
 43
0.00000001
 40
0.0
 40
0.0
 40
0.0
 40
0.0
 40
0.5694518578538086
 40
1.0
 40
1.0
 40
1.0
 40
1.0
 10
75.97764095354317
 20
256.8075789558823
 30
0.0
 10
75.97542298149472
 20
256.8075041732833
 30
0.0
 10
75.97152805689686
 20
256.8073728494534
 30
0.0
 10
75.96635511919094
 20
256.8069366101826
 30
0.0
 10
75.96412792047222
 20
256.806748788175
 30
0.0
  0
ARC
  5
B2
330
1F
100
AcDbEntity
  8
0
  6
Continuous
 62
     7
370
    30
100
AcDbCircle
 10
28.0005742167
 20
233.5
 30
0.0
 40
1.0
100
AcDbArc
 50
90.0
 51
180.0
  0
ARC
  5
B3
330
1F
100
AcDbEntity
  8
0
  6
Continuous
 62
     7
370
    30
100
AcDbCircle
 10
28.0005742167
 20
205.5
 30
0.0
 40
1.0
100
AcDbArc
 50
180.0
 51
270.0
  0
LINE
  5
B4
330
1F
100
AcDbEntity
  8
0
  6
Continuous
 62
     7
370
    30
100
AcDbLine
 10
75.0005742167
 20
234.5
 30
0.0
 11
28.0005742167
 21
234.5
 31
0.0
  0
LINE
  5
B5
330
1F
100
AcDbEntity
  8
0
  6
Continuous
 62
     7
370
    30
100
AcDbLine
 10
28.0005742167
 20
204.5
 30
0.0
 11
31.5005742167
 21
204.5
 31
0.0
  0
LINE
  5
B6
330
1F
100
AcDbEntity
  8
0
  6
Continuous
 62
     7
370
    30
100
AcDbLine
 10
52.5005742167
 20
204.5
 30
0.0
 11
75.0005742167
 21
204.5
 31
0.0
  0
LINE
  5
B7
330
1F
100
AcDbEntity
  8
0
  6
Continuous
 62
     7
370
    30
100
AcDbLine
 10
52.4357108137
 20
202.2249319686
 30
0.0
 11
52.5005742167
 21
202.2249319686
 31
0.0
  0
LINE
  5
B8
330
1F
100
AcDbEntity
  8
0
  6
Continuous
 62
     7
370
    30
100
AcDbLine
 10
31.5005742167
 20
202.2249319686
 30
0.0
 11
52.4357108137
 21
202.2249319686
 31
0.0
  0
LINE
  5
B9
330
1F
100
AcDbEntity
  8
0
  6
Continuous
 62
     7
370
    30
100
AcDbLine
 10
45.9722691476
 20
194.9088033625
 30
0.0
 11
31.5230742166
 21
194.9088033625
 31
0.0
  0
LINE
  5
BA
330
1F
100
AcDbEntity
  8
0
  6
Continuous
 62
     7
370
    30
100
AcDbLine
 10
52.4780742167
 20
194.9088033625
 30
0.0
 11
45.9722691476
 21
194.9088033625
 31
0.0
  0
LINE
  5
BB
330
1F
100
AcDbEntity
  8
0
  6
Continuous
 62
     7
370
    30
100
AcDbLine
 10
51.2585280233
 20
194.2249319686
 30
0.0
 11
51.3160742167
 21
194.2249319686
 31
0.0
  0
LINE
  5
BC
330
1F
100
AcDbEntity
  8
0
  6
Continuous
 62
     7
370
    30
100
AcDbLine
 10
32.6850742167
 20
194.2249319686
 30
0.0
 11
51.2585280233
 21
194.2249319686
 31
0.0
  0
LINE
  5
BD
330
1F
100
AcDbEntity
  8
0
  6
Continuous
 62
     7
370
    30
100
AcDbLine
 10
87.0005732507
 20
183.9996953903
 30
0.0
 11
87.0005732507
 21
255.0003046097
 31
0.0
  0
LINE
  5
BE
330
1F
100
AcDbEntity
  8
0
  6
Continuous
 62
     7
370
    30
100
AcDbLine
 10
75.9831218102
 20
256.8076896529
 30
0.0
 11
75.9817488807
 21
256.78812688
 31
0.0
  0
LINE
  5
BF
330
1F
100
AcDbEntity
  8
0
  6
Continuous
 62
     7
370
    30
100
AcDbLine
 10
75.9831218102
 20
256.8076896529
 30
0.0
 11
87.0005742167
 21
257.0
 31
0.0
  0
LINE
  5
C0
330
1F
100
AcDbEntity
  8
0
  6
Continuous
 62
     7
370
    30
100
AcDbLine
 10
87.0005732507
 20
257.0
 30
0.0
 11
87.0005732507
 21
255.0003046097
 31
0.0
  0
LINE
  5
C1
330
1F
100
AcDbEntity
  8
0
  6
Continuous
 62
     7
370
    30
100
AcDbLine
 10
87.0005742167
 20
182.0
 30
0.0
 11
75.9831218102
 21
182.1923103471
 31
0.0
  0
LINE
  5
C2
330
1F
100
AcDbEntity
  8
0
  6
Continuous
 62
     7
370
    30
100
AcDbLine
 10
87.0005732507
 20
183.9996953903
 30
0.0
 11
87.0005732507
 21
182.0
 31
0.0
  0
LINE
  5
C3
330
1F
100
AcDbEntity
  8
0
  6
Continuous
 62
     7
370
    30
100
AcDbLine
 10
75.0008662505
 20
184.1920057374
 30
0.0
 11
75.0005742167
 21
184.1920057374
 31
0.0
  0
LINE
  5
C4
330
1F
100
AcDbEntity
  8
0
  6
Continuous
 62
     7
370
    30
100
AcDbLine
 10
75.0005742167
 20
184.1920057374
 30
0.0
 11
75.0005742167
 21
254.8079942626
 31
0.0
  0
LINE
  5
C5
330
1F
100
AcDbEntity
  8
0
  6
Continuous
 62
     7
370
    30
100
AcDbLine
 10
75.0008662505
 20
254.8079942626
 30
0.0
 11
75.0005742167
 21
254.8079942626
 31
0.0
  0
LINE
  5
C6
330
1F
100
AcDbEntity
  8
0
  6
Continuous
 62
     7
370
    30
100
AcDbLine
 10
75.0005742167
 20
254.8079942626
 30
0.0
 11
75.0005742167
 21
255.8078419577
 31
0.0
  0
LWPOLYLINE
  5
C7
330
1F
100
AcDbEntity
  8
0
  6
Continuous
 62
     7
370
    30
100
AcDbPolyline
 90
        3
 70
   128
 43
0.0
 10
75.0005742167
 20
255.8078419577
 10
75.001169929
 20
255.8423538372
 10
75.002662639
 20
255.8724367197
  0
ARC
  5
C8
330
1F
100
AcDbEntity
  8
0
  6
Continuous
 62
     7
370
    30
100
AcDbCircle
 10
76.0005742167
 20
255.8078419577
 30
0.0
 40
1.000000000000042
100
AcDbArc
 50
91.0
 51
165.9517932062
  0
ARC
  5
C9
330
1F
100
AcDbEntity
  8
0
  6
Continuous
 62
     7
370
    30
100
AcDbCircle
 10
76.0005742167
 20
183.1921580423
 30
0.0
 40
1.000000000000013
100
AcDbArc
 50
196.502669193
 51
269.0
  0
LWPOLYLINE
  5
CA
330
1F
100
AcDbEntity
  8
0
  6
Continuous
 62
     7
370
    30
100
AcDbPolyline
 90
        3
 70
   128
 43
0.0
 10
75.0024414959
 20
183.1310755434
 10
75.001169929
 20
183.1576461628
 10
75.0005742167
 20
183.1921580423
  0
LINE
  5
CB
330
1F
100
AcDbEntity
  8
0
  6
Continuous
 62
     7
370
    30
100
AcDbLine
 10
75.0005742167
 20
183.1921580423
 30
0.0
 11
75.0005742167
 21
184.1920057374
 31
0.0
  0
SPLINE
  5
CC
330
1F
100
AcDbEntity
  8
0
  6
Continuous
 62
     7
370
    30
100
AcDbSpline
210
0.0
220
0.0
230
1.0
 70
    24
 71
     3
 72
   205
 73
   201
 74
     0
 42
0.000000001
 43
0.00000001
 40
0.0
 40
0.0
 40
0.0
 40
0.0
 40
0.0062183421818147
 40
0.0124292643339542
 40
0.0186344305367044
 40
0.0248355095042376
 40
0.0310341732516452
 40
0.0372320957486826
 40
0.0434309515656177
 40
0.0497978341515899
 40
0.0561692737598913
 40
0.0625470755050047
 40
0.0646964725197739
 40
0.0668468635906227
 40
0.0689983171747915
 40
0.0712625114548521
 40
0.073541751883372
 40
0.0758198733072905
 40
0.0780969574722588
 40
0.084130219323114
 40
0.0901582936301913
 40
0.0961827135996925
 40
0.1022050152288724
 40
0.1082267361360001
 40
0.1142494143841283
 40
0.1195513967095139
 40
0.1248563573842982
 40
0.1301653411096339
 40
0.1319541613048685
 40
0.1337435956040765
 40
0.1355336836932584
 40
0.1373244652149481
 40
0.1391159797656466
 40
0.1409082668932713
 40
0.1427013660946206
 40
0.1488349843726835
 40
0.1549605556808559
 40
0.1610796744295818
 40
0.1671939400771883
 40
0.1733049558926628
 40
0.1794143277035322
 40
0.185523662633694
 40
0.1917975579459189
 40
0.1980748462030033
 40
0.2043572624003468
 40
0.2073212725540629
 40
0.2102869879809514
 40
0.213254589292292
 40
0.2162242567552731
 40
0.2191961702611039
 40
0.2254611243237193
 40
0.231717489609211
 40
0.237966964309864
 40
0.2442112522398422
 40
0.2504520614614583
 40
0.2566911028941238
 40
0.2629300889115949
 40
0.2686505837318114
 40
0.2743737889320807
 40
0.2801010206697919
 40
0.2858335923289423
 40
0.2915728136275103
 40
0.2973199897373374
 40
0.303584944024488
 40
0.3098413094634087
 40
0.3160907842597863
 40
0.3223350722412781
 40
0.32857588148376
 40
0.3348149229202547
 40
0.3410539089381547
 40
0.3474610036728839
 40
0.3538716965724222
 40
0.3602878361228471
 40
0.3633150318647013
 40
0.3663440406347788
 40
0.3693750548083644
 40
0.3724082663791766
 40
0.3754438669239957
 40
0.3815774858211203
 40
0.3877030575522869
 40
0.3938221765649103
 40
0.3999364423545294
 40
0.4060474582275277
 40
0.4121568300489548
 40
0.4182661649802982
 40
0.4245400603233569
 40
0.4308173486816517
 40
0.4370997650910874
 40
0.439216751841915
 40
0.4413345822937809
 40
0.4434533223192886
 40
0.4455730377062436
 40
0.4476937941516816
 40
0.4498156572559384
 40
0.4519386925167654
 40
0.4585312941994836
 40
0.46511523042058
 40
0.4716924845242015
 40
0.4782650459037099
 40
0.4848349082154222
 40
0.4914040675730545
 40
0.4979745207309983
 40
0.5024935250041143
 40
0.5070147317607082
 40
0.5115387877631674
 40
0.5160663385528317
 40
0.520598028177539
 40
0.5251344989223422
 40
0.5294234968317505
 40
0.5336952148253468
 40
0.5405236147876012
 40
0.5473462124517454
 40
0.5541652327791818
 40
0.5609829042337275
 40
0.5678014566017305
 40
0.5745012664602477
 40
0.5812061848759467
 40
0.5879183158246535
 40
0.5946397565090986
 40
0.600856937291086
 40
0.60706692408001
 40
0.613271382400933
 40
0.619471982233877
 40
0.6256703966775318
 40
0.6318683006003978
 40
0.6380673692847738
 40
0.6444347117443447
 40
0.6508068560890241
 40
0.6571856075856692
 40
0.659335379552426
 40
0.6614861733448919
 40
0.6636380574103392
 40
0.6659023079142341
 40
0.6681815483427423
 40
0.6704596697666501
 40
0.6727367539316078
 40
0.6787700157824402
 40
0.6847980900895001
 40
0.6908225100589896
 40
0.6968448116881633
 40
0.7028665325952903
 40
0.7088892108434233
 40
0.7141911931688177
 40
0.719496153843615
 40
0.724805137568968
 40
0.7265939577642092
 40
0.7283833920634246
 40
0.7301734801526142
 40
0.7319642616743121
 40
0.7337557762250192
 40
0.7355480633526531
 40
0.7373411625540117
 40
0.7434747808319094
 40
0.7496003521399451
 40
0.7557194708885632
 40
0.7618337365360907
 40
0.7679447523515147
 40
0.7740541241623625
 40
0.7801634590925316
 40
0.7864373544047936
 40
0.7927146426619452
 40
0.7989970588593861
 40
0.8019610690131583
 40
0.8049267844401097
 40
0.8078943857515197
 40
0.8108640532145768
 40
0.8138359667204903
 40
0.8201009207830827
 40
0.8263572860685551
 40
0.8326067607691926
 40
0.838851048699159
 40
0.8450918579207677
 40
0.8513308993534301
 40
0.8575698853709022
 40
0.8632903801911238
 40
0.869013585391402
 40
0.8747408171291262
 40
0.8804733887882938
 40
0.8862126100868829
 40
0.8919597861967354
 40
0.8982247404840534
 40
0.9044811059231126
 40
0.9107305807195999
 40
0.9169748687011721
 40
0.9232156779437053
 40
0.929454719380222
 40
0.9356937053981148
 40
0.9421008001328061
 40
0.9485114930322754
 40
0.9549276325826006
 40
0.957954828324397
 40
0.9609838370944099
 40
0.9640148512679241
 40
0.9670480628386581
 40
0.970083663383392
 40
0.9762172822805943
 40
0.9823428540118254
 40
0.9884619730244996
 40
0.9945762388141559
 40
1.0
 40
1.0
 40
1.0
 40
1.0
 10
27.00057421665536
 20
231.7861558665
 30
0.0
 10
27.00057421665537
 20
231.7490881765409
 30
0.0
 10
27.00057421665538
 20
231.6749970276014
 30
0.0
 10
27.00057421665536
 20
231.5597695602778
 30
0.0
 10
27.00057421665536
 20
231.4416444724358
 30
0.0
 10
27.00057421665536
 20
231.3203230123028
 30
0.0
 10
27.00057421665535
 20
231.1958851617744
 30
0.0
 10
27.00057421665537
 20
231.0683095211038
 30
0.0
 10
27.00057421665534
 20
230.9364393628835
 30
0.0
 10
27.00057421665536
 20
230.8001743607222
 30
0.0
 10
27.00057421665537
 20
230.6594179533176
 30
0.0
 10
27.00057421665536
 20
230.5472530749324
 30
0.0
 10
27.00057421665536
 20
230.4657070479015
 30
0.0
 10
27.00057421665535
 20
230.4160864142585
 30
0.0
 10
27.00057421665537
 20
230.3652269272893
 30
0.0
 10
27.00057421665534
 20
230.3129990726832
 30
0.0
 10
27.00057421665539
 20
230.2593959084641
 30
0.0
 10
27.00057421665534
 20
230.2053037107053
 30
0.0
 10
27.00057421665539
 20
230.1209017313506
 30
0.0
 10
27.00057421665536
 20
230.0051341258331
 30
0.0
 10
27.00057421665536
 20
229.8564449280688
 30
0.0
 10
27.00057421665536
 20
229.7052144752481
 30
0.0
 10
27.00057421665538
 20
229.551443069728
 30
0.0
 10
27.00057421665537
 20
229.3951307228434
 30
0.0
 10
27.00057421665538
 20
229.2426349821056
 30
0.0
 10
27.00057421665536
 20
229.0943007396281
 30
0.0
 10
27.00057421665538
 20
228.9504447510447
 30
0.0
 10
27.00057421665536
 20
228.8368947528863
 30
0.0
 10
27.00057421665535
 20
228.7548501965246
 30
0.0
 10
27.00057421665536
 20
228.7050849829499
 30
0.0
 10
27.00057421665535
 20
228.6550967248541
 30
0.0
 10
27.00057421665536
 20
228.604885390723
 30
0.0
 10
27.00057421665536
 20
228.5544510034715
 30
0.0
 10
27.00057421665537
 20
228.5037935034629
 30
0.0
 10
27.00057421665533
 20
228.4118664121929
 30
0.0
 10
27.00057421665538
 20
228.2778016759938
 30
0.0
 10
27.00057421665536
 20
228.1001763037017
 30
0.0
 10
27.00057421665536
 20
227.9204913420922
 30
0.0
 10
27.00057421665536
 20
227.7387471635415
 30
0.0
 10
27.00057421665534
 20
227.5549437170027
 30
0.0
 10
27.00057421665536
 20
227.3690810379409
 30
0.0
 10
27.00057421665536
 20
227.1794882178054
 30
0.0
 10
27.00057421665536
 20
226.9860996443919
 30
0.0
 10
27.00057421665536
 20
226.7888527498029
 30
0.0
 10
27.00057421665536
 20
226.6246149753769
 30
0.0
 10
27.00057421665536
 20
226.4944855189271
 30
0.0
 10
27.00057421665536
 20
226.3992498704694
 30
0.0
 10
27.00057421665536
 20
226.3035320496678
 30
0.0
 10
27.00057421665536
 20
226.2073318411378
 30
0.0
 10
27.00057421665536
 20
226.0749671339975
 30
0.0
 10
27.00057421665537
 20
225.9058703927259
 30
0.0
 10
27.00057421665535
 20
225.6992595185211
 30
0.0
 10
27.00057421665536
 20
225.4911867151051
 30
0.0
 10
27.00057421665537
 20
225.2816523079163
 30
0.0
 10
27.00057421665536
 20
225.0706562488824
 30
0.0
 10
27.00057421665536
 20
224.8581986692109
 30
0.0
 10
27.00057421665536
 20
224.6502236856103
 30
0.0
 10
27.00057421665536
 20
224.4468730934174
 30
0.0
 10
27.00057421665538
 20
224.2482730293669
 30
0.0
 10
27.00057421665536
 20
224.0484450615782
 30
0.0
 10
27.00057421665538
 20
223.8473892120327
 30
0.0
 10
27.00057421665536
 20
223.6451053703173
 30
0.0
 10
27.00057421665537
 20
223.4355922258532
 30
0.0
 10
27.00057421665538
 20
223.218979181328
 30
0.0
 10
27.00057421665534
 20
222.9953980075867
 30
0.0
 10
27.00057421665538
 20
222.7711102066752
 30
0.0
 10
27.00057421665535
 20
222.5461157787099
 30
0.0
 10
27.00057421665537
 20
222.3204147927015
 30
0.0
 10
27.00057421665536
 20
222.0940072647347
 30
0.0
 10
27.00057421665536
 20
221.8648737999621
 30
0.0
 10
27.00057421665538
 20
221.6329909536617
 30
0.0
 10
27.00057421665535
 20
221.3983397082144
 30
0.0
 10
27.00057421665537
 20
221.2044726014964
 30
0.0
 10
27.00057421665535
 20
221.051732981745
 30
0.0
 10
27.00057421665536
 20
220.940349345737
 30
0.0
 10
27.00057421665537
 20
220.8288003706014
 30
0.0
 10
27.00057421665536
 20
220.7170858447807
 30
0.0
 10
27.00057421665536
 20
220.5671786623677
 30
0.0
 10
27.00057421665538
 20
220.379100503898
 30
0.0
 10
27.00057421665537
 20
220.1528759120309
 30
0.0
 10
27.00057421665536
 20
219.9267180175456
 30
0.0
 10
27.00057421665537
 20
219.7006272244217
 30
0.0
 10
27.00057421665536
 20
219.4746034907306
 30
0.0
 10
27.00057421665537
 20
219.2486468580883
 30
0.0
 10
27.00057421665537
 20
219.0207488340723
 30
0.0
 10
27.00057421665535
 20
218.7909102835342
 30
0.0
 10
27.00057421665534
 20
218.5591366590712
 30
0.0
 10
27.00057421665536
 20
218.3787209166383
 30
0.0
 10
27.00057421665537
 20
218.2495588961567
 30
0.0
 10
27.00057421665535
 20
218.1715698602019
 30
0.0
 10
27.00057421665537
 20
218.0935889044344
 30
0.0
 10
27.00057421665536
 20
218.0156159612935
 30
0.0
 10
27.00057421665535
 20
217.9376510630704
 30
0.0
 10
27.00057421665537
 20
217.8596941494422
 30
0.0
 10
27.00057421665536
 20
217.7270600564105
 30
0.0
 10
27.00057421665537
 20
217.5400775083524
 30
0.0
 10
27.00057421665536
 20
217.2992504530309
 30
0.0
 10
27.00057421665536
 20
217.059330931297
 30
0.0
 10
27.00057421665538
 20
216.82031970717
 30
0.0
 10
27.00057421665536
 20
216.5822165888404
 30
0.0
 10
27.00057421665535
 20
216.3450219815893
 30
0.0
 10
27.00057421665538
 20
216.1333632444882
 30
0.0
 10
27.00057421665536
 20
215.9469392487583
 30
0.0
 10
27.00057421665536
 20
215.7854612723811
 30
0.0
 10
27.00057421665535
 20
215.624412696804
 30
0.0
 10
27.00057421665538
 20
215.4637933715011
 30
0.0
 10
27.00057421665536
 20
215.3036034126758
 30
0.0
 10
27.00057421665535
 20
215.1468111445583
 30
0.0
 10
27.00057421665537
 20
214.9936507737766
 30
0.0
 10
27.00057421665536
 20
214.8143762021917
 30
0.0
 10
27.00057421665536
 20
214.6066581005098
 30
0.0
 10
27.00057421665537
 20
214.3710099336681
 30
0.0
 10
27.00057421665536
 20
214.1371543363437
 30
0.0
 10
27.00057421665536
 20
213.9050917970746
 30
0.0
 10
27.00057421665538
 20
213.6761937597043
 30
0.0
 10
27.00057421665536
 20
213.4504237602363
 30
0.0
 10
27.00057421665536
 20
213.2277424421996
 30
0.0
 10
27.00057421665534
 20
213.0067910997813
 30
0.0
 10
27.00057421665536
 20
212.79317426826
 30
0.0
 10
27.00057421665536
 20
212.5869345826368
 30
0.0
 10
27.00057421665536
 20
212.3881186078551
 30
0.0
 10
27.00057421665536
 20
212.1913900866914
 30
0.0
 10
27.00057421665537
 20
211.9967492086387
 30
0.0
 10
27.00057421665536
 20
211.8041959863432
 30
0.0
 10
27.00057421665537
 20
211.6137304481656
 30
0.0
 10
27.00057421665536
 20
211.423677131277
 30
0.0
 10
27.00057421665539
 20
211.2341009803882
 30
0.0
 10
27.00057421665534
 20
211.0450714578928
 30
0.0
 10
27.0005742166554
 20
210.899607684316
 30
0.0
 10
27.00057421665535
 20
210.7962665400689
 30
0.0
 10
27.00057421665537
 20
210.7341067304525
 30
0.0
 10
27.00057421665535
 20
210.6711299298847
 30
0.0
 10
27.00057421665537
 20
210.6072220835457
 30
0.0
 10
27.00057421665537
 20
210.5424276880734
 30
0.0
 10
27.00057421665535
 20
210.4778340536534
 30
0.0
 10
27.00057421665535
 20
210.3782647251567
 30
0.0
 10
27.00057421665536
 20
210.2446861387861
 30
0.0
 10
27.00057421665535
 20
210.0785464643614
 30
0.0
 10
27.00057421665536
 20
209.9149000284471
 30
0.0
 10
27.00057421665536
 20
209.7537472061465
 30
0.0
 10
27.00057421665535
 20
209.5950879895225
 30
0.0
 10
27.00057421665536
 20
209.4451723857736
 30
0.0
 10
27.00057421665536
 20
209.3036640698949
 30
0.0
 10
27.00057421665537
 20
209.1702358862915
 30
0.0
 10
27.00057421665535
 20
209.0678415524721
 30
0.0
 10
27.00057421665536
 20
208.9952373909712
 30
0.0
 10
27.00057421665537
 20
208.9516146790922
 30
0.0
 10
27.00057421665536
 20
208.9082108991618
 30
0.0
 10
27.00057421665537
 20
208.8650260244993
 30
0.0
 10
27.00057421665536
 20
208.8220600633415
 30
0.0
 10
27.00057421665538
 20
208.7793130096928
 30
0.0
 10
27.00057421665535
 20
208.7024762007869
 30
0.0
 10
27.00057421665538
 20
208.5927605370644
 30
0.0
 10
27.00057421665535
 20
208.4521141220467
 30
0.0
 10
27.00057421665536
 20
208.3144999444715
 30
0.0
 10
27.00057421665538
 20
208.1799184722221
 30
0.0
 10
27.00057421665534
 20
208.0483696251031
 30
0.0
 10
27.00057421665537
 20
207.9198534497362
 30
0.0
 10
27.00057421665536
 20
207.793254199077
 30
0.0
 10
27.00057421665536
 20
207.6686663470064
 30
0.0
 10
27.00057421665538
 20
207.5461877617696
 30
0.0
 10
27.00057421665535
 20
207.4479486216824
 30
0.0
 10
27.00057421665536
 20
207.3722509526981
 30
0.0
 10
27.00057421665537
 20
207.317842198052
 30
0.0
 10
27.00057421665535
 20
207.2641437695075
 30
0.0
 10
27.00057421665536
 20
207.2111556529606
 30
0.0
 10
27.00057421665538
 20
207.1395833980712
 30
0.0
 10
27.00057421665536
 20
207.0507718086951
 30
0.0
 10
27.00057421665535
 20
206.9465591745215
 30
0.0
 10
27.00057421665537
 20
206.8458796602042
 30
0.0
 10
27.00057421665536
 20
206.7487336814445
 30
0.0
 10
27.00057421665537
 20
206.6551211570965
 30
0.0
 10
27.00057421665533
 20
206.56504216204
 30
0.0
 10
27.00057421665538
 20
206.4809015244026
 30
0.0
 10
27.00057421665536
 20
206.4023648767972
 30
0.0
 10
27.00057421665536
 20
206.3291062242625
 30
0.0
 10
27.00057421665535
 20
206.2588166531104
 30
0.0
 10
27.00057421665537
 20
206.1914960631459
 30
0.0
 10
27.00057421665538
 20
206.1271447712527
 30
0.0
 10
27.00057421665536
 20
206.0639513263183
 30
0.0
 10
27.00057421665536
 20
206.002309213965
 30
0.0
 10
27.00057421665536
 20
205.9426443622572
 30
0.0
 10
27.00057421665536
 20
205.8867371976102
 30
0.0
 10
27.00057421665536
 20
205.8345881120548
 30
0.0
 10
27.00057421665536
 20
205.7861970252147
 30
0.0
 10
27.00057421665537
 20
205.7415639749545
 30
0.0
 10
27.00057421665537
 20
205.7003255065644
 30
0.0
 10
27.00057421665536
 20
205.6625992983796
 30
0.0
 10
27.00057421665536
 20
205.6285050161912
 30
0.0
 10
27.00057421665536
 20
205.6036880807925
 30
0.0
 10
27.00057421665536
 20
205.5860666312713
 30
0.0
 10
27.00057421665538
 20
205.5741156393989
 30
0.0
 10
27.00057421665536
 20
205.5630447501551
 30
0.0
 10
27.00057421665535
 20
205.5528542835378
 30
0.0
 10
27.00057421665538
 20
205.5403780984983
 30
0.0
 10
27.00057421665536
 20
205.5269992923078
 30
0.0
 10
27.00057421665536
 20
205.5145428927589
 30
0.0
 10
27.00057421665538
 20
205.5058436354694
 30
0.0
 10
27.00057421665535
 20
205.5006676592565
 30
0.0
 10
27.00057421665536
 20
205.5002209480763
 30
0.0
 10
27.00057421665536
 20
205.5000109594218
 30
0.0
  0
SPLINE
  5
CD
330
1F
100
AcDbEntity
  8
0
  6
Continuous
 62
     7
370
    30
100
AcDbSpline
210
0.0
220
0.0
230
1.0
 70
    24
 71
     3
 72
    44
 73
    40
 74
     0
 42
0.000000001
 43
0.00000001
 40
0.0
 40
0.0
 40
0.0
 40
0.0
 40
0.0036308968971477
 40
0.0359078673173261
 40
0.0681846428402898
 40
0.1013308222393226
 40
0.1344949275816807
 40
0.1676861253912265
 40
0.1788705680368166
 40
0.1900594681150724
 40
0.2012531736434564
 40
0.2124520321914262
 40
0.2236563908488853
 40
0.2348665961948548
 40
0.2460829942663805
 40
0.2809129597234692
 40
0.3156971439027973
 40
0.3504460251877797
 40
0.3851701139209797
 40
0.4198799429669641
 40
0.4545860581732029
 40
0.4892990087719758
 40
0.5131737657054107
 40
0.5370601587769344
 40
0.5609616049549444
 40
0.5848815147568136
 40
0.6088232908094596
 40
0.6327903264266737
 40
0.6554541181562401
 40
0.6780262817342636
 40
0.7141069935751667
 40
0.7501555643316022
 40
0.786183750377257
 40
0.8222033280458251
 40
0.8582260821135932
 40
0.893620081335437
 40
0.9290396572102868
 40
0.9644959336324632
 40
1.0
 40
1.0
 40
1.0
 40
1.0
 10
27.00057421665536
 20
233.4999890405787
 30
0.0
 10
27.00057421665536
 20
233.5000492738495
 30
0.0
 10
27.00057421665541
 20
233.5006449526459
 30
0.0
 10
27.00057421665533
 20
233.4983066000914
 30
0.0
 10
27.00057421665537
 20
233.4926612319922
 30
0.0
 10
27.00057421665536
 20
233.482806272864
 30
0.0
 10
27.00057421665537
 20
233.4691063103923
 30
0.0
 10
27.00057421665536
 20
233.4554081458959
 30
0.0
 10
27.00057421665535
 20
233.4441650411765
 30
0.0
 10
27.00057421665535
 20
233.4369373856907
 30
0.0
 10
27.00057421665538
 20
233.4292718742302
 30
0.0
 10
27.00057421665536
 20
233.4211683814015
 30
0.0
 10
27.00057421665538
 20
233.4126269663994
 30
0.0
 10
27.00057421665533
 20
233.4036475183186
 30
0.0
 10
27.00057421665538
 20
233.3876238042269
 30
0.0
 10
27.00057421665535
 20
233.3628666920884
 30
0.0
 10
27.00057421665538
 20
233.3267207456093
 30
0.0
 10
27.00057421665536
 20
233.2864364336622
 30
0.0
 10
27.00057421665537
 20
233.2420135508159
 30
0.0
 10
27.00057421665536
 20
233.1934521375007
 30
0.0
 10
27.00057421665538
 20
233.1407522721167
 30
0.0
 10
27.00057421665535
 20
233.0898379957502
 30
0.0
 10
27.00057421665534
 20
233.0420845828513
 30
0.0
 10
27.00057421665536
 20
232.9986555118267
 30
0.0
 10
27.00057421665537
 20
232.9532706880278
 30
0.0
 10
27.00057421665536
 20
232.9059301361013
 30
0.0
 10
27.00057421665535
 20
232.8566336890031
 30
0.0
 10
27.00057421665536
 20
232.8063313546685
 30
0.0
 10
27.00057421665538
 20
232.7552328155798
 30
0.0
 10
27.00057421665537
 20
232.6931672237034
 30
0.0
 10
27.00057421665536
 20
232.6178359739807
 30
0.0
 10
27.00057421665536
 20
232.5275335752028
 30
0.0
 10
27.00057421665536
 20
232.4330396361866
 30
0.0
 10
27.00057421665535
 20
232.3343561185021
 30
0.0
 10
27.00057421665537
 20
232.2320888686947
 30
0.0
 10
27.00057421665537
 20
232.126350426516
 30
0.0
 10
27.00057421665536
 20
232.0171324502562
 30
0.0
 10
27.00057421665538
 20
231.9041469258674
 30
0.0
 10
27.00057421665537
 20
231.8255038743058
 30
0.0
 10
27.00057421665536
 20
231.7861558665
 30
0.0
  0
SPLINE
  5
CE
330
1F
100
AcDbEntity
  8
0
  6
Continuous
 62
     7
370
    30
100
AcDbSpline
210
0.0
220
0.0
230
1.0
 70
     8
 71
     3
 72
    44
 73
    40
 74
     0
 42
0.000000001
 43
0.00000001
 40
0.0
 40
0.0
 40
0.0
 40
0.0
 40
0.0339702578486624
 40
0.0673213333861785
 40
0.1001766903243534
 40
0.1324792558652966
 40
0.1653894063490958
 40
0.1996189198287437
 40
0.2351622820952107
 40
0.2673300438150095
 40
0.3004754995209261
 40
0.3343308582272441
 40
0.3686555389036248
 40
0.4034062625469708
 40
0.4385361265993297
 40
0.4739948926498738
 40
0.5097293440935364
 40
0.5456837091694537
 40
0.5817544617791981
 40
0.6172000445301281
 40
0.651745854700299
 40
0.6853557843724424
 40
0.7180011126593921
 40
0.7496601161684295
 40
0.7803175983221845
 40
0.8099471050664871
 40
0.8384865589395137
 40
0.8659349505806775
 40
0.8923007988820421
 40
0.9180310936038415
 40
0.9436825234896697
 40
0.9500112332775994
 40
0.9561380557258795
 40
0.9622800046836758
 40
0.9686645500734721
 40
0.9754884997391654
 40
0.9829097535889953
 40
0.991049589654408
 40
1.0
 40
1.0
 40
1.0
 40
1.0
 10
171.1949700889176
 20
116.9822588684173
 30
0.0
 10
171.1955661508307
 20
116.9645345981086
 30
0.0
 10
171.1967474101235
 20
116.9294091211164
 30
0.0
 10
171.2019957618396
 20
116.877352084901
 30
0.0
 10
171.2096046654335
 20
116.8264872845783
 30
0.0
 10
171.2197995605866
 20
116.7763067146939
 30
0.0
 10
171.2327038060142
 20
116.7260158684909
 30
0.0
 10
171.2487395761472
 20
116.6748573546479
 30
0.0
 10
171.2674052777438
 20
116.6250122065075
 30
0.0
 10
171.2884542294029
 20
116.5767518939715
 30
0.0
 10
171.3115470543021
 20
116.5304187179364
 30
0.0
 10
171.3375892881659
 20
116.4843810212773
 30
0.0
 10
171.3664989745772
 20
116.4390933424275
 30
0.0
 10
171.3981995153578
 20
116.3948956116236
 30
0.0
 10
171.4326377475731
 20
116.352038028184
 30
0.0
 10
171.469731463891
 20
116.310768554991
 30
0.0
 10
171.5093693091328
 20
116.2713287250778
 30
0.0
 10
171.5513935325261
 20
116.2339652632932
 30
0.0
 10
171.595336440266
 20
116.1991264927061
 30
0.0
 10
171.6405564678614
 20
116.1672291997864
 30
0.0
 10
171.6863643558675
 20
116.1385421662853
 30
0.0
 10
171.732356429704
 20
116.1130514176126
 30
0.0
 10
171.7782524192944
 20
116.0906442316419
 30
0.0
 10
171.823799287641
 20
116.0711839364441
 30
0.0
 10
171.8687638916213
 20
116.0545183178318
 30
0.0
 10
171.9129123453357
 20
116.0404888730185
 30
0.0
 10
171.9560350752076
 20
116.0289206547135
 30
0.0
 10
171.9979616687213
 20
116.0196244175613
 30
0.0
 10
172.0387936326044
 20
116.0123618392637
 30
0.0
 10
172.0789776997471
 20
116.0068978480881
 30
0.0
 10
172.1088912945557
 20
116.0040496332645
 30
0.0
 10
172.1287621886548
 20
116.0026603226273
 30
0.0
 10
172.1381710948822
 20
116.0020886653896
 30
0.0
 10
172.1469070227595
 20
116.0016357606594
 30
0.0
 10
172.154969315016
 20
116.0012860647894
 30
0.0
 10
172.1623984019811
 20
116.001023910479
 30
0.0
 10
172.1692416233452
 20
116.0008352567072
 30
0.0
 10
172.1756291289383
 20
116.0007040910853
 30
0.0
 10
172.1792737405059
 20
116.0006583862678
 30
0.0
 10
172.1811824765356
 20
116.0006344499908
 30
0.0
  0
SPLINE
  5
CF
330
1F
100
AcDbEntity
  8
0
  6
Continuous
 62
     7
370
    30
100
AcDbSpline
210
0.0
220
0.0
230
1.0
 70
     8
 71
     3
 72
    48
 73
    44
 74
     0
 42
0.000000001
 43
0.00000001
 40
0.0
 40
0.0
 40
0.0
 40
0.0
 40
0.0105427322834046
 40
0.0200415441488686
 40
0.0286930387260813
 40
0.0347839460181434
 40
0.0406793470601798
 40
0.0465318003374969
 40
0.0525022827412585
 40
0.064306516052568
 40
0.0763775335416659
 40
0.0886636530329133
 40
0.1011660651887879
 40
0.1212516599852981
 40
0.1418773744158322
 40
0.1671472310863597
 40
0.1931997817500577
 40
0.2200337776952974
 40
0.2514690706387652
 40
0.2838957307378814
 40
0.317275944371701
 40
0.3512651666408569
 40
0.38571315758489
 40
0.4205756962668821
 40
0.4558050029413525
 40
0.491350044465348
 40
0.5271569087939388
 40
0.5631692433492477
 40
0.599178879798027
 40
0.634414395955641
 40
0.6687399314037501
 40
0.7021212335439517
 40
0.7345313519758714
 40
0.7659502264931656
 40
0.7999450918695084
 40
0.8326163911966535
 40
0.8639152652787169
 40
0.8938509569138171
 40
0.912247127418137
 40
0.9318771897863746
 40
0.9529218259440358
 40
0.9754743008391747
 40
1.0
 40
1.0
 40
1.0
 40
1.0
 10
244.8188175234644
 20
116.0006344499908
 30
0.0
 10
244.8210948107399
 20
116.0006635276498
 30
0.0
 10
244.8254238928266
 20
116.0007188037557
 30
0.0
 10
244.8334473435104
 20
116.0008986527407
 30
0.0
 10
244.8416901458262
 20
116.0011573542586
 30
0.0
 10
244.8499362236314
 20
116.0014903801719
 30
0.0
 10
244.857903524925
 20
116.0018748841326
 30
0.0
 10
244.8664955043109
 20
116.0023606699069
 30
0.0
 10
244.878571622205
 20
116.0031485442099
 30
0.0
 10
244.8941580308765
 20
116.0043727535186
 30
0.0
 10
244.9128868505634
 20
116.0062018954569
 30
0.0
 10
244.9319728383576
 20
116.0084324246881
 30
0.0
 10
244.9551404835481
 20
116.0115981361458
 30
0.0
 10
244.982516061791
 20
116.0160533136895
 30
0.0
 10
245.0162648902139
 20
116.0226572855785
 30
0.0
 10
245.0527879275384
 20
116.03117819017
 30
0.0
 10
245.092059362155
 20
116.0420224432471
 30
0.0
 10
245.1339093458621
 20
116.0554679258876
 30
0.0
 10
245.1782230225784
 20
116.0719718235135
 30
0.0
 10
245.2247934101763
 20
116.0920223018136
 30
0.0
 10
245.271466725286
 20
116.1150367085614
 30
0.0
 10
245.3177838072095
 20
116.1409982244708
 30
0.0
 10
245.3632998363801
 20
116.1698196366685
 30
0.0
 10
245.4077153701063
 20
116.201445509089
 30
0.0
 10
245.4507796805226
 20
116.2358198706424
 30
0.0
 10
245.4922447957839
 20
116.2728575252946
 30
0.0
 10
245.5318696998209
 20
116.3124440431029
 30
0.0
 10
245.5693724480866
 20
116.3543781737559
 30
0.0
 10
245.6042700443475
 20
116.398128475093
 30
0.0
 10
245.6361675795951
 20
116.4430396491009
 30
0.0
 10
245.6648440158217
 20
116.4884614557089
 30
0.0
 10
245.6903566117931
 20
116.5340525407055
 30
0.0
 10
245.7128195280236
 20
116.5795369717682
 30
0.0
 10
245.7331125613593
 20
116.6263799269283
 30
0.0
 10
245.7510340971181
 20
116.6743331919462
 30
0.0
 10
245.7664138852111
 20
116.7230951560361
 30
0.0
 10
245.7788010239772
 20
116.7705149285848
 30
0.0
 10
245.7873695965265
 20
116.8111836992057
 30
0.0
 10
245.7933631944226
 20
116.8461357710838
 30
0.0
 10
245.7976731216327
 20
116.8766581794323
 30
0.0
 10
245.801223079612
 20
116.9094595251441
 30
0.0
 10
245.8039353597924
 20
116.9449106433253
 30
0.0
 10
245.8046550062839
 20
116.9694663853903
 30
0.0
 10
245.8050299110823
 20
116.9822588684173
 30
0.0
  0
SPLINE
  5
D0
330
1F
100
AcDbEntity
  8
0
  6
Continuous
 62
     7
370
    30
100
AcDbSpline
210
0.0
220
0.0
230
1.0
 70
     8
 71
     3
 72
     9
 73
     5
 74
     0
 42
0.000000001
 43
0.00000001
 40
0.0
 40
0.0
 40
0.0
 40
0.0
 40
0.5694518583869418
 40
1.0
 40
1.0
 40
1.0
 40
1.0
 10
171.1924210441165
 20
116.977640953598
 30
0.0
 10
171.1924958267154
 20
116.9754229815455
 30
0.0
 10
171.1926271505451
 20
116.9715280569443
 30
0.0
 10
171.1930633898154
 20
116.9663551192365
 30
0.0
 10
171.1932512118226
 20
116.9641279205198
 30
0.0
  0
ARC
  5
D1
330
1F
100
AcDbEntity
  8
0
  6
Continuous
 62
     7
370
    30
100
AcDbCircle
 10
194.5
 20
69.0005742167
 30
0.0
 40
1.0
100
AcDbArc
 50
180.0
 51
270.0
  0
ARC
  5
D2
330
1F
100
AcDbEntity
  8
0
  6
Continuous
 62
     7
370
    30
100
AcDbCircle
 10
222.5
 20
69.0005742167
 30
0.0
 40
1.0
100
AcDbArc
 50
270.0
 51
0.0
  0
LINE
  5
D3
330
1F
100
AcDbEntity
  8
0
  6
Continuous
 62
     7
370
    30
100
AcDbLine
 10
193.5
 20
116.0005742167
 30
0.0
 11
193.5
 21
69.0005742167
 31
0.0
  0
LINE
  5
D4
330
1F
100
AcDbEntity
  8
0
  6
Continuous
 62
     7
370
    30
100
AcDbLine
 10
223.5
 20
69.0005742167
 30
0.0
 11
223.5
 21
116.0005742167
 31
0.0
  0
LINE
  5
D5
330
1F
100
AcDbEntity
  8
0
  6
Continuous
 62
     7
370
    30
100
AcDbLine
 10
171.0
 20
128.0005732507
 30
0.0
 11
172.9996953903
 21
128.0005732507
 31
0.0
  0
LINE
  5
D6
330
1F
100
AcDbEntity
  8
0
  6
Continuous
 62
     7
370
    30
100
AcDbLine
 10
171.1923103471
 20
116.9831218102
 30
0.0
 11
171.21187312
 21
116.9817488807
 31
0.0
  0
LINE
  5
D7
330
1F
100
AcDbEntity
  8
0
  6
Continuous
 62
     7
370
    30
100
AcDbLine
 10
171.1923103471
 20
116.9831218102
 30
0.0
 11
171.0
 21
128.0005742167
 31
0.0
  0
LINE
  5
D8
330
1F
100
AcDbEntity
  8
0
  6
Continuous
 62
     7
370
    30
100
AcDbLine
 10
244.0003046097
 20
128.0005732507
 30
0.0
 11
172.9996953903
 21
128.0005732507
 31
0.0
  0
LINE
  5
D9
330
1F
100
AcDbEntity
  8
0
  6
Continuous
 62
     7
370
    30
100
AcDbLine
 10
246.0
 20
128.0005742167
 30
0.0
 11
245.8076896529
 21
116.9831218102
 31
0.0
  0
LINE
  5
DA
330
1F
100
AcDbEntity
  8
0
  6
Continuous
 62
     7
370
    30
100
AcDbLine
 10
244.0003046097
 20
128.0005732507
 30
0.0
 11
246.0
 21
128.0005732507
 31
0.0
  0
LINE
  5
DB
330
1F
100
AcDbEntity
  8
0
  6
Continuous
 62
     7
370
    30
100
AcDbLine
 10
243.8079942626
 20
116.0005742167
 30
0.0
 11
173.1920057374
 21
116.0005742167
 31
0.0
  0
LINE
  5
DC
330
1F
100
AcDbEntity
  8
0
  6
Continuous
 62
     7
370
    30
100
AcDbLine
 10
173.1920057374
 20
116.0005742167
 30
0.0
 11
173.1920057374
 21
116.0008662621
 31
0.0
  0
LINE
  5
DD
330
1F
100
AcDbEntity
  8
0
  6
Continuous
 62
     7
370
    30
100
AcDbLine
 10
243.8079942626
 20
116.0005742167
 30
0.0
 11
243.8079942626
 21
116.0008662621
 31
0.0
  0
LINE
  5
DE
330
1F
100
AcDbEntity
  8
0
  6
Continuous
 62
     7
370
    30
100
AcDbLine
 10
173.1920057374
 20
116.0005742167
 30
0.0
 11
172.1921580423
 21
116.0005742167
 31
0.0
  0
LWPOLYLINE
  5
DF
330
1F
100
AcDbEntity
  8
0
  6
Continuous
 62
     7
370
    30
100
AcDbPolyline
 90
        3
 70
   128
 43
0.0
 10
172.1921580423
 20
116.0005742167
 10
172.1576461628
 20
116.001169929
 10
172.1275632803
 20
116.002662639
  0
ARC
  5
E0
330
1F
100
AcDbEntity
  8
0
  6
Continuous
 62
     7
370
    30
100
AcDbCircle
 10
172.1921580423
 20
117.0005742167
 30
0.0
 40
1.000000000000013
100
AcDbArc
 50
181.0
 51
255.9517932062
  0
LINE
  5
E1
330
1F
100
AcDbEntity
  8
0
  6
Continuous
 62
     7
370
    30
100
AcDbLine
 10
244.8078419577
 20
116.0005742167
 30
0.0
 11
243.8079942626
 21
116.0005742167
 31
0.0
  0
ARC
  5
E2
330
1F
100
AcDbEntity
  8
0
  6
Continuous
 62
     7
370
    30
100
AcDbCircle
 10
244.8078419577
 20
117.0005742167
 30
0.0
 40
1.000000000000013
100
AcDbArc
 50
286.502669193
 51
359.0
  0
LWPOLYLINE
  5
E3
330
1F
100
AcDbEntity
  8
0
  6
Continuous
 62
     7
370
    30
100
AcDbPolyline
 90
        3
 70
   128
 43
0.0
 10
244.8689244566
 20
116.0024414959
 10
244.8423538372
 20
116.001169929
 10
244.8078419577
 20
116.0005742167
  0
SPLINE
  5
E4
330
1F
100
AcDbEntity
  8
0
  6
Continuous
 62
     7
370
    30
100
AcDbSpline
210
0.0
220
0.0
230
1.0
 70
    24
 71
     3
 72
    88
 73
    84
 74
     0
 42
0.000000001
 43
0.00000001
 40
0.0
 40
0.0
 40
0.0
 40
0.0
 40
0.0153402877921813
 40
0.030662270803552
 40
0.0459700542232039
 40
0.0612677546717567
 40
0.0765594969130052
 40
0.0918494105327863
 40
0.1071416265983665
 40
0.1228483549114967
 40
0.1385663251331551
 40
0.1542999903755789
 40
0.1596024275561254
 40
0.1649073170150923
 40
0.1702148276325022
 40
0.1758004629767772
 40
0.1814232162924955
 40
0.1870432090890717
 40
0.1926606430282632
 40
0.2075443484294185
 40
0.2224152564623747
 40
0.2372771494574853
 40
0.2521338166304683
 40
0.2669890511959899
 40
0.2818466474659711
 40
0.2949263288926915
 40
0.3080133577338168
 40
0.3211103112062116
 40
0.3255232263853752
 40
0.329937656523255
 40
0.3343536995229011
 40
0.3387714531801344
 40
0.3431910151772155
 40
0.3476124830765523
 40
0.3520359543144443
 40
0.3671672331733073
 40
0.3822786606263829
 40
0.3973741699913234
 40
0.4124577070386138
 40
0.4275332269394169
 40
0.4426046911766624
 40
0.4576760644313519
 40
0.4731533985589279
 40
0.4886391028837505
 40
0.5041374575383646
 40
0.5114494978615755
 40
0.5187657449943289
 40
0.5260866444941267
 40
0.533412641069618
 40
0.5407441785019326
 40
0.5561994550877682
 40
0.5716335436609459
 40
0.5870506335628716
 40
0.6024549280037983
 40
0.6178506406739157
 40
0.6332419923117091
 40
0.6486332072434468
 40
0.6627453346063374
 40
0.6768641483188722
 40
0.690992895264632
 40
0.7051348154854017
 40
0.7192931399791102
 40
0.7334710885286333
 40
0.7489263656683842
 40
0.7643604546200623
 40
0.7797775447581349
 40
0.7951818393261426
 40
0.8105775520477347
 40
0.8259689036949743
 40
0.8413601186277703
 40
0.857166047968544
 40
0.8729808537722207
 40
0.8888090961462343
 40
0.8962770116332776
 40
0.9037493997552947
 40
0.9112267350909024
 40
0.9187094912774162
 40
0.9261981409235888
 40
0.9413294213096407
 40
0.9564408498062186
 40
0.9715363598221786
 40
0.9866198972198057
 40
0.9999999999999999
 40
0.9999999999999999
 40
0.9999999999999999
 40
0.9999999999999999
 10
215.21195754046
 20
68.00057421665537
 30
0.0
 10
215.2790573136933
 20
68.00057421665535
 30
0.0
 10
215.4131767934323
 20
68.00057421665537
 30
0.0
 10
215.6119184653307
 20
68.00057421665538
 30
0.0
 10
215.8086946702225
 20
68.00057421665537
 30
0.0
 10
216.0033421537107
 20
68.00057421665537
 30
0.0
 10
216.1959045410917
 20
68.00057421665538
 30
0.0
 10
216.3863701213122
 20
68.00057421665535
 30
0.0
 10
216.5764173375009
 20
68.0005742166554
 30
0.0
 10
216.7659802923254
 20
68.00057421665537
 30
0.0
 10
216.9549896326779
 20
68.00057421665538
 30
0.0
 10
217.1004340646853
 20
68.00057421665535
 30
0.0
 10
217.203758706251
 20
68.00057421665538
 30
0.0
 10
217.2659069661629
 20
68.00057421665535
 30
0.0
 10
217.3288752671407
 20
68.00057421665537
 30
0.0
 10
217.392778446788
 20
68.00057421665535
 30
0.0
 10
217.4575723129342
 20
68.00057421665538
 30
0.0
 10
217.5221659461004
 20
68.00057421665537
 30
0.0
 10
217.6217352750588
 20
68.00057421665538
 30
0.0
 10
217.7553138611531
 20
68.00057421665538
 30
0.0
 10
217.9214535356713
 20
68.00057421665537
 30
0.0
 10
218.0850999715607
 20
68.00057421665535
 30
0.0
 10
218.2462527938678
 20
68.00057421665537
 30
0.0
 10
218.4049120104897
 20
68.00057421665538
 30
0.0
 10
218.5548276142385
 20
68.00057421665537
 30
0.0
 10
218.6963359301165
 20
68.0005742166554
 30
0.0
 10
218.8297641137193
 20
68.00057421665537
 30
0.0
 10
218.932158447538
 20
68.00057421665537
 30
0.0
 10
219.0047626090384
 20
68.00057421665537
 30
0.0
 10
219.0483853209172
 20
68.00057421665538
 30
0.0
 10
219.0917891008472
 20
68.00057421665535
 30
0.0
 10
219.1349739755094
 20
68.00057421665538
 30
0.0
 10
219.1779399366667
 20
68.00057421665538
 30
0.0
 10
219.220686990315
 20
68.00057421665535
 30
0.0
 10
219.2975237992218
 20
68.0005742166554
 30
0.0
 10
219.4072394629462
 20
68.00057421665537
 30
0.0
 10
219.5478858779665
 20
68.00057421665535
 30
0.0
 10
219.6855000555438
 20
68.00057421665537
 30
0.0
 10
219.8200815277946
 20
68.00057421665537
 30
0.0
 10
219.9516303749143
 20
68.00057421665538
 30
0.0
 10
220.0801465502812
 20
68.00057421665534
 30
0.0
 10
220.2067458009398
 20
68.00057421665537
 30
0.0
 10
220.3313336530092
 20
68.00057421665535
 30
0.0
 10
220.453812238244
 20
68.00057421665535
 30
0.0
 10
220.5520513783293
 20
68.0005742166554
 30
0.0
 10
220.6277490473116
 20
68.00057421665537
 30
0.0
 10
220.6821578019561
 20
68.00057421665537
 30
0.0
 10
220.7358562304988
 20
68.00057421665537
 30
0.0
 10
220.7888443470437
 20
68.00057421665537
 30
0.0
 10
220.8604166019315
 20
68.00057421665537
 30
0.0
 10
220.9492281913062
 20
68.00057421665537
 30
0.0
 10
221.053440825479
 20
68.00057421665535
 30
0.0
 10
221.1541203397954
 20
68.00057421665538
 30
0.0
 10
221.2512663185545
 20
68.00057421665537
 30
0.0
 10
221.3448788429018
 20
68.00057421665535
 30
0.0
 10
221.4349578379578
 20
68.00057421665537
 30
0.0
 10
221.5190984755948
 20
68.00057421665537
 30
0.0
 10
221.5976351231999
 20
68.00057421665537
 30
0.0
 10
221.6708937757343
 20
68.00057421665537
 30
0.0
 10
221.7411833468862
 20
68.00057421665537
 30
0.0
 10
221.8085039368505
 20
68.00057421665538
 30
0.0
 10
221.8728552287436
 20
68.00057421665537
 30
0.0
 10
221.9360486736776
 20
68.00057421665537
 30
0.0
 10
221.99769078603
 20
68.00057421665535
 30
0.0
 10
222.0573556377365
 20
68.00057421665538
 30
0.0
 10
222.1132628023823
 20
68.00057421665537
 30
0.0
 10
222.1654118879368
 20
68.00057421665535
 30
0.0
 10
222.2138029747761
 20
68.00057421665537
 30
0.0
 10
222.2584360250356
 20
68.00057421665537
 30
0.0
 10
222.2996744934253
 20
68.00057421665538
 30
0.0
 10
222.3374007016097
 20
68.00057421665535
 30
0.0
 10
222.3714949837981
 20
68.00057421665537
 30
0.0
 10
222.3963119191968
 20
68.00057421665537
 30
0.0
 10
222.4139333687181
 20
68.00057421665537
 30
0.0
 10
222.4258843605905
 20
68.00057421665535
 30
0.0
 10
222.4369552498345
 20
68.00057421665538
 30
0.0
 10
222.447145716452
 20
68.00057421665534
 30
0.0
 10
222.4596219014916
 20
68.00057421665542
 30
0.0
 10
222.473000707682
 20
68.00057421665537
 30
0.0
 10
222.4854571072306
 20
68.00057421665537
 30
0.0
 10
222.4941563645198
 20
68.00057421665535
 30
0.0
 10
222.4993323407325
 20
68.00057421665537
 30
0.0
 10
222.4997790519123
 20
68.00057421665537
 30
0.0
 10
222.4999890405667
 20
68.00057421665537
 30
0.0
  0
SPLINE
  5
E5
330
1F
100
AcDbEntity
  8
0
  6
Continuous
 62
     7
370
    30
100
AcDbSpline
210
0.0
220
0.0
230
1.0
 70
    24
 71
     3
 72
   161
 73
   157
 74
     0
 42
0.000000001
 43
0.00000001
 40
0.0
 40
0.0
 40
0.0
 40
0.0
 40
0.0008766905068185
 40
0.0086700579171726
 40
0.016463378269
 40
0.024466618689063
 40
0.0324741873797028
 40
0.0404882976244899
 40
0.0431888134932549
 40
0.0458904056219629
 40
0.0485931580404319
 40
0.0512971546703077
 40
0.0540024793174467
 40
0.0567092156643511
 40
0.0594174472626615
 40
0.067827242672873
 40
0.0762259840618041
 40
0.0846162014652899
 40
0.0930004326357941
 40
0.1013812207637825
 40
0.1097611121744807
 40
0.1181426540103868
 40
0.1239072827903686
 40
0.1296747211493866
 40
0.1354457941242955
 40
0.1412213251943313
 40
0.1470021359335568
 40
0.1527890456673538
 40
0.1582602688154947
 40
0.1637094489882406
 40
0.1724200384376671
 40
0.1811232262356261
 40
0.189821850634918
 40
0.198518754356169
 40
0.2072167818070799
 40
0.215763336401106
 40
0.2243164076820033
 40
0.2328786795683672
 40
0.2414528273387516
 40
0.2493837203187614
 40
0.2573054363436307
 40
0.2652201000260245
 40
0.273129841661537
 40
0.2810367955240652
 40
0.2889430981451493
 40
0.2968508865841883
 40
0.3049733320115232
 40
0.3131019029221245
 40
0.3212389021890705
 40
0.3239812402354405
 40
0.326724881764952
 40
0.3294699140917769
 40
0.3323582856955331
 40
0.3352657790671869
 40
0.3381718449902857
 40
0.3410765877429631
 40
0.3487728661264843
 40
0.3564625270645949
 40
0.3641475263785472
 40
0.3718298234499761
 40
0.3795113797283494
 40
0.387194157230519
 40
0.393957585201972
 40
0.4007248124791296
 40
0.4074971717259965
 40
0.4097790647618292
 40
0.4120617411740944
 40
0.4143452515878957
 40
0.4166296465728891
 40
0.4189149766400094
 40
0.4212012922382158
 40
0.4234886437512578
 40
0.4313129409446001
 40
0.439126973090294
 40
0.446932774084255
 40
0.4547323842616869
 40
0.4625278488188298
 40
0.4703212162157022
 40
0.4781145365660273
 40
0.4861177769467815
 40
0.4941253455083574
 40
0.5021394554826548
 40
0.5059204694414053
 40
0.5097036587171555
 40
0.5134892537051245
 40
0.517277484361595
 40
0.5210685801632349
 40
0.5290604147162782
 40
0.5370412930699194
 40
0.5450133815084831
 40
0.5529788534877951
 40
0.5609398878827957
 40
0.5688986672130586
 40
0.5768573758533794
 40
0.5841546756750051
 40
0.5914554329695184
 40
0.5987613266817277
 40
0.6060740322185881
 40
0.6133952203105298
 40
0.6207265558887425
 40
0.6287183907280978
 40
0.636699269277365
 40
0.6446713578379645
 40
0.6526368298829348
 40
0.6605978643045181
 40
0.6685566436396507
 40
0.676515352280524
 40
0.6846885073544144
 40
0.6928662523961655
 40
0.7010509454110805
 40
0.7049125615197068
 40
0.7087764904021292
 40
0.7126429774602181
 40
0.7165122676091032
 40
0.7203846052320496
 40
0.7282089032150054
 40
0.7360229359002165
 40
0.7438287372307596
 40
0.7516283475893074
 40
0.7594238122198042
 40
0.7672171796301334
 40
0.775010499981969
 40
0.7830137404020753
 40
0.7910213090927934
 40
0.799035419337694
 40
0.801735935206505
 40
0.804437527335263
 40
0.8071402797537859
 40
0.8098442763837197
 40
0.8125496010309206
 40
0.8152563373778906
 40
0.8179645689762708
 40
0.8263743643865137
 40
0.8347731057754698
 40
0.8431633231789742
 40
0.8515475543494907
 40
0.8599283424774855
 40
0.8683082338881842
 40
0.8766897757240847
 40
0.8824544045040597
 40
0.8882218428630683
 40
0.8939929158379653
 40
0.8997684469079866
 40
0.9055492576471954
 40
0.9113361673809733
 40
0.916808405126969
 40
0.9222585189920427
 40
0.9309703107166645
 40
0.9396743418839303
 40
0.9483734511041051
 40
0.9570704818068548
 40
0.9657682794603341
 40
0.9743142624465282
 40
0.9828664209892075
 40
0.9914274409846735
 40
0.9999999999999999
 40
0.9999999999999999
 40
0.9999999999999999
 40
0.9999999999999999
 10
194.500010959434
 20
68.00057421665537
 30
0.0
 10
194.4999507261633
 20
68.00057421665537
 30
0.0
 10
194.499355047367
 20
68.00057421665538
 30
0.0
 10
194.5016933999219
 20
68.00057421665537
 30
0.0
 10
194.5073387680216
 20
68.00057421665535
 30
0.0
 10
194.5171937271503
 20
68.00057421665538
 30
0.0
 10
194.5308936896224
 20
68.00057421665535
 30
0.0
 10
194.5445918541191
 20
68.00057421665537
 30
0.0
 10
194.5558349588389
 20
68.00057421665537
 30
0.0
 10
194.5630626143248
 20
68.00057421665538
 30
0.0
 10
194.5707281257854
 20
68.00057421665538
 30
0.0
 10
194.5788316186143
 20
68.00057421665535
 30
0.0
 10
194.5873730336165
 20
68.00057421665538
 30
0.0
 10
194.5963524816974
 20
68.00057421665538
 30
0.0
 10
194.6123761957896
 20
68.00057421665535
 30
0.0
 10
194.6371333079288
 20
68.00057421665538
 30
0.0
 10
194.673279254409
 20
68.00057421665535
 30
0.0
 10
194.7135635663567
 20
68.00057421665537
 30
0.0
 10
194.7579864492045
 20
68.00057421665535
 30
0.0
 10
194.8065478625173
 20
68.00057421665537
 30
0.0
 10
194.8592477279132
 20
68.00057421665538
 30
0.0
 10
194.9101620042421
 20
68.00057421665537
 30
0.0
 10
194.9579154172417
 20
68.00057421665538
 30
0.0
 10
195.0013444879249
 20
68.00057421665535
 30
0.0
 10
195.0467293130044
 20
68.00057421665537
 30
0.0
 10
195.0940698601455
 20
68.00057421665538
 30
0.0
 10
195.1433663251287
 20
68.00057421665538
 30
0.0
 10
195.1936655987355
 20
68.00057421665535
 30
0.0
 10
195.2447582518298
 20
68.00057421665535
 30
0.0
 10
195.3068144403383
 20
68.00057421665538
 30
0.0
 10
195.3821368067155
 20
68.00057421665538
 30
0.0
 10
195.4724317474761
 20
68.00057421665537
 30
0.0
 10
195.5669210708671
 20
68.00057421665535
 30
0.0
 10
195.6656046635698
 20
68.00057421665538
 30
0.0
 10
195.7678697750117
 20
68.00057421665535
 30
0.0
 10
195.8736290897536
 20
68.0005742166554
 30
0.0
 10
195.9827973680405
 20
68.00057421665535
 30
0.0
 10
196.0960115840946
 20
68.00057421665537
 30
0.0
 10
196.2102719505274
 20
68.00057421665538
 30
0.0
 10
196.3251231051973
 20
68.00057421665537
 30
0.0
 10
196.4401428491173
 20
68.00057421665537
 30
0.0
 10
196.5583010019864
 20
68.00057421665537
 30
0.0
 10
196.6795979610204
 20
68.00057421665537
 30
0.0
 10
196.8040335870507
 20
68.00057421665538
 30
0.0
 10
196.9316079042952
 20
68.00057421665535
 30
0.0
 10
197.0634834762973
 20
68.00057421665538
 30
0.0
 10
197.1997592001127
 20
68.00057421665534
 30
0.0
 10
197.3405321523744
 20
68.00057421665538
 30
0.0
 10
197.4527129149077
 20
68.00057421665537
 30
0.0
 10
197.5342724044811
 20
68.00057421665537
 30
0.0
 10
197.583902442135
 20
68.00057421665537
 30
0.0
 10
197.6347688553604
 20
68.00057421665537
 30
0.0
 10
197.6870004809641
 20
68.00057421665538
 30
0.0
 10
197.7406040927825
 20
68.00057421665537
 30
0.0
 10
197.7946962889971
 20
68.00057421665535
 30
0.0
 10
197.8790982689189
 20
68.00057421665538
 30
0.0
 10
197.9948658740948
 20
68.00057421665538
 30
0.0
 10
198.1435550719729
 20
68.00057421665535
 30
0.0
 10
198.2947855247619
 20
68.00057421665538
 30
0.0
 10
198.4485569302897
 20
68.00057421665537
 30
0.0
 10
198.6048692771716
 20
68.00057421665537
 30
0.0
 10
198.75736501791
 20
68.00057421665537
 30
0.0
 10
198.9056992603873
 20
68.00057421665537
 30
0.0
 10
199.0495552489711
 20
68.00057421665538
 30
0.0
 10
199.1631052471299
 20
68.00057421665534
 30
0.0
 10
199.2451498034919
 20
68.00057421665538
 30
0.0
 10
199.2949150170668
 20
68.00057421665537
 30
0.0
 10
199.3449032751629
 20
68.00057421665537
 30
0.0
 10
199.3951146092943
 20
68.00057421665537
 30
0.0
 10
199.4455489965461
 20
68.0005742166554
 30
0.0
 10
199.496206496555
 20
68.00057421665537
 30
0.0
 10
199.5881335878247
 20
68.00057421665537
 30
0.0
 10
199.7221983240227
 20
68.00057421665538
 30
0.0
 10
199.8998236963133
 20
68.00057421665535
 30
0.0
 10
200.0795086579214
 20
68.00057421665538
 30
0.0
 10
200.2612528364711
 20
68.00057421665535
 30
0.0
 10
200.4450562830092
 20
68.00057421665537
 30
0.0
 10
200.6309189620705
 20
68.00057421665537
 30
0.0
 10
200.8205117822058
 20
68.00057421665537
 30
0.0
 10
201.0139003556193
 20
68.00057421665535
 30
0.0
 10
201.2111472502087
 20
68.00057421665538
 30
0.0
 10
201.3753850246352
 20
68.00057421665538
 30
0.0
 10
201.5055144810855
 20
68.00057421665537
 30
0.0
 10
201.6007501295436
 20
68.00057421665535
 30
0.0
 10
201.6964679503457
 20
68.00057421665538
 30
0.0
 10
201.7926681588763
 20
68.00057421665535
 30
0.0
 10
201.9250328660184
 20
68.00057421665537
 30
0.0
 10
202.0941296072927
 20
68.00057421665538
 30
0.0
 10
202.3007404815007
 20
68.00057421665537
 30
0.0
 10
202.5088132849193
 20
68.00057421665537
 30
0.0
 10
202.7183476921099
 20
68.00057421665538
 30
0.0
 10
202.9293437511448
 20
68.00057421665537
 30
0.0
 10
203.1418013308167
 20
68.00057421665537
 30
0.0
 10
203.349776314417
 20
68.00057421665537
 30
0.0
 10
203.5531269066089
 20
68.00057421665538
 30
0.0
 10
203.7517269706578
 20
68.00057421665535
 30
0.0
 10
203.9515549384443
 20
68.00057421665538
 30
0.0
 10
204.152610787987
 20
68.00057421665532
 30
0.0
 10
204.3548946296989
 20
68.0005742166554
 30
0.0
 10
204.5644077741609
 20
68.00057421665535
 30
0.0
 10
204.7810208186855
 20
68.00057421665537
 30
0.0
 10
205.0046019924277
 20
68.0005742166554
 30
0.0
 10
205.22888979334
 20
68.00057421665535
 30
0.0
 10
205.4538842213058
 20
68.00057421665538
 30
0.0
 10
205.6795852073145
 20
68.00057421665537
 30
0.0
 10
205.9059927352814
 20
68.00057421665538
 30
0.0
 10
206.1351262000539
 20
68.00057421665537
 30
0.0
 10
206.3670090463539
 20
68.00057421665538
 30
0.0
 10
206.6016602918006
 20
68.00057421665537
 30
0.0
 10
206.7955273985179
 20
68.00057421665538
 30
0.0
 10
206.9482670182687
 20
68.00057421665535
 30
0.0
 10
207.0596506542761
 20
68.00057421665534
 30
0.0
 10
207.1711996294111
 20
68.00057421665537
 30
0.0
 10
207.2829141552312
 20
68.00057421665538
 30
0.0
 10
207.4328213376424
 20
68.00057421665532
 30
0.0
 10
207.6208994961095
 20
68.00057421665538
 30
0.0
 10
207.8471240879734
 20
68.00057421665537
 30
0.0
 10
208.0732819824561
 20
68.00057421665537
 30
0.0
 10
208.2993727755782
 20
68.00057421665537
 30
0.0
 10
208.525396509268
 20
68.00057421665535
 30
0.0
 10
208.7513531419098
 20
68.00057421665538
 30
0.0
 10
208.979251165926
 20
68.00057421665537
 30
0.0
 10
209.2090897164651
 20
68.00057421665537
 30
0.0
 10
209.4408633409297
 20
68.00057421665537
 30
0.0
 10
209.6212790833642
 20
68.0005742166554
 30
0.0
 10
209.7504411038472
 20
68.00057421665535
 30
0.0
 10
209.8284301398031
 20
68.00057421665537
 30
0.0
 10
209.9064110955717
 20
68.00057421665538
 30
0.0
 10
209.9843840387138
 20
68.00057421665535
 30
0.0
 10
210.0623489369382
 20
68.00057421665538
 30
0.0
 10
210.1403058505677
 20
68.00057421665537
 30
0.0
 10
210.2729399436001
 20
68.00057421665538
 30
0.0
 10
210.4599224916583
 20
68.00057421665537
 30
0.0
 10
210.7007495469793
 20
68.00057421665537
 30
0.0
 10
210.9406690687127
 20
68.00057421665535
 30
0.0
 10
211.1796802928397
 20
68.00057421665538
 30
0.0
 10
211.4177834111683
 20
68.00057421665535
 30
0.0
 10
211.6549780184231
 20
68.00057421665538
 30
0.0
 10
211.8666367555121
 20
68.00057421665535
 30
0.0
 10
212.0530607512749
 20
68.00057421665537
 30
0.0
 10
212.2145387275417
 20
68.00057421665538
 30
0.0
 10
212.3755873035346
 20
68.00057421665538
 30
0.0
 10
212.5362066272857
 20
68.00057421665538
 30
0.0
 10
212.6963965919127
 20
68.00057421665538
 30
0.0
 10
212.8531981750713
 20
68.00057421665537
 30
0.0
 10
213.0063764292401
 20
68.00057421665538
 30
0.0
 10
213.1856799640007
 20
68.00057421665535
 30
0.0
 10
213.3934254665474
 20
68.0005742166554
 30
0.0
 10
213.6290969782524
 20
68.00057421665538
 30
0.0
 10
213.8629658374037
 20
68.00057421665537
 30
0.0
 10
214.0950325646334
 20
68.00057421665538
 30
0.0
 10
214.3239220915345
 20
68.00057421665535
 30
0.0
 10
214.5496848041319
 20
68.00057421665538
 30
0.0
 10
214.7723090492475
 20
68.00057421665537
 30
0.0
 10
214.9933442458525
 20
68.00057421665537
 30
0.0
 10
215.1390537317411
 20
68.00057421665537
 30
0.0
 10
215.21195754046
 20
68.00057421665537
 30
0.0
  0
LINE
  5
E6
330
1F
100
AcDbEntity
  8
0
  6
Continuous
 62
     7
370
    30
100
AcDbLine
 10
342.3938043147
 20
64.7713754832
 30
0.0
 11
342.3938043147
 21
67.6186556193
 31
0.0
  0
LINE
  5
E7
330
1F
100
AcDbEntity
  8
0
  6
Continuous
 62
     7
370
    30
100
AcDbLine
 10
321.4163043147
 20
60.9102369168
 30
0.0
 11
321.4163043147
 21
58.7974578912
 31
0.0
  0
LINE
  5
E8
330
1F
100
AcDbEntity
  8
0
  6
Continuous
 62
     7
370
    30
100
AcDbLine
 10
342.3713043147
 20
58.7974578912
 30
0.0
 11
342.3713043147
 21
64.3747684263
 31
0.0
  0
SPLINE
  5
E9
330
1F
100
AcDbEntity
  8
0
  6
Continuous
 62
     7
370
    30
100
AcDbSpline
210
0.0
220
0.0
230
1.0
 70
     8
 71
     3
 72
    73
 73
    69
 74
     0
 42
0.000000001
 43
0.00000001
 40
0.0
 40
0.0
 40
0.0
 40
0.0
 40
0.0188755226791996
 40
0.0340570713542135
 40
0.0455425140955099
 40
0.0538927359484284
 40
0.0612704996571553
 40
0.0699313277462038
 40
0.0793967836941987
 40
0.090279685340213
 40
0.1029801337778888
 40
0.1158855266166662
 40
0.1287033981453912
 40
0.1400439986185228
 40
0.1504436935837392
 40
0.1697089813064177
 40
0.1902601767429742
 40
0.2037138688935934
 40
0.2218618460791752
 40
0.2402149442991849
 40
0.2548102196438379
 40
0.2644676469793507
 40
0.2757992708445788
 40
0.2892311365216196
 40
0.3031489859591661
 40
0.3141933490961151
 40
0.3227027178880232
 40
0.3313392489280581
 40
0.3399140151879625
 40
0.3502765615058214
 40
0.3624926673595339
 40
0.3733396716458991
 40
0.3816245579527595
 40
0.3902296112594558
 40
0.4031185806547538
 40
0.4163710556879217
 40
0.428678742904936
 40
0.4393388555980069
 40
0.448961734202634
 40
0.458395352549775
 40
0.4695002359160085
 40
0.480116745429433
 40
0.4898191864109314
 40
0.4985779790542611
 40
0.5361924040749289
 40
0.5769963687091211
 40
0.6158388810794199
 40
0.6572094389626151
 40
0.693203691923283
 40
0.739036500503546
 40
0.7533956371977956
 40
0.7677344999057831
 40
0.7832879521465289
 40
0.8016851257776889
 40
0.8216938978478927
 40
0.8402494149682099
 40
0.8554572552896164
 40
0.8703627893770356
 40
0.8833882965364858
 40
0.8969739790872194
 40
0.912287077547193
 40
0.9291729070573689
 40
0.9380982255672831
 40
0.9465178928157086
 40
0.955001335322905
 40
0.9665347166867821
 40
0.9815400143595644
 40
0.9999999999999999
 40
0.9999999999999999
 40
0.9999999999999999
 40
0.9999999999999999
 10
380.4019953657098
 20
47.83036272053648
 30
0.0
 10
380.4104345830699
 20
47.82553969675256
 30
0.0
 10
380.4256614476549
 20
47.816837523682
 30
0.0
 10
380.4461510131155
 20
47.80561579322082
 30
0.0
 10
380.4619644169123
 20
47.7971607871315
 30
0.0
 10
380.4743166878942
 20
47.79069108317111
 30
0.0
 10
380.4854181449633
 20
47.78496908001785
 30
0.0
 10
380.4970699123713
 20
47.77906321377424
 30
0.0
 10
380.5103786461576
 20
47.77244593249242
 30
0.0
 10
380.5255926050156
 20
47.76504597086621
 30
0.0
 10
380.542453257324
 20
47.75705578844807
 30
0.0
 10
380.5602918958195
 20
47.74884362107569
 30
0.0
 10
380.5775735691568
 20
47.74112233846197
 30
0.0
 10
380.5937496139497
 20
47.73410055720696
 30
0.0
 10
380.6130387973677
 20
47.72594757648887
 30
0.0
 10
380.6367938356171
 20
47.7162765138766
 30
0.0
 10
380.6620936311697
 20
47.70650304302809
 30
0.0
 10
380.6869881838076
 20
47.69732621693142
 30
0.0
 10
380.7110221175914
 20
47.68886166537533
 30
0.0
 10
380.7356561711287
 20
47.68065232462259
 30
0.0
 10
380.7563459366967
 20
47.67410975248213
 30
0.0
 10
380.7737331979101
 20
47.66883061740386
 30
0.0
 10
380.7905659805982
 20
47.66390301027518
 30
0.0
 10
380.8094912913258
 20
47.65860476423737
 30
0.0
 10
380.828292725634
 20
47.65360567810406
 30
0.0
 10
380.844729218237
 20
47.6494459346343
 30
0.0
 10
380.8586430276927
 20
47.64606455436108
 30
0.0
 10
380.871367452477
 20
47.64308460851306
 30
0.0
 10
380.8850317049468
 20
47.64000557057044
 30
0.0
 10
380.900512455721
 20
47.63666811022546
 30
0.0
 10
380.9171486528156
 20
47.63327500252342
 30
0.0
 10
380.932766048983
 20
47.63027494511766
 30
0.0
 10
380.9466107770137
 20
47.62775157279199
 30
0.0
 10
380.9615200233409
 20
47.62516385101216
 30
0.0
 10
380.9789378933004
 20
47.62233370576558
 30
0.0
 10
380.9982370658669
 20
47.61945778762005
 30
0.0
 10
381.0164552965293
 20
47.61698315266663
 30
0.0
 10
381.0328621953964
 20
47.61494909105421
 30
0.0
 10
381.0478526156368
 20
47.61324772468222
 30
0.0
 10
381.0630945085998
 20
47.61166828385391
 30
0.0
 10
381.0788413200507
 20
47.61020421161763
 30
0.0
 10
381.0947316122349
 20
47.60890580759335
 30
0.0
 10
381.1094510054017
 20
47.60785851205995
 30
0.0
 10
381.1378485194281
 20
47.60611074115381
 30
0.0
 10
381.1821106306095
 20
47.6044566173246
 30
0.0
 10
381.2416162307103
 20
47.60468555834638
 30
0.0
 10
381.3030714250266
 20
47.60752532812095
 30
0.0
 10
381.3618285226596
 20
47.61278036053771
 30
0.0
 10
381.4239411118856
 20
47.62096702350677
 30
0.0
 10
381.4720732211763
 20
47.62951057107715
 30
0.0
 10
381.5091309237189
 20
47.63735884430813
 30
0.0
 10
381.5310674699951
 20
47.64236795262567
 30
0.0
 10
381.5549153753614
 20
47.64822879201751
 30
0.0
 10
381.5814442096113
 20
47.65527902389282
 30
0.0
 10
381.6092747834113
 20
47.66331291990947
 30
0.0
 10
381.6353820151517
 20
47.67145872998127
 30
0.0
 10
381.6588650905944
 20
47.67927262421203
 30
0.0
 10
381.6795701363111
 20
47.68655015275511
 30
0.0
 10
381.6993863678002
 20
47.69386423256065
 30
0.0
 10
381.7192920576969
 20
47.70154949098709
 30
0.0
 10
381.7408890489642
 20
47.71029141381502
 30
0.0
 10
381.76014503492
 20
47.71849281570834
 30
0.0
 10
381.7760694464383
 20
47.72554899548309
 30
0.0
 10
381.7880332080285
 20
47.73099022584379
 30
0.0
 10
381.8011526551618
 20
47.73710674575428
 30
0.0
 10
381.8172284342529
 20
47.74482873462559
 30
0.0
 10
381.8377380333929
 20
47.75502555784271
 30
0.0
 10
381.8527835925546
 20
47.76296831729555
 30
0.0
 10
381.8610829636813
 20
47.76734967047499
 30
0.0
  0
SPLINE
  5
EA
330
1F
100
AcDbEntity
  8
0
  6
Continuous
 62
     7
370
    30
100
AcDbSpline
210
0.0
220
0.0
230
1.0
 70
     8
 71
     3
 72
    93
 73
    89
 74
     0
 42
0.000000001
 43
0.00000001
 40
0.0
 40
0.0
 40
0.0
 40
0.0
 40
0.0167586498037846
 40
0.0299470820861303
 40
0.0395510047923752
 40
0.0457094865686546
 40
0.0510114657579894
 40
0.0564021497036427
 40
0.0618815993490818
 40
0.0768020228513347
 40
0.0917188468269962
 40
0.1060772605880627
 40
0.1228939219648465
 40
0.1409677411870422
 40
0.158207014308915
 40
0.1724734551148472
 40
0.1856409273320313
 40
0.1986502900565302
 40
0.2121439180262581
 40
0.2278472935552773
 40
0.245494943624641
 40
0.2633036766656154
 40
0.2780519289234922
 40
0.2912573854556552
 40
0.303857991013912
 40
0.3173952841807804
 40
0.3350582323541956
 40
0.3524735586383815
 40
0.3678650386857877
 40
0.3806267413286699
 40
0.3926944983903918
 40
0.4017630069124823
 40
0.4132369339358364
 40
0.4258676081622643
 40
0.4369786209235166
 40
0.4465935323760041
 40
0.455248440059467
 40
0.464701041042116
 40
0.4756101067424831
 40
0.4881155687737843
 40
0.5015400189360447
 40
0.5216506490608254
 40
0.537760106950526
 40
0.5576522749131045
 40
0.5797764950789265
 40
0.5961815781169745
 40
0.6166457527522449
 40
0.6371832755065614
 40
0.6447486479091353
 40
0.6510823413761551
 40
0.6582033313100987
 40
0.6671689280856876
 40
0.6776506031915303
 40
0.6867039116834855
 40
0.6936273299056317
 40
0.7011161541781433
 40
0.7097703412069873
 40
0.7199131917341398
 40
0.7327555705895904
 40
0.743943161101053
 40
0.7558019052353567
 40
0.7652687273410388
 40
0.7721934857467292
 40
0.7797747091606018
 40
0.7893538254161416
 40
0.799840015111262
 40
0.8081996476807575
 40
0.8143481266728801
 40
0.8230906916375367
 40
0.8334511142964676
 40
0.8453596769352678
 40
0.8586879305623969
 40
0.8729056817235642
 40
0.8818420098100045
 40
0.8894895609082109
 40
0.8970970287325337
 40
0.9058515792346392
 40
0.9157519749489661
 40
0.9261481958827738
 40
0.9345547394587256
 40
0.9390396397976026
 40
0.9424704766453953
 40
0.9460473087565322
 40
0.9519971480271662
 40
0.9603687442630642
 40
0.9711607139853315
 40
0.9843715786095787
 40
1.0
 40
1.0
 40
1.0
 40
1.0
 10
329.9370135958467
 20
137.7028621752126
 30
0.0
 10
329.9298219778557
 20
137.6983453946372
 30
0.0
 10
329.9169708247598
 20
137.6902740762289
 30
0.0
 10
329.9001880938006
 20
137.6792160347092
 30
0.0
 10
329.8879793958053
 20
137.6709671537483
 30
0.0
 10
329.8791001712814
 20
137.6648488937996
 30
0.0
 10
329.8720298052522
 20
137.6599096938535
 30
0.0
 10
329.8652903336158
 20
137.6551408079182
 30
0.0
 10
329.8546139386542
 20
137.647487919813
 30
0.0
 10
329.8401283705849
 20
137.6368515776426
 30
0.0
 10
329.8222242534188
 20
137.6232387898972
 30
0.0
 10
329.8037897804836
 20
137.6087400084191
 30
0.0
 10
329.7843658259611
 20
137.5929074038252
 30
0.0
 10
329.7641342605264
 20
137.5757497638723
 30
0.0
 10
329.745218491719
 20
137.559056823121
 30
0.0
 10
329.7284366648132
 20
137.5437151243657
 30
0.0
 10
329.7134684409534
 20
137.5296063571058
 30
0.0
 10
329.6989683137072
 20
137.5155362674786
 30
0.0
 10
329.6836919359749
 20
137.5002677539688
 30
0.0
 10
329.6671992355563
 20
137.4832416739144
 30
0.0
 10
329.6494833805638
 20
137.4642714563963
 30
0.0
 10
329.6324159528502
 20
137.4452644134407
 30
0.0
 10
329.6171813304751
 20
137.4276754435525
 30
0.0
 10
329.6039223627004
 20
137.4118853442889
 30
0.0
 10
329.5912771967986
 20
137.3963875087628
 30
0.0
 10
329.5774489303344
 20
137.3789374852647
 30
0.0
 10
329.5624486895061
 20
137.3593345284252
 30
0.0
 10
329.5472539178683
 20
137.3386755489363
 30
0.0
 10
329.533869763731
 20
137.3197859203686
 30
0.0
 10
329.522303470933
 20
137.3029257868547
 30
0.0
 10
329.5127517418504
 20
137.2885961984674
 30
0.0
 10
329.5037276371125
 20
137.2747206981206
 30
0.0
 10
329.4947042108045
 20
137.2605077954126
 30
0.0
 10
329.4853106641112
 20
137.2452835788978
 30
0.0
 10
329.476592812816
 20
137.2307471931091
 30
0.0
 10
329.4690593855007
 20
137.2178673104933
 30
0.0
 10
329.4620670464854
 20
137.205643367
 30
0.0
 10
329.4548743846077
 20
137.1927860174833
 30
0.0
 10
329.4468880105894
 20
137.1781446101893
 30
0.0
 10
329.4381337913792
 20
137.161616555351
 30
0.0
 10
329.4274776039397
 20
137.1408223359086
 30
0.0
 10
329.4163649715196
 20
137.1181727946629
 30
0.0
 10
329.4043018247173
 20
137.0923754406144
 30
0.0
 10
329.3923032137441
 20
137.0654293258849
 30
0.0
 10
329.3808162629839
 20
137.0380678900459
 30
0.0
 10
329.3697610944185
 20
137.0102239393514
 30
0.0
 10
329.359512534172
 20
136.9829467254085
 30
0.0
 10
329.3513103610193
 20
136.9596804342815
 30
0.0
 10
329.3457222346011
 20
136.9430958448107
 30
0.0
 10
329.3423811693751
 20
136.9329503169553
 30
0.0
 10
329.3388960095469
 20
136.9221264290402
 30
0.0
 10
329.3348677545114
 20
136.9092693379284
 30
0.0
 10
329.3306746578265
 20
136.8954267359532
 30
0.0
 10
329.3268976578336
 20
136.8825166060995
 30
0.0
 10
329.3236323042183
 20
136.8710251359794
 30
0.0
 10
329.3205012342821
 20
136.8597060532269
 30
0.0
 10
329.3170397818033
 20
136.8468025121246
 30
0.0
 10
329.3130127592104
 20
136.8312307143783
 30
0.0
 10
329.3088517608425
 20
136.8143801627531
 30
0.0
 10
329.3046792271709
 20
136.7966155806276
 30
0.0
 10
329.3010693055244
 20
136.7804582147554
 30
0.0
 10
329.2980699109281
 20
136.7663709623911
 30
0.0
 10
329.295618057003
 20
136.7544051821788
 30
0.0
 10
329.2932405746142
 20
136.7423904061426
 30
0.0
 10
329.2906194557261
 20
136.7285685560905
 30
0.0
 10
329.2880528942109
 20
136.7143148904769
 30
0.0
 10
329.2859020515363
 20
136.7017469745031
 30
0.0
 10
329.2839798021377
 20
136.6900482959554
 30
0.0
 10
329.2819806523658
 20
136.6773439860116
 30
0.0
 10
329.2796586588032
 20
136.6617088515004
 30
0.0
 10
329.2771716547855
 20
136.6437224484824
 30
0.0
 10
329.2746400748684
 20
136.6237547682019
 30
0.0
 10
329.2725221929221
 20
136.6052380381216
 30
0.0
 10
329.2708923416329
 20
136.5895732768626
 30
0.0
 10
329.2697020008493
 20
136.5772637953466
 30
0.0
 10
329.2686028397438
 20
136.5650501072217
 30
0.0
 10
329.2674949029691
 20
136.5516771051366
 30
0.0
 10
329.2663874166151
 20
136.536861700874
 30
0.0
 10
329.2654193092746
 20
136.5221942645385
 30
0.0
 10
329.2647282846347
 20
136.5102693270263
 30
0.0
 10
329.2642895661464
 20
136.5019056970701
 30
0.0
 10
329.2640003974507
 20
136.496015465709
 30
0.0
 10
329.2636949206962
 20
136.4893936479947
 30
0.0
 10
329.2633099636187
 20
136.4802532730483
 30
0.0
 10
329.2628454849812
 20
136.467411665345
 30
0.0
 10
329.2623813057751
 20
136.4508237216904
 30
0.0
 10
329.2619966184197
 20
136.4304675152459
 30
0.0
 10
329.2619427879666
 20
136.4155950551816
 30
0.0
 10
329.2619136164745
 20
136.4075354564496
 30
0.0
  0
LINE
  5
EB
330
1F
100
AcDbEntity
  8
0
  6
Continuous
 62
     7
370
    30
100
AcDbLine
 10
381.8614157643
 20
47.758426642
 30
0.0
 11
389.7983052972
 21
52.0258508241
 31
0.0
  0
LINE
  5
EC
330
1F
100
AcDbEntity
  8
0
  6
Continuous
 62
     7
370
    30
100
AcDbLine
 10
337.5940124172
 20
142.4467132773
 30
0.0
 11
329.9294471913
 21
137.7076093324
 31
0.0
  0
LINE
  5
ED
330
1F
100
AcDbEntity
  8
0
  6
Continuous
 62
     7
370
    30
100
AcDbLine
 10
344.2588784437
 20
68.6953399961
 30
0.0
 11
380.3849208363
 21
47.8402196365
 31
0.0
  0
LINE
  5
EE
330
1F
100
AcDbEntity
  8
0
  6
Continuous
 62
     7
370
    30
100
AcDbLine
 10
329.2619136165
 20
136.3878170544
 30
0.0
 11
329.2619136165
 21
94.6778543157
 31
0.0
  0
SPLINE
  5
EF
330
1F
100
AcDbEntity
  8
0
  6
Continuous
 62
     7
370
    30
100
AcDbSpline
210
0.0
220
0.0
230
1.0
 70
     8
 71
     3
 72
   164
 73
   160
 74
     0
 42
0.000000001
 43
0.00000001
 40
0.0
 40
0.0
 40
0.0
 40
0.0
 40
0.0011762850079261
 40
0.0072718021534032
 40
0.0133699762546726
 40
0.0194712865338105
 40
0.0255762646812573
 40
0.0316854386512652
 40
0.0377993310288028
 40
0.0439184574066389
 40
0.050043324772155
 40
0.0561744299089632
 40
0.0623122578189891
 40
0.0684572801703269
 40
0.0746099537772769
 40
0.0807707191186672
 40
0.08693999890136
 40
0.0931181966759048
 40
0.0993056955115215
 40
0.1055028567383166
 40
0.1117100187639783
 40
0.1179274959732906
 40
0.1241555777180146
 40
0.1303945274051328
 40
0.1366445816907251
 40
0.1429059497872124
 40
0.1491788128903428
 40
0.1554633237325667
 40
0.1617596062676196
 40
0.1680677554918893
 40
0.1743878374051199
 40
0.1807198891138192
 40
0.1870639190778998
 40
0.1934199075010345
 40
0.1997878068627216
 40
0.2061675425894269
 40
0.2125590138602669
 40
0.2189620945414787
 40
0.2253766342421722
 40
0.2318024594828694
 40
0.2382393749671626
 40
0.2446871649454122
 40
0.2511455946583123
 40
0.2576144118484206
 40
0.2640933483256143
 40
0.2705821215735433
 40
0.2770804363830027
 40
0.2835879864988109
 40
0.290104456266485
 40
0.2966295222661898
 40
0.3031628549214304
 40
0.3097041200709229
 40
0.3162529804933975
 40
0.3228090973756569
 40
0.3293721317155193
 40
0.335941745652522
 40
0.3425176037207013
 40
0.3490993740182297
 40
0.3556867292910673
 40
0.3622793479278415
 40
0.3688769148651273
 40
0.375479122402707
 40
0.3820856709298746
 40
0.3886962695645439
 40
0.3953106367073345
 40
0.4019285005139607
 40
0.4085495992898142
 40
0.4151736818103854
 40
0.421800507572695
 40
0.4284298469816962
 40
0.4350614814775484
 40
0.4416952036079123
 40
0.4483308170508858
 40
0.4549681365936742
 40
0.4616069880713889
 40
0.4682472082715605
 40
0.4748886448085068
 40
0.4815311559721772
 40
0.4881746105559154
 40
0.4948188750059395
 40
0.5014638127954875
 40
0.5081093253155471
 40
0.5147553238391609
 40
0.5214017290098093
 40
0.5280484706138148
 40
0.534695487358138
 40
0.5413427266539376
 40
0.5479901444070958
 40
0.5546377048190347
 40
0.5612853801984379
 40
0.5679331507868111
 40
0.5745810045989191
 40
0.5812289372802383
 40
0.587876951982807
 40
0.5945250592611768
 40
0.6011732769903719
 40
0.6078216303071017
 40
0.6144701515765748
 40
0.6211188803863466
 40
0.6277678635696887
 40
0.6344171552603755
 40
0.6410668169818011
 40
0.6477169177729429
 40
0.654367534354603
 40
0.6610187513393416
 40
0.6676706614894117
 40
0.674323366027626
 40
0.6809769750062371
 40
0.687631607740473
 40
0.6942873933144444
 40
0.7009444711674131
 40
0.7076029917709755
 40
0.7142631174092062
 40
0.720925023075012
 40
0.7275888975001422
 40
0.734254944337659
 40
0.7409233835206948
 40
0.7475944528250076
 40
0.7542684096690215
 40
0.7609455331918114
 40
0.7676261266575259
 40
0.7743105202462
 40
0.780999074304237
 40
0.7876921831439274
 40
0.7943902795045896
 40
0.8010938398143831
 40
0.8078033904291463
 40
0.8145195150706648
 40
0.8212428637506105
 40
0.8279741635480568
 40
0.8347142317220424
 40
0.8414639917926027
 40
0.8482244934367551
 40
0.854996937341501
 40
0.8617827065802229
 40
0.8678853877321783
 40
0.8746822241406864
 40
0.8807813754036067
 40
0.8868791973929001
 40
0.8929749587111525
 40
0.8990684050317094
 40
0.905159212936154
 40
0.9112469670091214
 40
0.9173311261399162
 40
0.9234109736498269
 40
0.9294855413256721
 40
0.9355534897953061
 40
0.941612912683135
 40
0.9476610008476689
 40
0.9536934338257065
 40
0.9597031987510659
 40
0.9656780913293477
 40
0.9715947963975353
 40
0.977402514554538
 40
0.9829657891609802
 40
0.9879544583860644
 40
0.9915469954678862
 40
0.9955532391540453
 40
1.0
 40
1.0
 40
1.0
 40
1.0
 10
314.4950797839359
 20
86.15300808195221
 30
0.0
 10
314.4899307760148
 20
86.15007786432913
 30
0.0
 10
314.4580995730021
 20
86.13196323847072
 30
0.0
 10
314.4003032579199
 20
86.09739469954442
 30
0.0
 10
314.3217346430802
 20
86.04923368453353
 30
0.0
 10
314.2439695746667
 20
85.99965189280928
 30
0.0
 10
314.1669315583759
 20
85.94879757113215
 30
0.0
 10
314.0906502564143
 20
85.89663379443984
 30
0.0
 10
314.0151269010843
 20
85.84317322957597
 30
0.0
 10
313.9403704618916
 20
85.78841522826862
 30
0.0
 10
313.8663879545361
 20
85.7323627150918
 30
0.0
 10
313.7931870491097
 20
85.67501767387034
 30
0.0
 10
313.7207753778405
 20
85.61638237653567
 30
0.0
 10
313.6491607271641
 20
85.55645907257319
 30
0.0
 10
313.5783509912911
 20
85.49525009269657
 30
0.0
 10
313.5083541884969
 20
85.43275784243538
 30
0.0
 10
313.4391784592388
 20
85.36898482623936
 30
0.0
 10
313.3708320677523
 20
85.30393366424438
 30
0.0
 10
313.3033234012624
 20
85.23760711173
 30
0.0
 10
313.2366609683369
 20
85.1700080784311
 30
0.0
 10
313.1708533959267
 20
85.1011396483052
 30
0.0
 10
313.1059094251835
 20
85.03100509942243
 30
0.0
 10
313.0418379060044
 20
84.95960792388104
 30
0.0
 10
312.9786477903036
 20
84.88695184757952
 30
0.0
 10
312.9163481240086
 20
84.81304084968384
 30
0.0
 10
312.8549480377951
 20
84.7378791816199
 30
0.0
 10
312.7944567365822
 20
84.66147138541676
 30
0.0
 10
312.7348834878281
 20
84.58382231122759
 30
0.0
 10
312.6762376086731
 20
84.50493713385225
 30
0.0
 10
312.6185284519992
 20
84.42482136809318
 30
0.0
 10
312.5617653914802
 20
84.34348088277773
 30
0.0
 10
312.5059578057181
 20
84.26092191329504
 30
0.0
 10
312.4511150615717
 20
84.17715107250177
 30
0.0
 10
312.3972464967936
 20
84.09217535987051
 30
0.0
 10
312.3443614021089
 20
84.00600216876909
 30
0.0
 10
312.2924690028733
 20
83.91863929178088
 30
0.0
 10
312.2415784404588
 20
83.83009492399574
 30
0.0
 10
312.1916987535226
 20
83.74037766422747
 30
0.0
 10
312.1428388593158
 20
83.64949651413659
 30
0.0
 10
312.0950075351923
 20
83.55746087526386
 30
0.0
 10
312.0482134004754
 20
83.46428054400391
 30
0.0
 10
312.0024648988378
 20
83.369965704576
 30
0.0
 10
311.9577702813424
 20
83.27452692007171
 30
0.0
 10
311.9141375902864
 20
83.17797512168384
 30
0.0
 10
311.8715746439736
 20
83.0803215962393
 30
0.0
 10
311.8300890225377
 20
82.98157797218111
 30
0.0
 10
311.7896880549125
 20
82.88175620415691
 30
0.0
 10
311.750378807039
 20
82.78086855638773
 30
0.0
 10
311.7121680713789
 20
82.67892758499778
 30
0.0
 10
311.6750623577839
 20
82.57594611949445
 30
0.0
 10
311.6390678857583
 20
82.47193724358934
 30
0.0
 10
311.604190578129
 20
82.36691427555262
 30
0.0
 10
311.5704360561239
 20
82.26089074828784
 30
0.0
 10
311.5378096358421
 20
82.15388038930938
 30
0.0
 10
311.5063163260821
 20
82.04589710079635
 30
0.0
 10
311.475960827485
 20
81.93695493988412
 30
0.0
 10
311.4467475329326
 20
81.82706809934372
 30
0.0
 10
311.4186805291322
 20
81.71625088878277
 30
0.0
 10
311.3917635993103
 20
81.60451771648917
 30
0.0
 10
311.366000226931
 20
81.49188307201835
 30
0.0
 10
311.3413936003487
 20
81.37836150961316
 30
0.0
 10
311.3179466183018
 20
81.26396763252531
 30
0.0
 10
311.2956618961517
 20
81.14871607829238
 30
0.0
 10
311.2745417727717
 20
81.0326215050091
 30
0.0
 10
311.2545883179915
 20
80.9156985786167
 30
0.0
 10
311.2358033405048
 20
80.79796196122038
 30
0.0
 10
311.2181883961503
 20
80.6794263004323
 30
0.0
 10
311.2017447964834
 20
80.56010621972474
 30
0.0
 10
311.1864736175584
 20
80.44001630977306
 30
0.0
 10
311.1723757088459
 20
80.31917112075078
 30
0.0
 10
311.1594517022212
 20
80.19758515554206
 30
0.0
 10
311.1477020209584
 20
80.07527286382107
 30
0.0
 10
311.1371268886778
 20
79.95224863694966
 30
0.0
 10
311.1277263381985
 20
79.82852680363844
 30
0.0
 10
311.1195002202519
 20
79.70412162631204
 30
0.0
 10
311.1124482120227
 20
79.579047298122
 30
0.0
 10
311.1065698254865
 20
79.45331794054428
 30
0.0
 10
311.1018644155203
 20
79.32694760150298
 30
0.0
 10
311.0983311900129
 20
79.19995033463591
 30
0.0
 10
311.0959692149272
 20
79.07234028414308
 30
0.0
 10
311.094777411663
 20
78.94413150798657
 30
0.0
 10
311.0947545659911
 20
78.81533789321557
 30
0.0
 10
311.0958993416462
 20
78.68597306842608
 30
0.0
 10
311.0982102901975
 20
78.55605058381406
 30
0.0
 10
311.1016858572468
 20
78.4255839133489
 30
0.0
 10
311.1063243883545
 20
78.2945864551759
 30
0.0
 10
311.1121241347233
 20
78.16307153203303
 30
0.0
 10
311.1190832586551
 20
78.0310523916494
 30
0.0
 10
311.1271998387983
 20
77.89854220709286
 30
0.0
 10
311.136471875206
 20
77.76555407702021
 30
0.0
 10
311.1468972942234
 20
77.63210102579792
 30
0.0
 10
311.1584739532306
 20
77.49819600345171
 30
0.0
 10
311.1711996452617
 20
77.3638518854108
 30
0.0
 10
311.1850721035286
 20
77.22908147201026
 30
0.0
 10
311.2000890058754
 20
77.0938974877142
 30
0.0
 10
311.2162479791933
 20
76.95831258002417
 30
0.0
 10
311.2335466038265
 20
76.82233931803258
 30
0.0
 10
311.2519824180026
 20
76.68599019058395
 30
0.0
 10
311.2715529223217
 20
76.54927760399856
 30
0.0
 10
311.2922555843428
 20
76.41221387931647
 30
0.0
 10
311.3140878433067
 20
76.27481124900974
 30
0.0
 10
311.3370471150408
 20
76.13708185311103
 30
0.0
 10
311.3611307970925
 20
75.99903773469678
 30
0.0
 10
311.3863362741426
 20
75.86069083466015
 30
0.0
 10
311.4126609237589
 20
75.72205298569693
 30
0.0
 10
311.4401021225506
 20
75.58313590541896
 30
0.0
 10
311.4686572527974
 20
75.44395118849775
 30
0.0
 10
311.498323709632
 20
75.304510297727
 30
0.0
 10
311.5290989088672
 20
75.16482455387417
 30
0.0
 10
311.5609802955699
 20
75.02490512417243
 30
0.0
 10
311.5939653535001
 20
74.88476300927918
 30
0.0
 10
311.6280516155514
 20
74.74440902849898
 30
0.0
 10
311.6632366753475
 20
74.60385380303482
 30
0.0
 10
311.6995182001787
 20
74.46310773698583
 30
0.0
 10
311.7368939454899
 20
74.32218099576667
 30
0.0
 10
311.7753617711734
 20
74.18108348155315
 30
0.0
 10
311.8149196599576
 20
74.03982480529392
 30
0.0
 10
311.8555657382469
 20
73.89841425472976
 30
0.0
 10
311.8972982998308
 20
73.7568607577527
 30
0.0
 10
311.9401158329661
 20
73.6151728402995
 30
0.0
 10
311.984017051441
 20
73.47335857780112
 30
0.0
 10
312.0290009303599
 20
73.33142553899394
 30
0.0
 10
312.0750667475542
 20
73.1893807206276
 30
0.0
 10
312.1222141317302
 20
73.04723047125972
 30
0.0
 10
312.1704431187323
 20
72.90498040189043
 30
0.0
 10
312.2197542176425
 20
72.76263528061882
 30
0.0
 10
312.270148488879
 20
72.62019890776776
 30
0.0
 10
312.3216276370286
 20
72.47767396698318
 30
0.0
 10
312.374194121961
 20
72.33506184642115
 30
0.0
 10
312.4278512926015
 20
72.19236242288576
 30
0.0
 10
312.4826035498579
 20
72.04957379773455
 30
0.0
 10
312.5384565443076
 20
71.9066919767179
 30
0.0
 10
312.5954174272719
 20
71.76371045713428
 30
0.0
 10
312.6534951386264
 20
71.620619770751
 30
0.0
 10
312.7106709577575
 20
71.48231683719806
 30
0.0
 10
312.7688426406494
 20
71.34400469706729
 30
0.0
 10
312.8258735931945
 20
71.21068555972491
 30
0.0
 10
312.8837714216226
 20
71.07758358700752
 30
0.0
 10
312.9403301921798
 20
70.94957224823655
 30
0.0
 10
312.9976636897988
 20
70.82178986057826
 30
0.0
 10
313.0557618037659
 20
70.69425663116972
 30
0.0
 10
313.1146151680832
 20
70.5669905089768
 30
0.0
 10
313.1742132577175
 20
70.44001134247213
 30
0.0
 10
313.2345439743953
 20
70.31334160205628
 30
0.0
 10
313.2955930342443
 20
70.18700744582439
 30
0.0
 10
313.3573430241466
 20
70.06104036524147
 30
0.0
 10
313.4197718985844
 20
69.93547980956902
 30
0.0
 10
313.4828504803393
 20
69.8103775543777
 30
0.0
 10
313.5465380892559
 20
69.6858053534148
 30
0.0
 10
313.6107743977184
 20
69.56186920617107
 30
0.0
 10
313.6754630251447
 20
69.43873816552122
 30
0.0
 10
313.7404348089881
 20
69.31670881600327
 30
0.0
 10
313.8053532580564
 20
69.19637197997803
 30
0.0
 10
313.8694112346857
 20
69.07914689395453
 30
0.0
 10
313.9306223848416
 20
68.96851140140376
 30
0.0
 10
313.9840138025331
 20
68.87309981275256
 30
0.0
 10
314.0318718318261
 20
68.78837601809569
 30
0.0
 10
314.077932518726
 20
68.7074431706117
 30
0.0
 10
314.1105388872273
 20
68.65080824127196
 30
0.0
 10
314.127691690379
 20
68.62101504935484
 30
0.0
  0
SPLINE
  5
F0
330
1F
100
AcDbEntity
  8
0
  6
Continuous
 62
     7
370
    30
100
AcDbSpline
210
0.0
220
0.0
230
1.0
 70
     8
 71
     3
 72
   169
 73
   165
 74
     0
 42
0.000000001
 43
0.00000001
 40
0.0
 40
0.0
 40
0.0
 40
0.0
 40
0.0064497799637434
 40
0.0091225710115961
 40
0.0135539206864416
 40
0.0181667283807515
 40
0.0231235221532833
 40
0.0283035683292524
 40
0.0336580614922926
 40
0.0391480935354882
 40
0.0447460281848078
 40
0.0504314198418651
 40
0.0561888617488171
 40
0.062006517591021
 40
0.0678751354790739
 40
0.0737873699845598
 40
0.0797373070172495
 40
0.0857201246067437
 40
0.0917318464642754
 40
0.0977691600307875
 40
0.103829280115353
 40
0.1099098452816293
 40
0.1160088381113007
 40
0.1221245231182526
 40
0.1282553978797777
 40
0.13440015418436
 40
0.1405576468542171
 40
0.1467268685104985
 40
0.1529069289833329
 40
0.1590970383863604
 40
0.1652964931050479
 40
0.1715046641217962
 40
0.1777209872275169
 40
0.183944954767385
 40
0.1901761086424057
 40
0.1964140343445512
 40
0.2026583558483292
 40
0.2089087312149116
 40
0.2151648487929
 40
0.2214264239204622
 40
0.2276931960510438
 40
0.2339649262384668
 40
0.2402413949274445
 40
0.2465224000059949
 40
0.252807755081801
 40
0.2590972879512743
 40
0.2653908392355715
 40
0.2716882611601685
 40
0.2779894164595873
 40
0.2842941773909593
 40
0.2906024248420205
 40
0.2969140475219799
 40
0.3032289412244971
 40
0.3095470081541049
 40
0.3158681563077854
 40
0.3221922989055538
 40
0.3285193538632276
 40
0.3348492433028458
 40
0.3411818930957307
 40
0.3475172324342788
 40
0.3538551934287046
 40
0.3601957107256699
 40
0.366538721146148
 40
0.3728841633393173
 40
0.3792319774509336
 40
0.3855821048039725
 40
0.3919344875894314
 40
0.39828906856596
 40
0.404645790766879
 40
0.4110045972132568
 40
0.4173654306318434
 40
0.4237282331769114
 40
0.4300929461554613
 40
0.4364595097544161
 40
0.4428278627697835
 40
0.449197942337018
 40
0.4555696836624105
 40
0.461943019754813
 40
0.4683178811582396
 40
0.4746941956847004
 40
0.4810718881478787
 40
0.4874508800975527
 40
0.4938310895554791
 40
0.5002124307529306
 40
0.5065948138710162
 40
0.5129781447841514
 40
0.5193623248081566
 40
0.5257472504538407
 40
0.532132783205445
 40
0.5385188012681836
 40
0.5449051830113458
 40
0.5512918009848524
 40
0.5576785217858763
 40
0.5640652058870266
 40
0.5704517074854333
 40
0.5768378743744802
 40
0.5832235478416801
 40
0.5896085625952601
 40
0.5959927467228107
 40
0.6023759216855215
 40
0.6087579023511243
 40
0.615138497069019
 40
0.6215175077912601
 40
0.6278947302425342
 40
0.6342699541424998
 40
0.6406429634838892
 40
0.6470135368688346
 40
0.6533814479067936
 40
0.6597464656757939
 40
0.6661083552490474
 40
0.6724668782888126
 40
0.6788217937079554
 40
0.6851728583993061
 40
0.6915198280332476
 40
0.6978624579212523
 40
0.7042005039442417
 40
0.7105337235427278
 40
0.7168618767648343
 40
0.7231847273680387
 40
0.7295020439692098
 40
0.7358136012361632
 40
0.7421191811145358
 40
0.7484185740815193
 40
0.7547115804180408
 40
0.760998011490613
 40
0.7672776910329718
 40
0.7735504564176614
 40
0.7798161599073137
 40
0.7860746698754772
 40
0.7923258719865877
 40
0.7985696703251037
 40
0.804805988464186
 40
0.8110347704643892
 40
0.8172559817940205
 40
0.8234696101630592
 40
0.8296756662636354
 40
0.8358741844107047
 40
0.8420652230777403
 40
0.8482488653232615
 40
0.854425219104932
 40
0.8605944174790393
 40
0.8667566186842024
 40
0.8729120061091808
 40
0.8790607881454195
 40
0.8852031979262169
 40
0.8913394929545144
 40
0.8974699546229208
 40
0.9035948876292569
 40
0.9097146192919631
 40
0.9158294987704525
 40
0.9219398961946842
 40
0.9280462017096377
 40
0.9341488244401613
 40
0.9402481913811903
 40
0.946344746219143
 40
0.9524389480899406
 40
0.9585312702787634
 40
0.9646221988667146
 40
0.97071223132994
 40
0.9768018750953537
 40
0.9828916460583103
 40
0.9889820670665281
 40
0.9950736663748435
 40
1.0
 40
1.0
 40
1.0
 40
1.0
 10
314.127691690379
 20
68.62101504935484
 30
0.0
 10
314.1526910837435
 20
68.57787122161336
 30
0.0
 10
314.1880502343652
 20
68.51684857673305
 30
0.0
 10
314.2411001432627
 20
68.42649020743394
 30
0.0
 10
314.2871936197525
 20
68.34852077358164
 30
0.0
 10
314.3426611260357
 20
68.25559566802255
 30
0.0
 10
314.4015146050476
 20
68.15797118231396
 30
0.0
 10
314.4637939788133
 20
68.05574580529203
 30
0.0
 10
314.5287134824914
 20
67.95033933910749
 30
0.0
 10
314.5958458685839
 20
67.84254846468693
 30
0.0
 10
314.6648665048825
 20
67.73297640088616
 30
0.0
 10
314.7355376539505
 20
67.62206713821907
 30
0.0
 10
314.8076795883711
 20
67.51015741427649
 30
0.0
 10
314.8811535863234
 20
67.39750795356328
 30
0.0
 10
314.955850344899
 20
67.2843246921537
 30
0.0
 10
315.0316820926818
 20
67.17077328272167
 30
0.0
 10
315.1085770974139
 20
67.0569892163064
 30
0.0
 10
315.1864757718199
 20
66.94308502038861
 30
0.0
 10
315.2653278626665
 20
66.82915546956372
 30
0.0
 10
315.3450903882098
 20
66.71528142067518
 30
0.0
 10
315.4257261015143
 20
66.6015326790858
 30
0.0
 10
315.5072023294012
 20
66.48797017131058
 30
0.0
 10
315.5894900837977
 20
66.3746476134161
 30
0.0
 10
315.6725633734428
 20
66.26161280763517
 30
0.0
 10
315.7563986649095
 20
66.14890866122097
 30
0.0
 10
315.8409744562647
 20
66.03657399523631
 30
0.0
 10
315.9262709366701
 20
65.92464419265883
 30
0.0
 10
316.0122697122433
 20
65.8131517222779
 30
0.0
 10
316.0989535835152
 20
65.7021265656244
 30
0.0
 10
316.1863063634227
 20
65.59159656751467
 30
0.0
 10
316.2743127274306
 20
65.48158772589638
 30
0.0
 10
316.3629580893134
 20
65.3721244330861
 30
0.0
 10
316.4522284975894
 20
65.26322967778158
 30
0.0
 10
316.5421105486893
 20
65.15492521520297
 30
0.0
 10
316.632591313776
 20
65.04723171116764
 30
0.0
 10
316.7236582767671
 20
64.94016886471141
 30
0.0
 10
316.8152992816035
 20
64.8337555129555
 30
0.0
 10
316.9075024871935
 20
64.72800972119462
 30
0.0
 10
317.000256328755
 20
64.622948860624
 30
0.0
 10
317.0935494845235
 20
64.51858967567497
 30
0.0
 10
317.1873708469744
 20
64.4149483425741
 30
0.0
 10
317.2817094978623
 20
64.3120405204618
 30
0.0
 10
317.3765546864976
 20
64.20988139617064
 30
0.0
 10
317.4718958107822
 20
64.10848572358657
 30
0.0
 10
317.5677224006006
 20
64.00786785835973
 30
0.0
 10
317.6640241032307
 20
63.90804178861108
 30
0.0
 10
317.7607906704882
 20
63.80902116218112
 30
0.0
 10
317.8580119473679
 20
63.71081931088013
 30
0.0
 10
317.955677861972
 20
63.61344927213261
 30
0.0
 10
318.0537784165558
 20
63.51692380835067
 30
0.0
 10
318.1523036795378
 20
63.4212554243202
 30
0.0
 10
318.2512437783473
 20
63.32645638284839
 30
0.0
 10
318.3505888929966
 20
63.23253871888007
 30
0.0
 10
318.4503292502825
 20
63.13951425226871
 30
0.0
 10
318.5504551185322
 20
63.04739459935585
 30
0.0
 10
318.6509568028209
 20
62.95619118349932
 30
0.0
 10
318.7518246405954
 20
62.86591524466576
 30
0.0
 10
318.8530489976483
 20
62.77657784819318
 30
0.0
 10
318.9546202643907
 20
62.68818989281175
 30
0.0
 10
319.0565288523811
 20
62.60076211800222
 30
0.0
 10
319.1587651910679
 20
62.51430511076067
 30
0.0
 10
319.261319724713
 20
62.42882931182788
 30
0.0
 10
319.3641829094619
 20
62.3443450214376
 30
0.0
 10
319.4673452105333
 20
62.26086240462749
 30
0.0
 10
319.5707970995013
 20
62.17839149615308
 30
0.0
 10
319.6745290516477
 20
62.09694220503811
 30
0.0
 10
319.7785315433628
 20
62.01652431879138
 30
0.0
 10
319.882795049575
 20
61.93714750731586
 30
0.0
 10
319.987310041192
 20
61.85882132653027
 30
0.0
 10
320.0920669825396
 20
61.78155522172218
 30
0.0
 10
320.1970563287801
 20
61.70535853064745
 30
0.0
 10
320.3022685233024
 20
61.63024048638736
 30
0.0
 10
320.4076939950681
 20
61.55621021997352
 30
0.0
 10
320.5133231559076
 20
61.48327676278721
 30
0.0
 10
320.6191463977536
 20
61.41144904873836
 30
0.0
 10
320.7251540898093
 20
61.34073591622527
 30
0.0
 10
320.8313365756426
 20
61.27114610987775
 30
0.0
 10
320.9376841702024
 20
61.2026882820803
 30
0.0
 10
321.0441871567552
 20
61.13537099427467
 30
0.0
 10
321.1508357837412
 20
61.06920271803462
 30
0.0
 10
321.257620261548
 20
61.00419183590929
 30
0.0
 10
321.3645307592084
 20
60.9403466420256
 30
0.0
 10
321.4715574010222
 20
60.87767534244306
 30
0.0
 10
321.578690263111
 20
60.81618605524912
 30
0.0
 10
321.6859193699136
 20
60.75588681038612
 30
0.0
 10
321.7932346906327
 20
60.69678554919667
 30
0.0
 10
321.900626135645
 20
60.63889012367702
 30
0.0
 10
322.0080833846943
 20
60.58220838414428
 30
0.0
 10
322.1155960063322
 20
60.52674810362691
 30
0.0
 10
322.2231534862078
 20
60.47251695716967
 30
0.0
 10
322.3307453914653
 20
60.41952243912144
 30
0.0
 10
322.438361243659
 20
60.36777192790147
 30
0.0
 10
322.5459904833559
 20
60.31727269966137
 30
0.0
 10
322.6536224673238
 20
60.26803192485771
 30
0.0
 10
322.7612464655892
 20
60.22005666459287
 30
0.0
 10
322.8688516587222
 20
60.17335386656082
 30
0.0
 10
322.9764271353816
 20
60.12793036059522
 30
0.0
 10
323.0839618901675
 20
60.0837928538197
 30
0.0
 10
323.1914448218249
 20
60.04094792540298
 30
0.0
 10
323.298864731845
 20
59.99940202092512
 30
0.0
 10
323.4062103235141
 20
59.95916144636554
 30
0.0
 10
323.5134702014573
 20
59.92023236172806
 30
0.0
 10
323.620632871727
 20
59.88262077432322
 30
0.0
 10
323.7276867424843
 20
59.84633253173313
 30
0.0
 10
323.8346201253196
 20
59.81137331449043
 30
0.0
 10
323.9414212372578
 20
59.77774862850873
 30
0.0
 10
324.0480782034894
 20
59.74546379730706
 30
0.0
 10
324.1545790608643
 20
59.71452395407866
 30
0.0
 10
324.260911762182
 20
59.68493403365954
 30
0.0
 10
324.3670641813018
 20
59.65669876445894
 30
0.0
 10
324.4730241190946
 20
59.62982266041887
 30
0.0
 10
324.5787793102448
 20
59.60431001307609
 30
0.0
 10
324.6843174309062
 20
59.58016488380495
 30
0.0
 10
324.7896261071999
 20
59.55739109632244
 30
0.0
 10
324.8946929245395
 20
59.53599222954185
 30
0.0
 10
324.9995054377484
 20
59.51597161086193
 30
0.0
 10
325.1040511819301
 20
59.49733230998179
 30
0.0
 10
325.2083176840355
 20
59.48007713332908
 30
0.0
 10
325.312292475061
 20
59.46420861919029
 30
0.0
 10
325.4159631027977
 20
59.449729033627
 30
0.0
 10
325.5193171450444
 20
59.43664036725843
 30
0.0
 10
325.6223422231803
 20
59.42494433298517
 30
0.0
 10
325.7250260159907
 20
59.41464236472002
 30
0.0
 10
325.827356273625
 20
59.40573561718512
 30
0.0
 10
325.9293208315626
 20
59.39822496682244
 30
0.0
 10
326.0309076244569
 20
59.39211101385461
 30
0.0
 10
326.1321046997227
 20
59.38739408552006
 30
0.0
 10
326.2329002307345
 20
59.38407424049332
 30
0.0
 10
326.3332825295009
 20
59.38215127448805
 30
0.0
 10
326.4332400586852
 20
59.38162472702511
 30
0.0
 10
326.5327614428496
 20
59.3824938893353
 30
0.0
 10
326.6318354788029
 20
59.38475781335138
 30
0.0
 10
326.7304511449485
 20
59.38841532173114
 30
0.0
 10
326.8285976095304
 20
59.39346501884043
 30
0.0
 10
326.9262642377013
 20
59.39990530261374
 30
0.0
 10
327.0234405973379
 20
59.40773437719922
 30
0.0
 10
327.1201164635505
 20
59.41695026628662
 30
0.0
 10
327.2162818218491
 20
59.42755082700813
 30
0.0
 10
327.3119268699429
 20
59.4395337642982
 30
0.0
 10
327.4070420181656
 20
59.45289664559228
 30
0.0
 10
327.5016178885361
 20
59.46763691574366
 30
0.0
 10
327.5956453124778
 20
59.48375191203631
 30
0.0
 10
327.6891153272322
 20
59.50123887917207
 30
0.0
 10
327.7820191710217
 20
59.52009498411414
 30
0.0
 10
327.8743482770181
 20
59.54031733067097
 30
0.0
 10
327.9660942661925
 20
59.56190297371113
 30
0.0
 10
328.0572489391252
 20
59.58484893290416
 30
0.0
 10
328.1478042668625
 20
59.60915220589013
 30
0.0
 10
328.2377523809158
 20
59.6348097807841
 30
0.0
 10
328.3270855624889
 20
59.66181864794823
 30
0.0
 10
328.4157962310685
 20
59.69017581089269
 30
0.0
 10
328.5038769323378
 20
59.71987829647812
 30
0.0
 10
328.5913203260319
 20
59.75092316346076
 30
0.0
 10
328.6781191718957
 20
59.7833075126819
 30
0.0
 10
328.7642663210485
 20
59.81702848634702
 30
0.0
 10
328.8497546859685
 20
59.85208330300767
 30
0.0
 10
328.9345772894312
 20
59.88846915420974
 30
0.0
 10
329.0187270185343
 20
59.92618361185787
 30
0.0
 10
329.1021974789919
 20
59.96522312476437
 30
0.0
 10
329.1849797444212
 20
60.00558863938862
 30
0.0
 10
329.267074425075
 20
60.04726462949822
 30
0.0
 10
329.3484465625346
 20
60.09029736311894
 30
0.0
 10
329.4240377924272
 20
60.13167999729856
 30
0.0
 10
329.4721495292259
 20
60.1593316419169
 30
0.0
 10
329.4936612291235
 20
60.17169523384442
 30
0.0
  0
LINE
  5
F1
330
1F
100
AcDbEntity
  8
0
  6
Continuous
 62
     7
370
    30
100
AcDbLine
 10
347.7289375991
 20
105.3386403397
 30
0.0
 11
314.4949188833
 21
86.1530497118
 31
0.0
  0
LINE
  5
F2
330
1F
100
AcDbEntity
  8
0
  6
Continuous
 62
     7
370
    30
100
AcDbLine
 10
329.4936998729
 20
60.1715838404
 30
0.0
 11
362.7277185886
 21
79.3571744683
 31
0.0
  0
LWPOLYLINE
  5
F3
330
1F
100
AcDbEntity
  8
0
  6
Continuous
 62
     7
370
    30
100
AcDbPolyline
 90
       81
 70
   128
 43
0.0
 10
327.0072192389
 20
59.40628554
 10
327.0662844938
 20
59.3884948403
 10
327.3120239672
 20
59.3173877228
 10
327.5609035639
 20
59.2500184961
 10
327.8127527144
 20
59.1864333317
 10
328.0673988138
 20
59.1266758077
 10
328.3246673405
 20
59.0707868788
 10
328.5843819753
 20
59.0188048487
 10
328.8463647228
 20
58.9707653431
 10
329.1104360333
 20
58.9267012859
 10
329.3764149253
 20
58.8866428765
 10
329.6441191103
 20
58.8506175688
 10
329.9133651171
 20
58.8186500529
 10
330.183968418
 20
58.7907622377
 10
330.4557435551
 20
58.766973236
 10
330.7285042672
 20
58.7472993517
 10
331.0020636177
 20
58.7317540683
 10
331.2762341227
 20
58.7203480397
 10
331.5508278795
 20
58.7130890831
 10
331.8256566952
 20
58.7099821733
 10
332.1005322159
 20
58.7110294398
 10
332.3752660556
 20
58.7162301647
 10
332.6496699255
 20
58.7255807838
 10
332.9235557629
 20
58.7390748885
 10
333.19673586
 20
58.7567032307
 10
333.469022993
 20
58.7784537289
 10
333.7402305497
 20
58.8043114763
 10
334.0101726582
 20
58.8342587513
 10
334.2786643135
 20
58.8682750295
 10
334.5455215048
 20
58.9063369979
 10
334.8105613417
 20
58.9484185708
 10
335.073602179
 20
58.9944909074
 10
335.3344637417
 20
59.0445224322
 10
335.5929672483
 20
59.098478856
 10
335.8489355333
 20
59.1563231997
 10
336.102193169
 20
59.2180158199
 10
336.3525665852
 20
59.2835144353
 10
336.5998841885
 20
59.3527741566
 10
336.8439764797
 20
59.4257475165
 10
337.0846761701
 20
59.5023845029
 10
337.3218182963
 20
59.5826325924
 10
337.5552403328
 20
59.6664367872
 10
337.7847823039
 20
59.753739652
 10
338.0102868929
 20
59.8444813537
 10
338.2315995503
 20
59.9385997025
 10
338.4485685994
 20
60.0360301945
 10
338.6610453404
 20
60.1367060556
 10
338.8688841526
 20
60.2405582876
 10
339.0719425934
 20
60.3475157154
 10
339.2700814967
 20
60.4575050357
 10
339.4631650682
 20
60.5704508673
 10
339.6510609779
 20
60.6862758028
 10
339.8336404514
 20
60.8049004616
 10
340.0107783577
 20
60.9262435442
 10
340.1823532956
 20
61.0502218882
 10
340.3482476759
 20
61.176750525
 10
340.5083478031
 20
61.3057427382
 10
340.6625439525
 20
61.437110123
 10
340.8107304458
 20
61.5707626466
 10
340.9528057233
 20
61.7066087105
 10
341.0886724138
 20
61.8445552124
 10
341.2182374009
 20
61.9845076107
 10
341.3414118874
 20
62.1263699891
 10
341.4581114555
 20
62.2700451221
 10
341.5682561253
 20
62.4154345419
 10
341.6717704091
 20
62.5624386061
 10
341.7685833633
 20
62.7109565652
 10
341.8586286372
 20
62.8608866325
 10
341.9418445183
 20
63.0121260534
 10
342.0181739746
 20
63.1645711761
 10
342.0875646936
 20
63.3181175221
 10
342.1499691184
 20
63.4726598586
 10
342.2053444802
 20
63.6280922699
 10
342.2536528274
 20
63.7843082303
 10
342.294861052
 20
63.9412006774
 10
342.3289409117
 20
64.0986620848
 10
342.3558690502
 20
64.2565845364
 10
342.375627012
 20
64.4148598
 10
342.3882012562
 20
64.5733794016
 10
342.3935831648
 20
64.7320346998
 10
342.3938043147
 20
64.7713754832
  0
LWPOLYLINE
  5
F4
330
1F
100
AcDbEntity
  8
0
  6
Continuous
 62
     7
370
    30
100
AcDbPolyline
 90
      106
 70
   128
 43
0.0
 10
341.5580042746
 20
56.4609579666
 10
341.4487446653
 20
56.315716807
 10
341.3329365771
 20
56.1721765087
 10
341.2106593792
 20
56.0304354471
 10
341.0819968742
 20
55.8905907645
 10
340.947037241
 20
55.7527383035
 10
340.8058729741
 20
55.6169725411
 10
340.6586008206
 20
55.4833865246
 10
340.5053217133
 20
55.352071807
 10
340.3461407022
 20
55.223118385
 10
340.1811668819
 20
55.0966146367
 10
340.0105133173
 20
54.9726472615
 10
339.8342969658
 20
54.8513012204
 10
339.6526385972
 20
54.732659678
 10
339.4656627112
 20
54.6168039453
 10
339.2734974516
 20
54.503813424
 10
339.0762745191
 20
54.3937655521
 10
338.8741290802
 20
54.286735751
 10
338.6671996754
 20
54.1827973735
 10
338.4556281237
 20
54.0820216538
 10
338.2395594258
 20
53.9844776586
 10
338.0191416643
 20
53.8902322396
 10
337.7945259025
 20
53.7993499879
 10
337.565866081
 20
53.7118931898
 10
337.3333189116
 20
53.6279217837
 10
337.0970437706
 20
53.5474933193
 10
336.8572025892
 20
53.4706629185
 10
336.6139597425
 20
53.3974832369
 10
336.3674819371
 20
53.3280044281
 10
336.1179380966
 20
53.2622741096
 10
335.8654992457
 20
53.2003373295
 10
335.6103383935
 20
53.1422365363
 10
335.3526304145
 20
53.0880115493
 10
335.0925519289
 20
53.0376995317
 10
334.8302811814
 20
52.9913349647
 10
334.5659979194
 20
52.9489496243
 10
334.2998832693
 20
52.9105725594
 10
334.0321196129
 20
52.8762300716
 10
333.762890462
 20
52.8459456976
 10
333.4923803329
 20
52.8197401928
 10
333.2207746196
 20
52.7976315171
 10
332.9482594671
 20
52.7796348227
 10
332.6750216437
 20
52.7657624436
 10
332.401248413
 20
52.7560238873
 10
332.1271274055
 20
52.7504258281
 10
331.85284649
 20
52.7489721026
 10
331.5785936449
 20
52.7516637071
 10
331.3045568295
 20
52.758498797
 10
331.0309238548
 20
52.7694726877
 10
330.7578822553
 20
52.7845778585
 10
330.4856191601
 20
52.8038039568
 10
330.2143211646
 20
52.8271378062
 10
329.944174203
 20
52.8545634148
 10
329.6753634205
 20
52.8860619863
 10
329.4080730466
 20
52.9216119333
 10
329.1424862687
 20
52.9611888917
 10
328.8787851067
 20
53.0047657373
 10
328.6171502883
 20
53.0523126047
 10
328.357761125
 20
53.1037969078
 10
328.100795389
 20
53.1591833617
 10
327.8464291918
 20
53.2184340073
 10
327.5948368634
 20
53.2815082372
 10
327.3461908325
 20
53.3483628234
 10
327.1006615088
 20
53.4189519472
 10
326.8584171657
 20
53.4932272304
 10
326.6196238254
 20
53.5711377683
 10
326.384445145
 20
53.6526301649
 10
326.1530423042
 20
53.7376485695
 10
325.9255738949
 20
53.8261347146
 10
325.7021958126
 20
53.9180279563
 10
325.4830611495
 20
54.0132653156
 10
325.2683200895
 20
54.1117815215
 10
325.0581198055
 20
54.2135090559
 10
324.8526043582
 20
54.3183781998
 10
324.6519145976
 20
54.4263170813
 10
324.4561880665
 20
54.5372517243
 10
324.2655589061
 20
54.6511060998
 10
324.080157764
 20
54.7678021778
 10
323.900111705
 20
54.8872599804
 10
323.7255441236
 20
55.0093976374
 10
323.5565746597
 20
55.1341314417
 10
323.3933191165
 20
55.261375907
 10
323.2358893813
 20
55.3910438262
 10
323.0843933486
 20
55.5230463314
 10
322.938934846
 20
55.6572929548
 10
322.7996135637
 20
55.7936916903
 10
322.6665249855
 20
55.9321490572
 10
322.5397603236
 20
56.0725701636
 10
322.4194064562
 20
56.214858772
 10
322.3055458679
 20
56.3589173648
 10
322.1982565929
 20
56.5046472114
 10
322.097612162
 20
56.651948436
 10
322.003681552
 20
56.8007200856
 10
321.916529138
 20
56.9508601995
 10
321.8362146501
 20
57.1022658793
 10
321.7627931317
 20
57.254833359
 10
321.6963149024
 20
57.4084580764
 10
321.6368255229
 20
57.563034745
 10
321.5843657643
 20
57.7184574256
 10
321.53897158
 20
57.8746195991
 10
321.5006740807
 20
58.0314142399
 10
321.4694995138
 20
58.1887338888
 10
321.4454692447
 20
58.3464707267
 10
321.4285997425
 20
58.5045166487
 10
321.4189025688
 20
58.662763338
 10
321.4163043147
 20
58.7974578912
  0
ARC
  5
F5
330
1F
100
AcDbEntity
  8
0
  6
Continuous
 62
     7
370
    30
100
AcDbCircle
 10
338.4126730416
 20
58.8655985083
 30
0.0
 40
3.959217687902065
100
AcDbArc
 50
322.6016873093
 51
359.0138550483
  0
ELLIPSE
  5
F6
330
1F
100
AcDbEntity
  8
0
  6
Continuous
 62
     7
370
    30
100
AcDbEllipse
 10
388.8156840928
 20
111.7421861154
 30
0.0
 11
-0.9999186583269762
 21
1.73209776766376
 31
0.0
210
0.0
220
0.0
230
1.0
 40
0.5775574346
 41
3.927224423831236
 42
5.497716164130913
  0
LINE
  5
F7
330
1F
100
AcDbEntity
  8
0
  6
Continuous
 62
     7
370
    30
100
AcDbLine
 10
390.2301130795
 20
52.9512560357
 30
0.0
 11
390.2301130795
 21
110.9261511321
 31
0.0
  0
LINE
  5
F8
330
1F
100
AcDbEntity
  8
0
  6
Continuous
 62
     7
370
    30
100
AcDbLine
 10
388.8161149087
 20
113.3752677985
 30
0.0
 11
338.6111026613
 21
142.3580044541
 31
0.0
  0
LWPOLYLINE
  5
F9
330
1F
100
AcDbEntity
  8
0
  6
Continuous
 62
     7
370
    30
100
AcDbPolyline
 90
        3
 70
   128
 43
0.0
 10
380.4019973267
 20
47.8303615885
 10
380.3976128189
 20
47.8329374998
 10
380.3900593762
 20
47.8375904497
  0
LWPOLYLINE
  5
FA
330
1F
100
AcDbEntity
  8
0
  6
Continuous
 62
     7
370
    30
100
AcDbPolyline
 90
        3
 70
   128
 43
0.0
 10
329.2622056404
 20
136.3935877693
 10
329.2619516934
 20
136.4025003879
 10
329.2619136165
 20
136.4075385102
  0
ELLIPSE
  5
FB
330
1F
100
AcDbEntity
  8
0
  6
Continuous
 62
     7
370
    30
100
AcDbEllipse
 10
388.8156840928
 20
53.7682859998
 30
0.0
 11
-1.000223415011646
 21
1.732625335835643
 31
0.0
210
0.0
220
0.0
230
1.0
 40
0.5772057094
 41
3.124143257519084
 42
3.926919738320283
  0
ELLIPSE
  5
FC
330
1F
100
AcDbEntity
  8
0
  6
Continuous
 62
     7
370
    30
100
AcDbEllipse
 10
338.6115334773
 20
140.7244253614
 30
0.0
 11
-1.000223415011646
 21
1.73262533583565
 31
0.0
210
0.0
220
0.0
230
1.0
 40
0.5772057094
 41
5.4980206516103
 42
6.30063470324832
  0
ARC
  5
FD
330
1F
100
AcDbEntity
  8
0
  6
Continuous
 62
     7
370
    30
100
AcDbCircle
 10
350.8338306428
 20
98.4557647125
 30
0.0
 40
7.550783913746877
100
AcDbArc
 50
54.4092132707
 51
114.2803283002
  0
LWPOLYLINE
  5
FE
330
1F
100
AcDbEntity
  8
0
  6
Continuous
 62
     7
370
    30
100
AcDbPolyline
 90
       92
 70
   128
 43
0.0
 10
362.7277185886
 20
79.3571744683
 10
362.7283280938
 20
79.3575263853
 10
362.9220851435
 20
79.4753519379
 10
363.1105692763
 20
79.601999697
 10
363.2936513148
 20
79.7373828646
 10
363.4712057836
 20
79.8814086558
 10
363.6431109958
 20
80.0339783625
 10
363.8092491361
 20
80.1949874211
 10
363.9695063418
 20
80.364325484
 10
364.1237727805
 20
80.5418764953
 10
364.2719427258
 20
80.7275187705
 10
364.4139146293
 20
80.9211250796
 10
364.5495911906
 20
81.1225627346
 10
364.6788794239
 20
81.33169368
 10
364.8016907213
 20
81.5483745881
 10
364.9179409142
 20
81.7724569565
 10
365.0275503304
 20
82.0037872104
 10
365.1304438492
 20
82.2422068076
 10
365.2265509525
 20
82.4875523472
 10
365.3158057733
 20
82.7396556816
 10
365.3981471408
 20
82.9983440318
 10
365.4735186222
 20
83.2634401057
 10
365.5418685619
 20
83.5347622197
 10
365.6031501161
 20
83.8121244232
 10
365.6573212855
 20
84.0953366259
 10
365.7043449439
 20
84.3842047285
 10
365.7441888636
 20
84.6785307551
 10
365.7768257376
 20
84.9781129893
 10
365.8022331983
 20
85.2827461125
 10
365.8203938326
 20
85.5922213444
 10
365.8312951941
 20
85.906326586
 10
365.8349298116
 20
86.2248465653
 10
365.8312951941
 20
86.5475629847
 10
365.8203938326
 20
86.8742546704
 10
365.8022331983
 20
87.2046977243
 10
365.7768257376
 20
87.5386656772
 10
365.7441888636
 20
87.8759296441
 10
365.7043449439
 20
88.2162584812
 10
365.6573212855
 20
88.5594189441
 10
365.6031501161
 20
88.9051758478
 10
365.5418685619
 20
89.2532922277
 10
365.4735186222
 20
89.6035295023
 10
365.3981471408
 20
89.9556476363
 10
365.3158057733
 20
90.3094053058
 10
365.2265509525
 20
90.6645600627
 10
365.1304438492
 20
91.0208685019
 10
365.0275503304
 20
91.3780864272
 10
364.9179409142
 20
91.7359690193
 10
364.8016907213
 20
92.0942710035
 10
364.6788794239
 20
92.4527468174
 10
364.5495911906
 20
92.8111507796
 10
364.4139146293
 20
93.1692372579
 10
364.2719427258
 20
93.5267608378
 10
364.1237727805
 20
93.8834764904
 10
363.9695063418
 20
94.2391397406
 10
363.8092491361
 20
94.5935068347
 10
363.6431109958
 20
94.9463349071
 10
363.4712057836
 20
95.2973821471
 10
363.2936513148
 20
95.6464079644
 10
363.1105692763
 20
95.9931731542
 10
362.9220851435
 20
96.337440061
 10
362.7283280938
 20
96.6789727413
 10
362.5294309189
 20
97.0175371258
 10
362.3255299327
 20
97.3529011794
 10
362.1167648789
 20
97.6848350602
 10
361.9032788346
 20
98.0131112774
 10
361.6852181125
 20
98.3375048468
 10
361.4627321605
 20
98.6577934454
 10
361.2359734594
 20
98.9737575632
 10
361.0050974182
 20
99.2851806543
 10
360.7702622679
 20
99.5918492848
 10
360.5316289527
 20
99.8935532794
 10
360.2893610201
 20
100.1900858653
 10
360.0436245083
 20
100.4812438137
 10
359.7945878328
 20
100.7668275797
 10
359.542421671
 20
101.0466414383
 10
359.2872988449
 20
101.3204936191
 10
359.0293942031
 20
101.5881964375
 10
358.7688845004
 20
101.8495664233
 10
358.5059482772
 20
102.1044244467
 10
358.2407657369
 20
102.3525958407
 10
357.9735186222
 20
102.5939105209
 10
357.7043900911
 20
102.8282031024
 10
357.4335645908
 20
103.0553130127
 10
357.1612277316
 20
103.2750846021
 10
356.8875661595
 20
103.4873672501
 10
356.6127674285
 20
103.6920154687
 10
356.3370198719
 20
103.8888890022
 10
356.0605124734
 20
104.0778529235
 10
355.7834347372
 20
104.2587777261
 10
355.5059765587
 20
104.4315394131
 10
355.2283280938
 20
104.5960195823
  0
ENDSEC
  0
SECTION
  2
OBJECTS
  0
DICTIONARY
  5
C
330
0
100
AcDbDictionary
281
     1
  3
ACAD_GROUP
350
D
  3
ACAD_LAYOUT
350
1A
  3
ACAD_MLINESTYLE
350
17
  3
ACAD_PLOTSETTINGS
350
19
  3
ACAD_PLOTSTYLENAME
350
E
  3
ACAD_SCALELIST
350
47
  0
DICTIONARY
  5
D
102
{ACAD_REACTORS
330
C
102
}
330
C
100
AcDbDictionary
281
     1
  0
DICTIONARY
  5
1A
102
{ACAD_REACTORS
330
C
102
}
330
C
100
AcDbDictionary
281
     1
  3
Layout1
350
1E
  3
Layout2
350
26
  3
Model
350
22
  0
DICTIONARY
  5
17
102
{ACAD_REACTORS
330
C
102
}
330
C
100
AcDbDictionary
281
     1
  3
Standard
350
18
  0
DICTIONARY
  5
19
102
{ACAD_REACTORS
330
C
102
}
330
C
100
AcDbDictionary
281
     1
  0
ACDBDICTIONARYWDFLT
  5
E
102
{ACAD_REACTORS
330
C
102
}
330
C
100
AcDbDictionary
281
     1
  3
Normal
350
F
100
AcDbDictionaryWithDefault
340
F
  0
DICTIONARY
  5
47
102
{ACAD_REACTORS
330
C
102
}
330
C
100
AcDbDictionary
281
     1
  3
A0
350
48
  3
A1
350
49
  3
A2
350
4A
  3
A3
350
4B
  3
A4
350
4C
  3
A5
350
4D
  3
A6
350
4E
  3
A7
350
4F
  3
A8
350
50
  3
A9
350
51
  3
B0
350
52
  3
B1
350
53
  3
B2
350
54
  3
B3
350
55
  3
B4
350
56
  3
B5
350
57
  3
B6
350
58
  3
B7
350
59
  3
B8
350
5A
  3
B9
350
5B
  3
C0
350
5C
  3
C1
350
5D
  3
C2
350
5E
  3
C3
350
5F
  3
C4
350
60
  3
C5
350
61
  3
C6
350
62
  3
C7
350
63
  3
C8
350
64
  3
C9
350
65
  3
D0
350
66
  3
D1
350
67
  3
D2
350
68
  0
LAYOUT
  5
1E
102
{ACAD_REACTORS
330
1A
102
}
330
1A
100
AcDbPlotSettings
  1

  2
none_device
  4

  6

 40
0.0
 41
0.0
 42
0.0
 43
0.0
 44
0.0
 45
0.0
 46
0.0
 47
0.0
 48
0.0
 49
0.0
140
0.0
141
0.0
142
1.0
143
1.0
 70
   688
 72
     1
 73
     0
 74
     5
  7

 75
    16
147
1.0
148
0.0
149
0.0
100
AcDbLayout
  1
Layout1
 70
     1
 71
     1
 10
0.0
 20
0.0
 11
420.0
 21
297.0
 12
0.0
 22
0.0
 32
0.0
 14
1.0000000000E+20
 24
1.0000000000E+20
 34
1.0000000000E+20
 15
-1.0000000000E+20
 25
-1.0000000000E+20
 35
-1.0000000000E+20
146
0.0
 13
0.0
 23
0.0
 33
0.0
 16
1.0
 26
0.0
 36
0.0
 17
0.0
 27
1.0
 37
0.0
 76
     0
330
1B
  0
LAYOUT
  5
26
102
{ACAD_REACTORS
330
1A
102
}
330
1A
100
AcDbPlotSettings
  1

  2
none_device
  4

  6

 40
0.0
 41
0.0
 42
0.0
 43
0.0
 44
0.0
 45
0.0
 46
0.0
 47
0.0
 48
0.0
 49
0.0
140
0.0
141
0.0
142
1.0
143
1.0
 70
   688
 72
     1
 73
     0
 74
     5
  7

 75
    16
147
1.0
148
0.0
149
0.0
100
AcDbLayout
  1
Layout2
 70
     1
 71
     2
 10
0.0
 20
0.0
 11
0.0
 21
0.0
 12
0.0
 22
0.0
 32
0.0
 14
0.0
 24
0.0
 34
0.0
 15
0.0
 25
0.0
 35
0.0
146
0.0
 13
0.0
 23
0.0
 33
0.0
 16
1.0
 26
0.0
 36
0.0
 17
0.0
 27
1.0
 37
0.0
 76
     0
330
23
  0
LAYOUT
  5
22
102
{ACAD_REACTORS
330
1A
102
}
330
1A
100
AcDbPlotSettings
  1

  2
none_device
  4
Letter_(8.50_x_11.00_Inches)
  6

 40
6.35
 41
6.35
 42
6.35000508
 43
6.35000508
 44
215.9
 45
279.4
 46
0.0
 47
0.0
 48
0.0
 49
0.0
140
0.0
141
0.0
142
1.0
143
1.0
 70
  1712
 72
     1
 73
     0
 74
     0
  7

 75
     0
147
1.0
148
0.0
149
0.0
100
AcDbLayout
  1
Model
 70
     1
 71
     0
 10
0.0
 20
0.0
 11
417.0
 21
284.0
 12
0.0
 22
0.0
 32
0.0
 14
0.0
 24
0.0
 34
0.0
 15
417.0
 25
284.0
 35
0.0
146
0.0
 13
0.0
 23
0.0
 33
0.0
 16
1.0
 26
0.0
 36
0.0
 17
0.0
 27
1.0
 37
0.0
 76
     0
330
1F
331
29
  0
MLINESTYLE
  5
18
102
{ACAD_REACTORS
330
17
102
}
330
17
100
AcDbMlineStyle
  2
Standard
 70
     0
  3

 62
   256
 51
90.0
 52
90.0
 71
     2
 49
0.5
 62
   256
  6
BYLAYER
 49
-0.5
 62
   256
  6
BYLAYER
  0
ACDBPLACEHOLDER
  5
F
102
{ACAD_REACTORS
330
E
102
}
330
E
  0
SCALE
  5
48
102
{ACAD_REACTORS
330
47
102
}
330
47
100
AcDbScale
 70
     0
300
1:1
140
1.0
141
1.0
290
     1
  0
SCALE
  5
49
102
{ACAD_REACTORS
330
47
102
}
330
47
100
AcDbScale
 70
     0
300
1:2
140
1.0
141
2.0
290
     0
  0
SCALE
  5
4A
102
{ACAD_REACTORS
330
47
102
}
330
47
100
AcDbScale
 70
     0
300
1:4
140
1.0
141
4.0
290
     0
  0
SCALE
  5
4B
102
{ACAD_REACTORS
330
47
102
}
330
47
100
AcDbScale
 70
     0
300
1:5
140
1.0
141
5.0
290
     0
  0
SCALE
  5
4C
102
{ACAD_REACTORS
330
47
102
}
330
47
100
AcDbScale
 70
     0
300
1:8
140
1.0
141
8.0
290
     0
  0
SCALE
  5
4D
102
{ACAD_REACTORS
330
47
102
}
330
47
100
AcDbScale
 70
     0
300
1:10
140
1.0
141
10.0
290
     0
  0
SCALE
  5
4E
102
{ACAD_REACTORS
330
47
102
}
330
47
100
AcDbScale
 70
     0
300
1:16
140
1.0
141
16.0
290
     0
  0
SCALE
  5
4F
102
{ACAD_REACTORS
330
47
102
}
330
47
100
AcDbScale
 70
     0
300
1:20
140
1.0
141
20.0
290
     0
  0
SCALE
  5
50
102
{ACAD_REACTORS
330
47
102
}
330
47
100
AcDbScale
 70
     0
300
1:30
140
1.0
141
30.0
290
     0
  0
SCALE
  5
51
102
{ACAD_REACTORS
330
47
102
}
330
47
100
AcDbScale
 70
     0
300
1:40
140
1.0
141
40.0
290
     0
  0
SCALE
  5
52
102
{ACAD_REACTORS
330
47
102
}
330
47
100
AcDbScale
 70
     0
300
1:50
140
1.0
141
50.0
290
     0
  0
SCALE
  5
53
102
{ACAD_REACTORS
330
47
102
}
330
47
100
AcDbScale
 70
     0
300
1:100
140
1.0
141
100.0
290
     0
  0
SCALE
  5
54
102
{ACAD_REACTORS
330
47
102
}
330
47
100
AcDbScale
 70
     0
300
2:1
140
2.0
141
1.0
290
     0
  0
SCALE
  5
55
102
{ACAD_REACTORS
330
47
102
}
330
47
100
AcDbScale
 70
     0
300
4:1
140
4.0
141
1.0
290
     0
  0
SCALE
  5
56
102
{ACAD_REACTORS
330
47
102
}
330
47
100
AcDbScale
 70
     0
300
8:1
140
8.0
141
1.0
290
     0
  0
SCALE
  5
57
102
{ACAD_REACTORS
330
47
102
}
330
47
100
AcDbScale
 70
     0
300
10:1
140
10.0
141
1.0
290
     0
  0
SCALE
  5
58
102
{ACAD_REACTORS
330
47
102
}
330
47
100
AcDbScale
 70
     0
300
100:1
140
100.0
141
1.0
290
     0
  0
SCALE
  5
59
102
{ACAD_REACTORS
330
47
102
}
330
47
100
AcDbScale
 70
     0
300
1/128" = 1'-0"
140
0.0078125
141
12.0
290
     0
  0
SCALE
  5
5A
102
{ACAD_REACTORS
330
47
102
}
330
47
100
AcDbScale
 70
     0
300
1/64" = 1'-0"
140
0.015625
141
12.0
290
     0
  0
SCALE
  5
5B
102
{ACAD_REACTORS
330
47
102
}
330
47
100
AcDbScale
 70
     0
300
1/32" = 1'-0"
140
0.03125
141
12.0
290
     0
  0
SCALE
  5
5C
102
{ACAD_REACTORS
330
47
102
}
330
47
100
AcDbScale
 70
     0
300
1/16" = 1'-0"
140
0.0625
141
12.0
290
     0
  0
SCALE
  5
5D
102
{ACAD_REACTORS
330
47
102
}
330
47
100
AcDbScale
 70
     0
300
3/32" = 1'-0"
140
0.09375
141
12.0
290
     0
  0
SCALE
  5
5E
102
{ACAD_REACTORS
330
47
102
}
330
47
100
AcDbScale
 70
     0
300
1/8" = 1'-0"
140
0.125
141
12.0
290
     0
  0
SCALE
  5
5F
102
{ACAD_REACTORS
330
47
102
}
330
47
100
AcDbScale
 70
     0
300
3/16" = 1'-0"
140
0.1875
141
12.0
290
     0
  0
SCALE
  5
60
102
{ACAD_REACTORS
330
47
102
}
330
47
100
AcDbScale
 70
     0
300
1/4" = 1'-0"
140
0.25
141
12.0
290
     0
  0
SCALE
  5
61
102
{ACAD_REACTORS
330
47
102
}
330
47
100
AcDbScale
 70
     0
300
3/8" = 1'-0"
140
0.375
141
12.0
290
     0
  0
SCALE
  5
62
102
{ACAD_REACTORS
330
47
102
}
330
47
100
AcDbScale
 70
     0
300
1/2" = 1'-0"
140
0.5
141
12.0
290
     0
  0
SCALE
  5
63
102
{ACAD_REACTORS
330
47
102
}
330
47
100
AcDbScale
 70
     0
300
3/4" = 1'-0"
140
0.75
141
12.0
290
     0
  0
SCALE
  5
64
102
{ACAD_REACTORS
330
47
102
}
330
47
100
AcDbScale
 70
     0
300
1" = 1'-0"
140
1.0
141
12.0
290
     0
  0
SCALE
  5
65
102
{ACAD_REACTORS
330
47
102
}
330
47
100
AcDbScale
 70
     0
300
1-1/2" = 1'-0"
140
1.5
141
12.0
290
     0
  0
SCALE
  5
66
102
{ACAD_REACTORS
330
47
102
}
330
47
100
AcDbScale
 70
     0
300
3" = 1'-0"
140
3.0
141
12.0
290
     0
  0
SCALE
  5
67
102
{ACAD_REACTORS
330
47
102
}
330
47
100
AcDbScale
 70
     0
300
6" = 1'-0"
140
6.0
141
12.0
290
     0
  0
SCALE
  5
68
102
{ACAD_REACTORS
330
47
102
}
330
47
100
AcDbScale
 70
     0
300
1'-0" = 1'-0"
140
12.0
141
12.0
290
     0
  0
ENDSEC
  0
EOF
