  0
SECTION
  2
HEADER
  9
$ACADVER
  1
AC1015
  9
$ACADMAINTVER
 70
     6
  9
$DWGCODEPAGE
  3
ANSI_1252
  9
$INSBASE
 10
0.0
 20
0.0
 30
0.0
  9
$EXTMIN
 10
0.0
 20
0.0
 30
0.0
  9
$EXTMAX
 10
722.0
 20
439.0
 30
0.0
  9
$LIMMIN
 10
0.0
 20
0.0
  9
$LIMMAX
 10
722.0
 20
439.0
  9
$ORTHOMODE
 70
     0
  9
$REGENMODE
 70
     1
  9
$FILLMODE
 70
     1
  9
$QTEXTMODE
 70
     0
  9
$MIRRTEXT
 70
     1
  9
$LTSCALE
 40
1.0
  9
$ATTMODE
 70
     1
  9
$TEXTSIZE
 40
3.5
  9
$TRACEWID
 40
1.0
  9
$TEXTSTYLE
  7
Standard
  9
$CLAYER
  8
0
  9
$CELTYPE
  6
ByLayer
  9
$CECOLOR
 62
   256
  9
$CELTSCALE
 40
1.0
  9
$DISPSILH
 70
     0
  9
$DIMSCALE
 40
1.0
  9
$DIMASZ
 40
3.302
  9
$DIMEXO
 40
1.0
  9
$DIMDLI
 40
3.75
  9
$DIMRND
 40
0.0
  9
$DIMDLE
 40
0.0
  9
$DIMEXE
 40
1.0
  9
$DIMTP
 40
0.0
  9
$DIMTM
 40
0.0
  9
$DIMTXT
 40
2.8
  9
$DIMCEN
 40
2.5
  9
$DIMTSZ
 40
0.0
  9
$DIMTOL
 70
     0
  9
$DIMLIM
 70
     0
  9
$DIMTIH
 70
     1
  9
$DIMTOH
 70
     1
  9
$DIMSE1
 70
     0
  9
$DIMSE2
 70
     0
  9
$DIMTAD
 70
     1
  9
$DIMZIN
 70
     0
  9
$DIMBLK
  1

  9
$DIMASO
 70
     1
  9
$DIMSHO
 70
     1
  9
$DIMPOST
  1

  9
$DIMAPOST
  1

  9
$DIMALT
 70
     0
  9
$DIMALTD
 70
     3
  9
$DIMALTF
 40
0.0393700787
  9
$DIMLFAC
 40
1.0
  9
$DIMTOFL
 70
     1
  9
$DIMTVP
 40
0.0
  9
$DIMTIX
 70
     0
  9
$DIMSOXD
 70
     0
  9
$DIMSAH
 70
     0
  9
$DIMBLK1
  1

  9
$DIMBLK2
  1

  9
$DIMSTYLE
  2
ISO-25
  9
$DIMCLRD
 70
     0
  9
$DIMCLRE
 70
     0
  9
$DIMCLRT
 70
     0
  9
$DIMTFAC
 40
1.0
  9
$DIMGAP
 40
1.524
  9
$DIMJUST
 70
     0
  9
$DIMSD1
 70
     0
  9
$DIMSD2
 70
     0
  9
$DIMTOLJ
 70
     0
  9
$DIMTZIN
 70
     0
  9
$DIMALTZ
 70
     0
  9
$DIMALTTZ
 70
     0
  9
$DIMUPT
 70
     0
  9
$DIMDEC
 70
     2
  9
$DIMTDEC
 70
     2
  9
$DIMALTU
 70
     2
  9
$DIMALTTD
 70
     3
  9
$DIMTXSTY
  7
Standard
  9
$DIMAUNIT
 70
     0
  9
$DIMADEC
 70
     2
  9
$DIMALTRND
 40
0.0
  9
$DIMAZIN
 70
     0
  9
$DIMDSEP
 70
    44
  9
$DIMATFIT
 70
     3
  9
$DIMFRAC
 70
     0
  9
$DIMLDRBLK
  1

  9
$DIMLUNIT
 70
     2
  9
$DIMLWD
 70
    -2
  9
$DIMLWE
 70
    -2
  9
$DIMTMOVE
 70
     0
  9
$LUNITS
 70
     2
  9
$LUPREC
 70
     2
  9
$SKETCHINC
 40
1.0
  9
$FILLETRAD
 40
10.0
  9
$AUNITS
 70
     0
  9
$AUPREC
 70
     2
  9
$MENU
  1
.
  9
$ELEVATION
 40
0.0
  9
$PELEVATION
 40
0.0
  9
$THICKNESS
 40
0.0
  9
$LIMCHECK
 70
     0
  9
$CHAMFERA
 40
0.0
  9
$CHAMFERB
 40
0.0
  9
$CHAMFERC
 40
0.0
  9
$CHAMFERD
 40
0.0
  9
$SKPOLY
 70
     0
  9
$TDCREATE
 40
2459191.407613796
  9
$TDUCREATE
 40
2459191.324280463
  9
$TDUPDATE
 40
2459191.40761434
  9
$TDUUPDATE
 40
2459191.324281007
  9
$TDINDWG
 40
0.0000000116
  9
$TDUSRTIMER
 40
0.0000000116
  9
$USRTIMER
 70
     1
  9
$ANGBASE
 50
0.0
  9
$ANGDIR
 70
     0
  9
$PDMODE
 70
     0
  9
$PDSIZE
 40
-1.0
  9
$PLINEWID
 40
0.0
  9
$SPLFRAME
 70
     0
  9
$SPLINETYPE
 70
     6
  9
$SPLINESEGS
 70
     8
  9
$HANDSEED
  5
118
  9
$SURFTAB1
 70
     6
  9
$SURFTAB2
 70
     6
  9
$SURFTYPE
 70
     6
  9
$SURFU
 70
     6
  9
$SURFV
 70
     6
  9
$UCSBASE
  2

  9
$UCSNAME
  2

  9
$UCSORG
 10
0.0
 20
0.0
 30
0.0
  9
$UCSXDIR
 10
1.0
 20
0.0
 30
0.0
  9
$UCSYDIR
 10
0.0
 20
1.0
 30
0.0
  9
$UCSORTHOREF
  2

  9
$UCSORTHOVIEW
 70
     0
  9
$UCSORGTOP
 10
0.0
 20
0.0
 30
0.0
  9
$UCSORGBOTTOM
 10
0.0
 20
0.0
 30
0.0
  9
$UCSORGLEFT
 10
0.0
 20
0.0
 30
0.0
  9
$UCSORGRIGHT
 10
0.0
 20
0.0
 30
0.0
  9
$UCSORGFRONT
 10
0.0
 20
0.0
 30
0.0
  9
$UCSORGBACK
 10
0.0
 20
0.0
 30
0.0
  9
$PUCSBASE
  2

  9
$PUCSNAME
  2

  9
$PUCSORG
 10
0.0
 20
0.0
 30
0.0
  9
$PUCSXDIR
 10
1.0
 20
0.0
 30
0.0
  9
$PUCSYDIR
 10
0.0
 20
1.0
 30
0.0
  9
$PUCSORTHOREF
  2

  9
$PUCSORTHOVIEW
 70
     0
  9
$PUCSORGTOP
 10
0.0
 20
0.0
 30
0.0
  9
$PUCSORGBOTTOM
 10
0.0
 20
0.0
 30
0.0
  9
$PUCSORGLEFT
 10
0.0
 20
0.0
 30
0.0
  9
$PUCSORGRIGHT
 10
0.0
 20
0.0
 30
0.0
  9
$PUCSORGFRONT
 10
0.0
 20
0.0
 30
0.0
  9
$PUCSORGBACK
 10
0.0
 20
0.0
 30
0.0
  9
$USERI1
 70
     0
  9
$USERI2
 70
     0
  9
$USERI3
 70
     0
  9
$USERI4
 70
     0
  9
$USERI5
 70
     0
  9
$USERR1
 40
0.0
  9
$USERR2
 40
0.0
  9
$USERR3
 40
0.0
  9
$USERR4
 40
0.0
  9
$USERR5
 40
0.0
  9
$WORLDVIEW
 70
     1
  9
$SHADEDGE
 70
     3
  9
$SHADEDIF
 70
    70
  9
$TILEMODE
 70
     1
  9
$MAXACTVP
 70
    64
  9
$PINSBASE
 10
0.0
 20
0.0
 30
0.0
  9
$PLIMCHECK
 70
     0
  9
$PEXTMIN
 10
1.0000000000E+20
 20
1.0000000000E+20
 30
1.0000000000E+20
  9
$PEXTMAX
 10
-1.0000000000E+20
 20
-1.0000000000E+20
 30
-1.0000000000E+20
  9
$PLIMMIN
 10
0.0
 20
0.0
  9
$PLIMMAX
 10
420.0
 20
297.0
  9
$UNITMODE
 70
     0
  9
$VISRETAIN
 70
     1
  9
$PLINEGEN
 70
     0
  9
$PSLTSCALE
 70
     1
  9
$TREEDEPTH
 70
  3020
  9
$CMLSTYLE
  2
Standard
  9
$CMLJUST
 70
     0
  9
$CMLSCALE
 40
20.0
  9
$PROXYGRAPHICS
 70
     1
  9
$MEASUREMENT
 70
     1
  9
$CELWEIGHT
370
    -1
  9
$ENDCAPS
280
     0
  9
$JOINSTYLE
280
     0
  9
$LWDISPLAY
290
     1
  9
$INSUNITS
 70
     4
  9
$HYPERLINKBASE
  1

  9
$STYLESHEET
  1

  9
$XEDIT
290
     1
  9
$CEPSNTYPE
380
     0
  9
$PSTYLEMODE
290
     1
  9
$FINGERPRINTGUID
  2
{118DBEEE-459B-457C-A91A-CDF00BE9C50E}
  9
$VERSIONGUID
  2
{FAEB1C32-E019-11D5-929B-00C0DF256EC4}
  9
$EXTNAMES
290
     1
  9
$PSVPSCALE
 40
0.0
  9
$OLESTARTUP
290
     0
  0
ENDSEC
  0
SECTION
  2
CLASSES
  0
CLASS
  1
ACDBDICTIONARYWDFLT
  2
AcDbDictionaryWithDefault
  3
ObjectDBX Classes
 90
        0
280
     0
281
     0
  0
CLASS
  1
VISUALSTYLE
  2
AcDbVisualStyle
  3
ObjectDBX Classes
 90
     4095
280
     0
281
     0
  0
CLASS
  1
MATERIAL
  2
AcDbMaterial
  3
ObjectDBX Classes
 90
     1153
280
     0
281
     0
  0
CLASS
  1
SCALE
  2
AcDbScale
  3
ObjectDBX Classes
 90
     1153
280
     0
281
     0
  0
CLASS
  1
TABLESTYLE
  2
AcDbTableStyle
  3
ObjectDBX Classes
 90
     4095
280
     0
281
     0
  0
CLASS
  1
MLEADERSTYLE
  2
AcDbMLeaderStyle
  3
ACDB_MLEADERSTYLE_CLASS
 90
     4095
280
     0
281
     0
  0
CLASS
  1
SUN
  2
AcDbSun
  3
SCENEOE
 90
     1153
280
     0
281
     0
  0
CLASS
  1
ACDBPLACEHOLDER
  2
AcDbPlaceHolder
  3
ObjectDBX Classes
 90
        0
280
     0
281
     0
  0
CLASS
  1
LAYOUT
  2
AcDbLayout
  3
ObjectDBX Classes
 90
        0
280
     0
281
     0
  0
ENDSEC
  0
SECTION
  2
TABLES
  0
TABLE
  2
VPORT
  5
8
330
0
100
AcDbSymbolTable
 70
     1
  0
VPORT
  5
29
330
8
100
AcDbSymbolTableRecord
100
AcDbViewportTableRecord
  2
*Active
 70
     0
 10
0.0
 20
0.0
 11
1.0
 21
1.0
 12
361.0
 22
219.5
 13
0.0
 23
0.0
 14
10.0
 24
10.0
 15
10.0
 25
10.0
 16
0.0
 26
0.0
 36
1.0
 17
0.0
 27
0.0
 37
0.0
 40
439.0
 41
1.6446469248
 42
50.0
 43
0.0
 44
0.0
 50
0.0
 51
0.0
 71
     0
 72
  2000
 73
     1
 74
     3
 75
     0
 76
     0
 77
     0
 78
     0
281
     0
 65
     1
110
0.0
120
0.0
130
0.0
111
1.0
121
0.0
131
0.0
112
0.0
122
1.0
132
0.0
 79
     0
146
0.0
  0
ENDTAB
  0
TABLE
  2
LTYPE
  5
5
330
0
100
AcDbSymbolTable
 70
     6
  0
LTYPE
  5
14
330
5
100
AcDbSymbolTableRecord
100
AcDbLinetypeTableRecord
  2
ByBlock
 70
     0
  3

 72
    65
 73
     0
 40
0.0
  0
LTYPE
  5
15
330
5
100
AcDbSymbolTableRecord
100
AcDbLinetypeTableRecord
  2
ByLayer
 70
     0
  3

 72
    65
 73
     0
 40
0.0
  0
LTYPE
  5
16
330
5
100
AcDbSymbolTableRecord
100
AcDbLinetypeTableRecord
  2
Continuous
 70
     0
  3
Solid line
 72
    65
 73
     0
 40
0.0
  0
LTYPE
  5
6E
330
5
100
AcDbSymbolTableRecord
100
AcDbLinetypeTableRecord
  2
HIDDEN
 70
     0
  3
Hidden __ __ __ __ __ __ __ __ __ __ __ __ __ __
 72
    65
 73
     2
 40
1.905
 49
1.27
 74
     0
 49
-0.635
 74
     0
  0
LTYPE
  5
6F
330
5
100
AcDbSymbolTableRecord
100
AcDbLinetypeTableRecord
  2
PHANTOM
 70
     0
  3
Phantom ______  __  __  ______  __  __  ______
 72
    65
 73
     6
 40
12.7
 49
6.35
 74
     0
 49
-1.27
 74
     0
 49
1.27
 74
     0
 49
-1.27
 74
     0
 49
1.27
 74
     0
 49
-1.27
 74
     0
  0
LTYPE
  5
70
330
5
100
AcDbSymbolTableRecord
100
AcDbLinetypeTableRecord
  2
CENTER
 70
     0
  3
Center ____ _ ____ _ ____ _ ____ _ ____ _ ____
 72
    65
 73
     4
 40
10.16
 49
6.35
 74
     0
 49
-1.27
 74
     0
 49
1.27
 74
     0
 49
-1.27
 74
     0
  0
LTYPE
  5
71
330
5
100
AcDbSymbolTableRecord
100
AcDbLinetypeTableRecord
  2
CENTERX2
 70
     0
  3
Center (2x) ________  __  ________  __  _____
 72
    65
 73
     4
 40
20.32
 49
12.7
 74
     0
 49
-2.54
 74
     0
 49
2.54
 74
     0
 49
-2.54
 74
     0
  0
LTYPE
  5
72
330
5
100
AcDbSymbolTableRecord
100
AcDbLinetypeTableRecord
  2
DOT2
 70
     0
  3
Dot (.5x) ........................................
 72
    65
 73
     2
 40
0.635
 49
0.0
 74
     0
 49
-0.635
 74
     0
  0
ENDTAB
  0
TABLE
  2
LAYER
  5
2
330
0
100
AcDbSymbolTable
 70
     2
  0
LAYER
  5
10
330
2
100
AcDbSymbolTableRecord
100
AcDbLayerTableRecord
  2
0
 70
     0
 62
     7
  6
Continuous
370
    -3
390
F
  0
LAYER
  5
73
330
2
100
AcDbSymbolTableRecord
100
AcDbLayerTableRecord
  2
FORMAT
 70
     0
 62
     7
  6
Continuous
370
    -3
390
F
  0
ENDTAB
  0
TABLE
  2
STYLE
  5
3
330
0
100
AcDbSymbolTable
 70
     2
  0
STYLE
  5
11
330
3
100
AcDbSymbolTableRecord
100
AcDbTextStyleTableRecord
  2
Standard
 70
     0
 40
0.0
 41
1.0
 50
0.0
 71
     0
 42
3.5
  3
txt
  4

  0
STYLE
  5
74
330
3
100
AcDbSymbolTableRecord
100
AcDbTextStyleTableRecord
  2
SLDTEXTSTYLE0
 70
     0
 40
0.0
 41
0.605
 50
0.0
 71
     0
 42
3.5
  3
TXT
  4

  0
ENDTAB
  0
TABLE
  2
VIEW
  5
6
330
0
100
AcDbSymbolTable
 70
     0
  0
ENDTAB
  0
TABLE
  2
UCS
  5
7
330
0
100
AcDbSymbolTable
 70
     0
  0
ENDTAB
  0
TABLE
  2
APPID
  5
9
330
0
100
AcDbSymbolTable
 70
     1
  0
APPID
  5
12
330
9
100
AcDbSymbolTableRecord
100
AcDbRegAppTableRecord
  2
ACAD
 70
     0
  0
ENDTAB
  0
TABLE
  2
DIMSTYLE
  5
A
330
0
100
AcDbSymbolTable
 70
     1
100
AcDbDimStyleTable
  0
DIMSTYLE
105
27
330
A
100
AcDbSymbolTableRecord
100
AcDbDimStyleTableRecord
  2
ISO-25
 70
     0
 41
2.5
 42
0.625
 43
3.75
 44
1.25
 73
     0
 74
     0
 77
     1
 78
     8
140
2.5
141
2.5
143
0.0393700787
147
0.625
171
     3
172
     1
178
     0
271
     2
272
     2
274
     3
278
    44
283
     0
284
     8
340
11
  0
ENDTAB
  0
TABLE
  2
BLOCK_RECORD
  5
1
330
0
100
AcDbSymbolTable
 70
     1
  0
BLOCK_RECORD
  5
1F
330
1
100
AcDbSymbolTableRecord
100
AcDbBlockTableRecord
  2
*Model_Space
340
22
  0
BLOCK_RECORD
  5
1B
330
1
100
AcDbSymbolTableRecord
100
AcDbBlockTableRecord
  2
*Paper_Space
340
1E
  0
BLOCK_RECORD
  5
23
330
1
100
AcDbSymbolTableRecord
100
AcDbBlockTableRecord
  2
*Paper_Space0
340
26
  0
ENDTAB
  0
ENDSEC
  0
SECTION
  2
BLOCKS
  0
BLOCK
  5
20
330
1F
100
AcDbEntity
  8
0
100
AcDbBlockBegin
  2
*Model_Space
 70
     0
 10
0.0
 20
0.0
 30
0.0
  3
*Model_Space
  1

  0
ENDBLK
  5
21
330
1F
100
AcDbEntity
  8
0
100
AcDbBlockEnd
  0
BLOCK
  5
1C
330
1B
100
AcDbEntity
 67
     1
  8
0
100
AcDbBlockBegin
  2
*Paper_Space
 70
     0
 10
0.0
 20
0.0
 30
0.0
  3
*Paper_Space
  1

  0
ENDBLK
  5
1D
330
1B
100
AcDbEntity
 67
     1
  8
0
100
AcDbBlockEnd
  0
BLOCK
  5
24
330
23
100
AcDbEntity
  8
0
100
AcDbBlockBegin
  2
*Paper_Space0
 70
     0
 10
0.0
 20
0.0
 30
0.0
  3
*Paper_Space0
  1

  0
ENDBLK
  5
25
330
23
100
AcDbEntity
  8
0
100
AcDbBlockEnd
  0
ENDSEC
  0
SECTION
  2
ENTITIES
  0
MTEXT
  5
75
330
1F
100
AcDbEntity
  8
0
  6
Continuous
 62
     7
370
     0
100
AcDbMText
 10
7.2782978723
 20
22.1884790273
 30
0.0
 40
10.0
 41
0.0
 71
     1
 72
     1
  1
1:1
  7
SLDTEXTSTYLE0
 73
     1
 44
1.0
  0
LINE
  5
76
330
1F
100
AcDbEntity
  8
0
  6
Continuous
 62
     7
370
    30
100
AcDbLine
 10
376.0
 20
334.5081064169
 30
0.0
 11
376.0
 21
364.1553455342
 31
0.0
  0
LINE
  5
77
330
1F
100
AcDbEntity
  8
0
  6
Continuous
 62
     7
370
    30
100
AcDbLine
 10
352.0
 20
364.1553456168
 30
0.0
 11
352.0
 21
334.5081064275
 31
0.0
  0
LINE
  5
78
330
1F
100
AcDbEntity
  8
0
  6
Continuous
 62
     7
370
    30
100
AcDbLine
 10
376.0
 20
320.8102655305
 30
0.0
 11
376.0
 21
334.5081062798
 31
0.0
  0
LINE
  5
79
330
1F
100
AcDbEntity
  8
0
  6
Continuous
 62
     7
370
    30
100
AcDbLine
 10
352.0
 20
334.5081062799
 30
0.0
 11
352.0
 21
320.5021817986
 31
0.0
  0
SPLINE
  5
7A
330
1F
100
AcDbEntity
  8
0
  6
Continuous
 62
     7
370
    30
100
AcDbSpline
210
0.0
220
0.0
230
1.0
 70
     8
 71
     3
 72
    46
 73
    42
 74
     0
 42
0.000000001
 43
0.00000001
 40
0.0
 40
0.0
 40
0.0
 40
0.0
 40
0.0009367970649692
 40
0.0254832682272393
 40
0.0500289869209192
 40
0.0746032639088263
 40
0.0992402279573019
 40
0.1239724779072467
 40
0.1488303602009248
 40
0.1738412572180834
 40
0.1990289010161246
 40
0.2244127382584731
 40
0.2500073845396404
 40
0.2758222158380586
 40
0.3018611481278581
 40
0.3281226501916213
 40
0.3546000177622556
 40
0.3812819103100427
 40
0.4081531193782342
 40
0.4351955062925696
 40
0.4623890249221779
 40
0.4897127375096605
 40
0.5171457398809103
 40
0.5446679335118744
 40
0.5722606098063144
 40
0.5999068396730686
 40
0.6275916838055959
 40
0.655302253339452
 40
0.6830276567449878
 40
0.7107588685601054
 40
0.7384865618618393
 40
0.7662052265843422
 40
0.7939106814132688
 40
0.8215997710263253
 40
0.8492701921991885
 40
0.8769203402408091
 40
0.9045491762281684
 40
0.9321561141260796
 40
0.9597409261011074
 40
0.987303663980093
 40
1.0
 40
1.0
 40
1.0
 40
1.0
 10
352.0000393441435
 20
288.1444474916224
 30
0.0
 10
352.000025440105
 20
288.1438531121925
 30
0.0
 10
351.9996472148143
 20
288.1276844765235
 30
0.0
 10
352.0009408863829
 20
288.0959309564442
 30
0.0
 10
352.004091566385
 20
288.0492480787448
 30
0.0
 10
352.0096965535769
 20
288.0026317132605
 30
0.0
 10
352.0174304692538
 20
287.9560831647356
 30
0.0
 10
352.0273852062222
 20
287.909596111824
 30
0.0
 10
352.0395460648555
 20
287.8631656815869
 30
0.0
 10
352.0539319149368
 20
287.8167879037745
 30
0.0
 10
352.070556532844
 20
287.7704608367555
 30
0.0
 10
352.0894378215217
 20
287.7241852316827
 30
0.0
 10
352.1105938336505
 20
287.6779652346368
 30
0.0
 10
352.1340421616331
 20
287.6318089008556
 30
0.0
 10
352.159798324129
 20
287.5857284881587
 30
0.0
 10
352.1878744751995
 20
287.5397404585237
 30
0.0
 10
352.2182782362546
 20
287.493865159566
 30
0.0
 10
352.2510118573751
 20
287.4481261937035
 30
0.0
 10
352.2860717694098
 20
287.4025495276242
 30
0.0
 10
352.3234485690814
 20
287.3571624324292
 30
0.0
 10
352.3631274135408
 20
287.3119923679699
 30
0.0
 10
352.4050887507014
 20
287.2670659274468
 30
0.0
 10
352.4493092750996
 20
287.2224079405663
 30
0.0
 10
352.4957629857652
 20
287.1780408010357
 30
0.0
 10
352.5444222312339
 20
287.1339840457518
 30
0.0
 10
352.5952586517305
 20
287.0902541775187
 30
0.0
 10
352.6482439611516
 20
287.0468646967827
 30
0.0
 10
352.7033505436652
 20
287.0038262931844
 30
0.0
 10
352.760551866241
 20
286.9611471440147
 30
0.0
 10
352.8198213083309
 20
286.9188342826641
 30
0.0
 10
352.8811337216512
 20
286.8768927513051
 30
0.0
 10
352.9444655150944
 20
286.8353259518931
 30
0.0
 10
353.009796246008
 20
286.7941350519684
 30
0.0
 10
353.0771067272441
 20
286.7533204781854
 30
0.0
 10
353.1463790442281
 20
286.712882256603
 30
0.0
 10
353.2175954497104
 20
286.6728200348206
 30
0.0
 10
353.2907417230996
 20
286.6331338754507
 30
0.0
 10
353.3657939034815
 20
286.5938219888515
 30
0.0
 10
353.4427670431152
 20
286.5548897142366
 30
0.0
 10
353.5073924559395
 20
286.5232412778045
 30
0.0
 10
353.5465470637776
 20
286.5046052445037
 30
0.0
 10
353.558895088948
 20
286.4987280765028
 30
0.0
  0
SPLINE
  5
7B
330
1F
100
AcDbEntity
  8
0
  6
Continuous
 62
     7
370
    30
100
AcDbSpline
210
0.0
220
0.0
230
1.0
 70
     8
 71
     3
 72
   201
 73
   197
 74
     0
 42
0.000000001
 43
0.00000001
 40
0.0
 40
0.0
 40
0.0
 40
0.0
 40
0.0027269664612712
 40
0.0079711723782604
 40
0.0132118781034966
 40
0.018448733155695
 40
0.0236818695443569
 40
0.0289114265156822
 40
0.0341375472283951
 40
0.0393603762375834
 40
0.0445800575597603
 40
0.0497967332054474
 40
0.0550105420860146
 40
0.0602216192188573
 40
0.0654300951692795
 40
0.0706360956791063
 40
0.0758397414416607
 40
0.0810411479908046
 40
0.0862404256777326
 40
0.0914376797148773
 40
0.0966330102700851
 40
0.1018265125978551
 40
0.1070182771970574
 40
0.1122083899869562
 40
0.1173969324947832
 40
0.1225839820500344
 40
0.1277696119812595
 40
0.1329538918126131
 40
0.1381368874576173
 40
0.1433186614086353
 40
0.1484992729206772
 40
0.1536787781887836
 40
0.1588572305183443
 40
0.1640346804880267
 40
0.1692111761051576
 40
0.1743867629534753
 40
0.179561484333422
 40
0.1847353813949987
 40
0.1899084932634961
 40
0.1950808571582802
 40
0.200252508504931
 40
0.2054234810410834
 40
0.2105938069161129
 40
0.2157635167851777
 40
0.2209326398977959
 40
0.2261012041812418
 40
0.2312692363191306
 40
0.2364367618254675
 40
0.2416038051143644
 40
0.2467703895657702
 40
0.2519365375874059
 40
0.2571022706731506
 40
0.2622676094581644
 40
0.2674325737709035
 40
0.2725971826821886
 40
0.2777614545516833
 40
0.2829254070717246
 40
0.2880890573089236
 40
0.2932524217435222
 40
0.2984155163066807
 40
0.3035783564159577
 40
0.3087409570089521
 40
0.3139033325753666
 40
0.3190654971875311
 40
0.3242274645295203
 40
0.3293892479249974
 40
0.3345508603638298
 40
0.3397123145276608
 40
0.3448736228144236
 40
0.3500347973619287
 40
0.3551958500706706
 40
0.3603567926257527
 40
0.3655176365182776
 40
0.3706783930659714
 40
0.3758390734333374
 40
0.3809996886513097
 40
0.3861602496364553
 40
0.3913207672098502
 40
0.3964812521156421
 40
0.4016417150393524
 40
0.4068021666260005
 40
0.411962617498128
 40
0.4171230751083083
 40
0.4222835497088654
 40
0.4274440519510357
 40
0.4326045925293537
 40
0.4377651821997401
 40
0.4429258317978758
 40
0.4480865522577389
 40
0.4532473546304422
 40
0.4584082501035195
 40
0.4635692500205352
 40
0.4687303659012582
 40
0.4738916094623152
 40
0.4790529926385197
 40
0.4842145276049009
 40
0.4893762267994322
 40
0.4945381029466713
 40
0.4997001690822804
 40
0.5048624385785707
 40
0.5100249251711468
 40
0.5151876429867367
 40
0.5203506065723195
 40
0.525513830925664
 40
0.5306773315273379
 40
0.5358411243743861
 40
0.5410052260157832
 40
0.5461696535896758
 40
0.5513344248628091
 40
0.5564995582719771
 40
0.5616650729679502
 40
0.5668309888617975
 40
0.5719973266740062
 40
0.5771641079864214
 40
0.5823313552972744
 40
0.587499092079556
 40
0.5926673428428576
 40
0.5978361331990172
 40
0.6030054899317606
 40
0.6081754410706492
 40
0.6133460159695334
 40
0.6185172453898906
 40
0.62368916158925
 40
0.6288617984151056
 40
0.6340351914045209
 40
0.6392093778898363
 40
0.6443843971106546
 40
0.6495602903326188
 40
0.6547371009730004
 40
0.6599148747335578
 40
0.6650936597408554
 40
0.670273506694086
 40
0.6754544690206489
 40
0.6806366030393991
 40
0.6858199681314573
 40
0.6910046269182567
 40
0.6961906454464023
 40
0.7013780933784336
 40
0.70656704418845
 40
0.7117575753609865
 40
0.7169497685910589
 40
0.7221437099824454
 40
0.7273394902406722
 40
0.732537204855713
 40
0.7377369542685056
 40
0.7429388440131983
 40
0.7481429848254704
 40
0.7533494927041416
 40
0.7585584889105966
 40
0.7637700998860786
 40
0.7689844570624822
 40
0.7742016965357398
 40
0.7794219585639971
 40
0.7846453868431238
 40
0.7898721275015443
 40
0.7951023277423963
 40
0.8003361340448792
 40
0.8055736898170353
 40
0.8108151323685344
 40
0.8160605890444046
 40
0.8213101723287957
 40
0.8265639736904925
 40
0.8318220559020334
 40
0.8370844435203912
 40
0.8423511111742763
 40
0.8476219692648553
 40
0.8528968466610858
 40
0.8581754699703368
 40
0.8634574390068304
 40
0.8687421981905165
 40
0.8740290038196309
 40
0.8793168875138282
 40
0.8846042173508665
 40
0.8898892673850226
 40
0.8951700330672361
 40
0.9004441223119327
 40
0.9057087371204798
 40
0.9109606750819498
 40
0.9161963584470738
 40
0.9214118980297533
 40
0.9266031971192829
 40
0.9317660966217499
 40
0.9368965569828411
 40
0.9419908659279945
 40
0.9470458551450803
 40
0.9520591054149665
 40
0.957029119657009
 40
0.9619554472067781
 40
0.9668387494913583
 40
0.9716808053319209
 40
0.9764844614058675
 40
0.9812535384614239
 40
0.9859927060988894
 40
0.9907073385643888
 40
0.9954033618266677
 40
1.0
 40
1.0
 40
1.0
 40
1.0
 10
353.558895088948
 20
286.4987280765028
 30
0.0
 10
353.5729105516168
 20
286.4921222035123
 30
0.0
 10
353.6138790308705
 20
286.4728126325791
 30
0.0
 10
353.683234772521
 20
286.4410697847969
 30
0.0
 10
353.7675699703469
 20
286.4036274906139
 30
0.0
 10
353.8537572127472
 20
286.3665663426428
 30
0.0
 10
353.9417464285272
 20
286.3298828969335
 30
0.0
 10
354.0315315581904
 20
286.2935802637667
 30
0.0
 10
354.123095224012
 20
286.2576598256126
 30
0.0
 10
354.216422815636
 20
286.2221237386754
 30
0.0
 10
354.3114986808677
 20
286.1869742450872
 30
0.0
 10
354.4083071136993
 20
286.1522138372696
 30
0.0
 10
354.5068320642937
 20
286.1178451934215
 30
0.0
 10
354.6070571962962
 20
286.0838711740572
 30
0.0
 10
354.7089658555901
 20
286.0502948023795
 30
0.0
 10
354.812541066511
 20
286.0171192494461
 30
0.0
 10
354.9177655238852
 20
285.9843478187171
 30
0.0
 10
355.0246215888685
 20
285.9519839315646
 30
0.0
 10
355.1330912860275
 20
285.9200311134052
 30
0.0
 10
355.2431563019953
 20
285.8884929805867
 30
0.0
 10
355.3547979853065
 20
285.8573732280119
 30
0.0
 10
355.4679973472624
 20
285.8266756174974
 30
0.0
 10
355.5827350636496
 20
285.7964039668479
 30
0.0
 10
355.6989914771771
 20
285.7665621396196
 30
0.0
 10
355.8167466005117
 20
285.7371540355442
 30
0.0
 10
355.935980119817
 20
285.7081835815771
 30
0.0
 10
356.0566713987085
 20
285.6796547235373
 30
0.0
 10
356.1787994825593
 20
285.6515714183018
 30
0.0
 10
356.3023431030948
 20
285.6239376265199
 30
0.0
 10
356.4272806832289
 20
285.5967573058137
 30
0.0
 10
356.5535903420986
 20
285.570034404431
 30
0.0
 10
356.6812499002656
 20
285.5437728553196
 30
0.0
 10
356.8102368850525
 20
285.5179765705938
 30
0.0
 10
356.9405285359925
 20
285.4926494363633
 30
0.0
 10
357.07210181037
 20
285.467795307902
 30
0.0
 10
357.2049333888374
 20
285.4434180051275
 30
0.0
 10
357.3389996810938
 20
285.4195213083725
 30
0.0
 10
357.4742768316122
 20
285.3961089544252
 30
0.0
 10
357.6107407254099
 20
285.37318463282
 30
0.0
 10
357.7483669938487
 20
285.3507519823593
 30
0.0
 10
357.8871310204645
 20
285.3288145878518
 30
0.0
 10
358.0270079468158
 20
285.3073759770498
 30
0.0
 10
358.1679726783511
 20
285.2864396177738
 30
0.0
 10
358.3099998902886
 20
285.2660089152084
 30
0.0
 10
358.4530640335082
 20
285.2460872093612
 30
0.0
 10
358.5971393404504
 20
285.2266777726709
 30
0.0
 10
358.7421998310249
 20
285.2077838077562
 30
0.0
 10
358.8882193185223
 20
285.1894084452948
 30
0.0
 10
359.0351714155327
 20
285.1715547420266
 30
0.0
 10
359.1830295398676
 20
285.15422567887
 30
0.0
 10
359.331766920485
 20
285.1374241591474
 30
0.0
 10
359.481356603418
 20
285.1211530069108
 30
0.0
 10
359.6317714577066
 20
285.1054149653636
 30
0.0
 10
359.7829841813316
 20
285.0902126953713
 30
0.0
 10
359.9349673071521
 20
285.0755487740573
 30
0.0
 10
360.0876932088441
 20
285.0614256934794
 30
0.0
 10
360.241134106844
 20
285.0478458593809
 30
0.0
 10
360.3952620742928
 20
285.0348115900147
 30
0.0
 10
360.5500490429839
 20
285.0223251150358
 30
0.0
 10
360.7054668093144
 20
285.0103885744586
 30
0.0
 10
360.8614870402375
 20
284.9990040176764
 30
0.0
 10
361.0180812792197
 20
284.9881734025408
 30
0.0
 10
361.1752209522003
 20
284.9778985944982
 30
0.0
 10
361.3328773735534
 20
284.9681813657797
 30
0.0
 10
361.4910217520538
 20
284.9590233946455
 30
0.0
 10
361.6496251968445
 20
284.9504262646788
 30
0.0
 10
361.8086587234092
 20
284.9423914641285
 30
0.0
 10
361.9680932595456
 20
284.9349203853003
 30
0.0
 10
362.1278996513431
 20
284.9280143239927
 30
0.0
 10
362.288048669162
 20
284.9216744789782
 30
0.0
 10
362.448511013616
 20
284.9159019515277
 30
0.0
 10
362.6092573215572
 20
284.9106977449777
 30
0.0
 10
362.7702581720621
 20
284.9060627643377
 30
0.0
 10
362.9314840924221
 20
284.9019978159407
 30
0.0
 10
363.092905564133
 20
284.89850360713
 30
0.0
 10
363.2544930288887
 20
284.8955807459888
 30
0.0
 10
363.4162168945739
 20
284.8932297411053
 30
0.0
 10
363.5780475412607
 20
284.8914510013784
 30
0.0
 10
363.7399553272034
 20
284.8902448358593
 30
0.0
 10
363.9019105948361
 20
284.8896114536317
 30
0.0
 10
364.0638836767694
 20
284.8895509637281
 30
0.0
 10
364.2258448686731
 20
284.8900633749793
 30
0.0
 10
364.3877644644593
 20
284.8911485955559
 30
0.0
 10
364.5496127662219
 20
284.8928064329587
 30
0.0
 10
364.7113601232793
 20
284.8950365947124
 30
0.0
 10
364.8729769089524
 20
284.897838688448
 30
0.0
 10
365.0344335226494
 20
284.9012122220124
 30
0.0
 10
365.1957003958577
 20
284.9051566036412
 30
0.0
 10
365.3567479981342
 20
284.9096711421702
 30
0.0
 10
365.5175468430926
 20
284.9147550472839
 30
0.0
 10
365.6780674943891
 20
284.9204074298032
 30
0.0
 10
365.8382805717052
 20
284.9266273020123
 30
0.0
 10
365.9981567567277
 20
284.9334135780254
 30
0.0
 10
366.1576667991256
 20
284.9407650741937
 30
0.0
 10
366.316781522524
 20
284.9486805095543
 30
0.0
 10
366.4754718304742
 20
284.957158506321
 30
0.0
 10
366.6337087124218
 20
284.9661975904194
 30
0.0
 10
366.7914632496692
 20
284.9757961920652
 30
0.0
 10
366.9487066213358
 20
284.9859526463904
 30
0.0
 10
367.1054101103142
 20
284.9966651941152
 30
0.0
 10
367.2615451092228
 20
285.0079319822703
 30
0.0
 10
367.4170831263544
 20
285.0197510649686
 30
0.0
 10
367.5719957916216
 20
285.0321204042311
 30
0.0
 10
367.7262548624981
 20
285.0450378708663
 30
0.0
 10
367.8798322299564
 20
285.0585012454077
 30
0.0
 10
368.0326999244026
 20
285.0725082191107
 30
0.0
 10
368.1848301216078
 20
285.0870563950117
 30
0.0
 10
368.336195148636
 20
285.1021432890528
 30
0.0
 10
368.4867674897686
 20
285.1177663312757
 30
0.0
 10
368.636519792428
 20
285.1339228670876
 30
0.0
 10
368.7854248730957
 20
285.1506101586035
 30
0.0
 10
368.9334557232307
 20
285.1678253860692
 30
0.0
 10
369.0805855151839
 20
285.1855656493699
 30
0.0
 10
369.2267876081112
 20
285.2038279696297
 30
0.0
 10
369.3720355538836
 20
285.2226092909058
 30
0.0
 10
369.5163031029974
 20
285.241906481987
 30
0.0
 10
369.6595642104795
 20
285.2617163383002
 30
0.0
 10
369.8017930417927
 20
285.2820355839327
 30
0.0
 10
369.9429639787379
 20
285.3028608737809
 30
0.0
 10
370.0830516253527
 20
285.3241887958298
 30
0.0
 10
370.2220308138076
 20
285.346015873577
 30
0.0
 10
370.359876610296
 20
285.3683385686086
 30
0.0
 10
370.4965643209197
 20
285.391153283342
 30
0.0
 10
370.6320694975648
 20
285.4144563639421
 30
0.0
 10
370.7663679437696
 20
285.4382441034321
 30
0.0
 10
370.8994357205775
 20
285.4625127450079
 30
0.0
 10
371.0312491523732
 20
285.4872584855747
 30
0.0
 10
371.1617848326991
 20
285.5124774795238
 30
0.0
 10
371.2910196300414
 20
285.5381658427681
 30
0.0
 10
371.4189306935838
 20
285.5643196570583
 30
0.0
 10
371.5454954589168
 20
285.5909349746015
 30
0.0
 10
371.6706916536921
 20
285.6180078230089
 30
0.0
 10
371.7944973032107
 20
285.6455342105982
 30
0.0
 10
371.9168907359263
 20
285.6735101320814
 30
0.0
 10
372.0378505888467
 20
285.7019315746688
 30
0.0
 10
372.1573558128091
 20
285.7307945246243
 30
0.0
 10
372.2753856776015
 20
285.7600949743089
 30
0.0
 10
372.3919197768965
 20
285.7898289297516
 30
0.0
 10
372.5069380329574
 20
285.8199924187908
 30
0.0
 10
372.6204207010686
 20
285.8505814998296
 30
0.0
 10
372.7323483736329
 20
285.8815922712542
 30
0.0
 10
372.8427019838668
 20
285.9130208815623
 30
0.0
 10
372.9514628090115
 20
285.9448635402538
 30
0.0
 10
373.0586124729633
 20
285.9771165295338
 30
0.0
 10
373.164132948206
 20
286.0097762168789
 30
0.0
 10
373.2680065569094
 20
286.0428390685158
 30
0.0
 10
373.3702159710267
 20
286.0763016638545
 30
0.0
 10
373.4707442112007
 20
286.1101607109144
 30
0.0
 10
373.5695746442449
 20
286.1444130627684
 30
0.0
 10
373.6666909789313
 20
286.1790557350113
 30
0.0
 10
373.7620772597588
 20
286.214085924241
 30
0.0
 10
373.8557178583291
 20
286.2495010275015
 30
0.0
 10
373.9475974618802
 20
286.2852986625994
 30
0.0
 10
374.0377010584616
 20
286.3214766891402
 30
0.0
 10
374.1260139181382
 20
286.3580332300572
 30
0.0
 10
374.2125215695221
 20
286.3949666933022
 30
0.0
 10
374.297209770816
 20
286.4322757932337
 30
0.0
 10
374.3800644744369
 20
286.4699595710682
 30
0.0
 10
374.4610717841667
 20
286.5080174135431
 30
0.0
 10
374.5402179036495
 20
286.5464490686647
 30
0.0
 10
374.6174890749443
 20
286.5852546570713
 30
0.0
 10
374.6928715057495
 20
286.6244346771182
 30
0.0
 10
374.7663512838737
 20
286.6639900012756
 30
0.0
 10
374.8379142775682
 20
286.703921860816
 30
0.0
 10
374.9075460204959
 20
286.7442318150518
 30
0.0
 10
374.9752315804823
 20
286.7849217005751
 30
0.0
 10
375.0409554118266
 20
286.8259935550898
 30
0.0
 10
375.1047011919911
 20
286.8674495095592
 30
0.0
 10
375.166451645055
 20
286.9092916416589
 30
0.0
 10
375.2261883565699
 20
286.9515217830728
 30
0.0
 10
375.2838915875255
 20
286.9941412732992
 30
0.0
 10
375.3395386983696
 20
287.0371495710438
 30
0.0
 10
375.3931050016693
 20
287.0805444081577
 30
0.0
 10
375.4445640190503
 20
287.1243215105085
 30
0.0
 10
375.4938886937842
 20
287.1684751932631
 30
0.0
 10
375.5410506964853
 20
287.2129972597896
 30
0.0
 10
375.5860204700281
 20
287.2578762979991
 30
0.0
 10
375.628767726717
 20
287.3030972511667
 30
0.0
 10
375.6692621526471
 20
287.3486411110452
 30
0.0
 10
375.7074743146133
 20
287.3944847996474
 30
0.0
 10
375.7433767338235
 20
287.4406013017079
 30
0.0
 10
375.7769450541614
 20
287.4869600916015
 30
0.0
 10
375.8081591982659
 20
287.5335278656786
 30
0.0
 10
375.8370043812332
 20
287.5802695472591
 30
0.0
 10
375.8634718510009
 20
287.6271494854002
 30
0.0
 10
375.8875592425565
 20
287.6741327316197
 30
0.0
 10
375.9092705008478
 20
287.7211862617595
 30
0.0
 10
375.9286153131276
 20
287.7682800190512
 30
0.0
 10
375.9456083291146
 20
287.8153876869289
 30
0.0
 10
375.9602674711341
 20
287.8624871483071
 30
0.0
 10
375.9726144227245
 20
287.9095606348746
 30
0.0
 10
375.9826664991585
 20
287.9565946192055
 30
0.0
 10
375.9904603183265
 20
288.0035794896102
 30
0.0
 10
375.995958306498
 20
288.0505091831088
 30
0.0
 10
375.9993686725159
 20
288.0970908051389
 30
0.0
 10
375.9997765508316
 20
288.1280352332085
 30
0.0
 10
375.9999783088585
 20
288.1433419717895
 30
0.0
  0
LINE
  5
7C
330
1F
100
AcDbEntity
  8
0
  6
Continuous
 62
     7
370
    30
100
AcDbLine
 10
375.9999985266
 20
288.143666618
 30
0.0
 11
375.9999985266
 21
311.3258864489
 31
0.0
  0
LINE
  5
7D
330
1F
100
AcDbEntity
  8
0
  6
Continuous
 62
     7
370
    30
100
AcDbLine
 10
351.9999985266
 20
319.5362559724
 30
0.0
 11
351.9999985266
 21
288.143666618
 31
0.0
  0
SPLINE
  5
7E
330
1F
100
AcDbEntity
  8
0
  6
Continuous
 62
     7
370
    30
100
AcDbSpline
210
0.0
220
0.0
230
1.0
 70
     8
 71
     3
 72
   206
 73
   202
 74
     0
 42
0.000000001
 43
0.00000001
 40
0.0
 40
0.0
 40
0.0
 40
0.0
 40
0.0026859918375994
 40
0.0079873645359614
 40
0.0132809553383604
 40
0.0185654209812805
 40
0.0238402131383704
 40
0.0291050254452674
 40
0.0343597402872774
 40
0.039604384965679
 40
0.0448390960350789
 40
0.0500640906437241
 40
0.0552796437451767
 40
0.060486070152033
 40
0.065683710533072
 40
0.0708729205897739
 40
0.0760540627761572
 40
0.0812275000389192
 40
0.0863935911534652
 40
0.0915526873133584
 40
0.0967051296992553
 40
0.101851247808893
 40
0.1069913583749541
 40
0.1121257647337115
 40
0.1172547565366773
 40
0.1223786097203028
 40
0.1274975866673537
 40
0.1326119365080315
 40
0.13772189552054
 40
0.1428276875997452
 40
0.1479295247699399
 40
0.1530276077231043
 40
0.1581221263688442
 40
0.163213260385207
 40
0.1683011797628776
 40
0.1733860453367406
 40
0.1784680093009968
 40
0.1835472157049995
 40
0.1886238009280256
 40
0.1936978941319947
 40
0.1987696176917358
 40
0.2038390876026898
 40
0.2089064138665598
 40
0.2139717008552256
 40
0.2190350476538898
 40
0.2240965483840337
 40
0.2291562925073416
 40
0.2342143651113063
 40
0.2392708471776792
 40
0.2443258158345611
 40
0.2493793445931627
 40
0.2544315035701828
 40
0.2594823596965694
 40
0.2645319769136958
 40
0.2695804163575744
 40
0.274627736532072
 40
0.2796739934717068
 40
0.2847192408948057
 40
0.2897635303477006
 40
0.2948069113404453
 40
0.2998494314748438
 40
0.304891136565127
 40
0.3099320707518987
 40
0.3149722766098629
 40
0.3200117952497099
 40
0.3250506664145229
 40
0.3300889285713571
 40
0.3351266189979982
 40
0.3401637738655921
 40
0.3452004283172374
 40
0.3502366165429698
 40
0.355272371851372
 40
0.3603077267381212
 40
0.3653427129516928
 40
0.3703773615565309
 40
0.3754117029938155
 40
0.3804457671401337
 40
0.385479583364238
 40
0.390513180582097
 40
0.3955465873104143
 40
0.4005798317187481
 40
0.4056129416806264
 40
0.4106459448234763
 40
0.4156788685778947
 40
0.4207117402261797
 40
0.4257445869503834
 40
0.4307774355058205
 40
0.4358103043502684
 40
0.4408432206340486
 40
0.4458762115817536
 40
0.4509093045398584
 40
0.4559425270249704
 40
0.4609759067725145
 40
0.4660094717862346
 40
0.4710432503884738
 40
0.4760772712715529
 40
0.4811115635503144
 40
0.4861461568161242
 40
0.4911810811923913
 40
0.4962163673918677
 40
0.5012520467759812
 40
0.5062881514162537
 40
0.5113247141582417
 40
0.5163617686880502
 40
0.5213993496017253
 40
0.526437492477864
 40
0.5314762339536135
 40
0.5365156118044034
 40
0.5415556650276943
 40
0.5465964339311351
 40
0.5516379602254377
 40
0.5566802871222746
 40
0.5617234594378172
 40
0.5667675237020731
 40
0.5718125282746562
 40
0.5768585234674647
 40
0.5819055616746919
 40
0.5869536975107715
 40
0.5920029879569744
 40
0.5970534925169508
 40
0.6021052733823102
 40
0.6071583956085617
 40
0.612212927302426
 40
0.6172689398211474
 40
0.6223265079846958
 40
0.6273857103017153
 40
0.6324466292101542
 40
0.6375093513334115
 40
0.6425739677530274
 40
0.6476405742989102
 40
0.6527092718579988
 40
0.6577801667023604
 40
0.6628533708376461
 40
0.667929002372667
 40
0.6730071859109606
 40
0.6780880529647129
 40
0.6831717423915677
 40
0.6882584008541796
 40
0.6933481833021021
 40
0.6984412534750437
 40
0.7035377844257421
 40
0.7086379590595404
 40
0.713741970686902
 40
0.7188500235828825
 40
0.7239623335459288
 40
0.7290791284455062
 40
0.7342006487444399
 40
0.7393271479776973
 40
0.7444588931636681
 40
0.7495961651167918
 40
0.7547392586214992
 40
0.7598884824161264
 40
0.765044158920874
 40
0.7702066236260747
 40
0.7753762240340383
 40
0.7805533180193652
 40
0.7857382714368434
 40
0.7909314547618732
 40
0.7961332384934001
 40
0.80134398698234
 40
0.8065640502668826
 40
0.8117937533990389
 40
0.8170333826330562
 40
0.8222831677172086
 40
0.8275432593910748
 40
0.8328137010503774
 40
0.8380943934200394
 40
0.8433850510081949
 40
0.8486851491516153
 40
0.8539938606885399
 40
0.8593099818231827
 40
0.8646318477259685
 40
0.8699572400178828
 40
0.8752826692431762
 40
0.8806037620619637
 40
0.8859158102544256
 40
0.8912132450906722
 40
0.8964896673575572
 40
0.90173795369258
 40
0.9069504512880506
 40
0.9121192614087684
 40
0.917236595675665
 40
0.9222951717848566
 40
0.9272886028191613
 40
0.9322117316040944
 40
0.9370608705148391
 40
0.9418339251512685
 40
0.9465304014591596
 40
0.9511513138519349
 40
0.9556990226155551
 40
0.9601770316057412
 40
0.9645897737960859
 40
0.9689424054694071
 40
0.9732406223434659
 40
0.9774905043469362
 40
0.9816983908269208
 40
0.9858707847225696
 40
0.9900142823820643
 40
0.9941355248329067
 40
0.9982411660710742
 40
1.0
 40
1.0
 40
1.0
 40
1.0
 10
374.7949626897848
 20
321.1568870232067
 30
0.0
 10
374.7824905962735
 20
321.164239042673
 30
0.0
 10
374.7454021896721
 20
321.1861018267411
 30
0.0
 10
374.682269493159
 20
321.2220538084174
 30
0.0
 10
374.6049260349123
 20
321.2645477259869
 30
0.0
 10
374.5257403637541
 20
321.3064596664368
 30
0.0
 10
374.4447709693274
 20
321.3478071967324
 30
0.0
 10
374.3620295968483
 20
321.3885978968363
 30
0.0
 10
374.2775371006488
 20
321.4288423179671
 30
0.0
 10
374.1913097116283
 20
321.4685498393808
 30
0.0
 10
374.1033631919104
 20
321.5077295413706
 30
0.0
 10
374.0137121411996
 20
321.5463898144505
 30
0.0
 10
373.9223705344721
 20
321.5845383658403
 30
0.0
 10
373.8293518730537
 20
321.6221821653188
 30
0.0
 10
373.7346693884443
 20
321.6593274412847
 30
0.0
 10
373.638336188483
 20
321.6959796882211
 30
0.0
 10
373.5403653818753
 20
321.7321436887343
 30
0.0
 10
373.4407701773092
 20
321.7678235437664
 30
0.0
 10
373.3395639632992
 20
321.803022708473
 30
0.0
 10
373.23676037153
 20
321.8377440312692
 30
0.0
 10
373.1323733267099
 20
321.8719897943772
 30
0.0
 10
373.0264170852834
 20
321.9057617546216
 30
0.0
 10
372.9189062650137
 20
321.9390611836006
 30
0.0
 10
372.8098558670872
 20
321.971888906632
 30
0.0
 10
372.6992812921148
 20
322.0042453400755
 30
0.0
 10
372.5871983511598
 20
322.036130526791
 30
0.0
 10
372.4736232727223
 20
322.0675441696002
 30
0.0
 10
372.3585727064478
 20
322.0984856627025
 30
0.0
 10
372.2420637241847
 20
322.128954121051
 30
0.0
 10
372.1241138189069
 20
322.1589484077382
 30
0.0
 10
372.0047409019227
 20
322.1884671594638
 30
0.0
 10
371.8839632987122
 20
322.2175088101765
 30
0.0
 10
371.7617997436797
 20
322.2460716129918
 30
0.0
 10
371.6382693740446
 20
322.2741536604894
 30
0.0
 10
371.5133917230633
 20
322.3017529034993
 30
0.0
 10
371.3871867127312
 20
322.328867168481
 30
0.0
 10
371.2596746460915
 20
322.3554941735967
 30
0.0
 10
371.1308761992477
 20
322.3816315435773
 30
0.0
 10
371.0008124131641
 20
322.4072768234721
 30
0.0
 10
370.8695046853173
 20
322.4324274913693
 30
0.0
 10
370.7369747612533
 20
322.4570809701672
 30
0.0
 10
370.6032447260891
 20
322.4812346384726
 30
0.0
 10
370.4683369959944
 20
322.5048858406933
 30
0.0
 10
370.3322743096773
 20
322.5280318963916
 30
0.0
 10
370.1950797198963
 20
322.5506701089556
 30
0.0
 10
370.0567765850116
 20
322.5727977736434
 30
0.0
 10
369.917388560589
 20
322.5944121850501
 30
0.0
 10
369.7769395910645
 20
322.6155106440422
 30
0.0
 10
369.6354539014741
 20
322.6360904642027
 30
0.0
 10
369.4929559892545
 20
322.6561489778234
 30
0.0
 10
369.3494706161156
 20
322.6756835414807
 30
0.0
 10
369.2050227999874
 20
322.6946915412258
 30
0.0
 10
369.0596378070373
 20
322.7131703974196
 30
0.0
 10
368.9133411437629
 20
322.7311175692369
 30
0.0
 10
368.7661585491522
 20
322.7485305588673
 30
0.0
 10
368.6181159869143
 20
322.7654069154325
 30
0.0
 10
368.4692396377754
 20
322.781744238641
 30
0.0
 10
368.3195558918379
 20
322.7975401821995
 30
0.0
 10
368.1690913410011
 20
322.8127924569972
 30
0.0
 10
368.0178727714393
 20
322.8274988340791
 30
0.0
 10
367.8659271561336
 20
322.8416571474215
 30
0.0
 10
367.7132816474576
 20
322.8552652965237
 30
0.0
 10
367.5599635698103
 20
322.8683212488273
 30
0.0
 10
367.406000412295
 20
322.8808230419739
 30
0.0
 10
367.251419821443
 20
322.8927687859112
 30
0.0
 10
367.096249593975
 20
322.9041566648559
 30
0.0
 10
366.9405176696034
 20
322.9149849391227
 30
0.0
 10
366.7842521238666
 20
322.925251946827
 30
0.0
 10
366.6274811609985
 20
322.9349561054656
 30
0.0
 10
366.470233106827
 20
322.9440959133859
 30
0.0
 10
366.3125364017005
 20
322.9526699511454
 30
0.0
 10
366.1544195934416
 20
322.9606768827693
 30
0.0
 10
365.9959113303232
 20
322.9681154569094
 30
0.0
 10
365.8370403540671
 20
322.9749845079093
 30
0.0
 10
365.677835492863
 20
322.9812829567794
 30
0.0
 10
365.5183256544055
 20
322.9870098120859
 30
0.0
 10
365.3585398189474
 20
322.992164170756
 30
0.0
 10
365.1985070323684
 20
322.9967452188021
 30
0.0
 10
365.0382563992568
 20
323.000752231969
 30
0.0
 10
364.8778170760038
 20
323.0041845763043
 30
0.0
 10
364.7172182639073
 20
323.0070417086553
 30
0.0
 10
364.5564892022859
 20
323.0093231770929
 30
0.0
 10
364.3956591616
 20
323.0110286212663
 30
0.0
 10
364.2347574365795
 20
323.0121577726861
 30
0.0
 10
364.0738133393567
 20
323.0127104549394
 30
0.0
 10
363.9128561965932
 20
323.0126865838383
 30
0.0
 10
363.7519154310081
 20
323.0120861679068
 30
0.0
 10
363.591020462196
 20
323.0109093095397
 30
0.0
 10
363.4302006956946
 20
323.0091562048855
 30
0.0
 10
363.2694854279583
 20
323.0068271418992
 30
0.0
 10
363.1089039318673
 20
323.0039225005035
 30
0.0
 10
362.9484854498679
 20
323.0004427523386
 30
0.0
 10
362.7882591871039
 20
322.9963884604419
 30
0.0
 10
362.6282543045446
 20
322.9917602788588
 30
0.0
 10
362.4684999121044
 20
322.9865589521808
 30
0.0
 10
362.3090250617562
 20
322.9807853150124
 30
0.0
 10
362.149858740634
 20
322.9744402913623
 30
0.0
 10
361.9910298641252
 20
322.9675248939586
 30
0.0
 10
361.8325672689505
 20
322.9600402234852
 30
0.0
 10
361.6744997062296
 20
322.9519874677368
 30
0.0
 10
361.516855834532
 20
322.9433679006897
 30
0.0
 10
361.359664212909
 20
322.9341828814844
 30
0.0
 10
361.2029532939083
 20
322.924433853318
 30
0.0
 10
361.0467514165655
 20
322.914122342241
 30
0.0
 10
360.8910867993745
 20
322.9032499558539
 30
0.0
 10
360.7359875332309
 20
322.8918183819009
 30
0.0
 10
360.5814815743485
 20
322.8798293867516
 30
0.0
 10
360.4275967371462
 20
322.8672848137692
 30
0.0
 10
360.274360687102
 20
322.8541865815549
 30
0.0
 10
360.1218009335719
 20
322.8405366820633
 30
0.0
 10
359.9699448225718
 20
322.8263371785813
 30
0.0
 10
359.818819529518
 20
322.8115902035605
 30
0.0
 10
359.6684520519242
 20
322.7962979562955
 30
0.0
 10
359.5188692020529
 20
322.7804627004353
 30
0.0
 10
359.3700975995153
 20
322.7640867613201
 30
0.0
 10
359.2221636638196
 20
322.747172523128
 30
0.0
 10
359.0750936068617
 20
322.7297224258191
 30
0.0
 10
358.9289134253567
 20
322.711738961864
 30
0.0
 10
358.7836488932071
 20
322.6932246727368
 30
0.0
 10
358.6393255538035
 20
322.6741821451588
 30
0.0
 10
358.4959687122566
 20
322.6546140070707
 30
0.0
 10
358.353603427555
 20
322.6345229233131
 30
0.0
 10
358.2122545046465
 20
322.6139115909913
 30
0.0
 10
358.0719464864418
 20
322.5927827344998
 30
0.0
 10
357.9327036457368
 20
322.571139100177
 30
0.0
 10
357.7945499770503
 20
322.5489834505594
 30
0.0
 10
357.6575091883812
 20
322.5263185582026
 30
0.0
 10
357.5216046928793
 20
322.5031471990304
 30
0.0
 10
357.3868596004367
 20
322.4794721451711
 30
0.0
 10
357.253296709198
 20
322.455296157238
 30
0.0
 10
357.1209384969978
 20
322.4306219760024
 30
0.0
 10
356.9898071127307
 20
322.4054523134066
 30
0.0
 10
356.8599243676667
 20
322.3797898428576
 30
0.0
 10
356.7313117267242
 20
322.3536371887366
 30
0.0
 10
356.6039902997213
 20
322.3269969150529
 30
0.0
 10
356.4779808326301
 20
322.2998715131655
 30
0.0
 10
356.3533036988661
 20
322.2722633884882
 30
0.0
 10
356.2299788906541
 20
322.2441748460842
 30
0.0
 10
356.1080260105207
 20
322.2156080750532
 30
0.0
 10
355.9874642629813
 20
322.1865651316004
 30
0.0
 10
355.8683124464984
 20
322.1570479206727
 30
0.0
 10
355.7505889458141
 20
322.1270581760357
 30
0.0
 10
355.6343117247791
 20
322.0965974386591
 30
0.0
 10
355.5194983198322
 20
322.0656670332704
 30
0.0
 10
355.4061658343167
 20
322.0342680429293
 30
0.0
 10
355.2943309338656
 20
322.002401281472
 30
0.0
 10
355.1840098431384
 20
321.970067263674
 30
0.0
 10
355.0752183442562
 20
321.9372661729813
 30
0.0
 10
354.9679717773582
 20
321.9039978266724
 30
0.0
 10
354.8622850437999
 20
321.8702616383302
 30
0.0
 10
354.7581726126222
 20
321.8360565775341
 30
0.0
 10
354.6556485310656
 20
321.8013811267311
 30
0.0
 10
354.5547264400647
 20
321.766233235318
 30
0.0
 10
354.4554195958655
 20
321.7306102710616
 30
0.0
 10
354.3577408991473
 20
321.6945089691336
 30
0.0
 10
354.2617029333234
 20
321.6579253792295
 30
0.0
 10
354.1673180140368
 20
321.6208548115075
 30
0.0
 10
354.0745982522735
 20
321.583291782444
 30
0.0
 10
353.9835556339815
 20
321.5452299621808
 30
0.0
 10
353.8942021196218
 20
321.5066621255716
 30
0.0
 10
353.8065497676603
 20
321.4675801099509
 30
0.0
 10
353.7206108866435
 20
321.4279747837169
 30
0.0
 10
353.6363982211191
 20
321.3878360311574
 30
0.0
 10
353.5539251772111
 20
321.3471527606269
 30
0.0
 10
353.4732060940014
 20
321.3059129452322
 30
0.0
 10
353.3942565668273
 20
321.2641037075978
 30
0.0
 10
353.3170938278632
 20
321.2217114630207
 30
0.0
 10
353.2417371875154
 20
321.1787221382052
 30
0.0
 10
353.1682085366152
 20
321.1351214854624
 30
0.0
 10
353.0965329034198
 20
321.0908955141309
 30
0.0
 10
353.0267390501185
 20
321.0460310610561
 30
0.0
 10
352.9588600801018
 20
321.0005165187819
 30
0.0
 10
352.8929365737505
 20
320.95434452802
 30
0.0
 10
352.8290171953951
 20
320.9075135950622
 30
0.0
 10
352.7671565562529
 20
320.8600280454986
 30
0.0
 10
352.7074127415786
 20
320.8118974655146
 30
0.0
 10
352.6498464612768
 20
320.7631373396866
 30
0.0
 10
352.5945217341762
 20
320.7137713251825
 30
0.0
 10
352.5415039344335
 20
320.6638316042208
 30
0.0
 10
352.4908572451404
 20
320.6133586029895
 30
0.0
 10
352.442641699265
 20
320.5623999695675
 30
0.0
 10
352.3969101138661
 20
320.5110088147415
 30
0.0
 10
352.353705308798
 20
320.4592413606026
 30
0.0
 10
352.3130580062507
 20
320.4071542735413
 30
0.0
 10
352.2749857163004
 20
320.3548020374569
 30
0.0
 10
352.2394927446329
 20
320.3022347203186
 30
0.0
 10
352.2065712603591
 20
320.2494964021474
 30
0.0
 10
352.1762031916101
 20
320.1966243938902
 30
0.0
 10
352.1483626189854
 20
320.1436492286716
 30
0.0
 10
352.1230183170545
 20
320.0905952892147
 30
0.0
 10
352.1001361642777
 20
320.037481869154
 30
0.0
 10
352.0796811704231
 20
319.9843244518822
 30
0.0
 10
352.061619195943
 20
319.931136015585
 30
0.0
 10
352.0459176916777
 20
319.8779282167601
 30
0.0
 10
352.0325478866702
 20
319.8247123601079
 30
0.0
 10
352.0214797436747
 20
319.7715000884021
 30
0.0
 10
352.0127019625535
 20
319.7183038350596
 30
0.0
 10
352.0061485536707
 20
319.6651368415597
 30
0.0
 10
352.001969825855
 20
319.6120135472694
 30
0.0
 10
351.9999911497032
 20
319.5690144584814
 30
0.0
 10
352.0002048036719
 20
319.5437481862065
 30
0.0
 10
352.0002688813325
 20
319.5361704958474
 30
0.0
  0
SPLINE
  5
7F
330
1F
100
AcDbEntity
  8
0
  6
Continuous
 62
     7
370
    30
100
AcDbSpline
210
0.0
220
0.0
230
1.0
 70
     8
 71
     3
 72
    13
 73
     9
 74
     0
 42
0.000000001
 43
0.00000001
 40
0.0
 40
0.0
 40
0.0
 40
0.0
 40
0.0329830683058653
 40
0.3070854660827331
 40
0.5170486886134437
 40
0.7040970371334511
 40
0.8749439728550534
 40
1.0
 40
1.0
 40
1.0
 40
1.0
 10
376.0000464541864
 20
311.3259047400583
 30
0.0
 10
376.0000310140947
 20
311.3263538832109
 30
0.0
 10
375.9998872607081
 20
311.3305355843511
 30
0.0
 10
376.0004657577521
 20
311.3376826128107
 30
0.0
 10
376.0014669325228
 20
311.3453437672393
 30
0.0
 10
376.002427765801
 20
311.3500706138465
 30
0.0
 10
376.0031104226413
 20
311.3526236248356
 30
0.0
 10
376.0031514440361
 20
311.3527413479481
 30
0.0
 10
376.0031687807082
 20
311.3527911006934
 30
0.0
  0
SPLINE
  5
80
330
1F
100
AcDbEntity
  8
0
  6
Continuous
 62
     7
370
    30
100
AcDbSpline
210
0.0
220
0.0
230
1.0
 70
     8
 71
     3
 72
    56
 73
    52
 74
     0
 42
0.000000001
 43
0.00000001
 40
0.0
 40
0.0
 40
0.0
 40
0.0
 40
0.0115056437436694
 40
0.0333943353204571
 40
0.0552821123699268
 40
0.0771671745228176
 40
0.0990481837471155
 40
0.1209237821042134
 40
0.1427925844906837
 40
0.1646531711856841
 40
0.1865040801087132
 40
0.2083437987218557
 40
0.2301707555082746
 40
0.2519833109552783
 40
0.2737797479667892
 40
0.2955582616264621
 40
0.3173169482287355
 40
0.3390537934915471
 40
0.3607666598610195
 40
0.3824532728156908
 40
0.4041112060766138
 40
0.4257378656296405
 40
0.4473304724689494
 40
0.468886043977154
 40
0.4904013738683346
 40
0.5118730106373094
 40
0.533297234484544
 40
0.5546700327219943
 40
0.5759870737159044
 40
0.5972436794903717
 40
0.6184347972050623
 40
0.6395549698379934
 40
0.6605983065542056
 40
0.6815584534309624
 40
0.702428565447677
 40
0.7232012809398014
 40
0.7438687000685805
 40
0.7644223692796793
 40
0.784853274214021
 40
0.805151844097047
 40
0.8253079712584844
 40
0.8453110501127501
 40
0.8651500406312262
 40
0.8848135620266065
 40
0.9042900229877745
 40
0.9235677952764669
 40
0.942635437733669
 40
0.9614819776263387
 40
0.9800972556778147
 40
0.9972732223842848
 40
1.0
 40
1.0
 40
1.0
 40
1.0
 10
377.7477256114502
 20
320.6833035851145
 30
0.0
 10
377.7328864818064
 20
320.6833188968001
 30
0.0
 10
377.6898169341802
 20
320.6833633379086
 30
0.0
 10
377.6185351209498
 20
320.6838574048716
 30
0.0
 10
377.5339584098099
 20
320.6849666649535
 30
0.0
 10
377.4495361682789
 20
320.6866326146407
 30
0.0
 10
377.365331732694
 20
320.6888441728882
 30
0.0
 10
377.281407322094
 20
320.6916017187853
 30
0.0
 10
377.1978251775632
 20
320.6949018596339
 30
0.0
 10
377.1146473979781
 20
320.6987415016188
 30
0.0
 10
377.0319359614418
 20
320.7031167500177
 30
0.0
 10
376.9497526975325
 20
320.7080231922632
 30
0.0
 10
376.8681592733528
 20
320.7134558084093
 30
0.0
 10
376.7872171765652
 20
320.7194089789408
 30
0.0
 10
376.7069876999509
 20
320.7258764638407
 30
0.0
 10
376.6275319262921
 20
320.7328513863959
 30
0.0
 10
376.5489107138852
 20
320.7403262124585
 30
0.0
 10
376.4711846825545
 20
320.748292727279
 30
0.0
 10
376.3944142001084
 20
320.7567420089297
 30
0.0
 10
376.3186593691083
 20
320.7656643981077
 30
0.0
 10
376.2439800137682
 20
320.7750494638436
 30
0.0
 10
376.1704356667378
 20
320.7848859646455
 30
0.0
 10
376.0980855554332
 20
320.7951618045417
 30
0.0
 10
376.0269885874771
 20
320.8058639834248
 30
0.0
 10
375.957203334686
 20
320.8169785410462
 30
0.0
 10
375.8887880148856
 20
320.82849049394
 30
0.0
 10
375.8218004706528
 20
320.8403837645011
 30
0.0
 10
375.7562981438629
 20
320.8526411013801
 30
0.0
 10
375.6923380446525
 20
320.865243990309
 30
0.0
 10
375.6299767131007
 20
320.8781725544322
 30
0.0
 10
375.5692701715641
 20
320.8914054431999
 30
0.0
 10
375.5102738651766
 20
320.9049197088871
 30
0.0
 10
375.4530425875388
 20
320.9186906698499
 30
0.0
 10
375.3976303880733
 20
320.9326917597325
 30
0.0
 10
375.3440904569111
 20
320.9468943620074
 30
0.0
 10
375.2924749825115
 20
320.961267629493
 30
0.0
 10
375.2428349765306
 20
320.9757782888706
 30
0.0
 10
375.1952200597157
 20
320.9903904307448
 30
0.0
 10
375.1496782020453
 20
321.0050652864521
 30
0.0
 10
375.1062554093614
 20
321.0197609938169
 30
0.0
 10
375.0649953498034
 20
321.0344323547615
 30
0.0
 10
375.0259389078404
 20
321.0490305904952
 30
0.0
 10
374.989123673949
 20
321.0635030961441
 30
0.0
 10
374.9545833053359
 20
321.0777932185032
 30
0.0
 10
374.9223469657159
 20
321.0918400086413
 30
0.0
 10
374.8924380576543
 20
321.105578174727
 30
0.0
 10
374.8648751309935
 20
321.1189374628426
 30
0.0
 10
374.8396643908067
 20
321.1318443645481
 30
0.0
 10
374.8173131737436
 20
321.1439499083677
 30
0.0
 10
374.8029176685951
 20
321.1521827388688
 30
0.0
 10
374.7959212367123
 20
321.1563201735303
 30
0.0
 10
374.7949626898135
 20
321.1568870232089
 30
0.0
  0
SPLINE
  5
81
330
1F
100
AcDbEntity
  8
0
  6
Continuous
 62
     7
370
    30
100
AcDbSpline
210
0.0
220
0.0
230
1.0
 70
     8
 71
     3
 72
    43
 73
    39
 74
     0
 42
0.000000001
 43
0.00000001
 40
0.0
 40
0.0
 40
0.0
 40
0.0
 40
0.0235613487437165
 40
0.0481635713423696
 40
0.072614372774115
 40
0.0969296085831228
 40
0.1211242703053168
 40
0.1452136723058464
 40
0.1692138595988509
 40
0.1931421421962786
 40
0.2170178248554965
 40
0.2408632509074075
 40
0.264705341908396
 40
0.2885778909015937
 40
0.31252493938462
 40
0.3366056042751641
 40
0.3609006832835796
 40
0.3855212416735493
 40
0.4106192101736741
 40
0.4363998447745731
 40
0.4631354800850206
 40
0.4911780396070408
 40
0.5209596942140446
 40
0.5529439318968699
 40
0.5874226051251278
 40
0.6240285737011575
 40
0.6611338503120815
 40
0.6970304490656746
 40
0.7313711705724647
 40
0.7643435952673582
 40
0.796236333952163
 40
0.8273021686869858
 40
0.857740297286475
 40
0.8877058314531339
 40
0.9173217918022897
 40
0.9466888298360506
 40
0.9758925182357004
 40
1.0
 40
1.0
 40
1.0
 40
1.0
 10
392.9999985265501
 20
320.053894062563
 30
0.0
 10
392.9998056354663
 20
320.0647756381406
 30
0.0
 10
392.9994113319152
 20
320.0870195065775
 30
0.0
 10
392.9961731497971
 20
320.1204173502488
 30
0.0
 10
392.990919835624
 20
320.1538699549902
 30
0.0
 10
392.9835778359073
 20
320.1867044516039
 30
0.0
 10
392.9742714193471
 20
320.2188096993316
 30
0.0
 10
392.9630658699569
 20
320.2500814001508
 30
0.0
 10
392.9500494690665
 20
320.2804229122582
 30
0.0
 10
392.9353110308194
 20
320.3097459878663
 30
0.0
 10
392.9189449723397
 20
320.3379716998151
 30
0.0
 10
392.9010485613944
 20
320.3650317024371
 30
0.0
 10
392.8817203840145
 20
320.3908699213499
 30
0.0
 10
392.8610570735095
 20
320.4154447662056
 30
0.0
 10
392.8391483595253
 20
320.4387318779004
 30
0.0
 10
392.8160695704595
 20
320.460727264755
 30
0.0
 10
392.7918709961983
 20
320.4814504542533
 30
0.0
 10
392.7665636636246
 20
320.5009470547407
 30
0.0
 10
392.7401013983424
 20
320.5192899802545
 30
0.0
 10
392.7123593818171
 20
320.5365785600449
 30
0.0
 10
392.6831101691099
 20
320.5529345669329
 30
0.0
 10
392.6520014646634
 20
320.5684929882067
 30
0.0
 10
392.6185532380279
 20
320.5833812460552
 30
0.0
 10
392.5822314743994
 20
320.5976720228
 30
0.0
 10
392.5427122653028
 20
320.6112970142819
 30
0.0
 10
392.5004029200804
 20
320.6239594844465
 30
0.0
 10
392.4565259721216
 20
320.6352784496066
 30
0.0
 10
392.4124632562053
 20
320.6450496928965
 30
0.0
 10
392.3690321581489
 20
320.6533205034406
 30
0.0
 10
392.3262991649629
 20
320.6602869622583
 30
0.0
 10
392.2840875188552
 20
320.6661358410593
 30
0.0
 10
392.2422069054194
 20
320.6710065050623
 30
0.0
 10
392.200515664853
 20
320.6749961171295
 30
0.0
 10
392.1589225672353
 20
320.6781695538156
 30
0.0
 10
392.1173758423025
 20
320.6805759606032
 30
0.0
 10
392.0758526162747
 20
320.6822293007467
 30
0.0
 10
392.0367192534492
 20
320.683151984183
 30
0.0
 10
392.0114330353157
 20
320.6832563779286
 30
0.0
 10
391.9999985265501
 20
320.6833035851145
 30
0.0
  0
LINE
  5
82
330
1F
100
AcDbEntity
  8
0
  6
Continuous
 62
     7
370
    30
100
AcDbLine
 10
391.9999985266
 20
320.6833035851
 30
0.0
 11
377.7477256115
 21
320.6833035851
 31
0.0
  0
SPLINE
  5
83
330
1F
100
AcDbEntity
  8
0
  6
Continuous
 62
     7
370
    30
100
AcDbSpline
210
0.0
220
0.0
230
1.0
 70
     8
 71
     3
 72
    32
 73
    28
 74
     0
 42
0.000000001
 43
0.00000001
 40
0.0
 40
0.0
 40
0.0
 40
0.0
 40
0.0021217421109964
 40
0.0279537046378868
 40
0.0533234153921957
 40
0.0749412126190002
 40
0.0996494272841463
 40
0.1281376363759474
 40
0.1751658915745658
 40
0.2237411135617148
 40
0.2709227131844885
 40
0.3167171022932038
 40
0.3612179118224221
 40
0.3987822013563514
 40
0.4354416947324085
 40
0.4687704449297771
 40
0.4970691888607902
 40
0.5232085081934335
 40
0.5540437191818103
 40
0.589800514430198
 40
0.6303622230574643
 40
0.6764993563154902
 40
0.7293256736172565
 40
0.7885388376437591
 40
0.8537395107849756
 40
0.924429104642846
 40
1.0
 40
1.0
 40
1.0
 40
1.0
 10
375.9999985265501
 20
311.3013591354943
 30
0.0
 10
376.0004950757589
 20
311.3017885276171
 30
0.0
 10
376.0070370536214
 20
311.3074457187122
 30
0.0
 10
376.01975259949
 20
311.3181386002112
 30
0.0
 10
376.0372449310798
 20
311.3326912920118
 30
0.0
 10
376.0547481498371
 20
311.3469543817086
 30
0.0
 10
376.0734550458545
 20
311.3619199150739
 30
0.0
 10
376.0990156070604
 20
311.3819019593539
 30
0.0
 10
376.1315565467785
 20
311.4064903111952
 30
0.0
 10
376.1698007710636
 20
311.4340889103777
 30
0.0
 10
376.2084229742978
 20
311.4606355189006
 30
0.0
 10
376.2466131938275
 20
311.4855980436627
 30
0.0
 10
376.2827074404868
 20
311.5079957931737
 30
0.0
 10
376.3166681356047
 20
311.5280367085706
 30
0.0
 10
376.3477912119287
 20
311.5455403405285
 30
0.0
 10
376.3764951109299
 20
311.56092616469
 30
0.0
 10
376.4021815974842
 20
311.5740942874359
 30
0.0
 10
376.4270552518922
 20
311.5863386488073
 30
0.0
 10
376.4546091011783
 20
311.5993084989204
 30
0.0
 10
376.4869284582866
 20
311.6136887757671
 30
0.0
 10
376.5245684616913
 20
311.6293046214341
 30
0.0
 10
376.5681880762409
 20
311.6458783193202
 30
0.0
 10
376.6183935260306
 20
311.6629077335429
 30
0.0
 10
376.67576956976
 20
311.6796773075922
 30
0.0
 10
376.740336332363
 20
311.6949142972089
 30
0.0
 10
376.8118441429267
 20
311.7077325172158
 30
0.0
 10
376.8627265636331
 20
311.7120473902305
 30
0.0
 10
376.8890168496246
 20
311.7142768290818
 30
0.0
  0
SPLINE
  5
84
330
1F
100
AcDbEntity
  8
0
  6
Continuous
 62
     7
370
    30
100
AcDbSpline
210
0.0
220
0.0
230
1.0
 70
     8
 71
     3
 72
    34
 73
    30
 74
     0
 42
0.000000001
 43
0.00000001
 40
0.0
 40
0.0
 40
0.0
 40
0.0
 40
0.0424274726188346
 40
0.0787588121479723
 40
0.1086856022603583
 40
0.1320178703683312
 40
0.1523878423833363
 40
0.1827897345147623
 40
0.2175555564453543
 40
0.2545092372219064
 40
0.3118144470681524
 40
0.3614757039976847
 40
0.4092493933447243
 40
0.4665687533047042
 40
0.5037983900694455
 40
0.5442966533566848
 40
0.5862600752349872
 40
0.6235670172224759
 40
0.6556936550562084
 40
0.6826267398724267
 40
0.7082137943497475
 40
0.7471832609368191
 40
0.7958050333857852
 40
0.8426226423991892
 40
0.867676720413835
 40
0.8904953177395877
 40
0.9177761440658473
 40
0.9542853858781243
 40
1.0
 40
1.0
 40
1.0
 40
1.0
 10
392.4829522870693
 20
311.7401003043652
 30
0.0
 10
392.4940253950895
 20
311.7402958123551
 30
0.0
 10
392.5145805868232
 20
311.7406587370381
 30
0.0
 10
392.542882180539
 20
311.743300241024
 30
0.0
 10
392.5661792162215
 20
311.7465531530416
 30
0.0
 10
392.58540046135
 20
311.7500529732797
 30
0.0
 10
392.6047698064016
 20
311.7542543620343
 30
0.0
 10
392.6268404872262
 20
311.7599625904027
 30
0.0
 10
392.6527907916681
 20
311.7680873344315
 30
0.0
 10
392.6848913541118
 20
311.7801291136946
 30
0.0
 10
392.7195753909683
 20
311.7961115775145
 30
0.0
 10
392.7551172156713
 20
311.8161954393153
 30
0.0
 10
392.7890630769884
 20
311.8388844408232
 30
0.0
 10
392.8188327216865
 20
311.862475011011
 30
0.0
 10
392.845384619325
 20
311.8869048448211
 30
0.0
 10
392.8676170656455
 20
311.9099927206346
 30
0.0
 10
392.8883563991296
 20
311.9345125526526
 30
0.0
 10
392.9062049101919
 20
311.9584865314312
 30
0.0
 10
392.920503413531
 20
311.9800531365055
 30
0.0
 10
392.932177320301
 20
311.9995765932402
 30
0.0
 10
392.9439106651757
 20
312.021194379599
 30
0.0
 10
392.9570447772954
 20
312.0486516085801
 30
0.0
 10
392.9703482845084
 20
312.0822783238946
 30
0.0
 10
392.9799546418054
 20
312.1132430777802
 30
0.0
 10
392.9860903923108
 20
312.1379502058906
 30
0.0
 10
392.9902091372742
 20
312.1577296847431
 30
0.0
 10
392.9940212814797
 20
312.1806976584774
 30
0.0
 10
392.9975011323051
 20
312.209952070995
 30
0.0
 10
392.9982369291312
 20
312.2320475675931
 30
0.0
 10
392.9986460156134
 20
312.2443321666226
 30
0.0
  0
LINE
  5
85
330
1F
100
AcDbEntity
  8
0
  6
Continuous
 62
     7
370
    30
100
AcDbLine
 10
377.7477256115
 20
311.7401000113
 30
0.0
 11
392.4827570858
 21
311.7401000113
 31
0.0
  0
SPLINE
  5
86
330
1F
100
AcDbEntity
  8
0
  6
Continuous
 62
     7
370
    30
100
AcDbSpline
210
0.0
220
0.0
230
1.0
 70
     8
 71
     3
 72
    18
 73
    14
 74
     0
 42
0.000000001
 43
0.00000001
 40
0.0
 40
0.0
 40
0.0
 40
0.0
 40
0.0532039958107695
 40
0.1542295400849775
 40
0.2553261935242793
 40
0.356504738237036
 40
0.4577543303389141
 40
0.5590644504983734
 40
0.6604248485982721
 40
0.7618254987554878
 40
0.8632565556401377
 40
0.9647083118560832
 40
1.0
 40
1.0
 40
1.0
 40
1.0
 10
376.8891179766642
 20
311.7142311363318
 30
0.0
 10
376.9040469701606
 20
311.7151287378479
 30
0.0
 10
376.9473236407524
 20
311.7177307354404
 30
0.0
 10
377.0193650782002
 20
311.7216458916849
 30
0.0
 10
377.1053719154992
 20
311.7258046345239
 30
0.0
 10
377.1918531630225
 20
311.7294376254597
 30
0.0
 10
377.2787420624592
 20
311.7325495893999
 30
0.0
 10
377.3659778046749
 20
311.7351346002501
 30
0.0
 10
377.4534962189003
 20
311.7371897187991
 30
0.0
 10
377.5412341352093
 20
311.7387141934769
 30
0.0
 10
377.6291275482951
 20
311.7396992449156
 30
0.0
 10
377.6979844050589
 20
311.7400674144472
 30
0.0
 10
377.7375215844104
 20
311.7400933242841
 30
0.0
 10
377.7477256114502
 20
311.7401000112729
 30
0.0
  0
ARC
  5
87
330
1F
100
AcDbEntity
  8
0
  6
Continuous
 62
     7
370
    30
100
AcDbCircle
 10
364.0
 20
364.1553444623
 30
0.0
 40
12.0
100
AcDbArc
 50
0.0
 51
180.0
  0
LWPOLYLINE
  5
88
330
1F
100
AcDbEntity
  8
0
  6
Continuous
 62
     7
370
    30
100
AcDbPolyline
 90
       67
 70
   128
 43
0.0
 10
364.0
 20
323.6080103399
 10
363.6858766203
 20
323.60694605
 10
363.3719685251
 20
323.6037539098
 10
363.0584908513
 20
323.598436107
 10
362.7456584408
 20
323.5909962862
 10
362.4336856934
 20
323.5814395462
 10
362.1227864195
 20
323.5697724367
 10
361.8131736941
 20
323.5560029539
 10
361.5050597102
 20
323.5401405345
 10
361.1986556337
 20
323.5221960501
 10
360.8941714588
 20
323.5021817987
 10
360.5918158636
 20
323.4801114971
 10
360.2917960675
 20
323.4560002713
 10
359.9943176892
 20
323.4298646458
 10
359.6995846055
 20
323.4017225328
 10
359.4077988116
 20
323.3715932194
 10
359.1191602831
 20
323.3394973547
 10
358.8338668383
 20
323.3054569357
 10
358.5521140031
 20
323.2694952919
 10
358.2740948769
 20
323.2316370697
 10
358.0
 20
323.1919082152
 10
357.7300172234
 20
323.1503359565
 10
357.4643315798
 20
323.1069487853
 10
357.2031251569
 20
323.0617764369
 10
356.9465769725
 20
323.0148498701
 10
356.6948628519
 20
322.9662012462
 10
356.4481553074
 20
322.9158639064
 10
356.20662342
 20
322.8638723495
 10
355.9704327237
 20
322.8102622079
 10
355.7397450917
 20
322.7550702232
 10
355.5147186258
 20
322.6983342214
 10
355.2955075479
 20
322.6400930863
 10
355.0822620943
 20
322.5803867337
 10
354.8751284128
 20
322.5192560832
 10
354.6742484625
 20
322.4567430308
 10
354.4797599165
 20
322.3928904197
 10
354.2917960675
 20
322.3277420113
 10
354.1104857365
 20
322.2613424552
 10
353.9359531847
 20
322.1937372583
 10
353.7683180278
 20
322.1249727537
 10
353.6076951546
 20
322.0550960693
 10
353.4541946481
 20
321.984155095
 10
353.3079217097
 20
321.9121984502
 10
353.1689765878
 20
321.8392754504
 10
353.0374545083
 20
321.7654360735
 10
352.9134456099
 20
321.6907309251
 10
352.797034882
 20
321.6152112046
 10
352.6883021069
 20
321.5389286693
 10
352.5873218045
 20
321.4619355995
 10
352.4941631816
 20
321.3842847624
 10
352.4088900845
 20
321.3060293759
 10
352.3315609552
 20
321.2272230725
 10
352.2622287912
 20
321.147919862
 10
352.2009411092
 20
321.0681740949
 10
352.1477399129
 20
320.988040425
 10
352.1026616635
 20
320.9075737718
 10
352.0657372556
 20
320.8268292832
 10
352.0369919952
 20
320.7458622975
 10
352.0164455829
 20
320.6647283053
 10
352.0041121003
 20
320.5834829118
 10
352.0
 20
320.5021817986
 10
352.0041121003
 20
320.4208806855
 10
352.0164455829
 20
320.339635292
 10
352.0369919952
 20
320.2585012998
 10
352.0657372556
 20
320.1775343141
 10
352.1026616635
 20
320.0967898255
 10
352.115311339
 20
320.0726532541
  0
LWPOLYLINE
  5
89
330
1F
100
AcDbEntity
  8
0
  6
Continuous
 62
     7
370
    30
100
AcDbPolyline
 90
       58
 70
   128
 43
0.0
 10
375.9367255329
 20
320.8207063031
 10
375.9342627444
 20
320.8268292832
 10
375.8973383365
 20
320.9075737718
 10
375.8522600871
 20
320.988040425
 10
375.7990588908
 20
321.068174095
 10
375.7377712088
 20
321.147919862
 10
375.6684390448
 20
321.2272230725
 10
375.5911099155
 20
321.3060293759
 10
375.5058368184
 20
321.3842847624
 10
375.4126781955
 20
321.4619355995
 10
375.3116978931
 20
321.5389286693
 10
375.202965118
 20
321.6152112046
 10
375.0865543901
 20
321.6907309251
 10
374.9625454917
 20
321.7654360735
 10
374.8310234122
 20
321.8392754504
 10
374.6920782903
 20
321.9121984502
 10
374.5458053519
 20
321.984155095
 10
374.3923048454
 20
322.0550960693
 10
374.2316819722
 20
322.1249727537
 10
374.0640468153
 20
322.1937372583
 10
373.8895142635
 20
322.2613424552
 10
373.7082039325
 20
322.3277420113
 10
373.5202400835
 20
322.3928904197
 10
373.3257515375
 20
322.4567430308
 10
373.1248715872
 20
322.5192560832
 10
372.9177379057
 20
322.5803867337
 10
372.7044924521
 20
322.6400930863
 10
372.4852813742
 20
322.6983342214
 10
372.2602549083
 20
322.7550702232
 10
372.0295672763
 20
322.8102622079
 10
371.79337658
 20
322.8638723495
 10
371.5518446926
 20
322.9158639064
 10
371.3051371481
 20
322.9662012462
 10
371.0534230275
 20
323.0148498701
 10
370.7968748431
 20
323.0617764369
 10
370.5356684202
 20
323.1069487853
 10
370.2699827766
 20
323.1503359565
 10
370.0
 20
323.1919082152
 10
369.7259051231
 20
323.2316370697
 10
369.4478859969
 20
323.2694952919
 10
369.1661331617
 20
323.3054569357
 10
368.8808397169
 20
323.3394973547
 10
368.5922011884
 20
323.3715932194
 10
368.3004153945
 20
323.4017225328
 10
368.0056823108
 20
323.4298646458
 10
367.7082039325
 20
323.4560002713
 10
367.4081841364
 20
323.4801114971
 10
367.1058285412
 20
323.5021817987
 10
366.8013443663
 20
323.5221960501
 10
366.4949402898
 20
323.5401405345
 10
366.1868263059
 20
323.5560029539
 10
365.8772135805
 20
323.5697724367
 10
365.5663143066
 20
323.5814395462
 10
365.2543415592
 20
323.5909962862
 10
364.9415091487
 20
323.598436107
 10
364.6280314749
 20
323.6037539098
 10
364.3141233797
 20
323.60694605
 10
364.0
 20
323.6080103399
  0
LINE
  5
8A
330
1F
100
AcDbEntity
  8
0
  6
Continuous
 62
     7
370
    30
100
AcDbLine
 10
351.9999987769
 20
288.1443010498
 30
0.0
 11
351.9999985266
 21
288.143666618
 31
0.0
  0
LINE
  5
8B
330
1F
100
AcDbEntity
  8
0
  6
Continuous
 62
     7
370
    30
100
AcDbLine
 10
392.9999985266
 20
320.0538940626
 30
0.0
 11
392.9999985266
 21
313.2924132785
 31
0.0
  0
LINE
  5
8C
330
1F
100
AcDbEntity
  8
0
  6
Continuous
 62
     7
370
    30
100
AcDbLine
 10
392.9999985266
 20
312.2571370981
 30
0.0
 11
392.9999985266
 21
313.2924132785
 31
0.0
  0
LINE
  5
8D
330
1F
100
AcDbEntity
  8
0
  6
Continuous
 62
     7
370
    30
100
AcDbLine
 10
392.4830043454
 20
311.7404977926
 30
0.0
 11
392.4827570858
 21
311.7404517245
 31
0.0
  0
ARC
  5
8E
330
1F
100
AcDbEntity
  8
0
  6
Continuous
 62
     7
370
    30
100
AcDbCircle
 10
364.0
 20
364.1553444623
 30
0.0
 40
30.00000000000002
100
AcDbArc
 50
0.0
 51
246.4218215218
  0
ARC
  5
8F
330
1F
100
AcDbEntity
  8
0
  6
Continuous
 62
     7
370
    30
100
AcDbCircle
 10
364.0
 20
364.1553444623
 30
0.0
 40
30.00000000000002
100
AcDbArc
 50
293.5781784782
 51
0.0
  0
ARC
  5
90
330
1F
100
AcDbEntity
  8
0
  6
Continuous
 62
     7
370
    30
100
AcDbCircle
 10
609.6492769537
 20
324.1553455113
 30
0.0
 40
27.99999934292498
100
AcDbArc
 50
14.999998374
 51
90.0021248148
  0
ARC
  5
91
330
1F
100
AcDbEntity
  8
0
  6
Continuous
 62
     7
370
    30
100
AcDbCircle
 10
609.6492769537
 20
324.1553455113
 30
0.0
 40
51.99999970033761
100
AcDbArc
 50
14.9999991244
 51
90.001144131
  0
LINE
  5
92
330
1F
100
AcDbEntity
  8
0
  6
Continuous
 62
     7
370
    30
100
AcDbLine
 10
609.6482385733
 20
376.1553444623
 30
0.0
 11
486.1492761589
 21
376.1553444623
 31
0.0
  0
LINE
  5
93
330
1F
100
AcDbEntity
  8
0
  6
Continuous
 62
     7
370
    30
100
AcDbLine
 10
486.1492761589
 20
352.1553444623
 30
0.0
 11
609.6482385733
 21
352.1553444623
 31
0.0
  0
LINE
  5
94
330
1F
100
AcDbEntity
  8
0
  6
Continuous
 62
     7
370
    30
100
AcDbLine
 10
663.63029528
 20
323.6080103399
 30
0.0
 11
659.877419126
 21
337.6139348211
 31
0.0
  0
LINE
  5
95
330
1F
100
AcDbEntity
  8
0
  6
Continuous
 62
     7
370
    30
100
AcDbLine
 10
636.695199295
 20
331.4022777386
 30
0.0
 11
640.448075449
 21
317.3963532574
 31
0.0
  0
ARC
  5
96
330
1F
100
AcDbEntity
  8
0
  6
Continuous
 62
     7
370
    30
100
AcDbCircle
 10
672.1075481256
 20
291.1977313502
 30
0.0
 40
0.2000000000010476
100
AcDbArc
 50
285.0000000001
 51
15.0
  0
ARC
  5
97
330
1F
100
AcDbEntity
  8
0
  6
Continuous
 62
     7
370
    30
100
AcDbCircle
 10
649.3116986252
 20
285.0896018858
 30
0.0
 40
0.2000000000010329
100
AcDbArc
 50
195.0
 51
285.0
  0
LINE
  5
98
330
1F
100
AcDbEntity
  8
0
  6
Continuous
 62
     7
370
    30
100
AcDbLine
 10
672.3007332909
 20
291.2494951592
 30
0.0
 11
663.889114325
 21
322.6420845136
 31
0.0
  0
LINE
  5
99
330
1F
100
AcDbEntity
  8
0
  6
Continuous
 62
     7
370
    30
100
AcDbLine
 10
640.7068944941
 20
316.4304274311
 30
0.0
 11
649.1185134599
 21
285.0378380767
 31
0.0
  0
ARC
  5
9A
330
1F
100
AcDbEntity
  8
0
  6
Continuous
 62
     7
370
    30
100
AcDbCircle
 10
663.4061514119
 20
322.512674991
 30
0.0
 40
0.5000000000000594
100
AcDbArc
 50
15.0
 51
105.0
  0
ARC
  5
9B
330
1F
100
AcDbEntity
  8
0
  6
Continuous
 62
     7
370
    30
100
AcDbCircle
 10
641.1898574072
 20
316.5598369537
 30
0.0
 40
0.500000000000074
100
AcDbArc
 50
105.0
 51
195.0
  0
LINE
  5
9C
330
1F
100
AcDbEntity
  8
0
  6
Continuous
 62
     7
370
    30
100
AcDbLine
 10
662.2812776274
 20
322.7289040591
 30
0.0
 11
662.1518681049
 21
323.2118669722
 31
0.0
  0
LINE
  5
9D
330
1F
100
AcDbEntity
  8
0
  6
Continuous
 62
     7
370
    30
100
AcDbLine
 10
641.926502624
 20
317.792496625
 30
0.0
 11
642.0559121466
 21
317.3095337119
 31
0.0
  0
LINE
  5
9E
330
1F
100
AcDbEntity
  8
0
  6
Continuous
 62
     7
370
    30
100
AcDbLine
 10
485.1492761589
 20
394.1553444623
 30
0.0
 11
478.1492761589
 21
394.1553444623
 31
0.0
  0
LINE
  5
9F
330
1F
100
AcDbEntity
  8
0
  6
Continuous
 62
     7
370
    30
100
AcDbLine
 10
478.1492761589
 20
334.1553444623
 30
0.0
 11
485.1492761589
 21
334.1553444623
 31
0.0
  0
ARC
  5
A0
330
1F
100
AcDbEntity
  8
0
  6
Continuous
 62
     7
370
    30
100
AcDbCircle
 10
485.1492761589
 20
393.1553444623
 30
0.0
 40
1.0
100
AcDbArc
 50
0.0
 51
90.0
  0
ARC
  5
A1
330
1F
100
AcDbEntity
  8
0
  6
Continuous
 62
     7
370
    30
100
AcDbCircle
 10
485.1492761589
 20
335.1553444623
 30
0.0
 40
1.0
100
AcDbArc
 50
270.0
 51
0.0
  0
LINE
  5
A2
330
1F
100
AcDbEntity
  8
0
  6
Continuous
 62
     7
370
    30
100
AcDbLine
 10
663.63029528
 20
323.6080103399
 30
0.0
 11
640.448075449
 21
317.3963532574
 31
0.0
  0
LINE
  5
A3
330
1F
100
AcDbEntity
  8
0
  6
Continuous
 62
     7
370
    30
100
AcDbLine
 10
672.1593119346
 20
291.0045461849
 30
0.0
 11
649.3634624342
 21
284.8964167205
 31
0.0
  0
LINE
  5
A4
330
1F
100
AcDbEntity
  8
0
  6
Continuous
 62
     7
370
    30
100
AcDbLine
 10
663.2767418893
 20
322.9956379042
 30
0.0
 11
641.0604478847
 21
317.0427998668
 31
0.0
  0
LINE
  5
A5
330
1F
100
AcDbEntity
  8
0
  6
Continuous
 62
     7
370
    30
100
AcDbLine
 10
478.1492761589
 20
394.1553444623
 30
0.0
 11
478.1492761589
 21
334.1553444623
 31
0.0
  0
LINE
  5
A6
330
1F
100
AcDbEntity
  8
0
  6
Continuous
 62
     7
370
    30
100
AcDbLine
 10
486.1492761589
 20
393.1553444623
 30
0.0
 11
486.1492761589
 21
335.1553444623
 31
0.0
  0
LINE
  5
A7
330
1F
100
AcDbEntity
  8
0
  6
Continuous
 62
     7
370
    30
100
AcDbLine
 10
112.3517614267
 20
352.1553444623
 30
0.0
 11
235.8507238411
 21
352.1553444623
 31
0.0
  0
LINE
  5
A8
330
1F
100
AcDbEntity
  8
0
  6
Continuous
 62
     7
370
    30
100
AcDbLine
 10
235.8507238411
 20
376.1553444623
 30
0.0
 11
112.3517614267
 21
376.1553444623
 31
0.0
  0
ARC
  5
A9
330
1F
100
AcDbEntity
  8
0
  6
Continuous
 62
     7
370
    30
100
AcDbCircle
 10
112.3507230463
 20
324.1553455113
 30
0.0
 40
27.99999934292498
100
AcDbArc
 50
89.9978751852
 51
165.000001626
  0
ARC
  5
AA
330
1F
100
AcDbEntity
  8
0
  6
Continuous
 62
     7
370
    30
100
AcDbCircle
 10
112.3507230463
 20
324.1553455113
 30
0.0
 40
51.99999970033771
100
AcDbArc
 50
89.998855869
 51
165.0000008756
  0
LINE
  5
AB
330
1F
100
AcDbEntity
  8
0
  6
Continuous
 62
     7
370
    30
100
AcDbLine
 10
81.551924551
 20
317.3963532574
 30
0.0
 11
85.304800705
 21
331.4022777386
 31
0.0
  0
LINE
  5
AC
330
1F
100
AcDbEntity
  8
0
  6
Continuous
 62
     7
370
    30
100
AcDbLine
 10
62.122580874
 20
337.6139348211
 30
0.0
 11
58.36970472
 21
323.6080103399
 31
0.0
  0
SPLINE
  5
AD
330
1F
100
AcDbEntity
  8
0
  6
Continuous
 62
     7
370
    30
100
AcDbSpline
210
0.0
220
0.0
230
1.0
 70
     8
 71
     3
 72
    21
 73
    17
 74
     0
 42
0.000000001
 43
0.00000001
 40
0.0
 40
0.0
 40
0.0
 40
0.0
 40
0.0359666553145695
 40
0.0797427459797237
 40
0.1322779146164624
 40
0.1934535289586225
 40
0.2564588046899546
 40
0.3194946542455224
 40
0.3825611194700725
 40
0.4456580041888422
 40
0.5298306209920525
 40
0.6146235538733613
 40
0.703728393126477
 40
0.7977720605586803
 40
0.896616468291982
 40
1.0
 40
1.0
 40
1.0
 40
1.0
 10
65.23619125126781
 20
313.2512308551482
 30
0.0
 10
65.23861600281441
 20
313.2473523297243
 30
0.0
 10
65.24399199190634
 20
313.2387531351386
 30
0.0
 10
65.25529817064738
 20
313.2215620713131
 30
0.0
 10
65.2698380946676
 20
313.20038228599
 30
0.0
 10
65.28756519830475
 20
313.1759270632553
 30
0.0
 10
65.30717135125272
 20
313.1506321753081
 30
0.0
 10
65.32789224051278
 20
313.1256108435654
 30
0.0
 10
65.34950680860125
 20
313.1011774271705
 30
0.0
 10
65.37450752854282
 20
313.0747124917816
 30
0.0
 10
65.40332434528389
 20
313.0464571611776
 30
0.0
 10
65.4368713623536
 20
313.0163617493739
 30
0.0
 10
65.47357864965733
 20
312.9862085654617
 30
0.0
 10
65.51405097507119
 20
312.9561385901507
 30
0.0
 10
65.55826138822628
 20
312.926433479179
 30
0.0
 10
65.58975694127645
 20
312.9084017762859
 30
0.0
 10
65.6058581858247
 20
312.8991835587986
 30
0.0
  0
SPLINE
  5
AE
330
1F
100
AcDbEntity
  8
0
  6
Continuous
 62
     7
370
    30
100
AcDbSpline
210
0.0
220
0.0
230
1.0
 70
     8
 71
     3
 72
    15
 73
    11
 74
     0
 42
0.000000001
 43
0.00000001
 40
0.0
 40
0.0
 40
0.0
 40
0.0
 40
0.1498002617478413
 40
0.2713158923057196
 40
0.3682290720035852
 40
0.4445364890207988
 40
0.5380095355795507
 40
0.663220190698781
 40
0.8180161482388388
 40
1.0
 40
1.0
 40
1.0
 40
1.0
 10
70.86333674051096
 20
312.3294849713177
 30
0.0
 10
70.86687830099231
 20
312.3375307320593
 30
0.0
 10
70.87329271997226
 20
312.3521030881383
 30
0.0
 10
70.88104959912214
 20
312.3713278889779
 30
0.0
 10
70.88683090880646
 20
312.3863068478213
 30
0.0
 10
70.89147563144383
 20
312.3987791385503
 30
0.0
 10
70.89674138177935
 20
312.4135529742696
 30
0.0
 10
70.903148184903
 20
312.4326351284229
 30
0.0
 10
70.9105062301856
 20
312.4561687840749
 30
0.0
 10
70.91501363475261
 20
312.472471537201
 30
0.0
 10
70.91744927614765
 20
312.4812809661699
 30
0.0
  0
SPLINE
  5
AF
330
1F
100
AcDbEntity
  8
0
  6
Continuous
 62
     7
370
    30
100
AcDbSpline
210
0.0
220
0.0
230
1.0
 70
     8
 71
     3
 72
    27
 73
    23
 74
     0
 42
0.000000001
 43
0.00000001
 40
0.0
 40
0.0
 40
0.0
 40
0.0
 40
0.0441262552029417
 40
0.0807452917586974
 40
0.1103599010001383
 40
0.1339360486257764
 40
0.1440423192862649
 40
0.1665250506751001
 40
0.1912600718408659
 40
0.2192314344673567
 40
0.2567188541995049
 40
0.2994087310370488
 40
0.3828939670136521
 40
0.4711905437510062
 40
0.5694382160382601
 40
0.6713549103728663
 40
0.7655557086234104
 40
0.8297261768254964
 40
0.888360067192147
 40
0.9159919435494606
 40
0.9435163351859369
 40
1.0
 40
1.0
 40
1.0
 40
1.0
 10
69.9308204797108
 20
311.7403139108318
 30
0.0
 10
69.93746641221402
 20
311.7402653512157
 30
0.0
 10
69.9496276018848
 20
311.7401764934518
 30
0.0
 10
69.9677260136222
 20
311.7408771839295
 30
0.0
 10
69.9834291127617
 20
311.7417276795433
 30
0.0
 10
69.99515587359964
 20
311.7423935978251
 30
0.0
 10
70.00546497219275
 20
311.7428807436285
 30
0.0
 10
70.01426659942017
 20
311.7430473804679
 30
0.0
 10
70.0266531750512
 20
311.7436602129301
 30
0.0
 10
70.0421516146412
 20
311.7447565722108
 30
0.0
 10
70.06119773336921
 20
311.7465453702401
 30
0.0
 10
70.09044312033436
 20
311.7500429447963
 30
0.0
 10
70.1286587260701
 20
311.7559901313182
 30
0.0
 10
70.17606527494056
 20
311.7656172556574
 30
0.0
 10
70.22588724812134
 20
311.7783653943771
 30
0.0
 10
70.2756423024512
 20
311.7939655920144
 30
0.0
 10
70.31862142133447
 20
311.8099422836926
 30
0.0
 10
70.35361560660117
 20
311.8246252906556
 30
0.0
 10
70.37760128081777
 20
311.8356317340054
 30
0.0
 10
70.39516293465334
 20
311.8441380381748
 30
0.0
 10
70.41105557199481
 20
311.8519785954658
 30
0.0
 10
70.42057810887628
 20
311.8569909846001
 30
0.0
 10
70.42698068267839
 20
311.8603611150346
 30
0.0
  0
LINE
  5
B0
330
1F
100
AcDbEntity
  8
0
  6
Continuous
 62
     7
370
    30
100
AcDbLine
 10
72.8814865401
 20
285.0378380767
 30
0.0
 11
81.2931055059
 21
316.4304274311
 31
0.0
  0
LINE
  5
B1
330
1F
100
AcDbEntity
  8
0
  6
Continuous
 62
     7
370
    30
100
AcDbLine
 10
58.110885675
 20
322.6420845136
 30
0.0
 11
49.6992667091
 21
291.2494951592
 31
0.0
  0
ARC
  5
B2
330
1F
100
AcDbEntity
  8
0
  6
Continuous
 62
     7
370
    30
100
AcDbCircle
 10
72.6883013748
 20
285.0896018858
 30
0.0
 40
0.2000000000010255
100
AcDbArc
 50
255.0
 51
345.0
  0
ARC
  5
B3
330
1F
100
AcDbEntity
  8
0
  6
Continuous
 62
     7
370
    30
100
AcDbCircle
 10
49.8924518744
 20
291.1977313502
 30
0.0
 40
0.2000000000009927
100
AcDbArc
 50
165.0
 51
255.0
  0
ARC
  5
B4
330
1F
100
AcDbEntity
  8
0
  6
Continuous
 62
     7
370
    30
100
AcDbCircle
 10
80.8101425928
 20
316.5598369537
 30
0.0
 40
0.5000000000000265
100
AcDbArc
 50
345.0
 51
75.0
  0
ARC
  5
B5
330
1F
100
AcDbEntity
  8
0
  6
Continuous
 62
     7
370
    30
100
AcDbCircle
 10
58.5938485881
 20
322.512674991
 30
0.0
 40
0.5000000000000044
100
AcDbArc
 50
75.0
 51
165.0
  0
LINE
  5
B6
330
1F
100
AcDbEntity
  8
0
  6
Continuous
 62
     7
370
    30
100
AcDbLine
 10
79.9440878534
 20
317.3095337119
 30
0.0
 11
80.073497376
 21
317.792496625
 31
0.0
  0
LINE
  5
B7
330
1F
100
AcDbEntity
  8
0
  6
Continuous
 62
     7
370
    30
100
AcDbLine
 10
59.8481318951
 20
323.2118669722
 30
0.0
 11
59.7187223726
 21
322.7289040591
 31
0.0
  0
LINE
  5
B8
330
1F
100
AcDbEntity
  8
0
  6
Continuous
 62
     7
370
    30
100
AcDbLine
 10
236.8507238411
 20
334.1553444623
 30
0.0
 11
243.8507238411
 21
334.1553444623
 31
0.0
  0
LINE
  5
B9
330
1F
100
AcDbEntity
  8
0
  6
Continuous
 62
     7
370
    30
100
AcDbLine
 10
243.8507238411
 20
394.1553444623
 30
0.0
 11
236.8507238411
 21
394.1553444623
 31
0.0
  0
ARC
  5
BA
330
1F
100
AcDbEntity
  8
0
  6
Continuous
 62
     7
370
    30
100
AcDbCircle
 10
236.8507238411
 20
335.1553444623
 30
0.0
 40
1.0
100
AcDbArc
 50
180.0
 51
270.0
  0
ARC
  5
BB
330
1F
100
AcDbEntity
  8
0
  6
Continuous
 62
     7
370
    30
100
AcDbCircle
 10
236.8507238411
 20
393.1553444623
 30
0.0
 40
1.0
100
AcDbArc
 50
90.0
 51
180.0
  0
LINE
  5
BC
330
1F
100
AcDbEntity
  8
0
  6
Continuous
 62
     7
370
    30
100
AcDbLine
 10
81.551924551
 20
317.3963532574
 30
0.0
 11
58.36970472
 21
323.6080103399
 31
0.0
  0
LINE
  5
BD
330
1F
100
AcDbEntity
  8
0
  6
Continuous
 62
     7
370
    30
100
AcDbLine
 10
72.5997730693
 20
318.759798837
 30
0.0
 11
70.9174492761
 21
312.4812809662
 31
0.0
  0
LINE
  5
BE
330
1F
100
AcDbEntity
  8
0
  6
Continuous
 62
     7
370
    30
100
AcDbLine
 10
69.6927044048
 20
311.774174185
 30
0.0
 11
65.8290010996
 21
312.8094503654
 31
0.0
  0
SPLINE
  5
BF
330
1F
100
AcDbEntity
  8
0
  6
Continuous
 62
     7
370
    30
100
AcDbSpline
210
0.0
220
0.0
230
1.0
 70
     8
 71
     3
 72
     9
 73
     5
 74
     0
 42
0.000000001
 43
0.00000001
 40
0.0
 40
0.0
 40
0.0
 40
0.0
 40
0.7235777063978548
 40
1.0
 40
1.0
 40
1.0
 40
1.0
 10
65.82900109959999
 20
312.8094503653959
 30
0.0
 10
65.7662437142838
 20
312.8281453440718
 30
0.0
 10
65.67951165391037
 20
312.853982207909
 30
0.0
 10
65.60550223925135
 20
312.9028419606203
 30
0.0
 10
65.5850443871032
 20
312.9163478855297
 30
0.0
  0
SPLINE
  5
C0
330
1F
100
AcDbEntity
  8
0
  6
Continuous
 62
     7
370
    30
100
AcDbSpline
210
0.0
220
0.0
230
1.0
 70
     8
 71
     3
 72
    12
 73
     8
 74
     0
 42
0.000000001
 43
0.00000001
 40
0.0
 40
0.0
 40
0.0
 40
0.0
 40
0.0749061663020289
 40
0.2467076779491215
 40
0.4580624688375248
 40
0.7091350618245686
 40
0.9999999999999999
 40
0.9999999999999999
 40
0.9999999999999999
 40
0.9999999999999999
 10
65.24056939556321
 20
313.2446519357109
 30
0.0
 10
65.22957431417709
 20
313.2628076448378
 30
0.0
 10
65.19336139431292
 20
313.3226044955023
 30
0.0
 10
65.14154604380629
 20
313.4397397410668
 30
0.0
 10
65.09612345881469
 20
313.6081144842356
 30
0.0
 10
65.07844333839388
 20
313.8139561741926
 30
0.0
 10
65.10671861098935
 20
313.9572744498255
 30
0.0
 10
65.12189431841406
 20
314.0341952367878
 30
0.0
  0
SPLINE
  5
C1
330
1F
100
AcDbEntity
  8
0
  6
Continuous
 62
     7
370
    30
100
AcDbSpline
210
0.0
220
0.0
230
1.0
 70
     8
 71
     3
 72
    11
 73
     7
 74
     0
 42
0.000000001
 43
0.00000001
 40
0.0
 40
0.0
 40
0.0
 40
0.0
 40
0.2742021334207927
 40
0.5500544178974368
 40
0.8278733138899849
 40
1.0
 40
1.0
 40
1.0
 40
1.0
 10
69.6927044047558
 20
311.774174184984
 30
0.0
 10
69.71473889380728
 20
311.7687221139285
 30
0.0
 10
69.75894047567563
 20
311.7577851612019
 30
0.0
 10
69.82660489008694
 20
311.747323312222
 30
0.0
 10
69.88625199295772
 20
311.7413058689721
 30
0.0
 10
69.9232077026836
 20
311.740914848195
 30
0.0
 10
69.93734510974117
 20
311.7407652631935
 30
0.0
  0
SPLINE
  5
C2
330
1F
100
AcDbEntity
  8
0
  6
Continuous
 62
     7
370
    30
100
AcDbSpline
210
0.0
220
0.0
230
1.0
 70
     8
 71
     3
 72
    25
 73
    21
 74
     0
 42
0.000000001
 43
0.00000001
 40
0.0
 40
0.0
 40
0.0
 40
0.0
 40
0.0906094046203912
 40
0.1636469079314651
 40
0.2393978946270255
 40
0.3178774784314181
 40
0.3990992451860755
 40
0.483075445165689
 40
0.5698171569994741
 40
0.6593344279107977
 40
0.6765989736999979
 40
0.6946337866795361
 40
0.7134389548018757
 40
0.7330145554924781
 40
0.7533606572376962
 40
0.7744773208833262
 40
0.7963646007047349
 40
0.8605251036064588
 40
0.9305136115324567
 40
1.0
 40
1.0
 40
1.0
 40
1.0
 10
70.42097763571198
 20
311.8573787140526
 30
0.0
 10
70.43929219929373
 20
311.8674411152231
 30
0.0
 10
70.47236957920622
 20
311.8856145139428
 30
0.0
 10
70.51813445625851
 20
311.9156471488332
 30
0.0
 10
70.56000912152774
 20
311.9459406760605
 30
0.0
 10
70.60141555334611
 20
311.9794382224707
 30
0.0
 10
70.64213439934814
 20
312.0161596696659
 30
0.0
 10
70.6818548766767
 20
312.0562100416193
 30
0.0
 10
70.72026444171836
 20
312.099640287238
 30
0.0
 10
70.7467614810125
 20
312.1334055477216
 30
0.0
 10
70.7630141341715
 20
312.1556956384372
 30
0.0
 10
70.76993785242003
 20
312.1654284291986
 30
0.0
 10
70.77702608652778
 20
312.1756541695926
 30
0.0
 10
70.78426227212825
 20
312.1863816909487
 30
0.0
 10
70.79162944350296
 20
312.1976199450162
 30
0.0
 10
70.79910858100772
 20
312.2093783216813
 30
0.0
 10
70.81147248937295
 20
312.2294293218046
 30
0.0
 10
70.82857002986884
 20
312.2591132404265
 30
0.0
 10
70.8493895303175
 20
312.2986267330256
 30
0.0
 10
70.86170888593912
 20
312.3265504623028
 30
0.0
 10
70.8678463884756
 20
312.3404620632445
 30
0.0
  0
LINE
  5
C3
330
1F
100
AcDbEntity
  8
0
  6
Continuous
 62
     7
370
    30
100
AcDbLine
 10
66.8042181116
 20
320.3127131077
 30
0.0
 11
65.1218943184
 21
314.0341952368
 31
0.0
  0
LINE
  5
C4
330
1F
100
AcDbEntity
  8
0
  6
Continuous
 62
     7
370
    30
100
AcDbLine
 10
72.2462196787
 20
319.3721712727
 30
0.0
 11
71.7632567656
 21
319.5015807953
 31
0.0
  0
ARC
  5
C5
330
1F
100
AcDbEntity
  8
0
  6
Continuous
 62
     7
370
    30
100
AcDbCircle
 10
72.1168101562
 20
318.8892083596
 30
0.0
 40
0.500000000000074
100
AcDbArc
 50
345.0
 51
75.0
  0
LINE
  5
C6
330
1F
100
AcDbEntity
  8
0
  6
Continuous
 62
     7
370
    30
100
AcDbLine
 10
71.7632567656
 20
319.5015807953
 30
0.0
 11
67.8995534604
 21
320.5368569757
 31
0.0
  0
ARC
  5
C7
330
1F
100
AcDbEntity
  8
0
  6
Continuous
 62
     7
370
    30
100
AcDbCircle
 10
67.2871810247
 20
320.1833035851
 30
0.0
 40
0.5000000000000476
100
AcDbArc
 50
75.0
 51
165.0
  0
LINE
  5
C8
330
1F
100
AcDbEntity
  8
0
  6
Continuous
 62
     7
370
    30
100
AcDbLine
 10
67.8995534604
 20
320.5368569757
 30
0.0
 11
67.4165905473
 21
320.6662664983
 31
0.0
  0
LINE
  5
C9
330
1F
100
AcDbEntity
  8
0
  6
Continuous
 62
     7
370
    30
100
AcDbLine
 10
69.6927044048
 20
311.774174185
 30
0.0
 11
69.7962048593
 21
311.7464413218
 31
0.0
  0
LINE
  5
CA
330
1F
100
AcDbEntity
  8
0
  6
Continuous
 62
     7
370
    30
100
AcDbLine
 10
74.2746639139
 20
318.828651278
 30
0.0
 11
72.2462196787
 21
319.3721712727
 31
0.0
  0
LINE
  5
CB
330
1F
100
AcDbEntity
  8
0
  6
Continuous
 62
     7
370
    30
100
AcDbLine
 10
67.4165905473
 20
320.6662664983
 30
0.0
 11
65.3881463121
 21
321.209786493
 31
0.0
  0
LINE
  5
CC
330
1F
100
AcDbEntity
  8
0
  6
Continuous
 62
     7
370
    30
100
AcDbLine
 10
72.6365375658
 20
284.8964167205
 30
0.0
 11
49.8406880654
 21
291.0045461849
 31
0.0
  0
LINE
  5
CD
330
1F
100
AcDbEntity
  8
0
  6
Continuous
 62
     7
370
    30
100
AcDbLine
 10
65.3881463121
 20
321.209786493
 30
0.0
 11
58.7232581107
 21
322.9956379042
 31
0.0
  0
LINE
  5
CE
330
1F
100
AcDbEntity
  8
0
  6
Continuous
 62
     7
370
    30
100
AcDbLine
 10
80.9395521153
 20
317.0427998668
 30
0.0
 11
74.2746639139
 21
318.828651278
 31
0.0
  0
LINE
  5
CF
330
1F
100
AcDbEntity
  8
0
  6
Continuous
 62
     7
370
    30
100
AcDbLine
 10
243.8507238411
 20
364.1553444623
 30
0.0
 11
243.8507238411
 21
394.1553444623
 31
0.0
  0
LINE
  5
D0
330
1F
100
AcDbEntity
  8
0
  6
Continuous
 62
     7
370
    30
100
AcDbLine
 10
243.8507238411
 20
334.1553444623
 30
0.0
 11
243.8507238411
 21
364.1553444623
 31
0.0
  0
LINE
  5
D1
330
1F
100
AcDbEntity
  8
0
  6
Continuous
 62
     7
370
    30
100
AcDbLine
 10
235.8507238411
 20
364.1553444623
 30
0.0
 11
235.8507238411
 21
393.1553444623
 31
0.0
  0
LINE
  5
D2
330
1F
100
AcDbEntity
  8
0
  6
Continuous
 62
     7
370
    30
100
AcDbLine
 10
235.8507238411
 20
335.1553444623
 30
0.0
 11
235.8507238411
 21
364.1553444623
 31
0.0
  0
LINE
  5
D3
330
1F
100
AcDbEntity
  8
0
  6
Continuous
 62
     7
370
    30
100
AcDbLine
 10
376.0
 20
60.7136902782
 30
0.0
 11
376.0
 21
99.3517614267
 31
0.0
  0
LINE
  5
D4
330
1F
100
AcDbEntity
  8
0
  6
Continuous
 62
     7
370
    30
100
AcDbLine
 10
352.0
 20
99.3517614267
 30
0.0
 11
352.0
 21
60.7136902383
 31
0.0
  0
LINE
  5
D5
330
1F
100
AcDbEntity
  8
0
  6
Continuous
 62
     7
370
    30
100
AcDbLine
 10
376.0
 20
99.3517614267
 30
0.0
 11
376.0
 21
222.8507238411
 31
0.0
  0
LINE
  5
D6
330
1F
100
AcDbEntity
  8
0
  6
Continuous
 62
     7
370
    30
100
AcDbLine
 10
352.0
 20
222.8507238411
 30
0.0
 11
352.0
 21
99.3517614267
 31
0.0
  0
LINE
  5
D7
330
1F
100
AcDbEntity
  8
0
  6
Continuous
 62
     7
370
    30
100
AcDbLine
 10
376.0
 20
56.9608146355
 30
0.0
 11
376.0
 21
60.7136907895
 31
0.0
  0
LINE
  5
D8
330
1F
100
AcDbEntity
  8
0
  6
Continuous
 62
     7
370
    30
100
AcDbLine
 10
352.0
 20
60.7136907895
 30
0.0
 11
352.0
 21
56.9608146355
 31
0.0
  0
LINE
  5
D9
330
1F
100
AcDbEntity
  8
0
  6
Continuous
 62
     7
370
    30
100
AcDbLine
 10
375.9999985266
 20
48.2903766246
 30
0.0
 11
375.9999985266
 21
51.4295633679
 31
0.0
  0
LINE
  5
DA
330
1F
100
AcDbEntity
  8
0
  6
Continuous
 62
     7
370
    30
100
AcDbLine
 10
351.9999985266
 20
56.7019955905
 30
0.0
 11
351.9999985266
 21
48.2903766246
 31
0.0
  0
SPLINE
  5
DB
330
1F
100
AcDbEntity
  8
0
  6
Continuous
 62
     7
370
    30
100
AcDbSpline
210
0.0
220
0.0
230
1.0
 70
     8
 71
     3
 72
    41
 73
    37
 74
     0
 42
0.000000001
 43
0.00000001
 40
0.0
 40
0.0
 40
0.0
 40
0.0
 40
0.0225304055960711
 40
0.0522873874393709
 40
0.0820430627480924
 40
0.1117982342353676
 40
0.1415547895085972
 40
0.1713145961563217
 40
0.2010794823459895
 40
0.230851218143814
 40
0.260631497704884
 40
0.2904219225600413
 40
0.3202239862065588
 40
0.3500390601939886
 40
0.3798683818702377
 40
0.4097130439264861
 40
0.4395739858434645
 40
0.4694519873114715
 40
0.4993476636502091
 40
0.529261463219561
 40
0.5591936667662483
 40
0.5891443886143848
 40
0.6191135795687643
 40
0.6491010313663809
 40
0.6791063824874544
 40
0.7091291251160976
 40
0.7391686130323756
 40
0.7692240702169051
 40
0.799294599957899
 40
0.8293791942688481
 40
0.8594767434520512
 40
0.8895860456752367
 40
0.9197058164671158
 40
0.9498346980773484
 40
0.9799712686869643
 40
1.0
 40
1.0
 40
1.0
 40
1.0
 10
392.9999985265501
 20
58.63384724302816
 30
0.0
 10
392.9998744975465
 20
58.64549596028156
 30
0.0
 10
392.9995866575189
 20
58.67252969429949
 30
0.0
 10
392.9969409127446
 20
58.71488711402385
 30
0.0
 10
392.9920033387136
 20
58.76079162104027
 30
0.0
 10
392.9848441108302
 20
58.80641114917397
 30
0.0
 10
392.9755264205504
 20
58.85164549520024
 30
0.0
 10
392.9640586045778
 20
58.89639631345357
 30
0.0
 10
392.9504693923146
 20
58.94056623953815
 30
0.0
 10
392.934787692491
 20
58.98405920164983
 30
0.0
 10
392.9170479389678
 20
59.02678056090262
 30
0.0
 10
392.8972885816062
 20
59.0686372957651
 30
0.0
 10
392.8755524086982
 20
59.10953817348354
 30
0.0
 10
392.8518863722492
 20
59.14939392423462
 30
0.0
 10
392.8263415396418
 20
59.18811741408976
 30
0.0
 10
392.7989730037703
 20
59.22562381798378
 30
0.0
 10
392.7698397958318
 20
59.26183079234089
 30
0.0
 10
392.739004788081
 20
59.29665864723658
 30
0.0
 10
392.7065345891215
 20
59.33003051772555
 30
0.0
 10
392.6724994302724
 20
59.36187253385049
 30
0.0
 10
392.6369730427311
 20
59.39211398871213
 30
0.0
 10
392.6000325250636
 20
59.42068750385442
 30
0.0
 10
392.5617582007688
 20
59.44752919120076
 30
0.0
 10
392.5222334657818
 20
59.47257881045321
 30
0.0
 10
392.4815446259331
 20
59.4957799218347
 30
0.0
 10
392.4397807245588
 20
59.51708003032573
 30
0.0
 10
392.3970333604615
 20
59.53643073151642
 30
0.0
 10
392.3533964970575
 20
59.55378781718736
 30
0.0
 10
392.3089662617169
 20
59.56911149325379
 30
0.0
 10
392.2638407415841
 20
59.58236613656805
 30
0.0
 10
392.2181197553057
 20
59.59352172941389
 30
0.0
 10
392.1719046805894
 20
59.60254898165844
 30
0.0
 10
392.1252980423216
 20
59.60943797530012
 30
0.0
 10
392.0784039669626
 20
59.61412892579111
 30
0.0
 10
392.0365921023501
 20
59.61647544896449
 30
0.0
 10
392.0104399111478
 20
59.61671465288794
 30
0.0
 10
391.9999985265501
 20
59.61681015617258
 30
0.0
  0
LINE
  5
DC
330
1F
100
AcDbEntity
  8
0
  6
Continuous
 62
     7
370
    30
100
AcDbLine
 10
391.9999985266
 20
59.6168101562
 30
0.0
 11
377.7477256115
 21
59.6168101562
 31
0.0
  0
SPLINE
  5
DD
330
1F
100
AcDbEntity
  8
0
  6
Continuous
 62
     7
370
    30
100
AcDbSpline
210
0.0
220
0.0
230
1.0
 70
     8
 71
     3
 72
    31
 73
    27
 74
     0
 42
0.000000001
 43
0.00000001
 40
0.0
 40
0.0
 40
0.0
 40
0.0
 40
0.0213412329681459
 40
0.0647682885350149
 40
0.1081962340098887
 40
0.1516244972828059
 40
0.1950535319760323
 40
0.2384837923368396
 40
0.2819157331060858
 40
0.3253498094093146
 40
0.3687864766063485
 40
0.4122261900903273
 40
0.455669405027166
 40
0.4991165760267681
 40
0.5425681567380655
 40
0.5860245993596805
 40
0.6294863540591996
 40
0.6729538682939193
 40
0.7164275860274512
 40
0.7599079468363459
 40
0.8033953849026668
 40
0.8468903278887608
 40
0.8903931956922515
 40
0.9339043990797641
 40
0.9774243381998233
 40
1.0
 40
1.0
 40
1.0
 40
1.0
 10
377.7477256114502
 20
59.61681015617261
 30
0.0
 10
377.734443006698
 20
59.61686152736124
 30
0.0
 10
377.6941317660885
 20
59.61701743325372
 30
0.0
 10
377.6268069832493
 20
59.61881751264049
 30
0.0
 10
377.5458290976724
 20
59.62298648366556
 30
0.0
 10
377.4649988888461
 20
59.62928324782234
 30
0.0
 10
377.3843762563787
 20
59.63766841187785
 30
0.0
 10
377.3040198218698
 20
59.64814508093226
 30
0.0
 10
377.2239881361308
 20
59.66070306394123
 30
0.0
 10
377.1443394727862
 20
59.67533382322519
 30
0.0
 10
377.0651318302547
 20
59.69202647795476
 30
0.0
 10
376.9864228783205
 20
59.71076888590289
 30
0.0
 10
376.9082699199443
 20
59.73154736572063
 30
0.0
 10
376.8307298498196
 20
59.75434678529563
 30
0.0
 10
376.7538591132658
 20
59.77915055188716
 30
0.0
 10
376.6777136698289
 20
59.80594063540444
 30
0.0
 10
376.602348940739
 20
59.83469756349398
 30
0.0
 10
376.5278198194801
 20
59.86540050220092
 30
0.0
 10
376.4541804494267
 20
59.898027028172
 30
0.0
 10
376.3814848738572
 20
59.93255405481528
 30
0.0
 10
376.3097844324143
 20
59.96895445538387
 30
0.0
 10
376.2391373059965
 20
60.00720975302391
 30
0.0
 10
376.1695727144279
 20
60.04726283624083
 30
0.0
 10
376.1012244017151
 20
60.08919456726068
 30
0.0
 10
376.0446478282786
 20
60.12560418977151
 30
0.0
 10
376.0113673160888
 20
60.14868558305318
 30
0.0
 10
376.0
 20
60.15656928062678
 30
0.0
  0
SPLINE
  5
DE
330
1F
100
AcDbEntity
  8
0
  6
Continuous
 62
     7
370
    30
100
AcDbSpline
210
0.0
220
0.0
230
1.0
 70
     8
 71
     3
 72
    83
 73
    79
 74
     0
 42
0.000000001
 43
0.00000001
 40
0.0
 40
0.0
 40
0.0
 40
0.0
 40
0.010611490938421
 40
0.0221163455510656
 40
0.0332920043741472
 40
0.041792508817646
 40
0.0478168738629878
 40
0.0555478243972373
 40
0.064570995902721
 40
0.0730603652737738
 40
0.0822948963968759
 40
0.0911244495392837
 40
0.10004355923667
 40
0.1109532940592744
 40
0.1235181210644839
 40
0.1354368567882419
 40
0.1516590664225917
 40
0.1658730892761208
 40
0.1782182804550584
 40
0.1890393536929182
 40
0.1964802859766115
 40
0.2029854213498329
 40
0.2092348389883425
 40
0.217383191382555
 40
0.226761964054788
 40
0.2374111215452105
 40
0.2482871618512453
 40
0.2593570544357259
 40
0.2706207455058159
 40
0.2811721936620567
 40
0.2897220509253213
 40
0.2967994257603115
 40
0.3031629802858414
 40
0.3106346257322848
 40
0.3192159907236204
 40
0.3289085950012962
 40
0.3473130379065867
 40
0.3679182179057816
 40
0.3906861006575191
 40
0.4021721244452391
 40
0.4135043034102303
 40
0.4226855770297581
 40
0.4295676462138432
 40
0.434147551413276
 40
0.4410070488776744
 40
0.4500242564092128
 40
0.4612175607209555
 40
0.4745896653271355
 40
0.4901436442138145
 40
0.5073883362398973
 40
0.5252595769148052
 40
0.5579573612689084
 40
0.5924761292979362
 40
0.6288246539602481
 40
0.6670089566351837
 40
0.6842847693907051
 40
0.6995622438164734
 40
0.7126014447087304
 40
0.7233988558715929
 40
0.7319514221368301
 40
0.737094811888361
 40
0.7408498252553061
 40
0.7432804734100927
 40
0.7469146293852023
 40
0.7530553856024181
 40
0.7611821386805443
 40
0.771558685927671
 40
0.7841864555856032
 40
0.7990673147081069
 40
0.8162037574474968
 40
0.8355992260198606
 40
0.8540259101744583
 40
0.8741204660338803
 40
0.8958893823330133
 40
0.9193422886568892
 40
0.9444938911611523
 40
0.9713673186763676
 40
1.0
 40
1.0
 40
1.0
 40
1.0
 10
375.107025797283
 20
50.12745391071506
 30
0.0
 10
375.1101700102595
 20
50.13485037822969
 30
0.0
 10
375.1167231422444
 20
50.15026600948828
 30
0.0
 10
375.1288651493135
 20
50.17815544372046
 30
0.0
 10
375.141015171445
 20
50.20547497585133
 30
0.0
 10
375.1506482494892
 20
50.22680749954834
 30
0.0
 10
375.1587967501932
 20
50.24463730356134
 30
0.0
 10
375.1673241192347
 20
50.26309184766871
 30
0.0
 10
375.176788499538
 20
50.28329685472245
 30
0.0
 10
375.18689319177
 20
50.30457158882297
 30
0.0
 10
375.19709258727
 20
50.32574619831794
 30
0.0
 10
375.2075569648306
 20
50.3471628294261
 30
0.0
 10
375.2188268692457
 20
50.36990906220805
 30
0.0
 10
375.2317461775494
 20
50.3955814754148
 30
0.0
 10
375.245991883437
 20
50.42337607577026
 30
0.0
 10
375.2625376451355
 20
50.45505607800606
 30
0.0
 10
375.2800187278724
 20
50.48781874120455
 30
0.0
 10
375.2981555502433
 20
50.52103331627429
 30
0.0
 10
375.314537553461
 20
50.55042277914833
 30
0.0
 10
375.3280040524734
 20
50.57415497683408
 30
0.0
 10
375.3389899335943
 20
50.59324879273753
 30
0.0
 10
375.3479934542736
 20
50.6087323260168
 30
0.0
 10
375.3573786350347
 20
50.62471749938009
 30
0.0
 10
375.3681869493199
 20
50.64292709190303
 30
0.0
 10
375.3811117780966
 20
50.66441494431854
 30
0.0
 10
375.3954299138086
 20
50.68786164250592
 30
0.0
 10
375.4107120689138
 20
50.71248368699298
 30
0.0
 10
375.4264689779394
 20
50.73745385979665
 30
0.0
 10
375.4422689805476
 20
50.76207415196908
 30
0.0
 10
375.4570257961229
 20
50.78469339802528
 30
0.0
 10
375.4698638153533
 20
50.80409013670261
 30
0.0
 10
375.4807550474472
 20
50.82035284961071
 30
0.0
 10
375.4912329680813
 20
50.83583987564437
 30
0.0
 10
375.5025543012005
 20
50.85239844918394
 30
0.0
 10
375.5156745351305
 20
50.87135518889142
 30
0.0
 10
375.5345423779675
 20
50.89823916513313
 30
0.0
 10
375.5599533730284
 20
50.93367949384174
 30
0.0
 10
375.5928991255689
 20
50.9782733391269
 30
0.0
 10
375.622832942155
 20
51.01745097437637
 30
0.0
 10
375.6481553955238
 20
51.04971660639908
 30
0.0
 10
375.6661392821161
 20
51.07222471964716
 30
0.0
 10
375.6816882629096
 20
51.09137331029116
 30
0.0
 10
375.6935032116932
 20
51.10573981409013
 30
0.0
 10
375.704065505851
 20
51.11846690523879
 30
0.0
 10
375.715997064005
 20
51.13271331415125
 30
0.0
 10
375.7319305610068
 20
51.15149664656883
 30
0.0
 10
375.7519233441915
 20
51.17468336468488
 30
0.0
 10
375.7761155119113
 20
51.20218404189776
 30
0.0
 10
375.8043694103633
 20
51.23354596565309
 30
0.0
 10
375.8358991908887
 20
51.26759858936446
 30
0.0
 10
375.8789045664118
 20
51.31267906785754
 30
0.0
 10
375.9343551895569
 20
51.36829350730197
 30
0.0
 10
376.004322747451
 20
51.4343551680408
 30
0.0
 10
376.0808242365942
 20
51.50197739095032
 30
0.0
 10
376.1478466129877
 20
51.55703583713382
 30
0.0
 10
376.2010561484067
 20
51.59826092698087
 30
0.0
 10
376.2359363462107
 20
51.62433905349377
 30
0.0
 10
376.2663092800406
 20
51.64633188061092
 30
0.0
 10
376.2917795244851
 20
51.66426993462105
 30
0.0
 10
376.3112418418188
 20
51.67766376840936
 30
0.0
 10
376.3252135074454
 20
51.68711984935413
 30
0.0
 10
376.3343323245119
 20
51.69322405711861
 30
0.0
 10
376.3422692687262
 20
51.69849632614019
 30
0.0
 10
376.352232502669
 20
51.70506426702006
 30
0.0
 10
376.366925872502
 20
51.71463030812016
 30
0.0
 10
376.3873217297166
 20
51.72766582037754
 30
0.0
 10
376.413341557527
 20
51.74389332206568
 30
0.0
 10
376.4453920495684
 20
51.76326582630806
 30
0.0
 10
376.4837006667804
 20
51.78554055884506
 30
0.0
 10
376.5285367486767
 20
51.81041180666625
 30
0.0
 10
376.5773374217297
 20
51.83599382638577
 30
0.0
 10
376.6297002557959
 20
51.86178696527931
 30
0.0
 10
376.6851792698366
 20
51.88733060956537
 30
0.0
 10
376.7463840885405
 20
51.91336265120471
 30
0.0
 10
376.8135318730688
 20
51.93939116570424
 30
0.0
 10
376.8868283965828
 20
51.96472401023085
 30
0.0
 10
376.9663594083047
 20
51.98897351317007
 30
0.0
 10
377.0219161006041
 20
52.00246882121611
 30
0.0
 10
377.0505748752738
 20
52.0094303406367
 30
0.0
  0
LINE
  5
DF
330
1F
100
AcDbEntity
  8
0
  6
Continuous
 62
     7
370
    30
100
AcDbLine
 10
377.7477256115
 20
52.0878201447
 30
0.0
 11
392.1278035947
 21
52.0878201447
 31
0.0
  0
SPLINE
  5
E0
330
1F
100
AcDbEntity
  8
0
  6
Continuous
 62
     7
370
    30
100
AcDbSpline
210
0.0
220
0.0
230
1.0
 70
     8
 71
     3
 72
    17
 73
    13
 74
     0
 42
0.000000001
 43
0.00000001
 40
0.0
 40
0.0
 40
0.0
 40
0.0
 40
0.0532455252151648
 40
0.1681577959623747
 40
0.2830576308262474
 40
0.3979381438924166
 40
0.5128018951788008
 40
0.6276514466865393
 40
0.7424893607835714
 40
0.8573182003597357
 40
0.9660951774609423
 40
0.9999999999999999
 40
0.9999999999999999
 40
0.9999999999999999
 40
0.9999999999999999
 10
377.0505585189894
 20
52.00937998088791
 30
0.0
 10
377.062709723759
 20
52.01210619461459
 30
0.0
 10
377.1010851516299
 20
52.0207160090496
 30
0.0
 10
377.1660342171691
 20
52.03378098880295
 30
0.0
 10
377.2455333138392
 20
52.04774666903413
 30
0.0
 10
377.3254018144186
 20
52.05963628414347
 30
0.0
 10
377.4055712103497
 20
52.06947353148723
 30
0.0
 10
377.4859858593352
 20
52.07724125723946
 30
0.0
 10
377.5665871343491
 20
52.08294290293679
 30
0.0
 10
377.6458999558863
 20
52.08648632393674
 30
0.0
 10
377.7063015446557
 20
52.08772218046821
 30
0.0
 10
377.7397721458015
 20
52.08780133546391
 30
0.0
 10
377.7477256114502
 20
52.08782014470294
 30
0.0
  0
SPLINE
  5
E1
330
1F
100
AcDbEntity
  8
0
  6
Continuous
 62
     7
370
    30
100
AcDbSpline
210
0.0
220
0.0
230
1.0
 70
     8
 71
     3
 72
    52
 73
    48
 74
     0
 42
0.000000001
 43
0.00000001
 40
0.0
 40
0.0
 40
0.0
 40
0.0
 40
0.0244631887230454
 40
0.0445607928208281
 40
0.0597373651653089
 40
0.0771742045957813
 40
0.090140623024837
 40
0.1076228156125954
 40
0.1297570433344804
 40
0.1479638143563375
 40
0.1623877333013201
 40
0.1772202386919509
 40
0.1895390679803802
 40
0.2021519209976232
 40
0.2148952859145907
 40
0.226424750438882
 40
0.2361653509294256
 40
0.2475008530589478
 40
0.2625157513496892
 40
0.2866702310918525
 40
0.3049608039828733
 40
0.3216928973664127
 40
0.3425825842285195
 40
0.3640369731374284
 40
0.3809823068116996
 40
0.3962621370979202
 40
0.4138198657242748
 40
0.4337227273658937
 40
0.4506823058871187
 40
0.4641863940354281
 40
0.4786189445132776
 40
0.4960286803259893
 40
0.5303190289293094
 40
0.5588937895378906
 40
0.5953498655036537
 40
0.63441001882397
 40
0.6663664137811237
 40
0.697906671610564
 40
0.7311138898633419
 40
0.7711714362173218
 40
0.8115520088633489
 40
0.8510945334289264
 40
0.8756980390732049
 40
0.9013445895779625
 40
0.9290617373548149
 40
0.961902514436624
 40
1.0
 40
1.0
 40
1.0
 40
1.0
 10
392.1295149209969
 20
52.08780640218842
 30
0.0
 10
392.1397940985121
 20
52.08790123644043
 30
0.0
 10
392.1585180802793
 20
52.08807398127365
 30
0.0
 10
392.1850781389976
 20
52.08934468340638
 30
0.0
 10
392.208627318391
 20
52.09102931823149
 30
0.0
 10
392.2287488954869
 20
52.09295282812619
 30
0.0
 10
392.2493250454434
 20
52.09536034428579
 30
0.0
 10
392.2719456304624
 20
52.09849370706814
 30
0.0
 10
392.2973400940798
 20
52.10274755146911
 30
0.0
 10
392.321241626113
 20
52.10749313389081
 30
0.0
 10
392.3412232543387
 20
52.11195006091489
 30
0.0
 10
392.3588729830936
 20
52.11627820298507
 30
0.0
 10
392.3758380308123
 20
52.1208021084945
 30
0.0
 10
392.3918603005391
 20
52.12539549217703
 30
0.0
 10
392.4074528627461
 20
52.13018799934384
 30
0.0
 10
392.421792907928
 20
52.13488437124759
 30
0.0
 10
392.4354735594752
 20
52.13961124708035
 30
0.0
 10
392.4504640533896
 20
52.14506118581409
 30
0.0
 10
392.4713391970921
 20
52.15312811397408
 30
0.0
 10
392.4949751703647
 20
52.16309056671088
 30
0.0
 10
392.519058524804
 20
52.17420114919961
 30
0.0
 10
392.5414141451887
 20
52.1852722202442
 30
0.0
 10
392.5647661401674
 20
52.19771409401501
 30
0.0
 10
392.5878903450359
 20
52.21105940846914
 30
0.0
 10
392.6085025224585
 20
52.22381917397538
 30
0.0
 10
392.6272376095852
 20
52.23609846708533
 30
0.0
 10
392.6467718729521
 20
52.24964950357759
 30
0.0
 10
392.666573322566
 20
52.26429093225497
 30
0.0
 10
392.6845538320728
 20
52.27843827434379
 30
0.0
 10
392.7002629380129
 20
52.29144370943371
 30
0.0
 10
392.7158157948502
 20
52.30492908382841
 30
0.0
 10
392.7380344558744
 20
52.3252312776185
 30
0.0
 10
392.7641018026176
 20
52.35116560413576
 30
0.0
 10
392.7947618808788
 20
52.38504250700822
 30
0.0
 10
392.8248969357417
 20
52.4221881611028
 30
0.0
 10
392.8537700765676
 20
52.46273773904876
 30
0.0
 10
392.8790853756456
 20
52.50316111500526
 30
0.0
 10
392.901094564857
 20
52.5428095023447
 30
0.0
 10
392.9227534890601
 20
52.5873586196106
 30
0.0
 10
392.9430537263817
 20
52.63642742024728
 30
0.0
 10
392.961026268183
 20
52.68930876778098
 30
0.0
 10
392.973741035726
 20
52.73637386904124
 30
0.0
 10
392.9826153174441
 20
52.77739082254944
 30
0.0
 10
392.9889384758787
 20
52.81338633846862
 30
0.0
 10
392.9942500797552
 20
52.85358086460167
 30
0.0
 10
392.9983884883438
 20
52.90008574817424
 30
0.0
 10
392.999043996352
 20
52.9339005566415
 30
0.0
 10
392.9993960377743
 20
52.95206084319738
 30
0.0
  0
SPLINE
  5
E2
330
1F
100
AcDbEntity
  8
0
  6
Continuous
 62
     7
370
    30
100
AcDbSpline
210
0.0
220
0.0
230
1.0
 70
     8
 71
     3
 72
   234
 73
   230
 74
     0
 42
0.000000001
 43
0.00000001
 40
0.0
 40
0.0
 40
0.0
 40
0.0
 40
0.0019885323533063
 40
0.0064199709906952
 40
0.0108514146385203
 40
0.0152828650215977
 40
0.0197143238558243
 40
0.0241457928460349
 40
0.0285772736838997
 40
0.0330087680458334
 40
0.0374402775908973
 40
0.041871803958861
 40
0.0463033487681651
 40
0.0507349136140222
 40
0.0551665000665541
 40
0.0595981096689735
 40
0.0640297439358023
 40
0.0684614043512133
 40
0.0728930923673704
 40
0.0773248094028887
 40
0.0817565568413412
 40
0.0861883360298296
 40
0.0906201482776768
 40
0.0950519948551067
 40
0.0994838769921385
 40
0.1039157958774156
 40
0.1083477526572291
 40
0.1127797484345588
 40
0.117211784268226
 40
0.1216438611721093
 40
0.1260759801144944
 40
0.1305081420174455
 40
0.1349403477562617
 40
0.1393725981590992
 40
0.1438048940065646
 40
0.1482372360314688
 40
0.1526696249186325
 40
0.1571020613047471
 40
0.1615345457783649
 40
0.1659670788799176
 40
0.1703996611018237
 40
0.1748322928886827
 40
0.1792649746374999
 40
0.1836977066980165
 40
0.1881304893730803
 40
0.1925633229190723
 40
0.1969962075464301
 40
0.2014291434201503
 40
0.2058621306604488
 40
0.2102951693433565
 40
0.2147282595014528
 40
0.2191614011245842
 40
0.2235945941606661
 40
0.2280278385164699
 40
0.2324611340585012
 40
0.2368944806138696
 40
0.2413278779711893
 40
0.2457613258815361
 40
0.2501948240593757
 40
0.2546283721835391
 40
0.2590619698982552
 40
0.2634956168140871
 40
0.2679293125089942
 40
0.2723630565293217
 40
0.2767968483908546
 40
0.2812306875798296
 40
0.2856645735539348
 40
0.2900985057434036
 40
0.2945324835519414
 40
0.2989665063578361
 40
0.3034005735148804
 40
0.3078346843534114
 40
0.3122688381812821
 40
0.3167030342848156
 40
0.3211372719297774
 40
0.3255715503622776
 40
0.3300058688097156
 40
0.3344402264816697
 40
0.3388746225707421
 40
0.3433090562534429
 40
0.3477435266910073
 40
0.3521780330302036
 40
0.3566125744040995
 40
0.3610471499328408
 40
0.3654817587243546
 40
0.3699163998750749
 40
0.3743510724705977
 40
0.3787857755863668
 40
0.3832205082882658
 40
0.3876552696332414
 40
0.3920900586698365
 40
0.3965248744387945
 40
0.4009597159735264
 40
0.4053945823006418
 40
0.4098294724403901
 40
0.4142643854071381
 40
0.4186993202097595
 40
0.4231342758520476
 40
0.4275692513330874
 40
0.4320042456476224
 40
0.4364392577863605
 40
0.440874286736308
 40
0.4453093314810477
 40
0.4497443910010253
 40
0.4541794642737914
 40
0.4586145502742497
 40
0.4630496479749022
 40
0.4674847563460087
 40
0.4719198743558357
 40
0.4763550009708203
 40
0.4807901351557372
 40
0.4852252758738812
 40
0.4896604220872233
 40
0.4940955727565424
 40
0.4985307268416035
 40
0.5029658833012619
 40
0.5074010410080668
 40
0.5118361986577183
 40
0.5162713552072871
 40
0.5207065096135411
 40
0.5251416608330804
 40
0.5295768078224868
 40
0.5340119495384972
 40
0.5384470849381191
 40
0.5428822129788158
 40
0.5473173326186779
 40
0.5517524428166124
 40
0.5561875425325106
 40
0.5606226307274844
 40
0.565057706364087
 40
0.5694927684065169
 40
0.5739278158209112
 40
0.5783628475755901
 40
0.5827978626413396
 40
0.5872328599917599
 40
0.591667838603552
 40
0.5961027974568531
 40
0.6005377355356792
 40
0.6049726518282363
 40
0.6094075453273868
 40
0.6138424150310735
 40
0.6182772599428071
 40
0.6227120790721236
 40
0.6271468714351274
 40
0.6315816360550152
 40
0.636016371962674
 40
0.6404510781972557
 40
0.6448857538068063
 40
0.6493203978489193
 40
0.6537550093914123
 40
0.6581895875130439
 40
0.6626241313042164
 40
0.6670586398677726
 40
0.6714931123197455
 40
0.6759275477901856
 40
0.6803619454240066
 40
0.6847963043818135
 40
0.6892306238408128
 40
0.6936649029956998
 40
0.6980991410596046
 40
0.7025333372650151
 40
0.7069674908647595
 40
0.7114016011329766
 40
0.7158356673661221
 40
0.7202696888839923
 40
0.7247036650307198
 40
0.7291375951758269
 40
0.7335714787152876
 40
0.7380053150725493
 40
0.7424391036996127
 40
0.7468728440780792
 40
0.7513065357202041
 40
0.7557401781699606
 40
0.7601737710040883
 40
0.7646073138331411
 40
0.7690408063025173
 40
0.7734742480934629
 40
0.7779076389240855
 40
0.7823409785503542
 40
0.7867742667670259
 40
0.7912075034086032
 40
0.7956406883502372
 40
0.8000738215085941
 40
0.8045069028427089
 40
0.8089399323547806
 40
0.8133729100909308
 40
0.8178058361419361
 40
0.8222387106438587
 40
0.8266715337787397
 40
0.8311043057750793
 40
0.8355370269084222
 40
0.8399696975017527
 40
0.8444023179259283
 40
0.8488348885999808
 40
0.8532674099913857
 40
0.8576998826162494
 40
0.862132307039424
 40
0.8665646838745427
 40
0.8709970137840154
 40
0.8754292974789084
 40
0.8798615357187188
 40
0.8842937293111806
 40
0.8887258791118305
 40
0.8931579860236472
 40
0.89759005099648
 40
0.902022075026474
 40
0.9064540591553805
 40
0.9108860044697715
 40
0.9153179121002148
 40
0.9197497832203007
 40
0.9241816190456561
 40
0.9286134208327851
 40
0.9330451898779345
 40
0.9374769275158205
 40
0.9419086351182507
 40
0.9463403140927357
 40
0.950771965880981
 40
0.9552035919573462
 40
0.9596351938271735
 40
0.9640667730251119
 40
0.9684983311133464
 40
0.9729298696797972
 40
0.9773613903362148
 40
0.9817928947162742
 40
0.9862243844735872
 40
0.9906558612796877
 40
0.9950873268219775
 40
0.9995187828016431
 40
1.0
 40
1.0
 40
1.0
 40
1.0
 10
352.0113834081566
 20
47.79137270490926
 30
0.0
 10
352.0123689234332
 20
47.76787858604471
 30
0.0
 10
352.0155506566726
 20
47.69202789077619
 30
0.0
 10
352.0232717313617
 20
47.56392553906198
 30
0.0
 10
352.0344593172555
 20
47.40709836461364
 30
0.0
 10
352.0479714668512
 20
47.25043866949315
 30
0.0
 10
352.0636453874964
 20
47.09396858688085
 30
0.0
 10
352.0815211602103
 20
46.9377186163175
 30
0.0
 10
352.1015839966723
 20
46.78171696618398
 30
0.0
 10
352.1238333021587
 20
46.6259924027843
 30
0.0
 10
352.1482641709303
 20
46.47057348034327
 30
0.0
 10
352.1748723454429
 20
46.31548874074672
 30
0.0
 10
352.2036528885089
 20
46.16076665345116
 30
0.0
 10
352.2346005401652
 20
46.00643562502503
 30
0.0
 10
352.2677096232118
 20
45.85252399004435
 30
0.0
 10
352.3029740697732
 20
45.69906000699901
 30
0.0
 10
352.3403874155205
 20
45.54607185286867
 30
0.0
 10
352.3799428026472
 20
45.39358761807284
 30
0.0
 10
352.4216329805884
 20
45.24163530133414
 30
0.0
 10
352.4654503074333
 20
45.09024280458434
 30
0.0
 10
352.5113867512403
 20
44.93943792787601
 30
0.0
 10
352.5594338914677
 20
44.78924836431229
 30
0.0
 10
352.6095829204601
 20
44.6397016949928
 30
0.0
 10
352.6618246450104
 20
44.49082538397519
 30
0.0
 10
352.7161494879886
 20
44.34264677325754
 30
0.0
 10
352.7725474900413
 20
44.19519307777607
 30
0.0
 10
352.8310083113604
 20
44.04849138042623
 30
0.0
 10
352.8915212335217
 20
43.90256862710155
 30
0.0
 10
352.9540751613916
 20
43.75745162175649
 30
0.0
 10
353.0186586251045
 20
43.6131670214898
 30
0.0
 10
353.0852597821081
 20
43.46974133165264
 30
0.0
 10
353.1538664192777
 20
43.327200900981
 30
0.0
 10
353.2244659550996
 20
43.18557191675297
 30
0.0
 10
353.2970454419221
 20
43.04488039997305
 30
0.0
 10
353.3715915682758
 20
42.90515220058307
 30
0.0
 10
353.4480906612609
 20
42.76641299270216
 30
0.0
 10
353.5265286890023
 20
42.62868826989537
 30
0.0
 10
353.6068912631728
 20
42.49200334047264
 30
0.0
 10
353.6891636415825
 20
42.35638332281965
 30
0.0
 10
353.7733307308357
 20
42.22185314076042
 30
0.0
 10
353.8593770890532
 20
42.08843751895218
 30
0.0
 10
353.947286928662
 20
41.9561609783168
 30
0.0
 10
354.0370441192493
 20
41.82504783150558
 30
0.0
 10
354.128632190482
 20
41.69512217840017
 30
0.0
 10
354.2220343350915
 20
41.56640790165216
 30
0.0
 10
354.3172334119224
 20
41.43892866225958
 30
0.0
 10
354.414211949044
 20
41.3127078951825
 30
0.0
 10
354.5129521469274
 20
41.18776880500004
 30
0.0
 10
354.6134358816819
 20
41.06413436160659
 30
0.0
 10
354.7156447083572
 20
40.9418272959519
 30
0.0
 10
354.8195598643036
 20
40.82087009582295
 30
0.0
 10
354.9251622725963
 20
40.70128500166999
 30
0.0
 10
355.0324325455171
 20
40.58309400247782
 30
0.0
 10
355.1413509880981
 20
40.46631883168249
 30
0.0
 10
355.2518976017228
 20
40.35098096313445
 30
0.0
 10
355.3640520877861
 20
40.2371016071104
 30
0.0
 10
355.4777938514117
 20
40.12470170637116
 30
0.0
 10
355.5931020052261
 20
40.01380193227243
 30
0.0
 10
355.7099553731891
 20
39.90442268092175
 30
0.0
 10
355.8283324944793
 20
39.79658406938972
 30
0.0
 10
355.9482116274341
 20
39.69030593197097
 30
0.0
 10
356.0695707535432
 20
39.5856078164983
 30
0.0
 10
356.1923875814954
 20
39.48250898071094
 30
0.0
 10
356.3166395512774
 20
39.38102838867551
 30
0.0
 10
356.4423038383234
 20
39.28118470726287
 30
0.0
 10
356.5693573577151
 20
39.18299630268103
 30
0.0
 10
356.6977767684323
 20
39.08648123706228
 30
0.0
 10
356.8275384776497
 20
38.99165726511049
 30
0.0
 10
356.9586186450845
 20
38.89854183080264
 30
0.0
 10
357.0909931873877
 20
38.80715206415199
 30
0.0
 10
357.2246377825839
 20
38.7175047780275
 30
0.0
 10
357.3595278745544
 20
38.62961646503514
 30
0.0
 10
357.4956386775647
 20
38.54350329445687
 30
0.0
 10
357.6329451808359
 20
38.45918110925352
 30
0.0
 10
357.7714221531572
 20
38.37666542312619
 30
0.0
 10
357.9110441475401
 20
38.29597141764114
 30
0.0
 10
358.0517855059128
 20
38.21711393941695
 30
0.0
 10
358.1936203638541
 20
38.14010749737383
 30
0.0
 10
358.3365226553655
 20
38.0649662600477
 30
0.0
 10
358.48046611768
 20
37.99170405296675
 30
0.0
 10
358.6254242961089
 20
37.92033435609348
 30
0.0
 10
358.7713705489221
 20
37.85087030133068
 30
0.0
 10
358.9182780522646
 20
37.78332467009395
 30
0.0
 10
359.0661198051049
 20
37.71770989094796
 30
0.0
 10
359.2148686342171
 20
37.65403803731056
 30
0.0
 10
359.3644971991937
 20
37.59232082522256
 30
0.0
 10
359.5149779974896
 20
37.53256961118394
 30
0.0
 10
359.6662833694951
 20
37.47479539005756
 30
0.0
 10
359.8183855036377
 20
37.4190087930407
 30
0.0
 10
359.971256441511
 20
37.3652200857038
 30
0.0
 10
360.1248680830313
 20
37.31343916609727
 30
0.0
 10
360.2791921916181
 20
37.26367556292727
 30
0.0
 10
360.4342003994012
 20
37.21593843379934
 30
0.0
 10
360.5898642124493
 20
37.17023656353128
 30
0.0
 10
360.7461550160234
 20
37.12657836253598
 30
0.0
 10
360.9030440798498
 20
37.08497186527142
 30
0.0
 10
361.0605025634154
 20
37.04542472876334
 30
0.0
 10
361.2185015212817
 20
37.00794423119468
 30
0.0
 10
361.3770119084178
 20
36.97253727056733
 30
0.0
 10
361.5360045855515
 20
36.93921036343293
 30
0.0
 10
361.6954503245368
 20
36.90796964369393
 30
0.0
 10
361.8553198137366
 20
36.87882086147605
 30
0.0
 10
362.0155836634218
 20
36.8517693820707
 30
0.0
 10
362.1762124111821
 20
36.8268201849483
 30
0.0
 10
362.337176527352
 20
36.8039778628428
 30
0.0
 10
362.4984464204465
 20
36.78324662090714
 30
0.0
 10
362.6599924426094
 20
36.76463027594
 30
0.0
 10
362.8217848950703
 20
36.74813225568348
 30
0.0
 10
362.9837940336117
 20
36.73375559819268
 30
0.0
 10
363.1459900740428
 20
36.72150295127609
 30
0.0
 10
363.3083431976818
 20
36.71137657200867
 30
0.0
 10
363.4708235568431
 20
36.70337832631439
 30
0.0
 10
363.6334012803304
 20
36.69750968862316
 30
0.0
 10
363.7960464789333
 20
36.69377174159676
 30
0.0
 10
363.9587292509277
 20
36.69216517592867
 30
0.0
 10
364.121419686532
 20
36.69269029021045
 30
0.0
 10
364.2840878712563
 20
36.69534699076445
 30
0.0
 10
364.4467038946159
 20
36.70013479152038
 30
0.0
 10
364.6092378566888
 20
36.70705281416774
 30
0.0
 10
364.77165987577
 20
36.71609978855057
 30
0.0
 10
364.9339400906708
 20
36.72727405284544
 30
0.0
 10
365.0960486662134
 20
36.74057355386258
 30
0.0
 10
365.2579557987227
 20
36.75599584741863
 30
0.0
 10
365.4196317215112
 20
36.7735380987818
 30
0.0
 10
365.5810467103589
 20
36.79319708318772
 30
0.0
 10
365.7421710889847
 20
36.81496918642708
 30
0.0
 10
365.9029752345096
 20
36.83885040550437
 30
0.0
 10
366.0634295829116
 20
36.86483634936878
 30
0.0
 10
366.2235046344687
 20
36.89292223971567
 30
0.0
 10
366.3831709591925
 20
36.92310291185814
 30
0.0
 10
366.5423992022477
 20
36.95537281567258
 30
0.0
 10
366.7011600893603
 20
36.98972601661142
 30
0.0
 10
366.8594244322101
 20
37.02615619678947
 30
0.0
 10
367.0171631338092
 20
37.06465665613941
 30
0.0
 10
367.1743471938637
 20
37.10522031363832
 30
0.0
 10
367.3309477141192
 20
37.14783970860385
 30
0.0
 10
367.4869359036872
 20
37.19250700206177
 30
0.0
 10
367.6422830843531
 20
37.23921397818118
 30
0.0
 10
367.7969606958649
 20
37.28795204578274
 30
0.0
 10
367.9509403011994
 20
37.33871223991262
 30
0.0
 10
368.1041935918082
 20
37.39148522348919
 30
0.0
 10
368.2566923928401
 20
37.44626128901631
 30
0.0
 10
368.4084086683388
 20
37.50303036036669
 30
0.0
 10
368.5593145264172
 20
37.56178199463349
 30
0.0
 10
368.7093822244049
 20
37.62250538404992
 30
0.0
 10
368.8585841739698
 20
37.68518935797764
 30
0.0
 10
369.0068929462111
 20
37.74982238496185
 30
0.0
 10
369.1542812767234
 20
37.8163925748544
 30
0.0
 10
369.3007220706326
 20
37.88488768100408
 30
0.0
 10
369.4461884075991
 20
37.95529510251296
 30
0.0
 10
369.5906535467907
 20
38.02760188656017
 30
0.0
 10
369.7340909318225
 20
38.10179473079022
 30
0.0
 10
369.8764741956626
 20
38.17785998576896
 30
0.0
 10
370.0177771655042
 20
38.25578365750228
 30
0.0
 10
370.157973867601
 20
38.33555141002211
 30
0.0
 10
370.2970385320672
 20
38.41714856803509
 30
0.0
 10
370.4349455976389
 20
38.50056011963553
 30
0.0
 10
370.5716697163977
 20
38.58577071908275
 30
0.0
 10
370.7071857584545
 20
38.67276468963988
 30
0.0
 10
370.8414688165932
 20
38.76152602647702
 30
0.0
 10
370.9744942108725
 20
38.85203839963371
 30
0.0
 10
371.1062374931857
 20
38.94428515704647
 30
0.0
 10
371.2366744517775
 20
39.03824932763332
 30
0.0
 10
371.3657811157159
 20
39.13391362444165
 30
0.0
 10
371.4935337593196
 20
39.23126044785459
 30
0.0
 10
371.6199089065385
 20
39.33027188885567
 30
0.0
 10
371.7448833352881
 20
39.43092973235408
 30
0.0
 10
371.8684340817356
 20
39.53321546056564
 30
0.0
 10
371.9905384445373
 20
39.63711025645232
 30
0.0
 10
372.1111739890255
 20
39.74259500721776
 30
0.0
 10
372.230318551346
 20
39.84965030785857
 30
0.0
 10
372.3479502425432
 20
39.95825646477065
 30
0.0
 10
372.4640474525933
 20
40.06839349941004
 30
0.0
 10
372.5785888543844
 20
40.18004115200739
 30
0.0
 10
372.6915534076423
 20
40.29317888533536
 30
0.0
 10
372.8029203628016
 20
40.40778588852702
 30
0.0
 10
372.9126692648206
 20
40.5238410809471
 30
0.0
 10
373.0207799569412
 20
40.64132311611195
 30
0.0
 10
373.1272325843897
 20
40.76021038566071
 30
0.0
 10
373.2320075980213
 20
40.88048102337353
 30
0.0
 10
373.3350857579049
 20
41.00211290923882
 30
0.0
 10
373.4364481368485
 20
41.12508367356608
 30
0.0
 10
373.536076123865
 20
41.24937070114697
 30
0.0
 10
373.633951427577
 20
41.37495113545871
 30
0.0
 10
373.7300560795596
 20
41.50180188291357
 30
0.0
 10
373.8243724376221
 20
41.62989961715087
 30
0.0
 10
373.9168831890256
 20
41.75922078337095
 30
0.0
 10
374.0075713536387
 20
41.88974160271135
 30
0.0
 10
374.0964202870284
 20
42.02143807666199
 30
0.0
 10
374.1834136834869
 20
42.15428599152081
 30
0.0
 10
374.2685355789929
 20
42.28826092288647
 30
0.0
 10
374.3517703541085
 20
42.42333824019039
 30
0.0
 10
374.4331027368088
 20
42.5594931112621
 30
0.0
 10
374.5125178052463
 20
42.6967005069332
 30
0.0
 10
374.5900009904477
 20
42.83493520567256
 30
0.0
 10
374.6655380789437
 20
42.97417179825684
 30
0.0
 10
374.739115215331
 20
43.11438469247199
 30
0.0
 10
374.8107189047665
 20
43.25554811784669
 30
0.0
 10
374.8803360153933
 20
43.39763613041576
 30
0.0
 10
374.9479537806979
 20
43.54062261751178
 30
0.0
 10
375.0135598017981
 20
43.68448130258705
 30
0.0
 10
375.0771420496625
 20
43.82918575005925
 30
0.0
 10
375.13868886726
 20
43.97470937018726
 30
0.0
 10
375.1981889716401
 20
44.12102542396777
 30
0.0
 10
375.2556314559426
 20
44.26810702806007
 30
0.0
 10
375.3110057913385
 20
44.41592715973002
 30
0.0
 10
375.3643018288993
 20
44.56445866181945
 30
0.0
 10
375.4155098013975
 20
44.7136742477343
 30
0.0
 10
375.4646203250355
 20
44.86354650645434
 30
0.0
 10
375.5116244011046
 20
45.0140479075611
 30
0.0
 10
375.5565134175728
 20
45.16515080628471
 30
0.0
 10
375.5992791506041
 20
45.316827448567
 30
0.0
 10
375.6399137660001
 20
45.469049976143
 30
0.0
 10
375.6784098205939
 20
45.62179043163496
 30
0.0
 10
375.7147602634914
 20
45.77502076366515
 30
0.0
 10
375.7489584375421
 20
45.9287128319714
 30
0.0
 10
375.7809980796245
 20
46.082838412575
 30
0.0
 10
375.8108733250158
 20
46.23736920281125
 30
0.0
 10
375.838578696184
 20
46.39227682693221
 30
0.0
 10
375.8641091493862
 20
46.54753283961855
 30
0.0
 10
375.8874599051906
 20
46.70310873735024
 30
0.0
 10
375.9086270850719
 20
46.85897594048634
 30
0.0
 10
375.9276053393831
 20
47.0151058847013
 30
0.0
 10
375.9443967032608
 20
47.17146970433441
 30
0.0
 10
375.9589775492084
 20
47.32803943876639
 30
0.0
 10
375.9714219239022
 20
47.48478355483525
 30
0.0
 10
375.9814412533438
 20
47.64168368201683
 30
0.0
 10
375.9875287117773
 20
47.75202530397167
 30
0.0
 10
375.9896338485678
 20
47.81007926168336
 30
0.0
 10
375.9898400556555
 20
47.81576589335442
 30
0.0
  0
LINE
  5
E3
330
1F
100
AcDbEntity
  8
0
  6
Continuous
 62
     7
370
    30
100
AcDbLine
 10
394.0
 20
223.8507238411
 30
0.0
 11
394.0
 21
230.8507238411
 31
0.0
  0
LINE
  5
E4
330
1F
100
AcDbEntity
  8
0
  6
Continuous
 62
     7
370
    30
100
AcDbLine
 10
334.0
 20
230.8507238411
 30
0.0
 11
334.0
 21
223.8507238411
 31
0.0
  0
ARC
  5
E5
330
1F
100
AcDbEntity
  8
0
  6
Continuous
 62
     7
370
    30
100
AcDbCircle
 10
393.0
 20
223.8507238411
 30
0.0
 40
1.0
100
AcDbArc
 50
270.0
 51
0.0
  0
ARC
  5
E6
330
1F
100
AcDbEntity
  8
0
  6
Continuous
 62
     7
370
    30
100
AcDbCircle
 10
335.0
 20
223.8507238411
 30
0.0
 40
1.0
100
AcDbArc
 50
180.0
 51
270.0
  0
ARC
  5
E7
330
1F
100
AcDbEntity
  8
0
  6
Continuous
 62
     7
370
    30
100
AcDbCircle
 10
363.7990381057
 20
57.1688656979
 30
0.0
 40
11.80087223317598
100
AcDbArc
 50
181.0101851092
 51
270.9757604995
  0
ARC
  5
E8
330
1F
100
AcDbEntity
  8
0
  6
Continuous
 62
     7
370
    30
100
AcDbCircle
 10
364.2009618943
 20
57.1688656979
 30
0.0
 40
11.80087223317593
100
AcDbArc
 50
269.0242395005
 51
358.9898148908
  0
LWPOLYLINE
  5
E9
330
1F
100
AcDbEntity
  8
0
  6
Continuous
 62
     7
370
    30
100
AcDbPolyline
 90
        3
 70
   128
 43
0.0
 10
352.0020089889
 20
56.4898279331
 10
351.9999985265
 20
56.7019955905
 10
352.0007471698
 20
56.8314688484
  0
LWPOLYLINE
  5
EA
330
1F
100
AcDbEntity
  8
0
  6
Continuous
 62
     7
370
    30
100
AcDbPolyline
 90
        3
 70
   128
 43
0.0
 10
375.9999985266
 20
48.2903766246
 10
375.9958864263
 20
47.9869567395
 10
375.9899586659
 20
47.8163285539
  0
LWPOLYLINE
  5
EB
330
1F
100
AcDbEntity
  8
0
  6
Continuous
 62
     7
370
    30
100
AcDbPolyline
 90
        3
 70
   128
 43
0.0
 10
352.0110977204
 20
47.7919575314
 10
352.0041106268
 20
47.9869567395
 10
351.9999985266
 20
48.2903766246
  0
LINE
  5
EC
330
1F
100
AcDbEntity
  8
0
  6
Continuous
 62
     7
370
    30
100
AcDbLine
 10
392.9999985266
 20
58.633847243
 30
0.0
 11
392.9999985266
 21
54.7701439379
 31
0.0
  0
LINE
  5
ED
330
1F
100
AcDbEntity
  8
0
  6
Continuous
 62
     7
370
    30
100
AcDbLine
 10
392.9999985266
 20
54.7701439379
 30
0.0
 11
392.9999985266
 21
52.9584106222
 31
0.0
  0
LINE
  5
EE
330
1F
100
AcDbEntity
  8
0
  6
Continuous
 62
     7
370
    30
100
AcDbLine
 10
394.0
 20
230.8507238411
 30
0.0
 11
334.0
 21
230.8507238411
 31
0.0
  0
LINE
  5
EF
330
1F
100
AcDbEntity
  8
0
  6
Continuous
 62
     7
370
    30
100
AcDbLine
 10
393.0
 20
222.8507238411
 30
0.0
 11
335.0
 21
222.8507238411
 31
0.0
  0
SPLINE
  5
F0
330
1F
100
AcDbEntity
  8
0
  6
Continuous
 62
     7
370
    30
100
AcDbSpline
210
0.0
220
0.0
230
1.0
 70
     8
 71
     3
 72
    66
 73
    62
 74
     0
 42
0.000000001
 43
0.00000001
 40
0.0
 40
0.0
 40
0.0
 40
0.0
 40
0.0036498815147602
 40
0.0212260322183708
 40
0.0388248134455419
 40
0.056446225980502
 40
0.0740902765879065
 40
0.0917569796097095
 40
0.1094463586526564
 40
0.1271584483894444
 40
0.1448932964856448
 40
0.162650965675647
 40
0.1804315360126643
 40
0.1982351073181578
 40
0.2160618018645305
 40
0.2339117673276198
 40
0.2517851800543907
 40
0.2696822486965766
 40
0.2876032182713104
 40
0.3055483747243562
 40
0.3235180500793092
 40
0.3415126282810941
 40
0.359532551857721
 40
0.3775783295546348
 40
0.3956505451302539
 40
0.4137498675405429
 40
0.4318770627990219
 40
0.4500330078669343
 40
0.4682187070177496
 40
0.4864353112391229
 40
0.5046841413895455
 40
0.5229667160321932
 40
0.5412847851475903
 40
0.5596403712958522
 40
0.5780358203274863
 40
0.5964738644478473
 40
0.6149577014745385
 40
0.6334910955937887
 40
0.6501609403181452
 40
0.6668344876794139
 40
0.683509797309921
 40
0.7001860269006039
 40
0.7168622036720322
 40
0.7335371852926915
 40
0.7502096039258745
 40
0.7668777861579857
 40
0.7835396356397822
 40
0.8001924563346873
 40
0.816832677826363
 40
0.8334554125270972
 40
0.8500537104661829
 40
0.8666172386355946
 40
0.8831297882722562
 40
0.8995641844407201
 40
0.9158707811642303
 40
0.9319476608730424
 40
0.947546693942323
 40
0.9618600706290579
 40
0.9730303588079152
 40
0.9834220432450618
 40
1.0
 40
1.0
 40
1.0
 40
1.0
 10
565.1883466539541
 20
96.22340131780985
 30
0.0
 10
565.191933540545
 20
96.24114427900656
 30
0.0
 10
565.2127932232595
 20
96.34432918089666
 30
0.0
 10
565.2528518821385
 20
96.53413318365905
 30
0.0
 10
565.3086464244477
 20
96.79293162977984
 30
0.0
 10
565.36663200744
 20
97.05316687306988
 30
0.0
 10
565.4266008190567
 20
97.3146839004691
 30
0.0
 10
565.4886152558907
 20
97.5774803934234
 30
0.0
 10
565.5526646648409
 20
97.84151315305472
 30
0.0
 10
565.6187575187823
 20
98.10675010522799
 30
0.0
 10
565.6868966948472
 20
98.37315637820043
 30
0.0
 10
565.7570861375648
 20
98.64069808223877
 30
0.0
 10
565.8293290984572
 20
98.90934134003038
 30
0.0
 10
565.9036286395642
 20
99.17905259574825
 30
0.0
 10
565.9799875320248
 20
99.44979858506167
 30
0.0
 10
566.0584083203155
 20
99.72154640107165
 30
0.0
 10
566.1388933457469
 20
99.99426354018246
 30
0.0
 10
566.2214447851948
 20
100.2679179599795
 30
0.0
 10
566.3060646907143
 20
100.5424781416146
 30
0.0
 10
566.3927550346893
 20
100.8179131600221
 30
0.0
 10
566.4815177602321
 20
101.094192762661
 30
0.0
 10
566.5723548380606
 20
101.371287458477
 30
0.0
 10
566.6652683309225
 20
101.6491686189299
 30
0.0
 10
566.7602604669694
 20
101.9278085933711
 30
0.0
 10
566.857333723775
 20
102.2071808415567
 30
0.0
 10
566.9564909250806
 20
102.4872600867326
 30
0.0
 10
567.0577353528463
 20
102.7680224935408
 30
0.0
 10
567.1610708778263
 20
103.0494458760626
 30
0.0
 10
567.2665021126992
 20
103.3315099426711
 30
0.0
 10
567.37403459286
 20
103.6141965861591
 30
0.0
 10
567.4836749913693
 20
103.8974902299138
 30
0.0
 10
567.5954313765156
 20
104.1813782442584
 30
0.0
 10
567.7093135226129
 20
104.4658514504992
 30
0.0
 10
567.8253332894127
 20
104.7509047389821
 30
0.0
 10
567.9435050852683
 20
105.0365378242653
 30
0.0
 10
568.0638464543655
 20
105.3227562133061
 30
0.0
 10
568.1863787682007
 20
105.609572322641
 30
0.0
 10
568.3068261974519
 20
105.887094882065
 30
0.0
 10
568.4248738264857
 20
106.1550897029884
 30
0.0
 10
568.5402005311495
 20
106.4133041589591
 30
0.0
 10
568.6570389099554
 20
106.6713430445471
 30
0.0
 10
568.7753697716927
 20
106.9291602791748
 30
0.0
 10
568.8951752173346
 20
107.1867140207289
 30
0.0
 10
569.0164355470605
 20
107.4439599216535
 30
0.0
 10
569.1391287535064
 20
107.7008502444741
 30
0.0
 10
569.2632298007842
 20
107.9573326084607
 30
0.0
 10
569.3887095561117
 20
108.213348128956
 30
0.0
 10
569.5155331666036
 20
108.4688285886336
 30
0.0
 10
569.6436575077918
 20
108.7236919866054
 30
0.0
 10
569.7730270114619
 20
108.9778352544962
 30
0.0
 10
569.9035665157126
 20
109.2311217569403
 30
0.0
 10
570.0351682745041
 20
109.4833585729604
 30
0.0
 10
570.167666630618
 20
109.7342520906586
 30
0.0
 10
570.3007836698866
 20
109.9833128337216
 30
0.0
 10
570.4339976516322
 20
110.2296238188952
 30
0.0
 10
570.5661584508143
 20
110.4711659018078
 30
0.0
 10
570.6939694785825
 20
110.7021325895173
 30
0.0
 10
570.8090910390305
 20
110.9079867510586
 30
0.0
 10
570.9103351772883
 20
111.0873765046949
 30
0.0
 10
571.0185453354243
 20
111.2777838742465
 30
0.0
 10
571.0957896021914
 20
111.4120210017499
 30
0.0
 10
571.1432708461914
 20
111.4945351619796
 30
0.0
  0
SPLINE
  5
F1
330
1F
100
AcDbEntity
  8
0
  6
Continuous
 62
     7
370
    30
100
AcDbSpline
210
0.0
220
0.0
230
1.0
 70
     8
 71
     3
 72
    98
 73
    94
 74
     0
 42
0.000000001
 43
0.00000001
 40
0.0
 40
0.0
 40
0.0
 40
0.0
 40
0.0123885072190833
 40
0.017336552708504
 40
0.0255626046657487
 40
0.034098418175745
 40
0.0432536599715926
 40
0.0528105644499239
 40
0.0626816399157275
 40
0.0727969355204489
 40
0.083106607605984
 40
0.0935736615444048
 40
0.1041701187237349
 40
0.1148743988506949
 40
0.1256695595171631
 40
0.136542084042016
 40
0.1474810308100656
 40
0.1584774251519009
 40
0.1695238170239416
 40
0.1806139540808063
 40
0.1917425364189218
 40
0.2029050300589909
 40
0.214097523295819
 40
0.2253166147703446
 40
0.2365593253185145
 40
0.2478230278522355
 40
0.2591053910716576
 40
0.2704043338917407
 40
0.2817179882541337
 40
0.2930446685544341
 40
0.3043828463391441
 40
0.3157311292268983
 40
0.3270882432466956
 40
0.3384530179559442
 40
0.3498243738348784
 40
0.3612013115598591
 40
0.3725829028316485
 40
0.3839682825028633
 40
0.3953566417916747
 40
0.4067472224133575
 40
0.4181393114864307
 40
0.429532237099265
 40
0.4409253644393984
 40
0.4523180924071044
 40
0.4637098506450829
 40
0.4751000969282108
 40
0.4864883148667119
 40
0.4978740118814301
 40
0.5092567174184675
 40
0.5206359813731996
 40
0.5320113726993604
 40
0.5433824781816824
 40
0.5547489013542214
 40
0.5661102615485929
 40
0.5774661930578872
 40
0.5888163444058863
 40
0.6001603777097344
 40
0.6114979681285715
 40
0.6228288033904329
 40
0.6341525833893413
 40
0.6454690198485554
 40
0.6567778360435708
 40
0.6680787665820745
 40
0.6793715572343688
 40
0.6906559648140006
 40
0.7019317571036238
 40
0.7131987128243155
 40
0.7244566216461078
 40
0.7357052842382876
 40
0.746944512356865
 40
0.7581741289691546
 40
0.7693939684133716
 40
0.7806038765932503
 40
0.7918037112060554
 40
0.8029933420039118
 40
0.8141726510883504
 40
0.8253415332373796
 40
0.8364998962648363
 40
0.847647661413187
 40
0.8587847637782287
 40
0.8699111527669058
 40
0.881026792589822
 40
0.8921316627861432
 40
0.9032257587836799
 40
0.9143090924950898
 40
0.9253816929492255
 40
0.936443606960281
 40
0.9474948998351187
 40
0.958535656120321
 40
0.9695659803900132
 40
0.980585998076116
 40
0.9915958563432898
 40
1.0
 40
1.0
 40
1.0
 40
1.0
 10
571.1432708461914
 20
111.4945351619796
 30
0.0
 10
571.1964699625787
 20
111.5863677737449
 30
0.0
 10
571.2709171311506
 20
111.7148788918379
 30
0.0
 10
571.3816878612346
 20
111.9037675459803
 30
0.0
 10
571.4761957200607
 20
112.0639195831974
 30
0.0
 10
571.5897366098247
 20
112.2546494550731
 30
0.0
 10
571.7098778618517
 20
112.4546648217626
 30
0.0
 10
571.8367579143234
 20
112.6638998751272
 30
0.0
 10
571.9688018897828
 20
112.8795234326964
 30
0.0
 10
572.1051519143128
 20
113.0999492499774
 30
0.0
 10
572.2451536045814
 20
113.3239720921985
 30
0.0
 10
572.3883250604373
 20
113.5507014415942
 30
0.0
 10
572.5342997215841
 20
113.7794591009386
 30
0.0
 10
572.6827926325939
 20
114.0097175865787
 30
0.0
 10
572.8335774335848
 20
114.2410582234951
 30
0.0
 10
572.9864706698608
 20
114.4731424687176
 30
0.0
 10
573.1413208490649
 20
114.7056918749657
 30
0.0
 10
573.2980006705449
 20
114.9384738251119
 30
0.0
 10
573.4564014082209
 20
115.1712911945054
 30
0.0
 10
573.6164287834105
 20
115.4039747352471
 30
0.0
 10
573.7779998861055
 20
115.6363773799449
 30
0.0
 10
573.9410408461322
 20
115.8683699211388
 30
0.0
 10
574.1054850488136
 20
116.0998376917901
 30
0.0
 10
574.271271751593
 20
116.3306779845522
 30
0.0
 10
574.4383449998057
 20
116.5607980234661
 30
0.0
 10
574.606652768366
 20
116.7901133537892
 30
0.0
 10
574.7761462759829
 20
117.0185465518905
 30
0.0
 10
574.9467794325454
 20
117.2460261827612
 30
0.0
 10
575.1185083902783
 20
117.472485950938
 30
0.0
 10
575.2912911765299
 20
117.6978640039259
 30
0.0
 10
575.465087391292
 20
117.9221023568485
 30
0.0
 10
575.6398579564951
 20
118.1451464142786
 30
0.0
 10
575.8155649069987
 20
118.3669445705246
 30
0.0
 10
575.9921712154114
 20
118.5874478737217
 30
0.0
 10
576.1696406445415
 20
118.8066097421528
 30
0.0
 10
576.3479376225421
 20
119.0243857235811
 30
0.0
 10
576.5270271368355
 20
119.2407332902366
 30
0.0
 10
576.7068746436266
 20
119.4556116634866
 30
0.0
 10
576.8874459904665
 20
119.6689816633905
 30
0.0
 10
577.0687073497627
 20
119.8808055791839
 30
0.0
 10
577.2506251615439
 20
120.0910470574818
 30
0.0
 10
577.4331660840636
 20
120.2996710055214
 30
0.0
 10
577.6162969510913
 20
120.5066435072526
 30
0.0
 10
577.7999847349221
 20
120.7119317504299
 30
0.0
 10
577.9841965143054
 20
120.9155039631731
 30
0.0
 10
578.1688994466167
 20
121.1173293587049
 30
0.0
 10
578.3540607437083
 20
121.3173780871745
 30
0.0
 10
578.539647650961
 20
121.5156211936475
 30
0.0
 10
578.7256274291366
 20
121.7120305814773
 30
0.0
 10
578.911967338682
 20
121.9065789803889
 30
0.0
 10
579.0986346261981
 20
122.0992399187014
 30
0.0
 10
579.2855965128197
 20
122.2899876991979
 30
0.0
 10
579.4728201842975
 20
122.47879737822
 30
0.0
 10
579.6602727825936
 20
122.6656447476184
 30
0.0
 10
579.8479213988381
 20
122.8505063192434
 30
0.0
 10
580.0357330675039
 20
123.0333593116949
 30
0.0
 10
580.2236747616877
 20
123.2141816390942
 30
0.0
 10
580.4117133893947
 20
123.392951901666
 30
0.0
 10
580.5998157907363
 20
123.5696493779413
 30
0.0
 10
580.7879487359681
 20
123.7442540184236
 30
0.0
 10
580.9760789242948
 20
123.9167464405659
 30
0.0
 10
581.1641729833967
 20
124.0871079249416
 30
0.0
 10
581.3521974696147
 20
124.2553204124844
 30
0.0
 10
581.540118868759
 20
124.4213665027055
 30
0.0
 10
581.7279035974983
 20
124.5852294527887
 30
0.0
 10
581.915518005301
 20
124.7468931774913
 30
0.0
 10
582.1029283768978
 20
124.90634224977
 30
0.0
 10
582.290100935239
 20
125.0635619020699
 30
0.0
 10
582.4770018449293
 20
125.2185380282154
 30
0.0
 10
582.6635972161176
 20
125.3712571858482
 30
0.0
 10
582.8498531088259
 20
125.521706599361
 30
0.0
 10
583.0357355377081
 20
125.6698741632857
 30
0.0
 10
583.2212104772212
 20
125.8157484460887
 30
0.0
 10
583.406243867202
 20
125.9593186943369
 30
0.0
 10
583.590801618837
 20
126.1005748371951
 30
0.0
 10
583.7748496210224
 20
126.2395074912247
 30
0.0
 10
583.9583537471046
 20
126.3761079654466
 30
0.0
 10
584.1412798619992
 20
126.5103682666477
 30
0.0
 10
584.3235938296706
 20
126.6422811048684
 30
0.0
 10
584.5052615210186
 20
126.7718398991686
 30
0.0
 10
584.6862488219759
 20
126.8990387831766
 30
0.0
 10
584.8665216425447
 20
127.0238726121507
 30
0.0
 10
585.0460459240305
 20
127.1463369649827
 30
0.0
 10
585.224787654684
 20
127.2664281655137
 30
0.0
 10
585.4027128556858
 20
127.3841432322294
 30
0.0
 10
585.5797876793254
 20
127.4994800951038
 30
0.0
 10
585.7559780907333
 20
127.61243681701
 30
0.0
 10
585.9312511032057
 20
127.7230145247893
 30
0.0
 10
586.10557022543
 20
127.8312065155231
 30
0.0
 10
586.2789124809743
 20
127.9370388838078
 30
0.0
 10
586.4512050345046
 20
128.040419141747
 30
0.0
 10
586.6090949610912
 20
128.1337409751006
 30
0.0
 10
586.7091072820754
 20
128.1915531894538
 30
0.0
 10
586.7524017000057
 20
128.2165795676545
 30
0.0
  0
SPLINE
  5
F2
330
1F
100
AcDbEntity
  8
0
  6
Continuous
 62
     7
370
    30
100
AcDbSpline
210
0.0
220
0.0
230
1.0
 70
     8
 71
     3
 72
    98
 73
    94
 74
     0
 42
0.000000001
 43
0.00000001
 40
0.0
 40
0.0
 40
0.0
 40
0.0
 40
0.0100343280336738
 40
0.0214349620007159
 40
0.0328384803378377
 40
0.0442444190852987
 40
0.0556523357306221
 40
0.0670618093736628
 40
0.0784723121389496
 40
0.0898834645636318
 40
0.101294917357467
 40
0.1127063428515967
 40
0.1241174347628083
 40
0.1355279079895962
 40
0.1469374983720052
 40
0.15834596241948
 40
0.1697530770137554
 40
0.1811586390909105
 40
0.1925624653063621
 40
0.2039643916913193
 40
0.215364273300356
 40
0.2267619838595706
 40
0.2381574154153171
 40
0.2495504779906668
 40
0.2609410992524523
 40
0.2723292241917218
 40
0.2837148148241393
 40
0.2950978499101106
 40
0.3064783247026717
 40
0.317856250723124
 40
0.3292316555702959
 40
0.3406045827659081
 40
0.3519750916416331
 40
0.3633432572702869
 40
0.3747091704466113
 40
0.3860729377217254
 40
0.3974346814981802
 40
0.4087945401879758
 40
0.4201526684449981
 40
0.4315092374734767
 40
0.4428644354253574
 40
0.4542184678926558
 40
0.4655715585082642
 40
0.4769239496650072
 40
0.4882759033681504
 40
0.4996277022389251
 40
0.5109796506872555
 40
0.5223320762757823
 40
0.5336853313047278
 40
0.5450397946455223
 40
0.5563958738635749
 40
0.5677540076736937
 40
0.5791146687818357
 40
0.5904783671791634
 40
0.6018456539631887
 40
0.6132171257859436
 40
0.6245934300405401
 40
0.6359752709328528
 40
0.6473634166133699
 40
0.6587587075904308
 40
0.6701620667031216
 40
0.6815745110034976
 40
0.6929971659963732
 40
0.7044312828134538
 40
0.7158782590719415
 40
0.7273396644021484
 40
0.7388172719526348
 40
0.7503130976376889
 40
0.7618294495246993
 40
0.7733689906943849
 40
0.7837350242587501
 40
0.7940978495293823
 40
0.8044564973452624
 40
0.8148107050273797
 40
0.8251601289393954
 40
0.8355043199639073
 40
0.8458426883606146
 40
0.8561744534558159
 40
0.8664985698568671
 40
0.8768136162211985
 40
0.8871176221889576
 40
0.8974077889929722
 40
0.9076800184010471
 40
0.9179280760531476
 40
0.9281420078906701
 40
0.9383048948875782
 40
0.9483854842547662
 40
0.9583189792414826
 40
0.9679458888843931
 40
0.9767375082586169
 40
0.9835506255894688
 40
0.9900028433041904
 40
1.0
 40
1.0
 40
1.0
 40
1.0
 10
574.7536216966718
 20
149.0018784005346
 30
0.0
 10
574.6583536291743
 20
148.9467094792001
 30
0.0
 10
574.4548454919242
 20
148.8288596612098
 30
0.0
 10
574.143928634699
 20
148.6448212841115
 30
0.0
 10
573.8206740021091
 20
148.450531544861
 30
0.0
 10
573.4980938717001
 20
148.2533057570096
 30
0.0
 10
573.1761891404402
 20
148.0532588575779
 30
0.0
 10
572.8549898401292
 20
147.8503891891606
 30
0.0
 10
572.5345177736833
 20
147.64472662056
 30
0.0
 10
572.2147961359107
 20
147.4362925762442
 30
0.0
 10
571.8958457298019
 20
147.2251098931847
 30
0.0
 10
571.5776868631574
 20
147.0112006819438
 30
0.0
 10
571.260339253216
 20
146.7945871263908
 30
0.0
 10
570.9438220897359
 20
146.5752912604159
 30
0.0
 10
570.6281540347328
 20
146.3533350063075
 30
0.0
 10
570.3133532397893
 20
146.1287401443787
 30
0.0
 10
569.999437359264
 20
145.9015283024143
 30
0.0
 10
569.6864235650432
 20
145.6717209411186
 30
0.0
 10
569.3743285611475
 20
145.4393393418343
 30
0.0
 10
569.0631685985111
 20
145.204404594762
 30
0.0
 10
568.7529594896772
 20
144.9669375880192
 30
0.0
 10
568.4437166233715
 20
144.726958997354
 30
0.0
 10
568.1354549788118
 20
144.4844892764207
 30
0.0
 10
567.8281891396854
 20
144.2395486475268
 30
0.0
 10
567.5219333076996
 20
143.992157092743
 30
0.0
 10
567.2167013156171
 20
143.7423343452635
 30
0.0
 10
566.9125066397197
 20
143.4900998809237
 30
0.0
 10
566.6093624115961
 20
143.2354729097359
 30
0.0
 10
566.3072814292154
 20
142.9784723673492
 30
0.0
 10
566.0062761671921
 20
142.7191169062887
 30
0.0
 10
565.706358786199
 20
142.4574248868665
 30
0.0
 10
565.4075411414439
 20
142.1934143676092
 30
0.0
 10
565.1098347901525
 20
141.9271030950701
 30
0.0
 10
564.8132509979811
 20
141.6585084928631
 30
0.0
 10
564.5178007442984
 20
141.3876476497669
 30
0.0
 10
564.2234947262418
 20
141.1145373067028
 30
0.0
 10
563.9303433614833
 20
140.8391938424124
 30
0.0
 10
563.6383567895847
 20
140.5616332575932
 30
0.0
 10
563.3475448718708
 20
140.2818711572894
 30
0.0
 10
563.0579171896685
 20
139.9999227312392
 30
0.0
 10
562.7694830408122
 20
139.715802731919
 30
0.0
 10
562.482251434227
 20
139.4295254499137
 30
0.0
 10
562.1962310824342
 20
139.1411046862617
 30
0.0
 10
561.9114303917631
 20
138.8505537213288
 30
0.0
 10
561.6278574500325
 20
138.5578852797222
 30
0.0
 10
561.3455200114106
 20
138.2631114906633
 30
0.0
 10
561.0644254781281
 20
137.9662438431606
 30
0.0
 10
560.78458087864
 20
137.6672931352004
 30
0.0
 10
560.5059928417851
 20
137.3662694160588
 30
0.0
 10
560.2286675663681
 20
137.0631819206473
 30
0.0
 10
559.9526107855231
 20
136.7580389946472
 30
0.0
 10
559.6778277250486
 20
136.4508480089125
 30
0.0
 10
559.4043230547567
 20
136.1416152613402
 30
0.0
 10
559.1321008316993
 20
135.8303458640652
 30
0.0
 10
558.861164433841
 20
135.5170436133402
 30
0.0
 10
558.5915164824928
 20
135.2017108389591
 30
0.0
 10
558.3231587513728
 20
134.8843482293104
 30
0.0
 10
558.0560920597215
 20
134.5649546273186
 30
0.0
 10
557.7903161462278
 20
134.24352679135
 30
0.0
 10
557.5258295197325
 20
133.9200591137201
 30
0.0
 10
557.2626292816192
 20
133.5945432875501
 30
0.0
 10
557.0007109134255
 20
133.2669679102439
 30
0.0
 10
556.7400680214225
 20
132.9373180086505
 30
0.0
 10
556.4806920273774
 20
132.605574466493
 30
0.0
 10
556.2225717918424
 20
132.2717133293576
 30
0.0
 10
555.9656931504124
 20
131.9357049525938
 30
0.0
 10
555.7100383426157
 20
131.5975129539865
 30
0.0
 10
555.4555852842575
 20
131.2570928896491
 30
0.0
 10
555.2023066972924
 20
130.914390654757
 30
0.0
 10
554.9589065047034
 20
130.5812977125602
 30
0.0
 10
554.7253861578386
 20
130.2582580978601
 30
0.0
 10
554.5017715769391
 20
129.9457418760788
 30
0.0
 10
554.2796126388436
 20
129.6320644665939
 30
0.0
 10
554.058930512923
 20
129.3172608058806
 30
0.0
 10
553.8397424132122
 20
129.0013608295225
 30
0.0
 10
553.6220675851937
 20
128.6843980029729
 30
0.0
 10
553.405927998143
 20
128.3664105165583
 30
0.0
 10
553.1913493355858
 20
128.047442996378
 30
0.0
 10
552.9783624641968
 20
127.727549037595
 30
0.0
 10
552.7670056698531
 20
127.4067950573099
 30
0.0
 10
552.5573281809859
 20
127.0852663589762
 30
0.0
 10
552.3493959450608
 20
126.7630770663487
 30
0.0
 10
552.1433015660228
 20
126.4403871906098
 30
0.0
 10
551.9391824138837
 20
126.1174337196759
 30
0.0
 10
551.7372561731931
 20
125.7945915032413
 30
0.0
 10
551.5378973228217
 20
125.4725043694557
 30
0.0
 10
551.3418248113817
 20
125.1524053289321
 30
0.0
 10
551.1506528583261
 20
124.8370591857406
 30
0.0
 10
550.9691312829783
 20
124.5345684526934
 30
0.0
 10
550.8087082163613
 20
124.2646671821911
 30
0.0
 10
550.6693256846414
 20
124.028201833035
 30
0.0
 10
550.523017555222
 20
123.7783938180981
 30
0.0
 10
550.4204398315982
 20
123.6012312022518
 30
0.0
 10
550.3580979120228
 20
123.4935600904482
 30
0.0
  0
SPLINE
  5
F3
330
1F
100
AcDbEntity
  8
0
  6
Continuous
 62
     7
370
    30
100
AcDbSpline
210
0.0
220
0.0
230
1.0
 70
     8
 71
     3
 72
    72
 73
    68
 74
     0
 42
0.000000001
 43
0.00000001
 40
0.0
 40
0.0
 40
0.0
 40
0.0
 40
0.0173019216486864
 40
0.0242015828511828
 40
0.0356737643671742
 40
0.047576731864495
 40
0.0603431051898189
 40
0.0736698609323945
 40
0.0874355133230825
 40
0.1015430104082789
 40
0.1159233130080911
 40
0.1305252857031028
 40
0.1453103577248122
 40
0.1602488762948586
 40
0.1753176538720493
 40
0.1904982790616992
 40
0.2057759310842839
 40
0.2211385321274559
 40
0.2365761307107946
 40
0.2520804458313392
 40
0.2676445249279742
 40
0.283262483703479
 40
0.2989293056944439
 40
0.3146406860608836
 40
0.3303929085152045
 40
0.3461827473888516
 40
0.3620073889811403
 40
0.377864367841611
 40
0.393751514739994
 40
0.4096669138574962
 40
0.4256088673184487
 40
0.4415758656093962
 40
0.457566562753639
 40
0.4735797553554892
 40
0.4896143648127869
 40
0.5056694221358016
 40
0.5217440549300938
 40
0.5378374761748111
 40
0.553948974509358
 40
0.5700779057840769
 40
0.5862236856793811
 40
0.6023857832310702
 40
0.6185637151264635
 40
0.6347570406593105
 40
0.6509653572469245
 40
0.6671882964356884
 40
0.6834255203204904
 40
0.6996767183276001
 40
0.7159416043091182
 40
0.7322199139096102
 40
0.74851140216696
 40
0.7648158413202947
 40
0.7811330187947525
 40
0.7974627353442503
 40
0.8138048033285435
 40
0.8301590451100606
 40
0.8465252915549241
 40
0.8629033806225547
 40
0.8792931560357683
 40
0.8956944660195094
 40
0.9121071620976046
 40
0.9285310979424727
 40
0.9449661282698404
 40
0.9614121077698576
 40
0.9778688900746548
 40
0.9943363267513301
 40
0.9999999999999999
 40
0.9999999999999999
 40
0.9999999999999999
 40
0.9999999999999999
 10
550.3580979120228
 20
123.4935600904482
 30
0.0
 10
550.287052568053
 20
123.3700851462119
 30
0.0
 10
550.1876757581708
 20
123.19737085738
 30
0.0
 10
550.0424791310444
 20
122.9420597138373
 30
0.0
 10
549.9198201823062
 20
122.7250767634221
 30
0.0
 10
549.7743396399172
 20
122.46553208883
 30
0.0
 10
549.6224248163923
 20
122.1921217883776
 30
0.0
 10
549.4642199725995
 20
121.9047075111584
 30
0.0
 10
549.3019387855485
 20
121.6069913543009
 30
0.0
 10
549.1368312026632
 20
121.301008922678
 30
0.0
 10
548.9698426226894
 20
120.9883035856492
 30
0.0
 10
548.8016696132328
 20
120.6700070553868
 30
0.0
 10
548.6328403173544
 20
120.3469743408277
 30
0.0
 10
548.4637632371732
 20
120.0198642286429
 30
0.0
 10
548.2947603866892
 20
119.6891941102693
 30
0.0
 10
548.126090019889
 20
119.3553774482594
 30
0.0
 10
547.9579625286076
 20
119.0187499390547
 30
0.0
 10
547.7905517784166
 20
118.6795881232234
 30
0.0
 10
547.6240033354328
 20
118.338122860692
 30
0.0
 10
547.458440536663
 20
117.9945492494849
 30
0.0
 10
547.2939690380059
 20
117.6490340386502
 30
0.0
 10
547.1306802700335
 20
117.3017212466706
 30
0.0
 10
546.9686540981054
 20
116.952736475148
 30
0.0
 10
546.8079608946325
 20
116.6021902604427
 30
0.0
 10
546.6486631712837
 20
116.2501807065842
 30
0.0
 10
546.4908168777406
 20
115.8967955746849
 30
0.0
 10
546.3344724449188
 20
115.5421139567163
 30
0.0
 10
546.1796756302839
 20
115.1862076280549
 30
0.0
 10
546.0264682084126
 20
114.8291421493815
 30
0.0
 10
545.8748885394127
 20
114.4709777711708
 30
0.0
 10
545.7249720401328
 20
114.1117701814177
 30
0.0
 10
545.5767515773832
 20
113.751571127875
 30
0.0
 10
545.4302577981205
 20
113.3904289390969
 30
0.0
 10
545.285519408327
 20
113.0283889633087
 30
0.0
 10
545.1425634098581
 20
112.6654939401284
 30
0.0
 10
545.0014153026357
 20
112.3017843170555
 30
0.0
 10
544.8620992581182
 20
111.9372985203181
 30
0.0
 10
544.724638268808
 20
111.5720731877342
 30
0.0
 10
544.5890542776901
 20
111.2061433698701
 30
0.0
 10
544.455368290756
 20
110.8395427045576
 30
0.0
 10
544.3236004752216
 20
110.4723035689688
 30
0.0
 10
544.1937702455814
 20
110.1044572126781
 30
0.0
 10
544.0658963392726
 20
109.7360338745634
 30
0.0
 10
543.939996883445
 20
109.3670628859385
 30
0.0
 10
543.8160894540564
 20
108.9975727618744
 30
0.0
 10
543.6941911283562
 20
108.6275912824169
 30
0.0
 10
543.574318531617
 20
108.2571455650709
 30
0.0
 10
543.4564878788711
 20
107.8862621297855
 30
0.0
 10
543.3407150122722
 20
107.5149669574152
 30
0.0
 10
543.2270154346239
 20
107.143285542555
 30
0.0
 10
543.1154043395355
 20
106.7712429414721
 30
0.0
 10
543.0058966385818
 20
106.3988638157909
 30
0.0
 10
542.8985069858676
 20
106.0261724724642
 30
0.0
 10
542.7932498000275
 20
105.6531929005059
 30
0.0
 10
542.6901392849003
 20
105.2799488049832
 30
0.0
 10
542.589189445364
 20
104.9064636382388
 30
0.0
 10
542.490414112459
 20
104.5327606301584
 30
0.0
 10
542.3938269258648
 20
104.1588628121375
 30
0.0
 10
542.2994414684781
 20
103.784793055976
 30
0.0
 10
542.2072708261514
 20
103.4105740495033
 30
0.0
 10
542.117329288964
 20
103.0362285020514
 30
0.0
 10
542.0296260462834
 20
102.6617784855627
 30
0.0
 10
541.9441887868912
 20
102.2872479999475
 30
0.0
 10
541.860975573982
 20
101.912653488929
 30
0.0
 10
541.7802040959544
 20
101.5380393664875
 30
0.0
 10
541.7184330593668
 20
101.2453669186199
 30
0.0
 10
541.6843926324954
 20
101.0776593177064
 30
0.0
 10
541.6756811916459
 20
101.0347405008872
 30
0.0
  0
LINE
  5
F4
330
1F
100
AcDbEntity
  8
0
  6
Continuous
 62
     7
370
    30
100
AcDbLine
 10
562.5345070932
 20
83.2549816427
 30
0.0
 11
565.1881912706
 21
96.2233298572
 31
0.0
  0
LINE
  5
F5
330
1F
100
AcDbEntity
  8
0
  6
Continuous
 62
     7
370
    30
100
AcDbLine
 10
541.675412962
 20
101.0346972521
 30
0.0
 11
539.0217287846
 21
88.0663490377
 31
0.0
  0
LINE
  5
F6
330
1F
100
AcDbEntity
  8
0
  6
Continuous
 62
     7
370
    30
100
AcDbLine
 10
586.7525562717
 20
128.2168242885
 30
0.0
 11
674.0795100644
 21
178.6296016469
 31
0.0
  0
LINE
  5
F7
330
1F
100
AcDbEntity
  8
0
  6
Continuous
 62
     7
370
    30
100
AcDbLine
 10
662.0804852728
 20
199.414774344
 30
0.0
 11
574.75353148
 21
149.0019969856
 31
0.0
  0
SPLINE
  5
F8
330
1F
100
AcDbEntity
  8
0
  6
Continuous
 62
     7
370
    30
100
AcDbSpline
210
0.0
220
0.0
230
1.0
 70
     8
 71
     3
 72
    25
 73
    21
 74
     0
 42
0.000000001
 43
0.00000001
 40
0.0
 40
0.0
 40
0.0
 40
0.0
 40
0.0715392947600709
 40
0.1286708097485225
 40
0.1704613702827202
 40
0.1980135670700166
 40
0.2266286491256801
 40
0.2599961490236479
 40
0.2982813598290693
 40
0.3713349624844615
 40
0.4350634902743735
 40
0.4899802922633072
 40
0.5742539592394126
 40
0.6485100278518108
 40
0.6728674611247875
 40
0.709148536248618
 40
0.7596584353744721
 40
0.8247747459726956
 40
0.9048362994647571
 40
1.0
 40
1.0
 40
1.0
 40
1.0
 10
567.6438646491655
 20
66.11496603824476
 30
0.0
 10
567.6565569493292
 20
66.10782219132876
 30
0.0
 10
567.6793853619535
 20
66.09497324487928
 30
0.0
 10
567.7104777289596
 20
66.0796023925232
 30
0.0
 10
567.7338506649354
 20
66.06892130241442
 30
0.0
 10
567.7520529956641
 20
66.06113507411271
 30
0.0
 10
567.7688489993209
 20
66.05433374604647
 30
0.0
 10
567.78784450929
 20
66.0471256102342
 30
0.0
 10
567.8155288092788
 20
66.03743418352099
 30
0.0
 10
567.8494766085786
 20
66.02709700514339
 30
0.0
 10
567.8871648244293
 20
66.01774043784026
 30
0.0
 10
567.9274962918992
 20
66.00969645670693
 30
0.0
 10
567.9703459899237
 20
66.00360385796034
 30
0.0
 10
568.0073290302821
 20
66.00077870528165
 30
0.0
 10
568.0346893903825
 20
65.99982013650867
 30
0.0
 10
568.0573472389834
 20
65.99960772299451
 30
0.0
 10
568.0882960693857
 20
66.00045510388742
 30
0.0
 10
568.1280136956113
 20
66.00358044447762
 30
0.0
 10
568.1764484055682
 20
66.01022476018909
 30
0.0
 10
568.2109600047767
 20
66.01856544647872
 30
0.0
 10
568.2297030307766
 20
66.02309521918029
 30
0.0
  0
LINE
  5
F9
330
1F
100
AcDbEntity
  8
0
  6
Continuous
 62
     7
370
    30
100
AcDbLine
 10
557.2606479104
 20
72.1090557523
 30
0.0
 11
567.6428444938
 21
66.1155412402
 31
0.0
  0
SPLINE
  5
FA
330
1F
100
AcDbEntity
  8
0
  6
Continuous
 62
     7
370
    30
100
AcDbSpline
210
0.0
220
0.0
230
1.0
 70
     8
 71
     3
 72
    28
 73
    24
 74
     0
 42
0.000000001
 43
0.00000001
 40
0.0
 40
0.0
 40
0.0
 40
0.0
 40
0.0103025102891342
 40
0.0581048493946707
 40
0.1056027483739013
 40
0.1528628482334002
 40
0.1999603900648599
 40
0.2469758086888575
 40
0.293997598844873
 40
0.3411257378774687
 40
0.38847582158501
 40
0.4361839935541295
 40
0.4844125739976237
 40
0.5333559142640933
 40
0.583245253528289
 40
0.634349947588395
 40
0.6869699091204525
 40
0.741409972945378
 40
0.7979220424810188
 40
0.8566020773877955
 40
0.9172559570146422
 40
0.9793185495514753
 40
1.0
 40
1.0
 40
1.0
 40
1.0
 10
572.7395428370027
 20
73.50204696398599
 30
0.0
 10
572.7402492715397
 20
73.50507550666052
 30
0.0
 10
572.7442334725957
 20
73.522156102656
 30
0.0
 10
572.748376886191
 20
73.5538326389443
 30
0.0
 10
572.751808901449
 20
73.59669877460625
 30
0.0
 10
572.7518292669217
 20
73.63947559022091
 30
0.0
 10
572.7488468689654
 20
73.68190490829257
 30
0.0
 10
572.7428504727633
 20
73.72384044545383
 30
0.0
 10
572.7339480430336
 20
73.7651293076767
 30
0.0
 10
572.7222184218182
 20
73.80564644019508
 30
0.0
 10
572.7077449327419
 20
73.84528905702741
 30
0.0
 10
572.6905985634713
 20
73.88398189509321
 30
0.0
 10
572.6708325621208
 20
73.92167928944355
 30
0.0
 10
572.6484718797499
 20
73.95836703905354
 30
0.0
 10
572.6235026506882
 20
73.9940618937647
 30
0.0
 10
572.5958625855133
 20
74.02880715054717
 30
0.0
 10
572.56543680218
 20
74.06266131003878
 30
0.0
 10
572.532068119084
 20
74.09567725564418
 30
0.0
 10
572.4955910383634
 20
74.12786553963981
 30
0.0
 10
572.4559133980063
 20
74.1591607046019
 30
0.0
 10
572.4130841004073
 20
74.18935238744625
 30
0.0
 10
572.377814913872
 20
74.21170390121063
 30
0.0
 10
572.3568464632625
 20
74.22394474548847
 30
0.0
 10
572.3516055062507
 20
74.22700428192452
 30
0.0
  0
LINE
  5
FB
330
1F
100
AcDbEntity
  8
0
  6
Continuous
 62
     7
370
    30
100
AcDbLine
 10
556.4035805379
 20
53.2936260246
 30
0.0
 11
559.9375231158
 21
70.5637285894
 31
0.0
  0
LINE
  5
FC
330
1F
100
AcDbEntity
  8
0
  6
Continuous
 62
     7
370
    30
100
AcDbLine
 10
561.9245543521
 20
80.2741957223
 30
0.0
 11
562.3514933495
 21
82.3606134018
 31
0.0
  0
LINE
  5
FD
330
1F
100
AcDbEntity
  8
0
  6
Continuous
 62
     7
370
    30
100
AcDbLine
 10
538.8387150408
 20
87.1719807968
 30
0.0
 11
532.8908022293
 21
58.1049934195
 31
0.0
  0
LINE
  5
FE
330
1F
100
AcDbEntity
  8
0
  6
Continuous
 62
     7
370
    30
100
AcDbLine
 10
571.4794193043
 20
67.3425537562
 30
0.0
 11
572.7398185683
 21
73.5020269459
 31
0.0
  0
LINE
  5
FF
330
1F
100
AcDbEntity
  8
0
  6
Continuous
 62
     7
370
    30
100
AcDbLine
 10
568.2299069219
 20
66.0230100667
 30
0.0
 11
570.9619577295
 21
66.7548441738
 31
0.0
  0
SPLINE
  5
100
330
1F
100
AcDbEntity
  8
0
  6
Continuous
 62
     7
370
    30
100
AcDbSpline
210
0.0
220
0.0
230
1.0
 70
     8
 71
     3
 72
    13
 73
     9
 74
     0
 42
0.000000001
 43
0.00000001
 40
0.0
 40
0.0
 40
0.0
 40
0.0
 40
0.1576094092852988
 40
0.3406324486098554
 40
0.5237354322078693
 40
0.707047844119285
 40
0.890696027804596
 40
1.0
 40
1.0
 40
1.0
 40
1.0
 10
562.3514829398745
 20
82.36152457446225
 30
0.0
 10
562.356401334932
 20
82.38636344994057
 30
0.0
 10
562.3670311885639
 20
82.44004632974614
 30
0.0
 10
562.3795189370236
 20
82.5233127591479
 30
0.0
 10
562.3897952567954
 20
82.61110732690751
 30
0.0
 10
562.3966774321884
 20
82.69946594571043
 30
0.0
 10
562.4003593763487
 20
82.77624405041384
 30
0.0
 10
562.4004405405929
 20
82.8236643304576
 30
0.0
 10
562.4004708239484
 20
82.84135740718479
 30
0.0
  0
SPLINE
  5
101
330
1F
100
AcDbEntity
  8
0
  6
Continuous
 62
     7
370
    30
100
AcDbSpline
210
0.0
220
0.0
230
1.0
 70
     8
 71
     3
 72
    13
 73
     9
 74
     0
 42
0.000000001
 43
0.00000001
 40
0.0
 40
0.0
 40
0.0
 40
0.0
 40
0.1479464246760537
 40
0.3328396776718613
 40
0.5171598853114797
 40
0.7010251195734946
 40
0.8845593259483863
 40
1.0
 40
1.0
 40
1.0
 40
1.0
 10
538.9816976151922
 20
87.63170192669372
 30
0.0
 10
538.9724983051713
 20
87.60963739897221
 30
0.0
 10
538.9518023310112
 20
87.55999814401294
 30
0.0
 10
538.923319338968
 20
87.48169136349532
 30
0.0
 10
538.8955805452545
 20
87.39716043833396
 30
0.0
 10
538.8712547334267
 20
87.3119419566182
 30
0.0
 10
538.8522613370317
 20
87.23678769307183
 30
0.0
 10
538.8427127297782
 20
87.18977686808283
 30
0.0
 10
538.8390258057931
 20
87.17162497078392
 30
0.0
  0
LINE
  5
102
330
1F
100
AcDbEntity
  8
0
  6
Continuous
 62
     7
370
    30
100
AcDbLine
 10
572.3516055063
 20
74.2270042819
 30
0.0
 11
562.2737266807
 21
80.0448398918
 31
0.0
  0
LINE
  5
103
330
1F
100
AcDbEntity
  8
0
  6
Continuous
 62
     7
370
    30
100
AcDbLine
 10
570.9617553502
 20
66.7549297313
 30
0.0
 11
570.971581696
 21
66.7579618915
 31
0.0
  0
SPLINE
  5
104
330
1F
100
AcDbEntity
  8
0
  6
Continuous
 62
     7
370
    30
100
AcDbSpline
210
0.0
220
0.0
230
1.0
 70
     8
 71
     3
 72
    32
 73
    28
 74
     0
 42
0.000000001
 43
0.00000001
 40
0.0
 40
0.0
 40
0.0
 40
0.0
 40
0.0413941307797867
 40
0.091921164526187
 40
0.1312091009248473
 40
0.159384610359453
 40
0.183967303585132
 40
0.2091667999536786
 40
0.2349618983902092
 40
0.2609507990458233
 40
0.3116573467309614
 40
0.3618577420078305
 40
0.41381106480126
 40
0.4716722792585744
 40
0.5241409001260966
 40
0.5787167500983447
 40
0.6331953836969403
 40
0.6810563071430631
 40
0.7213437493008735
 40
0.7696735061120893
 40
0.8184799628405267
 40
0.8351365017348533
 40
0.8525602320482476
 40
0.8769771721076947
 40
0.9099138332073657
 40
0.9510426631458813
 40
0.9999999999999999
 40
0.9999999999999999
 40
0.9999999999999999
 40
0.9999999999999999
 10
570.9775503759681
 20
66.75980367423534
 30
0.0
 10
570.9883855129061
 20
66.76298828210453
 30
0.0
 10
571.0124463733803
 20
66.77006012679315
 30
0.0
 10
571.0457004277838
 20
66.78317214577126
 30
0.0
 10
571.075000064938
 20
66.79624779053911
 30
0.0
 10
571.097390719304
 20
66.80741366115068
 30
0.0
 10
571.1160409641851
 20
66.81745002605344
 30
0.0
 10
571.1338150885266
 20
66.82771112081737
 30
0.0
 10
571.151588435732
 20
66.83870429061567
 30
0.0
 10
571.1747799739858
 20
66.85405541664313
 30
0.0
 10
571.202597308449
 20
66.87434532474218
 30
0.0
 10
571.2345671918206
 20
66.90071079120854
 30
0.0
 10
571.2663086875057
 20
66.93024163533349
 30
0.0
 10
571.2964961005621
 20
66.96213607543366
 30
0.0
 10
571.325044120556
 20
66.99637541691253
 30
0.0
 10
571.350909112095
 20
67.03148292105112
 30
0.0
 10
571.3739056956495
 20
67.06695597781665
 30
0.0
 10
571.392998717827
 20
67.1002601372131
 30
0.0
 10
571.4097661598486
 20
67.13288370546493
 30
0.0
 10
571.4251248526494
 20
67.16637737542705
 30
0.0
 10
571.4365679943522
 20
67.1948012062378
 30
0.0
 10
571.4443892417443
 20
67.2161560631222
 30
0.0
 10
571.4496961596562
 20
67.23144443330989
 30
0.0
 10
571.4559570332639
 20
67.25065520907336
 30
0.0
 10
571.4634422958276
 20
67.275811226298
 30
0.0
 10
571.4717784189885
 20
67.30715270144158
 30
0.0
 10
571.4767173317009
 20
67.33004367594384
 30
0.0
 10
571.4794013843358
 20
67.34248377845375
 30
0.0
  0
SPLINE
  5
105
330
1F
100
AcDbEntity
  8
0
  6
Continuous
 62
     7
370
    30
100
AcDbSpline
210
0.0
220
0.0
230
1.0
 70
     8
 71
     3
 72
    29
 73
    25
 74
     0
 42
0.000000001
 43
0.00000001
 40
0.0
 40
0.0
 40
0.0
 40
0.0
 40
0.035785014561641
 40
0.0693603470396964
 40
0.1135930673822076
 40
0.1570904706904714
 40
0.195398085106402
 40
0.2294332673594897
 40
0.2623997567069538
 40
0.2951730991217363
 40
0.3540598108216563
 40
0.4220018735143797
 40
0.4872130000679836
 40
0.5521154159426648
 40
0.6221829913293877
 40
0.6819733295766972
 40
0.7296890072873121
 40
0.7718660420230471
 40
0.8152470761691438
 40
0.8307872495861847
 40
0.8513095733302757
 40
0.8785690599877617
 40
0.9319324687131124
 40
1.0
 40
1.0
 40
1.0
 40
1.0
 10
556.0295669098965
 20
72.46789136076745
 30
0.0
 10
556.0347486722504
 20
72.46849675046937
 30
0.0
 10
556.0447922292967
 20
72.4696701477792
 30
0.0
 10
556.0678299483901
 20
72.47219129673505
 30
0.0
 10
556.0977724641838
 20
72.47475091274075
 30
0.0
 10
556.1295393852207
 20
72.47687961395846
 30
0.0
 10
556.1582756314255
 20
72.47840958026211
 30
0.0
 10
556.1840858619903
 20
72.47942320899494
 30
0.0
 10
556.2075672475142
 20
72.4800199267682
 30
0.0
 10
556.234777942642
 20
72.48033999433376
 30
0.0
 10
556.2698963635457
 20
72.48011819129863
 30
0.0
 10
556.3124000488318
 20
72.4786677506297
 30
0.0
 10
556.3553176676053
 20
72.4758708164073
 30
0.0
 10
556.39787026301
 20
72.47173515808316
 30
0.0
 10
556.438283684886
 20
72.4663720906015
 30
0.0
 10
556.474115188861
 20
72.46030786563537
 30
0.0
 10
556.5035613774849
 20
72.45437648814854
 30
0.0
 10
556.5292077039923
 20
72.44848051007138
 30
0.0
 10
556.548184047412
 20
72.44357701067477
 30
0.0
 10
556.5628169705952
 20
72.43949625640894
 30
0.0
 10
556.5743629439914
 20
72.43612903033237
 30
0.0
 10
556.5925292837172
 20
72.43050199780718
 30
0.0
 10
556.6186291057129
 20
72.42169832484608
 30
0.0
 10
556.6387893643209
 20
72.41357949390958
 30
0.0
 10
556.6500901006357
 20
72.40902852214955
 30
0.0
  0
SPLINE
  5
106
330
1F
100
AcDbEntity
  8
0
  6
Continuous
 62
     7
370
    30
100
AcDbSpline
210
0.0
220
0.0
230
1.0
 70
     8
 71
     3
 72
    16
 73
    12
 74
     0
 42
0.000000001
 43
0.00000001
 40
0.0
 40
0.0
 40
0.0
 40
0.0
 40
0.0647077130500639
 40
0.1866509428358462
 40
0.3082034051434531
 40
0.4292991922406077
 40
0.5499049772494629
 40
0.6699865207904664
 40
0.7895087456878612
 40
0.9084358771360337
 40
1.0
 40
1.0
 40
1.0
 40
1.0
 10
556.6497008868498
 20
72.40900444373125
 30
0.0
 10
556.6642476368022
 20
72.40285341499172
 30
0.0
 10
556.7062080842642
 20
72.38511062577041
 30
0.0
 10
556.7741619108731
 20
72.35535863600242
 30
0.0
 10
556.8528004871467
 20
72.31966169260551
 30
0.0
 10
556.929217731284
 20
72.28361094976685
 30
0.0
 10
557.0033416436073
 20
72.24729180991571
 30
0.0
 10
557.0750918050816
 20
72.2107766638643
 30
0.0
 10
557.1443361400178
 20
72.17414256945654
 30
0.0
 10
557.2061752234446
 20
72.14022483530405
 30
0.0
 10
557.2441352303272
 20
72.11850425068253
 30
0.0
 10
557.2606479103691
 20
72.10905575228546
 30
0.0
  0
SPLINE
  5
107
330
1F
100
AcDbEntity
  8
0
  6
Continuous
 62
     7
370
    30
100
AcDbSpline
210
0.0
220
0.0
230
1.0
 70
     8
 71
     3
 72
    37
 73
    33
 74
     0
 42
0.000000001
 43
0.00000001
 40
0.0
 40
0.0
 40
0.0
 40
0.0
 40
0.0183123347476283
 40
0.0524889819405032
 40
0.0865496423220128
 40
0.1204764834465066
 40
0.1542621389820071
 40
0.1878995659787552
 40
0.2213822518050502
 40
0.2547044859597927
 40
0.2878617016487225
 40
0.3208509018335455
 40
0.3536711876899044
 40
0.3863244117127849
 40
0.418815983678138
 40
0.4511558662621948
 40
0.483359809910006
 40
0.5154508961618358
 40
0.5474614895722699
 40
0.5794357484341316
 40
0.611420257045647
 40
0.6434781924930388
 40
0.675704573257355
 40
0.7082254965035327
 40
0.7412098311747574
 40
0.774887689121262
 40
0.8095815279911999
 40
0.8457627099523825
 40
0.8841649099794656
 40
0.9260435684344048
 40
0.9738940898745236
 40
1.0
 40
1.0
 40
1.0
 40
1.0
 10
562.2737266806623
 20
80.04483989182398
 30
0.0
 10
562.2620372118969
 20
80.051634242076
 30
0.0
 10
562.2285314725483
 20
80.07110901318477
 30
0.0
 10
562.1750444214489
 20
80.10343465305664
 30
0.0
 10
562.1141546612711
 20
80.14177677611973
 30
0.0
 10
562.0559501455666
 20
80.18010495846869
 30
0.0
 10
562.0004589950679
 20
80.21832498751006
 30
0.0
 10
561.9477460523796
 20
80.25634993371695
 30
0.0
 10
561.8978567854122
 20
80.29408748302444
 30
0.0
 10
561.8508329724012
 20
80.3314422742668
 30
0.0
 10
561.8067075417113
 20
80.36831533949199
 30
0.0
 10
561.765504869167
 20
80.40460439989769
 30
0.0
 10
561.7272395361146
 20
80.4402040389115
 30
0.0
 10
561.6919154173576
 20
80.47500603698865
 30
0.0
 10
561.6595246140242
 20
80.50889981985024
 30
0.0
 10
561.6300463784747
 20
80.54177306387936
 30
0.0
 10
561.6034460169118
 20
80.57351248177517
 30
0.0
 10
561.5796738056636
 20
80.60400482191635
 30
0.0
 10
561.5586639515672
 20
80.6331381186762
 30
0.0
 10
561.5403360565821
 20
80.66079958991263
 30
0.0
 10
561.5245928977615
 20
80.68687789842363
 30
0.0
 10
561.5113168817583
 20
80.71126889542037
 30
0.0
 10
561.5003683209052
 20
80.73388184383329
 30
0.0
 10
561.4915864936023
 20
80.7546430280019
 30
0.0
 10
561.4847915218239
 20
80.77349879898551
 30
0.0
 10
561.479786203912
 20
80.79042305615373
 30
0.0
 10
561.4763574968234
 20
80.80542893736632
 30
0.0
 10
561.4742882180815
 20
80.81858754744279
 30
0.0
 10
561.4733465645078
 20
80.83006900214212
 30
0.0
 10
561.473415402209
 20
80.84021815842851
 30
0.0
 10
561.4739951823212
 20
80.84768692149116
 30
0.0
 10
561.4750121108303
 20
80.85203628598428
 30
0.0
 10
561.4753710768283
 20
80.8535715698826
 30
0.0
  0
SPLINE
  5
108
330
1F
100
AcDbEntity
  8
0
  6
Continuous
 62
     7
370
    30
100
AcDbSpline
210
0.0
220
0.0
230
1.0
 70
     8
 71
     3
 72
   198
 73
   194
 74
     0
 42
0.000000001
 43
0.00000001
 40
0.0
 40
0.0
 40
0.0
 40
0.0
 40
0.0045395167329016
 40
0.0096103337711496
 40
0.0146834919366342
 40
0.0197610070703824
 40
0.0248447863746847
 40
0.0299365848711191
 40
0.0350379673138311
 40
0.0401502768687653
 40
0.0452746116094376
 40
0.0504118095697898
 40
0.0555624427218719
 40
0.060726819825418
 40
0.0659049976540416
 40
0.0710967996764052
 40
0.0763018409006056
 40
0.0815195573152627
 40
0.0867492382100245
 40
0.0919900596434792
 40
0.0972411174434258
 40
0.1025014583505622
 40
0.1077701082182814
 40
0.1130460965191631
 40
0.1183284767456114
 40
0.1236163425959044
 40
0.1289088400877263
 40
0.1342051759278232
 40
0.1395046225880329
 40
0.144806520600747
 40
0.1501102786010613
 40
0.1554153716212545
 40
0.1607213380966049
 40
0.1660277759819556
 40
0.1713343012529863
 40
0.1766405659642821
 40
0.1819463332386959
 40
0.1872514054911932
 40
0.1925556199806426
 40
0.197858844642772
 40
0.2031609742456231
 40
0.2084619268839439
 40
0.2137616408139395
 40
0.2190600716190234
 40
0.2243571896901816
 40
0.229652977999917
 40
0.2349474301464786
 40
0.2402405486439211
 40
0.2455323434339026
 40
0.2508228305957572
 40
0.2561120312327854
 40
0.2613999705143278
 40
0.2666866768548402
 40
0.2719721812129756
 40
0.2772565164953993
 40
0.2825397170517571
 40
0.2878218182486131
 40
0.2931028561118649
 40
0.2983828670280488
 40
0.3036618874965433
 40
0.3089399539253559
 40
0.3142171024643299
 40
0.3194933688703552
 40
0.3247687883998834
 40
0.3300433957246778
 40
0.3353172248673161
 40
0.3405903091534248
 40
0.3458626811780515
 40
0.3511343727839584
 40
0.3564054150498621
 40
0.3616758382870806
 40
0.3669456720431015
 40
0.3722149451109635
 40
0.3774836855433045
 40
0.3827519206703833
 40
0.3880196771211904
 40
0.3932869808471167
 40
0.3985538571476298
 40
0.4038203306975106
 40
0.4090864255753306
 40
0.4143521652927957
 40
0.4196175728247599
 40
0.4248826706396929
 40
0.4301474807304137
 40
0.435412024644951
 40
0.4406763235175101
 40
0.4459403980993037
 40
0.4512042687893623
 40
0.4564679556651505
 40
0.4617314785130144
 40
0.4669948568584593
 40
0.4722581099962134
 40
0.4775212570200841
 40
0.4827843168526805
 40
0.4880473082749051
 40
0.4933102499553645
 40
0.4985731604796359
 40
0.5038360583794287
 40
0.5090989609029818
 40
0.5143618816507216
 40
0.5196248391556474
 40
0.5248878520036874
 40
0.530150938862871
 40
0.5354141185125766
 40
0.540677409873003
 40
0.545940832034758
 40
0.5512044042886312
 40
0.5564681461556041
 40
0.5617320774170071
 40
0.5669962181450104
 40
0.5722605887332335
 40
0.577525209927638
 40
0.5827901028576253
 40
0.5880552890672363
 40
0.5933207905465557
 40
0.5985866297630713
 40
0.6038528296930596
 40
0.6091194138527793
 40
0.614386406329353
 40
0.6196538318112043
 40
0.6249217156177153
 40
0.6301900837279468
 40
0.6354589628080649
 40
0.6407283802369861
 40
0.6459983641299464
 40
0.6512689433592588
 40
0.6565401475716947
 40
0.6618120072017012
 40
0.6670845534795055
 40
0.6723578184329573
 40
0.6776318348820366
 40
0.6829066364242431
 40
0.6881822574094001
 40
0.6934587329015849
 40
0.6987360986260368
 40
0.7040143908980716
 40
0.7092936465309474
 40
0.7145739027188435
 40
0.7198551968906896
 40
0.7251375665298424
 40
0.7304210489538403
 40
0.7357056810476598
 40
0.7409914989427998
 40
0.7462785376335263
 40
0.7515668305203927
 40
0.7568564088696232
 40
0.7621473011757536
 40
0.7674395324129498
 40
0.772733123159118
 40
0.7780280885747008
 40
0.7833244372166992
 40
0.7886221696662945
 40
0.7939212769471733
 40
0.7992217387102794
 40
0.8045235211599544
 40
0.8098265746966331
 40
0.8151308312524722
 40
0.8204362012992186
 40
0.825742570512917
 40
0.8310497960879981
 40
0.8363577027054917
 40
0.8416660781765889
 40
0.84697466611864
 40
0.8522830580573746
 40
0.857590884532174
 40
0.8628977183816945
 40
0.8682030702854074
 40
0.8735063849692205
 40
0.8788070384288076
 40
0.8841043366039331
 40
0.8893975159990544
 40
0.8946857467907869
 40
0.8999681389803018
 40
0.9052437521244397
 40
0.9105116090999004
 40
0.9157707142094458
 40
0.9210200757207645
 40
0.9262587326404944
 40
0.9314857851811144
 40
0.9367004280027424
 40
0.9419019849435696
 40
0.9470899436357217
 40
0.9522639881844339
 40
0.9574240280047979
 40
0.9625702209850204
 40
0.9677029893785175
 40
0.9728230271986784
 40
0.977931298359
 40
0.9830290253171166
 40
0.9881176684914208
 40
0.9931988971793252
 40
0.9982745530865738
 40
1.0
 40
1.0
 40
1.0
 40
1.0
 10
532.8836303027764
 20
58.06751552460037
 30
0.0
 10
532.8792475574832
 20
58.04297298956165
 30
0.0
 10
532.8699691149575
 20
57.99101548677224
 30
0.0
 10
532.8596803529678
 20
57.91090239388508
 30
0.0
 10
532.8518942695318
 20
57.82737498745405
 30
0.0
 10
532.8473536923643
 20
57.74327053698017
 30
0.0
 10
532.8459631572829
 20
57.65862110138045
 30
0.0
 10
532.8477539155604
 20
57.57343473203697
 30
0.0
 10
532.8527245896988
 20
57.48772718958536
 30
0.0
 10
532.860883532043
 20
57.40151393710325
 30
0.0
 10
532.8722369494978
 20
57.31481271261663
 30
0.0
 10
532.8867915321928
 20
57.22764315597825
 30
0.0
 10
532.9045531556046
 20
57.14002710789642
 30
0.0
 10
532.9255266421121
 20
57.05198860095761
 30
0.0
 10
532.9497152740607
 20
56.96355380596671
 30
0.0
 10
532.9771204388744
 20
56.87475087073182
 30
0.0
 10
533.0077413269889
 20
56.78560968364682
 30
0.0
 10
533.0415747196769
 20
56.69616157496827
 30
0.0
 10
533.078614864292
 20
56.60643897805334
 30
0.0
 10
533.1188534368571
 20
56.51647507205507
 30
0.0
 10
533.1622795838604
 20
56.42630342707988
 30
0.0
 10
533.2088800314315
 20
56.33595767008762
 30
0.0
 10
533.2586392471111
 20
56.24547118604045
 30
0.0
 10
533.3115396383652
 20
56.1548768643724
 30
0.0
 10
533.3675617723184
 20
56.06420689632338
 30
0.0
 10
533.4266846026907
 20
55.97349262453863
 30
0.0
 10
533.4888856922049
 20
55.88276444288981
 30
0.0
 10
533.5541414213977
 20
55.79205174190466
 30
0.0
 10
533.6224271774887
 20
55.70138289352985
 30
0.0
 10
533.6937175194871
 20
55.61078526812491
 30
0.0
 10
533.7679863178633
 20
55.5202852764401
 30
0.0
 10
533.845206868835
 20
55.42990842970926
 30
0.0
 10
533.9253519845672
 20
55.33967941170403
 30
0.0
 10
534.0083938681139
 20
55.24962236714792
 30
0.0
 10
534.0943040485894
 20
55.15976106099721
 30
0.0
 10
534.183053729191
 20
55.07011858543154
 30
0.0
 10
534.2746140356785
 20
54.98071723794323
 30
0.0
 10
534.368956152774
 20
54.89157852540779
 30
0.0
 10
534.4660509580667
 20
54.80272360731026
 30
0.0
 10
534.5658690122497
 20
54.71417335308173
 30
0.0
 10
534.6683805452766
 20
54.62594839228043
 30
0.0
 10
534.773555439876
 20
54.53806915779882
 30
0.0
 10
534.8813632135847
 20
54.45055592247366
 30
0.0
 10
534.9917730002085
 20
54.36342882957481
 30
0.0
 10
535.1047535314209
 20
54.27670791771585
 30
0.0
 10
535.220273119034
 20
54.19041314074552
 30
0.0
 10
535.3382996383286
 20
54.10456438318042
 30
0.0
 10
535.4588005127185
 20
54.01918147171442
 30
0.0
 10
535.5817426999242
 20
53.93428418331131
 30
0.0
 10
535.7070926797592
 20
53.84989225034373
 30
0.0
 10
535.8348164435782
 20
53.7660253632031
 30
0.0
 10
535.964879485389
 20
53.68270317075829
 30
0.0
 10
536.0972467945968
 20
53.59994527900047
 30
0.0
 10
536.2318828503331
 20
53.51777124817148
 30
0.0
 10
536.3687516173009
 20
53.43620058863463
 30
0.0
 10
536.5078165430556
 20
53.35525275571429
 30
0.0
 10
536.6490405566433
 20
53.27494714369879
 30
0.0
 10
536.7923860685055
 20
53.19530307917417
 30
0.0
 10
536.9378149715697
 20
53.11633981383257
 30
0.0
 10
537.0852886434361
 20
53.03807651687664
 30
0.0
 10
537.2347679495844
 20
52.9605322671236
 30
0.0
 10
537.3862132475197
 20
52.8837260448965
 30
0.0
 10
537.5395843917863
 20
52.80767672377562
 30
0.0
 10
537.6948407397794
 20
52.73240306227122
 30
0.0
 10
537.8519411582924
 20
52.65792369546915
 30
0.0
 10
538.0108440307398
 20
52.58425712669135
 30
0.0
 10
538.1715072649993
 20
52.51142171920581
 30
0.0
 10
538.3338883018265
 20
52.43943568801438
 30
0.0
 10
538.4979441237931
 20
52.36831709174236
 30
0.0
 10
538.6636312647069
 20
52.29808382464757
 30
0.0
 10
538.8309058194728
 20
52.22875360876383
 30
0.0
 10
538.9997234543661
 20
52.16034398619141
 30
0.0
 10
539.1700394176761
 20
52.09287231154256
 30
0.0
 10
539.3418085506983
 20
52.02635574454911
 30
0.0
 10
539.5149852990439
 20
51.9608112428383
 30
0.0
 10
539.6895237242447
 20
51.89625555487898
 30
0.0
 10
539.8653775156268
 20
51.83270521310177
 30
0.0
 10
540.0425000024383
 20
51.77017652719468
 30
0.0
 10
540.220844166207
 20
51.70868557757407
 30
0.0
 10
540.4003626533137
 20
51.64824820903227
 30
0.0
 10
540.5810077877635
 20
51.58888002456058
 30
0.0
 10
540.762731584143
 20
51.53059637934812
 30
0.0
 10
540.9454857607467
 20
51.47341237495437
 30
0.0
 10
541.1292217528631
 20
51.41734285365579
 30
0.0
 10
541.3138907262078
 20
51.36240239296463
 30
0.0
 10
541.4994435904912
 20
51.30860530031833
 30
0.0
 10
541.6858310131165
 20
51.25596560793985
 30
0.0
 10
541.8730034329908
 20
51.20449706786623
 30
0.0
 10
542.0609110744481
 20
51.1542131471458
 30
0.0
 10
542.2495039612706
 20
51.10512702320177
 30
0.0
 10
542.4387319308049
 20
51.05725157936253
 30
0.0
 10
542.6285446481617
 20
51.01059940055774
 30
0.0
 10
542.8188916204964
 20
50.96518276917897
 30
0.0
 10
543.0097222113608
 20
50.92101366110616
 30
0.0
 10
543.2009856551208
 20
50.87810374189788
 30
0.0
 10
543.3926310714343
 20
50.83646436314731
 30
0.0
 10
543.5846074797839
 20
50.79610655900246
 30
0.0
 10
543.7768637987285
 20
50.75704104596731
 30
0.0
 10
543.9693488159035
 20
50.71927822791785
 30
0.0
 10
544.1620112622084
 20
50.68282817955683
 30
0.0
 10
544.3547998420421
 20
50.64770064092266
 30
0.0
 10
544.5476632927578
 20
50.61390500795765
 30
0.0
 10
544.7405503395605
 20
50.58145034176859
 30
0.0
 10
544.9334097102663
 20
50.55034536632117
 30
0.0
 10
545.1261901500728
 20
50.52059846630885
 30
0.0
 10
545.3188404363369
 20
50.49221768520052
 30
0.0
 10
545.5113093933548
 20
50.46521072346665
 30
0.0
 10
545.7035459071362
 20
50.43958493699103
 30
0.0
 10
545.8954989401693
 20
50.41534733566716
 30
0.0
 10
546.0871175461696
 20
50.39250458218619
 30
0.0
 10
546.2783508848069
 20
50.37106299101835
 30
0.0
 10
546.4691482364033
 20
50.35102852759332
 30
0.0
 10
546.659459016596
 20
50.33240680768291
 30
0.0
 10
546.8492327909585
 20
50.31520309699245
 30
0.0
 10
547.0384192895692
 20
50.2994223109651
 30
0.0
 10
547.2269684215246
 20
50.28506901480478
 30
0.0
 10
547.4148302893824
 20
50.27214742372487
 30
0.0
 10
547.6019552035293
 20
50.26066140342775
 30
0.0
 10
547.7882936964605
 20
50.2506144708226
 30
0.0
 10
547.9737965369611
 20
50.24200979498922
 30
0.0
 10
548.1584147441752
 20
50.2348501983938
 30
0.0
 10
548.3420996015502
 20
50.22913815836641
 30
0.0
 10
548.5248026706407
 20
50.2248758088466
 30
0.0
 10
548.7064758047558
 20
50.22206494240689
 30
0.0
 10
548.8870711624279
 20
50.2207070125617
 30
0.0
 10
549.0665412206897
 20
50.22080313637142
 30
0.0
 10
549.2448387881257
 20
50.22235409734827
 30
0.0
 10
549.4219170176822
 20
50.22536034867559
 30
0.0
 10
549.5977294192016
 20
50.22982201674569
 30
0.0
 10
549.7722298716498
 20
50.23573890502553
 30
0.0
 10
549.945372635001
 20
50.24311049825603
 30
0.0
 10
550.1171123617409
 20
50.25193596699229
 30
0.0
 10
550.2874041079408
 20
50.26221417248611
 30
0.0
 10
550.4562033438532
 20
50.27394367191465
 30
0.0
 10
550.623465963974
 20
50.28712272395403
 30
0.0
 10
550.7891482965063
 20
50.30174929469161
 30
0.0
 10
550.9532071121561
 20
50.31782106387161
 30
0.0
 10
551.1155996321828
 20
50.33533543145477
 30
0.0
 10
551.2762835356157
 20
50.35428952447521
 30
0.0
 10
551.4352169655415
 20
50.37468020416166
 30
0.0
 10
551.5923585343556
 20
50.39650407328327
 30
0.0
 10
551.7476673278587
 20
50.41975748366803
 30
0.0
 10
551.9011029080721
 20
50.44443654382391
 30
0.0
 10
552.0526253146278
 20
50.47053712657779
 30
0.0
 10
552.2021950645842
 20
50.49805487662174
 30
0.0
 10
552.3497731505006
 20
50.52698521783356
 30
0.0
 10
552.4953210365986
 20
50.55732336020527
 30
0.0
 10
552.6388006528254
 20
50.58906430617854
 30
0.0
 10
552.7801743866287
 20
50.62220285614205
 30
0.0
 10
552.9194050722543
 20
50.65673361280046
 30
0.0
 10
553.0564559773757
 20
50.6926509840652
 30
0.0
 10
553.1912907868776
 20
50.72994918405652
 30
0.0
 10
553.3238735836431
 20
50.76862223173512
 30
0.0
 10
553.4541688262183
 20
50.8086639466031
 30
0.0
 10
553.582141323296
 20
50.85006794083238
 30
0.0
 10
553.7077562050255
 20
50.89282760708802
 30
0.0
 10
553.8309788912646
 20
50.93693610122646
 30
0.0
 10
553.951775057034
 20
50.98238631896452
 30
0.0
 10
554.0701105956044
 20
51.0291708655371
 30
0.0
 10
554.1859515798909
 20
51.07728201730957
 30
0.0
 10
554.2992642231017
 20
51.12671167428934
 30
0.0
 10
554.4100148212391
 20
51.1774512939372
 30
0.0
 10
554.5181690008749
 20
51.22949147575395
 30
0.0
 10
554.6236923837272
 20
51.28282213476245
 30
0.0
 10
554.7265505877426
 20
51.337432405723
 30
0.0
 10
554.8267098600911
 20
51.39331091022365
 30
0.0
 10
554.924136459996
 20
51.45044534002646
 30
0.0
 10
555.018796685506
 20
51.50882233214254
 30
0.0
 10
555.1106569246818
 20
51.56842733835381
 30
0.0
 10
555.199683735663
 20
51.62924449340561
 30
0.0
 10
555.2858439597835
 20
51.69125648754774
 30
0.0
 10
555.3691048710501
 20
51.75444445055163
 30
0.0
 10
555.4494343638368
 20
51.81878785567362
 30
0.0
 10
555.5268011785372
 20
51.88426445309779
 30
0.0
 10
555.6011751621323
 20
51.95085024293547
 30
0.0
 10
555.6725275572687
 20
52.01851949765468
 30
0.0
 10
555.7408313097067
 20
52.08724484264521
 30
0.0
 10
555.8060613802718
 20
52.15699740132618
 30
0.0
 10
555.8681950439797
 20
52.22774700780241
 30
0.0
 10
555.9272121570945
 20
52.29946248552803
 30
0.0
 10
555.9830953701638
 20
52.37211198569364
 30
0.0
 10
556.0358302726899
 20
52.44566337231421
 30
0.0
 10
556.0854054332145
 20
52.52008464133812
 30
0.0
 10
556.1318123960967
 20
52.59534433769736
 30
0.0
 10
556.1750453588779
 20
52.67141200449377
 30
0.0
 10
556.2151015401743
 20
52.7482584283166
 30
0.0
 10
556.2519785027537
 20
52.8258564492258
 30
0.0
 10
556.2856823751994
 20
52.90417937815353
 30
0.0
 10
556.3161951999971
 20
52.98320793770594
 30
0.0
 10
556.343594133391
 20
53.06290505442379
 30
0.0
 10
556.3676053085672
 20
53.14330984770557
 30
0.0
 10
556.3845037243584
 20
53.20641417849009
 30
0.0
 10
556.3923245518873
 20
53.24293019699117
 30
0.0
 10
556.3943087040279
 20
53.25219434915507
 30
0.0
  0
SPLINE
  5
109
330
1F
100
AcDbEntity
  8
0
  6
Continuous
 62
     7
370
    30
100
AcDbSpline
210
0.0
220
0.0
230
1.0
 70
     8
 71
     3
 72
   120
 73
   116
 74
     0
 42
0.000000001
 43
0.00000001
 40
0.0
 40
0.0
 40
0.0
 40
0.0
 40
0.0005635434843108
 40
0.009342792143863
 40
0.0181220802030338
 40
0.026901893947534
 40
0.0356827495955623
 40
0.0444651583060533
 40
0.0532496238599067
 40
0.0620366403938456
 40
0.070826690202552
 40
0.079620241624348
 40
0.0884177470245149
 40
0.0972196408902729
 40
0.1060263380496864
 40
0.1148382320267805
 40
0.123655693543427
 40
0.1324790691775116
 40
0.1413086801856743
 40
0.1501448214975394
 40
0.1589877608867604
 40
0.1678377383225534
 40
0.1766949655040713
 40
0.1855596255778866
 40
0.1944318730374527
 40
0.2033118338014931
 40
0.2121996054668779
 40
0.221095257729375
 40
0.2299988329648194
 40
0.2389103469611146
 40
0.2478297897906818
 40
0.2567571268115577
 40
0.2656922997841283
 40
0.2746352280902936
 40
0.2835858100407113
 40
0.2925439242554245
 40
0.3015094311032623
 40
0.3104821741852901
 40
0.3194619818475728
 40
0.3284486687093361
 40
0.3374420371929466
 40
0.3464418790428911
 40
0.355447976821782
 40
0.3644601053727558
 40
0.3734780332380677
 40
0.3825015240255148
 40
0.3915303377149487
 40
0.4005642318987876
 40
0.4096029629511816
 40
0.4186462871221044
 40
0.427693961553457
 40
0.4367457452151527
 40
0.4458013997609276
 40
0.4548606903035249
 40
0.4639233861101685
 40
0.4729892612203703
 40
0.482058094987953
 40
0.4911296725500869
 40
0.500203785226909
 40
0.5092802308548745
 40
0.5183588140579678
 40
0.5274393464607854
 40
0.5365216468473749
 40
0.5456055412704289
 40
0.5546908631146735
 40
0.5637774531189554
 40
0.5728651593606062
 40
0.5819538372065447
 40
0.5910433492344004
 40
0.6001335651276656
 40
0.6092243615479676
 40
0.6183156219877148
 40
0.6274072366063227
 40
0.636499102052368
 40
0.6455911212746034
 40
0.6546831985681536
 40
0.6637752265478486
 40
0.672867127705296
 40
0.6819588299336145
 40
0.6910502663138219
 40
0.7001413748997052
 40
0.7092320985041276
 40
0.7183223844874733
 40
0.7274121845490955
 40
0.7365014545229395
 40
0.7455901541773021
 40
0.7546782470196453
 40
0.7637657001069835
 40
0.7728524838617273
 40
0.7819385718936982
 40
0.7910239408283619
 40
0.8001085701410703
 40
0.8091924419980822
 40
0.8182755411037019
 40
0.8273578545538404
 40
0.83643937169608
 40
0.8455200839959113
 40
0.8545999849089518
 40
0.8636790697596789
 40
0.8727573356254843
 40
0.8818347812269849
 40
0.8909114068235358
 40
0.899987214114392
 40
0.9090622061449253
 40
0.918136387218005
 40
0.9272097628101624
 40
0.9362823394923665
 40
0.9453541248553701
 40
0.9544251274392451
 40
0.9634953566670024
 40
0.9725648227822384
 40
0.981633536790341
 40
0.9907015104033862
 40
0.9997687559882926
 40
1.0
 40
1.0
 40
1.0
 40
1.0
 10
653.7487082552085
 20
215.3887630597018
 30
0.0
 10
653.745266127209
 20
215.3867931199633
 30
0.0
 10
653.6882002798905
 20
215.3541341716741
 30
0.0
 10
653.5790121554847
 20
215.2881899773985
 30
0.0
 10
653.4212955644699
 20
215.1907309823809
 30
0.0
 10
653.2654124463176
 20
215.0902010695023
 30
0.0
 10
653.1111509331872
 20
214.9870013927434
 30
0.0
 10
652.9585857227072
 20
214.8810359297529
 30
0.0
 10
652.8077147028355
 20
214.77234190811
 30
0.0
 10
652.6585564098337
 20
214.6609209165062
 30
0.0
 10
652.5111239296518
 20
214.5467841993977
 30
0.0
 10
652.3654319117733
 20
214.4299405488019
 30
0.0
 10
652.2214947042761
 20
214.3103995845585
 30
0.0
 10
652.0793268655972
 20
214.1881709112
 30
0.0
 10
651.9389430356422
 20
214.0632643815779
 30
0.0
 10
651.8003579750989
 20
213.9356900646881
 30
0.0
 10
651.6635865560571
 20
213.8054582933247
 30
0.0
 10
651.5286437620953
 20
213.672579690425
 30
0.0
 10
651.3955446822816
 20
213.5370652008053
 30
0.0
 10
651.2643045033399
 20
213.3989261207085
 30
0.0
 10
651.1349384989545
 20
213.258174126786
 30
0.0
 10
651.007462016646
 20
213.1148213036855
 30
0.0
 10
650.8818904622844
 20
212.9688801700903
 30
0.0
 10
650.758239282444
 20
212.8203637029011
 30
0.0
 10
650.6365239447922
 20
212.6692853593228
 30
0.0
 10
650.5167599167349
 20
212.5156590966343
 30
0.0
 10
650.3989626425597
 20
212.359499389453
 30
0.0
 10
650.2831475193224
 20
212.2008212443397
 30
0.0
 10
650.1693298717479
 20
212.0396402116262
 30
0.0
 10
650.0575249264078
 20
211.8759723943827
 30
0.0
 10
649.9477477854488
 20
211.7098344544823
 30
0.0
 10
649.8400134001423
 20
211.541243615759
 30
0.0
 10
649.7343365445225
 20
211.3702176642882
 30
0.0
 10
649.6307317893633
 20
211.1967749458613
 30
0.0
 10
649.529213476742
 20
211.0209343607525
 30
0.0
 10
649.4297956954173
 20
210.8427153559139
 30
0.0
 10
649.3324922572252
 20
210.6621379147571
 30
0.0
 10
649.2373166746867
 20
210.4792225447083
 30
0.0
 10
649.1442821399847
 20
210.2939902627404
 30
0.0
 10
649.0534015054559
 20
210.1064625791042
 30
0.0
 10
648.9646872657044
 20
209.9166614794904
 30
0.0
 10
648.8781515414315
 20
209.7246094058634
 30
0.0
 10
648.7938060650382
 20
209.5303292362097
 30
0.0
 10
648.7116621680409
 20
209.3338442634411
 30
0.0
 10
648.6317307703091
 20
209.1351781736931
 30
0.0
 10
648.5540223711193
 20
208.9343550242441
 30
0.0
 10
648.4785470419895
 20
208.7313992212755
 30
0.0
 10
648.4053144212465
 20
208.5263354976764
 30
0.0
 10
648.3343337102598
 20
208.3191888910799
 30
0.0
 10
648.265613671258
 20
208.1099847223035
 30
0.0
 10
648.1991626266372
 20
207.898748574345
 30
0.0
 10
648.1349884596574
 20
207.6855062720681
 30
0.0
 10
648.0730986164161
 20
207.4702838626895
 30
0.0
 10
648.0135001089862
 20
207.253107597164
 30
0.0
 10
647.9561995195975
 20
207.0340039125427
 30
0.0
 10
647.9012030057448
 20
206.8129994153612
 30
0.0
 10
647.8485163061052
 20
206.5901208660978
 30
0.0
 10
647.7981447471456
 20
206.3653951647282
 30
0.0
 10
647.7500932503131
 20
206.1388493373848
 30
0.0
 10
647.7043663396968
 20
205.9105105241181
 30
0.0
 10
647.6609681500626
 20
205.6804059677454
 30
0.0
 10
647.6199024351647
 20
205.4485630037616
 30
0.0
 10
647.5811725762455
 20
205.2150090512793
 30
0.0
 10
647.5447815906454
 20
204.9797716049563
 30
0.0
 10
647.5107321404437
 20
204.7428782278635
 30
0.0
 10
647.479026541073
 20
204.504356545243
 30
0.0
 10
647.449666769841
 20
204.2642342391005
 30
0.0
 10
647.4226544743129
 20
204.0225390435765
 30
0.0
 10
647.3979909805093
 20
203.7792987410355
 30
0.0
 10
647.3756773008815
 20
203.5345411588162
 30
0.0
 10
647.3557141420333
 20
203.2882941665839
 30
0.0
 10
647.3381019121646
 20
203.0405856742256
 30
0.0
 10
647.3228407282149
 20
202.7914436302346
 30
0.0
 10
647.3099304226946
 20
202.5408960205267
 30
0.0
 10
647.2993705520315
 20
202.2889709115644
 30
0.0
 10
647.2911604057839
 20
202.0356966143952
 30
0.0
 10
647.2852989967087
 20
201.7811014645859
 30
0.0
 10
647.2817850671746
 20
201.5252137771645
 30
0.0
 10
647.2806170989682
 20
201.2680616787123
 30
0.0
 10
647.2817933253557
 20
201.0096733331537
 30
0.0
 10
647.2853117355276
 20
200.7500769423814
 30
0.0
 10
647.2911700787305
 20
200.4893007469771
 30
0.0
 10
647.299365868105
 20
200.2273730269857
 30
0.0
 10
647.3098963842359
 20
199.9643221027159
 30
0.0
 10
647.3227586784293
 20
199.7001763355471
 30
0.0
 10
647.337949575732
 20
199.4349641287207
 30
0.0
 10
647.3554656777044
 20
199.1687139280975
 30
0.0
 10
647.3753033649621
 20
198.9014542228679
 30
0.0
 10
647.3974587995007
 20
198.6332135461971
 30
0.0
 10
647.4219279268169
 20
198.3640204757973
 30
0.0
 10
647.4487064778415
 20
198.0939036344148
 30
0.0
 10
647.4777899706947
 20
197.8228916902233
 30
0.0
 10
647.5091737122813
 20
197.551013357119
 30
0.0
 10
647.5428527997343
 20
197.2782973949079
 30
0.0
 10
647.5788221217243
 20
197.0047726093845
 30
0.0
 10
647.6170763596406
 20
196.7304678522959
 30
0.0
 10
647.657609988662
 20
196.4554120211915
 30
0.0
 10
647.7004172787216
 20
196.1796340591532
 30
0.0
 10
647.745492295388
 20
195.9031629544105
 30
0.0
 10
647.792828900638
 20
195.6260277398357
 30
0.0
 10
647.8424207536491
 20
195.348257492316
 30
0.0
 10
647.894261311189
 20
195.0698813320435
 30
0.0
 10
647.9483438292109
 20
194.7909284215538
 30
0.0
 10
648.0046613596986
 20
194.5114279651678
 30
0.0
 10
648.0632067650173
 20
194.2314092063945
 30
0.0
 10
648.1239726667583
 20
193.9509014324219
 30
0.0
 10
648.18695163887
 20
193.6699339516533
 30
0.0
 10
648.2521354891006
 20
193.3885361713317
 30
0.0
 10
648.3195179423693
 20
193.1067373011996
 30
0.0
 10
648.3890846295359
 20
192.8245674521687
 30
0.0
 10
648.460850446981
 20
192.5420535289581
 30
0.0
 10
648.5347201481684
 20
192.2592345490253
 30
0.0
 10
648.6110085604691
 20
191.9761044701752
 30
0.0
 10
648.6633298896068
 20
191.7848361746164
 30
0.0
 10
648.6908189478131
 20
191.6878901045382
 30
0.0
 10
648.691502572829
 20
191.6854791540358
 30
0.0
  0
SPLINE
  5
10A
330
1F
100
AcDbEntity
  8
0
  6
Continuous
 62
     7
370
    30
100
AcDbSpline
210
0.0
220
0.0
230
1.0
 70
     8
 71
     3
 72
    91
 73
    87
 74
     0
 42
0.000000001
 43
0.00000001
 40
0.0
 40
0.0
 40
0.0
 40
0.0
 40
0.0064452171906452
 40
0.0184912444609409
 40
0.0305382550075723
 40
0.0425862667666932
 40
0.0546352969050016
 40
0.0666853617567919
 40
0.0787364767570574
 40
0.0907886563699863
 40
0.1028419140129516
 40
0.114896261975525
 40
0.1269517113334232
 40
0.1390082718571344
 40
0.151065951914884
 40
0.16312475836978
 40
0.1751846964707374
 40
0.1872457697372077
 40
0.199307979837177
 40
0.2113713264581869
 40
0.2234358071714319
 40
0.2355014172882459
 40
0.2475681497091796
 40
0.2596359947651122
 40
0.2717049400503617
 40
0.2837749702474406
 40
0.2958460669438099
 40
0.3079182084395762
 40
0.3199913695471254
 40
0.3320655213815241
 40
0.3441406311428566
 40
0.3562166618895199
 40
0.36829357230325
 40
0.3803713164457076
 40
0.3924498435073056
 40
0.4045290975481403
 40
0.4166090172320187
 40
0.4286895355537253
 40
0.4407705795607681
 40
0.4528520700698897
 40
0.464933921380084
 40
0.4770160409825763
 40
0.4890983292699235
 40
0.5011806661340283
 40
0.5132629100743352
 40
0.5253449357472154
 40
0.537426609482986
 40
0.5495077890198511
 40
0.5615883232527471
 40
0.5736680519985308
 40
0.5857468057812718
 40
0.5978244056411187
 40
0.6099006629712301
 40
0.6219753793867909
 40
0.6340483466314056
 40
0.6461193465251048
 40
0.6581881509597679
 40
0.6702545219469959
 40
0.6823182117242498
 40
0.6943789629247064
 40
0.7064365088166604
 40
0.7184905736183086
 40
0.7305408728932167
 40
0.7425871140322193
 40
0.7546289968267393
 40
0.7666662141381233
 40
0.7786984526675469
 40
0.7907253938297785
 40
0.8027467147337093
 40
0.814762089271524
 40
0.826771189317541
 40
0.8387736860363197
 40
0.8507692512982709
 40
0.8627575592002138
 40
0.8747382876861979
 40
0.8867111202624967
 40
0.8986757477994385
 40
0.9106318704104206
 40
0.9225791993973963
 40
0.9345174592502918
 40
0.9464463896860493
 40
0.9583657477119095
 40
0.9702753096959464
 40
0.9821748734267949
 40
0.994064260143673
 40
1.0
 40
1.0
 40
1.0
 40
1.0
 10
660.6907280861662
 20
170.900422331073
 30
0.0
 10
660.7274157707516
 20
170.8628381077644
 30
0.0
 10
660.83267226162
 20
170.7550094589357
 30
0.0
 10
661.0074411106766
 20
170.5791139220883
 30
0.0
 10
661.2149455963498
 20
170.3726014564485
 30
0.0
 10
661.4233188913187
 20
170.168213453214
 30
0.0
 10
661.6324856953203
 20
169.9658475582761
 30
0.0
 10
661.8424392479194
 20
169.7655591620803
 30
0.0
 10
662.0531543332391
 20
169.5673611448421
 30
0.0
 10
662.2646105950779
 20
169.3712775399157
 30
0.0
 10
662.4767862906112
 20
169.1773291514459
 30
0.0
 10
662.689659965972
 20
168.9855374072193
 30
0.0
 10
662.9032100087873
 20
168.7959233248274
 30
0.0
 10
663.1174147695451
 20
168.6085077874429
 30
0.0
 10
663.3322525304045
 20
168.4233114686891
 30
0.0
 10
663.5477015147604
 20
168.2403548515957
 30
0.0
 10
663.7637398857526
 20
168.0596582223839
 30
0.0
 10
663.9803457475945
 20
167.8812416710347
 30
0.0
 10
664.1974971459971
 20
167.7051250900726
 30
0.0
 10
664.415172068676
 20
167.5313281738538
 30
0.0
 10
664.6333484456703
 20
167.3598704177393
 30
0.0
 10
664.8520041495378
 20
167.1907711173102
 30
0.0
 10
665.0711169954021
 20
167.0240493675746
 30
0.0
 10
665.290664740849
 20
166.8597240621705
 30
0.0
 10
665.5106250856655
 20
166.6978138925535
 30
0.0
 10
665.7309756714187
 20
166.5383373471586
 30
0.0
 10
665.9516940808634
 20
166.381312710529
 30
0.0
 10
666.1727578371821
 20
166.226758062397
 30
0.0
 10
666.3941444030414
 20
166.0746912767099
 30
0.0
 10
666.6158311794744
 20
165.9251300205823
 30
0.0
 10
666.837795504573
 20
165.7780917531657
 30
0.0
 10
667.0600146519989
 20
165.6335937244155
 30
0.0
 10
667.2824658293038
 20
165.4916529737444
 30
0.0
 10
667.5051261760631
 20
165.3522863285403
 30
0.0
 10
667.7279727618234
 20
165.2155104025329
 30
0.0
 10
667.950982583866
 20
165.0813415939876
 30
0.0
 10
668.1741325647904
 20
164.9497960837091
 30
0.0
 10
668.3973995499257
 20
164.8208898328285
 30
0.0
 10
668.6207603045757
 20
164.6946385803561
 30
0.0
 10
668.8441915111109
 20
164.5710578404716
 30
0.0
 10
669.0676697659188
 20
164.4501628995318
 30
0.0
 10
669.2911715762292
 20
164.3319688127665
 30
0.0
 10
669.5146732759889
 20
164.2164904424107
 30
0.0
 10
669.7381509379869
 20
164.1037424909322
 30
0.0
 10
669.9615805193981
 20
163.9937394122131
 30
0.0
 10
670.1849379388943
 20
163.8864953683893
 30
0.0
 10
670.4081991571943
 20
163.7820241911004
 30
0.0
 10
670.6313400245234
 20
163.6803394509356
 30
0.0
 10
670.854336277432
 20
163.5814544510869
 30
0.0
 10
671.0771635357825
 20
163.4853822204858
 30
0.0
 10
671.2997972999425
 20
163.3921355064085
 30
0.0
 10
671.5222129482452
 20
163.3017267665361
 30
0.0
 10
671.744385734775
 20
163.2141681604579
 30
0.0
 10
671.9662907875479
 20
163.1294715406079
 30
0.0
 10
672.1879031071538
 20
163.0476484426353
 30
0.0
 10
672.4091975659396
 20
162.9687100752081
 30
0.0
 10
672.6301489078038
 20
162.8926673092624
 30
0.0
 10
672.8507317486901
 20
162.8195306667116
 30
0.0
 10
673.070920577857
 20
162.7493103086414
 30
0.0
 10
673.2906897600093
 20
162.6820160230224
 30
0.0
 10
673.5100135383746
 20
162.6176572119844
 30
0.0
 10
673.7288660388064
 20
162.556242878704
 30
0.0
 10
673.947221274996
 20
162.4977816139686
 30
0.0
 10
674.1650531548668
 20
162.4422815824917
 30
0.0
 10
674.3823354882244
 20
162.3897505090656
 30
0.0
 10
674.5990419957246
 20
162.3401956646473
 30
0.0
 10
674.8151463192136
 20
162.2936238524877
 30
0.0
 10
675.0306220334867
 20
162.250041394423
 30
0.0
 10
675.245442659492
 20
162.2094541174604
 30
0.0
 10
675.4595816790005
 20
162.1718673407973
 30
0.0
 10
675.6730125507387
 20
162.137285863421
 30
0.0
 10
675.8857087279611
 20
162.1057139524617
 30
0.0
 10
676.0976436774466
 20
162.0771553323959
 30
0.0
 10
676.3087908997765
 20
162.0516131755153
 30
0.0
 10
676.5191239511063
 20
162.0290900928939
 30
0.0
 10
676.7286164652371
 20
162.009588129512
 30
0.0
 10
676.9372421799156
 20
161.993108750671
 30
0.0
 10
677.1449749520746
 20
161.9796528684355
 30
0.0
 10
677.3517888182741
 20
161.9692207271252
 30
0.0
 10
677.5576578897501
 20
161.9618123232098
 30
0.0
 10
677.7625568661917
 20
161.9574258426136
 30
0.0
 10
677.9664592442224
 20
161.9560634985546
 30
0.0
 10
678.1693441190316
 20
161.9577097939558
 30
0.0
 10
678.3711709542644
 20
161.9624125807939
 30
0.0
 10
678.5385142191371
 20
161.9687198583479
 30
0.0
 10
678.6384559959189
 20
161.9738407863059
 30
0.0
 10
678.6717364545635
 20
161.9755460474751
 30
0.0
  0
SPLINE
  5
10B
330
1F
100
AcDbEntity
  8
0
  6
Continuous
 62
     7
370
    30
100
AcDbSpline
210
0.0
220
0.0
230
1.0
 70
     8
 71
     3
 72
    36
 73
    32
 74
     0
 42
0.000000001
 43
0.00000001
 40
0.0
 40
0.0
 40
0.0
 40
0.0
 40
0.0195798217865991
 40
0.055707250421786
 40
0.0918089188215914
 40
0.127878252644043
 40
0.1639151515706945
 40
0.199919621094177
 40
0.2358917738747445
 40
0.2718318330049336
 40
0.3077401346662338
 40
0.3436171301371599
 40
0.3794633871158459
 40
0.4152795903296918
 40
0.4510665414114003
 40
0.4868251580247756
 40
0.5225564722354161
 40
0.5582616281255337
 40
0.5939418786603121
 40
0.6295985818206205
 40
0.6652331960233416
 40
0.700847274857233
 40
0.7364424611677317
 40
0.7720204805301714
 40
0.8075831341559495
 40
0.8431322912802041
 40
0.8786698810842105
 40
0.9141978842081666
 40
0.9497183239145416
 40
0.9852332569629045
 40
0.9999999999999999
 40
0.9999999999999999
 40
0.9999999999999999
 40
0.9999999999999999
 10
678.6717364545635
 20
161.9755460474751
 30
0.0
 10
678.7077408905815
 20
161.9775647993601
 30
0.0
 10
678.8101783976948
 20
161.9833084224647
 30
0.0
 10
678.9782698962977
 20
161.9951204427516
 30
0.0
 10
679.1756332074507
 20
162.0119117711749
 30
0.0
 10
679.3718297001631
 20
162.0317416452801
 30
0.0
 10
679.5668412372077
 20
162.0545508242224
 30
0.0
 10
679.7606412711168
 20
162.0803474005532
 30
0.0
 10
679.9532091721474
 20
162.1091211958772
 30
0.0
 10
680.1445232941535
 20
162.1408664369324
 30
0.0
 10
680.334562838614
 20
162.1755757233116
 30
0.0
 10
680.5233073619745
 20
162.21324167851
 30
0.0
 10
680.7107369099065
 20
162.2538565458285
 30
0.0
 10
680.8968319800473
 20
162.2974123346688
 30
0.0
 10
681.0815735268615
 20
162.34390081962
 30
0.0
 10
681.2649429515031
 20
162.3933135785983
 30
0.0
 10
681.4469220920037
 20
162.4456420198715
 30
0.0
 10
681.6274932099656
 20
162.5008774107382
 30
0.0
 10
681.8066389743816
 20
162.5590109050536
 30
0.0
 10
681.9843424447475
 20
162.6200335662865
 30
0.0
 10
682.1605870452034
 20
162.6839364004376
 30
0.0
 10
682.3353565617559
 20
162.7507103432358
 30
0.0
 10
682.5086350440669
 20
162.8203464079383
 30
0.0
 10
682.6804070549495
 20
162.8928352231953
 30
0.0
 10
682.8506566162022
 20
162.9681688336352
 30
0.0
 10
683.0193710110434
 20
163.0463340485068
 30
0.0
 10
683.1865264674581
 20
163.1273373021236
 30
0.0
 10
683.3521414273636
 20
163.2111119535037
 30
0.0
 10
683.5160776815807
 20
163.2978641389066
 30
0.0
 10
683.6471034865398
 20
163.3694699612578
 30
0.0
 10
683.7229007865203
 20
163.4131564852679
 30
0.0
 10
683.7451609683372
 20
163.4259863613673
 30
0.0
  0
LINE
  5
10C
330
1F
100
AcDbEntity
  8
0
  6
Continuous
 62
     7
370
    30
100
AcDbLine
 10
683.7858854393
 20
163.44892618
 30
0.0
 11
688.7356329076
 21
166.3063545713
 31
0.0
  0
LINE
  5
10D
330
1F
100
AcDbEntity
  8
0
  6
Continuous
 62
     7
370
    30
100
AcDbLine
 10
658.7380709285
 20
218.2692863142
 30
0.0
 11
653.7883234602
 21
215.4118579228
 31
0.0
  0
LWPOLYLINE
  5
10E
330
1F
100
AcDbEntity
  8
0
  6
Continuous
 62
     7
370
    30
100
AcDbPolyline
 90
       35
 70
   128
 43
0.0
 10
542.5819655162
 20
83.4651630188
 10
542.362655361
 20
83.5941418003
 10
542.1491127435
 20
83.7245368737
 10
541.9414840151
 20
83.856258873
 10
541.7399114743
 20
83.9892175222
 10
541.5445332687
 20
84.1233216983
 10
541.3554833007
 20
84.258479493
 10
541.1728911359
 20
84.3945982758
 10
540.9968819138
 20
84.5315847577
 10
540.8275762622
 20
84.669345055
 10
540.6650902149
 20
84.8077847538
 10
540.5095351316
 20
84.9468089743
 10
540.361017622
 20
85.0863224363
 10
540.2196394727
 20
85.2262295242
 10
540.085497577
 20
85.3664343528
 10
539.9586838693
 20
85.5068408326
 10
539.8392852613
 20
85.647352736
 10
539.7273835827
 20
85.7878737631
 10
539.6230555255
 20
85.928307608
 10
539.5263725908
 20
86.0685580243
 10
539.4374010404
 20
86.2085288913
 10
539.3562018509
 20
86.34812428
 10
539.2828306721
 20
86.4872485186
 10
539.217337789
 20
86.6258062584
 10
539.1597680871
 20
86.7637025389
 10
539.1101610219
 20
86.9008428528
 10
539.0685505915
 20
87.0371332109
 10
539.0349653137
 20
87.1724802067
 10
539.009428206
 20
87.3067910801
 10
538.9919567705
 20
87.4399737812
 10
538.9825629811
 20
87.5719370332
 10
538.9812532759
 20
87.7025903949
 10
538.9880285525
 20
87.8318443233
 10
539.0028841674
 20
87.959610234
 10
539.0217287846
 20
88.0663490377
  0
LWPOLYLINE
  5
10F
330
1F
100
AcDbEntity
  8
0
  6
Continuous
 62
     7
370
    30
100
AcDbPolyline
 90
       88
 70
   128
 43
0.0
 10
562.5345070932
 20
83.2549816427
 10
562.5304259385
 20
83.2355301176
 10
562.4994457217
 20
83.1110018554
 10
562.4604322923
 20
82.9882210052
 10
562.4134123882
 20
82.8672717149
 10
562.3584182345
 20
82.748236877
 10
562.2954875215
 20
82.6311980721
 10
562.2246633786
 20
82.5162355127
 10
562.1459943452
 20
82.4034279885
 10
562.0595343372
 20
82.292852812
 10
561.9653426099
 20
82.1845857661
 10
561.8634837177
 20
82.0787010514
 10
561.7540274694
 20
81.9752712362
 10
561.6370488811
 20
81.8743672059
 10
561.5126281238
 20
81.7760581153
 10
561.3808504695
 20
81.6804113405
 10
561.241806232
 20
81.5874924329
 10
561.0955907051
 20
81.4973650745
 10
560.9423040978
 20
81.4100910342
 10
560.782051465
 20
81.3257301252
 10
560.6149426359
 20
81.2443401643
 10
560.4410921385
 20
81.165976932
 10
560.2606191213
 20
81.0906941347
 10
560.0736472714
 20
81.0185433674
 10
559.88030473
 20
80.9495740785
 10
559.6807240044
 20
80.8838335363
 10
559.4750418774
 20
80.821366796
 10
559.2633993131
 20
80.7622166693
 10
559.0459413608
 20
80.7064236945
 10
558.8228170553
 20
80.6540261095
 10
558.5941793149
 20
80.6050598249
 10
558.3601848365
 20
80.5595583999
 10
558.1209939881
 20
80.5175530187
 10
557.8767706992
 20
80.4790724698
 10
557.6276823484
 20
80.4441431258
 10
557.3738996482
 20
80.4127889256
 10
557.1155965288
 20
80.3850313577
 10
556.852950018
 20
80.3608894458
 10
556.5861401208
 20
80.3403797357
 10
556.3153496953
 20
80.3235162835
 10
556.0407643278
 20
80.3103106466
 10
555.7625722053
 20
80.3007718757
 10
555.4809639868
 20
80.2949065079
 10
555.1961326726
 20
80.2927185633
 10
554.9082734717
 20
80.2942095412
 10
554.6175836686
 20
80.2993784199
 10
554.3242624874
 20
80.3082216569
 10
554.0285109559
 20
80.3207331913
 10
553.7305317673
 20
80.3369044486
 10
553.4305291418
 20
80.3567243456
 10
553.1287086862
 20
80.3801792988
 10
552.8252772531
 20
80.4072532335
 10
552.5204427992
 20
80.4379275943
 10
552.2144142429
 20
80.4721813587
 10
551.9074013209
 20
80.5099910509
 10
551.5996144444
 20
80.551330758
 10
551.2912645553
 20
80.5961721477
 10
550.9825629811
 20
80.6444844881
 10
550.6737212905
 20
80.6962346683
 10
550.3649511482
 20
80.7513872213
 10
550.0564641697
 20
80.8099043483
 10
549.7484717767
 20
80.8717459446
 10
549.4411850517
 20
80.9368696271
 10
549.1348145937
 20
81.0052307631
 10
548.8295703738
 20
81.0767825015
 10
548.5256615911
 20
81.1514758042
 10
548.2232965294
 20
81.2292594802
 10
547.9226824146
 20
81.3100802203
 10
547.6240252728
 20
81.3938826343
 10
547.3275297885
 20
81.4806092879
 10
547.033399165
 20
81.5702007432
 10
546.7418349847
 20
81.6625955986
 10
546.4530370711
 20
81.7577305312
 10
546.1672033519
 20
81.8555403405
 10
545.8845297232
 20
81.9559579923
 10
545.6052099154
 20
82.0589146655
 10
545.3294353604
 20
82.1643397987
 10
545.0573950603
 20
82.2721611388
 10
544.7892754579
 20
82.3823047904
 10
544.5252603089
 20
82.4946952666
 10
544.2655305563
 20
82.6092555405
 10
544.0102642057
 20
82.7259070983
 10
543.759636204
 20
82.8445699927
 10
543.5138183192
 20
82.9651628983
 10
543.2729790224
 20
83.0876031666
 10
543.0372833729
 20
83.2118068831
 10
542.8068929048
 20
83.337688925
 10
542.5819655162
 20
83.4651630188
  0
LINE
  5
110
330
1F
100
AcDbEntity
  8
0
  6
Continuous
 62
     7
370
    30
100
AcDbLine
 10
562.3516412226
 20
82.3613367261
 30
0.0
 11
562.3514933495
 21
82.3606134018
 31
0.0
  0
LWPOLYLINE
  5
111
330
1F
100
AcDbEntity
  8
0
  6
Continuous
 62
     7
370
    30
100
AcDbPolyline
 90
        3
 70
   128
 43
0.0
 10
556.4035805379
 20
53.2936260246
 10
556.3994993832
 20
53.2741744994
 10
556.3953489511
 20
53.2553142895
  0
LINE
  5
112
330
1F
100
AcDbEntity
  8
0
  6
Continuous
 62
     7
370
    30
100
AcDbLine
 10
532.8840454793
 20
58.0704262757
 30
0.0
 11
532.8908022293
 21
58.1049934195
 31
0.0
  0
LINE
  5
113
330
1F
100
AcDbEntity
  8
0
  6
Continuous
 62
     7
370
    30
100
AcDbLine
 10
556.0318406311
 20
72.4672797978
 30
0.0
 11
556.0258950294
 21
72.4666677821
 31
0.0
  0
LWPOLYLINE
  5
114
330
1F
100
AcDbEntity
  8
0
  6
Continuous
 62
     7
370
    30
100
AcDbPolyline
 90
        3
 70
   128
 43
0.0
 10
653.8262486265
 20
215.4336412332
 10
653.7871044498
 20
215.4111540887
 10
653.7511390172
 20
215.3902851173
  0
LWPOLYLINE
  5
115
330
1F
100
AcDbEntity
  8
0
  6
Continuous
 62
     7
370
    30
100
AcDbPolyline
 90
        3
 70
   128
 43
0.0
 10
683.7478874947
 20
163.4271012792
 10
683.7871044498
 20
163.4496300141
 10
683.8228542886
 20
163.4703732909
  0
LWPOLYLINE
  5
116
330
1F
100
AcDbEntity
  8
0
  6
Continuous
 62
     7
370
    30
100
AcDbPolyline
 90
       91
 70
   128
 43
0.0
 10
694.9500553537
 20
180.0416987654
 10
694.9427861187
 20
180.6871316042
 10
694.9209833956
 20
181.3405149756
 10
694.884662127
 20
182.0014010834
 10
694.8338472057
 20
182.6693369891
 10
694.7685734576
 20
183.343864923
 10
694.6888856181
 20
184.0245225973
 10
694.5948383013
 20
184.7108435231
 10
694.4864959625
 20
185.4023573304
 10
694.3639328541
 20
186.0985900902
 10
694.2272329748
 20
186.7990646393
 10
694.0764900119
 20
187.5033009075
 10
693.911807277
 20
188.2108162464
 10
693.7332976354
 20
188.9211257603
 10
693.5410834288
 20
189.6337426386
 10
693.3352963912
 20
190.3481784892
 10
693.1160775587
 20
191.0639436735
 10
692.883577173
 20
191.7805476418
 10
692.6379545781
 20
192.4974992696
 10
692.3793781117
 20
193.214307194
 10
692.1080249889
 20
193.9304801506
 10
691.8240811819
 20
194.6455273104
 10
691.5277412913
 20
195.3589586156
 10
691.2192084139
 20
196.0702851161
 10
690.8986940026
 20
196.7790193042
 10
690.566417722
 20
197.484675449
 10
690.2226072976
 20
198.186769929
 10
689.86749836
 20
198.8848215637
 10
689.501334283
 20
199.5783519433
 10
689.1243660173
 20
200.2668857568
 10
688.7368519181
 20
200.9499511175
 10
688.3390575681
 20
201.6270798865
 10
687.9312555957
 20
202.2978079936
 10
687.5137254881
 20
202.9616757552
 10
687.0867533996
 20
203.6182281896
 10
686.6506319554
 20
204.2670153285
 10
686.2056600514
 20
204.9075925255
 10
685.7521426491
 20
205.5395207612
 10
685.2903905668
 20
206.1623669434
 10
684.8207202662
 20
206.7757042045
 10
684.3434536359
 20
207.3791121937
 10
683.8589177705
 20
207.9721773654
 10
683.3674447469
 20
208.5544932623
 10
682.8693713959
 20
209.1256607942
 10
682.3650390723
 20
209.6852885114
 10
681.8547934203
 20
210.232992873
 10
681.3389841366
 20
210.7683985097
 10
680.8179647312
 20
211.2911384815
 10
680.2920922848
 20
211.8008545282
 10
679.7617272041
 20
212.2971973161
 10
679.2272329748
 20
212.7798266766
 10
678.6889759126
 20
213.2484118396
 10
678.147324912
 20
213.7026316603
 10
677.6026511935
 20
214.142174839
 10
677.0553280493
 20
214.5667401349
 10
676.5057305873
 20
214.9760365721
 10
675.9542354742
 20
215.3697836393
 10
675.4012206771
 20
215.7477114819
 10
674.8470652048
 20
216.109561087
 10
674.2921488478
 20
216.4550844609
 10
673.7368519181
 20
216.7840447993
 10
673.1815549883
 20
217.0962166492
 10
672.6266386313
 20
217.3913860635
 10
672.072483159
 20
217.6693507478
 10
671.519468362
 20
217.9299201991
 10
670.9679732488
 20
218.1729158361
 10
670.4183757868
 20
218.3981711218
 10
669.8710526426
 20
218.6055316773
 10
669.3263789241
 20
218.7948553881
 10
668.7847279235
 20
218.9660125012
 10
668.2464708613
 20
219.1188857141
 10
667.711976632
 20
219.2533702551
 10
667.1816115513
 20
219.3693739552
 10
666.6557391049
 20
219.4668173113
 10
666.1347196996
 20
219.5456335405
 10
665.6189104159
 20
219.6057686262
 10
665.1086647638
 20
219.6471813548
 10
664.6043324402
 20
219.6698433441
 10
664.1062590893
 20
219.6737390626
 10
663.6147860656
 20
219.6588658405
 10
663.1302502003
 20
219.625233871
 10
662.6529835699
 20
219.5728662039
 10
662.1833132693
 20
219.5017987294
 10
661.721561187
 20
219.4120801536
 10
661.2680437847
 20
219.303771965
 10
660.8230718808
 20
219.1769483927
 10
660.3869504366
 20
219.0316963552
 10
659.959978348
 20
218.8681154011
 10
659.5424482404
 20
218.6863176406
 10
659.1346462681
 20
218.4864276687
 10
658.7380709285
 20
218.2692863142
  0
LWPOLYLINE
  5
117
330
1F
100
AcDbEntity
  8
0
  6
Continuous
 62
     7
370
    30
100
AcDbPolyline
 90
       32
 70
   128
 43
0.0
 10
688.7356329076
 20
166.3063545713
 10
688.7368519181
 20
166.3070584055
 10
689.1243660173
 20
166.5427095106
 10
689.501334283
 20
166.7960050289
 10
689.86749836
 20
167.066771364
 10
690.2226072976
 20
167.3548229464
 10
690.566417722
 20
167.6599623598
 10
690.8986940026
 20
167.981980477
 10
691.2192084139
 20
168.3206566027
 10
691.5277412913
 20
168.6757586254
 10
691.8240811819
 20
169.0470431758
 10
692.1080249889
 20
169.4342557941
 10
692.3793781117
 20
169.8371311039
 10
692.6379545781
 20
170.2553929949
 10
692.883577173
 20
170.688754811
 10
693.1160775587
 20
171.1369195479
 10
693.3352963912
 20
171.5995800557
 10
693.5410834288
 20
172.07641925
 10
693.7332976354
 20
172.5671103292
 10
693.911807277
 20
173.071316998
 10
694.0764900119
 20
173.5886936983
 10
694.2272329748
 20
174.1188858461
 10
694.3639328541
 20
174.6615300742
 10
694.4864959625
 20
175.2162544811
 10
694.5948383013
 20
175.7826788867
 10
694.6888856181
 20
176.3604150918
 10
694.7685734576
 20
176.949067145
 10
694.8338472057
 20
177.5482316134
 10
694.884662127
 20
178.1574978598
 10
694.9209833956
 20
178.7764483235
 10
694.9427861187
 20
179.4046588067
 10
694.9500553537
 20
180.0416987654
  0
ENDSEC
  0
SECTION
  2
OBJECTS
  0
DICTIONARY
  5
C
330
0
100
AcDbDictionary
281
     1
  3
ACAD_GROUP
350
D
  3
ACAD_LAYOUT
350
1A
  3
ACAD_MLINESTYLE
350
17
  3
ACAD_PLOTSETTINGS
350
19
  3
ACAD_PLOTSTYLENAME
350
E
  3
ACAD_SCALELIST
350
47
  0
DICTIONARY
  5
D
102
{ACAD_REACTORS
330
C
102
}
330
C
100
AcDbDictionary
281
     1
  0
DICTIONARY
  5
1A
102
{ACAD_REACTORS
330
C
102
}
330
C
100
AcDbDictionary
281
     1
  3
Layout1
350
1E
  3
Layout2
350
26
  3
Model
350
22
  0
DICTIONARY
  5
17
102
{ACAD_REACTORS
330
C
102
}
330
C
100
AcDbDictionary
281
     1
  3
Standard
350
18
  0
DICTIONARY
  5
19
102
{ACAD_REACTORS
330
C
102
}
330
C
100
AcDbDictionary
281
     1
  0
ACDBDICTIONARYWDFLT
  5
E
102
{ACAD_REACTORS
330
C
102
}
330
C
100
AcDbDictionary
281
     1
  3
Normal
350
F
100
AcDbDictionaryWithDefault
340
F
  0
DICTIONARY
  5
47
102
{ACAD_REACTORS
330
C
102
}
330
C
100
AcDbDictionary
281
     1
  3
A0
350
48
  3
A1
350
49
  3
A2
350
4A
  3
A3
350
4B
  3
A4
350
4C
  3
A5
350
4D
  3
A6
350
4E
  3
A7
350
4F
  3
A8
350
50
  3
A9
350
51
  3
B0
350
52
  3
B1
350
53
  3
B2
350
54
  3
B3
350
55
  3
B4
350
56
  3
B5
350
57
  3
B6
350
58
  3
B7
350
59
  3
B8
350
5A
  3
B9
350
5B
  3
C0
350
5C
  3
C1
350
5D
  3
C2
350
5E
  3
C3
350
5F
  3
C4
350
60
  3
C5
350
61
  3
C6
350
62
  3
C7
350
63
  3
C8
350
64
  3
C9
350
65
  3
D0
350
66
  3
D1
350
67
  3
D2
350
68
  0
LAYOUT
  5
1E
102
{ACAD_REACTORS
330
1A
102
}
330
1A
100
AcDbPlotSettings
  1

  2
none_device
  4

  6

 40
0.0
 41
0.0
 42
0.0
 43
0.0
 44
0.0
 45
0.0
 46
0.0
 47
0.0
 48
0.0
 49
0.0
140
0.0
141
0.0
142
1.0
143
1.0
 70
   688
 72
     1
 73
     0
 74
     5
  7

 75
    16
147
1.0
148
0.0
149
0.0
100
AcDbLayout
  1
Layout1
 70
     1
 71
     1
 10
0.0
 20
0.0
 11
420.0
 21
297.0
 12
0.0
 22
0.0
 32
0.0
 14
1.0000000000E+20
 24
1.0000000000E+20
 34
1.0000000000E+20
 15
-1.0000000000E+20
 25
-1.0000000000E+20
 35
-1.0000000000E+20
146
0.0
 13
0.0
 23
0.0
 33
0.0
 16
1.0
 26
0.0
 36
0.0
 17
0.0
 27
1.0
 37
0.0
 76
     0
330
1B
  0
LAYOUT
  5
26
102
{ACAD_REACTORS
330
1A
102
}
330
1A
100
AcDbPlotSettings
  1

  2
none_device
  4

  6

 40
0.0
 41
0.0
 42
0.0
 43
0.0
 44
0.0
 45
0.0
 46
0.0
 47
0.0
 48
0.0
 49
0.0
140
0.0
141
0.0
142
1.0
143
1.0
 70
   688
 72
     1
 73
     0
 74
     5
  7

 75
    16
147
1.0
148
0.0
149
0.0
100
AcDbLayout
  1
Layout2
 70
     1
 71
     2
 10
0.0
 20
0.0
 11
0.0
 21
0.0
 12
0.0
 22
0.0
 32
0.0
 14
0.0
 24
0.0
 34
0.0
 15
0.0
 25
0.0
 35
0.0
146
0.0
 13
0.0
 23
0.0
 33
0.0
 16
1.0
 26
0.0
 36
0.0
 17
0.0
 27
1.0
 37
0.0
 76
     0
330
23
  0
LAYOUT
  5
22
102
{ACAD_REACTORS
330
1A
102
}
330
1A
100
AcDbPlotSettings
  1

  2
none_device
  4
Letter_(8.50_x_11.00_Inches)
  6

 40
6.35
 41
6.35
 42
6.35000508
 43
6.35000508
 44
215.9
 45
279.4
 46
0.0
 47
0.0
 48
0.0
 49
0.0
140
0.0
141
0.0
142
1.0
143
1.0
 70
  1712
 72
     1
 73
     0
 74
     0
  7

 75
     0
147
1.0
148
0.0
149
0.0
100
AcDbLayout
  1
Model
 70
     1
 71
     0
 10
0.0
 20
0.0
 11
722.0
 21
439.0
 12
0.0
 22
0.0
 32
0.0
 14
0.0
 24
0.0
 34
0.0
 15
722.0
 25
439.0
 35
0.0
146
0.0
 13
0.0
 23
0.0
 33
0.0
 16
1.0
 26
0.0
 36
0.0
 17
0.0
 27
1.0
 37
0.0
 76
     0
330
1F
331
29
  0
MLINESTYLE
  5
18
102
{ACAD_REACTORS
330
17
102
}
330
17
100
AcDbMlineStyle
  2
Standard
 70
     0
  3

 62
   256
 51
90.0
 52
90.0
 71
     2
 49
0.5
 62
   256
  6
BYLAYER
 49
-0.5
 62
   256
  6
BYLAYER
  0
ACDBPLACEHOLDER
  5
F
102
{ACAD_REACTORS
330
E
102
}
330
E
  0
SCALE
  5
48
102
{ACAD_REACTORS
330
47
102
}
330
47
100
AcDbScale
 70
     0
300
1:1
140
1.0
141
1.0
290
     1
  0
SCALE
  5
49
102
{ACAD_REACTORS
330
47
102
}
330
47
100
AcDbScale
 70
     0
300
1:2
140
1.0
141
2.0
290
     0
  0
SCALE
  5
4A
102
{ACAD_REACTORS
330
47
102
}
330
47
100
AcDbScale
 70
     0
300
1:4
140
1.0
141
4.0
290
     0
  0
SCALE
  5
4B
102
{ACAD_REACTORS
330
47
102
}
330
47
100
AcDbScale
 70
     0
300
1:5
140
1.0
141
5.0
290
     0
  0
SCALE
  5
4C
102
{ACAD_REACTORS
330
47
102
}
330
47
100
AcDbScale
 70
     0
300
1:8
140
1.0
141
8.0
290
     0
  0
SCALE
  5
4D
102
{ACAD_REACTORS
330
47
102
}
330
47
100
AcDbScale
 70
     0
300
1:10
140
1.0
141
10.0
290
     0
  0
SCALE
  5
4E
102
{ACAD_REACTORS
330
47
102
}
330
47
100
AcDbScale
 70
     0
300
1:16
140
1.0
141
16.0
290
     0
  0
SCALE
  5
4F
102
{ACAD_REACTORS
330
47
102
}
330
47
100
AcDbScale
 70
     0
300
1:20
140
1.0
141
20.0
290
     0
  0
SCALE
  5
50
102
{ACAD_REACTORS
330
47
102
}
330
47
100
AcDbScale
 70
     0
300
1:30
140
1.0
141
30.0
290
     0
  0
SCALE
  5
51
102
{ACAD_REACTORS
330
47
102
}
330
47
100
AcDbScale
 70
     0
300
1:40
140
1.0
141
40.0
290
     0
  0
SCALE
  5
52
102
{ACAD_REACTORS
330
47
102
}
330
47
100
AcDbScale
 70
     0
300
1:50
140
1.0
141
50.0
290
     0
  0
SCALE
  5
53
102
{ACAD_REACTORS
330
47
102
}
330
47
100
AcDbScale
 70
     0
300
1:100
140
1.0
141
100.0
290
     0
  0
SCALE
  5
54
102
{ACAD_REACTORS
330
47
102
}
330
47
100
AcDbScale
 70
     0
300
2:1
140
2.0
141
1.0
290
     0
  0
SCALE
  5
55
102
{ACAD_REACTORS
330
47
102
}
330
47
100
AcDbScale
 70
     0
300
4:1
140
4.0
141
1.0
290
     0
  0
SCALE
  5
56
102
{ACAD_REACTORS
330
47
102
}
330
47
100
AcDbScale
 70
     0
300
8:1
140
8.0
141
1.0
290
     0
  0
SCALE
  5
57
102
{ACAD_REACTORS
330
47
102
}
330
47
100
AcDbScale
 70
     0
300
10:1
140
10.0
141
1.0
290
     0
  0
SCALE
  5
58
102
{ACAD_REACTORS
330
47
102
}
330
47
100
AcDbScale
 70
     0
300
100:1
140
100.0
141
1.0
290
     0
  0
SCALE
  5
59
102
{ACAD_REACTORS
330
47
102
}
330
47
100
AcDbScale
 70
     0
300
1/128" = 1'-0"
140
0.0078125
141
12.0
290
     0
  0
SCALE
  5
5A
102
{ACAD_REACTORS
330
47
102
}
330
47
100
AcDbScale
 70
     0
300
1/64" = 1'-0"
140
0.015625
141
12.0
290
     0
  0
SCALE
  5
5B
102
{ACAD_REACTORS
330
47
102
}
330
47
100
AcDbScale
 70
     0
300
1/32" = 1'-0"
140
0.03125
141
12.0
290
     0
  0
SCALE
  5
5C
102
{ACAD_REACTORS
330
47
102
}
330
47
100
AcDbScale
 70
     0
300
1/16" = 1'-0"
140
0.0625
141
12.0
290
     0
  0
SCALE
  5
5D
102
{ACAD_REACTORS
330
47
102
}
330
47
100
AcDbScale
 70
     0
300
3/32" = 1'-0"
140
0.09375
141
12.0
290
     0
  0
SCALE
  5
5E
102
{ACAD_REACTORS
330
47
102
}
330
47
100
AcDbScale
 70
     0
300
1/8" = 1'-0"
140
0.125
141
12.0
290
     0
  0
SCALE
  5
5F
102
{ACAD_REACTORS
330
47
102
}
330
47
100
AcDbScale
 70
     0
300
3/16" = 1'-0"
140
0.1875
141
12.0
290
     0
  0
SCALE
  5
60
102
{ACAD_REACTORS
330
47
102
}
330
47
100
AcDbScale
 70
     0
300
1/4" = 1'-0"
140
0.25
141
12.0
290
     0
  0
SCALE
  5
61
102
{ACAD_REACTORS
330
47
102
}
330
47
100
AcDbScale
 70
     0
300
3/8" = 1'-0"
140
0.375
141
12.0
290
     0
  0
SCALE
  5
62
102
{ACAD_REACTORS
330
47
102
}
330
47
100
AcDbScale
 70
     0
300
1/2" = 1'-0"
140
0.5
141
12.0
290
     0
  0
SCALE
  5
63
102
{ACAD_REACTORS
330
47
102
}
330
47
100
AcDbScale
 70
     0
300
3/4" = 1'-0"
140
0.75
141
12.0
290
     0
  0
SCALE
  5
64
102
{ACAD_REACTORS
330
47
102
}
330
47
100
AcDbScale
 70
     0
300
1" = 1'-0"
140
1.0
141
12.0
290
     0
  0
SCALE
  5
65
102
{ACAD_REACTORS
330
47
102
}
330
47
100
AcDbScale
 70
     0
300
1-1/2" = 1'-0"
140
1.5
141
12.0
290
     0
  0
SCALE
  5
66
102
{ACAD_REACTORS
330
47
102
}
330
47
100
AcDbScale
 70
     0
300
3" = 1'-0"
140
3.0
141
12.0
290
     0
  0
SCALE
  5
67
102
{ACAD_REACTORS
330
47
102
}
330
47
100
AcDbScale
 70
     0
300
6" = 1'-0"
140
6.0
141
12.0
290
     0
  0
SCALE
  5
68
102
{ACAD_REACTORS
330
47
102
}
330
47
100
AcDbScale
 70
     0
300
1'-0" = 1'-0"
140
12.0
141
12.0
290
     0
  0
ENDSEC
  0
EOF
