  0
SECTION
  2
HEADER
  9
$ACADVER
  1
AC1015
  9
$ACADMAINTVER
 70
     6
  9
$DWGCODEPAGE
  3
ANSI_1252
  9
$INSBASE
 10
0.0
 20
0.0
 30
0.0
  9
$EXTMIN
 10
0.0
 20
0.0
 30
0.0
  9
$EXTMAX
 10
545.0
 20
533.0
 30
0.0
  9
$LIMMIN
 10
0.0
 20
0.0
  9
$LIMMAX
 10
545.0
 20
533.0
  9
$ORTHOMODE
 70
     0
  9
$REGENMODE
 70
     1
  9
$FILLMODE
 70
     1
  9
$QTEXTMODE
 70
     0
  9
$MIRRTEXT
 70
     1
  9
$LTSCALE
 40
1.0
  9
$ATTMODE
 70
     1
  9
$TEXTSIZE
 40
3.5
  9
$TRACEWID
 40
1.0
  9
$TEXTSTYLE
  7
Standard
  9
$CLAYER
  8
0
  9
$CELTYPE
  6
ByLayer
  9
$CECOLOR
 62
   256
  9
$CELTSCALE
 40
1.0
  9
$DISPSILH
 70
     0
  9
$DIMSCALE
 40
1.0
  9
$DIMASZ
 40
3.302
  9
$DIMEXO
 40
1.0
  9
$DIMDLI
 40
3.75
  9
$DIMRND
 40
0.0
  9
$DIMDLE
 40
0.0
  9
$DIMEXE
 40
1.0
  9
$DIMTP
 40
0.0
  9
$DIMTM
 40
0.0
  9
$DIMTXT
 40
2.8
  9
$DIMCEN
 40
2.5
  9
$DIMTSZ
 40
0.0
  9
$DIMTOL
 70
     0
  9
$DIMLIM
 70
     0
  9
$DIMTIH
 70
     1
  9
$DIMTOH
 70
     1
  9
$DIMSE1
 70
     0
  9
$DIMSE2
 70
     0
  9
$DIMTAD
 70
     1
  9
$DIMZIN
 70
     0
  9
$DIMBLK
  1

  9
$DIMASO
 70
     1
  9
$DIMSHO
 70
     1
  9
$DIMPOST
  1

  9
$DIMAPOST
  1

  9
$DIMALT
 70
     0
  9
$DIMALTD
 70
     3
  9
$DIMALTF
 40
0.0393700787
  9
$DIMLFAC
 40
1.0
  9
$DIMTOFL
 70
     1
  9
$DIMTVP
 40
0.0
  9
$DIMTIX
 70
     0
  9
$DIMSOXD
 70
     0
  9
$DIMSAH
 70
     0
  9
$DIMBLK1
  1

  9
$DIMBLK2
  1

  9
$DIMSTYLE
  2
ISO-25
  9
$DIMCLRD
 70
     0
  9
$DIMCLRE
 70
     0
  9
$DIMCLRT
 70
     0
  9
$DIMTFAC
 40
1.0
  9
$DIMGAP
 40
1.524
  9
$DIMJUST
 70
     0
  9
$DIMSD1
 70
     0
  9
$DIMSD2
 70
     0
  9
$DIMTOLJ
 70
     0
  9
$DIMTZIN
 70
     0
  9
$DIMALTZ
 70
     0
  9
$DIMALTTZ
 70
     0
  9
$DIMUPT
 70
     0
  9
$DIMDEC
 70
     2
  9
$DIMTDEC
 70
     2
  9
$DIMALTU
 70
     2
  9
$DIMALTTD
 70
     3
  9
$DIMTXSTY
  7
Standard
  9
$DIMAUNIT
 70
     0
  9
$DIMADEC
 70
     2
  9
$DIMALTRND
 40
0.0
  9
$DIMAZIN
 70
     0
  9
$DIMDSEP
 70
    44
  9
$DIMATFIT
 70
     3
  9
$DIMFRAC
 70
     0
  9
$DIMLDRBLK
  1

  9
$DIMLUNIT
 70
     2
  9
$DIMLWD
 70
    -2
  9
$DIMLWE
 70
    -2
  9
$DIMTMOVE
 70
     0
  9
$LUNITS
 70
     2
  9
$LUPREC
 70
     2
  9
$SKETCHINC
 40
1.0
  9
$FILLETRAD
 40
10.0
  9
$AUNITS
 70
     0
  9
$AUPREC
 70
     2
  9
$MENU
  1
.
  9
$ELEVATION
 40
0.0
  9
$PELEVATION
 40
0.0
  9
$THICKNESS
 40
0.0
  9
$LIMCHECK
 70
     0
  9
$CHAMFERA
 40
0.0
  9
$CHAMFERB
 40
0.0
  9
$CHAMFERC
 40
0.0
  9
$CHAMFERD
 40
0.0
  9
$SKPOLY
 70
     0
  9
$TDCREATE
 40
2459191.355469352
  9
$TDUCREATE
 40
2459191.272136019
  9
$TDUPDATE
 40
2459191.355470011
  9
$TDUUPDATE
 40
2459191.272136678
  9
$TDINDWG
 40
0.0000000116
  9
$TDUSRTIMER
 40
0.0000000116
  9
$USRTIMER
 70
     1
  9
$ANGBASE
 50
0.0
  9
$ANGDIR
 70
     0
  9
$PDMODE
 70
     0
  9
$PDSIZE
 40
-1.0
  9
$PLINEWID
 40
0.0
  9
$SPLFRAME
 70
     0
  9
$SPLINETYPE
 70
     6
  9
$SPLINESEGS
 70
     8
  9
$HANDSEED
  5
11F
  9
$SURFTAB1
 70
     6
  9
$SURFTAB2
 70
     6
  9
$SURFTYPE
 70
     6
  9
$SURFU
 70
     6
  9
$SURFV
 70
     6
  9
$UCSBASE
  2

  9
$UCSNAME
  2

  9
$UCSORG
 10
0.0
 20
0.0
 30
0.0
  9
$UCSXDIR
 10
1.0
 20
0.0
 30
0.0
  9
$UCSYDIR
 10
0.0
 20
1.0
 30
0.0
  9
$UCSORTHOREF
  2

  9
$UCSORTHOVIEW
 70
     0
  9
$UCSORGTOP
 10
0.0
 20
0.0
 30
0.0
  9
$UCSORGBOTTOM
 10
0.0
 20
0.0
 30
0.0
  9
$UCSORGLEFT
 10
0.0
 20
0.0
 30
0.0
  9
$UCSORGRIGHT
 10
0.0
 20
0.0
 30
0.0
  9
$UCSORGFRONT
 10
0.0
 20
0.0
 30
0.0
  9
$UCSORGBACK
 10
0.0
 20
0.0
 30
0.0
  9
$PUCSBASE
  2

  9
$PUCSNAME
  2

  9
$PUCSORG
 10
0.0
 20
0.0
 30
0.0
  9
$PUCSXDIR
 10
1.0
 20
0.0
 30
0.0
  9
$PUCSYDIR
 10
0.0
 20
1.0
 30
0.0
  9
$PUCSORTHOREF
  2

  9
$PUCSORTHOVIEW
 70
     0
  9
$PUCSORGTOP
 10
0.0
 20
0.0
 30
0.0
  9
$PUCSORGBOTTOM
 10
0.0
 20
0.0
 30
0.0
  9
$PUCSORGLEFT
 10
0.0
 20
0.0
 30
0.0
  9
$PUCSORGRIGHT
 10
0.0
 20
0.0
 30
0.0
  9
$PUCSORGFRONT
 10
0.0
 20
0.0
 30
0.0
  9
$PUCSORGBACK
 10
0.0
 20
0.0
 30
0.0
  9
$USERI1
 70
     0
  9
$USERI2
 70
     0
  9
$USERI3
 70
     0
  9
$USERI4
 70
     0
  9
$USERI5
 70
     0
  9
$USERR1
 40
0.0
  9
$USERR2
 40
0.0
  9
$USERR3
 40
0.0
  9
$USERR4
 40
0.0
  9
$USERR5
 40
0.0
  9
$WORLDVIEW
 70
     1
  9
$SHADEDGE
 70
     3
  9
$SHADEDIF
 70
    70
  9
$TILEMODE
 70
     1
  9
$MAXACTVP
 70
    64
  9
$PINSBASE
 10
0.0
 20
0.0
 30
0.0
  9
$PLIMCHECK
 70
     0
  9
$PEXTMIN
 10
1.0000000000E+20
 20
1.0000000000E+20
 30
1.0000000000E+20
  9
$PEXTMAX
 10
-1.0000000000E+20
 20
-1.0000000000E+20
 30
-1.0000000000E+20
  9
$PLIMMIN
 10
0.0
 20
0.0
  9
$PLIMMAX
 10
420.0
 20
297.0
  9
$UNITMODE
 70
     0
  9
$VISRETAIN
 70
     1
  9
$PLINEGEN
 70
     0
  9
$PSLTSCALE
 70
     1
  9
$TREEDEPTH
 70
  3020
  9
$CMLSTYLE
  2
Standard
  9
$CMLJUST
 70
     0
  9
$CMLSCALE
 40
20.0
  9
$PROXYGRAPHICS
 70
     1
  9
$MEASUREMENT
 70
     1
  9
$CELWEIGHT
370
    -1
  9
$ENDCAPS
280
     0
  9
$JOINSTYLE
280
     0
  9
$LWDISPLAY
290
     1
  9
$INSUNITS
 70
     4
  9
$HYPERLINKBASE
  1

  9
$STYLESHEET
  1

  9
$XEDIT
290
     1
  9
$CEPSNTYPE
380
     0
  9
$PSTYLEMODE
290
     1
  9
$FINGERPRINTGUID
  2
{DAFA290B-3BA2-451A-8777-597A01A39AA7}
  9
$VERSIONGUID
  2
{FAEB1C32-E019-11D5-929B-00C0DF256EC4}
  9
$EXTNAMES
290
     1
  9
$PSVPSCALE
 40
0.0
  9
$OLESTARTUP
290
     0
  0
ENDSEC
  0
SECTION
  2
CLASSES
  0
CLASS
  1
ACDBDICTIONARYWDFLT
  2
AcDbDictionaryWithDefault
  3
ObjectDBX Classes
 90
        0
280
     0
281
     0
  0
CLASS
  1
VISUALSTYLE
  2
AcDbVisualStyle
  3
ObjectDBX Classes
 90
     4095
280
     0
281
     0
  0
CLASS
  1
MATERIAL
  2
AcDbMaterial
  3
ObjectDBX Classes
 90
     1153
280
     0
281
     0
  0
CLASS
  1
SCALE
  2
AcDbScale
  3
ObjectDBX Classes
 90
     1153
280
     0
281
     0
  0
CLASS
  1
TABLESTYLE
  2
AcDbTableStyle
  3
ObjectDBX Classes
 90
     4095
280
     0
281
     0
  0
CLASS
  1
MLEADERSTYLE
  2
AcDbMLeaderStyle
  3
ACDB_MLEADERSTYLE_CLASS
 90
     4095
280
     0
281
     0
  0
CLASS
  1
SUN
  2
AcDbSun
  3
SCENEOE
 90
     1153
280
     0
281
     0
  0
CLASS
  1
ACDBPLACEHOLDER
  2
AcDbPlaceHolder
  3
ObjectDBX Classes
 90
        0
280
     0
281
     0
  0
CLASS
  1
LAYOUT
  2
AcDbLayout
  3
ObjectDBX Classes
 90
        0
280
     0
281
     0
  0
ENDSEC
  0
SECTION
  2
TABLES
  0
TABLE
  2
VPORT
  5
8
330
0
100
AcDbSymbolTable
 70
     1
  0
VPORT
  5
29
330
8
100
AcDbSymbolTableRecord
100
AcDbViewportTableRecord
  2
*Active
 70
     0
 10
0.0
 20
0.0
 11
1.0
 21
1.0
 12
272.5
 22
266.5
 13
0.0
 23
0.0
 14
10.0
 24
10.0
 15
10.0
 25
10.0
 16
0.0
 26
0.0
 36
1.0
 17
0.0
 27
0.0
 37
0.0
 40
533.0
 41
1.0225140713
 42
50.0
 43
0.0
 44
0.0
 50
0.0
 51
0.0
 71
     0
 72
  2000
 73
     1
 74
     3
 75
     0
 76
     0
 77
     0
 78
     0
281
     0
 65
     1
110
0.0
120
0.0
130
0.0
111
1.0
121
0.0
131
0.0
112
0.0
122
1.0
132
0.0
 79
     0
146
0.0
  0
ENDTAB
  0
TABLE
  2
LTYPE
  5
5
330
0
100
AcDbSymbolTable
 70
     6
  0
LTYPE
  5
14
330
5
100
AcDbSymbolTableRecord
100
AcDbLinetypeTableRecord
  2
ByBlock
 70
     0
  3

 72
    65
 73
     0
 40
0.0
  0
LTYPE
  5
15
330
5
100
AcDbSymbolTableRecord
100
AcDbLinetypeTableRecord
  2
ByLayer
 70
     0
  3

 72
    65
 73
     0
 40
0.0
  0
LTYPE
  5
16
330
5
100
AcDbSymbolTableRecord
100
AcDbLinetypeTableRecord
  2
Continuous
 70
     0
  3
Solid line
 72
    65
 73
     0
 40
0.0
  0
LTYPE
  5
6E
330
5
100
AcDbSymbolTableRecord
100
AcDbLinetypeTableRecord
  2
HIDDEN
 70
     0
  3
Hidden __ __ __ __ __ __ __ __ __ __ __ __ __ __
 72
    65
 73
     2
 40
1.905
 49
1.27
 74
     0
 49
-0.635
 74
     0
  0
LTYPE
  5
6F
330
5
100
AcDbSymbolTableRecord
100
AcDbLinetypeTableRecord
  2
PHANTOM
 70
     0
  3
Phantom ______  __  __  ______  __  __  ______
 72
    65
 73
     6
 40
12.7
 49
6.35
 74
     0
 49
-1.27
 74
     0
 49
1.27
 74
     0
 49
-1.27
 74
     0
 49
1.27
 74
     0
 49
-1.27
 74
     0
  0
LTYPE
  5
70
330
5
100
AcDbSymbolTableRecord
100
AcDbLinetypeTableRecord
  2
CENTER
 70
     0
  3
Center ____ _ ____ _ ____ _ ____ _ ____ _ ____
 72
    65
 73
     4
 40
10.16
 49
6.35
 74
     0
 49
-1.27
 74
     0
 49
1.27
 74
     0
 49
-1.27
 74
     0
  0
LTYPE
  5
71
330
5
100
AcDbSymbolTableRecord
100
AcDbLinetypeTableRecord
  2
CENTERX2
 70
     0
  3
Center (2x) ________  __  ________  __  _____
 72
    65
 73
     4
 40
20.32
 49
12.7
 74
     0
 49
-2.54
 74
     0
 49
2.54
 74
     0
 49
-2.54
 74
     0
  0
LTYPE
  5
72
330
5
100
AcDbSymbolTableRecord
100
AcDbLinetypeTableRecord
  2
DOT2
 70
     0
  3
Dot (.5x) ........................................
 72
    65
 73
     2
 40
0.635
 49
0.0
 74
     0
 49
-0.635
 74
     0
  0
ENDTAB
  0
TABLE
  2
LAYER
  5
2
330
0
100
AcDbSymbolTable
 70
     2
  0
LAYER
  5
10
330
2
100
AcDbSymbolTableRecord
100
AcDbLayerTableRecord
  2
0
 70
     0
 62
     7
  6
Continuous
370
    -3
390
F
  0
LAYER
  5
73
330
2
100
AcDbSymbolTableRecord
100
AcDbLayerTableRecord
  2
FORMAT
 70
     0
 62
     7
  6
Continuous
370
    -3
390
F
  0
ENDTAB
  0
TABLE
  2
STYLE
  5
3
330
0
100
AcDbSymbolTable
 70
     2
  0
STYLE
  5
11
330
3
100
AcDbSymbolTableRecord
100
AcDbTextStyleTableRecord
  2
Standard
 70
     0
 40
0.0
 41
1.0
 50
0.0
 71
     0
 42
3.5
  3
txt
  4

  0
STYLE
  5
74
330
3
100
AcDbSymbolTableRecord
100
AcDbTextStyleTableRecord
  2
SLDTEXTSTYLE0
 70
     0
 40
0.0
 41
0.605
 50
0.0
 71
     0
 42
3.5
  3
TXT
  4

  0
ENDTAB
  0
TABLE
  2
VIEW
  5
6
330
0
100
AcDbSymbolTable
 70
     0
  0
ENDTAB
  0
TABLE
  2
UCS
  5
7
330
0
100
AcDbSymbolTable
 70
     0
  0
ENDTAB
  0
TABLE
  2
APPID
  5
9
330
0
100
AcDbSymbolTable
 70
     1
  0
APPID
  5
12
330
9
100
AcDbSymbolTableRecord
100
AcDbRegAppTableRecord
  2
ACAD
 70
     0
  0
ENDTAB
  0
TABLE
  2
DIMSTYLE
  5
A
330
0
100
AcDbSymbolTable
 70
     1
100
AcDbDimStyleTable
  0
DIMSTYLE
105
27
330
A
100
AcDbSymbolTableRecord
100
AcDbDimStyleTableRecord
  2
ISO-25
 70
     0
 41
2.5
 42
0.625
 43
3.75
 44
1.25
 73
     0
 74
     0
 77
     1
 78
     8
140
2.5
141
2.5
143
0.0393700787
147
0.625
171
     3
172
     1
178
     0
271
     2
272
     2
274
     3
278
    44
283
     0
284
     8
340
11
  0
ENDTAB
  0
TABLE
  2
BLOCK_RECORD
  5
1
330
0
100
AcDbSymbolTable
 70
     1
  0
BLOCK_RECORD
  5
1F
330
1
100
AcDbSymbolTableRecord
100
AcDbBlockTableRecord
  2
*Model_Space
340
22
  0
BLOCK_RECORD
  5
1B
330
1
100
AcDbSymbolTableRecord
100
AcDbBlockTableRecord
  2
*Paper_Space
340
1E
  0
BLOCK_RECORD
  5
23
330
1
100
AcDbSymbolTableRecord
100
AcDbBlockTableRecord
  2
*Paper_Space0
340
26
  0
ENDTAB
  0
ENDSEC
  0
SECTION
  2
BLOCKS
  0
BLOCK
  5
20
330
1F
100
AcDbEntity
  8
0
100
AcDbBlockBegin
  2
*Model_Space
 70
     0
 10
0.0
 20
0.0
 30
0.0
  3
*Model_Space
  1

  0
ENDBLK
  5
21
330
1F
100
AcDbEntity
  8
0
100
AcDbBlockEnd
  0
BLOCK
  5
1C
330
1B
100
AcDbEntity
 67
     1
  8
0
100
AcDbBlockBegin
  2
*Paper_Space
 70
     0
 10
0.0
 20
0.0
 30
0.0
  3
*Paper_Space
  1

  0
ENDBLK
  5
1D
330
1B
100
AcDbEntity
 67
     1
  8
0
100
AcDbBlockEnd
  0
BLOCK
  5
24
330
23
100
AcDbEntity
  8
0
100
AcDbBlockBegin
  2
*Paper_Space0
 70
     0
 10
0.0
 20
0.0
 30
0.0
  3
*Paper_Space0
  1

  0
ENDBLK
  5
25
330
23
100
AcDbEntity
  8
0
100
AcDbBlockEnd
  0
ENDSEC
  0
SECTION
  2
ENTITIES
  0
MTEXT
  5
75
330
1F
100
AcDbEntity
  8
0
  6
Continuous
 62
     7
370
     0
100
AcDbMText
 10
7.2782978723
 20
22.1884790273
 30
0.0
 40
10.0
 41
0.0
 71
     1
 72
     1
  1
1:1
  7
SLDTEXTSTYLE0
 73
     1
 44
1.0
  0
LINE
  5
76
330
1F
100
AcDbEntity
  8
0
  6
Continuous
 62
     7
370
    30
100
AcDbLine
 10
257.1959236781
 20
467.7328972406
 30
0.0
 11
257.1959236781
 21
454.7951335235
 31
0.0
  0
LINE
  5
77
330
1F
100
AcDbEntity
  8
0
  6
Continuous
 62
     7
370
    30
100
AcDbLine
 10
281.1959236781
 20
456.5174925417
 30
0.0
 11
281.1959236781
 21
467.7328972406
 31
0.0
  0
ARC
  5
78
330
1F
100
AcDbEntity
  8
0
  6
Continuous
 62
     7
370
    30
100
AcDbCircle
 10
269.1959236781
 20
494.0520915074
 30
0.0
 40
12.0
100
AcDbArc
 50
0.0
 51
180.0
  0
LINE
  5
79
330
1F
100
AcDbEntity
  8
0
  6
Continuous
 62
     7
370
    30
100
AcDbLine
 10
281.1959236781
 20
467.7328972405
 30
0.0
 11
281.1959236781
 21
494.0520915074
 31
0.0
  0
LINE
  5
7A
330
1F
100
AcDbEntity
  8
0
  6
Continuous
 62
     7
370
    30
100
AcDbLine
 10
257.1959236781
 20
454.7951335235
 30
0.0
 11
257.1959236781
 21
454.3381226194
 31
0.0
  0
LINE
  5
7B
330
1F
100
AcDbEntity
  8
0
  6
Continuous
 62
     7
370
    30
100
AcDbLine
 10
257.1959236781
 20
494.0520915074
 30
0.0
 11
257.1959236781
 21
467.7328972405
 31
0.0
  0
LINE
  5
7C
330
1F
100
AcDbEntity
  8
0
  6
Continuous
 62
     7
370
    30
100
AcDbLine
 10
281.1959236781
 20
313.9479084926
 30
0.0
 11
281.1959236781
 21
423.7852770376
 31
0.0
  0
LINE
  5
7D
330
1F
100
AcDbEntity
  8
0
  6
Continuous
 62
     7
370
    30
100
AcDbLine
 10
257.1959236781
 20
423.7852770376
 30
0.0
 11
257.1959236781
 21
313.9479084926
 31
0.0
  0
ARC
  5
7E
330
1F
100
AcDbEntity
  8
0
  6
Continuous
 62
     7
370
    30
100
AcDbCircle
 10
292.0911154616
 20
312.9479084926
 30
0.0
 40
1.000000000000057
100
AcDbArc
 50
0.0
 51
90.0
  0
ARC
  5
7F
330
1F
100
AcDbEntity
  8
0
  6
Continuous
 62
     7
370
    30
100
AcDbCircle
 10
246.0911154616
 20
312.9479084926
 30
0.0
 40
1.000000000000028
100
AcDbArc
 50
90.0
 51
180.0
  0
LINE
  5
80
330
1F
100
AcDbEntity
  8
0
  6
Continuous
 62
     7
370
    30
100
AcDbLine
 10
293.0911154616
 20
305.9479084926
 30
0.0
 11
293.0911154616
 21
312.9479084926
 31
0.0
  0
LINE
  5
81
330
1F
100
AcDbEntity
  8
0
  6
Continuous
 62
     7
370
    30
100
AcDbLine
 10
245.0911154616
 20
312.9479084926
 30
0.0
 11
245.0911154616
 21
305.9479084926
 31
0.0
  0
SPLINE
  5
82
330
1F
100
AcDbEntity
  8
0
  6
Continuous
 62
     7
370
    30
100
AcDbSpline
210
0.0
220
0.0
230
1.0
 70
     8
 71
     3
 72
   132
 73
   128
 74
     0
 42
0.000000001
 43
0.00000001
 40
0.0
 40
0.0
 40
0.0
 40
0.0
 40
0.0085316897762978
 40
0.0120446619030222
 40
0.017871451553717
 40
0.0239329644602392
 40
0.0304438317239583
 40
0.0372459392474466
 40
0.0442754196495415
 40
0.0514813306401061
 40
0.0588274695650376
 40
0.066287039500737
 40
0.0738398367268063
 40
0.0814703308246506
 40
0.0891663750696145
 40
0.0969183194483392
 40
0.1047183888735647
 40
0.1125602391371037
 40
0.1204386342376551
 40
0.1283492080933556
 40
0.136288285927493
 40
0.1442527485291605
 40
0.1522399277816264
 40
0.1602475253099614
 40
0.1682735484447913
 40
0.1763162593114239
 40
0.1843741339779905
 40
0.1924458293942478
 40
0.200530156421133
 40
0.2086260576659954
 40
0.2167325891412369
 40
0.2248489049889788
 40
0.2329742446826524
 40
0.2411079222433932
 40
0.2492493171062665
 40
0.257397866345757
 40
0.2655530580276459
 40
0.2737144254993658
 40
0.281881542466458
 40
0.2900540187308304
 40
0.2982314964887153
 40
0.3064136471038802
 40
0.3146001682866474
 40
0.3227907816203235
 40
0.3309852303862708
 40
0.339183277647165
 40
0.3473847045532652
 40
0.3555893088429591
 40
0.3637969035123805
 40
0.3720073156328707
 40
0.3802203852978916
 40
0.3884359646838224
 40
0.3966539172106444
 40
0.4048741167908567
 40
0.4130964471559935
 40
0.4213208012515959
 40
0.4295470806923191
 40
0.4377751952699233
 40
0.4460050625072671
 40
0.4542366072521807
 40
0.4624697613056876
 40
0.4707044630785533
 40
0.4789406572715132
 40
0.4871782945734022
 40
0.4954173313724097
 40
0.5036577294747163
 40
0.511899455825259
 40
0.520142482224411
 40
0.5283867850345726
 40
0.536632344869162
 40
0.544879146257108
 40
0.5531271772737778
 40
0.5613764291292088
 40
0.5696268957030809
 40
0.5778785730144521
 40
0.5861314586131476
 40
0.5943855508776253
 40
0.602640848203025
 40
0.6108973480601966
 40
0.6191550459055065
 40
0.6274139339182918
 40
0.6356739995408248
 40
0.6439352237939057
 40
0.6521975793385565
 40
0.6604610282536107
 40
0.6687255194972889
 40
0.6769909860214977
 40
0.6852573415086509
 40
0.6935244767042055
 40
0.7017922553241537
 40
0.7100605095259148
 40
0.7183290349444545
 40
0.7265975853149709
 40
0.7348658667286989
 40
0.7431334200904866
 40
0.7513997230732912
 40
0.7596642700407821
 40
0.7679264791816689
 40
0.7761856890299279
 40
0.7844411544790815
 40
0.792692044461275
 40
0.8009374418524098
 40
0.8091763462656275
 40
0.8174076804389223
 40
0.82563030092813
 40
0.8338430137684729
 40
0.8420445956494165
 40
0.8502338209517871
 40
0.8584094947153957
 40
0.866570491247283
 40
0.8747157976637928
 40
0.8828445612150385
 40
0.8909561388090601
 40
0.8990501467871986
 40
0.9071265087463306
 40
0.9151854990975664
 40
0.9232277801164349
 40
0.9312544304716577
 40
0.939266963598289
 40
0.9472673347574214
 40
0.9552579361487326
 40
0.9632415799542904
 40
0.9712214696483866
 40
0.9792011602739658
 40
0.987184508651279
 40
0.9951756146534687
 40
1.0
 40
1.0
 40
1.0
 40
1.0
 10
269.1959236780653
 20
419.5494393463057
 30
0.0
 10
269.2489903021118
 20
419.5495056870889
 30
0.0
 10
269.3239074125244
 20
419.5495993440696
 30
0.0
 10
269.4350517128497
 20
419.5502296729985
 30
0.0
 10
269.530821053093
 20
419.5509954036124
 30
0.0
 10
269.6452022157351
 20
419.5522830172209
 30
0.0
 10
269.7656023805656
 20
419.5540438907812
 30
0.0
 10
269.8919551623087
 20
419.5563457357448
 30
0.0
 10
270.0225426879374
 20
419.5592118650205
 30
0.0
 10
270.1564038332929
 20
419.5626647265718
 30
0.0
 10
270.2928073388864
 20
419.5667203513923
 30
0.0
 10
270.4312125263035
 20
419.5713911893819
 30
0.0
 10
270.5712068461418
 20
419.5766868930754
 30
0.0
 10
270.7124685240275
 20
419.582615039402
 30
0.0
 10
270.8547411607512
 20
419.589181596455
 30
0.0
 10
270.9978163880465
 20
419.5963912643447
 30
0.0
 10
271.1415217710066
 20
419.604247721264
 30
0.0
 10
271.2857122110907
 20
419.612753806765
 30
0.0
 10
271.4302637275126
 20
419.6219116601609
 30
0.0
 10
271.5750688843341
 20
419.6317228269262
 30
0.0
 10
271.7200333762162
 20
419.6421883416857
 30
0.0
 10
271.8650734433299
 20
419.6533087938467
 30
0.0
 10
272.0101138887259
 20
419.6650843801623
 30
0.0
 10
272.1550865396848
 20
419.6775149473232
 30
0.0
 10
272.299929040587
 20
419.6906000268488
 30
0.0
 10
272.444583896361
 20
419.7043388639653
 30
0.0
 10
272.5889977074922
 20
419.7187304417399
 30
0.0
 10
272.7331205530216
 20
419.7337735014388
 30
0.0
 10
272.876905489001
 20
419.7494665598547
 30
0.0
 10
273.0203081378471
 20
419.765807924183
 30
0.0
 10
273.1632863498743
 20
419.7827957049029
 30
0.0
 10
273.3057999225983
 20
419.800427827024
 30
0.0
 10
273.447810366624
 20
419.8187020399891
 30
0.0
 10
273.5892807093613
 20
419.8376159264635
 30
0.0
 10
273.7301753296587
 20
419.8571669102024
 30
0.0
 10
273.870459817866
 20
419.8773522631507
 30
0.0
 10
274.0101008569295
 20
419.8981691119029
 30
0.0
 10
274.1490661209792
 20
419.9196144436291
 30
0.0
 10
274.2873241885416
 20
419.9416851115568
 30
0.0
 10
274.4248444680347
 20
419.9643778400824
 30
0.0
 10
274.5615971336297
 20
419.9876892295761
 30
0.0
 10
274.697553069897
 20
420.0116157609352
 30
0.0
 10
274.8326838239265
 20
420.0361537999304
 30
0.0
 10
274.966961563831
 20
420.0612996013892
 30
0.0
 10
275.1003590427216
 20
420.0870493132467
 30
0.0
 10
275.2328495673854
 20
420.1133989805006
 30
0.0
 10
275.3644069710213
 20
420.1403445490923
 30
0.0
 10
275.4950055894826
 20
420.1678818697443
 30
0.0
 10
275.6246202405596
 20
420.1960067017707
 30
0.0
 10
275.7532262059025
 20
420.2247147168862
 30
0.0
 10
275.8807992152407
 20
420.2540015030285
 30
0.0
 10
276.007315432602
 20
420.2838625682125
 30
0.0
 10
276.1327514442737
 20
420.3142933444328
 30
0.0
 10
276.2570842482827
 20
420.345289191628
 30
0.0
 10
276.3802912451966
 20
420.3768454017219
 30
0.0
 10
276.5023502300722
 20
420.4089572027542
 30
0.0
 10
276.6232393853984
 20
420.4416197631131
 30
0.0
 10
276.7429372748952
 20
420.4748281958807
 30
0.0
 10
276.8614228380425
 20
420.5085775633037
 30
0.0
 10
276.9786753852301
 20
420.5428628813975
 30
0.0
 10
277.0946745934191
 20
420.5776791246935
 30
0.0
 10
277.2094005022224
 20
420.6130212311384
 30
0.0
 10
277.3228335103106
 20
420.6488841071507
 30
0.0
 10
277.4349543720576
 20
420.6852626328411
 30
0.0
 10
277.545744194341
 20
420.7221516673991
 30
0.0
 10
277.6551844334175
 20
420.7595460546491
 30
0.0
 10
277.763256891789
 20
420.7974406287724
 30
0.0
 10
277.8699437149806
 20
420.835830220192
 30
0.0
 10
277.9752273881464
 20
420.8747096616139
 30
0.0
 10
278.0790907324189
 20
420.9140737942078
 30
0.0
 10
278.1815169009142
 20
420.9539174739131
 30
0.0
 10
278.2824893743032
 20
420.9942355778443
 30
0.0
 10
278.3819919558518
 20
421.0350230107622
 30
0.0
 10
278.4800087658329
 20
421.0762747115701
 30
0.0
 10
278.5765242352038
 20
421.117985659783
 30
0.0
 10
278.6715230984391
 20
421.1601508819019
 30
0.0
 10
278.7649903854067
 20
421.2027654576162
 30
0.0
 10
278.8569114121651
 20
421.2458245257328
 30
0.0
 10
278.9472717705602
 20
421.2893232897167
 30
0.0
 10
279.0360573164972
 20
421.333257022701
 30
0.0
 10
279.1232541567601
 20
421.3776210718
 30
0.0
 10
279.2088486342585
 20
421.4224108615289
 30
0.0
 10
279.2928273115843
 20
421.4676218961027
 30
0.0
 10
279.3751769527754
 20
421.5132497603508
 30
0.0
 10
279.4558845032016
 20
421.5592901189416
 30
0.0
 10
279.5349370675169
 20
421.6057387135839
 30
0.0
 10
279.6123218856604
 20
421.6525913578118
 30
0.0
 10
279.6880263069405
 20
421.699843928943
 30
0.0
 10
279.7620377623073
 20
421.7474923567451
 30
0.0
 10
279.8343437350052
 20
421.7955326083296
 30
0.0
 10
279.9049317299059
 20
421.8439606687721
 30
0.0
 10
279.973789241961
 20
421.8927725169593
 30
0.0
 10
280.0409037243668
 20
421.941964096192
 30
0.0
 10
280.1062622634075
 20
421.9915310563059
 30
0.0
 10
280.1698515835743
 20
422.0414686966071
 30
0.0
 10
280.2316582724822
 20
422.0917720772414
 30
0.0
 10
280.2916690195067
 20
422.1424361854489
 30
0.0
 10
280.3498705719277
 20
422.1934558854092
 30
0.0
 10
280.406249512414
 20
422.2448256837981
 30
0.0
 10
280.4607922697764
 20
422.2965396685108
 30
0.0
 10
280.5134851385685
 20
422.3485914439362
 30
0.0
 10
280.5643143135356
 20
422.4009740688421
 30
0.0
 10
280.6132659404389
 20
422.4536800001968
 30
0.0
 10
280.6603261842661
 20
422.5067010468837
 30
0.0
 10
280.7054813149567
 20
422.5600283377069
 30
0.0
 10
280.7487178096089
 20
422.6136523082874
 30
0.0
 10
280.7900224687007
 20
422.667562711324
 30
0.0
 10
280.8293825422359
 20
422.7217486541411
 30
0.0
 10
280.8667858600351
 20
422.7761986664111
 30
0.0
 10
280.9022209587977
 20
422.8309007993979
 30
0.0
 10
280.9356771972894
 20
422.8858427560823
 30
0.0
 10
280.9671448502793
 20
422.941012049224
 30
0.0
 10
280.9966151717916
 20
422.9963961819921
 30
0.0
 10
281.0240804192919
 20
423.0519828435181
 30
0.0
 10
281.0495338314383
 20
423.1077601098789
 30
0.0
 10
281.0729695573326
 20
423.163716639819
 30
0.0
 10
281.0943825281223
 20
423.219841854255
 30
0.0
 10
281.1137683032907
 20
423.2761260889545
 30
0.0
 10
281.1311227857278
 20
423.3325607120501
 30
0.0
 10
281.1464422297229
 20
423.3891381969486
 30
0.0
 10
281.1597220058576
 20
423.4458521554612
 30
0.0
 10
281.1709598979925
 20
423.502697294465
 30
0.0
 10
281.1801424677055
 20
423.5596694258498
 30
0.0
 10
281.1872945936036
 20
423.6167650494492
 30
0.0
 10
281.1922933163231
 20
423.6739823133345
 30
0.0
 10
281.1951287524699
 20
423.7237157132889
 30
0.0
 10
281.1954385478076
 20
423.7543761248854
 30
0.0
 10
281.1955551701085
 20
423.7659182215871
 30
0.0
  0
SPLINE
  5
83
330
1F
100
AcDbEntity
  8
0
  6
Continuous
 62
     7
370
    30
100
AcDbSpline
210
0.0
220
0.0
230
1.0
 70
     8
 71
     3
 72
   125
 73
   121
 74
     0
 42
0.000000001
 43
0.00000001
 40
0.0
 40
0.0
 40
0.0
 40
0.0
 40
0.0057674885460684
 40
0.0138073599783722
 40
0.0218709697026094
 40
0.0299625429068379
 40
0.0380861067608954
 40
0.0462454074531856
 40
0.0544438305641002
 40
0.0626843268857354
 40
0.0709693462723548
 40
0.0793007822419574
 40
0.0876799300207945
 40
0.0961074604714132
 40
0.1045834118292688
 40
0.1131072003873065
 40
0.1216776502528683
 40
0.1302930411401162
 40
0.1389511719838832
 40
0.1476494371085336
 40
0.1563849109000875
 40
0.1651544365128255
 40
0.1739547141399279
 40
0.1827823847748899
 40
0.1916341061079078
 40
0.2005066181240436
 40
0.2093967969679838
 40
0.218301696591211
 40
0.227218578514077
 40
0.2361449306580154
 40
0.2450784766187913
 40
0.2540171769696949
 40
0.262959224235626
 40
0.2719030331069592
 40
0.2808472273069407
 40
0.2897905512262459
 40
0.2987318462708586
 40
0.3076703019375498
 40
0.3166052515808019
 40
0.3255361527956357
 40
0.3344625726708429
 40
0.343384174276996
 40
0.3523007043738213
 40
0.3612119823415298
 40
0.3701178903024441
 40
0.3790183643714158
 40
0.3879133869585548
 40
0.3968029800379234
 40
0.4056871992936915
 40
0.4145661290559935
 40
0.4234398779427194
 40
0.4323085751284725
 40
0.4411723671683197
 40
0.450031415311005
 40
0.4588858932426077
 40
0.4677359852083516
 40
0.4765818844667434
 40
0.4854237920355061
 40
0.4942619156949725
 40
0.5030964692182508
 40
0.5119276718035862
 40
0.520755747686549
 40
0.5295809259149671
 40
0.5384034402715865
 40
0.5472235293336317
 40
0.556041436660159
 40
0.5648574111015907
 40
0.573671707228045
 40
0.5824845858755859
 40
0.591296314811798
 40
0.600107169524969
 40
0.6089174341435729
 40
0.6177274024956849
 40
0.626537379320974
 40
0.6353476816516501
 40
0.6441586403826707
 40
0.6529706020563951
 40
0.661783930892179
 40
0.6705990110985568
 40
0.6794162495135823
 40
0.6882360786287522
 40
0.6970589600646969
 40
0.7058853885816835
 40
0.7147158967275792
 40
0.7235510602503611
 40
0.7323915044330288
 40
0.7412379115494088
 40
0.7500910296910931
 40
0.7589516832840036
 40
0.7678207857039743
 40
0.7766993545212553
 40
0.7855885300681269
 40
0.7944895982486312
 40
0.803404018821362
 40
0.8114149675951149
 40
0.8203346594644088
 40
0.8283422159534357
 40
0.8363486589463955
 40
0.8443531347459574
 40
0.8523554150249382
 40
0.8603552161445609
 40
0.8683521834564213
 40
0.876345868785132
 40
0.8843356985604599
 40
0.8923209276964579
 40
0.9003005711268833
 40
0.9082732991688387
 40
0.9162372721171982
 40
0.9241898682338748
 40
0.9321272149118357
 40
0.940043333405451
 40
0.9479284654769964
 40
0.9557654958804276
 40
0.9635213598630089
 40
0.9711228006678182
 40
0.9783689373550224
 40
0.9847029459891904
 40
0.9894544871339347
 40
0.994847130990018
 40
1.0
 40
1.0
 40
1.0
 40
1.0
 10
257.1962571447996
 20
423.7656586276374
 30
0.0
 10
257.1964487321857
 20
423.751860923727
 30
0.0
 10
257.1969073921354
 20
423.7188292387494
 30
0.0
 10
257.2000801270811
 20
423.6665395470349
 30
0.0
 10
257.2054222027296
 20
423.6087598747308
 30
0.0
 10
257.2129751213222
 20
423.5508819679945
 30
0.0
 10
257.2226610474743
 20
423.4929090248837
 30
0.0
 10
257.2345238270469
 20
423.4348462598924
 30
0.0
 10
257.2485757041056
 20
423.3767001895002
 30
0.0
 10
257.2648381687262
 20
423.3184791792936
 30
0.0
 10
257.2833304002497
 20
423.2601936076522
 30
0.0
 10
257.3040717779662
 20
423.2018560718456
 30
0.0
 10
257.3270805508076
 20
423.1434815040317
 30
0.0
 10
257.3523735260108
 20
423.0850872170279
 30
0.0
 10
257.3799654953017
 20
423.0266928622527
 30
0.0
 10
257.4098687777207
 20
422.9683202978969
 30
0.0
 10
257.4420928091543
 20
422.9099933682512
 30
0.0
 10
257.4766438265105
 20
422.8517376023112
 30
0.0
 10
257.5135246562231
 20
422.7935798457738
 30
0.0
 10
257.5527346183163
 20
422.7355478457756
 30
0.0
 10
257.5942695466014
 20
422.677669811158
 30
0.0
 10
257.6381219179978
 20
422.619973972285
 30
0.0
 10
257.6842810765953
 20
422.5624881633354
 30
0.0
 10
257.7327335327589
 20
422.505239446799
 30
0.0
 10
257.7834633145101
 20
422.4482537951502
 30
0.0
 10
257.8364523477714
 20
422.3915558390892
 30
0.0
 10
257.8916808435371
 20
422.3351686860628
 30
0.0
 10
257.9491276731468
 20
422.2791138076618
 30
0.0
 10
258.0087707169284
 20
422.2234109903893
 30
0.0
 10
258.070587175925
 20
422.1680783414266
 30
0.0
 10
258.1345538407032
 20
422.1131323394099
 30
0.0
 10
258.2006473149739
 20
422.0585879197432
 30
0.0
 10
258.2688441947411
 20
422.0044585843507
 30
0.0
 10
258.3391212058656
 20
421.9507565267786
 30
0.0
 10
258.4114551072714
 20
421.8974929100092
 30
0.0
 10
258.4858225056483
 20
421.8446781520533
 30
0.0
 10
258.5622003670299
 20
421.7923216764699
 30
0.0
 10
258.640566272682
 20
421.7404318997005
 30
0.0
 10
258.7208987035004
 20
421.6890162110507
 30
0.0
 10
258.8031764953168
 20
421.6380814529775
 30
0.0
 10
258.8873788042775
 20
421.5876340199359
 30
0.0
 10
258.9734850777288
 20
421.5376799383615
 30
0.0
 10
259.0614750219054
 20
421.48822493586
 30
0.0
 10
259.1513285679537
 20
421.4392745005042
 30
0.0
 10
259.2430258376354
 20
421.3908339311055
 30
0.0
 10
259.3365471097219
 20
421.3429083793828
 30
0.0
 10
259.4318727878036
 20
421.2955028849417
 30
0.0
 10
259.5289833700219
 20
421.2486224039562
 30
0.0
 10
259.6278594210462
 20
421.2022718323752
 30
0.0
 10
259.7284815464915
 20
421.1564560244212
 30
0.0
 10
259.8308303698674
 20
421.1111798070618
 30
0.0
 10
259.9348865120754
 20
421.0664479910704
 30
0.0
 10
260.0406305734209
 20
421.0222653792139
 30
0.0
 10
260.148043118071
 20
420.978636772037
 30
0.0
 10
260.2571046608674
 20
420.9355669716537
 30
0.0
 10
260.3677956563933
 20
420.8930607838968
 30
0.0
 10
260.4800964901876
 20
420.8511230191266
 30
0.0
 10
260.5939874720071
 20
420.809758491956
 30
0.0
 10
260.7094488310348
 20
420.7689720201092
 30
0.0
 10
260.8264607129561
 20
420.7287684225993
 30
0.0
 10
260.9450031788215
 20
420.689152517379
 30
0.0
 10
261.0650562056422
 20
420.6501291185945
 30
0.0
 10
261.1865996886725
 20
420.6117030335522
 30
0.0
 10
261.3096134453541
 20
420.5738790594884
 30
0.0
 10
261.4340772209146
 20
420.5366619802173
 30
0.0
 10
261.5599706956336
 20
420.5000565627226
 30
0.0
 10
261.6872734938101
 20
420.4640675537418
 30
0.0
 10
261.8159651944903
 20
420.4286996763883
 30
0.0
 10
261.9460253440407
 20
420.3939576268484
 30
0.0
 10
262.0774334706784
 20
420.3598460711819
 30
0.0
 10
262.2101691011068
 20
420.3263696422529
 30
0.0
 10
262.3442117794391
 20
420.2935329368127
 30
0.0
 10
262.4795410886385
 20
420.2613405127547
 30
0.0
 10
262.6161366747494
 20
420.229796886556
 30
0.0
 10
262.7539782742592
 20
420.1989065309268
 30
0.0
 10
262.893045744995
 20
420.1686738726769
 30
0.0
 10
263.0333191010478
 20
420.1391032908203
 30
0.0
 10
263.1747785523149
 20
420.1101991149309
 30
0.0
 10
263.3174045493766
 20
420.081965623769
 30
0.0
 10
263.4611778345751
 20
420.0544070441974
 30
0.0
 10
263.6060795003464
 20
420.0275275504097
 30
0.0
 10
263.7520910560908
 20
420.0013312634982
 30
0.0
 10
263.8991945051555
 20
419.9758222513912
 30
0.0
 10
264.0473724338671
 20
419.9510045291977
 30
0.0
 10
264.1966081150121
 20
419.9268820600034
 30
0.0
 10
264.3468856287724
 20
419.903458756169
 30
0.0
 10
264.4981900048201
 20
419.8807384812024
 30
0.0
 10
264.65050739052
 20
419.8587250522629
 30
0.0
 10
264.8038252505722
 20
419.8374222434658
 30
0.0
 10
264.9581326086064
 20
419.8168337898305
 30
0.0
 10
265.1134203307075
 20
419.7969633930551
 30
0.0
 10
265.2696815020993
 20
419.7778147254186
 30
0.0
 10
265.4269117727869
 20
419.7593914465467
 30
0.0
 10
265.5796772636941
 20
419.7423048480654
 30
0.0
 10
265.7331953591919
 20
419.7259038612061
 30
0.0
 10
265.8819235282921
 20
419.7107544517081
 30
0.0
 10
266.0311928855924
 20
419.6962864631341
 30
0.0
 10
266.1754790168538
 20
419.6829701042211
 30
0.0
 10
266.3202063980501
 20
419.6702790409029
 30
0.0
 10
266.4653438854179
 20
419.6582154643371
 30
0.0
 10
266.6108631717681
 20
419.6467811102609
 30
0.0
 10
266.7567345335875
 20
419.6359776211539
 30
0.0
 10
266.9029263792728
 20
419.6258065478152
 30
0.0
 10
267.0494046330791
 20
419.6162693490021
 30
0.0
 10
267.1961318267744
 20
419.6073673924885
 30
0.0
 10
267.3430657406222
 20
419.599101957186
 30
0.0
 10
267.4901573021887
 20
419.5914742375556
 30
0.0
 10
267.6373472196034
 20
419.5844853522829
 30
0.0
 10
267.7845603501011
 20
419.5781363610635
 30
0.0
 10
267.9316957787393
 20
419.5724282992242
 30
0.0
 10
268.0786081829926
 20
419.5673622479716
 30
0.0
 10
268.2250698660355
 20
419.5629395062198
 30
0.0
 10
268.370684676855
 20
419.5591619802783
 30
0.0
 10
268.5146615848822
 20
419.5560335095636
 30
0.0
 10
268.6550668299622
 20
419.5535641109784
 30
0.0
 10
268.7867089784615
 20
419.5517760148749
 30
0.0
 10
268.9006800463006
 20
419.5506427770131
 30
0.0
 10
269.0031486106535
 20
419.5499347113895
 30
0.0
 10
269.098284960808
 20
419.5495176554574
 30
0.0
 10
269.163874545594
 20
419.549465050662
 30
0.0
 10
269.1959236780653
 20
419.5494393463057
 30
0.0
  0
LINE
  5
84
330
1F
100
AcDbEntity
  8
0
  6
Continuous
 62
     7
370
    30
100
AcDbLine
 10
281.1959236781
 20
423.7852770376
 30
0.0
 11
281.1959236781
 21
446.3378999364
 31
0.0
  0
LINE
  5
85
330
1F
100
AcDbEntity
  8
0
  6
Continuous
 62
     7
370
    30
100
AcDbLine
 10
257.1959236781
 20
454.3252872131
 30
0.0
 11
257.1959236781
 21
423.7852770376
 31
0.0
  0
SPLINE
  5
86
330
1F
100
AcDbEntity
  8
0
  6
Continuous
 62
     7
370
    30
100
AcDbSpline
210
0.0
220
0.0
230
1.0
 70
     8
 71
     3
 72
    80
 73
    76
 74
     0
 42
0.000000001
 43
0.00000001
 40
0.0
 40
0.0
 40
0.0
 40
0.0
 40
0.0106072822462279
 40
0.0253182405595764
 40
0.0400122292014228
 40
0.0546893388812416
 40
0.0693497659245313
 40
0.0839937938495716
 40
0.0986217776822644
 40
0.1132341306812027
 40
0.1278313131708421
 40
0.1424138232085407
 40
0.15698218884053
 40
0.171536961730762
 40
0.1860787119734486
 40
0.2006080239252799
 40
0.215125492916638
 40
0.2296317227205712
 40
0.2441273236788206
 40
0.2586129113977526
 40
0.2730891059442975
 40
0.2875565314831094
 40
0.3020158163083435
 40
0.3164675932336781
 40
0.3309125003136495
 40
0.3453511818780635
 40
0.359784289869021
 40
0.3742124854788874
 40
0.3886364410941096
 40
0.4030568425591071
 40
0.4174743917819528
 40
0.4318898097132116
 40
0.4463038397399465
 40
0.4607172515476172
 40
0.4751308455183393
 40
0.4895454577488533
 40
0.5039619657926069
 40
0.5183812952552221
 40
0.5328044274032627
 40
0.54723240798465
 40
0.5616663575095102
 40
0.576107483302091
 40
0.5905570937172517
 40
0.6050166150218966
 40
0.6194876115831897
 40
0.6339718101941465
 40
0.648471129623605
 40
0.6629877168261388
 40
0.6775239917324284
 40
0.6905853754556439
 40
0.7051264096722641
 40
0.7181800776756401
 40
0.7312309886738396
 40
0.7442778200117396
 40
0.7573202654830999
 40
0.7703579312604729
 40
0.7833903117340635
 40
0.7964167548763574
 40
0.8094364133614309
 40
0.8224481740656036
 40
0.835450553843938
 40
0.8484415410192936
 40
0.8614183462603938
 40
0.8743769957154917
 40
0.887311635537588
 40
0.900213275975251
 40
0.913067365060398
 40
0.9258486848994922
 40
0.9385093566555341
 40
0.9509460261050295
 40
0.9628872787441817
 40
0.9737542784089099
 40
0.9814403985939711
 40
0.9899112376908431
 40
1.0
 40
1.0
 40
1.0
 40
1.0
 10
278.9373053867707
 20
456.9799577363553
 30
0.0
 10
278.9138565249069
 20
456.9917637567565
 30
0.0
 10
278.8578870586728
 20
457.019943233613
 30
0.0
 10
278.7673019600394
 20
457.0638017089113
 30
0.0
 10
278.6659336605575
 20
457.1116160453668
 30
0.0
 10
278.56282459435
 20
457.1587726803196
 30
0.0
 10
278.4580771250228
 20
457.2052974399685
 30
0.0
 10
278.3516891584639
 20
457.2511832050137
 30
0.0
 10
278.2436861529642
 20
457.2964315005061
 30
0.0
 10
278.1340858874223
 20
457.3410413438922
 30
0.0
 10
278.0229079558828
 20
457.3850122100578
 30
0.0
 10
277.9101712885819
 20
457.4283432273345
 30
0.0
 10
277.7958948675041
 20
457.4710333876324
 30
0.0
 10
277.6800975795006
 20
457.5130814899581
 30
0.0
 10
277.5627982929443
 20
457.5544861589533
 30
0.0
 10
277.4440158679926
 20
457.5952458462244
 30
0.0
 10
277.3237691785887
 20
457.6353588384495
 30
0.0
 10
277.2020771257954
 20
457.6748232652798
 30
0.0
 10
277.0789586483652
 20
457.7136371084384
 30
0.0
 10
276.954432729345
 20
457.7517982112631
 30
0.0
 10
276.8285183993539
 20
457.7893042885878
 30
0.0
 10
276.7012347366182
 20
457.8261529367464
 30
0.0
 10
276.5726008639342
 20
457.8623416435584
 30
0.0
 10
276.4426359426447
 20
457.8978677981773
 30
0.0
 10
276.3113591636745
 20
457.9327287007133
 30
0.0
 10
276.1787897356185
 20
457.966921571555
 30
0.0
 10
276.0449468698209
 20
458.0004435603374
 30
0.0
 10
275.9098497623305
 20
458.0332917545128
 30
0.0
 10
275.7735175725515
 20
458.0654631874916
 30
0.0
 10
275.6359693983436
 20
458.0969548463299
 30
0.0
 10
275.4972242472431
 20
458.1277636789423
 30
0.0
 10
275.3573010033901
 20
458.1578866008265
 30
0.0
 10
275.2162183896394
 20
458.187320501286
 30
0.0
 10
275.0739949242046
 20
458.2160622491356
 30
0.0
 10
274.9306488710376
 20
458.2441086978845
 30
0.0
 10
274.786198182955
 20
458.2714566903738
 30
0.0
 10
274.6406604363015
 20
458.2981030628566
 30
0.0
 10
274.4940527556516
 20
458.3240446485004
 30
0.0
 10
274.346391726702
 20
458.3492782802807
 30
0.0
 10
274.1976932950582
 20
458.3738007932365
 30
0.0
 10
274.0479726480337
 20
458.3976090260438
 30
0.0
 10
273.8972440759105
 20
458.4206998218485
 30
0.0
 10
273.7455208079047
 20
458.4430700283125
 30
0.0
 10
273.5928148177579
 20
458.4647164967101
 30
0.0
 10
273.4391365887554
 20
458.485636080254
 30
0.0
 10
273.2844948386675
 20
458.5058256304511
 30
0.0
 10
273.1288961538279
 20
458.5252819952971
 30
0.0
 10
272.9723446578435
 20
458.5440020042166
 30
0.0
 10
272.8202487697175
 20
458.5613651661326
 30
0.0
 10
272.6674154457301
 20
458.5780331297784
 30
0.0
 10
272.5193562374511
 20
458.5934316716864
 30
0.0
 10
272.3707607819521
 20
458.6081408223721
 30
0.0
 10
272.2271263644683
 20
458.6216826239694
 30
0.0
 10
272.083054499594
 20
458.6345922349702
 30
0.0
 10
271.9385756409208
 20
458.6468676624015
 30
0.0
 10
271.7937174032087
 20
458.6585073588514
 30
0.0
 10
271.648508762675
 20
458.6695098563278
 30
0.0
 10
271.5029804825088
 20
458.679873765219
 30
0.0
 10
271.3571656895689
 20
458.6895977752338
 30
0.0
 10
271.2111007221418
 20
458.6986806549302
 30
0.0
 10
271.0648263925394
 20
458.7071212502524
 30
0.0
 10
270.9183899290173
 20
458.7149184809428
 30
0.0
 10
270.7718480677964
 20
458.7220713330544
 30
0.0
 10
270.6252721859662
 20
458.7285788441745
 30
0.0
 10
270.4787572610222
 20
458.7344400726174
 30
0.0
 10
270.3324385059253
 20
458.7396540358031
 30
0.0
 10
270.1865247598095
 20
458.7442195587036
 30
0.0
 10
270.0413726952246
 20
458.7481349463814
 30
0.0
 10
269.8976765325581
 20
458.7513968552749
 30
0.0
 10
269.7570662458758
 20
458.7539970452162
 30
0.0
 10
269.6231908876044
 20
458.7559253867141
 30
0.0
 10
269.5073145416135
 20
458.757154247857
 30
0.0
 10
269.4046026158546
 20
458.7579190972072
 30
0.0
 10
269.3048345593569
 20
458.7584142059387
 30
0.0
 10
269.234277561212
 20
458.7584820060593
 30
0.0
 10
269.1959236780677
 20
458.7585188613389
 30
0.0
  0
SPLINE
  5
87
330
1F
100
AcDbEntity
  8
0
  6
Continuous
 62
     7
370
    30
100
AcDbSpline
210
0.0
220
0.0
230
1.0
 70
     8
 71
     3
 72
   132
 73
   128
 74
     0
 42
0.000000001
 43
0.00000001
 40
0.0
 40
0.0
 40
0.0
 40
0.0
 40
0.0085254840153913
 40
0.01204837383619
 40
0.0178900883426011
 40
0.0239689990567548
 40
0.0304997308009351
 40
0.0373233314426404
 40
0.0443755612626392
 40
0.0516051974703063
 40
0.0589758522099542
 40
0.066460602745805
 40
0.0740391604384304
 40
0.0816959383557787
 40
0.0894187534726996
 40
0.0971979341818723
 40
0.1050256947407152
 40
0.1128956885981238
 40
0.1208026838614364
 40
0.1287423236703279
 40
0.1367109466065405
 40
0.1447054502356137
 40
0.1527231861003896
 40
0.1607618779688368
 40
0.1688195574978285
 40
0.1768945130969277
 40
0.1849852489090072
 40
0.1930904516251337
 40
0.2012089634249464
 40
0.2093397597500544
 40
0.2174819309227261
 40
0.2256346668482702
 40
0.2337972442090723
 40
0.2419690156855598
 40
0.2501494008371065
 40
0.2583378783509344
 40
0.2665339794247271
 40
0.2747372820941926
 40
0.2829474063523021
 40
0.2911640099351428
 40
0.2993867846714536
 40
0.3076154533114987
 40
0.3158497667643758
 40
0.3240895016853821
 40
0.3323344583641737
 40
0.3405844588720285
 40
0.3488393454333122
 40
0.3570989789907754
 40
0.3653632379392923
 40
0.3736320170053777
 40
0.3819052262534073
 40
0.3901827902012149
 40
0.3984646470297535
 40
0.4067507478735412
 40
0.4150410561786185
 40
0.423335547116918
 40
0.4316342070454651
 40
0.4399370329997333
 40
0.4482440322104843
 40
0.4565552216329516
 40
0.4648706274773583
 40
0.4731902847283956
 40
0.4815142366414332
 40
0.4898425342006933
 40
0.4981752355244908
 40
0.5065124051997885
 40
0.5148541135270246
 40
0.5232004356526334
 40
0.5315514505649521
 40
0.5399072399245026
 40
0.5482678866966764
 40
0.5566334735499957
 40
0.5650040809779947
 40
0.5733797850976886
 40
0.581760655070937
 40
0.5901467500890439
 40
0.5985381158534444
 40
0.6069347804789968
 40
0.615336749738396
 40
0.6237440015612347
 40
0.6321564796945148
 40
0.640574086429556
 40
0.648996674299135
 40
0.6574240366543775
 40
0.6658558970409576
 40
0.6742918973156864
 40
0.6827315844752576
 40
0.6911743962179104
 40
0.6996196453232131
 40
0.7080665030262954
 40
0.7165139816768389
 40
0.7249606825554971
 40
0.733404911921149
 40
0.7418450238980638
 40
0.7502791396331508
 40
0.7587051433845221
 40
0.7671206790134709
 40
0.7755231536725363
 40
0.7839097502591654
 40
0.792277450174954
 40
0.800623067617258
 40
0.8089432961091368
 40
0.8172347672457866
 40
0.8254941207393011
 40
0.8337180838541377
 40
0.8419035573594293
 40
0.8500477043118704
 40
0.8581480374572941
 40
0.8662025008979164
 40
0.8742095419622073
 40
0.8821681699058287
 40
0.8900779990777321
 40
0.8979392753635789
 40
0.9057528859129388
 40
0.9135203532224091
 40
0.9212438154787504
 40
0.9289259956034635
 40
0.9365701616799534
 40
0.9441800814153093
 40
0.9517599730510985
 40
0.9593144547568805
 40
0.9668484940813653
 40
0.9743673585543278
 40
0.9818765680658348
 40
0.9893818492253562
 40
0.9968890915370257
 40
1.0
 40
1.0
 40
1.0
 40
1.0
 10
269.1959236780677
 20
458.7585188613389
 30
0.0
 10
269.1433106678464
 20
458.7584525328436
 30
0.0
 10
269.0689569754755
 20
458.7583587961705
 30
0.0
 10
268.958567550884
 20
458.7577271872513
 30
0.0
 10
268.8632872072261
 20
458.7569579730941
 30
0.0
 10
268.7494796064595
 20
458.7556636453583
 30
0.0
 10
268.6296600281751
 20
458.753892564032
 30
0.0
 10
268.5039020784905
 20
458.7515764506035
 30
0.0
 10
268.373919624975
 20
458.7486917158673
 30
0.0
 10
268.2406716996366
 20
458.745215661365
 30
0.0
 10
268.1048877572979
 20
458.741132061233
 30
0.0
 10
267.96710696439
 20
458.7364282982095
 30
0.0
 10
267.8277405728504
 20
458.7310945703404
 30
0.0
 10
267.6871092221535
 20
458.7251231611299
 30
0.0
 10
267.5454683009759
 20
458.7185079673998
 30
0.0
 10
267.4030252627388
 20
458.7112441545064
 30
0.0
 10
267.2599517014228
 20
458.7033279073598
 30
0.0
 10
267.1163919318385
 20
458.6947562448995
 30
0.0
 10
266.9724691952503
 20
458.6855268799022
 30
0.0
 10
266.8282902220787
 20
458.6756381111038
 30
0.0
 10
266.683948638038
 20
458.66508873895
 30
0.0
 10
266.5395275426998
 20
458.6538779988509
 30
0.0
 10
266.395101486811
 20
458.6420055076057
 30
0.0
 10
266.2507380065616
 20
458.6294712198629
 30
0.0
 10
266.1064988270616
 20
458.6162753923194
 30
0.0
 10
265.9624408158027
 20
458.6024185539526
 30
0.0
 10
265.8186167450083
 20
458.5879014809988
 30
0.0
 10
265.675075906349
 20
458.5727251756964
 30
0.0
 10
265.5318646104849
 20
458.556890848044
 30
0.0
 10
265.3890265959388
 20
458.5403998999756
 30
0.0
 10
265.2466033659784
 20
458.5232539115008
 30
0.0
 10
265.1046344678798
 20
458.5054546284308
 30
0.0
 10
264.9631577257343
 20
458.4870039514039
 30
0.0
 10
264.822209435534
 20
458.4679039259663
 30
0.0
 10
264.6818245294299
 20
458.4481567335151
 30
0.0
 10
264.5420367146398
 20
458.4277646829437
 30
0.0
 10
264.402878591392
 20
458.4067302028532
 30
0.0
 10
264.2643817534394
 20
458.3850558342235
 30
0.0
 10
264.126576874005
 20
458.3627442234433
 30
0.0
 10
263.9894937795
 20
458.3397981156232
 30
0.0
 10
263.8531615129269
 20
458.3162203481212
 30
0.0
 10
263.7176083885523
 20
458.2920138442195
 30
0.0
 10
263.5828620391593
 20
458.2671816069007
 30
0.0
 10
263.4489494569737
 20
458.2417267126761
 30
0.0
 10
263.3158970291811
 20
458.2156523054244
 30
0.0
 10
263.1837305688072
 20
458.1889615902036
 30
0.0
 10
263.0524753416157
 20
458.161657826999
 30
0.0
 10
262.9221560895811
 20
458.1337443243792
 30
0.0
 10
262.7927970514159
 20
458.1052244330281
 30
0.0
 10
262.6644219805623
 20
458.0761015391257
 30
0.0
 10
262.5370541610075
 20
458.0463790575535
 30
0.0
 10
262.4107164212357
 20
458.0160604248995
 30
0.0
 10
262.2854311465925
 20
457.9851490922393
 30
0.0
 10
262.1612202903091
 20
457.9536485176751
 30
0.0
 10
262.0381053834062
 20
457.9215621586104
 30
0.0
 10
261.9161075436824
 20
457.8888934637452
 30
0.0
 10
261.795247483971
 20
457.8556458647743
 30
0.0
 10
261.6755455198423
 20
457.821822767778
 30
0.0
 10
261.5570215769171
 20
457.7874275442935
 30
0.0
 10
261.4396951979513
 20
457.7524635220612
 30
0.0
 10
261.3235855498532
 20
457.7169339754452
 30
0.0
 10
261.2087114307875
 20
457.6808421155296
 30
0.0
 10
261.0950912775295
 20
457.6441910799036
 30
0.0
 10
260.9827431732321
 20
457.6069839221512
 30
0.0
 10
260.8716848557787
 20
457.5692236010764
 30
0.0
 10
260.7619337269007
 20
457.530912969703
 30
0.0
 10
260.6535068622526
 20
457.492054764106
 30
0.0
 10
260.5464210226453
 20
457.4526515921464
 30
0.0
 10
260.4406926666603
 20
457.4127059222045
 30
0.0
 10
260.3363379648763
 20
457.3722200720322
 30
0.0
 10
260.2333728159622
 20
457.3311961978739
 30
0.0
 10
260.1318128649056
 20
457.2896362840436
 30
0.0
 10
260.0316735236682
 20
457.2475421331847
 30
0.0
 10
259.9329699945746
 20
457.2049153574935
 30
0.0
 10
259.8357172967561
 20
457.1617573712404
 30
0.0
 10
259.7399302959911
 20
457.1180693849922
 30
0.0
 10
259.6456237382794
 20
457.0738524020131
 30
0.0
 10
259.5528122874991
 20
457.0291072174093
 30
0.0
 10
259.4615105674712
 20
456.9838344206776
 30
0.0
 10
259.371733208735
 20
456.93803440242
 30
0.0
 10
259.283494900279
 20
456.8917073661059
 30
0.0
 10
259.1968104463971
 20
456.84485334587
 30
0.0
 10
259.1116948287136
 20
456.797472231461
 30
0.0
 10
259.0281632732592
 20
456.7495638015561
 30
0.0
 10
258.9462313222496
 20
456.7011277667521
 30
0.0
 10
258.8659149099259
 20
456.6521638236011
 30
0.0
 10
258.7872304414292
 20
456.6026717210637
 30
0.0
 10
258.7101948732178
 20
456.5526513406855
 30
0.0
 10
258.6348257929502
 20
456.5021027916288
 30
0.0
 10
258.561141496097
 20
456.4510265213796
 30
0.0
 10
258.4891617220094
 20
456.3994239200927
 30
0.0
 10
258.4189079058137
 20
456.347297698124
 30
0.0
 10
258.3504023963052
 20
456.294651546621
 30
0.0
 10
258.2836678734444
 20
456.2414898359823
 30
0.0
 10
258.2187271498635
 20
456.1878175634788
 30
0.0
 10
258.1556038358998
 20
456.133641064673
 30
0.0
 10
258.0943222188525
 20
456.0789681628731
 30
0.0
 10
258.034907105503
 20
456.0238083091075
 30
0.0
 10
257.9773836110147
 20
455.9681726909529
 30
0.0
 10
257.9217768941795
 20
455.9120742986748
 30
0.0
 10
257.8681118426553
 20
455.8555279373172
 30
0.0
 10
257.8164127165069
 20
455.7985501750383
 30
0.0
 10
257.7667027633686
 20
455.7411592210288
 30
0.0
 10
257.7190038233338
 20
455.6833747307643
 30
0.0
 10
257.6733359455203
 20
455.6252175418493
 30
0.0
 10
257.6297170404694
 20
455.5667093497546
 30
0.0
 10
257.5881625924856
 20
455.5078723386101
 30
0.0
 10
257.5486854534286
 20
455.4487287870336
 30
0.0
 10
257.5112957343983
 20
455.3893006720049
 30
0.0
 10
257.4760008047014
 20
455.3296092944764
 30
0.0
 10
257.4428053993473
 20
455.2696749485863
 30
0.0
 10
257.4117118280889
 20
455.2095166522453
 30
0.0
 10
257.3827202719023
 20
455.1491519510749
 30
0.0
 10
257.3558291471444
 20
455.0885968010455
 30
0.0
 10
257.3310355156858
 20
455.0278655285489
 30
0.0
 10
257.3083355147485
 20
454.9669708608513
 30
0.0
 10
257.2877247965015
 20
454.9059240154679
 30
0.0
 10
257.2691989162245
 20
454.8447348341926
 30
0.0
 10
257.2527538139959
 20
454.7834119466959
 30
0.0
 10
257.2383857914206
 20
454.7219629481451
 30
0.0
 10
257.2260931642198
 20
454.6603945803461
 30
0.0
 10
257.2158714748412
 20
454.5987128958107
 30
0.0
 10
257.2077324261024
 20
454.5369234339795
 30
0.0
 10
257.2016343424855
 20
454.4750312678527
 30
0.0
 10
257.1977420181119
 20
454.4130414309372
 30
0.0
 10
257.1959045417839
 20
454.363095530694
 30
0.0
 10
257.1961156980624
 20
454.3338264535768
 30
0.0
 10
257.1961775626816
 20
454.325251192061
 30
0.0
  0
SPLINE
  5
88
330
1F
100
AcDbEntity
  8
0
  6
Continuous
 62
     7
370
    30
100
AcDbSpline
210
0.0
220
0.0
230
1.0
 70
     8
 71
     3
 72
    36
 73
    32
 74
     0
 42
0.000000001
 43
0.00000001
 40
0.0
 40
0.0
 40
0.0
 40
0.0
 40
0.0188266752557562
 40
0.0516067368449406
 40
0.0847944392885984
 40
0.1184803401530358
 40
0.1527797247224901
 40
0.187840963148708
 40
0.2238559903014589
 40
0.2610724232566218
 40
0.2998052503835726
 40
0.3404419891131902
 40
0.3786772882413261
 40
0.4184415145352425
 40
0.4594319120032526
 40
0.5010128694501583
 40
0.5422197945817734
 40
0.5825577784444452
 40
0.6219010503161116
 40
0.6602719633441629
 40
0.6977521948952988
 40
0.7344310889676376
 40
0.7703779882067064
 40
0.8056183523632938
 40
0.8400919431248783
 40
0.873540322518508
 40
0.9051007868727043
 40
0.9327811618462084
 40
0.9536878828610096
 40
0.97745495498829
 40
1.0
 40
1.0
 40
1.0
 40
1.0
 10
297.2832573269048
 20
457.0263162599103
 30
0.0
 10
297.2800416592116
 20
457.0322732856892
 30
0.0
 10
297.271227032403
 20
457.0486023856271
 30
0.0
 10
297.2547841056225
 20
457.0741088884947
 30
0.0
 10
297.2341244705655
 20
457.1029481484806
 30
0.0
 10
297.2115188427493
 20
457.1307192787992
 30
0.0
 10
297.1870771654541
 20
457.1574551760241
 30
0.0
 10
297.1607436739536
 20
457.1831226502497
 30
0.0
 10
297.1324556356057
 20
457.2077359379412
 30
0.0
 10
297.1020771634576
 20
457.231326262761
 30
0.0
 10
297.0693928656166
 20
457.253946320427
 30
0.0
 10
297.035459618342
 20
457.2748141038238
 30
0.0
 10
297.0003705486395
 20
457.2940372149805
 30
0.0
 10
296.9643818589409
 20
457.3116344832783
 30
0.0
 10
296.9265630548467
 20
457.3280755471007
 30
0.0
 10
296.8874529218368
 20
457.3431407347571
 30
0.0
 10
296.8476926934875
 20
457.3566813445892
 30
0.0
 10
296.8078128167891
 20
457.368672331882
 30
0.0
 10
296.7680590469215
 20
457.3792065354692
 30
0.0
 10
296.7285039964212
 20
457.3884144975147
 30
0.0
 10
296.6891557742176
 20
457.3964198648225
 30
0.0
 10
296.6500101147047
 20
457.4033265368669
 30
0.0
 10
296.6110847978092
 20
457.409216615641
 30
0.0
 10
296.572453570749
 20
457.4141523179166
 30
0.0
 10
296.53431342312
 20
457.4181775447011
 30
0.0
 10
296.4971968413873
 20
457.4213152264995
 30
0.0
 10
296.4623715389025
 20
457.4235746281358
 30
0.0
 10
296.4321122097749
 20
457.4250078074732
 30
0.0
 10
296.4047186307604
 20
457.4259078014553
 30
0.0
 10
296.3792226877231
 20
457.4264375472931
 30
0.0
 10
296.3616407884548
 20
457.4265041890902
 30
0.0
 10
296.353081803574
 20
457.4265366307578
 30
0.0
  0
SPLINE
  5
89
330
1F
100
AcDbEntity
  8
0
  6
Continuous
 62
     7
370
    30
100
AcDbSpline
210
0.0
220
0.0
230
1.0
 70
     8
 71
     3
 72
    12
 73
     8
 74
     0
 42
0.000000001
 43
0.00000001
 40
0.0
 40
0.0
 40
0.0
 40
0.0
 40
0.3464090091753525
 40
0.4882480353288483
 40
0.723570130074012
 40
0.9680745555994577
 40
1.0
 40
1.0
 40
1.0
 40
1.0
 10
296.353081803574
 20
457.4265366307578
 30
0.0
 10
296.3387541311445
 20
457.4264501074986
 30
0.0
 10
296.318559916418
 20
457.4263281568269
 30
0.0
 10
296.2886863448514
 20
457.4255254755969
 30
0.0
 10
296.263080733218
 20
457.4245118160073
 30
0.0
 10
296.2420333006032
 20
457.4234822402254
 30
0.0
 10
296.230745320641
 20
457.4226781725885
 30
0.0
 10
296.2294416490198
 20
457.4225853091919
 30
0.0
  0
LINE
  5
8A
330
1F
100
AcDbEntity
  8
0
  6
Continuous
 62
     7
370
    30
100
AcDbLine
 10
296.2294372783
 20
457.4226145335
 30
0.0
 11
282.2193170545
 21
456.5278663994
 31
0.0
  0
LINE
  5
8B
330
1F
100
AcDbEntity
  8
0
  6
Continuous
 62
     7
370
    30
100
AcDbLine
 10
298.0176602124
 20
455.6816747418
 30
0.0
 11
297.2834422959
 21
457.026510995
 31
0.0
  0
SPLINE
  5
8C
330
1F
100
AcDbEntity
  8
0
  6
Continuous
 62
     7
370
    30
100
AcDbSpline
210
0.0
220
0.0
230
1.0
 70
     8
 71
     3
 72
    61
 73
    57
 74
     0
 42
0.000000001
 43
0.00000001
 40
0.0
 40
0.0
 40
0.0
 40
0.0
 40
0.0353555396933337
 40
0.0695461788779043
 40
0.1025714835038533
 40
0.1344310694962636
 40
0.1651246028796224
 40
0.1946517999113878
 40
0.2230124272291109
 40
0.2546246886402626
 40
0.284648735649904
 40
0.3130844531280964
 40
0.3399318214474297
 40
0.3651909173180417
 40
0.3888619149021735
 40
0.4134881956222085
 40
0.436123283041649
 40
0.456812070742926
 40
0.4761677113953079
 40
0.4943867820421137
 40
0.511469947883454
 40
0.5265371884783335
 40
0.5405958530477448
 40
0.5536465768109572
 40
0.5656483283326827
 40
0.5762213058293357
 40
0.5810202843003651
 40
0.5859069785012705
 40
0.5921924660927343
 40
0.599950028361088
 40
0.6091784990981733
 40
0.6198748238351217
 40
0.6311197241046641
 40
0.6608819625730132
 40
0.688945552899761
 40
0.712601076938611
 40
0.7350020535948529
 40
0.7563464626846957
 40
0.7779087028597136
 40
0.8000242335259387
 40
0.8216594291880831
 40
0.8436219888030747
 40
0.8666225615990807
 40
0.8913144242823766
 40
0.9023180415205242
 40
0.9132004409769597
 40
0.9239616439414717
 40
0.9343636095897362
 40
0.943474030012537
 40
0.9478949905573374
 40
0.9519022781132813
 40
0.9568986019396394
 40
0.9640030585155975
 40
0.9737022288359211
 40
0.9857038819358832
 40
0.9999999999999999
 40
0.9999999999999999
 40
0.9999999999999999
 40
0.9999999999999999
 10
282.2193247403166
 20
456.5278668882355
 30
0.0
 10
282.1748279398868
 20
456.5252094586306
 30
0.0
 10
282.0873004273943
 20
456.5199821568766
 30
0.0
 10
281.9571874245993
 20
456.5145301727969
 30
0.0
 10
281.8310644242848
 20
456.5108086290738
 30
0.0
 10
281.7090756295307
 20
456.5088069572052
 30
0.0
 10
281.5914357032684
 20
456.5083196633043
 30
0.0
 10
281.4782957688284
 20
456.5091952912604
 30
0.0
 10
281.3641474038031
 20
456.5113820123943
 30
0.0
 10
281.2496674359344
 20
456.5149353024586
 30
0.0
 10
281.1355621007922
 20
456.519879306729
 30
0.0
 10
281.0280476738181
 20
456.5258022359148
 30
0.0
 10
280.9271481399316
 20
456.5324951094589
 30
0.0
 10
280.8328550426547
 20
456.5397612492275
 30
0.0
 10
280.7419921608399
 20
456.5476906799626
 30
0.0
 10
280.6550829629257
 20
456.5561637848762
 30
0.0
 10
280.5725751875211
 20
456.5650468061864
 30
0.0
 10
280.4971771106667
 20
456.5738789000873
 30
0.0
 10
280.4277226824837
 20
456.5826336016584
 30
0.0
 10
280.3631578959535
 20
456.5913210638349
 30
0.0
 10
280.304206444977
 20
456.5997323158758
 30
0.0
 10
280.2506109559241
 20
456.6077826795112
 30
0.0
 10
280.2021195549647
 20
456.6154021995656
 30
0.0
 10
280.1575408185338
 20
456.6226986661637
 30
0.0
 10
280.1172916896789
 20
456.6295333227061
 30
0.0
 10
280.0865908025925
 20
456.6349185783344
 30
0.0
 10
280.0639872787498
 20
456.6389707161242
 30
0.0
 10
280.0462307151531
 20
456.6421974627311
 30
0.0
 10
280.025279196622
 20
456.6460644003636
 30
0.0
 10
279.9996523249816
 20
456.6508865865277
 30
0.0
 10
279.9693554734133
 20
456.6567209149817
 30
0.0
 10
279.9354846835354
 20
456.6634206548359
 30
0.0
 10
279.8797746597164
 20
456.6747658837698
 30
0.0
 10
279.8065913545037
 20
456.6904879955378
 30
0.0
 10
279.722497115641
 20
456.7099285346495
 30
0.0
 10
279.6479064434352
 20
456.7283093130458
 30
0.0
 10
279.5815201531698
 20
456.7456091343543
 30
0.0
 10
279.5185782140492
 20
456.7628971135933
 30
0.0
 10
279.4575721198258
 20
456.780530836691
 30
0.0
 10
279.3979913871057
 20
456.7986614668485
 30
0.0
 10
279.3397351586966
 20
456.8173216066958
 30
0.0
 10
279.2824977462566
 20
456.8366146840769
 30
0.0
 10
279.2246173404827
 20
456.8571771908934
 30
0.0
 10
279.177540152758
 20
456.8748669303903
 30
0.0
 10
279.1413694738128
 20
456.8890440379061
 30
0.0
 10
279.1165645557996
 20
456.8990223292734
 30
0.0
 10
279.0927498878153
 20
456.9088526176138
 30
0.0
 10
279.0707573389275
 20
456.9181630894296
 30
0.0
 10
279.0536646265489
 20
456.9255708743037
 30
0.0
 10
279.0413075652899
 20
456.9310147077498
 30
0.0
 10
279.031922076138
 20
456.9351920268148
 30
0.0
 10
279.0208125705959
 20
456.9401913927852
 30
0.0
 10
279.0059896630981
 20
456.9469600993075
 30
0.0
 10
278.9867465746719
 20
456.9559351336616
 30
0.0
 10
278.9631748957272
 20
456.9672025224149
 30
0.0
 10
278.9465384053873
 20
456.9755024824947
 30
0.0
 10
278.9374943982511
 20
456.980014545836
 30
0.0
  0
SPLINE
  5
8D
330
1F
100
AcDbEntity
  8
0
  6
Continuous
 62
     7
370
    30
100
AcDbSpline
210
0.0
220
0.0
230
1.0
 70
     8
 71
     3
 72
    30
 73
    26
 74
     0
 42
0.000000001
 43
0.00000001
 40
0.0
 40
0.0
 40
0.0
 40
0.0
 40
0.0583489414914388
 40
0.1128503919108872
 40
0.1640070007360344
 40
0.2123998828058658
 40
0.2586779401660029
 40
0.3035410266837558
 40
0.3673952829175307
 40
0.425336209129978
 40
0.4606040742047795
 40
0.4931900512480097
 40
0.5235759310312056
 40
0.5713687167773359
 40
0.6231241839973812
 40
0.6789191596718369
 40
0.7363953750548515
 40
0.7636189289024076
 40
0.7897309824999361
 40
0.8147241176901626
 40
0.8386713327139979
 40
0.8671000739844108
 40
0.9034436690668407
 40
0.9477409000011484
 40
0.9999999999999999
 40
0.9999999999999999
 40
0.9999999999999999
 40
0.9999999999999999
 10
297.6119555720481
 20
448.3341629798108
 30
0.0
 10
297.6267109504918
 20
448.3354860241449
 30
0.0
 10
297.6552487473667
 20
448.3380448721342
 30
0.0
 10
297.6966635522709
 20
448.3465133682935
 30
0.0
 10
297.7350738604872
 20
448.3573858153818
 30
0.0
 10
297.7705303585926
 20
448.3703557504906
 30
0.0
 10
297.8031766035908
 20
448.3848850612272
 30
0.0
 10
297.8370714709584
 20
448.4026277098345
 30
0.0
 10
297.8712318349508
 20
448.4241124517008
 30
0.0
 10
297.9023389922806
 20
448.4479542667698
 30
0.0
 10
297.9261489603288
 20
448.469050538618
 30
0.0
 10
297.9440968353533
 20
448.4866776206363
 30
0.0
 10
297.9635317710162
 20
448.5076903590762
 30
0.0
 10
297.9847742653805
 20
448.5336101692912
 30
0.0
 10
298.0077088959216
 20
448.5663748821763
 30
0.0
 10
298.0291062612366
 20
448.6029889669219
 30
0.0
 10
298.0445704260097
 20
448.6355937515727
 30
0.0
 10
298.0551034600189
 20
448.6620739983876
 30
0.0
 10
298.0617917634126
 20
448.6811001965835
 30
0.0
 10
298.0674925866244
 20
448.6995809213557
 30
0.0
 10
298.0726637451963
 20
448.7188739783811
 30
0.0
 10
298.0776960795826
 20
448.7411521418463
 30
0.0
 10
298.0824828113775
 20
448.7687311728118
 30
0.0
 10
298.0864367701957
 20
448.8026108099385
 30
0.0
 10
298.0869976342564
 20
448.8273953469999
 30
0.0
 10
298.0873011902299
 20
448.8408094606909
 30
0.0
  0
LINE
  5
8E
330
1F
100
AcDbEntity
  8
0
  6
Continuous
 62
     7
370
    30
100
AcDbLine
 10
283.1409140678
 20
447.4099732512
 30
0.0
 11
297.6110874144
 21
448.3341024089
 31
0.0
  0
LINE
  5
8F
330
1F
100
AcDbEntity
  8
0
  6
Continuous
 62
     7
370
    30
100
AcDbLine
 10
298.0872997201
 20
448.8412721064
 30
0.0
 11
298.0872997201
 21
455.4106903058
 31
0.0
  0
SPLINE
  5
90
330
1F
100
AcDbEntity
  8
0
  6
Continuous
 62
     7
370
    30
100
AcDbSpline
210
0.0
220
0.0
230
1.0
 70
     8
 71
     3
 72
    60
 73
    56
 74
     0
 42
0.000000001
 43
0.00000001
 40
0.0
 40
0.0
 40
0.0
 40
0.0
 40
0.007368140321434
 40
0.0291733863451528
 40
0.0499291585902213
 40
0.0683633682550183
 40
0.0820325056489316
 40
0.0971112713054011
 40
0.1135902930558034
 40
0.1312331723576979
 40
0.1499466768177712
 40
0.1697258578143744
 40
0.1883341474367142
 40
0.2005022761148815
 40
0.2096627524177699
 40
0.2175817421487757
 40
0.2266561285018828
 40
0.2368968442334654
 40
0.2483003733033311
 40
0.2685464027749248
 40
0.2911517186308045
 40
0.3158634841481283
 40
0.3361869853209123
 40
0.357723554336554
 40
0.3804622952216952
 40
0.4043040207196534
 40
0.4261397660007863
 40
0.4444473762987599
 40
0.4592518116738514
 40
0.4716518560393975
 40
0.4835142157158848
 40
0.4978779720662753
 40
0.5144077900689046
 40
0.5328207961522132
 40
0.5530990232658526
 40
0.5747159456333342
 40
0.595261256161018
 40
0.6191446243970665
 40
0.6408857142771491
 40
0.6616160802699363
 40
0.6829656572264519
 40
0.7049335736420603
 40
0.7289118228559326
 40
0.754009450870356
 40
0.7803608118397015
 40
0.8079198506573668
 40
0.8366330443298918
 40
0.8648234369554029
 40
0.8872931330194742
 40
0.9076125011932922
 40
0.9259468649069207
 40
0.9389797283322097
 40
0.9557398575597268
 40
0.9761250333088306
 40
0.9999999999999999
 40
0.9999999999999999
 40
0.9999999999999999
 40
0.9999999999999999
 10
281.1959236780654
 20
446.2126249227684
 30
0.0
 10
281.1977144146134
 20
446.2164143530807
 30
0.0
 10
281.2048046499886
 20
446.2314182088309
 30
0.0
 10
281.2174250954141
 20
446.2573876602132
 30
0.0
 10
281.2333992710624
 20
446.2894820259313
 30
0.0
 10
281.2474148058529
 20
446.316908078054
 30
0.0
 10
281.2600028570531
 20
446.3410464859508
 30
0.0
 10
281.2722477463998
 20
446.3640984902574
 30
0.0
 10
281.2857793390918
 20
446.3890619080454
 30
0.0
 10
281.3005499607822
 20
446.415718824322
 30
0.0
 10
281.3165218744341
 20
446.4438746904484
 30
0.0
 10
281.333076749803
 20
446.4723388461428
 30
0.0
 10
281.3480328288212
 20
446.4974178609419
 30
0.0
 10
281.3600429538914
 20
446.5171528011812
 30
0.0
 10
281.3689116789476
 20
446.5315216179749
 30
0.0
 10
281.3768522155217
 20
446.5442424973222
 30
0.0
 10
281.3851708905432
 20
446.5574209086989
 30
0.0
 10
281.394625700713
 20
446.5722092193915
 30
0.0
 10
281.4076422441416
 20
446.5922784156064
 30
0.0
 10
281.4247682089635
 20
446.6181316668133
 30
0.0
 10
281.4464811905476
 20
446.6499733014772
 30
0.0
 10
281.468658250974
 20
446.6814582467411
 30
0.0
 10
281.490927909701
 20
446.712095092904
 30
0.0
 10
281.5129514899545
 20
446.741504297517
 30
0.0
 10
281.5366554741732
 20
446.7721535697499
 30
0.0
 10
281.5609793744287
 20
446.8025388121939
 30
0.0
 10
281.5842374199035
 20
446.8306056779605
 30
0.0
 10
281.6045822527093
 20
446.8544052290636
 30
0.0
 10
281.6216687795313
 20
446.8738764406411
 30
0.0
 10
281.636433152336
 20
446.890337421694
 30
0.0
 10
281.6510708869716
 20
446.9063397886374
 30
0.0
 10
281.6674710002561
 20
446.9238869245477
 30
0.0
 10
281.686565165202
 20
446.9437936124768
 30
0.0
 10
281.7081715695252
 20
446.9656559946428
 30
0.0
 10
281.7320867072077
 20
446.9890460616296
 30
0.0
 10
281.7572328369386
 20
447.0127226958965
 30
0.0
 10
281.7842552838265
 20
447.0371746504339
 30
0.0
 10
281.8117463509749
 20
447.0609904122628
 30
0.0
 10
281.8396814760765
 20
447.0840847364407
 30
0.0
 10
281.8668363232853
 20
447.105537754807
 30
0.0
 10
281.8944584370478
 20
447.1263568700911
 30
0.0
 10
281.9238635130145
 20
447.1474183541617
 30
0.0
 10
281.9553609577804
 20
447.1687236443223
 30
0.0
 10
281.9892481845753
 20
447.190197191217
 30
0.0
 10
282.0252463331173
 20
447.2113886921873
 30
0.0
 10
282.0634619017509
 20
447.2320693941087
 30
0.0
 10
282.1031501355716
 20
447.2515566240188
 30
0.0
 10
282.1410485002386
 20
447.2682126344499
 30
0.0
 10
282.1753469431771
 20
447.2816830422124
 30
0.0
 10
282.2050994946957
 20
447.292179284591
 30
0.0
 10
282.2303859679393
 20
447.3001708442564
 30
0.0
 10
282.253816796678
 20
447.3068783355432
 30
0.0
 10
282.2783198103635
 20
447.3131724317167
 30
0.0
 10
282.3083080936825
 20
447.3198896230774
 30
0.0
 10
282.3303588610802
 20
447.3235494492719
 30
0.0
 10
282.34225356607
 20
447.3255236460023
 30
0.0
  0
SPLINE
  5
91
330
1F
100
AcDbEntity
  8
0
  6
Continuous
 62
     7
370
    30
100
AcDbSpline
210
0.0
220
0.0
230
1.0
 70
     8
 71
     3
 72
    16
 73
    12
 74
     0
 42
0.000000001
 43
0.00000001
 40
0.0
 40
0.0
 40
0.0
 40
0.0
 40
0.0933895276389601
 40
0.2140436115703771
 40
0.3349780924503946
 40
0.4562849142807439
 40
0.5780665824912296
 40
0.7004392129454001
 40
0.8235364708519735
 40
0.9475147785868181
 40
1.0
 40
1.0
 40
1.0
 40
1.0
 10
298.0871173372828
 20
455.4107036896932
 30
0.0
 10
298.0870687384613
 20
455.419545971134
 30
0.0
 10
298.0869573526608
 20
455.4398119891981
 30
0.0
 10
298.084298574078
 20
455.471433360137
 30
0.0
 10
298.0795763484933
 20
455.5054383021694
 30
0.0
 10
298.0727027185524
 20
455.5391544848936
 30
0.0
 10
298.0637701960039
 20
455.5724622584219
 30
0.0
 10
298.0528143544781
 20
455.6052736684111
 30
0.0
 10
298.0397378385986
 20
455.6373984702039
 30
0.0
 10
298.0279304209531
 20
455.6628841146257
 30
0.0
 10
298.0198720344627
 20
455.6772170023277
 30
0.0
 10
298.0174752434587
 20
455.6814800066332
 30
0.0
  0
SPLINE
  5
92
330
1F
100
AcDbEntity
  8
0
  6
Continuous
 62
     7
370
    30
100
AcDbSpline
210
0.0
220
0.0
230
1.0
 70
     8
 71
     3
 72
    16
 73
    12
 74
     0
 42
0.000000001
 43
0.00000001
 40
0.0
 40
0.0
 40
0.0
 40
0.0
 40
0.0868965752851994
 40
0.1801035349523194
 40
0.2796302824602324
 40
0.3854862892566401
 40
0.4976811090910819
 40
0.6140519577431675
 40
0.7365558146394259
 40
0.865202015441302
 40
1.0
 40
1.0
 40
1.0
 40
1.0
 10
282.3424687324482
 20
447.3254389590892
 30
0.0
 10
282.3645757238922
 20
447.3287315951333
 30
0.0
 10
282.4103951050723
 20
447.3355559767492
 30
0.0
 10
282.4824902003276
 20
447.3455283769486
 30
0.0
 10
282.560210404058
 20
447.3556367688304
 30
0.0
 10
282.6437324615003
 20
447.3657131884093
 30
0.0
 10
282.7325506845622
 20
447.3755737449778
 30
0.0
 10
282.8266683853442
 20
447.3850913596629
 30
0.0
 10
282.9260852280622
 20
447.3941091422451
 30
0.0
 10
283.031307107922
 20
447.4026251576726
 30
0.0
 10
283.103812179532
 20
447.4074859320618
 30
0.0
 10
283.1409112618669
 20
447.4099730721373
 30
0.0
  0
ARC
  5
93
330
1F
100
AcDbEntity
  8
0
  6
Continuous
 62
     7
370
    30
100
AcDbCircle
 10
270.3253803372
 20
437.6134211559
 30
0.0
 40
21.3158981457338
100
AcDbArc
 50
63.4462565845
 51
93.0373301078
  0
LWPOLYLINE
  5
94
330
1F
100
AcDbEntity
  8
0
  6
Continuous
 62
     7
370
    30
100
AcDbPolyline
 90
       64
 70
   128
 43
0.0
 10
257.2125155683
 20
454.5793814064
 10
257.212369261
 20
454.5803341084
 10
257.2000357784
 20
454.6876970001
 10
257.1959236781
 20
454.7951335235
 10
257.2000357784
 20
454.9025700468
 10
257.212369261
 20
455.0099329385
 10
257.2329156733
 20
455.1171486175
 10
257.2616609336
 20
455.2241436033
 10
257.2985853416
 20
455.3308445671
 10
257.3436635909
 20
455.4371783813
 10
257.3968647873
 20
455.5430721701
 10
257.4581524693
 20
455.648453359
 10
257.5274846333
 20
455.7532497251
 10
257.6048137626
 20
455.8573894463
 10
257.6900868596
 20
455.9608011503
 10
257.7832454825
 20
456.063413964
 10
257.884225785
 20
456.1651575615
 10
257.9929585601
 20
456.2659622131
 10
258.1093692879
 20
456.3657588321
 10
258.2333781864
 20
456.464479023
 10
258.3649002659
 20
456.5620551279
 10
258.5038453878
 20
456.658420273
 10
258.6501183261
 20
456.7535084144
 10
258.8036188327
 20
456.8472543834
 10
258.9642417058
 20
456.9395939314
 10
259.1318768627
 20
457.0304637733
 10
259.3064094146
 20
457.1198016315
 10
259.4877197456
 20
457.2075462783
 10
259.6756835946
 20
457.2936375779
 10
259.8701721406
 20
457.3780165276
 10
260.0710520909
 20
457.4606252984
 10
260.2781857723
 20
457.5414072742
 10
260.4914312259
 20
457.6203070911
 10
260.7106423038
 20
457.6972706753
 10
260.9356687697
 20
457.7722452795
 10
261.1663564018
 20
457.8451795201
 10
261.4025470981
 20
457.9160234116
 10
261.6440789855
 20
457.984728401
 10
261.89078653
 20
458.0512474013
 10
262.1425006506
 20
458.1155348239
 10
262.399048835
 20
458.1775466093
 10
262.6602552579
 20
458.2372402577
 10
262.9259409015
 20
458.2945748581
 10
263.1959236781
 20
458.3495111162
 10
263.470018555
 20
458.4020113814
 10
263.7480376812
 20
458.4520396728
 10
264.0297905164
 20
458.4995617033
 10
264.3150839612
 20
458.5445449038
 10
264.6037224897
 20
458.586958445
 10
264.8955082835
 20
458.6267732588
 10
265.1902413673
 20
458.6639620581
 10
265.4877197456
 20
458.6984993557
 10
265.7877395416
 20
458.7303614812
 10
266.0900951368
 20
458.7595265981
 10
266.3945793118
 20
458.785974718
 10
266.7009833883
 20
458.8096877146
 10
267.0090973722
 20
458.8306493364
 10
267.3187100976
 20
458.8488452172
 10
267.6296093714
 20
458.8642628865
 10
267.9415821189
 20
458.8768917778
 10
268.2544145293
 20
458.8867232359
 10
268.5678922032
 20
458.8937505228
 10
268.8818002984
 20
458.8979688223
 10
269.1959236781
 20
458.8993752434
  0
SPLINE
  5
95
330
1F
100
AcDbEntity
  8
0
  6
Continuous
 62
     7
370
    30
100
AcDbSpline
210
0.0
220
0.0
230
1.0
 70
    24
 71
     3
 72
   178
 73
   174
 74
     0
 42
0.000000001
 43
0.00000001
 40
0.0
 40
0.0
 40
0.0
 40
0.0
 40
0.0072544817756338
 40
0.0144991176448531
 40
0.0217365520715719
 40
0.0289694374186121
 40
0.0362004310546696
 40
0.0434321924338134
 40
0.0483043709259794
 40
0.0531789147497986
 40
0.0580566339587261
 40
0.062938337025479
 40
0.0678248304453812
 40
0.0729208137960316
 40
0.0780981427282865
 40
0.0853380908030681
 40
0.0925707951958409
 40
0.099798906309969
 40
0.1070250796029625
 40
0.1142519726684373
 40
0.1195537277558021
 40
0.1248583453299827
 40
0.130166870300586
 40
0.1322536733247583
 40
0.1343413034307324
 40
0.1364298236425476
 40
0.1385192969036998
 40
0.1406097860715971
 40
0.1427013539120554
 40
0.1498573450537818
 40
0.1570025521609857
 40
0.1641395084489084
 40
0.1712707559255497
 40
0.1783988427065169
 40
0.1855263202973199
 40
0.1903274357932461
 40
0.1951302117092806
 40
0.199935426381119
 40
0.2047438569601806
 40
0.2095562790398875
 40
0.214373466285702
 40
0.2191961900697912
 40
0.2265053691539253
 40
0.2338030462507905
 40
0.2410919195602534
 40
0.2483746970673462
 40
0.2556540935601438
 40
0.2629328276098268
 40
0.2697974823567399
 40
0.2766662430882882
 40
0.2835413831836311
 40
0.2904251697015518
 40
0.2973198611716902
 40
0.3046290404106172
 40
0.3119267176052338
 40
0.3192155909683804
 40
0.3264983684981584
 40
0.33377776499578
 40
0.3410564990456008
 40
0.3459595376396988
 40
0.3508643393385477
 40
0.3557717334083774
 40
0.3606825478021335
 40
0.3655976087442781
 40
0.3705177403199397
 40
0.3754437640694155
 40
0.3825997556381231
 40
0.3897449630149832
 40
0.396881919451023
 40
0.4040131669902823
 40
0.4111412537845857
 40
0.4182687313757621
 40
0.4245424555861649
 40
0.4308194224671211
 40
0.4371013673289729
 40
0.4395710380736457
 40
0.4420418490671371
 40
0.4445139049117746
 40
0.4469873100519484
 40
0.4494621687612191
 40
0.4519385851295326
 40
0.4585321045428224
 40
0.4651167817307273
 40
0.4716945993934667
 40
0.4782675464386983
 40
0.4848376161974174
 40
0.4914068046198403
 40
0.4979771084593899
 40
0.5031415976689244
 40
0.5083089744601688
 40
0.5134802041057792
 40
0.518656249722874
 40
0.523838071743217
 40
0.5288135028510907
 40
0.5336964127109567
 40
0.5405255603423456
 40
0.5473486878849676
 40
0.5541680198034911
 40
0.5609857842778341
 40
0.5678042110245808
 40
0.5745036848251498
 40
0.5812080567575088
 40
0.5879194313321269
 40
0.5946399064808643
 40
0.6018935767670062
 40
0.6091375886404885
 40
0.6163745879186106
 40
0.6236072281146395
 40
0.6308381675407569
 40
0.6380700663846594
 40
0.6429424457428679
 40
0.6478172777130763
 40
0.6526953724103424
 40
0.6575775383255366
 40
0.662464581928957
 40
0.6675607445371537
 40
0.6727380734694108
 40
0.6799780215441943
 40
0.6872107259369686
 40
0.6944388370510975
 40
0.7016650103440911
 40
0.7088919034095656
 40
0.7141936584969297
 40
0.7194982760711089
 40
0.7248068010417101
 40
0.7268936040658817
 40
0.7289812341718549
 40
0.7310697543836691
 40
0.7331592276448202
 40
0.7352497168127163
 40
0.7373412846531732
 40
0.7444972757950059
 40
0.7516424829022943
 40
0.7587794391902793
 40
0.7659106866669612
 40
0.7730387734479469
 40
0.7801662510387468
 40
0.7849673665346587
 40
0.7897701424506692
 40
0.7945753571224741
 40
0.7993837877014923
 40
0.8041962097811465
 40
0.8090133970268988
 40
0.8138361208109165
 40
0.8211452998952937
 40
0.8284429769923525
 40
0.8357318503019591
 40
0.8430146278091453
 40
0.8502940243019862
 40
0.8575727583516618
 40
0.8644374130985217
 40
0.8713061738299723
 40
0.8781813139251728
 40
0.8850651004429063
 40
0.8919597919128135
 40
0.8992689711518647
 40
0.9065666483465803
 40
0.9138555217098003
 40
0.9211382992396263
 40
0.92841769573727
 40
0.9356964297870872
 40
0.9405994683811681
 40
0.9455042700799882
 40
0.9504116641497773
 40
0.955322478543481
 40
0.9602375394855616
 40
0.9651576710611474
 40
0.9700836948105361
 40
0.9772396863791906
 40
0.9843848937560087
 40
0.9915218501920173
 40
0.9986530977312564
 40
0.9999999999999999
 40
0.9999999999999999
 40
0.9999999999999999
 40
0.9999999999999999
 10
289.2755143850575
 20
313.9479084925512
 30
0.0
 10
289.2043693406341
 20
313.9479084925512
 30
0.0
 10
289.0621758110552
 20
313.9479084925512
 30
0.0
 10
288.8397411748383
 20
313.9479084925512
 30
0.0
 10
288.6108297989914
 20
313.9479084925512
 30
0.0
 10
288.3747738468869
 20
313.9479084925512
 30
0.0
 10
288.1317525680276
 20
313.9479084925512
 30
0.0
 10
287.9089465917201
 20
313.9479084925512
 30
0.0
 10
287.7087950497691
 20
313.9479084925512
 30
0.0
 10
287.5333012168454
 20
313.9479084925512
 30
0.0
 10
287.3546318409288
 20
313.9479084925512
 30
0.0
 10
287.1727867684635
 20
313.9479084925512
 30
0.0
 10
286.9851923357899
 20
313.9479084925512
 30
0.0
 10
286.7907432082413
 20
313.9479084925512
 30
0.0
 10
286.5624274597225
 20
313.9479084925512
 30
0.0
 10
286.3013000939733
 20
313.9479084925512
 30
0.0
 10
286.006629641689
 20
313.9479084925512
 30
0.0
 10
285.7059559505898
 20
313.9479084925512
 30
0.0
 10
285.3992799534842
 20
313.9479084925512
 30
0.0
 10
285.1144098585501
 20
313.9479084925512
 30
0.0
 10
284.8530802281195
 20
313.9479084925512
 30
0.0
 10
284.6167605137725
 20
313.9479084925512
 30
0.0
 10
284.4257439546364
 20
313.9479084925512
 30
0.0
 10
284.2818708062715
 20
313.9479084925512
 30
0.0
 10
284.1863902339984
 20
313.9479084925512
 30
0.0
 10
284.0904116597728
 20
313.9479084925512
 30
0.0
 10
283.9939350593458
 20
313.9479084925512
 30
0.0
 10
283.8969603317535
 20
313.9479084925512
 30
0.0
 10
283.720834718781
 20
313.9479084925512
 30
0.0
 10
283.4636144972069
 20
313.9479084925512
 30
0.0
 10
283.1221264735926
 20
313.9479084925512
 30
0.0
 10
282.7760420779081
 20
313.9479084925512
 30
0.0
 10
282.4253622823956
 20
313.9479084925512
 30
0.0
 10
282.0700875097906
 20
313.9479084925512
 30
0.0
 10
281.749397120724
 20
313.9479084925512
 30
0.0
 10
281.4648986728982
 20
313.9479084925512
 30
0.0
 10
281.2178879550527
 20
313.9479084925512
 30
0.0
 10
280.9687937004812
 20
313.9479084925512
 30
0.0
 10
280.7176156594036
 20
313.9479084925512
 30
0.0
 10
280.4643540208838
 20
313.9479084925512
 30
0.0
 10
280.2090084068024
 20
313.9479084925512
 30
0.0
 10
279.9074540004611
 20
313.9479084925512
 30
0.0
 10
279.5588150098993
 20
313.9479084925512
 30
0.0
 10
279.1620486421144
 20
313.9479084925512
 30
0.0
 10
278.7620240828923
 20
313.9479084925512
 30
0.0
 10
278.3587419349598
 20
313.9479084925512
 30
0.0
 10
277.9522023468738
 20
313.9479084925512
 30
0.0
 10
277.5502136832949
 20
313.9479084925512
 30
0.0
 10
277.1529963408269
 20
313.9479084925512
 30
0.0
 10
276.7607457671963
 20
313.9479084925512
 30
0.0
 10
276.36560014689
 20
313.9479084925512
 30
0.0
 10
275.9675592517301
 20
313.9479084925512
 30
0.0
 10
275.5588456957697
 20
313.9479084925512
 30
0.0
 10
275.1398328985948
 20
313.9479084925512
 30
0.0
 10
274.7108973542681
 20
313.9479084925512
 30
0.0
 10
274.2803932970717
 20
313.9479084925512
 30
0.0
 10
273.8483206597374
 20
313.9479084925512
 30
0.0
 10
273.4146803326263
 20
313.9479084925512
 30
0.0
 10
273.0268542045327
 20
313.9479084925512
 30
0.0
 10
272.6854089012681
 20
313.9479084925512
 30
0.0
 10
272.3907444391117
 20
313.9479084925512
 30
0.0
 10
272.095369261073
 20
313.9479084925512
 30
0.0
 10
271.7992830542021
 20
313.9479084925512
 30
0.0
 10
271.5024860181593
 20
313.9479084925512
 30
0.0
 10
271.2049778195625
 20
313.9479084925512
 30
0.0
 10
270.8618974154326
 20
313.9479084925512
 30
0.0
 10
270.4734269845685
 20
313.9479084925512
 30
0.0
 10
270.0397960160754
 20
313.9479084925512
 30
0.0
 10
269.6063261010523
 20
313.9479084925512
 30
0.0
 10
269.1730179067957
 20
313.9479084925512
 30
0.0
 10
268.7398716715358
 20
313.9479084925512
 30
0.0
 10
268.3242121751478
 20
313.9479084925512
 30
0.0
 10
267.9260297842836
 20
313.9479084925512
 30
0.0
 10
267.5452790208234
 20
313.9479084925512
 30
0.0
 10
267.2417761969466
 20
313.9479084925512
 30
0.0
 10
267.0153629653086
 20
313.9479084925512
 30
0.0
 10
266.8659025062655
 20
313.9479084925512
 30
0.0
 10
266.7164615103981
 20
313.9479084925512
 30
0.0
 10
266.5670398813073
 20
313.9479084925512
 30
0.0
 10
266.4176375332919
 20
313.9479084925512
 30
0.0
 10
266.1855053839514
 20
313.9479084925512
 30
0.0
 10
265.8711926413012
 20
313.9479084925512
 30
0.0
 10
265.4755049638957
 20
313.9479084925512
 30
0.0
 10
265.0813188873593
 20
313.9479084925512
 30
0.0
 10
264.6886355597416
 20
313.9479084925512
 30
0.0
 10
264.2974547320066
 20
313.9479084925512
 30
0.0
 10
263.9077769128244
 20
313.9479084925512
 30
0.0
 10
263.5473447781322
 20
313.9479084925512
 30
0.0
 10
263.2158096676358
 20
313.9479084925512
 30
0.0
 10
262.9128143174555
 20
313.9479084925512
 30
0.0
 10
262.6107468970969
 20
313.9479084925512
 30
0.0
 10
262.3096071778433
 20
313.9479084925512
 30
0.0
 10
262.0135110082287
 20
313.9479084925512
 30
0.0
 10
261.724322080312
 20
313.9479084925512
 30
0.0
 10
261.4048615689636
 20
313.9479084925512
 30
0.0
 10
261.0519508345147
 20
313.9479084925512
 30
0.0
 10
260.6647857095106
 20
313.9479084925512
 30
0.0
 10
260.2805778349706
 20
313.9479084925512
 30
0.0
 10
259.8993278466243
 20
313.9479084925512
 30
0.0
 10
259.5232887280701
 20
313.9479084925512
 30
0.0
 10
259.1524003961404
 20
313.9479084925512
 30
0.0
 10
258.7865981427433
 20
313.9479084925512
 30
0.0
 10
258.4236494716391
 20
313.9479084925512
 30
0.0
 10
258.054231654521
 20
313.9479084925512
 30
0.0
 10
257.6790712873191
 20
313.9479084925512
 30
0.0
 10
257.2989478553521
 20
313.9479084925512
 30
0.0
 10
256.923504961107
 20
313.9479084925512
 30
0.0
 10
256.5527430059719
 20
313.9479084925512
 30
0.0
 10
256.1866625923309
 20
313.9479084925512
 30
0.0
 10
255.8646215036788
 20
313.9479084925512
 30
0.0
 10
255.5850085462606
 20
313.9479084925512
 30
0.0
 10
255.3464013766815
 20
313.9479084925512
 30
0.0
 10
255.1099173235801
 20
313.9479084925512
 30
0.0
 10
254.875555973614
 20
313.9479084925512
 30
0.0
 10
254.6400956736498
 20
313.9479084925512
 30
0.0
 10
254.402481013678
 20
313.9479084925512
 30
0.0
 10
254.1310428424225
 20
313.9479084925512
 30
0.0
 10
253.8307103341824
 20
313.9479084925512
 30
0.0
 10
253.5046114640225
 20
313.9479084925512
 30
0.0
 10
253.1844210525574
 20
313.9479084925512
 30
0.0
 10
252.8701400393576
 20
313.9479084925512
 30
0.0
 10
252.5891937448898
 20
313.9479084925512
 30
0.0
 10
252.3398903697274
 20
313.9479084925512
 30
0.0
 10
252.1207021067174
 20
313.9479084925512
 30
0.0
 10
251.9484535473878
 20
313.9479084925512
 30
0.0
 10
251.8212375828426
 20
313.9479084925512
 30
0.0
 10
251.7377421049089
 20
313.9479084925512
 30
0.0
 10
251.654736953426
 20
313.9479084925512
 30
0.0
 10
251.5722220890726
 20
313.9479084925512
 30
0.0
 10
251.4901974739859
 20
313.9479084925512
 30
0.0
 10
251.3428711255118
 20
313.9479084925512
 30
0.0
 10
251.1329465754404
 20
313.9479084925512
 30
0.0
 10
250.8647881652878
 20
313.9479084925512
 30
0.0
 10
250.6034173663294
 20
313.9479084925512
 30
0.0
 10
250.3488351958661
 20
313.9479084925512
 30
0.0
 10
250.1010418431195
 20
313.9479084925512
 30
0.0
 10
249.8862758542121
 20
313.9479084925512
 30
0.0
 10
249.7022040653586
 20
313.9479084925512
 30
0.0
 10
249.5468136682442
 20
313.9479084925512
 30
0.0
 10
249.3945019468234
 20
313.9479084925512
 30
0.0
 10
249.2452687325191
 20
313.9479084925512
 30
0.0
 10
249.0991140752106
 20
313.9479084925512
 30
0.0
 10
248.9560379924583
 20
313.9479084925512
 30
0.0
 10
248.7920431383498
 20
313.9479084925512
 30
0.0
 10
248.6095462079418
 20
313.9479084925512
 30
0.0
 10
248.4114694913266
 20
313.9479084925512
 30
0.0
 10
248.2212987285857
 20
313.9479084925512
 30
0.0
 10
248.0390346172404
 20
313.9479084925512
 30
0.0
 10
247.8646771272744
 20
313.9479084925512
 30
0.0
 10
247.7013979251996
 20
313.9479084925512
 30
0.0
 10
247.5486807309701
 20
313.9479084925512
 30
0.0
 10
247.4060149637966
 20
313.9479084925512
 30
0.0
 10
247.2703778763986
 20
313.9479084925512
 30
0.0
 10
247.1417698694093
 20
313.9479084925512
 30
0.0
 10
247.0178305902328
 20
313.9479084925512
 30
0.0
 10
246.8992151490864
 20
313.9479084925512
 30
0.0
 10
246.7866425610001
 20
313.9479084925512
 30
0.0
 10
246.6824758081135
 20
313.9479084925512
 30
0.0
 10
246.5867154548936
 20
313.9479084925512
 30
0.0
 10
246.4993615134464
 20
313.9479084925512
 30
0.0
 10
246.4290093039623
 20
313.9479084925512
 30
0.0
 10
246.3727579672381
 20
313.9479084925512
 30
0.0
 10
246.3281426696161
 20
313.9479084925512
 30
0.0
 10
246.2873394373495
 20
313.9479084925512
 30
0.0
 10
246.2503484168726
 20
313.9479084925512
 30
0.0
 10
246.2171688091511
 20
313.9479084925512
 30
0.0
 10
246.1878036596002
 20
313.9479084925512
 30
0.0
 10
246.1583961240785
 20
313.9479084925512
 30
0.0
 10
246.1313186491214
 20
313.9479084925512
 30
0.0
 10
246.1090806347731
 20
313.9479084925512
 30
0.0
 10
246.0957714415891
 20
313.9479084925512
 30
0.0
 10
246.090047387261
 20
313.9479084925512
 30
0.0
 10
246.0912703764843
 20
313.9479084925512
 30
0.0
 10
246.0914646696965
 20
313.9479084925512
 30
0.0
  0
SPLINE
  5
96
330
1F
100
AcDbEntity
  8
0
  6
Continuous
 62
     7
370
    30
100
AcDbSpline
210
0.0
220
0.0
230
1.0
 70
    24
 71
     3
 72
    41
 73
    37
 74
     0
 42
0.000000001
 43
0.00000001
 40
0.0
 40
0.0
 40
0.0
 40
0.0
 40
0.0305430513252794
 40
0.0681988142447077
 40
0.1013440424782716
 40
0.1345064023313098
 40
0.1676950617645751
 40
0.1807427823447191
 40
0.1937965270671603
 40
0.2068568485650557
 40
0.2199242986371508
 40
0.2329994281796676
 40
0.2460827871187574
 40
0.28091755168258
 40
0.3157056011586609
 40
0.3504574105135579
 40
0.3851834875088581
 40
0.4198943632754461
 40
0.4546005827820279
 40
0.4893126952407943
 40
0.5165976328346241
 40
0.5438978260489717
 40
0.5712183745951778
 40
0.5985643667964822
 40
0.6259408767889065
 40
0.6522291784671648
 40
0.678029199727057
 40
0.7141118617440777
 40
0.7501618138227897
 40
0.7861908091160111
 40
0.8222106212909676
 40
0.8582330330191972
 40
0.8936261330355975
 40
0.9290442508678731
 40
0.9644985100139852
 40
1.0
 40
1.0
 40
1.0
 40
1.0
 10
292.0907662534112
 20
313.9479084925512
 30
0.0
 10
292.0905118042074
 20
313.9479084925512
 30
0.0
 10
292.0899436509538
 20
313.9479084925512
 30
0.0
 10
292.079695099385
 20
313.9479084925512
 30
0.0
 10
292.0629269948119
 20
313.9479084925512
 30
0.0
 10
292.0403415262186
 20
313.9479084925512
 30
0.0
 10
292.0173155482172
 20
313.9479084925512
 30
0.0
 10
291.9974977040304
 20
313.9479084925512
 30
0.0
 10
291.9834353939642
 20
313.9479084925512
 30
0.0
 10
291.9683935663194
 20
313.9479084925512
 30
0.0
 10
291.9523725497463
 20
313.9479084925512
 30
0.0
 10
291.9353721053636
 20
313.9479084925512
 30
0.0
 10
291.9074333779342
 20
313.9479084925512
 30
0.0
 10
291.8658133946324
 20
313.9479084925512
 30
0.0
 10
291.8064213128308
 20
313.9479084925512
 30
0.0
 10
291.7402327767159
 20
313.9479084925512
 30
0.0
 10
291.6672475275463
 20
313.9479084925512
 30
0.0
 10
291.5874656203349
 20
313.9479084925512
 30
0.0
 10
291.5008871477804
 20
313.9479084925512
 30
0.0
 10
291.4141855314968
 20
313.9479084925512
 30
0.0
 10
291.328958215167
 20
313.9479084925512
 30
0.0
 10
291.2466337773706
 20
313.9479084925512
 30
0.0
 10
291.1601139909805
 20
313.9479084925512
 30
0.0
 10
291.0693989932917
 20
313.9479084925512
 30
0.0
 10
290.975786790206
 20
313.9479084925512
 30
0.0
 10
290.880108921499
 20
313.9479084925512
 30
0.0
 10
290.7698023641327
 20
313.9479084925512
 30
0.0
 10
290.6418185338756
 20
313.9479084925512
 30
0.0
 10
290.4934571399534
 20
313.9479084925512
 30
0.0
 10
290.3382128291995
 20
313.9479084925512
 30
0.0
 10
290.176088832816
 20
313.9479084925512
 30
0.0
 10
290.0080804294857
 20
313.9479084925512
 30
0.0
 10
289.8343724652888
 20
313.9479084925512
 30
0.0
 10
289.6549511867398
 20
313.9479084925512
 30
0.0
 10
289.4693434614634
 20
313.9479084925512
 30
0.0
 10
289.3401527419416
 20
313.9479084925512
 30
0.0
 10
289.2755143850575
 20
313.9479084925512
 30
0.0
  0
LINE
  5
97
330
1F
100
AcDbEntity
  8
0
  6
Continuous
 62
     7
370
    30
100
AcDbLine
 10
245.0911154616
 20
305.9479084926
 30
0.0
 11
293.0911154616
 21
305.9479084926
 31
0.0
  0
LWPOLYLINE
  5
98
330
1F
100
AcDbEntity
  8
0
  6
Continuous
 62
     7
370
    30
100
AcDbPolyline
 90
        3
 70
   128
 43
0.0
 10
257.1960318676
 20
423.7678489829
 10
257.1959344771
 20
423.7797708584
 10
257.1960248852
 20
423.8021333282
  0
LWPOLYLINE
  5
99
330
1F
100
AcDbEntity
  8
0
  6
Continuous
 62
     7
370
    30
100
AcDbPolyline
 90
        3
 70
   128
 43
0.0
 10
281.1958175479
 20
423.8025384288
 10
281.195912879
 20
423.7907832167
 10
281.1958183375
 20
423.7680799795
  0
LWPOLYLINE
  5
9A
330
1F
100
AcDbEntity
  8
0
  6
Continuous
 62
     7
370
    30
100
AcDbPolyline
 90
      241
 70
   128
 43
0.0
 10
271.2242006725
 20
419.8822283637
 10
270.9391649345
 20
419.8653421868
 10
270.652934466
 20
419.8510137337
 10
270.365705435
 20
419.8392528245
 10
270.0776746941
 20
419.8300675196
 10
269.789039645
 20
419.8234641139
 10
269.499998104
 20
419.8194471333
 10
269.2107481654
 20
419.8180193307
 10
268.921488067
 20
419.8191816847
 10
268.632416053
 20
419.8229333987
 10
268.3437302389
 20
419.8292719014
 10
268.0556284757
 20
419.8381928488
 10
267.7683082138
 20
419.8496901268
 10
267.4819663683
 20
419.8637558558
 10
267.1967991835
 20
419.8803803959
 10
266.9130020988
 20
419.8995523534
 10
266.6307696145
 20
419.9212585888
 10
266.3502951586
 20
419.9454842258
 10
266.0717709544
 20
419.9722126613
 10
265.7953878885
 20
420.001425577
 10
265.5213353798
 20
420.0331029517
 10
265.2498012505
 20
420.0672230755
 10
264.9809715964
 20
420.1037625641
 10
264.7150306598
 20
420.1426963752
 10
264.4521607036
 20
420.1839978253
 10
264.1925418855
 20
420.2276386087
 10
263.9363521353
 20
420.2735888161
 10
263.6837670328
 20
420.3218169556
 10
263.4349596871
 20
420.3722899738
 10
263.1901006184
 20
420.4249732793
 10
262.9493576408
 20
420.4798307654
 10
262.7128957475
 20
420.5368248356
 10
262.4808769977
 20
420.595916429
 10
262.2534604055
 20
420.6570650472
 10
262.0308018309
 20
420.7202287819
 10
261.8130538728
 20
420.7853643439
 10
261.600365765
 20
420.8524270926
 10
261.3928832731
 20
420.9213710664
 10
261.1907485953
 20
420.9921490147
 10
260.9941002647
 20
421.0647124297
 10
260.8030730542
 20
421.1390115801
 10
260.6177978842
 20
421.214995545
 10
260.4384017332
 20
421.2926122488
 10
260.2650075503
 20
421.3718084969
 10
260.0977341711
 20
421.452530012
 10
259.9366962366
 20
421.5347214718
 10
259.7820041141
 20
421.6183265462
 10
259.6337638218
 20
421.7032879366
 10
259.4920769563
 20
421.7895474146
 10
259.3570406225
 20
421.8770458624
 10
259.2287473678
 20
421.9657233128
 10
259.1072851178
 20
422.0555189908
 10
258.9927371167
 20
422.1463713548
 10
258.8851818701
 20
422.2382181393
 10
258.7846930908
 20
422.330996397
 10
258.691339649
 20
422.4246425423
 10
258.6051855243
 20
422.5190923949
 10
258.5262897625
 20
422.6142812235
 10
258.4547064349
 20
422.7101437904
 10
258.390484601
 20
422.8066143963
 10
258.3336682754
 20
422.903626925
 10
258.284296397
 20
423.001114889
 10
258.2424028028
 20
423.0990114749
 10
258.2080162048
 20
423.1972495892
 10
258.1811601697
 20
423.2957619045
 10
258.1618531033
 20
423.3944809054
 10
258.1501082377
 20
423.4933389347
 10
258.1459336222
 20
423.5922682401
 10
258.149332118
 20
423.6912010204
 10
258.1603013958
 20
423.7900694721
 10
258.1788339379
 20
423.8888058356
 10
258.204917043
 20
423.9873424419
 10
258.2385328351
 20
424.0856117591
 10
258.2796582754
 20
424.1835464381
 10
258.3282651789
 20
424.2810793595
 10
258.3843202326
 20
424.3781436791
 10
258.4477850192
 20
424.4746728739
 10
258.5186160432
 20
424.5706007875
 10
258.5967647605
 20
424.6658616757
 10
258.6821776119
 20
424.7603902515
 10
258.7747960597
 20
424.8541217298
 10
258.8745566278
 20
424.9469918717
 10
258.9813909453
 20
425.0389370285
 10
259.0952257933
 20
425.1298941857
 10
259.2159831551
 20
425.2198010058
 10
259.3435802696
 20
425.3085958712
 10
259.4779296882
 20
425.3962179263
 10
259.6189393344
 20
425.4826071192
 10
259.7665125673
 20
425.5677042433
 10
259.9205482476
 20
425.6514509771
 10
260.0809408069
 20
425.7337899248
 10
260.2475803201
 20
425.8146646554
 10
260.4203525809
 20
425.8940197414
 10
260.5991391798
 20
425.9718007969
 10
260.7838175854
 20
426.0479545145
 10
260.9742612282
 20
426.1224287023
 10
261.1703395879
 20
426.1951723195
 10
261.371918282
 20
426.2661355111
 10
261.5788591585
 20
426.3352696425
 10
261.7910203906
 20
426.4025273328
 10
262.0082565736
 20
426.4678624867
 10
262.2304188245
 20
426.5312303269
 10
262.4573548845
 20
426.5925874242
 10
262.688909223
 20
426.6518917275
 10
262.9249231442
 20
426.7091025926
 10
263.1652348959
 20
426.76418081
 10
263.4096797804
 20
426.8170886319
 10
263.6580902675
 20
426.8677897979
 10
263.9102961089
 20
426.91624956
 10
264.1661244555
 20
426.9624347062
 10
264.4253999752
 20
427.0063135836
 10
264.6879449736
 20
427.0478561197
 10
264.9535795154
 20
427.0870338435
 10
265.222121548
 20
427.1238199044
 10
265.4933870261
 20
427.158189091
 10
265.7671900378
 20
427.1901178486
 10
266.0433429323
 20
427.2195842947
 10
266.3216564482
 20
427.2465682344
 10
266.6019398433
 20
427.2710511744
 10
266.8840010253
 20
427.2930163352
 10
267.1676466836
 20
427.3124486631
 10
267.4526824216
 20
427.32933484
 10
267.7389128902
 20
427.3436632931
 10
268.0261419211
 20
427.3554242023
 10
268.314172662
 20
427.3646095072
 10
268.6028077111
 20
427.3712129129
 10
268.8918492522
 20
427.3752298935
 10
269.1810991907
 20
427.376657696
 10
269.4703592892
 20
427.375495342
 10
269.7594313032
 20
427.3717436281
 10
270.0481171172
 20
427.3654051254
 10
270.3362188804
 20
427.356484178
 10
270.6235391423
 20
427.3449869
 10
270.9098809878
 20
427.330921171
 10
271.1950481726
 20
427.3142966309
 10
271.4788452573
 20
427.2951246734
 10
271.7610777416
 20
427.273418438
 10
272.0415521975
 20
427.249192801
 10
272.3200764017
 20
427.2224643655
 10
272.5964594677
 20
427.1932514498
 10
272.8705119763
 20
427.161574075
 10
273.1420461056
 20
427.1274539513
 10
273.4108757598
 20
427.0909144627
 10
273.6768166963
 20
427.0519806516
 10
273.9396866526
 20
427.0106792014
 10
274.1993054707
 20
426.967038418
 10
274.4554952208
 20
426.9210882106
 10
274.7080803233
 20
426.8728600712
 10
274.956887669
 20
426.822387053
 10
275.2017467378
 20
426.7697037475
 10
275.4424897154
 20
426.7148462614
 10
275.6789516087
 20
426.6578521912
 10
275.9109703584
 20
426.5987605978
 10
276.1383869506
 20
426.5376119796
 10
276.3610455253
 20
426.4744482449
 10
276.5787934833
 20
426.4093126829
 10
276.7914815912
 20
426.3422499342
 10
276.9989640831
 20
426.2733059603
 10
277.2010987608
 20
426.2025280121
 10
277.3977470914
 20
426.1299645971
 10
277.588774302
 20
426.0556654466
 10
277.7740494719
 20
425.9796814817
 10
277.9534456229
 20
425.902064778
 10
278.1268398059
 20
425.8228685299
 10
278.294113185
 20
425.7421470148
 10
278.4551511195
 20
425.659955555
 10
278.609843242
 20
425.5763504806
 10
278.7580835343
 20
425.4913890902
 10
278.8997703999
 20
425.4051296122
 10
279.0348067336
 20
425.3176311644
 10
279.1630999884
 20
425.228953714
 10
279.2845622384
 20
425.139158036
 10
279.3991102394
 20
425.0483056719
 10
279.5066654861
 20
424.9564588875
 10
279.6071542653
 20
424.8636806298
 10
279.7005077072
 20
424.7700344845
 10
279.7866618318
 20
424.6755846319
 10
279.8655575936
 20
424.5803958033
 10
279.9371409212
 20
424.4845332364
 10
280.0013627551
 20
424.3880626305
 10
280.0581790808
 20
424.2910501018
 10
280.1075509592
 20
424.1935621378
 10
280.1494445533
 20
424.0956655519
 10
280.1838311513
 20
423.9974274376
 10
280.2106871865
 20
423.8989151223
 10
280.2299942529
 20
423.8001961214
 10
280.2417391185
 20
423.7013380921
 10
280.2459137339
 20
423.6024087867
 10
280.2425152382
 20
423.5034760064
 10
280.2315459603
 20
423.4046075547
 10
280.2130134182
 20
423.3058711912
 10
280.1869303131
 20
423.2073345848
 10
280.1533145211
 20
423.1090652677
 10
280.1121890807
 20
423.0111305887
 10
280.0635821773
 20
422.9135976672
 10
280.0075271236
 20
422.8165333476
 10
279.9440623369
 20
422.7200041529
 10
279.8732313129
 20
422.6240762393
 10
279.7950825956
 20
422.5288153511
 10
279.7096697442
 20
422.4342867752
 10
279.6170512964
 20
422.340555297
 10
279.5172907283
 20
422.2476851551
 10
279.4104564108
 20
422.1557399983
 10
279.2966215628
 20
422.0647828411
 10
279.175864201
 20
421.9748760209
 10
279.0482670865
 20
421.8860811556
 10
278.9139176679
 20
421.7984591005
 10
278.7729080217
 20
421.7120699075
 10
278.6253347888
 20
421.6269727835
 10
278.4712991085
 20
421.5432260497
 10
278.3109065492
 20
421.460887102
 10
278.144267036
 20
421.3800123714
 10
277.9714947752
 20
421.3006572853
 10
277.7927081763
 20
421.2228762299
 10
277.6080297708
 20
421.1467225123
 10
277.4175861279
 20
421.0722483244
 10
277.2215077682
 20
420.9995047073
 10
277.0199290742
 20
420.9285415157
 10
276.8129881976
 20
420.8594073842
 10
276.6008269655
 20
420.792149694
 10
276.3835907826
 20
420.7268145401
 10
276.1614285316
 20
420.6634466999
 10
275.9344924716
 20
420.6020896026
 10
275.7029381331
 20
420.5427852993
 10
275.4669242119
 20
420.4855744342
 10
275.2266124603
 20
420.4304962168
 10
274.9821675757
 20
420.3775883949
 10
274.7337570887
 20
420.3268872289
 10
274.4815512472
 20
420.2784274668
 10
274.2257229006
 20
420.2322423206
 10
273.9664473809
 20
420.1883634432
 10
273.7039023825
 20
420.146820907
 10
273.4382678407
 20
420.1076431833
 10
273.1697258081
 20
420.0708571224
 10
272.8984603301
 20
420.0364879357
 10
272.6246573183
 20
420.0045591782
 10
272.3485044238
 20
419.9750927321
 10
272.0701909079
 20
419.9481087924
 10
271.7899075129
 20
419.9236258524
 10
271.5078463309
 20
419.9016606916
 10
271.2242006725
 20
419.8822283637
  0
LWPOLYLINE
  5
9B
330
1F
100
AcDbEntity
  8
0
  6
Continuous
 62
     7
370
    30
100
AcDbPolyline
 90
      135
 70
   128
 43
0.0
 10
258.4859322294
 20
424.5276448193
 10
258.4482221598
 20
424.4496055152
 10
258.4084755512
 20
424.353186428
 10
258.3761221207
 20
424.2564445281
 10
258.3511840418
 20
424.1594461176
 10
258.3336784057
 20
424.0622576743
 10
258.3236172099
 20
423.9649458063
 10
258.3210073499
 20
423.8675772063
 10
258.3258506143
 20
423.770218606
 10
258.3381436838
 20
423.6729367299
 10
258.3578781334
 20
423.5757982503
 10
258.385040438
 20
423.4788697411
 10
258.419611982
 20
423.3822176321
 10
258.4615690717
 20
423.2859081639
 10
258.5108829519
 20
423.1900073422
 10
258.5675198252
 20
423.0945808926
 10
258.6314408757
 20
422.9996942158
 10
258.702602295
 20
422.9054123421
 10
258.7809553126
 20
422.8117998878
 10
258.8664462292
 20
422.7189210101
 10
258.9590164538
 20
422.6268393636
 10
259.0586025432
 20
422.5356180565
 10
259.1651362461
 20
422.4453196072
 10
259.2785445497
 20
422.3560059018
 10
259.3987497296
 20
422.2677381515
 10
259.5256694031
 20
422.1805768505
 10
259.6592165859
 20
422.0945817349
 10
259.7992997513
 20
422.0098117415
 10
259.9458228934
 20
421.9263249673
 10
260.0986855925
 20
421.84417863
 10
260.2577830842
 20
421.7634290286
 10
260.423006331
 20
421.6841315049
 10
260.5942420971
 20
421.6063404054
 10
260.7713730261
 20
421.5301090442
 10
260.9542777213
 20
421.4554896666
 10
261.142830829
 20
421.3825334129
 10
261.3369031242
 20
421.3112902836
 10
261.5363615996
 20
421.2418091053
 10
261.7410695562
 20
421.1741374969
 10
261.9508866975
 20
421.1083218372
 10
262.1656692252
 20
421.0444072328
 10
262.3852699381
 20
420.9824374877
 10
262.6095383329
 20
420.9224550729
 10
262.8383207072
 20
420.8645010973
 10
263.071460265
 20
420.8086152796
 10
263.3087972242
 20
420.7548359212
 10
263.5501689257
 20
420.7031998798
 10
263.7954099455
 20
420.6537425441
 10
264.0443522077
 20
420.6064978098
 10
264.2968250996
 20
420.5614980561
 10
264.552655589
 20
420.5187741234
 10
264.8116683424
 20
420.4783552926
 10
265.0736858454
 20
420.4402692649
 10
265.3385285243
 20
420.4045421425
 10
265.6060148692
 20
420.3711984108
 10
265.8759615582
 20
420.3402609222
 10
266.1481835835
 20
420.3117508795
 10
266.4224943775
 20
420.2856878222
 10
266.6987059415
 20
420.2620896126
 10
266.9766289738
 20
420.2409724236
 10
267.2560729998
 20
420.222350728
 10
267.5368465025
 20
420.2062372882
 10
267.8187570539
 20
420.1926431474
 10
268.1016114465
 20
420.1815776225
 10
268.385215826
 20
420.1730482971
 10
268.6693758243
 20
420.167061017
 10
268.9538966921
 20
420.1636198853
 10
269.2385834331
 20
420.1627272606
 10
269.5232409372
 20
420.1643837546
 10
269.8076741145
 20
420.168588232
 10
270.0916880285
 20
420.1753378113
 10
270.3750880304
 20
420.1846278666
 10
270.657679892
 20
420.196452031
 10
270.9392699388
 20
420.2108022009
 10
271.2196651833
 20
420.2276685413
 10
271.4986734564
 20
420.2470394928
 10
271.7761035398
 20
420.2689017796
 10
272.0517652968
 20
420.2932404185
 10
272.3254698026
 20
420.3200387288
 10
272.5970294739
 20
420.3492783443
 10
272.8662581971
 20
420.3809392258
 10
273.1329714563
 20
420.4149996744
 10
273.3969864597
 20
420.4514363467
 10
273.6581222645
 20
420.490224271
 10
273.9161999013
 20
420.5313368638
 10
274.1710424966
 20
420.5747459488
 10
274.4224753939
 20
420.6204217753
 10
274.6703262737
 20
420.6683330397
 10
274.9144252715
 20
420.7184469057
 10
275.1546050939
 20
420.770729028
 10
275.3907011337
 20
420.8251435749
 10
275.6225515825
 20
420.8816532534
 10
275.8499975415
 20
420.9402193347
 10
276.0728831307
 20
421.0008016804
 10
276.2910555954
 20
421.0633587705
 10
276.504365411
 20
421.1278477314
 10
276.7126663858
 20
421.1942243656
 10
276.9158157606
 20
421.262443182
 10
277.113674307
 20
421.3324574266
 10
277.3061064226
 20
421.4042191154
 10
277.4929802241
 20
421.4776790663
 10
277.6741676374
 20
421.5527869336
 10
277.8495444858
 20
421.6294912421
 10
278.0189905748
 20
421.7077394226
 10
278.1823897745
 20
421.7874778475
 10
278.3396300992
 20
421.8686518683
 10
278.4906037842
 20
421.9512058523
 10
278.6352073598
 20
422.035083221
 10
278.7733417219
 20
422.1202264892
 10
278.9049122
 20
422.2065773039
 10
279.0298286223
 20
422.2940764845
 10
279.1480053775
 20
422.3826640636
 10
279.2593614729
 20
422.4722793275
 10
279.3638205908
 20
422.5628608585
 10
279.46131114
 20
422.6543465765
 10
279.5517663054
 20
422.7466737818
 10
279.6351240936
 20
422.8397791979
 10
279.7113273753
 20
422.933599015
 10
279.7803239245
 20
423.0280689337
 10
279.8420664545
 20
423.123124209
 10
279.89651265
 20
423.2186996948
 10
279.9436251963
 20
423.3147298885
 10
279.9833718049
 20
423.4111489757
 10
280.0157252354
 20
423.5078908756
 10
280.0406633143
 20
423.6048892861
 10
280.0581689505
 20
423.7020777294
 10
280.0682301462
 20
423.7993895974
 10
280.0708400063
 20
423.8967581974
 10
280.0659967418
 20
423.9941167978
 10
280.0537036723
 20
424.0913986738
 10
280.0339692227
 20
424.1885371534
 10
280.0068069181
 20
424.2854656627
 10
279.9722353741
 20
424.3821177717
 10
279.9302782844
 20
424.4784272398
 10
279.9059151268
 20
424.5276448193
  0
ARC
  5
9C
330
1F
100
AcDbEntity
  8
0
  6
Continuous
 62
     7
370
    30
100
AcDbCircle
 10
270.8689409069
 20
441.2025341234
 30
0.0
 40
17.50568134755578
100
AcDbArc
 50
271.0576840424
 51
296.5024178859
  0
ARC
  5
9D
330
1F
100
AcDbEntity
  8
0
  6
Continuous
 62
     7
370
    30
100
AcDbCircle
 10
268.7947718482
 20
445.516428963
 30
0.0
 40
21.9479118165025
100
AcDbArc
 50
245.5519940886
 51
276.2707632833
  0
ARC
  5
9E
330
1F
100
AcDbEntity
  8
0
  6
Continuous
 62
     7
370
    30
100
AcDbCircle
 10
269.1959236781
 20
447.4422053702
 30
0.0
 40
23.07696918352653
100
AcDbArc
 50
248.3063270803
 51
291.6936729197
  0
LINE
  5
9F
330
1F
100
AcDbEntity
  8
0
  6
Continuous
 62
     7
370
    30
100
AcDbLine
 10
420.2967871165
 20
313.9479084926
 30
0.0
 11
420.2967871165
 21
454.0520915074
 31
0.0
  0
LINE
  5
A0
330
1F
100
AcDbEntity
  8
0
  6
Continuous
 62
     7
370
    30
100
AcDbLine
 10
396.2967871165
 20
454.0520915074
 30
0.0
 11
396.2967871165
 21
313.9479084926
 31
0.0
  0
ARC
  5
A1
330
1F
100
AcDbEntity
  8
0
  6
Continuous
 62
     7
370
    30
100
AcDbCircle
 10
448.2967871165
 20
454.0520915074
 30
0.0
 40
52.00000000000011
100
AcDbArc
 50
20.0000000001
 51
180.0
  0
ARC
  5
A2
330
1F
100
AcDbEntity
  8
0
  6
Continuous
 62
     7
370
    30
100
AcDbCircle
 10
448.2967871165
 20
454.0520915074
 30
0.0
 40
28.00000000000011
100
AcDbArc
 50
90.0
 51
180.0
  0
ARC
  5
A3
330
1F
100
AcDbEntity
  8
0
  6
Continuous
 62
     7
370
    30
100
AcDbCircle
 10
448.2967871165
 20
454.0520915074
 30
0.0
 40
28.00000000000011
100
AcDbArc
 50
20.0000000001
 51
90.0
  0
LINE
  5
A4
330
1F
100
AcDbEntity
  8
0
  6
Continuous
 62
     7
370
    30
100
AcDbLine
 10
474.6081804986
 20
463.6286555207
 30
0.0
 11
479.3171413896
 21
450.6908918036
 31
0.0
  0
LINE
  5
A5
330
1F
100
AcDbEntity
  8
0
  6
Continuous
 62
     7
370
    30
100
AcDbLine
 10
501.8697642885
 20
458.8993752434
 30
0.0
 11
497.1608033975
 21
471.8371389605
 31
0.0
  0
ARC
  5
A6
330
1F
100
AcDbEntity
  8
0
  6
Continuous
 62
     7
370
    30
100
AcDbCircle
 10
430.9635387874
 20
312.9479084926
 30
0.0
 40
1.000000000000057
100
AcDbArc
 50
0.0
 51
90.0
  0
ARC
  5
A7
330
1F
100
AcDbEntity
  8
0
  6
Continuous
 62
     7
370
    30
100
AcDbCircle
 10
384.9635387874
 20
312.9479084926
 30
0.0
 40
1.0
100
AcDbArc
 50
90.0
 51
180.0
  0
LINE
  5
A8
330
1F
100
AcDbEntity
  8
0
  6
Continuous
 62
     7
370
    30
100
AcDbLine
 10
431.9635387874
 20
305.9479084926
 30
0.0
 11
431.9635387874
 21
312.9479084926
 31
0.0
  0
LINE
  5
A9
330
1F
100
AcDbEntity
  8
0
  6
Continuous
 62
     7
370
    30
100
AcDbLine
 10
383.9635387874
 20
312.9479084926
 30
0.0
 11
383.9635387874
 21
305.9479084926
 31
0.0
  0
ARC
  5
AA
330
1F
100
AcDbEntity
  8
0
  6
Continuous
 62
     7
370
    30
100
AcDbCircle
 10
501.5709280497
 20
458.2585188613
 30
0.0
 40
0.499999999999995
100
AcDbArc
 50
20.0
 51
110.0
  0
ARC
  5
AB
330
1F
100
AcDbEntity
  8
0
  6
Continuous
 62
     7
370
    30
100
AcDbCircle
 10
479.9579977717
 20
450.3920555648
 30
0.0
 40
0.4999999999999999
100
AcDbArc
 50
110.0
 51
200.0
  0
ARC
  5
AC
330
1F
100
AcDbEntity
  8
0
  6
Continuous
 62
     7
370
    30
100
AcDbCircle
 10
512.9684904941
 20
427.8211147288
 30
0.0
 40
0.200000000001046
100
AcDbArc
 50
290.0
 51
20.0
  0
ARC
  5
AD
330
1F
100
AcDbEntity
  8
0
  6
Continuous
 62
     7
370
    30
100
AcDbCircle
 10
490.7917446435
 20
419.7494393463
 30
0.0
 40
0.2000000000009926
100
AcDbArc
 50
200.0
 51
290.0
  0
LINE
  5
AE
330
1F
100
AcDbEntity
  8
0
  6
Continuous
 62
     7
370
    30
100
AcDbLine
 10
513.1564290182
 20
427.8895187575
 30
0.0
 11
502.0407743601
 21
458.429528933
 31
0.0
  0
LINE
  5
AF
330
1F
100
AcDbEntity
  8
0
  6
Continuous
 62
     7
370
    30
100
AcDbLine
 10
479.4881514613
 20
450.2210454932
 30
0.0
 11
490.6038061194
 21
419.6810353176
 31
0.0
  0
LINE
  5
B0
330
1F
100
AcDbEntity
  8
0
  6
Continuous
 62
     7
370
    30
100
AcDbLine
 10
479.3171413896
 20
450.6908918036
 30
0.0
 11
501.8697642885
 21
458.8993752434
 31
0.0
  0
SPLINE
  5
B1
330
1F
100
AcDbEntity
  8
0
  6
Continuous
 62
     7
370
    30
100
AcDbSpline
210
0.0
220
0.0
230
1.0
 70
    24
 71
     3
 72
   143
 73
   139
 74
     0
 42
0.000000001
 43
0.00000001
 40
0.0
 40
0.0
 40
0.0
 40
0.0
 40
0.0073747143299445
 40
0.0164668149012703
 40
0.0244698329042112
 40
0.0324769873897177
 40
0.0404904919903056
 40
0.0436409045312617
 40
0.0467927716200298
 40
0.0499462266915972
 40
0.0531014029794797
 40
0.0562584334992764
 40
0.0594174510323594
 40
0.0678284128148047
 40
0.0762280950945864
 40
0.0846190270848191
 40
0.0930037459170786
 40
0.1013847943655298
 40
0.1097647185455228
 40
0.1181460655970106
 40
0.1247340982764461
 40
0.1313258144726626
 40
0.1379224455267564
 40
0.1445252200301314
 40
0.151135363148644
 40
0.1574822256171411
 40
0.1637110642151859
 40
0.1724226029449442
 40
0.181126462204397
 40
0.1898254796112315
 40
0.1985224975224596
 40
0.2072203602553267
 40
0.215766481767535
 40
0.2243188515360549
 40
0.2328801541601148
 40
0.241453065847001
 40
0.2507061429572656
 40
0.2599468994031527
 40
0.269178710296919
 40
0.2784049605681113
 40
0.2876290412679668
 40
0.2968543458402063
 40
0.3030697513016455
 40
0.3092882854147965
 40
0.315510981595406
 40
0.3217388711873419
 40
0.3279729829569473
 40
0.3344738554421751
 40
0.3410782669946139
 40
0.3503138394934456
 40
0.3595401716566198
 40
0.3687606444465638
 40
0.3779786452729799
 40
0.3871975642704741
 40
0.3939606988916934
 40
0.400727485017625
 40
0.4074992555775004
 40
0.4101612664678332
 40
0.4128243324173822
 40
0.4154885338221778
 40
0.4181539509755057
 40
0.4208206640608345
 40
0.423488753144794
 40
0.4326172267621093
 40
0.4417319438259472
 40
0.4508361358087948
 40
0.4599330453995414
 40
0.4690259230781878
 40
0.4781180236490332
 40
0.4842425220266108
 40
0.4903691385036612
 40
0.4964988659568833
 40
0.502632695752265
 40
0.5087716172683496
 40
0.5149166174242965
 40
0.5210686802138446
 40
0.5303925666068735
 40
0.5397017805966389
 40
0.5489997641167325
 40
0.5582899715831016
 40
0.5675758660899324
 40
0.576860915557294
 40
0.585617748609024
 40
0.5943798194218506
 40
0.6031500280107771
 40
0.6119312663282782
 40
0.6207264154467074
 40
0.6300503020370446
 40
0.639359516151385
 40
0.6486574997398701
 40
0.6579477072351194
 40
0.6672336017480769
 40
0.6765186512156192
 40
0.6827731668464593
 40
0.6890299315654796
 40
0.6952900032184424
 40
0.7015544379758301
 40
0.7078242898032021
 40
0.7141006099370966
 40
0.7203844463677613
 40
0.7295129205295477
 40
0.7386276379372086
 40
0.7477318301088813
 40
0.7568287397794285
 40
0.7659216174750516
 40
0.7750137180463792
 40
0.7830167360493332
 40
0.7910238905348632
 40
0.799037395135485
 40
0.8021878076764573
 40
0.8053396747652432
 40
0.8084931298368299
 40
0.8116483061247334
 40
0.8148053366445525
 40
0.8179643541776596
 40
0.8263753159601582
 40
0.8347749982399827
 40
0.8431659302302474
 40
0.8515506490625283
 40
0.8599316975109905
 40
0.8683116216909844
 40
0.8766929687424626
 40
0.8832810014218838
 40
0.88987271761808
 40
0.8964693486721473
 40
0.9030721231754902
 40
0.909682266293965
 40
0.9160296581451988
 40
0.9222591531773865
 40
0.9309714236642364
 40
0.9396757962351622
 40
0.9483751087253091
 40
0.9570722039230902
 40
0.9657699267910372
 40
0.9743157003972549
 40
0.9828675146325706
 40
0.9914280553000152
 40
1.0
 40
1.0
 40
1.0
 40
1.0
 10
430.9631895792183
 20
313.9479084925512
 30
0.0
 10
430.9629351300147
 20
313.9479084925512
 30
0.0
 10
430.9623669767613
 20
313.9479084925512
 30
0.0
 10
430.952118425192
 20
313.9479084925512
 30
0.0
 10
430.9353503206179
 20
313.9479084925512
 30
0.0
 10
430.9127648520231
 20
313.9479084925512
 30
0.0
 10
430.8897388740201
 20
313.9479084925512
 30
0.0
 10
430.8699210298319
 20
313.9479084925512
 30
0.0
 10
430.8558587197647
 20
313.9479084925512
 30
0.0
 10
430.8408168921188
 20
313.9479084925512
 30
0.0
 10
430.8247958755445
 20
313.9479084925512
 30
0.0
 10
430.8077954311606
 20
313.9479084925512
 30
0.0
 10
430.7798567037284
 20
313.9479084925512
 30
0.0
 10
430.7382367204227
 20
313.9479084925512
 30
0.0
 10
430.6788446386167
 20
313.9479084925512
 30
0.0
 10
430.6126561024982
 20
313.9479084925512
 30
0.0
 10
430.539670853327
 20
313.9479084925512
 30
0.0
 10
430.4598889461116
 20
313.9479084925512
 30
0.0
 10
430.3733104735663
 20
313.9479084925512
 30
0.0
 10
430.2866088572496
 20
313.9479084925512
 30
0.0
 10
430.2013815410214
 20
313.9479084925512
 30
0.0
 10
430.1190571028725
 20
313.9479084925512
 30
0.0
 10
430.0325373178109
 20
313.9479084925512
 30
0.0
 10
429.9418223151684
 20
313.9479084925512
 30
0.0
 10
429.8482126638944
 20
313.9479084925512
 30
0.0
 10
429.7525408005358
 20
313.9479084925512
 30
0.0
 10
429.6422435757471
 20
313.9479084925512
 30
0.0
 10
429.5142690898375
 20
313.9479084925512
 30
0.0
 10
429.3659150997478
 20
313.9479084925512
 30
0.0
 10
429.2106756021556
 20
313.9479084925512
 30
0.0
 10
429.048550793962
 20
313.9479084925512
 30
0.0
 10
428.8805472623632
 20
313.9479084925512
 30
0.0
 10
428.7068083950118
 20
313.9479084925512
 30
0.0
 10
428.5274741482359
 20
313.9479084925512
 30
0.0
 10
428.3414981644624
 20
313.9479084925512
 30
0.0
 10
428.1438959327213
 20
313.9479084925512
 30
0.0
 10
427.9343014232916
 20
313.9479084925512
 30
0.0
 10
427.7123062519593
 20
313.9479084925512
 30
0.0
 10
427.4833004768602
 20
313.9479084925512
 30
0.0
 10
427.2472836338653
 20
313.9479084925512
 30
0.0
 10
427.0042563413658
 20
313.9479084925512
 30
0.0
 10
426.7814485317468
 20
313.9479084925512
 30
0.0
 10
426.5812884996534
 20
313.9479084925512
 30
0.0
 10
426.4057836594069
 20
313.9479084925512
 30
0.0
 10
426.2270998279828
 20
313.9479084925512
 30
0.0
 10
426.0452369798712
 20
313.9479084925512
 30
0.0
 10
425.8576272159043
 20
313.9479084925512
 30
0.0
 10
425.6631688938269
 20
313.9479084925512
 30
0.0
 10
425.434850776564
 20
313.9479084925512
 30
0.0
 10
425.173723422488
 20
313.9479084925512
 30
0.0
 10
424.8790529667511
 20
313.9479084925512
 30
0.0
 10
424.5783792765765
 20
313.9479084925512
 30
0.0
 10
424.2717032792229
 20
313.9479084925512
 30
0.0
 10
423.9868331843521
 20
313.9479084925512
 30
0.0
 10
423.7255035539094
 20
313.9479084925512
 30
0.0
 10
423.4891838395658
 20
313.9479084925512
 30
0.0
 10
423.2981672804293
 20
313.9479084925512
 30
0.0
 10
423.1542941320647
 20
313.9479084925512
 30
0.0
 10
423.0588135597919
 20
313.9479084925512
 30
0.0
 10
422.9628349855664
 20
313.9479084925512
 30
0.0
 10
422.8663583851396
 20
313.9479084925512
 30
0.0
 10
422.7693836575476
 20
313.9479084925512
 30
0.0
 10
422.5932580445738
 20
313.9479084925512
 30
0.0
 10
422.3360378229972
 20
313.9479084925512
 30
0.0
 10
421.9945497993794
 20
313.9479084925512
 30
0.0
 10
421.6484654036924
 20
313.9479084925512
 30
0.0
 10
421.2977856081785
 20
313.9479084925512
 30
0.0
 10
420.9425108355728
 20
313.9479084925512
 30
0.0
 10
420.6218204465064
 20
313.9479084925512
 30
0.0
 10
420.3373219986814
 20
313.9479084925512
 30
0.0
 10
420.0903112808371
 20
313.9479084925512
 30
0.0
 10
419.8412170262671
 20
313.9479084925512
 30
0.0
 10
419.5900389851916
 20
313.9479084925512
 30
0.0
 10
419.3367773466743
 20
313.9479084925512
 30
0.0
 10
419.0814317325958
 20
313.9479084925512
 30
0.0
 10
418.7798773262521
 20
313.9479084925512
 30
0.0
 10
418.4312383356831
 20
313.9479084925512
 30
0.0
 10
418.0344719678874
 20
313.9479084925512
 30
0.0
 10
417.6344474086573
 20
313.9479084925512
 30
0.0
 10
417.2311652607196
 20
313.9479084925512
 30
0.0
 10
416.8246256726314
 20
313.9479084925512
 30
0.0
 10
416.422637009053
 20
313.9479084925512
 30
0.0
 10
416.025419666588
 20
313.9479084925512
 30
0.0
 10
415.6331690929632
 20
313.9479084925512
 30
0.0
 10
415.2380234726651
 20
313.9479084925512
 30
0.0
 10
414.8399825775159
 20
313.9479084925512
 30
0.0
 10
414.431269021561
 20
313.9479084925512
 30
0.0
 10
414.0122562243861
 20
313.9479084925512
 30
0.0
 10
413.5833206800534
 20
313.9479084925512
 30
0.0
 10
413.1528166228526
 20
313.9479084925512
 30
0.0
 10
412.7207439855156
 20
313.9479084925512
 30
0.0
 10
412.2871036584033
 20
313.9479084925512
 30
0.0
 10
411.8992775303096
 20
313.9479084925512
 30
0.0
 10
411.557832227046
 20
313.9479084925512
 30
0.0
 10
411.2631677648915
 20
313.9479084925512
 30
0.0
 10
410.9677925868552
 20
313.9479084925512
 30
0.0
 10
410.6717063799875
 20
313.9479084925512
 30
0.0
 10
410.3749093439486
 20
313.9479084925512
 30
0.0
 10
410.0774011453565
 20
313.9479084925512
 30
0.0
 10
409.7343207412309
 20
313.9479084925512
 30
0.0
 10
409.3458503103705
 20
313.9479084925512
 30
0.0
 10
408.91221934188
 20
313.9479084925512
 30
0.0
 10
408.4787494268587
 20
313.9479084925512
 30
0.0
 10
408.0454412326033
 20
313.9479084925512
 30
0.0
 10
407.612294997344
 20
313.9479084925512
 30
0.0
 10
407.1966355009559
 20
313.9479084925512
 30
0.0
 10
406.7984531100911
 20
313.9479084925512
 30
0.0
 10
406.4177023466298
 20
313.9479084925512
 30
0.0
 10
406.1141995227517
 20
313.9479084925512
 30
0.0
 10
405.8877862911126
 20
313.9479084925512
 30
0.0
 10
405.7383258320687
 20
313.9479084925512
 30
0.0
 10
405.5888848362003
 20
313.9479084925512
 30
0.0
 10
405.4394632071084
 20
313.9479084925512
 30
0.0
 10
405.2900608590919
 20
313.9479084925512
 30
0.0
 10
405.0579287097497
 20
313.9479084925512
 30
0.0
 10
404.7436159670976
 20
313.9479084925512
 30
0.0
 10
404.3479282896898
 20
313.9479084925512
 30
0.0
 10
403.9537422131518
 20
313.9479084925512
 30
0.0
 10
403.5610588855331
 20
313.9479084925512
 30
0.0
 10
403.1698780577967
 20
313.9479084925512
 30
0.0
 10
402.7802002386172
 20
313.9479084925512
 30
0.0
 10
402.4197681039156
 20
313.9479084925512
 30
0.0
 10
402.0882329934487
 20
313.9479084925512
 30
0.0
 10
401.7852376431674
 20
313.9479084925512
 30
0.0
 10
401.4831702231923
 20
313.9479084925512
 30
0.0
 10
401.1820305025119
 20
313.9479084925512
 30
0.0
 10
400.8859263243639
 20
313.9479084925512
 30
0.0
 10
400.596719554729
 20
313.9479084925512
 30
0.0
 10
400.2772300591805
 20
313.9479084925512
 30
0.0
 10
399.9242906073196
 20
313.9479084925512
 30
0.0
 10
399.537102110468
 20
313.9479084925512
 30
0.0
 10
399.1528810830814
 20
313.9479084925512
 30
0.0
 10
398.7716265054253
 20
313.9479084925512
 30
0.0
 10
398.3955973870367
 20
313.9479084925512
 30
0.0
 10
398.0247108713989
 20
313.9479084925512
 30
0.0
 10
397.658986043961
 20
313.9479084925512
 30
0.0
 10
397.2958774189202
 20
313.9479084925512
 30
0.0
 10
397.0565131825896
 20
313.9479084925512
 30
0.0
 10
396.9367513994638
 20
313.9479084925512
 30
0.0
  0
SPLINE
  5
B2
330
1F
100
AcDbEntity
  8
0
  6
Continuous
 62
     7
370
    30
100
AcDbSpline
210
0.0
220
0.0
230
1.0
 70
    24
 71
     3
 72
    76
 73
    72
 74
     0
 42
0.000000001
 43
0.00000001
 40
0.0
 40
0.0
 40
0.0
 40
0.0
 40
0.0178963897183628
 40
0.0357684901512689
 40
0.0536228250392503
 40
0.0714659376089917
 40
0.0893043834363804
 40
0.1071447232418006
 40
0.1191641076400987
 40
0.1311893271756573
 40
0.1432223802038068
 40
0.1552652611802877
 40
0.1673199596827249
 40
0.1798914578078272
 40
0.1926636308089327
 40
0.2105241667223112
 40
0.228366832888326
 40
0.246198167699791
 40
0.2640247220178082
 40
0.28185305197313
 40
0.2949321771495037
 40
0.3080183639163543
 40
0.321114190005644
 40
0.3262622131643295
 40
0.3314122766862936
 40
0.3365645360482208
 40
0.3417191465280983
 40
0.3468762631915407
 40
0.3520360408782095
 40
0.3696894598617618
 40
0.387316275251715
 40
0.404922736344517
 40
0.4225151141278475
 40
0.4400996946565014
 40
0.4576827723479696
 40
0.469526848417644
 40
0.4813750206482985
 40
0.4932292091493735
 40
0.5050913311087671
 40
0.5169632998708886
 40
0.5288470240239809
 40
0.5407444064988594
 40
0.5587757313348332
 40
0.5767786814289819
 40
0.5947599130853453
 40
0.6127261067474034
 40
0.6306839596413529
 40
0.6486401783260953
 40
0.6655748871626526
 40
0.6825197252272931
 40
0.6994803008157804
 40
0.716462206631874
 40
0.733471014338428
 40
0.7515023395560767
 40
0.7695052898912218
 40
0.7874865216799078
 40
0.805452715397857
 40
0.8234105683036739
 40
0.8413667869887614
 40
0.8534623014853988
 40
0.8655621654601225
 40
0.8776684246650752
 40
0.8897831216126011
 40
0.9019082945509761
 40
0.9140459764508627
 40
0.9261981940049704
 40
0.9438516140414434
 40
0.9614784300962914
 40
0.9790848915542446
 40
0.9966772694918904
 40
0.9999999999999999
 40
0.9999999999999999
 40
0.9999999999999999
 40
0.9999999999999999
 10
396.9367513994638
 20
313.9479084925512
 30
0.0
 10
396.8082028712218
 20
313.9479084925512
 30
0.0
 10
396.5512802829935
 20
313.9479084925512
 30
0.0
 10
396.1713538726342
 20
313.9479084925512
 30
0.0
 10
395.7958295756117
 20
313.9479084925512
 30
0.0
 10
395.4250722000814
 20
313.9479084925512
 30
0.0
 10
395.058984809952
 20
313.9479084925512
 30
0.0
 10
394.7369491635523
 20
313.9479084925512
 30
0.0
 10
394.4573457940137
 20
313.9479084925512
 30
0.0
 10
394.2187522471932
 20
313.9479084925512
 30
0.0
 10
393.9822858702902
 20
313.9479084925512
 30
0.0
 10
393.7479463188754
 20
313.9479084925512
 30
0.0
 10
393.5125046756963
 20
313.9479084925512
 30
0.0
 10
393.2749015794776
 20
313.9479084925512
 30
0.0
 10
393.0034661610565
 20
313.9479084925512
 30
0.0
 10
392.7031336621531
 20
313.9479084925512
 30
0.0
 10
392.3770347892294
 20
313.9479084925512
 30
0.0
 10
392.0568443785027
 20
313.9479084925512
 30
0.0
 10
391.7425633651044
 20
313.9479084925512
 30
0.0
 10
391.4616170706876
 20
313.9479084925512
 30
0.0
 10
391.2123136955165
 20
313.9479084925512
 30
0.0
 10
390.9931254325105
 20
313.9479084925512
 30
0.0
 10
390.8208768731819
 20
313.9479084925512
 30
0.0
 10
390.6936609086381
 20
313.9479084925512
 30
0.0
 10
390.6101654307055
 20
313.9479084925512
 30
0.0
 10
390.5271602792237
 20
313.9479084925512
 30
0.0
 10
390.4446454148714
 20
313.9479084925512
 30
0.0
 10
390.362620799786
 20
313.9479084925512
 30
0.0
 10
390.215294451313
 20
313.9479084925512
 30
0.0
 10
390.0053699012427
 20
313.9479084925512
 30
0.0
 10
389.7372114910909
 20
313.9479084925512
 30
0.0
 10
389.475840692133
 20
313.9479084925512
 30
0.0
 10
389.2212585216703
 20
313.9479084925512
 30
0.0
 10
388.9734651689241
 20
313.9479084925512
 30
0.0
 10
388.758699180017
 20
313.9479084925512
 30
0.0
 10
388.5746273911637
 20
313.9479084925512
 30
0.0
 10
388.4192369940493
 20
313.9479084925512
 30
0.0
 10
388.2669252726285
 20
313.9479084925512
 30
0.0
 10
388.1176920583242
 20
313.9479084925512
 30
0.0
 10
387.9715374010157
 20
313.9479084925512
 30
0.0
 10
387.8284613182633
 20
313.9479084925512
 30
0.0
 10
387.664466464155
 20
313.9479084925512
 30
0.0
 10
387.4819695337474
 20
313.9479084925512
 30
0.0
 10
387.2838928171328
 20
313.9479084925512
 30
0.0
 10
387.0937220543925
 20
313.9479084925512
 30
0.0
 10
386.9114579430478
 20
313.9479084925512
 30
0.0
 10
386.7371004530822
 20
313.9479084925512
 30
0.0
 10
386.5738212510078
 20
313.9479084925512
 30
0.0
 10
386.4211040567785
 20
313.9479084925512
 30
0.0
 10
386.2784382896052
 20
313.9479084925512
 30
0.0
 10
386.1428012022073
 20
313.9479084925512
 30
0.0
 10
386.014193195218
 20
313.9479084925512
 30
0.0
 10
385.8902539160417
 20
313.9479084925512
 30
0.0
 10
385.7716384748956
 20
313.9479084925512
 30
0.0
 10
385.6590658868097
 20
313.9479084925512
 30
0.0
 10
385.5548991339236
 20
313.9479084925512
 30
0.0
 10
385.4591387807041
 20
313.9479084925512
 30
0.0
 10
385.3717848392573
 20
313.9479084925512
 30
0.0
 10
385.3014326297734
 20
313.9479084925512
 30
0.0
 10
385.2451812930496
 20
313.9479084925512
 30
0.0
 10
385.2005659954278
 20
313.9479084925512
 30
0.0
 10
385.1597627631614
 20
313.9479084925512
 30
0.0
 10
385.1227717426847
 20
313.9479084925512
 30
0.0
 10
385.0895921349635
 20
313.9479084925512
 30
0.0
 10
385.0602269854128
 20
313.9479084925512
 30
0.0
 10
385.0308194498914
 20
313.9479084925512
 30
0.0
 10
385.0037419749345
 20
313.9479084925512
 30
0.0
 10
384.9815039605866
 20
313.9479084925512
 30
0.0
 10
384.968194767403
 20
313.9479084925512
 30
0.0
 10
384.9624707130751
 20
313.9479084925512
 30
0.0
 10
384.9636937022986
 20
313.9479084925512
 30
0.0
 10
384.9638879955108
 20
313.9479084925512
 30
0.0
  0
LINE
  5
B3
330
1F
100
AcDbEntity
  8
0
  6
Continuous
 62
     7
370
    30
100
AcDbLine
 10
383.9635387874
 20
305.9479084926
 30
0.0
 11
431.9635387874
 21
305.9479084926
 31
0.0
  0
SPLINE
  5
B4
330
1F
100
AcDbEntity
  8
0
  6
Continuous
 62
     7
370
    30
100
AcDbSpline
210
0.0
220
0.0
230
1.0
 70
    24
 71
     3
 72
   116
 73
   112
 74
     0
 42
0.000000001
 43
0.00000001
 40
0.0
 40
0.0
 40
0.0
 40
0.0
 40
0.0101978660477987
 40
0.0203790619020758
 40
0.0305489451476056
 40
0.0407128912583692
 40
0.0508762851289014
 40
0.0588649974726507
 40
0.0668593032777233
 40
0.074861806492209
 40
0.0829811170379463
 40
0.0914774501889332
 40
0.1022964454571812
 40
0.1131011484099337
 40
0.1238980012049295
 40
0.1346934600535913
 40
0.1454939836671134
 40
0.1563060216801845
 40
0.167136003155824
 40
0.1743253127908047
 40
0.1815042726964647
 40
0.1886747469108282
 40
0.1958386060958608
 40
0.2029977260990075
 40
0.2101539864945121
 40
0.217309269110134
 40
0.2271495482418358
 40
0.2369964291007153
 40
0.2468547929640813
 40
0.2567295040803859
 40
0.2652954692129627
 40
0.273846907211274
 40
0.2823869737924214
 40
0.2909188372914994
 40
0.299445675187717
 40
0.3079706705797894
 40
0.3180198928056078
 40
0.3280761911755809
 40
0.3381447658873211
 40
0.3482307981499974
 40
0.3596994750623105
 40
0.3711440135152282
 40
0.3825720101979757
 40
0.3939910948136851
 40
0.405408914931373
 40
0.4168331206594885
 40
0.4282713492940282
 40
0.4397312100947966
 40
0.448117647960079
 40
0.4564904213649032
 40
0.4648524930248766
 40
0.4732068370411491
 40
0.4815564357725635
 40
0.4899042766638798
 40
0.4997445557214399
 40
0.5095914362965367
 40
0.5194497995314239
 40
0.5293245095404803
 40
0.5360867121770468
 40
0.5428400371753642
 40
0.5495860367615817
 40
0.556326268222817
 40
0.5630622928467499
 40
0.5697956748474144
 40
0.5765279802808403
 40
0.5832607759542908
 40
0.5917279227417735
 40
0.6002014286814977
 40
0.6086843955555963
 40
0.6170754833648365
 40
0.6250888081043423
 40
0.6369939612871739
 40
0.6488837214584402
 40
0.6607666784208263
 40
0.6726514367282443
 40
0.6845465970255118
 40
0.6964607374303327
 40
0.7066607761963044
 40
0.7168435272352068
 40
0.7270143430327756
 40
0.7371785949300259
 40
0.7473416646753491
 40
0.7553296789980981
 40
0.7633228959673863
 40
0.7713239193080307
 40
0.779441799282341
 40
0.7879381324335579
 40
0.7987571277020231
 40
0.8095618306549062
 40
0.8203586834499467
 40
0.8311541422985677
 40
0.8419546659119631
 40
0.8527667039248226
 40
0.8635966854001662
 40
0.8707859950351752
 40
0.8779649549408587
 40
0.8851354291552413
 40
0.8922992883402884
 40
0.8994584083434441
 40
0.9066146687389528
 40
0.913769951354574
 40
0.9236102304862643
 40
0.9334571113451222
 40
0.9433154752084557
 40
0.9531901863247152
 40
0.9617561514570829
 40
0.9703075894552284
 40
0.9788476560362522
 40
0.9873795195352498
 40
0.9959063574314305
 40
1.0
 40
1.0
 40
1.0
 40
1.0
 10
494.9366327696334
 20
421.0452196940836
 30
0.0
 10
495.0028433123056
 20
421.0693183608109
 30
0.0
 10
495.1351561649518
 20
421.117476300785
 30
0.0
 10
495.3380674812457
 20
421.1913299801119
 30
0.0
 10
495.5439752546748
 20
421.2662742806442
 30
0.0
 10
495.75321286535
 20
421.342430542819
 30
0.0
 10
495.9505059974473
 20
421.4142393703276
 30
0.0
 10
496.135100060033
 20
421.4814261145311
 30
0.0
 10
496.3063310873515
 20
421.543749111658
 30
0.0
 10
496.4803386071378
 20
421.6070826693987
 30
0.0
 10
496.6598015826201
 20
421.6724018506272
 30
0.0
 10
496.8618212175932
 20
421.7459309844947
 30
0.0
 10
497.0861260083966
 20
421.8275712517506
 30
0.0
 10
497.3304541376591
 20
421.9164994181962
 30
0.0
 10
497.5773556861914
 20
422.0063642326563
 30
0.0
 10
497.8268299388258
 20
422.097165434831
 30
0.0
 10
498.078876974852
 20
422.1889030535797
 30
0.0
 10
498.3334955735992
 20
422.2815766446143
 30
0.0
 10
498.561682022654
 20
422.3646297199332
 30
0.0
 10
498.7623899228071
 20
422.4376814213711
 30
0.0
 10
498.9347803110856
 20
422.5004263913782
 30
0.0
 10
499.1077539298656
 20
422.5633836399275
 30
0.0
 10
499.2813108978853
 20
422.6265532102361
 30
0.0
 10
499.4554510834225
 20
422.6899350543613
 30
0.0
 10
499.6301746903043
 20
422.75352924649
 30
0.0
 10
499.8273991988814
 20
422.8253130970799
 30
0.0
 10
500.0474320455517
 20
422.9053985038288
 30
0.0
 10
500.2905617200511
 20
422.9938904684136
 30
0.0
 10
500.53479393367
 20
423.0827837244198
 30
0.0
 10
500.7691169109369
 20
423.1680703133497
 30
0.0
 10
500.9931041174052
 20
423.2495949893607
 30
0.0
 10
501.2063705542604
 20
423.327217624344
 30
0.0
 10
501.4196294405412
 20
423.4048375111431
 30
0.0
 10
501.6328807474615
 20
423.4824546392805
 30
0.0
 10
501.8461245460171
 20
423.5600690345967
 30
0.0
 10
502.0720557624024
 20
423.6423012723526
 30
0.0
 10
502.3106895564752
 20
423.7291568702851
 30
0.0
 10
502.5620002223865
 20
423.8206264722305
 30
0.0
 10
502.8133000527831
 20
423.9120921303711
 30
0.0
 10
503.0758802464381
 20
424.0076635049695
 30
0.0
 10
503.3492224689302
 20
424.1071519377248
 30
0.0
 10
503.6327513055181
 20
424.2103479947991
 30
0.0
 10
503.9147517152796
 20
424.3129877500032
 30
0.0
 10
504.1952231472797
 20
424.4150710028134
 30
0.0
 10
504.4741652384122
 20
424.5165976210696
 30
0.0
 10
504.75157771281
 20
424.6175675043647
 30
0.0
 10
505.0274598017438
 20
424.7179803729039
 30
0.0
 10
505.2770588824749
 20
424.8088270087903
 30
0.0
 10
505.5006194915298
 20
424.8901964160407
 30
0.0
 10
505.6983802104659
 20
424.9621754312406
 30
0.0
 10
505.8945561318001
 20
425.0335776272861
 30
0.0
 10
506.0891476377428
 20
425.1044031432904
 30
0.0
 10
506.2821546708226
 20
425.1746519583355
 30
0.0
 10
506.4849733992379
 20
425.2484719384304
 30
0.0
 10
506.6972710610453
 20
425.3257419681327
 30
0.0
 10
506.9186550731597
 20
425.4063191588848
 30
0.0
 10
507.1378372269135
 20
425.4860949387336
 30
0.0
 10
507.3318691458795
 20
425.5567167817348
 30
0.0
 10
507.5013921911267
 20
425.618418124227
 30
0.0
 10
507.646959955729
 20
425.671400457611
 30
0.0
 10
507.7910537837369
 20
425.7238463219475
 30
0.0
 10
507.9336739917918
 20
425.7757558324843
 30
0.0
 10
508.0748204702603
 20
425.8271289493184
 30
0.0
 10
508.2144931922623
 20
425.8779656626661
 30
0.0
 10
508.352692229475
 20
425.9282659986158
 30
0.0
 10
508.5011423504357
 20
425.9822974239187
 30
0.0
 10
508.6593753799082
 20
426.0398895367246
 30
0.0
 10
508.8268489515522
 20
426.1008449318293
 30
0.0
 10
508.9913152950425
 20
426.1607057853984
 30
0.0
 10
509.1502983450087
 20
426.2185708833391
 30
0.0
 10
509.3283304970819
 20
426.283369287436
 30
0.0
 10
509.5244361350261
 20
426.3547459024196
 30
0.0
 10
509.7389403300735
 20
426.4328190445422
 30
0.0
 10
509.9477035709512
 20
426.5088026502307
 30
0.0
 10
510.1507246930719
 20
426.58269629561
 30
0.0
 10
510.3480041216846
 20
426.6545001354581
 30
0.0
 10
510.5302088201868
 20
426.7208172222565
 30
0.0
 10
510.698077042654
 20
426.7819162585137
 30
0.0
 10
510.8522853809372
 20
426.8380435035245
 30
0.0
 10
511.0016222326116
 20
426.8923976724131
 30
0.0
 10
511.1460881408057
 20
426.9449789628619
 30
0.0
 10
511.2757074329934
 20
426.9921565270051
 30
0.0
 10
511.3916155987545
 20
427.0343436492504
 30
0.0
 10
511.4948630789472
 20
427.0719226588037
 30
0.0
 10
511.5955485603575
 20
427.1085691770597
 30
0.0
 10
511.6951001928364
 20
427.1448030080547
 30
0.0
 10
511.8023188398582
 20
427.183827404129
 30
0.0
 10
511.9152062575467
 20
427.2249150639908
 30
0.0
 10
512.0307893707327
 20
427.2669838767744
 30
0.0
 10
512.1402860250923
 20
427.3068373997131
 30
0.0
 10
512.2436959252865
 20
427.3444755253122
 30
0.0
 10
512.3410188590171
 20
427.3798981763016
 30
0.0
 10
512.4322553402252
 20
427.4131055397407
 30
0.0
 10
512.5077998956167
 20
427.4406015092641
 30
0.0
 10
512.5697929173559
 20
427.4631651239093
 30
0.0
 10
512.6200168874464
 20
427.4814451540689
 30
0.0
 10
512.6673961877284
 20
427.498689809092
 30
0.0
 10
512.7119314439124
 20
427.5148993167184
 30
0.0
 10
512.7536224614734
 20
427.5300736061469
 30
0.0
 10
512.7924693078608
 20
427.5442127019269
 30
0.0
 10
512.8329731996303
 20
427.5589549129031
 30
0.0
 10
512.8737604419906
 20
427.5738002550601
 30
0.0
 10
512.9132457400582
 20
427.5881717282477
 30
0.0
 10
512.9473533940343
 20
427.6005858990558
 30
0.0
 10
512.9747895160858
 20
427.6105718308262
 30
0.0
 10
512.9963568341549
 20
427.6184216926363
 30
0.0
 10
513.0127557242558
 20
427.624390400508
 30
0.0
 10
513.0250916809329
 20
427.6288803215497
 30
0.0
 10
513.0330806540667
 20
427.6317880699727
 30
0.0
 10
513.0369691795329
 20
427.6332033774976
 30
0.0
 10
513.0366439366072
 20
427.6330849987538
 30
0.0
 10
513.0365384391747
 20
427.6330466008285
 30
0.0
  0
SPLINE
  5
B5
330
1F
100
AcDbEntity
  8
0
  6
Continuous
 62
     7
370
    30
100
AcDbSpline
210
0.0
220
0.0
230
1.0
 70
    24
 71
     3
 72
    49
 73
    45
 74
     0
 42
0.000000001
 43
0.00000001
 40
0.0
 40
0.0
 40
0.0
 40
0.0
 40
0.0112779635295211
 40
0.036853620957791
 40
0.0624472874454453
 40
0.0880721976955952
 40
0.1137415380850364
 40
0.1429297623350216
 40
0.1720565532765468
 40
0.20114124477614
 40
0.2302032547219947
 40
0.259262046471664
 40
0.2883370898456583
 40
0.3174478220563034
 40
0.3466136089627357
 40
0.3679574161822837
 40
0.3892664468237402
 40
0.4105482411123789
 40
0.4318103682501198
 40
0.4530604184550285
 40
0.4743059948890292
 40
0.4993498839100484
 40
0.5244105740470736
 40
0.5495004879950509
 40
0.5746320051123269
 40
0.5918420711459419
 40
0.6090295432484522
 40
0.6261983718951591
 40
0.6433525204417307
 40
0.660495962425415
 40
0.677632678831144
 40
0.6947666553318034
 40
0.711901879512195
 40
0.7334510940448538
 40
0.7550164928647664
 40
0.7766059701268697
 40
0.7979605389073643
 40
0.8183504325449169
 40
0.8486449090654283
 40
0.8789024113073807
 40
0.9091447950464253
 40
0.9393939488287303
 40
0.9696717465177872
 40
0.9999999999999999
 40
0.9999999999999999
 40
0.9999999999999999
 40
0.9999999999999999
 10
490.8605047557264
 20
419.5616304259616
 30
0.0
 10
490.8604173083683
 20
419.5615985977262
 30
0.0
 10
490.8601315518327
 20
419.5614945908529
 30
0.0
 10
490.8651417822855
 20
419.5633181656046
 30
0.0
 10
490.8760498517663
 20
419.5672883782089
 30
0.0
 10
490.8929465515885
 20
419.5734382740015
 30
0.0
 10
490.916516179084
 20
419.5820169168426
 30
0.0
 10
490.9477151888138
 20
419.5933724277229
 30
0.0
 10
490.9874800104037
 20
419.6078456391525
 30
0.0
 10
491.0344843380869
 20
419.624953815311
 30
0.0
 10
491.0887252754192
 20
419.6446959019786
 30
0.0
 10
491.1502034859095
 20
419.667072140653
 30
0.0
 10
491.2189188870803
 20
419.6920825013149
 30
0.0
 10
491.2948705910546
 20
419.7197266608034
 30
0.0
 10
491.3705554643731
 20
419.7472737018755
 30
0.0
 10
491.4437906011536
 20
419.7739291117662
 30
0.0
 10
491.5127122192977
 20
419.799014529268
 30
0.0
 10
491.5852547375737
 20
419.8254178466393
 30
0.0
 10
491.6614177785521
 20
419.8531389265066
 30
0.0
 10
491.7412014929459
 20
419.8821778237251
 30
0.0
 10
491.8295712020013
 20
419.9143417674321
 30
0.0
 10
491.9273266899283
 20
419.9499218552737
 30
0.0
 10
492.0353097151417
 20
419.9892244622574
 30
0.0
 10
492.1483218902343
 20
420.0303575301009
 30
0.0
 10
492.2538803993112
 20
420.0687776853784
 30
0.0
 10
492.35023010771
 20
420.1038461113159
 30
0.0
 10
492.4359057509687
 20
420.1350294952637
 30
0.0
 10
492.5236859537135
 20
420.1669788762207
 30
0.0
 10
492.6135705860839
 20
420.1996942069215
 30
0.0
 10
492.7055596748768
 20
420.2331754971194
 30
0.0
 10
492.7996531765414
 20
420.2674227309632
 30
0.0
 10
492.8958511632746
 20
420.3024359347305
 30
0.0
 10
493.002583436648
 20
420.341283305274
 30
0.0
 10
493.120533328787
 20
420.3842135551475
 30
0.0
 10
493.2504340096904
 20
420.4314935364073
 30
0.0
 10
493.3831120950651
 20
420.4797844102231
 30
0.0
 10
493.5164081875565
 20
420.5283002202341
 30
0.0
 10
493.6713136441961
 20
420.5846811955764
 30
0.0
 10
493.8498069978751
 20
420.6496474633298
 30
0.0
 10
494.0558667808556
 20
420.7246470908142
 30
0.0
 10
494.2674910595694
 20
420.8016720291141
 30
0.0
 10
494.4848010329829
 20
420.8807663910459
 30
0.0
 10
494.7073402123357
 20
420.9617640282885
 30
0.0
 10
494.8601595087907
 20
421.0173857034196
 30
0.0
 10
494.9366327696333
 20
421.0452196940836
 30
0.0
  0
ARC
  5
B6
330
1F
100
AcDbEntity
  8
0
  6
Continuous
 62
     7
370
    30
100
AcDbCircle
 10
96.7032128835
 20
454.0520915074
 30
0.0
 40
52.00000000000017
100
AcDbArc
 50
0.0
 51
90.0
  0
ARC
  5
B7
330
1F
100
AcDbEntity
  8
0
  6
Continuous
 62
     7
370
    30
100
AcDbCircle
 10
96.7032128835
 20
454.0520915074
 30
0.0
 40
52.00000000000017
100
AcDbArc
 50
90.0
 51
159.9999999999
  0
ARC
  5
B8
330
1F
100
AcDbEntity
  8
0
  6
Continuous
 62
     7
370
    30
100
AcDbCircle
 10
96.7032128835
 20
454.0520915074
 30
0.0
 40
28.00000000000009
100
AcDbArc
 50
0.0
 51
159.9999999999
  0
LINE
  5
B9
330
1F
100
AcDbEntity
  8
0
  6
Continuous
 62
     7
370
    30
100
AcDbLine
 10
148.7032128835
 20
313.9479084926
 30
0.0
 11
148.7032128835
 21
454.0520915074
 31
0.0
  0
LINE
  5
BA
330
1F
100
AcDbEntity
  8
0
  6
Continuous
 62
     7
370
    30
100
AcDbLine
 10
124.7032128835
 20
454.0520915074
 30
0.0
 11
124.7032128835
 21
313.9479084926
 31
0.0
  0
LINE
  5
BB
330
1F
100
AcDbEntity
  8
0
  6
Continuous
 62
     7
370
    30
100
AcDbLine
 10
47.8391966025
 20
471.8371389605
 30
0.0
 11
43.1302357115
 21
458.8993752434
 31
0.0
  0
LINE
  5
BC
330
1F
100
AcDbEntity
  8
0
  6
Continuous
 62
     7
370
    30
100
AcDbLine
 10
65.6828586104
 20
450.6908918036
 30
0.0
 11
70.3918195014
 21
463.6286555207
 31
0.0
  0
ARC
  5
BD
330
1F
100
AcDbEntity
  8
0
  6
Continuous
 62
     7
370
    30
100
AcDbCircle
 10
160.0364612126
 20
312.9479084926
 30
0.0
 40
1.000000000000028
100
AcDbArc
 50
0.0
 51
90.0
  0
ARC
  5
BE
330
1F
100
AcDbEntity
  8
0
  6
Continuous
 62
     7
370
    30
100
AcDbCircle
 10
114.0364612126
 20
312.9479084926
 30
0.0
 40
1.000000000000028
100
AcDbArc
 50
90.0
 51
180.0
  0
LINE
  5
BF
330
1F
100
AcDbEntity
  8
0
  6
Continuous
 62
     7
370
    30
100
AcDbLine
 10
161.0364612126
 20
305.9479084926
 30
0.0
 11
161.0364612126
 21
312.9479084926
 31
0.0
  0
LINE
  5
C0
330
1F
100
AcDbEntity
  8
0
  6
Continuous
 62
     7
370
    30
100
AcDbLine
 10
113.0364612126
 20
312.9479084926
 30
0.0
 11
113.0364612126
 21
305.9479084926
 31
0.0
  0
LINE
  5
C1
330
1F
100
AcDbEntity
  8
0
  6
Continuous
 62
     7
370
    30
100
AcDbLine
 10
46.6188167415
 20
457.0975467024
 30
0.0
 11
44.3643726447
 21
450.9035124529
 31
0.0
  0
SPLINE
  5
C2
330
1F
100
AcDbEntity
  8
0
  6
Continuous
 62
     7
370
    30
100
AcDbSpline
210
0.0
220
0.0
230
1.0
 70
     8
 71
     3
 72
    55
 73
    51
 74
     0
 42
0.000000001
 43
0.00000001
 40
0.0
 40
0.0
 40
0.0
 40
0.0
 40
0.021970216907639
 40
0.039746244489464
 40
0.0530751973846258
 40
0.0639956191037401
 40
0.072974309486994
 40
0.081842832078882
 40
0.0909969396420134
 40
0.1024374183848582
 40
0.1160447857834916
 40
0.1297467250152586
 40
0.1405053059135247
 40
0.1512170706915271
 40
0.1764533360649889
 40
0.1959848510054827
 40
0.2135393161187824
 40
0.2336644986883431
 40
0.2583821907279247
 40
0.2760711153921506
 40
0.289913928147146
 40
0.3046758910694637
 40
0.3230704816678276
 40
0.3417210912056159
 40
0.3567131783735317
 40
0.3692913598139568
 40
0.3831141490118301
 40
0.4021599602542205
 40
0.421032009060579
 40
0.4394382823435034
 40
0.4581019105929519
 40
0.4795476407324856
 40
0.5112145006135163
 40
0.5446598873203922
 40
0.575838214626098
 40
0.6049773746647151
 40
0.6324355801605852
 40
0.6573512478449428
 40
0.6787430853931726
 40
0.6979971157793096
 40
0.7210404720769693
 40
0.7457965568614362
 40
0.7737395910066137
 40
0.8022791186578638
 40
0.8309862647838884
 40
0.8598603670160397
 40
0.8961881161955869
 40
0.932125211901873
 40
0.9666694002093708
 40
1.0
 40
1.0
 40
1.0
 40
1.0
 10
44.3642711376855
 20
450.903251397647
 30
0.0
 10
44.36107327248355
 20
450.894237598516
 30
0.0
 10
44.35528802545142
 20
450.8779307652451
 30
0.0
 10
44.3478879327015
 20
450.8544782754076
 30
0.0
 10
44.3425421922532
 20
450.8362242575117
 30
0.0
 10
44.338520368572
 20
450.8215473108024
 30
0.0
 10
44.33525684928559
 20
450.8089383871534
 30
0.0
 10
44.33234455626763
 20
450.7970713171547
 30
0.0
 10
44.32932790507042
 20
450.7840586663714
 30
0.0
 10
44.32605903749617
 20
450.7689514765294
 30
0.0
 10
44.32265531308102
 20
450.7517382066511
 30
0.0
 10
44.31962091805393
 20
450.734628268252
 30
0.0
 10
44.31709615283343
 20
450.71874016761
 30
0.0
 10
44.31410835797953
 20
450.6978389588163
 30
0.0
 10
44.31118464506988
 20
450.6727399158659
 30
0.0
 10
44.30882618244883
 20
450.6443144963749
 30
0.0
 10
44.30738525743297
 20
450.6182370641862
 30
0.0
 10
44.30661318944259
 20
450.5897608234289
 30
0.0
 10
44.30679928846281
 20
450.5611472646505
 30
0.0
 10
44.30780446701227
 20
450.5352290085015
 30
0.0
 10
44.30914979307136
 20
450.5139095398989
 30
0.0
 10
44.31098440216761
 20
450.4923756534914
 30
0.0
 10
44.31361896596665
 20
450.4686323896365
 30
0.0
 10
44.31696767724584
 20
450.4447503257428
 30
0.0
 10
44.32051581402629
 20
450.423541047279
 30
0.0
 10
44.32410234679317
 20
450.4046393672838
 30
0.0
 10
44.32847317660005
 20
450.3839683123082
 30
0.0
 10
44.33407181905905
 20
450.3605265323886
 30
0.0
 10
44.34095474038437
 20
450.3351189842886
 30
0.0
 10
44.34855633165147
 20
450.3100348054054
 30
0.0
 10
44.35729499127099
 20
450.2840015476504
 30
0.0
 10
44.36904430382842
 20
450.2523986803055
 30
0.0
 10
44.38488740505824
 20
450.2147730588014
 30
0.0
 10
44.40481349021945
 20
450.1736536889169
 30
0.0
 10
44.4263857772208
 20
450.1345327053563
 30
0.0
 10
44.44847258116666
 20
450.0987711936178
 30
0.0
 10
44.47069098025145
 20
450.0662825884322
 30
0.0
 10
44.49219968413728
 20
450.037592912797
 30
0.0
 10
44.51221559642481
 20
450.0129227455889
 30
0.0
 10
44.53225378953628
 20
449.9898276451901
 30
0.0
 10
44.55417750404746
 20
449.9662429776846
 30
0.0
 10
44.58000878031881
 20
449.9405270774391
 30
0.0
 10
44.60897041260276
 20
449.9140506202157
 30
0.0
 10
44.64069548037516
 20
449.8875936506773
 30
0.0
 10
44.67408175696242
 20
449.8622558561273
 30
0.0
 10
44.71187820396673
 20
449.8362231391286
 30
0.0
 10
44.75406268432557
 20
449.8102756855798
 30
0.0
 10
44.80068383618426
 20
449.7851455634653
 30
0.0
 10
44.84822436226582
 20
449.762330208474
 30
0.0
 10
44.87968779578015
 20
449.749816197586
 30
0.0
 10
44.89513823238395
 20
449.7436710662291
 30
0.0
  0
ARC
  5
C3
330
1F
100
AcDbEntity
  8
0
  6
Continuous
 62
     7
370
    30
100
AcDbCircle
 10
47.0886630519
 20
456.9265366308
 30
0.0
 40
0.5000000000000291
100
AcDbArc
 50
70.0
 51
160.0
  0
ARC
  5
C4
330
1F
100
AcDbEntity
  8
0
  6
Continuous
 62
     7
370
    30
100
AcDbCircle
 10
54.2082553565
 20
419.7494393463
 30
0.0
 40
0.2000000000009805
100
AcDbArc
 50
250.0
 51
340.0
  0
ARC
  5
C5
330
1F
100
AcDbEntity
  8
0
  6
Continuous
 62
     7
370
    30
100
AcDbCircle
 10
32.0315095059
 20
427.8211147288
 30
0.0
 40
0.200000000001046
100
AcDbArc
 50
160.0
 51
250.0
  0
LINE
  5
C6
330
1F
100
AcDbEntity
  8
0
  6
Continuous
 62
     7
370
    30
100
AcDbLine
 10
54.3961938806
 20
419.6810353176
 30
0.0
 11
65.5118485387
 21
450.2210454932
 31
0.0
  0
LINE
  5
C7
330
1F
100
AcDbEntity
  8
0
  6
Continuous
 62
     7
370
    30
100
AcDbLine
 10
42.9592256399
 20
458.429528933
 30
0.0
 11
31.8435709818
 21
427.8895187575
 31
0.0
  0
ARC
  5
C8
330
1F
100
AcDbEntity
  8
0
  6
Continuous
 62
     7
370
    30
100
AcDbCircle
 10
65.0420022283
 20
450.3920555648
 30
0.0
 40
0.5000000000000339
100
AcDbArc
 50
340.0
 51
70.0
  0
ARC
  5
C9
330
1F
100
AcDbEntity
  8
0
  6
Continuous
 62
     7
370
    30
100
AcDbCircle
 10
43.4290719503
 20
458.2585188613
 30
0.0
 40
0.5000000000000266
100
AcDbArc
 50
70.0
 51
160.0
  0
LINE
  5
CA
330
1F
100
AcDbEntity
  8
0
  6
Continuous
 62
     7
370
    30
100
AcDbLine
 10
43.1302357115
 20
458.8993752434
 30
0.0
 11
47.2577382313
 21
457.3970871843
 31
0.0
  0
LINE
  5
CB
330
1F
100
AcDbEntity
  8
0
  6
Continuous
 62
     7
370
    30
100
AcDbLine
 10
54.344590372
 20
454.8176839505
 30
0.0
 11
55.4474840305
 21
454.4162634872
 31
0.0
  0
LINE
  5
CC
330
1F
100
AcDbEntity
  8
0
  6
Continuous
 62
     7
370
    30
100
AcDbLine
 10
56.8400980662
 20
453.9093934304
 30
0.0
 11
65.6828586104
 21
450.6908918036
 31
0.0
  0
SPLINE
  5
CD
330
1F
100
AcDbEntity
  8
0
  6
Continuous
 62
     7
370
    30
100
AcDbSpline
210
0.0
220
0.0
230
1.0
 70
    24
 71
     3
 72
    76
 73
    72
 74
     0
 42
0.000000001
 43
0.00000001
 40
0.0
 40
0.0
 40
0.0
 40
0.0
 40
0.0178963897181462
 40
0.0357684901508863
 40
0.0536228250387525
 40
0.0714659376084291
 40
0.0893043834358038
 40
0.1071447232412601
 40
0.1191641076396108
 40
0.1311893271752448
 40
0.143222380203492
 40
0.1552652611800932
 40
0.1673199596826731
 40
0.1798914578077004
 40
0.192663630808655
 40
0.2105241667218649
 40
0.2283668328877609
 40
0.2461981676991576
 40
0.2640247220171569
 40
0.2818530519725115
 40
0.2949321771489413
 40
0.3080183639158757
 40
0.3211141900052762
 40
0.3262622131640128
 40
0.3314122766860322
 40
0.3365645360480188
 40
0.3417191465279601
 40
0.3468762631914705
 40
0.3520360408782113
 40
0.369689459861506
 40
0.3873162752512542
 40
0.4049227363439047
 40
0.4225151141271366
 40
0.4400996946557451
 40
0.4576827723472209
 40
0.4695268484169302
 40
0.4813750206476436
 40
0.4932292091488011
 40
0.505091331108301
 40
0.5169632998705523
 40
0.5288470240237981
 40
0.5407444064988534
 40
0.5587757313343147
 40
0.5767786814280559
 40
0.5947599130841167
 40
0.6127261067459783
 40
0.6306839596398374
 40
0.6486401783245949
 40
0.6655748871612636
 40
0.6825197252261094
 40
0.6994803008148957
 40
0.7164622066313818
 40
0.7334710143384212
 40
0.7515023395557476
 40
0.7695052898906357
 40
0.7874865216791312
 40
0.805452715396956
 40
0.8234105683027155
 40
0.8413667869878128
 40
0.8534623014844943
 40
0.8655621654592931
 40
0.8776684246643511
 40
0.8897831216120132
 40
0.901908294550555
 40
0.9140459764506386
 40
0.926198194004974
 40
0.9438516140416066
 40
0.9614784300965812
 40
0.9790848915546281
 40
0.9966772694923348
 40
1.0
 40
1.0
 40
1.0
 40
1.0
 10
126.0096738247362
 20
313.9479084925512
 30
0.0
 10
125.8811252964958
 20
313.9479084925512
 30
0.0
 10
125.6242027082702
 20
313.9479084925512
 30
0.0
 10
125.2442762979145
 20
313.9479084925512
 30
0.0
 10
124.8687520008945
 20
313.9479084925512
 30
0.0
 10
124.4979946253656
 20
313.9479084925512
 30
0.0
 10
124.1319072352365
 20
313.9479084925512
 30
0.0
 10
123.8098715888363
 20
313.9479084925512
 30
0.0
 10
123.5302682192965
 20
313.9479084925512
 30
0.0
 10
123.2916746724743
 20
313.9479084925512
 30
0.0
 10
123.0552082955692
 20
313.9479084925512
 30
0.0
 10
122.8208687441518
 20
313.9479084925512
 30
0.0
 10
122.5854271009711
 20
313.9479084925512
 30
0.0
 10
122.3478240047525
 20
313.9479084925512
 30
0.0
 10
122.0763885863334
 20
313.9479084925512
 30
0.0
 10
121.7760560874324
 20
313.9479084925512
 30
0.0
 10
121.4499572145106
 20
313.9479084925512
 30
0.0
 10
121.1297668037851
 20
313.9479084925512
 30
0.0
 10
120.815485790387
 20
313.9479084925512
 30
0.0
 10
120.5345394959698
 20
313.9479084925512
 30
0.0
 10
120.2852361207978
 20
313.9479084925512
 30
0.0
 10
120.0660478577905
 20
313.9479084925512
 30
0.0
 10
119.8937992984606
 20
313.9479084925512
 30
0.0
 10
119.7665833339156
 20
313.9479084925512
 30
0.0
 10
119.6830878559821
 20
313.9479084925512
 30
0.0
 10
119.6000827044994
 20
313.9479084925512
 30
0.0
 10
119.5175678401461
 20
313.9479084925512
 30
0.0
 10
119.4355432250596
 20
313.9479084925512
 30
0.0
 10
119.2882168765871
 20
313.9479084925512
 30
0.0
 10
119.0782923265187
 20
313.9479084925512
 30
0.0
 10
118.8101339163701
 20
313.9479084925512
 30
0.0
 10
118.5487631174146
 20
313.9479084925512
 30
0.0
 10
118.2941809469535
 20
313.9479084925512
 30
0.0
 10
118.0463875942079
 20
313.9479084925512
 30
0.0
 10
117.8316216053008
 20
313.9479084925512
 30
0.0
 10
117.6475498164469
 20
313.9479084925512
 30
0.0
 10
117.4921594193317
 20
313.9479084925512
 30
0.0
 10
117.3398476979096
 20
313.9479084925512
 30
0.0
 10
117.1906144836037
 20
313.9479084925512
 30
0.0
 10
117.0444598262931
 20
313.9479084925512
 30
0.0
 10
116.9013837435384
 20
313.9479084925512
 30
0.0
 10
116.7373888894299
 20
313.9479084925512
 30
0.0
 10
116.5548919590242
 20
313.9479084925512
 30
0.0
 10
116.3568152424136
 20
313.9479084925512
 30
0.0
 10
116.1666444796762
 20
313.9479084925512
 30
0.0
 10
115.9843803683334
 20
313.9479084925512
 30
0.0
 10
115.8100228783687
 20
313.9479084925512
 30
0.0
 10
115.6467436762942
 20
313.9479084925512
 30
0.0
 10
115.4940264820639
 20
313.9479084925512
 30
0.0
 10
115.3513607148887
 20
313.9479084925512
 30
0.0
 10
115.2157236274879
 20
313.9479084925512
 30
0.0
 10
115.0871156204949
 20
313.9479084925512
 30
0.0
 10
114.9631763413159
 20
313.9479084925512
 30
0.0
 10
114.8445609001686
 20
313.9479084925512
 30
0.0
 10
114.7319883120835
 20
313.9479084925512
 30
0.0
 10
114.6278215591978
 20
313.9479084925512
 30
0.0
 10
114.5320612059787
 20
313.9479084925512
 30
0.0
 10
114.444707264532
 20
313.9479084925512
 30
0.0
 10
114.3743550550483
 20
313.9479084925512
 30
0.0
 10
114.3181037183243
 20
313.9479084925512
 30
0.0
 10
114.2734884207024
 20
313.9479084925512
 30
0.0
 10
114.2326851884357
 20
313.9479084925512
 30
0.0
 10
114.1956941679587
 20
313.9479084925512
 30
0.0
 10
114.162514560237
 20
313.9479084925512
 30
0.0
 10
114.1331494106858
 20
313.9479084925512
 30
0.0
 10
114.1037418751637
 20
313.9479084925512
 30
0.0
 10
114.0766644002064
 20
313.9479084925512
 30
0.0
 10
114.054426385858
 20
313.9479084925512
 30
0.0
 10
114.0411171926741
 20
313.9479084925512
 30
0.0
 10
114.0353931383461
 20
313.9479084925512
 30
0.0
 10
114.0366161275695
 20
313.9479084925512
 30
0.0
 10
114.0368104207817
 20
313.9479084925512
 30
0.0
  0
SPLINE
  5
CE
330
1F
100
AcDbEntity
  8
0
  6
Continuous
 62
     7
370
    30
100
AcDbSpline
210
0.0
220
0.0
230
1.0
 70
    24
 71
     3
 72
   143
 73
   139
 74
     0
 42
0.000000001
 43
0.00000001
 40
0.0
 40
0.0
 40
0.0
 40
0.0
 40
0.0073747143297071
 40
0.0164668149010352
 40
0.0244698329039921
 40
0.0324769873895275
 40
0.0404904919901571
 40
0.043640904531133
 40
0.0467927716199229
 40
0.0499462266915141
 40
0.0531014029794223
 40
0.0562584334992465
 40
0.0594174510323592
 40
0.0678284128151941
 40
0.0762280950952884
 40
0.0846190270857567
 40
0.093003745918175
 40
0.1013847943667086
 40
0.1097647185467076
 40
0.1181460655981256
 40
0.1247340982774533
 40
0.1313258144735159
 40
0.1379224455274096
 40
0.1445252200305388
 40
0.1511353631487603
 40
0.1574822256173666
 40
0.1637110642156651
 40
0.172422602945707
 40
0.1811264622053597
 40
0.1898254796123096
 40
0.1985224975235681
 40
0.2072203602563799
 40
0.2157664817684502
 40
0.2243188515367488
 40
0.2328801541605038
 40
0.2414530658470015
 40
0.250706142957401
 40
0.259946899403391
 40
0.2691787102972285
 40
0.2784049605684606
 40
0.2876290412683248
 40
0.2968543458405423
 40
0.3030697513019495
 40
0.3092882854150548
 40
0.3155109815956051
 40
0.3217388711874684
 40
0.3279729829569878
 40
0.3344738554423012
 40
0.3410782669948812
 40
0.3503138394938708
 40
0.3595401716571563
 40
0.3687606444471644
 40
0.3779786452735974
 40
0.3871975642710608
 40
0.3939606988922273
 40
0.4007274850180801
 40
0.4074992555778509
 40
0.4101612664681356
 40
0.4128243324176324
 40
0.4154885338223718
 40
0.4181539509756395
 40
0.4208206640609042
 40
0.4234887531447955
 40
0.4326172267621857
 40
0.4417319438260828
 40
0.4508361358089743
 40
0.4599330453997493
 40
0.4690259230784087
 40
0.4781180236492518
 40
0.4842425220268196
 40
0.490369138503853
 40
0.4964988659570517
 40
0.5026326957524029
 40
0.5087716172684507
 40
0.5149166174243541
 40
0.5210686802138521
 40
0.5303925666067607
 40
0.5397017805964309
 40
0.5489997641164543
 40
0.5582899715827784
 40
0.5675758660895881
 40
0.5768609155569532
 40
0.5856177486087084
 40
0.5943798194215812
 40
0.6031500280105747
 40
0.6119312663281632
 40
0.6207264154466998
 40
0.6300503020370758
 40
0.6393595161514459
 40
0.6486574997399527
 40
0.6579477072352156
 40
0.6672336017481791
 40
0.6765186512157203
 40
0.6827731668465558
 40
0.6890299315655688
 40
0.6952900032185212
 40
0.7015544379758961
 40
0.7078242898032528
 40
0.7141006099371295
 40
0.7203844463677743
 40
0.7295129205295511
 40
0.7386276379372052
 40
0.7477318301088735
 40
0.7568287397794181
 40
0.7659216174750401
 40
0.7750137180463679
 40
0.7830167360493225
 40
0.7910238905348533
 40
0.799037395135476
 40
0.8021878076764485
 40
0.8053396747652344
 40
0.8084931298368211
 40
0.8116483061247246
 40
0.8148053366445436
 40
0.8179643541776503
 40
0.8263753159597949
 40
0.8347749982393342
 40
0.8431659302293832
 40
0.8515506490615182
 40
0.8599316975099047
 40
0.868311621689893
 40
0.8766929687414358
 40
0.8832810014209571
 40
0.8898727176172969
 40
0.8964693486715516
 40
0.903072123175125
 40
0.9096822662938735
 40
0.9160296581451434
 40
0.9222591531772653
 40
0.9309714236640415
 40
0.9396757962349154
 40
0.9483751087250323
 40
0.9570722039228053
 40
0.9657699267907667
 40
0.9743157003970196
 40
0.9828675146323924
 40
0.9914280552999154
 40
1.0
 40
1.0
 40
1.0
 40
1.0
 10
160.0361120044892
 20
313.9479084925512
 30
0.0
 10
160.0358575552855
 20
313.9479084925512
 30
0.0
 10
160.0352894020321
 20
313.9479084925512
 30
0.0
 10
160.0250408504628
 20
313.9479084925512
 30
0.0
 10
160.0082727458888
 20
313.9479084925512
 30
0.0
 10
159.9856872772942
 20
313.9479084925512
 30
0.0
 10
159.9626612992914
 20
313.9479084925512
 30
0.0
 10
159.9428434551034
 20
313.9479084925512
 30
0.0
 10
159.9287811450363
 20
313.9479084925512
 30
0.0
 10
159.9137393173906
 20
313.9479084925512
 30
0.0
 10
159.8977183008165
 20
313.9479084925512
 30
0.0
 10
159.8807178564328
 20
313.9479084925512
 30
0.0
 10
159.8527791290004
 20
313.9479084925512
 30
0.0
 10
159.8111591456939
 20
313.9479084925512
 30
0.0
 10
159.7517670638869
 20
313.9479084925512
 30
0.0
 10
159.6855785277676
 20
313.9479084925512
 30
0.0
 10
159.6125932785959
 20
313.9479084925512
 30
0.0
 10
159.5328113713801
 20
313.9479084925512
 30
0.0
 10
159.446232898835
 20
313.9479084925512
 30
0.0
 10
159.3595312825184
 20
313.9479084925512
 30
0.0
 10
159.2743039662905
 20
313.9479084925512
 30
0.0
 10
159.1919795281422
 20
313.9479084925512
 30
0.0
 10
159.1054597430814
 20
313.9479084925512
 30
0.0
 10
159.0147447404397
 20
313.9479084925512
 30
0.0
 10
158.9211350891646
 20
313.9479084925512
 30
0.0
 10
158.8254632258019
 20
313.9479084925512
 30
0.0
 10
158.7151660010069
 20
313.9479084925512
 30
0.0
 10
158.5871915150908
 20
313.9479084925512
 30
0.0
 10
158.438837524996
 20
313.9479084925512
 30
0.0
 10
158.2835980274009
 20
313.9479084925512
 30
0.0
 10
158.1214732192065
 20
313.9479084925512
 30
0.0
 10
157.9534696876092
 20
313.9479084925512
 30
0.0
 10
157.7797308202612
 20
313.9479084925512
 30
0.0
 10
157.600396573491
 20
313.9479084925512
 30
0.0
 10
157.4144205897254
 20
313.9479084925512
 30
0.0
 10
157.2168183579897
 20
313.9479084925512
 30
0.0
 10
157.0072238485623
 20
313.9479084925512
 30
0.0
 10
156.7852286772285
 20
313.9479084925512
 30
0.0
 10
156.5562229021283
 20
313.9479084925512
 30
0.0
 10
156.3202060591328
 20
313.9479084925512
 30
0.0
 10
156.0771787666332
 20
313.9479084925512
 30
0.0
 10
155.8543709570145
 20
313.9479084925512
 30
0.0
 10
155.6542109249215
 20
313.9479084925512
 30
0.0
 10
155.4787060846758
 20
313.9479084925512
 30
0.0
 10
155.3000222532525
 20
313.9479084925512
 30
0.0
 10
155.1181594051421
 20
313.9479084925512
 30
0.0
 10
154.9305496411746
 20
313.9479084925512
 30
0.0
 10
154.7360913190943
 20
313.9479084925512
 30
0.0
 10
154.5077732018262
 20
313.9479084925512
 30
0.0
 10
154.2466458477448
 20
313.9479084925512
 30
0.0
 10
153.9519753920038
 20
313.9479084925512
 30
0.0
 10
153.6513017018266
 20
313.9479084925512
 30
0.0
 10
153.3446257044724
 20
313.9479084925512
 30
0.0
 10
153.0597556096024
 20
313.9479084925512
 30
0.0
 10
152.7984259791619
 20
313.9479084925512
 30
0.0
 10
152.5621062648213
 20
313.9479084925512
 30
0.0
 10
152.3710897056877
 20
313.9479084925512
 30
0.0
 10
152.2272165573258
 20
313.9479084925512
 30
0.0
 10
152.1317359850549
 20
313.9479084925512
 30
0.0
 10
152.0357574108316
 20
313.9479084925512
 30
0.0
 10
151.9392808104071
 20
313.9479084925512
 30
0.0
 10
151.8423060828175
 20
313.9479084925512
 30
0.0
 10
151.6661804698445
 20
313.9479084925512
 30
0.0
 10
151.4089602482674
 20
313.9479084925512
 30
0.0
 10
151.0674722246476
 20
313.9479084925512
 30
0.0
 10
150.7213878289591
 20
313.9479084925512
 30
0.0
 10
150.3707080334441
 20
313.9479084925512
 30
0.0
 10
150.0154332608381
 20
313.9479084925512
 30
0.0
 10
149.6947428717717
 20
313.9479084925512
 30
0.0
 10
149.410244423947
 20
313.9479084925512
 30
0.0
 10
149.1632337061033
 20
313.9479084925512
 30
0.0
 10
148.9141394515341
 20
313.9479084925512
 30
0.0
 10
148.6629614104596
 20
313.9479084925512
 30
0.0
 10
148.4096997719436
 20
313.9479084925512
 30
0.0
 10
148.1543541578666
 20
313.9479084925512
 30
0.0
 10
147.8527997515253
 20
313.9479084925512
 30
0.0
 10
147.5041607609596
 20
313.9479084925512
 30
0.0
 10
147.1073943931675
 20
313.9479084925512
 30
0.0
 10
146.70736983394
 20
313.9479084925512
 30
0.0
 10
146.3040876860041
 20
313.9479084925512
 30
0.0
 10
145.8975480979167
 20
313.9479084925512
 30
0.0
 10
145.4955594343382
 20
313.9479084925512
 30
0.0
 10
145.0983420918723
 20
313.9479084925512
 30
0.0
 10
144.7060915182456
 20
313.9479084925512
 30
0.0
 10
144.310945897945
 20
313.9479084925512
 30
0.0
 10
143.9129050027923
 20
313.9479084925512
 30
0.0
 10
143.5041914468344
 20
313.9479084925512
 30
0.0
 10
143.0851786496575
 20
313.9479084925512
 30
0.0
 10
142.6562431053239
 20
313.9479084925512
 30
0.0
 10
142.2257390481225
 20
313.9479084925512
 30
0.0
 10
141.793666410785
 20
313.9479084925512
 30
0.0
 10
141.3600260836724
 20
313.9479084925512
 30
0.0
 10
140.9721999555788
 20
313.9479084925512
 30
0.0
 10
140.6307546523153
 20
313.9479084925512
 30
0.0
 10
140.336090190161
 20
313.9479084925512
 30
0.0
 10
140.0407150121251
 20
313.9479084925512
 30
0.0
 10
139.7446288052579
 20
313.9479084925512
 30
0.0
 10
139.4478317692196
 20
313.9479084925512
 30
0.0
 10
139.1503235706281
 20
313.9479084925512
 30
0.0
 10
138.8072431665031
 20
313.9479084925512
 30
0.0
 10
138.4187727356431
 20
313.9479084925512
 30
0.0
 10
137.9851417671528
 20
313.9479084925512
 30
0.0
 10
137.5516718521317
 20
313.9479084925512
 30
0.0
 10
137.1183636578765
 20
313.9479084925512
 30
0.0
 10
136.6852174226172
 20
313.9479084925512
 30
0.0
 10
136.2695579262291
 20
313.9479084925512
 30
0.0
 10
135.8713755353643
 20
313.9479084925512
 30
0.0
 10
135.4906247719028
 20
313.9479084925512
 30
0.0
 10
135.1871219480247
 20
313.9479084925512
 30
0.0
 10
134.9607087163855
 20
313.9479084925512
 30
0.0
 10
134.8112482573414
 20
313.9479084925512
 30
0.0
 10
134.661807261473
 20
313.9479084925512
 30
0.0
 10
134.512385632381
 20
313.9479084925512
 30
0.0
 10
134.3629832843644
 20
313.9479084925512
 30
0.0
 10
134.1308511350276
 20
313.9479084925512
 30
0.0
 10
133.8165383923853
 20
313.9479084925512
 30
0.0
 10
133.4208507149908
 20
313.9479084925512
 30
0.0
 10
133.0266646384626
 20
313.9479084925512
 30
0.0
 10
132.6339813108507
 20
313.9479084925512
 30
0.0
 10
132.2428004831178
 20
313.9479084925512
 30
0.0
 10
131.8531226639386
 20
313.9479084925512
 30
0.0
 10
131.4926905292346
 20
313.9479084925512
 30
0.0
 10
131.161155418763
 20
313.9479084925512
 30
0.0
 10
130.8581600684751
 20
313.9479084925512
 30
0.0
 10
130.5560926484913
 20
313.9479084925512
 30
0.0
 10
130.2549529278003
 20
313.9479084925512
 30
0.0
 10
129.958848749644
 20
313.9479084925512
 30
0.0
 10
129.6696419800051
 20
313.9479084925512
 30
0.0
 10
129.350152484458
 20
313.9479084925512
 30
0.0
 10
128.9972130325998
 20
313.9479084925512
 30
0.0
 10
128.6100245357504
 20
313.9479084925512
 30
0.0
 10
128.225803508365
 20
313.9479084925512
 30
0.0
 10
127.8445489307093
 20
313.9479084925512
 30
0.0
 10
127.4685198123201
 20
313.9479084925512
 30
0.0
 10
127.0976332966808
 20
313.9479084925512
 30
0.0
 10
126.7319084692405
 20
313.9479084925512
 30
0.0
 10
126.3687998441964
 20
313.9479084925512
 30
0.0
 10
126.1294356078634
 20
313.9479084925512
 30
0.0
 10
126.0096738247362
 20
313.9479084925512
 30
0.0
  0
LINE
  5
CF
330
1F
100
AcDbEntity
  8
0
  6
Continuous
 62
     7
370
    30
100
AcDbLine
 10
137.0364612126
 20
305.9479084926
 30
0.0
 11
161.0364612126
 21
305.9479084926
 31
0.0
  0
LINE
  5
D0
330
1F
100
AcDbEntity
  8
0
  6
Continuous
 62
     7
370
    30
100
AcDbLine
 10
113.0364612126
 20
305.9479084926
 30
0.0
 11
137.0364612126
 21
305.9479084926
 31
0.0
  0
SPLINE
  5
D1
330
1F
100
AcDbEntity
  8
0
  6
Continuous
 62
     7
370
    30
100
AcDbSpline
210
0.0
220
0.0
230
1.0
 70
    24
 71
     3
 72
    24
 73
    20
 74
     0
 42
0.000000001
 43
0.00000001
 40
0.0
 40
0.0
 40
0.0
 40
0.0
 40
0.04817020034165
 40
0.0959815712085741
 40
0.1437085365683025
 40
0.1916269705554179
 40
0.2400094721873285
 40
0.3051035577158409
 40
0.3696785188942859
 40
0.4344247436634874
 40
0.5000272131505382
 40
0.5651216421997299
 40
0.6296966415866919
 40
0.672809784067944
 40
0.7162031581927233
 40
0.7600769116263044
 40
0.8401187608129072
 40
0.9196637030791249
 40
1.0
 40
1.0
 40
1.0
 40
1.0
 10
51.88629007754199
 20
455.712432084551
 30
0.0
 10
51.88386788634147
 20
455.7133136900497
 30
0.0
 10
51.87904154732806
 20
455.7150703337911
 30
0.0
 10
51.86854807432535
 20
455.7188896456182
 30
0.0
 10
51.85571376011227
 20
455.723560953969
 30
0.0
 10
51.84030538303713
 20
455.7291691445827
 30
0.0
 10
51.82043099225304
 20
455.7364028312522
 30
0.0
 10
51.79529134109098
 20
455.7455529159751
 30
0.0
 10
51.76392862140988
 20
455.7569680124047
 30
0.0
 10
51.72888415247305
 20
455.7697231559733
 30
0.0
 10
51.6905830750026
 20
455.7836636081129
 30
0.0
 10
51.64963111044772
 20
455.7985689042457
 30
0.0
 10
51.61126473596455
 20
455.8125331225542
 30
0.0
 10
51.57649141602463
 20
455.825189575959
 30
0.0
 10
51.54577065522424
 20
455.8363710184644
 30
0.0
 10
51.50564592730058
 20
455.8509752250866
 30
0.0
 10
51.45592215614858
 20
455.8690731977214
 30
0.0
 10
51.39668102405429
 20
455.890635206448
 30
0.0
 10
51.35774742906435
 20
455.9048058761373
 30
0.0
 10
51.33818427792035
 20
455.9119262808422
 30
0.0
  0
LINE
  5
D2
330
1F
100
AcDbEntity
  8
0
  6
Continuous
 62
     7
370
    30
100
AcDbLine
 10
48.6020231313
 20
448.3943853146
 30
0.0
 11
44.9071158926
 21
449.7392215678
 31
0.0
  0
LINE
  5
D3
330
1F
100
AcDbEntity
  8
0
  6
Continuous
 62
     7
370
    30
100
AcDbLine
 10
51.3381842779
 20
455.9119262808
 30
0.0
 11
47.6432770392
 21
457.2567625341
 31
0.0
  0
LINE
  5
D4
330
1F
100
AcDbEntity
  8
0
  6
Continuous
 62
     7
370
    30
100
AcDbLine
 10
51.1465658206
 20
447.4682475158
 30
0.0
 11
48.6020231313
 21
448.3943853146
 31
0.0
  0
LINE
  5
D5
330
1F
100
AcDbEntity
  8
0
  6
Continuous
 62
     7
370
    30
100
AcDbLine
 10
44.3644403036
 20
450.9034878271
 30
0.0
 11
44.3641676515
 21
450.9028466932
 31
0.0
  0
LINE
  5
D6
330
1F
100
AcDbEntity
  8
0
  6
Continuous
 62
     7
370
    30
100
AcDbLine
 10
44.9071158926
 20
449.7392215678
 30
0.0
 11
44.8924709638
 21
449.7451010828
 31
0.0
  0
SPLINE
  5
D7
330
1F
100
AcDbEntity
  8
0
  6
Continuous
 62
     7
370
    30
100
AcDbSpline
210
0.0
220
0.0
230
1.0
 70
    24
 71
     3
 72
    23
 73
    19
 74
     0
 42
0.000000001
 43
0.00000001
 40
0.0
 40
0.0
 40
0.0
 40
0.0
 40
0.0545832124372245
 40
0.1087598235871284
 40
0.1628407921256542
 40
0.2171387199599395
 40
0.2719624978559175
 40
0.3457227121290871
 40
0.4188946898057906
 40
0.4922607317975478
 40
0.5665970123803118
 40
0.640357615905998
 40
0.7135296368773709
 40
0.7623825334435256
 40
0.811552969551505
 40
0.8612677389961455
 40
0.9519657478670603
 40
1.0
 40
1.0
 40
1.0
 40
1.0
 10
47.64327703918161
 20
457.256762534119
 30
0.0
 10
47.63167488340112
 20
457.2609853734764
 30
0.0
 10
47.60855699862344
 20
457.2693995954147
 30
0.0
 10
47.57475444269068
 20
457.2817027196163
 30
0.0
 10
47.54186188388999
 20
457.2936746319487
 30
0.0
 10
47.50992605368375
 20
457.3052983235503
 30
0.0
 10
47.47553002240453
 20
457.3178174551129
 30
0.0
 10
47.43958012036742
 20
457.3309021493791
 30
0.0
 10
47.40337610317403
 20
457.3440793339985
 30
0.0
 10
47.37054041815394
 20
457.3560305459675
 30
0.0
 10
47.34136636107647
 20
457.3666490343565
 30
0.0
 10
47.31612926832088
 20
457.375834584919
 30
0.0
 10
47.29766834610774
 20
457.3825538111017
 30
0.0
 10
47.28451011226803
 20
457.3873430165548
 30
0.0
 10
47.27520277739457
 20
457.3907306094091
 30
0.0
 10
47.26611182819799
 20
457.3940394443179
 30
0.0
 10
47.25987824083862
 20
457.3963082845693
 30
0.0
 10
47.26034496506529
 20
457.3961384108433
 30
0.0
 10
47.26050656229591
 20
457.3960795942614
 30
0.0
  0
LINE
  5
D8
330
1F
100
AcDbEntity
  8
0
  6
Continuous
 62
     7
370
    30
100
AcDbLine
 10
54.344590372
 20
454.8176839505
 30
0.0
 11
51.8862900775
 21
455.7124320846
 31
0.0
  0
SPLINE
  5
D9
330
1F
100
AcDbEntity
  8
0
  6
Continuous
 62
     7
370
    30
100
AcDbSpline
210
0.0
220
0.0
230
1.0
 70
    24
 71
     3
 72
    35
 73
    31
 74
     0
 42
0.000000001
 43
0.00000001
 40
0.0
 40
0.0
 40
0.0
 40
0.0
 40
0.0307009822755927
 40
0.0612903916845079
 40
0.0918065784092086
 40
0.1222881690071074
 40
0.1527739215395569
 40
0.1833025782163956
 40
0.2139127183409587
 40
0.2446426143272648
 40
0.2873401839945237
 40
0.3298434349169205
 40
0.3722563619945952
 40
0.4146836243204008
 40
0.4572297751976771
 40
0.499998496026379
 40
0.5320452901173613
 40
0.5639682652952592
 40
0.5958111128909542
 40
0.6276178544388173
 40
0.6594326613512829
 40
0.6912996715021901
 40
0.7232628065038434
 40
0.7553655934296757
 40
0.7962725552460217
 40
0.8370034368441875
 40
0.8776496880987792
 40
0.9183033300132045
 40
0.9590563335261842
 40
1.0
 40
1.0
 40
1.0
 40
1.0
 10
56.83771389544444
 20
453.9102611975962
 30
0.0
 10
56.79978368238565
 20
453.9240666661291
 30
0.0
 10
56.72406110145388
 20
453.9516274316501
 30
0.0
 10
56.61194926869058
 20
453.992432801685
 30
0.0
 10
56.50125180815512
 20
454.0327233823288
 30
0.0
 10
56.3920524365705
 20
454.0724687031862
 30
0.0
 10
56.28432945179173
 20
454.111676663192
 30
0.0
 10
56.17808939541447
 20
454.1503448814001
 30
0.0
 10
56.07333080626594
 20
454.1884738896339
 30
0.0
 10
55.95683099604455
 20
454.2308763528522
 30
0.0
 10
55.83000576298382
 20
454.2770369626402
 30
0.0
 10
55.69465011286469
 20
454.3263023903234
 30
0.0
 10
55.56417780338009
 20
454.3737904273718
 30
0.0
 10
55.4385924426772
 20
454.4194997605272
 30
0.0
 10
55.31789765622809
 20
454.463429070226
 30
0.0
 10
55.2120505710747
 20
454.5019542586057
 30
0.0
 10
55.11994675486179
 20
454.5354773061695
 30
0.0
 10
55.04062631432101
 20
454.5643475854952
 30
0.0
 10
54.96498076279497
 20
454.5918803146054
 30
0.0
 10
54.89301093899884
 20
454.6180751882326
 30
0.0
 10
54.82471725684143
 20
454.6429320557263
 30
0.0
 10
54.76009982588154
 20
454.6664508772105
 30
0.0
 10
54.69915988305998
 20
454.6886312024754
 30
0.0
 10
54.63676967614388
 20
454.7113393807027
 30
0.0
 10
54.57450982505302
 20
454.7340001132895
 30
0.0
 10
54.51429354140629
 20
454.7559170481551
 30
0.0
 10
54.46103249679364
 20
454.77530248304
 30
0.0
 10
54.41490222386343
 20
454.7920925292853
 30
0.0
 10
54.37525791933796
 20
454.8065218760907
 30
0.0
 10
54.3548287802501
 20
454.8139574746305
 30
0.0
 10
54.34459037203472
 20
454.8176839504671
 30
0.0
  0
SPLINE
  5
DA
330
1F
100
AcDbEntity
  8
0
  6
Continuous
 62
     7
370
    30
100
AcDbSpline
210
0.0
220
0.0
230
1.0
 70
    24
 71
     3
 72
    12
 73
     8
 74
     0
 42
0.000000001
 43
0.00000001
 40
0.0
 40
0.0
 40
0.0
 40
0.0
 40
0.2004324070415699
 40
0.4002163439956812
 40
0.5997836560043213
 40
0.7995675929584287
 40
1.0
 40
1.0
 40
1.0
 40
1.0
 10
51.40416786432174
 20
447.3744880396341
 30
0.0
 10
51.381302205093
 20
447.3828104589802
 30
0.0
 10
51.33564486517153
 20
447.3994283716873
 30
0.0
 10
51.2766883827674
 20
447.4208867763996
 30
0.0
 10
51.22512028940464
 20
447.4396560274214
 30
0.0
 10
51.18089146938475
 20
447.4557540014054
 30
0.0
 10
51.15802005635972
 20
447.4640785149622
 30
0.0
 10
51.14656582058494
 20
447.4682475158405
 30
0.0
  0
SPLINE
  5
DB
330
1F
100
AcDbEntity
  8
0
  6
Continuous
 62
     7
370
    30
100
AcDbSpline
210
0.0
220
0.0
230
1.0
 70
    24
 71
     3
 72
    49
 73
    45
 74
     0
 42
0.000000001
 43
0.00000001
 40
0.0
 40
0.0
 40
0.0
 40
0.0
 40
0.0112779635289743
 40
0.0368536209572998
 40
0.0624472874450636
 40
0.0880721976953769
 40
0.1137415380850361
 40
0.1429297623341439
 40
0.172056553275044
 40
0.2011412447742628
 40
0.2302032547199931
 40
0.2592620464697867
 40
0.2883370898441519
 40
0.3174478220554114
 40
0.3466136089626989
 40
0.3679574161811267
 40
0.389266446821691
 40
0.410548241109668
 40
0.4318103682469781
 40
0.4530604184516876
 40
0.4743059948857218
 40
0.499349883907079
 40
0.5244105740447651
 40
0.5495004879937262
 40
0.5746320051123096
 40
0.5918420711459413
 40
0.6090295432484637
 40
0.6261983718951818
 40
0.643352520441759
 40
0.6604959624254475
 40
0.6776326788311783
 40
0.694766655331838
 40
0.7119018795122277
 40
0.733451094044882
 40
0.7550164928647893
 40
0.7766059701268849
 40
0.7979605389074579
 40
0.8183504325453503
 40
0.848644909066225
 40
0.8789024113083668
 40
0.9091447950474273
 40
0.9393939488295738
 40
0.9696717465182962
 40
1.0
 40
1.0
 40
1.0
 40
1.0
 10
31.96346156082532
 20
427.6330466008285
 30
0.0
 10
31.96337411346727
 20
427.633078429064
 30
0.0
 10
31.96308835693164
 20
427.6331824359372
 30
0.0
 10
31.96809858738449
 20
427.6313588611855
 30
0.0
 10
31.97900665686561
 20
427.6273886485811
 30
0.0
 10
31.9959033566883
 20
427.6212387527883
 30
0.0
 10
32.01947298418385
 20
427.6126601099472
 30
0.0
 10
32.05067199391365
 20
427.6013045990669
 30
0.0
 10
32.0904368155032
 20
427.5868313876374
 30
0.0
 10
32.13744114318616
 20
427.5697232114791
 30
0.0
 10
32.19168208051841
 20
427.5499811248114
 30
0.0
 10
32.2531602910087
 20
427.5276048861371
 30
0.0
 10
32.32187569217989
 20
427.502594525475
 30
0.0
 10
32.39782739615463
 20
427.4749503659864
 30
0.0
 10
32.47351226947156
 20
427.4474033249148
 30
0.0
 10
32.54674740624915
 20
427.4207479150253
 30
0.0
 10
32.61566902438945
 20
427.3956624975248
 30
0.0
 10
32.68821154266266
 20
427.3692591801546
 30
0.0
 10
32.76437458363922
 20
427.3415381002878
 30
0.0
 10
32.84415829803211
 20
427.3124992030697
 30
0.0
 10
32.93252800708789
 20
427.2803352593626
 30
0.0
 10
33.03028349501637
 20
427.2447551715204
 30
0.0
 10
33.13826652023253
 20
427.2054525645357
 30
0.0
 10
33.25127869532943
 20
427.1643194966907
 30
0.0
 10
33.35683720440939
 20
427.125899341412
 30
0.0
 10
33.45318691280984
 20
427.0908309154739
 30
0.0
 10
33.53886255606818
 20
427.0596475315263
 30
0.0
 10
33.62664275881272
 20
427.0276981505694
 30
0.0
 10
33.71652739118296
 20
426.9949828198687
 30
0.0
 10
33.80851647997582
 20
426.9615015296707
 30
0.0
 10
33.90260998164031
 20
426.927254295827
 30
0.0
 10
33.9988079683735
 20
426.8922410920597
 30
0.0
 10
34.10554024174703
 20
426.8533937215162
 30
0.0
 10
34.22349013388614
 20
426.8104634716425
 30
0.0
 10
34.35339081478979
 20
426.7631834903827
 30
0.0
 10
34.48606890016513
 20
426.7148926165666
 30
0.0
 10
34.61936499265787
 20
426.6663768065552
 30
0.0
 10
34.77427044929975
 20
426.6099958312121
 30
0.0
 10
34.95276380298093
 20
426.5450295634577
 30
0.0
 10
35.15882358596293
 20
426.4700299359728
 30
0.0
 10
35.37044786467678
 20
426.393004997673
 30
0.0
 10
35.58775783808917
 20
426.3139106357415
 30
0.0
 10
35.81029701743933
 20
426.2329129985
 30
0.0
 10
35.96311631389226
 20
426.1772913233696
 30
0.0
 10
36.03958957473359
 20
426.149457332706
 30
0.0
  0
SPLINE
  5
DC
330
1F
100
AcDbEntity
  8
0
  6
Continuous
 62
     7
370
    30
100
AcDbSpline
210
0.0
220
0.0
230
1.0
 70
    24
 71
     3
 72
   116
 73
   112
 74
     0
 42
0.000000001
 43
0.00000001
 40
0.0
 40
0.0
 40
0.0
 40
0.0
 40
0.0101978660477098
 40
0.0203790619019234
 40
0.0305489451474153
 40
0.0407128912581665
 40
0.0508762851287115
 40
0.0588649974724891
 40
0.0668593032776054
 40
0.07486180649215
 40
0.0829811170379431
 40
0.091477450188925
 40
0.102296445457169
 40
0.1131011484099183
 40
0.1238980012049129
 40
0.1346934600535755
 40
0.1454939836671006
 40
0.1563060216801782
 40
0.1671360031558259
 40
0.1743253127908597
 40
0.1815042726965628
 40
0.188674746910961
 40
0.1958386060960196
 40
0.2029977260991822
 40
0.2101539864946938
 40
0.2173092691103136
 40
0.2271495482419965
 40
0.2369964291008398
 40
0.2468547929641521
 40
0.2567295040803847
 40
0.2652954692127344
 40
0.2738469072108657
 40
0.2823869737918797
 40
0.2909188372908709
 40
0.2994456751870485
 40
0.3079706705791279
 40
0.3180198928050127
 40
0.3280761911751177
 40
0.3381447658870526
 40
0.3482307981499866
 40
0.3596994750619616
 40
0.3711440135146372
 40
0.3825720101972383
 40
0.3939910948128993
 40
0.4054089149306356
 40
0.4168331206588978
 40
0.4282713492936822
 40
0.439731210094793
 40
0.4481176479600775
 40
0.4564904213649026
 40
0.464852493024877
 40
0.47320683704115
 40
0.4815564357725643
 40
0.4899042766638806
 40
0.4997445557214407
 40
0.5095914362965367
 40
0.5194497995314232
 40
0.5293245095404796
 40
0.5360867121770129
 40
0.5428400371753033
 40
0.5495860367614996
 40
0.5563262682227187
 40
0.5630622928466414
 40
0.5697956748473011
 40
0.5765279802807277
 40
0.5832607759541844
 40
0.5917279227416818
 40
0.6002014286814294
 40
0.6086843955555601
 40
0.6170754833648117
 40
0.6250888081042408
 40
0.6369939612869898
 40
0.6488837214582133
 40
0.6607666784205959
 40
0.6726514367280501
 40
0.6845465970253936
 40
0.6964607374303298
 40
0.7066607761961486
 40
0.7168435272349418
 40
0.7270143430324455
 40
0.7371785949296747
 40
0.7473416646750205
 40
0.7553296789978172
 40
0.7633228959671802
 40
0.771323919307926
 40
0.7794417992822896
 40
0.7879381324333273
 40
0.7987571277016232
 40
0.8095618306544041
 40
0.8203586834494095
 40
0.8311541422980622
 40
0.841954665911557
 40
0.8527667039245832
 40
0.8635966854001605
 40
0.8707859950352227
 40
0.8779649549409497
 40
0.8851354291553667
 40
0.892299288340439
 40
0.8994584083436107
 40
0.9066146687391262
 40
0.9137699513547448
 40
0.9236102304864174
 40
0.9334571113452411
 40
0.9433154752085239
 40
0.9531901863247169
 40
0.9617561514571551
 40
0.9703075894553572
 40
0.9788476560364231
 40
0.9873795195354481
 40
0.9959063574316415
 40
0.9999999999999999
 40
0.9999999999999999
 40
0.9999999999999999
 40
0.9999999999999999
 10
36.03958957473359
 20
426.149457332706
 30
0.0
 10
36.10580011740524
 20
426.1253586659789
 30
0.0
 10
36.23811297005042
 20
426.0772007260052
 30
0.0
 10
36.44102428634312
 20
426.0033470466788
 30
0.0
 10
36.6469320597714
 20
425.9284027461468
 30
0.0
 10
36.85616967044644
 20
425.852246483972
 30
0.0
 10
37.05346280254394
 20
425.7804376564633
 30
0.0
 10
37.23805686513017
 20
425.7132509122596
 30
0.0
 10
37.40928789244963
 20
425.6509279151325
 30
0.0
 10
37.58329541223694
 20
425.5875943573914
 30
0.0
 10
37.76275838771985
 20
425.5222751761626
 30
0.0
 10
37.96477802269303
 20
425.4487460422951
 30
0.0
 10
38.1890828134963
 20
425.3671057750392
 30
0.0
 10
38.43341094275863
 20
425.2781776085938
 30
0.0
 10
38.68031249129093
 20
425.1883127941337
 30
0.0
 10
38.92978674392536
 20
425.0975115919588
 30
0.0
 10
39.18183377995167
 20
425.0057739732102
 30
0.0
 10
39.43645237869905
 20
424.9131003821755
 30
0.0
 10
39.66463882775457
 20
424.8300473068563
 30
0.0
 10
39.86534672790859
 20
424.7569956054181
 30
0.0
 10
40.03773711618822
 20
424.6942506354106
 30
0.0
 10
40.2107107349691
 20
424.631293386861
 30
0.0
 10
40.38426770298939
 20
424.5681238165521
 30
0.0
 10
40.55840788852705
 20
424.5047419724268
 30
0.0
 10
40.73313149540907
 20
424.4411477802981
 30
0.0
 10
40.93035600398603
 20
424.3693639297081
 30
0.0
 10
41.15038885065577
 20
424.2892785229595
 30
0.0
 10
41.39351852515443
 20
424.200786558375
 30
0.0
 10
41.63775073877181
 20
424.1118933023693
 30
0.0
 10
41.87207371603599
 20
424.0266067134404
 30
0.0
 10
42.09606092250009
 20
423.945082037431
 30
0.0
 10
42.30932735935089
 20
423.8674594024492
 30
0.0
 10
42.52258624562835
 20
423.7898395156514
 30
0.0
 10
42.73583755254646
 20
423.7122223875148
 30
0.0
 10
42.94908135110115
 20
423.6346079921989
 30
0.0
 10
43.17501256748665
 20
423.5523757544431
 30
0.0
 10
43.41364636156124
 20
423.4655201565097
 30
0.0
 10
43.66495702747584
 20
423.3740505545632
 30
0.0
 10
43.91625685787734
 20
423.2825848964208
 30
0.0
 10
44.17883705153344
 20
423.187013521822
 30
0.0
 10
44.45217927402298
 20
423.0875250890675
 30
0.0
 10
44.73570811060504
 20
422.9843290319955
 30
0.0
 10
45.01770852036304
 20
422.8816892767927
 30
0.0
 10
45.29817995236195
 20
422.7796060239828
 30
0.0
 10
45.57712204349561
 20
422.6780794057262
 30
0.0
 10
45.85453451789688
 20
422.5771095224299
 30
0.0
 10
46.13041660683656
 20
422.4766966538886
 30
0.0
 10
46.38001568757244
 20
422.3858500180004
 30
0.0
 10
46.60357629663016
 20
422.3044806107489
 30
0.0
 10
46.80133701556625
 20
422.232501595549
 30
0.0
 10
46.99751293690052
 20
422.1610993995036
 30
0.0
 10
47.1921044428434
 20
422.0902738834992
 30
0.0
 10
47.38511147592311
 20
422.0200250684542
 30
0.0
 10
47.58793020433846
 20
421.9462050883592
 30
0.0
 10
47.80022786614584
 20
421.8689350586569
 30
0.0
 10
48.02161187826017
 20
421.7883578679048
 30
0.0
 10
48.24079403201384
 20
421.708582088056
 30
0.0
 10
48.43482595097949
 20
421.6379602450548
 30
0.0
 10
48.60434899622612
 20
421.5762589025629
 30
0.0
 10
48.74991676082775
 20
421.5232765691792
 30
0.0
 10
48.89401058883524
 20
421.4708307048429
 30
0.0
 10
49.03663079688963
 20
421.4189211943062
 30
0.0
 10
49.17777727535791
 20
421.3675480774722
 30
0.0
 10
49.3174499973599
 20
421.3167113641246
 30
0.0
 10
49.45564903457249
 20
421.2664110281748
 30
0.0
 10
49.60409915553333
 20
421.2123796028719
 30
0.0
 10
49.76233218500635
 20
421.1547874900659
 30
0.0
 10
49.92980575665075
 20
421.093832094961
 30
0.0
 10
50.09427210014191
 20
421.0339712413915
 30
0.0
 10
50.25325515010803
 20
420.976106143451
 30
0.0
 10
50.43128730218065
 20
420.9113077393541
 30
0.0
 10
50.62739294012372
 20
420.839931124371
 30
0.0
 10
50.84189713517048
 20
420.7618579822487
 30
0.0
 10
51.05066037604812
 20
420.6858743765603
 30
0.0
 10
51.25368149816928
 20
420.6119807311808
 30
0.0
 10
51.45096092678325
 20
420.5401768913322
 30
0.0
 10
51.63316562528568
 20
420.4738598045338
 30
0.0
 10
51.80103384775206
 20
420.4127607682768
 30
0.0
 10
51.95524218603341
 20
420.3566335232666
 30
0.0
 10
52.10457903770688
 20
420.3022793543785
 30
0.0
 10
52.24904494590049
 20
420.2496980639297
 30
0.0
 10
52.37866423808857
 20
420.2025204997865
 30
0.0
 10
52.4945724038504
 20
420.1603333775408
 30
0.0
 10
52.5978198840443
 20
420.1227543679872
 30
0.0
 10
52.69850536545592
 20
420.0861078497305
 30
0.0
 10
52.7980569979353
 20
420.0498740187354
 30
0.0
 10
52.90527564495641
 20
420.0108496226615
 30
0.0
 10
53.01816306264361
 20
419.9697619628001
 30
0.0
 10
53.1337461758286
 20
419.9276931500169
 30
0.0
 10
53.24324283018795
 20
419.8878396270783
 30
0.0
 10
53.34665273038229
 20
419.8502015014791
 30
0.0
 10
53.44397566411395
 20
419.8147788504892
 30
0.0
 10
53.53521214532343
 20
419.7815714870498
 30
0.0
 10
53.61075670071644
 20
419.7540755175258
 30
0.0
 10
53.67274972245686
 20
419.7315119028801
 30
0.0
 10
53.7229736925478
 20
419.7132318727203
 30
0.0
 10
53.77035299283024
 20
419.6959872176971
 30
0.0
 10
53.81488824901462
 20
419.6797777100706
 30
0.0
 10
53.85657926657572
 20
419.664603420642
 30
0.0
 10
53.89542611296326
 20
419.6504643248618
 30
0.0
 10
53.93593000473273
 20
419.6357221138858
 30
0.0
 10
53.97671724709273
 20
419.620876771729
 30
0.0
 10
54.01620254515996
 20
419.6065052985413
 30
0.0
 10
54.05031019913547
 20
419.5940911277336
 30
0.0
 10
54.0777463211862
 20
419.5841051959634
 30
0.0
 10
54.09931363925466
 20
419.5762553341535
 30
0.0
 10
54.11571252935524
 20
419.5702866262819
 30
0.0
 10
54.12804848603203
 20
419.5657967052404
 30
0.0
 10
54.13603745916572
 20
419.5628889568173
 30
0.0
 10
54.13992598463187
 20
419.5614736492925
 30
0.0
 10
54.13960074170615
 20
419.5615920280364
 30
0.0
 10
54.13949524427367
 20
419.5616304259616
 30
0.0
  0
LINE
  5
DD
330
1F
100
AcDbEntity
  8
0
  6
Continuous
 62
     7
370
    30
100
AcDbLine
 10
281.1959236781
 20
150.1155080521
 30
0.0
 11
281.1959236781
 21
227.7032128835
 31
0.0
  0
LINE
  5
DE
330
1F
100
AcDbEntity
  8
0
  6
Continuous
 62
     7
370
    30
100
AcDbLine
 10
257.1959236781
 20
227.7032128835
 30
0.0
 11
257.1959236781
 21
150.1155080521
 31
0.0
  0
LINE
  5
DF
330
1F
100
AcDbEntity
  8
0
  6
Continuous
 62
     7
370
    30
100
AcDbLine
 10
257.1959236781
 20
150.115508052
 30
0.0
 11
257.1959236781
 21
145.406547161
 31
0.0
  0
LINE
  5
E0
330
1F
100
AcDbEntity
  8
0
  6
Continuous
 62
     7
370
    30
100
AcDbLine
 10
281.1959236781
 20
145.406547161
 30
0.0
 11
281.1959236781
 21
150.115508052
 31
0.0
  0
SPLINE
  5
E1
330
1F
100
AcDbEntity
  8
0
  6
Continuous
 62
     7
370
    30
100
AcDbSpline
210
0.0
220
0.0
230
1.0
 70
     8
 71
     3
 72
    13
 73
     9
 74
     0
 42
0.000000001
 43
0.00000001
 40
0.0
 40
0.0
 40
0.0
 40
0.0
 40
0.2346366962032077
 40
0.4563424272665372
 40
0.6436459508045776
 40
0.7966015456969702
 40
0.9153109817930999
 40
1.0
 40
1.0
 40
1.0
 40
1.0
 10
257.1970948709185
 20
145.3848521347836
 30
0.0
 10
257.1969324969353
 20
145.3732884147115
 30
0.0
 10
257.1966166974938
 20
145.3507982579231
 30
0.0
 10
257.1963031400616
 20
145.3189580132644
 30
0.0
 10
257.1960983061116
 20
145.2910573258955
 30
0.0
 10
257.1959876897884
 20
145.2681365875304
 30
0.0
 10
257.1959336071989
 20
145.2502370039136
 30
0.0
 10
257.1959265969308
 20
145.2398584203014
 30
0.0
 10
257.1959236780653
 20
145.2355370892495
 30
0.0
  0
LINE
  5
E2
330
1F
100
AcDbEntity
  8
0
  6
Continuous
 62
     7
370
    30
100
AcDbLine
 10
281.1959236781
 20
134.1198824312
 30
0.0
 11
281.1959236781
 21
137.8206611978
 31
0.0
  0
LINE
  5
E3
330
1F
100
AcDbEntity
  8
0
  6
Continuous
 62
     7
370
    30
100
AcDbLine
 10
257.1959236781
 20
145.2355370893
 30
0.0
 11
257.1959236781
 21
134.1198824312
 31
0.0
  0
SPLINE
  5
E4
330
1F
100
AcDbEntity
  8
0
  6
Continuous
 62
     7
370
    30
100
AcDbSpline
210
0.0
220
0.0
230
1.0
 70
     8
 71
     3
 72
    39
 73
    35
 74
     0
 42
0.000000001
 43
0.00000001
 40
0.0
 40
0.0
 40
0.0
 40
0.0
 40
0.0191953146738877
 40
0.0519131900689204
 40
0.0847078934125035
 40
0.1175841669596062
 40
0.1505470498844371
 40
0.1836018675197061
 40
0.2167542290479982
 40
0.2500100356917572
 40
0.2833755021798068
 40
0.3168571950745153
 40
0.3504620926213733
 40
0.3841976722598129
 40
0.4180720339915072
 40
0.4520940707390756
 40
0.4862737011173617
 40
0.5206221864538435
 40
0.5551525637374973
 40
0.5898802416865015
 40
0.6211668124409313
 40
0.6524729402212291
 40
0.6837928383824778
 40
0.7151221374515113
 40
0.7464552411324598
 40
0.7777848803811688
 40
0.8091013851367347
 40
0.8403914558079908
 40
0.8716359939512027
 40
0.90280604500003
 40
0.933854634339382
 40
0.964698705683146
 40
0.9951737432722163
 40
0.9999999999999999
 40
0.9999999999999999
 40
0.9999999999999999
 40
0.9999999999999999
 10
298.0870462082769
 20
142.2538217383834
 30
0.0
 10
298.0870717187931
 20
142.2625215181796
 30
0.0
 10
298.0871407112687
 20
142.2860498285924
 30
0.0
 10
298.0849134301321
 20
142.324399900302
 30
0.0
 10
298.0805766690452
 20
142.3687893982451
 30
0.0
 10
298.0740310461284
 20
142.4130358623679
 30
0.0
 10
298.0653955596255
 20
142.4570470399664
 30
0.0
 10
298.0546402635441
 20
142.5007300714416
 30
0.0
 10
298.0417801233493
 20
142.5439920622253
 30
0.0
 10
298.0268228144226
 20
142.586740103862
 30
0.0
 10
298.0097826938136
 20
142.628881445241
 30
0.0
 10
297.990676942386
 20
142.6703236261121
 30
0.0
 10
297.9695264729802
 20
142.7109746238357
 30
0.0
 10
297.9463555115356
 20
142.7507430000628
 30
0.0
 10
297.9211914780257
 20
142.7895380494
 30
0.0
 10
297.8940647037259
 20
142.827269952603
 30
0.0
 10
297.8650081012769
 20
142.863849915764
 30
0.0
 10
297.8340566438873
 20
142.8991903566227
 30
0.0
 10
297.8012469110448
 20
142.9332048935071
 30
0.0
 10
297.7678309233305
 20
142.9646647737522
 30
0.0
 10
297.7341085283988
 20
142.9936215906602
 30
0.0
 10
297.7003684406048
 20
143.0201491046593
 30
0.0
 10
297.6654790000131
 20
143.0452250737679
 30
0.0
 10
297.6295118464592
 20
143.0688000614732
 30
0.0
 10
297.5925416842547
 20
143.0908280642271
 30
0.0
 10
297.5546475267468
 20
143.1112659556899
 30
0.0
 10
297.5159137899656
 20
143.1300739757535
 30
0.0
 10
297.4764317537728
 20
143.1472140832267
 30
0.0
 10
297.4363039334983
 20
143.162656210418
 30
0.0
 10
297.3956464958786
 20
143.176354638596
 30
0.0
 10
297.3546180192609
 20
143.1883345054285
 30
0.0
 10
297.3133965739004
 20
143.1983678097628
 30
0.0
 10
297.2836664303464
 20
143.204751973674
 30
0.0
 10
297.2676456852105
 20
143.2073011157687
 30
0.0
 10
297.2654553907612
 20
143.2076496246385
 30
0.0
  0
LINE
  5
E5
330
1F
100
AcDbEntity
  8
0
  6
Continuous
 62
     7
370
    30
100
AcDbLine
 10
297.2654898097
 20
143.2077562179
 30
0.0
 11
283.2553695859
 21
145.6660565123
 31
0.0
  0
LINE
  5
E6
330
1F
100
AcDbEntity
  8
0
  6
Continuous
 62
     7
370
    30
100
AcDbLine
 10
298.0872997201
 20
139.8623708636
 30
0.0
 11
298.0872997201
 21
142.253416601
 31
0.0
  0
SPLINE
  5
E7
330
1F
100
AcDbEntity
  8
0
  6
Continuous
 62
     7
370
    30
100
AcDbSpline
210
0.0
220
0.0
230
1.0
 70
     8
 71
     3
 72
    42
 73
    38
 74
     0
 42
0.000000001
 43
0.00000001
 40
0.0
 40
0.0
 40
0.0
 40
0.0
 40
0.0237837545798343
 40
0.0506336736515468
 40
0.0777665766474122
 40
0.1051405067702762
 40
0.1327222135930909
 40
0.160484995565593
 40
0.1884071579141421
 40
0.2164708911284947
 40
0.2446614420697303
 40
0.2729664921315701
 40
0.3013756842371249
 40
0.3298802584034313
 40
0.3584727675829476
 40
0.3871468536124857
 40
0.4158970686909106
 40
0.444718731709968
 40
0.4736078115292043
 40
0.5025608312643035
 40
0.5315747891007436
 40
0.5606470921955987
 40
0.5897755010184835
 40
0.6189580820667584
 40
0.6481931673365681
 40
0.677479319271311
 40
0.706815300172062
 40
0.736200045258382
 40
0.7656326387305429
 40
0.795112292311422
 40
0.8246383258496797
 40
0.8542101496495424
 40
0.8838272482604548
 40
0.9134891655182759
 40
0.9431954906753763
 40
0.9729458454989738
 40
1.0
 40
1.0
 40
1.0
 40
1.0
 10
283.2553938149572
 20
145.6661229418024
 30
0.0
 10
283.2349449332424
 20
145.6698010351105
 30
0.0
 10
283.1914109319219
 20
145.677631395771
 30
0.0
 10
283.1249623506146
 20
145.6914993536321
 30
0.0
 10
283.0558090674051
 20
145.7073912004323
 30
0.0
 10
282.9864811397693
 20
145.7250055697551
 30
0.0
 10
282.9171064616059
 20
145.7443001590206
 30
0.0
 10
282.8478080060956
 20
145.7652898839656
 30
0.0
 10
282.7786918578636
 20
145.7879701215428
 30
0.0
 10
282.7098545520596
 20
145.8123380251338
 30
0.0
 10
282.6413840725943
 20
145.8383871410498
 30
0.0
 10
282.5733617914912
 20
145.8661091687626
 30
0.0
 10
282.5058636023418
 20
145.8954937296224
 30
0.0
 10
282.4389608728705
 20
145.9265286280644
 30
0.0
 10
282.3727211542692
 20
145.9591999456155
 30
0.0
 10
282.3072087392914
 20
145.9934921535918
 30
0.0
 10
282.2424850981931
 20
146.0293882002151
 30
0.0
 10
282.1786092238196
 20
146.066869588416
 30
0.0
 10
282.1156379061885
 20
146.1059164432023
 30
0.0
 10
282.0536259524896
 20
146.1465075713614
 30
0.0
 10
281.9926263643092
 20
146.1886205146326
 30
0.0
 10
281.9326904810962
 20
146.2322315974835
 30
0.0
 10
281.873868096804
 20
146.2773159703035
 30
0.0
 10
281.816207554978
 20
146.3238476486245
 30
0.0
 10
281.7597558266997
 20
146.3717995489925
 30
0.0
 10
281.7045585736741
 20
146.4211435213951
 30
0.0
 10
281.6506602025812
 20
146.4718503803695
 30
0.0
 10
281.5981038993095
 20
146.5238899282421
 30
0.0
 10
281.5469316947312
 20
146.5772309961262
 30
0.0
 10
281.4971843758629
 20
146.6318414077466
 30
0.0
 10
281.4489019444426
 20
146.6876882220305
 30
0.0
 10
281.4021220010901
 20
146.7447369236574
 30
0.0
 10
281.3568858661379
 20
146.8029545404966
 30
0.0
 10
281.313215739926
 20
146.8622980641697
 30
0.0
 10
281.2712001723044
 20
146.9227578375675
 30
0.0
 10
281.2319184764528
 20
146.9823092900768
 30
0.0
 10
281.2075361792952
 20
147.0221556861091
 30
0.0
 10
281.1959236780654
 20
147.0411332385496
 30
0.0
  0
SPLINE
  5
E8
330
1F
100
AcDbEntity
  8
0
  6
Continuous
 62
     7
370
    30
100
AcDbSpline
210
0.0
220
0.0
230
1.0
 70
     8
 71
     3
 72
    59
 73
    55
 74
     0
 42
0.000000001
 43
0.00000001
 40
0.0
 40
0.0
 40
0.0
 40
0.0
 40
0.0213319437722824
 40
0.0388489183483365
 40
0.0522613473047456
 40
0.064454100292354
 40
0.0770733909555185
 40
0.0891802912264152
 40
0.1016211957047844
 40
0.1160005097401236
 40
0.1334180538524262
 40
0.1497291161555089
 40
0.1614973860162491
 40
0.1718754490365734
 40
0.1814983936598486
 40
0.1941273617600948
 40
0.2100056426186517
 40
0.2234708638418622
 40
0.2330592772258372
 40
0.2406307500628841
 40
0.2490098295868014
 40
0.2575177750231986
 40
0.2669078074066821
 40
0.2779061909499421
 40
0.2906345011194174
 40
0.3051273386756236
 40
0.318878871000095
 40
0.3294271313161975
 40
0.3376029864151623
 40
0.3467682257414929
 40
0.3584084886744691
 40
0.3725364054150933
 40
0.3865845560848466
 40
0.4041696847559709
 40
0.4181086102733523
 40
0.4337723082210544
 40
0.4528713006343679
 40
0.4727191912772827
 40
0.4891887853806359
 40
0.5224127947573931
 40
0.5649355425079108
 40
0.6014728510191609
 40
0.6404750993662454
 40
0.6790044228543559
 40
0.7171878840282575
 40
0.7504203847821436
 40
0.7847673102815772
 40
0.8162253110780726
 40
0.846415227320373
 40
0.8712084907797477
 40
0.8966699843865411
 40
0.9259495588877653
 40
0.9604175317965935
 40
1.0
 40
1.0
 40
1.0
 40
1.0
 10
296.3459975967691
 20
135.3213239696691
 30
0.0
 10
296.3548831766238
 20
135.3198390546815
 30
0.0
 10
296.3710652540724
 20
135.3171347844226
 30
0.0
 10
296.3933824168203
 20
135.3141488826051
 30
0.0
 10
296.4113572518553
 20
135.31208245015
 30
0.0
 10
296.427167865805
 20
135.3105321400041
 30
0.0
 10
296.4427311075597
 20
135.3092579961761
 30
0.0
 10
296.4585202694768
 20
135.3082274296678
 30
0.0
 10
296.475076883802
 20
135.3074210480087
 30
0.0
 10
296.493782089534
 20
135.3068483064081
 30
0.0
 10
296.5142443918291
 20
135.3066620881798
 30
0.0
 10
296.5336702899586
 20
135.306937721305
 30
0.0
 10
296.5500639321165
 20
135.3074909612992
 30
0.0
 10
296.5636428490876
 20
135.3081606338171
 30
0.0
 10
296.5775442344999
 20
135.3090436405276
 30
0.0
 10
296.593727230945
 20
135.3103277182402
 30
0.0
 10
296.6115876199889
 20
135.3121106986184
 30
0.0
 10
296.6282116317223
 20
135.3141284173964
 30
0.0
 10
296.6412823402605
 20
135.3159401886176
 30
0.0
 10
296.6521119198651
 20
135.317580965897
 30
0.0
 10
296.6624824294381
 20
135.3192772059104
 30
0.0
 10
296.6736144003025
 20
135.3212417578454
 30
0.0
 10
296.6858513771397
 20
135.3235707852731
 30
0.0
 10
296.6998102352248
 20
135.3264501058725
 30
0.0
 10
296.7158801877136
 20
135.3300667734232
 30
0.0
 10
296.7330645140365
 20
135.3343102963671
 30
0.0
 10
296.7493014377308
 20
135.3386939707447
 30
0.0
 10
296.7628598242266
 20
135.3426282569731
 30
0.0
 10
296.7744244784928
 20
135.3461660300141
 30
0.0
 10
296.7863533324464
 20
135.3499900253505
 30
0.0
 10
296.8006787152829
 20
135.3548368031871
 30
0.0
 10
296.8169342982831
 20
135.3607009244751
 30
0.0
 10
296.8355221868158
 20
135.3678720768446
 30
0.0
 10
296.8539029187289
 20
135.3754940655642
 30
0.0
 10
296.8727158057335
 20
135.3838517057406
 30
0.0
 10
296.891919725547
 20
135.3929291627007
 30
0.0
 10
296.913226801185
 20
135.4037343475154
 30
0.0
 10
296.934571887327
 20
135.4154155434354
 30
0.0
 10
296.9609830401905
 20
135.4309020159035
 30
0.0
 10
296.9951248205134
 20
135.4528290120142
 30
0.0
 10
297.0352328893801
 20
135.4822759627029
 30
0.0
 10
297.0754060082459
 20
135.5160660212346
 30
0.0
 10
297.1121791833972
 20
135.5511849925292
 30
0.0
 10
297.1472764921481
 20
135.5893498706959
 30
0.0
 10
297.1783099537206
 20
135.6277643278121
 30
0.0
 10
297.2059949811079
 20
135.6665135484779
 30
0.0
 10
297.2299618957655
 20
135.7043410587703
 30
0.0
 10
297.2512393806864
 20
135.7422916560627
 30
0.0
 10
297.2687111324048
 20
135.77745444506
 30
0.0
 10
297.2835504370896
 20
135.8109483879916
 30
0.0
 10
297.2969455922251
 20
135.8447570984279
 30
0.0
 10
297.3102188574591
 20
135.8831213565888
 30
0.0
 10
297.3235304150072
 20
135.9281160111368
 30
0.0
 10
297.330703427621
 20
135.9609973190625
 30
0.0
 10
297.3345376457492
 20
135.9785734915458
 30
0.0
  0
LINE
  5
E9
330
1F
100
AcDbEntity
  8
0
  6
Continuous
 62
     7
370
    30
100
AcDbLine
 10
282.1701358798
 20
137.8087263012
 30
0.0
 11
296.3457712316
 21
135.3213837229
 31
0.0
  0
SPLINE
  5
EA
330
1F
100
AcDbEntity
  8
0
  6
Continuous
 62
     7
370
    30
100
AcDbSpline
210
0.0
220
0.0
230
1.0
 70
     8
 71
     3
 72
    74
 73
    70
 74
     0
 42
0.000000001
 43
0.00000001
 40
0.0
 40
0.0
 40
0.0
 40
0.0
 40
0.0141758607053876
 40
0.0264433704895346
 40
0.0367981037919661
 40
0.0450525664833019
 40
0.0523809557920714
 40
0.060660038488663
 40
0.0694762953960129
 40
0.0780681398937994
 40
0.0868128167742622
 40
0.0958051726030795
 40
0.1063989616040137
 40
0.1186712295008932
 40
0.1320053236383846
 40
0.1444683247967861
 40
0.1686800194309273
 40
0.1936471954155354
 40
0.216772249421369
 40
0.2366083509912761
 40
0.2573570228927692
 40
0.2747085169008309
 40
0.2952595193073889
 40
0.3193799650585198
 40
0.3434852196869618
 40
0.366195415588508
 40
0.3867407125978187
 40
0.402994246693693
 40
0.4171648417419761
 40
0.4291368019467369
 40
0.4351607819641526
 40
0.4409848693288683
 40
0.4488193535365144
 40
0.458888426373027
 40
0.482021917817777
 40
0.5046896550930037
 40
0.5263058305365966
 40
0.5468698811345271
 40
0.5655314845362486
 40
0.5815196210075626
 40
0.5948317399265967
 40
0.6058946849384367
 40
0.6200126615711399
 40
0.6375188967627604
 40
0.6561817366356822
 40
0.6735641644506535
 40
0.6896641234068076
 40
0.7040497061154398
 40
0.719272478283818
 40
0.7357334386100312
 40
0.7534300369838883
 40
0.7681862021277701
 40
0.7821334211093685
 40
0.794211784557806
 40
0.8044235223667426
 40
0.8100558764105482
 40
0.8149024114134806
 40
0.8200428610425914
 40
0.8270506374228538
 40
0.8359371114527461
 40
0.8466994553983087
 40
0.859334257258902
 40
0.8738377550904125
 40
0.890206192741625
 40
0.9084363853384384
 40
0.9285266225758058
 40
0.9504781182245354
 40
0.9742973622845906
 40
1.0
 40
1.0
 40
1.0
 40
1.0
 10
279.41221985686
 20
136.4453962772309
 30
0.0
 10
279.4183810969831
 20
136.4547040187014
 30
0.0
 10
279.4298741525819
 20
136.4720664957488
 30
0.0
 10
279.447207065603
 20
136.4977275240402
 30
0.0
 10
279.4626662185143
 20
136.5203066910646
 30
0.0
 10
279.4750465836315
 20
136.5381793226933
 30
0.0
 10
279.4860303266628
 20
136.5538886286711
 30
0.0
 10
279.4977302807584
 20
136.5704728894016
 30
0.0
 10
279.5101410258434
 20
136.5878813307175
 30
0.0
 10
279.522816168266
 20
136.6054748450279
 30
0.0
 10
279.5356528389307
 20
136.623106886569
 30
0.0
 10
279.549592926912
 20
136.6420501117794
 30
0.0
 10
279.5654379028789
 20
136.6633265778742
 30
0.0
 10
279.5835671586403
 20
136.6873317971432
 30
0.0
 10
279.6027345747349
 20
136.7123166156385
 30
0.0
 10
279.6280229638401
 20
136.744763092814
 30
0.0
 10
279.6595016587249
 20
136.7842643768663
 30
0.0
 10
279.6977641872904
 20
136.8308317268083
 30
0.0
 10
279.734366233499
 20
136.8740300959475
 30
0.0
 10
279.768992170997
 20
136.9137889408518
 30
0.0
 10
279.8010363030127
 20
136.9496310286056
 30
0.0
 10
279.8339282424246
 20
136.9855117343056
 30
0.0
 10
279.8692722653497
 20
137.0231065652273
 30
0.0
 10
279.9089955202533
 20
137.0641018021445
 30
0.0
 10
279.9507619371746
 20
137.1057958329777
 30
0.0
 10
279.9911225670192
 20
137.1447735438839
 30
0.0
 10
280.027286936164
 20
137.1786255007138
 30
0.0
 10
280.0587618465295
 20
137.2072985420049
 30
0.0
 10
280.0851992881929
 20
137.2308372552191
 30
0.0
 10
280.1054348874584
 20
137.2484982376455
 30
0.0
 10
280.1205260588179
 20
137.2614869397686
 30
0.0
 10
280.1330720186567
 20
137.2721854794492
 30
0.0
 10
280.1483126941818
 20
137.2850424481434
 30
0.0
 10
280.1748475795058
 20
137.3071086887352
 30
0.0
 10
280.211383345679
 20
137.3366834914375
 30
0.0
 10
280.2561798047918
 20
137.3715745765317
 30
0.0
 10
280.2999723338025
 20
137.4043871713941
 30
0.0
 10
280.3417404413686
 20
137.4345138452312
 30
0.0
 10
280.3802005554313
 20
137.4612560373756
 30
0.0
 10
280.4140229355617
 20
137.483999242263
 30
0.0
 10
280.4428158020771
 20
137.5028030852893
 30
0.0
 10
280.4705922264036
 20
137.5204941239195
 30
0.0
 10
280.5017159701215
 20
137.5397963047183
 30
0.0
 10
280.5388112662755
 20
137.562019729606
 30
0.0
 10
280.5788467204518
 20
137.5850338099323
 30
0.0
 10
280.6183882312063
 20
137.6068008259535
 30
0.0
 10
280.6551797182113
 20
137.6262150370887
 30
0.0
 10
280.6907769245498
 20
137.6442532927622
 30
0.0
 10
280.7270664855327
 20
137.6618988786675
 30
0.0
 10
280.766433914231
 20
137.6801718182759
 30
0.0
 10
280.8059325819591
 20
137.6975574342177
 30
0.0
 10
280.8438539143532
 20
137.7133745659426
 30
0.0
 10
280.8775394124598
 20
137.7267333377076
 30
0.0
 10
280.9077663003941
 20
137.7381533075248
 30
0.0
 10
280.9312575616359
 20
137.7466483446686
 30
0.0
 10
280.9487785889874
 20
137.7527812842511
 30
0.0
 10
280.9620612061685
 20
137.7573286026221
 30
0.0
 10
280.9766014004517
 20
137.7621996198216
 30
0.0
 10
280.9947154150186
 20
137.7681051391997
 30
0.0
 10
281.0178146164633
 20
137.7753629021393
 30
0.0
 10
281.045991143252
 20
137.7838018682703
 30
0.0
 10
281.0793326102059
 20
137.7932000854191
 30
0.0
 10
281.1179388586136
 20
137.8032861700067
 30
0.0
 10
281.1619154946567
 20
137.8137338446249
 30
0.0
 10
281.2113695030868
 20
137.8241506059369
 30
0.0
 10
281.2663996886776
 20
137.8340905691053
 30
0.0
 10
281.3270901173804
 20
137.8429539615558
 30
0.0
 10
281.3934727090132
 20
137.8503618794783
 30
0.0
 10
281.4397725577646
 20
137.8530277377832
 30
0.0
 10
281.4638029095217
 20
137.8544113602902
 30
0.0
  0
LINE
  5
EB
330
1F
100
AcDbEntity
  8
0
  6
Continuous
 62
     7
370
    30
100
AcDbLine
 10
297.3349981197
 20
135.980675901
 30
0.0
 11
298.0692160362
 21
139.6755831397
 31
0.0
  0
SPLINE
  5
EC
330
1F
100
AcDbEntity
  8
0
  6
Continuous
 62
     7
370
    30
100
AcDbSpline
210
0.0
220
0.0
230
1.0
 70
     8
 71
     3
 72
    10
 73
     6
 74
     0
 42
0.000000001
 43
0.00000001
 40
0.0
 40
0.0
 40
0.0
 40
0.0
 40
0.2288768155459206
 40
0.5300383760542253
 40
1.0
 40
1.0
 40
1.0
 40
1.0
 10
281.4553634713658
 20
137.8538527557681
 30
0.0
 10
281.4670552919873
 20
137.8543956052654
 30
0.0
 10
281.4941314884143
 20
137.8556527490497
 30
0.0
 10
281.5452610444565
 20
137.8571260862002
 30
0.0
 10
281.5847046979541
 20
137.8573844870055
 30
0.0
 10
281.6087436632267
 20
137.857541969577
 30
0.0
  0
SPLINE
  5
ED
330
1F
100
AcDbEntity
  8
0
  6
Continuous
 62
     7
370
    30
100
AcDbSpline
210
0.0
220
0.0
230
1.0
 70
     8
 71
     3
 72
    17
 73
    13
 74
     0
 42
0.000000001
 43
0.00000001
 40
0.0
 40
0.0
 40
0.0
 40
0.0
 40
0.1436008380907559
 40
0.2014469152146368
 40
0.2975571818431738
 40
0.3973692178868014
 40
0.5044837537637383
 40
0.6163450300591464
 40
0.7319276301967151
 40
0.8504134672929012
 40
0.9712216119396596
 40
1.0
 40
1.0
 40
1.0
 40
1.0
 10
281.6087436632267
 20
137.857541969577
 30
0.0
 10
281.6357820652792
 20
137.8573586855811
 30
0.0
 10
281.6737122247284
 20
137.8571015701208
 30
0.0
 10
281.7297065006424
 20
137.8553839922974
 30
0.0
 10
281.7774343230832
 20
137.8533297956437
 30
0.0
 10
281.8343666075264
 20
137.8498895185963
 30
0.0
 10
281.894167850969
 20
137.8452041816013
 30
0.0
 10
281.956797789319
 20
137.839088050751
 30
0.0
 10
282.0213950797706
 20
137.831519181416
 30
0.0
 10
282.087427912332
 20
137.8222995846443
 30
0.0
 10
282.1371915534985
 20
137.8146265906608
 30
0.0
 10
282.1647935988887
 20
137.8095701649547
 30
0.0
 10
282.1701038521523
 20
137.8085973783105
 30
0.0
  0
SPLINE
  5
EE
330
1F
100
AcDbEntity
  8
0
  6
Continuous
 62
     7
370
    30
100
AcDbSpline
210
0.0
220
0.0
230
1.0
 70
     8
 71
     3
 72
    10
 73
     6
 74
     0
 42
0.000000001
 43
0.00000001
 40
0.0
 40
0.0
 40
0.0
 40
0.0
 40
0.3395359344362052
 40
0.6729319269369237
 40
1.0
 40
1.0
 40
1.0
 40
1.0
 10
298.068755562303
 20
139.6734807302845
 30
0.0
 10
298.0725297678708
 20
139.6944691962331
 30
0.0
 10
298.0800099287842
 20
139.7360665866763
 30
0.0
 10
298.08607597594
 20
139.7989385474833
 30
0.0
 10
298.0868951683909
 20
139.8406860002925
 30
0.0
 10
298.0873008402667
 20
139.8613597351064
 30
0.0
  0
ARC
  5
EF
330
1F
100
AcDbEntity
  8
0
  6
Continuous
 62
     7
370
    30
100
AcDbCircle
 10
269.1959236781
 20
227.7032128835
 30
0.0
 40
12.0
100
AcDbArc
 50
0.0
 51
180.0
  0
ARC
  5
F0
330
1F
100
AcDbEntity
  8
0
  6
Continuous
 62
     7
370
    30
100
AcDbCircle
 10
269.356934834
 20
146.2095270465
 30
0.0
 40
12.08036438799622
100
AcDbArc
 50
269.2363199859
 51
331.1678502225
  0
ARC
  5
F1
330
1F
100
AcDbEntity
  8
0
  6
Continuous
 62
     7
370
    30
100
AcDbCircle
 10
268.8449903427
 20
145.780002616
 30
0.0
 40
11.65505139993116
100
AcDbArc
 50
181.8362067977
 51
271.7254354149
  0
ARC
  5
F2
330
1F
100
AcDbEntity
  8
0
  6
Continuous
 62
     7
370
    30
100
AcDbCircle
 10
269.0911154616
 20
228.0364612126
 30
0.0
 40
24.0
100
AcDbArc
 50
151.3521102435
 51
240.288500857
  0
ARC
  5
F3
330
1F
100
AcDbEntity
  8
0
  6
Continuous
 62
     7
370
    30
100
AcDbCircle
 10
269.0911154616
 20
228.0364612126
 30
0.0
 40
24.0
100
AcDbArc
 50
300.2893420232
 51
151.3521102435
  0
LWPOLYLINE
  5
F4
330
1F
100
AcDbEntity
  8
0
  6
Continuous
 62
     7
370
    30
100
AcDbPolyline
 90
      122
 70
   128
 43
0.0
 10
257.1959236781
 20
134.1198824312
 10
257.1996251513
 20
133.8398261938
 10
257.2115374892
 20
133.54483379
 10
257.2316633268
 20
133.2502354959
 10
257.2599888708
 20
132.9562332144
 10
257.2964947083
 20
132.6630284398
 10
257.34115582
 20
132.3708221203
 10
257.3939415975
 20
132.0798145193
 10
257.4548158639
 20
131.790205079
 10
257.5237368992
 20
131.5021922831
 10
257.6006574683
 20
131.2159735213
 10
257.6855248536
 20
130.9317449536
 10
257.7782808913
 20
130.6497013761
 10
257.878862011
 20
130.3700360874
 10
257.9871992796
 20
130.092940756
 10
258.1032184479
 20
129.8186052893
 10
258.2268400023
 20
129.5472177031
 10
258.3579792188
 20
129.2789639929
 10
258.496546221
 20
129.0140280064
 10
258.642446042
 20
128.7525913175
 10
258.7955786895
 20
128.4948331018
 10
258.9558392139
 20
128.2409300139
 10
259.1231177808
 20
127.9910560664
 10
259.2972997456
 20
127.7453825103
 10
259.4782657328
 20
127.504077718
 10
259.6658917174
 20
127.2673070679
 10
259.8600491098
 20
127.0352328305
 10
260.0606048444
 20
126.8080140582
 10
260.2674214701
 20
126.5858064751
 10
260.4803572453
 20
126.3687623714
 10
260.6992662343
 20
126.1570304983
 10
260.923998408
 20
125.950755966
 10
261.154399746
 20
125.750080145
 10
261.3903123429
 20
125.5551405684
 10
261.6315745158
 20
125.3660708381
 10
261.8780209159
 20
125.183000533
 10
262.1294826409
 20
125.0060551203
 10
262.3857873517
 20
124.8353558696
 10
262.6467593897
 20
124.6710197696
 10
262.9122198978
 20
124.5131594481
 10
263.1819869426
 20
124.3618830947
 10
263.4558756392
 20
124.2172943866
 10
263.733698278
 20
124.0794924177
 10
264.0152644533
 20
123.9485716306
 10
264.3003811936
 20
123.8246217519
 10
264.5888530942
 20
123.7077277305
 10
264.8804824508
 20
123.5979696799
 10
265.1750693954
 20
123.4954228228
 10
265.4724120325
 20
123.4001574395
 10
265.7723065786
 20
123.3122388203
 10
266.0745475008
 20
123.2317272201
 10
266.3789276584
 20
123.1586778177
 10
266.6852384443
 20
123.0931406773
 10
266.9932699284
 20
123.035160715
 10
267.3028110014
 20
122.9847776672
 10
267.6136495193
 20
122.9420260641
 10
267.9255724488
 20
122.9069352053
 10
268.2383660136
 20
122.8795291405
 10
268.5518158406
 20
122.8598266524
 10
268.865707107
 20
122.847841244
 10
269.1798246872
 20
122.8435811296
 10
269.493953301
 20
122.8470492288
 10
269.8078776601
 20
122.8582431649
 10
270.1213826165
 20
122.877155266
 10
270.4342533096
 20
122.9037725706
 10
270.7462753134
 20
122.9380768368
 10
271.0572347837
 20
122.9800445539
 10
271.3669186043
 20
123.0296469594
 10
271.6751145334
 20
123.0868500584
 10
271.9816113489
 20
123.1516146467
 10
272.2861989933
 20
123.2238963378
 10
272.5886687173
 20
123.3036455935
 10
272.8888132233
 20
123.3908077577
 10
273.1864268074
 20
123.4853230937
 10
273.4813054999
 20
123.5871268255
 10
273.7732472057
 20
123.6961491819
 10
274.0620518427
 20
123.8123154443
 10
274.3475214784
 20
123.9355459983
 10
274.6294604664
 20
124.0657563878
 10
274.9076755797
 20
124.202857373
 10
275.1819761435
 20
124.3467549918
 10
275.452174166
 20
124.4973506241
 10
275.7180844669
 20
124.6545410589
 10
275.9795248046
 20
124.8182185659
 10
276.2363160009
 20
124.9882709687
 10
276.488282064
 20
125.1645817219
 10
276.7352503089
 20
125.3470299909
 10
276.9770514759
 20
125.5354907347
 10
277.2135198467
 20
125.7298347917
 10
277.4444933575
 20
125.9299289684
 10
277.6698137106
 20
126.13563613
 10
277.8893264829
 20
126.3468152952
 10
278.102881231
 20
126.5633217324
 10
278.3103315954
 20
126.7850070588
 10
278.5115353999
 20
127.0117193424
 10
278.7063547494
 20
127.243303206
 10
278.8946561246
 20
127.4795999334
 10
279.0763104729
 20
127.7204475788
 10
279.2511932977
 20
127.9656810771
 10
279.419184743
 20
128.2151323577
 10
279.5801696758
 20
128.468630459
 10
279.7340377651
 20
128.7260016461
 10
279.8806835574
 20
128.9870695297
 10
280.020006549
 20
129.2516551869
 10
280.1519112549
 20
129.5195772838
 10
280.2763072741
 20
129.7906522001
 10
280.3931093519
 20
130.0646941546
 10
280.502237438
 20
130.3415153325
 10
280.6036167413
 20
130.6209260145
 10
280.6971777817
 20
130.9027347065
 10
280.782856437
 20
131.1867482708
 10
280.8605939874
 20
131.4727720587
 10
280.9303371554
 20
131.7606100439
 10
280.9920381425
 20
132.0500649565
 10
281.0456546621
 20
132.3409384186
 10
281.0911499679
 20
132.6330310801
 10
281.1284928798
 20
132.9261427553
 10
281.1576578048
 20
133.22007256
 10
281.1786247548
 20
133.5146190494
 10
281.19137936
 20
133.8095803561
 10
281.195912879
 20
134.1047543283
 10
281.1959236781
 20
134.1198824312
  0
LINE
  5
F5
330
1F
100
AcDbEntity
  8
0
  6
Continuous
 62
     7
370
    30
100
AcDbLine
 10
298.0866852568
 20
139.8577714774
 30
0.0
 11
298.0868730598
 21
139.862386613
 31
0.0
  0
LINE
  5
F6
330
1F
100
AcDbEntity
  8
0
  6
Continuous
 62
     7
370
    30
100
AcDbLine
 10
297.3339484123
 20
135.9808840272
 30
0.0
 11
297.3335367035
 21
135.9787707483
 31
0.0
  0
SPLINE
  5
F7
330
1F
100
AcDbEntity
  8
0
  6
Continuous
 62
     7
370
    30
100
AcDbSpline
210
0.0
220
0.0
230
1.0
 70
     8
 71
     3
 72
   320
 73
   316
 74
     0
 42
0.000000001
 43
0.00000001
 40
0.0
 40
0.0
 40
0.0
 40
0.0
 40
0.0026255828991736
 40
0.0059757948032266
 40
0.009325647070646
 40
0.0126750028059233
 40
0.0160237208233583
 40
0.0193716557354543
 40
0.0227186580620119
 40
0.0260645743604901
 40
0.0294092473782637
 40
0.0327525162271641
 40
0.0360942165803452
 40
0.0394341808920141
 40
0.0427722386391731
 40
0.0461082165861377
 40
0.0494419390702578
 40
0.0527732283093173
 40
0.0561019047287101
 40
0.0594277873082816
 40
0.0627506939468354
 40
0.0660704418433738
 40
0.0693868478932802
 40
0.0726997290975084
 40
0.0760089029828974
 40
0.0793141880316533
 40
0.0826154041174157
 40
0.0859123729458383
 40
0.0892049184969431
 40
0.0924928674670918
 40
0.0957760497077447
 40
0.0990542986584972
 40
0.102327451772132
 40
0.1055953509288174
 40
0.1088578428374125
 40
0.1121147794215533
 40
0.1153660181881056
 40
0.1186114225764401
 40
0.1218508622863625
 40
0.1250842135833634
 40
0.1283113595796108
 40
0.1315321904895793
 40
0.134746603859516
 40
0.1379545047696487
 40
0.1411558060092596
 40
0.1443504282237671
 40
0.1475383000341287
 40
0.1507193581289167
 40
0.1538935473290062
 40
0.1570608206258821
 40
0.1602211391941633
 40
0.1633744723793168
 40
0.166520797661551
 40
0.1696601005972716
 40
0.1727923747391888
 40
0.1759176215366277
 40
0.1790358502173481
 40
0.1821470776524349
 40
0.1852513282059973
 40
0.1883486335705626
 40
0.1914390325906787
 40
0.1945225710754148
 40
0.1975993016014925
 40
0.2006692833088259
 40
0.2037325816894635
 40
0.2067892683714267
 40
0.209839420898869
 40
0.2128831225093986
 40
0.2159204619102849
 40
0.2189515330540588
 40
0.2219764349146961
 40
0.2249952712654653
 40
0.2280081504590085
 40
0.2310151852105235
 40
0.2340164923846937
 40
0.237012192787046
 40
0.2400024109600598
 40
0.2429872749847704
 40
0.2459669162878031
 40
0.2489414694548841
 40
0.251911072050144
 40
0.2548758644423636
 40
0.2578359896375745
 40
0.2607915931186783
 40
0.2637428226915894
 40
0.2666898283385453
 40
0.2696327620780248
 40
0.2725717778316127
 40
0.2755070312973608
 40
0.2784386798298951
 40
0.2813668823269999
 40
0.2842917991222489
 40
0.2872135918841126
 40
0.2901324235206466
 40
0.2930484580901029
 40
0.2959618607170024
 40
0.2988727975132435
 40
0.3017814355045524
 40
0.3046879425614681
 40
0.3075924873347501
 40
0.3104952391953132
 40
0.3133963681776357
 40
0.3162960449273564
 40
0.3191944406518686
 40
0.3220917270741906
 40
0.324988076389582
 40
0.3278836612248388
 40
0.3307786545995372
 40
0.3336732298895914
 40
0.336567560792185
 40
0.3394618212921358
 40
0.342356185629444
 40
0.3452508282673925
 40
0.3481459103640226
 40
0.3510415620178018
 40
0.3539379581157924
 40
0.3568352736438091
 40
0.3597336836535583
 40
0.3626333632294828
 40
0.3655344874546604
 40
0.3684372313749175
 40
0.3713417699611814
 40
0.3742482780698465
 40
0.377156930400547
 40
0.3800679014511549
 40
0.3829813654698902
 40
0.3858974964039693
 40
0.3888164678445928
 40
0.3917384529680031
 40
0.3946636244720357
 40
0.3975921545084554
 40
0.4005242146101258
 40
0.40345997561296
 40
0.4063996075726001
 40
0.4093432796751433
 40
0.4122911601417744
 40
0.4152434161272462
 40
0.4182002136116236
 40
0.4211617172852124
 40
0.4241280904263975
 40
0.4270994947723365
 40
0.4300760903818583
 40
0.43305803549104
 40
0.4360454863608431
 40
0.4390385971167424
 40
0.4420375195805405
 40
0.4450424030940072
 40
0.448053394334579
 40
0.4510706371229972
 40
0.4540942722231694
 40
0.4571244371341752
 40
0.4601612658747588
 40
0.4632048887606894
 40
0.4662554321752068
 40
0.4693130183328664
 40
0.4723777650375697
 40
0.4754497854351395
 40
0.4785291877612649
 40
0.481616075085378
 40
0.484710545051769
 40
0.4878126896180546
 40
0.4909225947930867
 40
0.4940403403747674
 40
0.4971659996891833
 40
0.5002996393324775
 40
0.5034413189167071
 40
0.5065910908217707
 40
0.5097489999542294
 40
0.5129150835152619
 40
0.5160893707793893
 40
0.519271882885711
 40
0.522462632643632
 40
0.5256616243547549
 40
0.5288688536529571
 40
0.5320843073647183
 40
0.5353079633911361
 40
0.5385397906136946
 40
0.5417797488255146
 40
0.5450277886895369
 40
0.5482838517254566
 40
0.5515478703261999
 40
0.5548197678057836
 40
0.558099458478966
 40
0.5613868477738622
 40
0.5646818323777163
 40
0.5679843004165515
 40
0.5712941316678148
 40
0.5746111978069671
 40
0.5779353626863906
 40
0.5812664826460352
 40
0.5846044068550629
 40
0.5879489776822979
 40
0.5913000310943108
 40
0.5946573970789576
 40
0.5980209000919836
 40
0.6013903595243769
 40
0.604765590187696
 40
0.6081464028148023
 40
0.6115326045723232
 40
0.6149239995828726
 40
0.6183203894527659
 40
0.6217215738029382
 40
0.6251273507993577
 40
0.6285375176802627
 40
0.6319518712769694
 40
0.6353702085255639
 40
0.6387923269664461
 40
0.6422180252296454
 40
0.64564710350314
 40
0.6490793639826163
 40
0.6525146112997917
 40
0.655952652929001
 40
0.659393299569748
 40
0.6628363655042601
 40
0.666281668929478
 40
0.6697290322630074
 40
0.6731782824218706
 40
0.6766292510751523
 40
0.6800817748695378
 40
0.6835356956290566
 40
0.6869908605286879
 40
0.6904471222431686
 40
0.6939043390716596
 40
0.697362375038851
 40
0.7008210999745628
 40
0.7042803895716747
 40
0.7077401197843219
 40
0.7112001455385952
 40
0.7146603617921837
 40
0.7181206696886825
 40
0.7215809762460723
 40
0.7250411943110249
 40
0.7285012425041999
 40
0.731961045156379
 40
0.735420532236273
 40
0.7388796392719438
 40
0.7423383072663038
 40
0.7457964826088738
 40
0.7492541169838443
 40
0.7527111672768372
 40
0.756167595480412
 40
0.7596233686000733
 40
0.7630784585613671
 40
0.7665328421193284
 40
0.7699865007712403
 40
0.7734394206730185
 40
0.7768915925612833
 40
0.7803430116808099
 40
0.7837936777190712
 40
0.7872435947483492
 40
0.7906927711763756
 40
0.7941412197067133
 40
0.7975889573093105
 40
0.801036005202817
 40
0.8044823888493444
 40
0.8079281379630936
 40
0.8113732865338558
 40
0.8148178728671819
 40
0.8182619396422068
 40
0.8217055339898672
 40
0.8251487075919982
 40
0.8285915168051975
 40
0.8320340228106554
 40
0.8354762917937082
 40
0.8389183951562355
 40
0.8423604097654526
 40
0.8458024182444612
 40
0.8492445093087648
 40
0.8526867781559251
 40
0.8561293269148957
 40
0.859572265163763
 40
0.8630157105266374
 40
0.8664597893603593
 40
0.8699046375470598
 40
0.8733504014083988
 40
0.8767972387632905
 40
0.8802453201534964
 40
0.8836948302686641
 40
0.8871459696073604
 40
0.8905989564215583
 40
0.8940540290010152
 40
0.8975114483702205
 40
0.9009715014878256
 40
0.9044345050634656
 40
0.9079008101384616
 40
0.9113708076204086
 40
0.9148449350180627
 40
0.9183236847032078
 40
0.9218076141332736
 40
0.9252973586226385
 40
0.9287936474665667
 40
0.9322973245368095
 40
0.9354428345724518
 40
0.9385873953683499
 40
0.9417306979461834
 40
0.9448726532005686
 40
0.948013145087383
 40
0.9511520222760895
 40
0.9542890861164525
 40
0.9574240732728942
 40
0.9605566300240111
 40
0.9636862731150194
 40
0.9668123281089318
 40
0.9699338284497901
 40
0.9730493423951215
 40
0.9761566592946013
 40
0.9792521806150992
 40
0.9823296311321129
 40
0.9853770052155373
 40
0.9883681166129348
 40
0.9912330723062843
 40
0.9938006825410918
 40
0.9956511292073464
 40
0.9977152974901186
 40
1.0
 40
1.0
 40
1.0
 40
1.0
 10
490.8591861095686
 20
205.0167808124958
 30
0.0
 10
490.8591237298868
 20
205.1085235016962
 30
0.0
 10
490.8589817544883
 20
205.3173287485352
 30
0.0
 10
490.8558095440459
 20
205.6423097218773
 30
0.0
 10
490.8501849975368
 20
205.9918443519188
 30
0.0
 10
490.8419818786988
 20
206.3405372316261
 30
0.0
 10
490.8312920434179
 20
206.6883890165417
 30
0.0
 10
490.8180833156392
 20
207.0353635038279
 30
0.0
 10
490.8023572146947
 20
207.3814340121601
 30
0.0
 10
490.7841067244406
 20
207.7265709752118
 30
0.0
 10
490.7633276254869
 20
208.0707452848494
 30
0.0
 10
490.7400154798003
 20
208.4139274181023
 30
0.0
 10
490.7141664575567
 20
208.7560876958203
 30
0.0
 10
490.6857771342434
 20
209.097196240624
 30
0.0
 10
490.6548445626666
 20
209.4372230177339
 30
0.0
 10
490.6213662703461
 20
209.7761378558644
 30
0.0
 10
490.5853402757493
 20
210.1139104756413
 30
0.0
 10
490.5467650982104
 20
210.4505105180534
 30
0.0
 10
490.5056397681371
 20
210.7859075748205
 30
0.0
 10
490.4619638356161
 20
211.1200712199938
 30
0.0
 10
490.415737377805
 20
211.4529710428011
 30
0.0
 10
490.3669610049022
 20
211.7845766815163
 30
0.0
 10
490.3156358646546
 20
212.1148578581933
 30
0.0
 10
490.2617636453335
 20
212.4437844140549
 30
0.0
 10
490.2053465771282
 20
212.7713263453358
 30
0.0
 10
490.1463874319188
 20
213.0974538393581
 30
0.0
 10
490.0848895214016
 20
213.4221373106184
 30
0.0
 10
490.020856693559
 20
213.7453474366411
 30
0.0
 10
489.9542933274715
 20
214.0670551933774
 30
0.0
 10
489.8852043264931
 20
214.3872318899063
 30
0.0
 10
489.8135951098201
 20
214.705849202206
 30
0.0
 10
489.7394716024987
 20
215.0228792057716
 30
0.0
 10
489.6628402239343
 20
215.3382944068529
 30
0.0
 10
489.5837078749728
 20
215.6520677721118
 30
0.0
 10
489.502081923642
 20
215.9641727564989
 30
0.0
 10
489.4179701896497
 20
216.2745833291706
 30
0.0
 10
489.3313809277467
 20
216.5832739972885
 30
0.0
 10
489.2423228100724
 20
216.8902198275507
 30
0.0
 10
489.1508049076049
 20
217.1953964653457
 30
0.0
 10
489.0568366708491
 20
217.4987801514204
 30
0.0
 10
488.9604279098953
 20
217.8003477359918
 30
0.0
 10
488.8615887739861
 20
218.1000766902497
 30
0.0
 10
488.7603297307331
 20
218.3979451152186
 30
0.0
 10
488.6566615451155
 20
218.6939317479812
 30
0.0
 10
488.5505952584037
 20
218.9880159652737
 30
0.0
 10
488.4421421671354
 20
219.2801777844983
 30
0.0
 10
488.3313138022741
 20
219.5703978622112
 30
0.0
 10
488.2181219086713
 20
219.858657490168
 30
0.0
 10
488.1025784249446
 20
220.1449385890259
 30
0.0
 10
487.9846954638834
 20
220.4292236998098
 30
0.0
 10
487.8644852934723
 20
220.7114959732799
 30
0.0
 10
487.7419603186258
 20
220.9917391573323
 30
0.0
 10
487.6171330637092
 20
221.2699375825912
 30
0.0
 10
487.4900161559129
 20
221.5460761463394
 30
0.0
 10
487.3606223095373
 20
221.8201402949655
 30
0.0
 10
487.2289643112366
 20
222.0921160050808
 30
0.0
 10
487.095055006255
 20
222.3619897634834
 30
0.0
 10
486.9589072856807
 20
222.6297485461408
 30
0.0
 10
486.8205340747396
 20
222.8953797963482
 30
0.0
 10
486.6799483221266
 20
223.1588714022437
 30
0.0
 10
486.5371629903809
 20
223.4202116738245
 30
0.0
 10
486.3921910472902
 20
223.6793893196309
 30
0.0
 10
486.2450454583089
 20
223.9363934232384
 30
0.0
 10
486.0957391799655
 20
224.1912134197004
 30
0.0
 10
485.944285154226
 20
224.4438390720777
 30
0.0
 10
485.7906963037797
 20
224.6942604481714
 30
0.0
 10
485.6349855282101
 20
224.9424678975733
 30
0.0
 10
485.4771657009961
 20
225.1884520291433
 30
0.0
 10
485.3172496673055
 20
225.432203689003
 30
0.0
 10
485.1552502425235
 20
225.6737139391314
 30
0.0
 10
484.9911802114655
 20
225.9129740366363
 30
0.0
 10
484.8250523282202
 20
226.149975413766
 30
0.0
 10
484.6568793165641
 20
226.3847096587206
 30
0.0
 10
484.4866738708954
 20
226.6171684973032
 30
0.0
 10
484.3144486576271
 20
226.847343775455
 30
0.0
 10
484.1402163169879
 20
227.0752274426976
 30
0.0
 10
483.9639894651698
 20
227.300811536512
 30
0.0
 10
483.7857806967788
 20
227.5240881676566
 30
0.0
 10
483.6056025875219
 20
227.7450495064465
 30
0.0
 10
483.4234676970965
 20
227.9636877699805
 30
0.0
 10
483.2393885722161
 20
228.1799952103242
 30
0.0
 10
483.0533777497429
 20
228.3939641036249
 30
0.0
 10
482.8654477598665
 20
228.6055867401598
 30
0.0
 10
482.6756111293017
 20
228.8148554152791
 30
0.0
 10
482.4838803844548
 20
229.0217624212381
 30
0.0
 10
482.2902680545292
 20
229.2263000398774
 30
0.0
 10
482.0947866745281
 20
229.4284605361336
 30
0.0
 10
481.8974487881325
 20
229.6282361523373
 30
0.0
 10
481.6982669504192
 20
229.8256191032687
 30
0.0
 10
481.4972537303931
 20
230.0206015719349
 30
0.0
 10
481.2944217133153
 20
230.2131757060271
 30
0.0
 10
481.0897835027972
 20
230.4033336150246
 30
0.0
 10
480.883351722655
 20
230.5910673678958
 30
0.0
 10
480.6751390184961
 20
230.7763689913668
 30
0.0
 10
480.4651580590335
 20
230.9592304687067
 30
0.0
 10
480.2534215371165
 20
231.1396437389934
 30
0.0
 10
480.039942170465
 20
231.3176006968168
 30
0.0
 10
479.8247327021069
 20
231.4930931923817
 30
0.0
 10
479.6078059005123
 20
231.6661130319648
 30
0.0
 10
479.3891745594232
 20
231.8366519786919
 30
0.0
 10
479.1688514973866
 20
232.0047017535882
 30
0.0
 10
478.9468495569806
 20
232.1702540368757
 30
0.0
 10
478.7231816037547
 20
232.3333004694673
 30
0.0
 10
478.497860524876
 20
232.4938326546343
 30
0.0
 10
478.2708992275062
 20
232.651842159801
 30
0.0
 10
478.0423106369054
 20
232.8073205184446
 30
0.0
 10
477.8121076942885
 20
232.960259232059
 30
0.0
 10
477.5803033544366
 20
233.1106497721601
 30
0.0
 10
477.3469105830916
 20
233.2584835822978
 30
0.0
 10
477.1119423541414
 20
233.4037520800528
 30
0.0
 10
476.8754116466232
 20
233.5464466589888
 30
0.0
 10
476.6373314415629
 20
233.686558690539
 30
0.0
 10
476.3977150910942
 20
233.8240793120636
 30
0.0
 10
476.1565771945382
 20
233.9589989659624
 30
0.0
 10
475.9139323882263
 20
234.091308156413
 30
0.0
 10
475.6697949568709
 20
234.2209976475168
 30
0.0
 10
475.4241779264668
 20
234.3480588847164
 30
0.0
 10
475.1770943004782
 20
234.4724833020849
 30
0.0
 10
474.9285570561786
 20
234.5942623231563
 30
0.0
 10
474.6785791410141
 20
234.7133873615875
 30
0.0
 10
474.4271734690429
 20
234.8298498216296
 30
0.0
 10
474.1743529174882
 20
234.9436410984065
 30
0.0
 10
473.9201303234324
 20
235.0547525780005
 30
0.0
 10
473.6645184806923
 20
235.1631756373422
 30
0.0
 10
473.4075301369091
 20
235.2689016439114
 30
0.0
 10
473.1491779908874
 20
235.3719219552531
 30
0.0
 10
472.8894746902188
 20
235.4722279183173
 30
0.0
 10
472.6284328292304
 20
235.5698108686317
 30
0.0
 10
472.3660649472998
 20
235.6646621293185
 30
0.0
 10
472.1023835275633
 20
235.7567730099756
 30
0.0
 10
471.8374009960641
 20
235.8461348054338
 30
0.0
 10
471.5711297213737
 20
235.9327387944149
 30
0.0
 10
471.3035820147281
 20
236.016576238111
 30
0.0
 10
471.0347701307146
 20
236.0976383787098
 30
0.0
 10
470.7647062685443
 20
236.1759164378954
 30
0.0
 10
470.4934025739514
 20
236.2514016153531
 30
0.0
 10
470.2208711417503
 20
236.324085087312
 30
0.0
 10
469.9471240190853
 20
236.3939580051608
 30
0.0
 10
469.6721732094114
 20
236.461011494172
 30
0.0
 10
469.3960306772278
 20
236.5252366523782
 30
0.0
 10
469.1187083536064
 20
236.5866245496381
 30
0.0
 10
468.8402181425293
 20
236.645166226941
 30
0.0
 10
468.5605719280707
 20
236.700852695992
 30
0.0
 10
468.2797815824381
 20
236.753674939129
 30
0.0
 10
467.9978589748958
 20
236.8036239096204
 30
0.0
 10
467.7148159815869
 20
236.850690532392
 30
0.0
 10
467.4306644962576
 20
236.8948657052425
 30
0.0
 10
467.1454164419003
 20
236.9361403005922
 30
0.0
 10
466.8590837833073
 20
236.9745051678273
 30
0.0
 10
466.5716785405402
 20
237.0099511362893
 30
0.0
 10
466.2832128033021
 20
237.0424690189649
 30
0.0
 10
465.9936987461975
 20
237.0720496169317
 30
0.0
 10
465.7031486448552
 20
237.0986837246134
 30
0.0
 10
465.411574892888
 20
237.1223621358923
 30
0.0
 10
465.1189900196541
 20
237.1430756511344
 30
0.0
 10
464.8254067087736
 20
237.1608150851687
 30
0.0
 10
464.530837817344
 20
237.1755712762712
 30
0.0
 10
464.2352963957995
 20
237.1873350961857
 30
0.0
 10
463.9387957083329
 20
237.1960974612268
 30
0.0
 10
463.6413492538181
 20
237.201849344487
 30
0.0
 10
463.3429707871252
 20
237.2045817891767
 30
0.0
 10
463.0436743407435
 20
237.2042859231166
 30
0.0
 10
462.7434742465911
 20
237.2009529743889
 30
0.0
 10
462.4423851579061
 20
237.194574288152
 30
0.0
 10
462.140422071093
 20
237.1851413446114
 30
0.0
 10
461.8376003473757
 20
237.1726457781317
 30
0.0
 10
461.533935734128
 20
237.1570793974598
 30
0.0
 10
461.2294443857201
 20
237.138434207026
 30
0.0
 10
460.9241428837365
 20
237.1167024292693
 30
0.0
 10
460.6180482563893
 20
237.0918765279299
 30
0.0
 10
460.3111779969631
 20
237.0639492322325
 30
0.0
 10
460.003550081123
 20
237.0329135618759
 30
0.0
 10
459.6951829829136
 20
236.9987628527302
 30
0.0
 10
459.3860956892709
 20
236.9614907831308
 30
0.0
 10
459.076307712879
 20
236.9210914006453
 30
0.0
 10
458.7658391032048
 20
236.8775591491788
 30
0.0
 10
458.4547104555498
 20
236.8308888962715
 30
0.0
 10
458.1429429179655
 20
236.7810759604327
 30
0.0
 10
457.8305581958807
 20
236.728116138343
 30
0.0
 10
457.5175785543242
 20
236.6720057317548
 30
0.0
 10
457.204026817612
 20
236.6127415739075
 30
0.0
 10
456.8899263664141
 20
236.5503210552756
 30
0.0
 10
456.5753011321034
 20
236.4847421484592
 30
0.0
 10
456.2601755883416
 20
236.4160034320294
 30
0.0
 10
455.9445747398485
 20
236.3441041131405
 30
0.0
 10
455.6285241083633
 20
236.2690440487263
 30
0.0
 10
455.3120497157832
 20
236.1908237650994
 30
0.0
 10
454.9951780645401
 20
236.109444475786
 30
0.0
 10
454.6779361152596
 20
236.0249080974342
 30
0.0
 10
454.3603512618068
 20
235.9372172636507
 30
0.0
 10
454.0424513038337
 20
235.8463753366315
 30
0.0
 10
453.7242644169606
 20
235.7523864164723
 30
0.0
 10
453.4058191207712
 20
235.6552553480616
 30
0.0
 10
453.0871442448007
 20
235.5549877254778
 30
0.0
 10
452.7682688927317
 20
235.4515898938365
 30
0.0
 10
452.4492224050312
 20
235.3450689485549
 30
0.0
 10
452.1300343202593
 20
235.23543273202
 30
0.0
 10
451.8107343353284
 20
235.1226898276762
 30
0.0
 10
451.4913522649553
 20
235.0068495515656
 30
0.0
 10
451.1719180006055
 20
234.8879219413811
 30
0.0
 10
450.85246146918
 20
234.7659177431074
 30
0.0
 10
450.5330125917466
 20
234.6408483953569
 30
0.0
 10
450.2136012425672
 20
234.5127260115126
 30
0.0
 10
449.8942572086983
 20
234.381563359819
 30
0.0
 10
449.5750101504087
 20
234.2473738415679
 30
0.0
 10
449.2558895626689
 20
234.1101714675484
 30
0.0
 10
448.9369247379254
 20
233.9699708329329
 30
0.0
 10
448.6181447303787
 20
233.8267870907855
 30
0.0
 10
448.2995783219315
 20
233.6806359243751
 30
0.0
 10
447.9812539900034
 20
233.5315335184962
 30
0.0
 10
447.6631998773252
 20
233.3794965299826
 30
0.0
 10
447.3454437638546
 20
233.2245420576109
 30
0.0
 10
447.02801304089
 20
233.0666876115791
 30
0.0
 10
446.7109346874714
 20
232.9059510827462
 30
0.0
 10
446.3942352491021
 20
232.7423507118079
 30
0.0
 10
446.0779408188276
 20
232.5759050585745
 30
0.0
 10
445.7620770206632
 20
232.4066329715046
 30
0.0
 10
445.4466689953763
 20
232.2345535576511
 30
0.0
 10
445.1317413885543
 20
232.059686153134
 30
0.0
 10
444.817318340939
 20
231.8820502942768
 30
0.0
 10
444.5034234809319
 20
231.7016656895002
 30
0.0
 10
444.1900799192037
 20
231.5185521920711
 30
0.0
 10
443.8773102453094
 20
231.3327297737857
 30
0.0
 10
443.5651365261954
 20
231.1442184996456
 30
0.0
 10
443.2535803065069
 20
230.9530385035896
 30
0.0
 10
442.9426627795469
 20
230.7592100706604
 30
0.0
 10
442.6324055943143
 20
230.5627541328351
 30
0.0
 10
442.322829830949
 20
230.3636916386338
 30
0.0
 10
442.0139558316338
 20
230.1620434135442
 30
0.0
 10
441.7058024137253
 20
229.9578295908922
 30
0.0
 10
441.3983878983723
 20
229.7510702399206
 30
0.0
 10
441.0917301286713
 20
229.5417853551152
 30
0.0
 10
440.7858464801869
 20
229.3299948412012
 30
0.0
 10
440.4807538720239
 20
229.1157184991032
 30
0.0
 10
440.1764687783758
 20
228.898976012847
 30
0.0
 10
439.8730072404601
 20
228.6797869373636
 30
0.0
 10
439.5703848787128
 20
228.4581706871225
 30
0.0
 10
439.2686169051717
 20
228.234146525551
 30
0.0
 10
438.9677181359224
 20
228.0077335551531
 30
0.0
 10
438.6677030035464
 20
227.7789507082775
 30
0.0
 10
438.3685855694605
 20
227.5478167384438
 30
0.0
 10
438.0703795360922
 20
227.314350212169
 30
0.0
 10
437.7730982588009
 20
227.0785695012049
 30
0.0
 10
437.4767547574813
 20
226.8404927751099
 30
0.0
 10
437.1813617277909
 20
226.6001379940809
 30
0.0
 10
436.8869315519261
 20
226.3575229019474
 30
0.0
 10
436.5934763089078
 20
226.1126650192569
 30
0.0
 10
436.3010077842967
 20
225.8655816363419
 30
0.0
 10
436.0095374793103
 20
225.6162898062965
 30
0.0
 10
435.7190766192747
 20
225.3648063377504
 30
0.0
 10
435.4296361613627
 20
225.1111477873452
 30
0.0
 10
435.1412268015739
 20
224.8553304518063
 30
0.0
 10
434.8538589808941
 20
224.5973703594945
 30
0.0
 10
434.5675428905926
 20
224.3372832613214
 30
0.0
 10
434.282288476588
 20
224.0750846208918
 30
0.0
 10
433.9981054428352
 20
223.8107896037434
 30
0.0
 10
433.7150032536557
 20
223.5444130655226
 30
0.0
 10
433.4329911349542
 20
223.2759695389412
 30
0.0
 10
433.1520780742171
 20
223.0054732193119
 30
0.0
 10
432.8722728192321
 20
222.7329379484834
 30
0.0
 10
432.5935838753949
 20
222.4583771969217
 30
0.0
 10
432.3160195015179
 20
222.1818040437102
 30
0.0
 10
432.0395877039732
 20
221.9032311541508
 30
0.0
 10
431.7642962290373
 20
221.6226707546596
 30
0.0
 10
431.4901525532466
 20
221.3401346045744
 30
0.0
 10
431.2171638715469
 20
221.0556339644386
 30
0.0
 10
430.9453370830047
 20
220.7691795602814
 30
0.0
 10
430.6746787737686
 20
220.4807815432965
 30
0.0
 10
430.4051951969599
 20
220.190449444274
 30
0.0
 10
430.1368922490735
 20
219.8981921219884
 30
0.0
 10
429.8697754424122
 20
219.6040177046227
 30
0.0
 10
429.603849872993
 20
219.3079335231573
 30
0.0
 10
429.3391201832254
 20
219.009946035414
 30
0.0
 10
429.0755905185716
 20
218.7100607392518
 30
0.0
 10
428.8132644771718
 20
218.4082820730418
 30
0.0
 10
428.5521450512766
 20
218.1046133012466
 30
0.0
 10
428.292234559009
 20
217.7990563823922
 30
0.0
 10
428.0335345647104
 20
217.4916118162043
 30
0.0
 10
427.7760457856721
 20
217.1822784658861
 30
0.0
 10
427.5197679825857
 20
216.8710533506486
 30
0.0
 10
427.2646998303401
 20
216.5579314023587
 30
0.0
 10
427.0108387649855
 20
216.2429051786952
 30
0.0
 10
426.7581808015504
 20
215.9259645231863
 30
0.0
 10
426.5067203159726
 20
215.6070961599343
 30
0.0
 10
426.2564497824887
 20
215.2862832074099
 30
0.0
 10
426.0073594551906
 20
214.963504591017
 30
0.0
 10
425.7594369793113
 20
214.6387343283958
 30
0.0
 10
425.512666911762
 20
214.311940651163
 30
0.0
 10
425.267030128693
 20
213.9830849218797
 30
0.0
 10
425.0225030702488
 20
213.6521202628249
 30
0.0
 10
424.7790568278335
 20
213.3189898857271
 30
0.0
 10
424.5451080123613
 20
212.9953184652073
 30
0.0
 10
424.3206661525857
 20
212.6815369561713
 30
0.0
 10
424.1057655402811
 20
212.3781038912117
 30
0.0
 10
423.8922381456678
 20
212.073604378301
 30
0.0
 10
423.680104484172
 20
211.7680723172166
 30
0.0
 10
423.4693812586698
 20
211.4615367589123
 30
0.0
 10
423.2600873402649
 20
211.1540305198473
 30
0.0
 10
423.0522445243886
 20
210.845591487107
 30
0.0
 10
422.8458786236989
 20
210.5362645055566
 30
0.0
 10
422.6410211036654
 20
210.2261041980389
 30
0.0
 10
422.4377116002417
 20
209.9151793027131
 30
0.0
 10
422.2360019385446
 20
209.6035795891912
 30
0.0
 10
422.0359628239298
 20
209.2914273638722
 30
0.0
 10
421.8376955689948
 20
208.978897610294
 30
0.0
 10
421.6413539677371
 20
208.666255534202
 30
0.0
 10
421.4471885070915
 20
208.3539323027132
 30
0.0
 10
421.2556453398467
 20
208.0426946313566
 30
0.0
 10
421.0676226717384
 20
207.7340825450393
 30
0.0
 10
420.8852924701891
 20
207.4318137236772
 30
0.0
 10
420.7139985122517
 20
207.1450644744496
 30
0.0
 10
420.5668716967029
 20
206.896541674438
 30
0.0
 10
420.4366453953455
 20
206.6749059369681
 30
0.0
 10
420.3126593113415
 20
206.4626089941187
 30
0.0
 10
420.2262889534402
 20
206.3133254125867
 30
0.0
 10
420.1809138243815
 20
206.2348984853057
 30
0.0
  0
SPLINE
  5
F8
330
1F
100
AcDbEntity
  8
0
  6
Continuous
 62
     7
370
    30
100
AcDbSpline
210
0.0
220
0.0
230
1.0
 70
     8
 71
     3
 72
    63
 73
    59
 74
     0
 42
0.000000001
 43
0.00000001
 40
0.0
 40
0.0
 40
0.0
 40
0.0
 40
0.0201261719170416
 40
0.0281486127819044
 40
0.0414881181979596
 40
0.0553280708357183
 40
0.0701716575879251
 40
0.0856666640710609
 40
0.1016718923480809
 40
0.1180745381637606
 40
0.1347943520331948
 40
0.1517718915649456
 40
0.1689623167045616
 40
0.186331151827127
 40
0.2038514352764756
 40
0.2215017563666055
 40
0.2392648775832242
 40
0.257126749461895
 40
0.2750757939334576
 40
0.2931023745302287
 40
0.3111983988690212
 40
0.329357016269966
 40
0.3475723848179573
 40
0.3658394898135864
 40
0.3841540007434223
 40
0.402512157468616
 40
0.4209106788188641
 40
0.4393466885501403
 40
0.4578176548841569
 40
0.4763213407667254
 40
0.4948557626592849
 40
0.5134191561734388
 40
0.5320099472352373
 40
0.5506267277469125
 40
0.5692682349324638
 40
0.5879333337159548
 40
0.6066210016131912
 40
0.6253303157148181
 40
0.6440604414224743
 40
0.6628106226558705
 40
0.6815801733041285
 40
0.7003684697328663
 40
0.7191749441870822
 40
0.7379990789632945
 40
0.7568404012389666
 40
0.7756984784668312
 40
0.7945729142587588
 40
0.8134633446898786
 40
0.8323694349705645
 40
0.8512908764340852
 40
0.870227383803576
 40
0.889178692697954
 40
0.9081445573499116
 40
0.9271247485082542
 40
0.9461190515010225
 40
0.9651272644396709
 40
0.9841491965476873
 40
1.0
 40
1.0
 40
1.0
 40
1.0
 10
420.1809138243815
 20
206.2348984853057
 30
0.0
 10
420.1121582099699
 20
206.1154158111763
 30
0.0
 10
420.0159960995283
 20
205.9483064601244
 30
0.0
 10
419.8754681322923
 20
205.7013248846546
 30
0.0
 10
419.7567595956013
 20
205.4914740924202
 30
0.0
 10
419.6159347521199
 20
205.2404780829669
 30
0.0
 10
419.4688504611499
 20
204.9760945129758
 30
0.0
 10
419.3156391638495
 20
204.6981895634807
 30
0.0
 10
419.1584389463728
 20
204.4103429257399
 30
0.0
 10
418.9984560374035
 20
204.1145227977803
 30
0.0
 10
418.8366027020181
 20
203.8122211860317
 30
0.0
 10
418.6735508853997
 20
203.5045319239742
 30
0.0
 10
418.5098098916395
 20
203.1922811827246
 30
0.0
 10
418.3457734942848
 20
202.8761053152477
 30
0.0
 10
418.1817519544479
 20
202.5565038868521
 30
0.0
 10
418.0179939697976
 20
202.2338759156264
 30
0.0
 10
417.8547020271444
 20
201.9085451800667
 30
0.0
 10
417.6920433491287
 20
201.5807782218046
 30
0.0
 10
417.5301578382932
 20
201.250797381465
 30
0.0
 10
417.3691639385866
 20
200.9187903944197
 30
0.0
 10
417.2091630267128
 20
200.584917562607
 30
0.0
 10
417.050242748733
 20
200.2493171904213
 30
0.0
 10
416.8924795883245
 20
199.9121097584373
 30
0.0
 10
416.7359408673851
 20
199.5734011664194
 30
0.0
 10
416.5806863217103
 20
199.2332852809848
 30
0.0
 10
416.4267693547001
 20
198.8918459574423
 30
0.0
 10
416.2742380443262
 20
198.5491586594705
 30
0.0
 10
416.1231359590233
 20
198.2052917679954
 30
0.0
 10
415.973502824155
 20
197.8603076475115
 30
0.0
 10
415.8253750705592
 20
197.5142635213849
 30
0.0
 10
415.6787862892414
 20
197.1672121954469
 30
0.0
 10
415.5337676107721
 20
196.8192026601297
 30
0.0
 10
415.3903480238323
 20
196.470280594664
 30
0.0
 10
415.2485546442259
 20
196.1204887917291
 30
0.0
 10
415.1084129433196
 20
195.769867517094
 30
0.0
 10
414.969946943029
 20
195.4184548157884
 30
0.0
 10
414.8331793830773
 20
195.0662867740615
 30
0.0
 10
414.6981318651271
 20
194.7133977445635
 30
0.0
 10
414.5648249775393
 20
194.3598205408018
 30
0.0
 10
414.43327840381
 20
194.0055866057911
 30
0.0
 10
414.3035110171986
 20
193.6507261589373
 30
0.0
 10
414.1755409636218
 20
193.295268324493
 30
0.0
 10
414.0493857345214
 20
192.9392412443325
 30
0.0
 10
413.9250622311669
 20
192.5826721773567
 30
0.0
 10
413.8025868214906
 20
192.2255875874365
 30
0.0
 10
413.6819753908272
 20
191.8680132215237
 30
0.0
 10
413.5632433860449
 20
191.5099741792637
 30
0.0
 10
413.4464058588841
 20
191.1514949753761
 30
0.0
 10
413.3314774900445
 20
190.7925995953245
 30
0.0
 10
413.2184726658263
 20
190.4333115468906
 30
0.0
 10
413.1074053413696
 20
190.0736539016614
 30
0.0
 10
412.9982896863185
 20
189.7136493521875
 30
0.0
 10
412.8911377937823
 20
189.3533201913368
 30
0.0
 10
412.7859683501375
 20
188.9926885656044
 30
0.0
 10
412.68277434163
 20
188.6317756901759
 30
0.0
 10
412.5816437989398
 20
188.2706049302977
 30
0.0
 10
412.487852361086
 20
187.9293599223843
 30
0.0
 10
412.4287869177099
 20
187.7085340820148
 30
0.0
 10
412.4019397341227
 20
187.6081614861559
 30
0.0
  0
SPLINE
  5
F9
330
1F
100
AcDbEntity
  8
0
  6
Continuous
 62
     7
370
    30
100
AcDbSpline
210
0.0
220
0.0
230
1.0
 70
     8
 71
     3
 72
    58
 73
    54
 74
     0
 42
0.000000001
 43
0.00000001
 40
0.0
 40
0.0
 40
0.0
 40
0.0
 40
0.0179815290073222
 40
0.0386126876481007
 40
0.0592691085170078
 40
0.0799509343525531
 40
0.1006583364413056
 40
0.1213915181379351
 40
0.1421507187797744
 40
0.162936218061167
 40
0.1837483409469984
 40
0.2045874632132796
 40
0.2254540177284181
 40
0.2463485016049216
 40
0.2672714843838077
 40
0.2882236174459626
 40
0.3092056448894067
 40
0.3302184161673301
 40
0.3512629008533568
 40
0.3723402059896915
 40
0.3934515965944242
 40
0.4145985200572641
 40
0.4357826353614673
 40
0.4570058483380939
 40
0.4782703545344077
 40
0.4995786917770391
 40
0.5209338052180713
 40
0.5423391286269587
 40
0.5637986871016906
 40
0.5853172284043942
 40
0.6046423189106045
 40
0.6239709523316469
 40
0.6433007385584006
 40
0.6626306478549671
 40
0.6819594768411281
 40
0.7012857945240077
 40
0.7206078642789123
 40
0.7399235308412343
 40
0.7592300523837261
 40
0.7785238435737649
 40
0.7978000688480259
 40
0.8170519724584718
 40
0.836269721493026
 40
0.8554382902592068
 40
0.8745333088306468
 40
0.8935121540137685
 40
0.9122924437206076
 40
0.9306909258047817
 40
0.9482004749775577
 40
0.9633708640872007
 40
0.9749120605612678
 40
0.9881032430198543
 40
0.9999999999999999
 40
0.9999999999999999
 40
0.9999999999999999
 40
0.9999999999999999
 10
435.5915170598886
 20
181.4242306690704
 30
0.0
 10
435.6117449644298
 20
181.4997705553858
 30
0.0
 10
435.6551814129937
 20
181.6619813459189
 30
0.0
 10
435.7240960060517
 20
181.9117999736206
 30
0.0
 10
435.7978080155439
 20
182.1735735298602
 30
0.0
 10
435.8734935920731
 20
182.4362958033144
 30
0.0
 10
435.9510940468799
 20
182.6999140017692
 30
0.0
 10
436.0306273734999
 20
182.9644050030637
 30
0.0
 10
436.1120908120735
 20
183.229738258738
 30
0.0
 10
436.1954870504656
 20
183.4958858222025
 30
0.0
 10
436.2808172406529
 20
183.7628197345915
 30
0.0
 10
436.3680829295438
 20
184.0305128139364
 30
0.0
 10
436.4572856036864
 20
184.2989385418494
 30
0.0
 10
436.5484268827756
 20
184.5680712056441
 30
0.0
 10
436.6415085486814
 20
184.8378859874602
 30
0.0
 10
436.7365326301364
 20
185.1083590861543
 30
0.0
 10
436.8335014861797
 20
185.3794678525557
 30
0.0
 10
436.9324179063471
 20
185.6511909477697
 30
0.0
 10
437.0332852261392
 20
185.9235085274803
 30
0.0
 10
437.1361074623586
 20
186.196402458409
 30
0.0
 10
437.2408894723608
 20
186.4698565740158
 30
0.0
 10
437.347637142836
 20
186.7438569786788
 30
0.0
 10
437.4563576151606
 20
187.0183924120801
 30
0.0
 10
437.5670595565598
 20
187.2934546892382
 30
0.0
 10
437.6797534887852
 20
187.5690392356015
 30
0.0
 10
437.7944521911119
 20
187.8451457458556
 30
0.0
 10
437.9111711951545
 20
188.1217789938674
 30
0.0
 10
438.029929413889
 20
188.3989498722027
 30
0.0
 10
438.1507498930322
 20
188.6766766145514
 30
0.0
 10
438.2693620347229
 20
188.9452526323612
 30
0.0
 10
438.3854615735881
 20
189.2044496130368
 30
0.0
 10
438.4987368327924
 20
189.4540185336866
 30
0.0
 10
438.6134107251304
 20
189.7033840607655
 30
0.0
 10
438.729464302784
 20
189.9525022819404
 30
0.0
 10
438.8468799752986
 20
190.201333533887
 30
0.0
 10
438.9656382058819
 20
190.4498353175619
 30
0.0
 10
439.0857169208173
 20
190.697961268449
 30
0.0
 10
439.2070906560272
 20
190.9456596723602
 30
0.0
 10
439.3297292750065
 20
191.1928712322478
 30
0.0
 10
439.4535959878294
 20
191.4395256151325
 30
0.0
 10
439.5786441751999
 20
191.6855359106831
 30
0.0
 10
439.7048120714527
 20
191.9307893460101
 30
0.0
 10
439.8320133868359
 20
192.1751308892392
 30
0.0
 10
439.9601196562321
 20
192.4183323659155
 30
0.0
 10
440.0889242066798
 20
192.6600292937495
 30
0.0
 10
440.2180600885432
 20
192.89957700719
 30
0.0
 10
440.3467833191011
 20
193.1356693732878
 30
0.0
 10
440.4732489389606
 20
193.3650657249348
 30
0.0
 10
440.5923600609282
 20
193.5788334199606
 30
0.0
 10
440.6962519098105
 20
193.7635085105864
 30
0.0
 10
440.7905741474783
 20
193.9298432919512
 30
0.0
 10
440.8776027874531
 20
194.082291052093
 30
0.0
 10
440.9376242227075
 20
194.186471223457
 30
0.0
 10
440.9660865215171
 20
194.2358736936716
 30
0.0
  0
SPLINE
  5
FA
330
1F
100
AcDbEntity
  8
0
  6
Continuous
 62
     7
370
    30
100
AcDbSpline
210
0.0
220
0.0
230
1.0
 70
     8
 71
     3
 72
   258
 73
   254
 74
     0
 42
0.000000001
 43
0.00000001
 40
0.0
 40
0.0
 40
0.0
 40
0.0
 40
0.0040481277748243
 40
0.005664216446382
 40
0.0083510301969425
 40
0.0111388984768831
 40
0.0141289984418335
 40
0.0172502283468513
 40
0.0204740257518359
 40
0.0237775546601676
 40
0.0271445439297599
 40
0.0305629176465896
 40
0.0340235437200946
 40
0.0375193792341391
 40
0.0410448956693468
 40
0.0445956831265593
 40
0.0481681725736497
 40
0.051759437280299
 40
0.0553670483878742
 40
0.05898896815426
 40
0.0626234698673641
 40
0.0662690769366347
 40
0.0699245159825153
 40
0.0735886802842624
 40
0.0772606009915108
 40
0.0809394242240259
 40
0.0846243926877779
 40
0.088314830790282
 40
0.0920101324931057
 40
0.0957097513256086
 40
0.0994131921184553
 40
0.1031200041171549
 40
0.1068297752110807
 40
0.110542127069682
 40
0.114256711022946
 40
0.1179732045539884
 40
0.1216913083003128
 40
0.1254107434781165
 40
0.1291312496620919
 40
0.1328525828637675
 40
0.1365745138633714
 40
0.1402968267562083
 40
0.1440193176833815
 40
0.147741793719527
 40
0.1514640718965527
 40
0.1551859783445691
 40
0.1589073475344028
 40
0.1626280216090962
 40
0.166347849792613
 40
0.1700666878667843
 40
0.173784397708091
 40
0.1775008468773522
 40
0.1812159082565548
 40
0.1849294597271336
 40
0.1886413838863062
 40
0.1923515677959011
 40
0.196059902762405
 40
0.1997662841435161
 40
0.203470611179675
 40
0.2071727868481733
 40
0.2108727177376225
 40
0.2145703139415213
 40
0.2182654889690317
 40
0.2219581596722207
 40
0.2256482461877176
 40
0.2293356718930071
 40
0.2330203633755604
 40
0.2367022504144512
 40
0.2403812659735638
 40
0.2440573462062779
 40
0.2477304304707763
 40
0.251400461355586
 40
0.2550673847149466
 40
0.2587311497143014
 40
0.262391708884617
 40
0.2660490181865459
 40
0.2697030370830205
 40
0.2733537286214738
 40
0.2770010595243875
 40
0.2806450002890697
 40
0.2842855252961977
 40
0.2879226129271769
 40
0.2915562456907325
 40
0.2951864103579265
 40
0.298813098107264
 40
0.3024363046781935
 40
0.3060560305347597
 40
0.3096722810385896
 40
0.3132850666321885
 40
0.3168944030318836
 40
0.3205003114320229
 40
0.3241028187192562
 40
0.3277019576986692
 40
0.3312977673312697
 40
0.3348902929835684
 40
0.338479586689597
 40
0.3420657074266464
 40
0.3456487214037522
 40
0.34922870236547
 40
0.3528057319100423
 40
0.356379899823681
 40
0.359951304431513
 40
0.3635200529658649
 40
0.367086261953566
 40
0.3706500576224644
 40
0.3742115763290552
 40
0.3777709650083111
 40
0.3813283816472435
 40
0.3848839957834934
 40
0.3884379890311487
 40
0.391990555635462
 40
0.3955419030587168
 40
0.3990922525993225
 40
0.4026418400475247
 40
0.4061909163794465
 40
0.4097397484939538
 40
0.4132886199949545
 40
0.4168377898726569
 40
0.4203875140734781
 40
0.423938125590023
 40
0.4274899769653105
 40
0.4310434418020838
 40
0.4345989158851872
 40
0.4381568183894101
 40
0.4417175931783504
 40
0.4452817102030681
 40
0.4488496670115061
 40
0.4524219903809676
 40
0.4559992380871817
 40
0.459582000825532
 40
0.4631709043024349
 40
0.4667666115171386
 40
0.4703698252571201
 40
0.4739812908341409
 40
0.4776017990915257
 40
0.4812321897181484
 40
0.4848733549109537
 40
0.4885262434331734
 40
0.4921918651245907
 40
0.4958712959293405
 40
0.4995656835177935
 40
0.5032762535933487
 40
0.5070043169917793
 40
0.510751277700335
 40
0.5145186419499942
 40
0.5183080285641593
 40
0.5221211807852959
 40
0.5259599798494466
 40
0.5298264606369021
 40
0.5337228298046853
 40
0.5376514869013685
 40
0.5416150490895834
 40
0.5456163802622261
 40
0.5496586255479926
 40
0.5537452524807677
 40
0.5578801004778784
 40
0.5620674407745857
 40
0.5663120496496262
 40
0.5706192987295333
 40
0.5749952675030522
 40
0.5794468850995368
 40
0.5839821111869276
 40
0.5886101700093359
 40
0.5933418579083738
 40
0.598189954512056
 40
0.6031697834999743
 40
0.6082999947523616
 40
0.6136036838127239
 40
0.6191100426747853
 40
0.6248568801106067
 40
0.6308946289792775
 40
0.6372930264210138
 40
0.6441528644708444
 40
0.6516278232950721
 40
0.6599660902908082
 40
0.6695743551701081
 40
0.6808591441270045
 40
0.6891769193124699
 40
0.696574161743348
 40
0.7033191813932538
 40
0.7095814783162733
 40
0.7154715957474135
 40
0.721065015116096
 40
0.7264155122527335
 40
0.7321257127188903
 40
0.7376054781849195
 40
0.7428839830543752
 40
0.7479923167059852
 40
0.7529546353607226
 40
0.7577900844033855
 40
0.7625141701785718
 40
0.7671396811882856
 40
0.7716773268890061
 40
0.7761361936569039
 40
0.7805240783736253
 40
0.7848477377190771
 40
0.7891130779506754
 40
0.7933253017460618
 40
0.7974890234735419
 40
0.8016083608506934
 40
0.8056870086751668
 40
0.8097282987575135
 40
0.8137352491027999
 40
0.8177106046208045
 40
0.8216568710933153
 40
0.8255763437233512
 40
0.8294711312938449
 40
0.8333431767397622
 40
0.8371942747693744
 40
0.8410260870406919
 40
0.8448401552997675
 40
0.8486379128098863
 40
0.8524206943394235
 40
0.8561897449282123
 40
0.8599462276134414
 40
0.8636912302655412
 40
0.8674257716590227
 40
0.8711508068836915
 40
0.8748672321840821
 40
0.8785758893023512
 40
0.8822775693877875
 40
0.885973016527116
 40
0.8896629309419267
 40
0.8933479718929516
 40
0.8970287603254106
 40
0.9007058812850346
 40
0.9043798861305581
 40
0.9080512945647478
 40
0.9117205965037714
 40
0.9153882538014392
 40
0.919054701843779
 40
0.9227203510265375
 40
0.9263855881275078
 40
0.9300507775836024
 40
0.9337162418500679
 40
0.9373822168887244
 40
0.9410490126057384
 40
0.9447169213179859
 40
0.9483862179268682
 40
0.9520571607976471
 40
0.9557299925935925
 40
0.959404941062568
 40
0.9630822197800495
 40
0.9667620288519737
 40
0.9704445555804594
 40
0.9741299750953303
 40
0.9778184509536723
 40
0.9815101357102016
 40
0.9852051714600663
 40
0.9889036903562335
 40
0.99260581510319
 40
0.9963116594285114
 40
1.0
 40
1.0
 40
1.0
 40
1.0
 10
440.9660865215171
 20
194.2358736936716
 30
0.0
 10
441.0175643501942
 20
194.3247450154007
 30
0.0
 10
441.0895930953416
 20
194.4490954386457
 30
0.0
 10
441.1967241291974
 20
194.6318702001581
 30
0.0
 10
441.2880924395435
 20
194.7868119040082
 30
0.0
 10
441.3978381736675
 20
194.9713495939787
 30
0.0
 10
441.5139373605124
 20
195.1648835002131
 30
0.0
 10
441.6365214325138
 20
195.3673553715996
 30
0.0
 10
441.7640670218099
 20
195.5760298886552
 30
0.0
 10
441.8957442312428
 20
195.7893756727491
 30
0.0
 10
442.0309203505466
 20
196.0062295568258
 30
0.0
 10
442.1691297082787
 20
196.2257325929298
 30
0.0
 10
442.3100183684697
 20
196.4472310629648
 30
0.0
 10
442.4533114652655
 20
196.6702169287814
 30
0.0
 10
442.5987909237808
 20
196.8942873237882
 30
0.0
 10
442.7462802656322
 20
197.1191168315589
 30
0.0
 10
442.8956340109524
 20
197.3444381161807
 30
0.0
 10
443.0467301517754
 20
197.5700281309596
 30
0.0
 10
443.1994647106575
 20
197.7956981240175
 30
0.0
 10
443.353747742156
 20
198.0212862751689
 30
0.0
 10
443.5095003496763
 20
198.2466521883239
 30
0.0
 10
443.6666524286226
 20
198.4716727137867
 30
0.0
 10
443.8251409369583
 20
198.6962387382885
 30
0.0
 10
443.9849085541886
 20
198.9202526892388
 30
0.0
 10
444.1459026301502
 20
199.143626573027
 30
0.0
 10
444.3080743526833
 20
199.3662804175495
 30
0.0
 10
444.4713780824794
 20
199.5881410241739
 30
0.0
 10
444.6357708169692
 20
199.8091409590765
 30
0.0
 10
444.8012117547847
 20
200.0292177315806
 30
0.0
 10
444.9676619393244
 20
200.2483131199049
 30
0.0
 10
445.1350839650731
 20
200.4663726141261
 30
0.0
 10
445.3034417340973
 20
200.6833449530777
 30
0.0
 10
445.4727002529617
 20
200.8991817370969
 30
0.0
 10
445.6428254624443
 20
201.1138371024558
 30
0.0
 10
445.8137840940277
 20
201.3272674462711
 30
0.0
 10
445.9855435484059
 20
201.5394311930043
 30
0.0
 10
446.1580717921751
 20
201.7502885954023
 30
0.0
 10
446.331337269656
 20
201.9598015641478
 30
0.0
 10
446.5053088273484
 20
202.16793352154
 30
0.0
 10
446.6799556490107
 20
202.3746492754173
 30
0.0
 10
446.8552471996913
 20
202.5799149101802
 30
0.0
 10
447.0311531773672
 20
202.7836976923616
 30
0.0
 10
447.2076434710471
 20
202.9859659885898
 30
0.0
 10
447.3846881244197
 20
203.1866891941867
 30
0.0
 10
447.5622573042551
 20
203.3858376709026
 30
0.0
 10
447.7403212729113
 20
203.5833826925433
 30
0.0
 10
447.9188503643962
 20
203.7792963974383
 30
0.0
 10
448.0978149635163
 20
203.9735517468511
 30
0.0
 10
448.277185487728
 20
204.166122488585
 30
0.0
 10
448.4569323713486
 20
204.3569831251255
 30
0.0
 10
448.6370260518488
 20
204.5461088857737
 30
0.0
 10
448.8174369579816
 20
204.7334757022943
 30
0.0
 10
448.9981354995342
 20
204.9190601876602
 30
0.0
 10
449.1790920585367
 20
205.1028396175551
 30
0.0
 10
449.3602769817531
 20
205.284791914306
 30
0.0
 10
449.5416605743451
 20
205.4648956330011
 30
0.0
 10
449.72321309457
 20
205.6431299495377
 30
0.0
 10
449.9049047494331
 20
205.8194746504167
 30
0.0
 10
450.086705691193
 20
205.9939101240877
 30
0.0
 10
450.268586014652
 20
206.1664173536973
 30
0.0
 10
450.4505157551651
 20
206.3369779111002
 30
0.0
 10
450.6324648873065
 20
206.5055739520054
 30
0.0
 10
450.8144033241522
 20
206.6721882121569
 30
0.0
 10
450.9963009171229
 20
206.8368040044423
 30
0.0
 10
451.1781274563618
 20
206.9994052168499
 30
0.0
 10
451.3598526716034
 20
207.1599763111935
 30
0.0
 10
451.5414462335171
 20
207.3185023225385
 30
0.0
 10
451.722877755484
 20
207.4749688592615
 30
0.0
 10
451.9041167957979
 20
207.6293621036887
 30
0.0
 10
452.0851328602661
 20
207.7816688132655
 30
0.0
 10
452.2658954051965
 20
207.9318763222078
 30
0.0
 10
452.4463738407488
 20
208.0799725435886
 30
0.0
 10
452.6265375346468
 20
208.2259459718261
 30
0.0
 10
452.8063558162317
 20
208.3697856855343
 30
0.0
 10
452.9857979808597
 20
208.5114813507077
 30
0.0
 10
453.164833294617
 20
208.6510232241986
 30
0.0
 10
453.3434309993659
 20
208.7884021574706
 30
0.0
 10
453.5215603180951
 20
208.9236096005897
 30
0.0
 10
453.6991904605887
 20
209.0566376064371
 30
0.0
 10
453.876290629393
 20
209.1874788351127
 30
0.0
 10
454.0528300260875
 20
209.3161265585096
 30
0.0
 10
454.2287778578562
 20
209.4425746650392
 30
0.0
 10
454.4041033443445
 20
209.5668176644795
 30
0.0
 10
454.5787757248193
 20
209.688850692935
 30
0.0
 10
454.7527642656068
 20
209.808669517879
 30
0.0
 10
454.9260382678297
 20
209.9262705432703
 30
0.0
 10
455.0985670754188
 20
210.0416508147146
 30
0.0
 10
455.2703200834193
 20
210.1548080246624
 30
0.0
 10
455.4412667465692
 20
210.2657405176165
 30
0.0
 10
455.6113765881676
 20
210.3744472953408
 30
0.0
 10
455.7806192092111
 20
210.480928022043
 30
0.0
 10
455.9489642978166
 20
210.5851830295239
 30
0.0
 10
456.1163816389127
 20
210.6872133222701
 30
0.0
 10
456.2828411242092
 20
210.7870205824756
 30
0.0
 10
456.4483127624305
 20
210.8846071749754
 30
0.0
 10
456.6127666898253
 20
210.9799761520746
 30
0.0
 10
456.7761731809345
 20
211.0731312582557
 30
0.0
 10
456.9385026596307
 20
211.1640769347514
 30
0.0
 10
457.0997257104081
 20
211.2528183239589
 30
0.0
 10
457.2598130899376
 20
211.3393612736901
 30
0.0
 10
457.4187357388712
 20
211.4237123412314
 30
0.0
 10
457.5764647938965
 20
211.5058787972044
 30
0.0
 10
457.7329716000413
 20
211.5858686292098
 30
0.0
 10
457.8882277232171
 20
211.6636905452362
 30
0.0
 10
458.0422049630046
 20
211.739353976823
 30
0.0
 10
458.1948753656699
 20
211.8128690819571
 30
0.0
 10
458.3462112374175
 20
211.8842467476932
 30
0.0
 10
458.4961851578673
 20
211.9534985924811
 30
0.0
 10
458.6447699937569
 20
212.0206369681833
 30
0.0
 10
458.7919389128639
 20
212.0856749617714
 30
0.0
 10
458.9376653981496
 20
212.1486263966895
 30
0.0
 10
459.0819232621143
 20
212.2095058338629
 30
0.0
 10
459.2246866613743
 20
212.2683285723504
 30
0.0
 10
459.3659301114473
 20
212.3251106496163
 30
0.0
 10
459.5056285017609
 20
212.3798688414184
 30
0.0
 10
459.6437571108722
 20
212.4326206612922
 30
0.0
 10
459.780291081385
 20
212.483384158656
 30
0.0
 10
459.9152051991098
 20
212.5321778620562
 30
0.0
 10
460.0484746873997
 20
212.5790210945813
 30
0.0
 10
460.1800757332383
 20
212.623934138152
 30
0.0
 10
460.3099857266708
 20
212.6669382729584
 30
0.0
 10
460.4381825430996
 20
212.7080555088561
 30
0.0
 10
460.5646445663706
 20
212.7473085836931
 30
0.0
 10
460.6893507064742
 20
212.7847209591124
 30
0.0
 10
460.8122804176598
 20
212.820316815842
 30
0.0
 10
460.9334137169638
 20
212.8541210484391
 30
0.0
 10
461.0527312031962
 20
212.8861592594723
 30
0.0
 10
461.1702140764478
 20
212.9164577531192
 30
0.0
 10
461.285844158183
 20
212.9450435281582
 30
0.0
 10
461.3996039119958
 20
212.9719442703239
 30
0.0
 10
461.5114764651252
 20
212.9971883439948
 30
0.0
 10
461.6214456308364
 20
213.0208047831738
 30
0.0
 10
461.7294959317964
 20
213.0428232817154
 30
0.0
 10
461.8356126245897
 20
213.0632741827433
 30
0.0
 10
461.9397817255473
 20
213.0821884671894
 30
0.0
 10
462.0419900380894
 20
213.0995977413763
 30
0.0
 10
462.1422251818116
 20
213.1155342235397
 30
0.0
 10
462.24047562359
 20
213.1300307291765
 30
0.0
 10
462.3367307110168
 20
213.1431206550689
 30
0.0
 10
462.4309807085392
 20
213.1548379618134
 30
0.0
 10
462.5232168367327
 20
213.1652171546382
 30
0.0
 10
462.6134313152168
 20
213.174293262251
 30
0.0
 10
462.7016174098106
 20
213.1821018134019
 30
0.0
 10
462.7877694846372
 20
213.188678810774
 30
0.0
 10
462.8718830600145
 20
213.1940607017335
 30
0.0
 10
462.9539548771353
 20
213.1982843453578
 30
0.0
 10
463.0339829707377
 20
213.2013869750336
 30
0.0
 10
463.1119667512102
 20
213.2034061557442
 30
0.0
 10
463.1879070978916
 20
213.2043797349604
 30
0.0
 10
463.2618064657062
 20
213.2043457857752
 30
0.0
 10
463.3336690077716
 20
213.2033425405851
 30
0.0
 10
463.4035007172473
 20
213.2014083131751
 30
0.0
 10
463.4713095925075
 20
213.1985814064889
 30
0.0
 10
463.5371058307882
 20
213.1949000026087
 30
0.0
 10
463.6009020568643
 20
213.1904020304645
 30
0.0
 10
463.6627135951914
 20
213.1851250054423
 30
0.0
 10
463.7225587964879
 20
213.1791058332274
 30
0.0
 10
463.7804594332054
 20
213.1723805677004
 30
0.0
 10
463.8364411831728
 20
213.1649841091813
 30
0.0
 10
463.8905342275126
 20
213.1569498243324
 30
0.0
 10
463.9427739987195
 20
213.148309061846
 30
0.0
 10
463.9932021291066
 20
213.1390905274889
 30
0.0
 10
464.0418676712007
 20
213.1293194662695
 30
0.0
 10
464.0888286943357
 20
213.1190165752409
 30
0.0
 10
464.1341544128749
 20
213.1081965323195
 30
0.0
 10
464.1779280840576
 20
213.0968659647464
 30
0.0
 10
464.2202510509634
 20
213.0850205775536
 30
0.0
 10
464.2612485435311
 20
213.0726409831732
 30
0.0
 10
464.3010782778969
 20
213.0596864489906
 30
0.0
 10
464.3399436991196
 20
213.0460851633499
 30
0.0
 10
464.378115308263
 20
213.0317183860113
 30
0.0
 10
464.4159668357197
 20
213.0163932195576
 30
0.0
 10
464.4540401943647
 20
212.9997928663332
 30
0.0
 10
464.4931673982832
 20
212.9813800403497
 30
0.0
 10
464.5346830693932
 20
212.9602112856827
 30
0.0
 10
464.5804074912919
 20
212.9347847203855
 30
0.0
 10
464.6251171862868
 20
212.9074237236305
 30
0.0
 10
464.6668669778821
 20
212.8795607348345
 30
0.0
 10
464.702446306164
 20
212.8541601425397
 30
0.0
 10
464.7358387669949
 20
212.8288658204188
 30
0.0
 10
464.7679365318182
 20
212.8032161478365
 30
0.0
 10
464.7992952085571
 20
212.7768928999263
 30
0.0
 10
464.8302731991564
 20
212.7496672436451
 30
0.0
 10
464.8621881909011
 20
212.7203767335035
 30
0.0
 10
464.8952461038458
 20
212.6886965731372
 30
0.0
 10
464.9296074670618
 20
212.6543013336418
 30
0.0
 10
464.9641057095188
 20
212.6183017415794
 30
0.0
 10
464.9988126948302
 20
212.5806070303426
 30
0.0
 10
465.033791832219
 20
212.5411207657686
 30
0.0
 10
465.0690828620235
 20
212.4997608373186
 30
0.0
 10
465.104708258865
 20
212.4564561371297
 30
0.0
 10
465.1406777814768
 20
212.4111440428408
 30
0.0
 10
465.176991601065
 20
212.3637686780032
 30
0.0
 10
465.2136425173238
 20
212.3142796734918
 30
0.0
 10
465.250617569347
 20
212.2626312603472
 30
0.0
 10
465.2878992331997
 20
212.2087815891867
 30
0.0
 10
465.3254663296097
 20
212.1526922088628
 30
0.0
 10
465.3632947237643
 20
212.0943276598177
 30
0.0
 10
465.4013578730459
 20
212.0336551518302
 30
0.0
 10
465.4396272616077
 20
211.9706443050476
 30
0.0
 10
465.4780727494416
 20
211.9052669392754
 30
0.0
 10
465.516662855946
 20
211.8374969006236
 30
0.0
 10
465.555364992703
 20
211.7673099174619
 30
0.0
 10
465.5941456564379
 20
211.6946834796388
 30
0.0
 10
465.6329705904528
 20
211.6195967363724
 30
0.0
 10
465.6718049208727
 20
211.5420304092603
 30
0.0
 10
465.7106132726015
 20
211.4619667176356
 30
0.0
 10
465.7493598688138
 20
211.3793893140802
 30
0.0
 10
465.7880086169881
 20
211.2942832283398
 30
0.0
 10
465.8265231838721
 20
211.2066348182298
 30
0.0
 10
465.8648670612873
 20
211.1164317263778
 30
0.0
 10
465.9030036243082
 20
211.0236628418615
 30
0.0
 10
465.9408961830594
 20
210.9283182659514
 30
0.0
 10
465.9785080291416
 20
210.8303892813146
 30
0.0
 10
466.0158024775113
 20
210.7298683241237
 30
0.0
 10
466.0527429044944
 20
210.6267489586135
 30
0.0
 10
466.0892927824893
 20
210.5210258536915
 30
0.0
 10
466.1254157118233
 20
210.4126947612702
 30
0.0
 10
466.1610754501429
 20
210.3017524960344
 30
0.0
 10
466.1962359396556
 20
210.1881969164018
 30
0.0
 10
466.2308613324864
 20
210.0720269064638
 30
0.0
 10
466.2649160143696
 20
209.9532423587311
 30
0.0
 10
466.2983646268577
 20
209.8318441575251
 30
0.0
 10
466.3311720882015
 20
209.7078341628857
 30
0.0
 10
466.3633036130266
 20
209.5812151948811
 30
0.0
 10
466.3947247309152
 20
209.45199101822
 30
0.0
 10
466.4254013039812
 20
209.3201663270889
 30
0.0
 10
466.4552995435111
 20
209.1857467301357
 30
0.0
 10
466.4843860257366
 20
209.0487387355507
 30
0.0
 10
466.5126277067866
 20
208.9091497361867
 30
0.0
 10
466.5399919368661
 20
208.766987994686
 30
0.0
 10
466.5664464736954
 20
208.6222626285731
 30
0.0
 10
466.5919594952426
 20
208.4749835952928
 30
0.0
 10
466.6164995652843
 20
208.3251619610105
 30
0.0
 10
466.6400355130413
 20
208.1728108324361
 30
0.0
 10
466.6625366802154
 20
208.017944141133
 30
0.0
 10
466.6839729704602
 20
207.8605763064313
 30
0.0
 10
466.704314958897
 20
207.7007212017793
 30
0.0
 10
466.723533700815
 20
207.5383934313317
 30
0.0
 10
466.7416007383669
 20
207.3736083256042
 30
0.0
 10
466.7584881081439
 20
207.2063819260142
 30
0.0
 10
466.7741683487441
 20
207.0367309699255
 30
0.0
 10
466.7886145058294
 20
206.8646728729974
 30
0.0
 10
466.8018001440306
 20
206.6902257211555
 30
0.0
 10
466.8136993307764
 20
206.5134082262034
 30
0.0
 10
466.8242867225734
 20
206.3342398169028
 30
0.0
 10
466.8335372660736
 20
206.1527402235737
 30
0.0
 10
466.8414273362026
 20
205.968930954962
 30
0.0
 10
466.847930501781
 20
205.7828297036384
 30
0.0
 10
466.853033366638
 20
205.5944711782277
 30
0.0
 10
466.8566763797752
 20
205.4038291697692
 30
0.0
 10
466.8589706623129
 20
205.2114774810287
 30
0.0
 10
466.859252030197
 20
205.0816219051416
 30
0.0
 10
466.8593923811074
 20
205.0168478163593
 30
0.0
  0
LINE
  5
FB
330
1F
100
AcDbEntity
  8
0
  6
Continuous
 62
     7
370
    30
100
AcDbLine
 10
412.401790633
 20
187.6081487026
 30
0.0
 11
409.0720524546
 21
175.1217196782
 31
0.0
  0
LINE
  5
FC
330
1F
100
AcDbEntity
  8
0
  6
Continuous
 62
     7
370
    30
100
AcDbLine
 10
432.2616800136
 20
168.937774847
 30
0.0
 11
435.591418192
 21
181.4242038714
 31
0.0
  0
LINE
  5
FD
330
1F
100
AcDbEntity
  8
0
  6
Continuous
 62
     7
370
    30
100
AcDbLine
 10
490.8593966356
 20
90.6160725199
 30
0.0
 11
490.8593966356
 21
205.0168558675
 31
0.0
  0
LINE
  5
FE
330
1F
100
AcDbEntity
  8
0
  6
Continuous
 62
     7
370
    30
100
AcDbLine
 10
466.8593966356
 20
205.0168558675
 30
0.0
 11
466.8593966356
 21
90.6160725199
 31
0.0
  0
SPLINE
  5
FF
330
1F
100
AcDbEntity
  8
0
  6
Continuous
 62
     7
370
    30
100
AcDbSpline
210
0.0
220
0.0
230
1.0
 70
     8
 71
     3
 72
   100
 73
    96
 74
     0
 42
0.000000001
 43
0.00000001
 40
0.0
 40
0.0
 40
0.0
 40
0.0
 40
0.0087115591239488
 40
0.0190952927821523
 40
0.0294855071072686
 40
0.0398830495813497
 40
0.0502887571815624
 40
0.0607034521905146
 40
0.0711279380722021
 40
0.0815629954332724
 40
0.0920093780976799
 40
0.1024678093251734
 40
0.112938978202219
 40
0.1234235362342282
 40
0.1339220941662393
 40
0.1444352190597178
 40
0.1549634316496367
 40
0.165507204006158
 40
0.1760669575214404
 40
0.1866430612404044
 40
0.1972358305510929
 40
0.2078455262469102
 40
0.2184723539688747
 40
0.2291164640329628
 40
0.2397779516422299
 40
0.2504568574801095
 40
0.2611531686758293
 40
0.2718668201290856
 40
0.2825976961766407
 40
0.2933456325790456
 40
0.3041104188022934
 40
0.3148918005658323
 40
0.3256894826247517
 40
0.3365031317529739
 40
0.3473323798909602
 40
0.3581768274215457
 40
0.369036046537209
 40
0.3799095846608327
 40
0.390796967885132
 40
0.4016977043955221
 40
0.4126112878443918
 40
0.4235372006467072
 40
0.4344749171699172
 40
0.4454239067945633
 40
0.4563836368243589
 40
0.4673535752297746
 40
0.4783331932106473
 40
0.4893219675683201
 40
0.5003193828804019
 40
0.5113249334743988
 40
0.5223381251999251
 40
0.5333584770008667
 40
0.544385522292516
 40
0.5554188101489239
 40
0.56645790630984
 40
0.5775023940156575
 40
0.5885518746808961
 40
0.5996059684185087
 40
0.6106643144257944
 40
0.6217265712447079
 40
0.6327924169090987
 40
0.6438615489904785
 40
0.654933684554951
 40
0.6660085600429204
 40
0.6770859310823731
 40
0.6881655722471891
 40
0.6992472767699659
 40
0.710330856219359
 40
0.7214161401507513
 40
0.7325029441001549
 40
0.7435911145306985
 40
0.7546805362375902
 40
0.7657711105860476
 40
0.7768627548940396
 40
0.7879554020741714
 40
0.7990490002997568
 40
0.8101435126966497
 40
0.8212389170657506
 40
0.8323352056401951
 40
0.8434323848814596
 40
0.8545304753187282
 40
0.865629511435241
 40
0.876729541606504
 40
0.8878306280945053
 40
0.8989328471027271
 40
0.9100362888973583
 40
0.9211410580002375
 40
0.9322472734604493
 40
0.9433550692109655
 40
0.9544645945194979
 40
0.9655760145425106
 40
0.9766895109934197
 40
0.9878052829376853
 40
0.9989235477295543
 40
1.0
 40
1.0
 40
1.0
 40
1.0
 10
503.0207249809161
 20
89.98021132713511
 30
0.0
 10
503.0205927368324
 20
90.02541791706433
 30
0.0
 10
503.0203028645536
 20
90.12450845391305
 30
0.0
 10
503.0162146126529
 20
90.27749352687074
 30
0.0
 10
503.0091885923652
 20
90.43917133885535
 30
0.0
 10
502.9990546194548
 20
90.60087792312092
 30
0.0
 10
502.9859147035872
 20
90.76259647061322
 30
0.0
 10
502.9697358364646
 20
90.92430984512681
 30
0.0
 10
502.9505212195047
 20
91.08600070725898
 30
0.0
 10
502.9282643607669
 20
91.24765143765929
 30
0.0
 10
502.9029614252928
 20
91.409244115956
 30
0.0
 10
502.8746079613343
 20
91.57076048702733
 30
0.0
 10
502.8431998235901
 20
91.7321819334144
 30
0.0
 10
502.8087329744475
 20
91.89348944927583
 30
0.0
 10
502.7712035902197
 20
92.0546636175518
 30
0.0
 10
502.7306080888993
 20
92.21568459029386
 30
0.0
 10
502.6869431818262
 20
92.37653207255399
 30
0.0
 10
502.6402059211893
 20
92.53718531006434
 30
0.0
 10
502.5903937502718
 20
92.69762308094515
 30
0.0
 10
502.5375045539147
 20
92.85782369162179
 30
0.0
 10
502.4815367091816
 20
93.01776497709376
 30
0.0
 10
502.4224891355147
 20
93.17742430564178
 30
0.0
 10
502.3603613438502
 20
93.33677858800894
 30
0.0
 10
502.2951534841198
 20
93.49580429102858
 30
0.0
 10
502.2268663905881
 20
93.65447745561792
 30
0.0
 10
502.1555016245031
 20
93.8127737189889
 30
0.0
 10
502.0810615135656
 20
93.97066834087275
 30
0.0
 10
502.0035491877729
 20
94.12813623349342
 30
0.0
 10
501.9229686112383
 20
94.28515199497177
 30
0.0
 10
501.8393246096522
 20
94.44168994579219
 30
0.0
 10
501.7526228931133
 20
94.59772416792079
 30
0.0
 10
501.6628700741318
 20
94.75322854612615
 30
0.0
 10
501.5700736806761
 20
94.90817681103053
 30
0.0
 10
501.4742421642146
 20
95.06254258339506
 30
0.0
 10
501.375384902774
 20
95.21629941913952
 30
0.0
 10
501.2735121991115
 20
95.36942085459573
 30
0.0
 10
501.1686352741615
 20
95.52188045150308
 30
0.0
 10
501.0607662559867
 20
95.67365184127823
 30
0.0
 10
500.9499181645132
 20
95.82470876811341
 30
0.0
 10
500.8361048923794
 20
95.97502513049933
 30
0.0
 10
500.7193411822684
 20
96.1245750208049
 30
0.0
 10
500.5996426011213
 20
96.27333276259542
 30
0.0
 10
500.4770255116516
 20
96.42127294542064
 30
0.0
 10
500.3515070415884
 20
96.56837045685266
 30
0.0
 10
500.223105051084
 20
96.714600511612
 30
0.0
 10
500.0918380987114
 20
96.85993867766518
 30
0.0
 10
499.957725406462
 20
97.00436089923458
 30
0.0
 10
499.8207868241422
 20
97.14784351670208
 30
0.0
 10
499.6810427935324
 20
97.29036328343606
 30
0.0
 10
499.5385143126488
 20
97.43189737960962
 30
0.0
 10
499.3932229004135
 20
97.57242342311095
 30
0.0
 10
499.2451905620014
 20
97.71191947767998
 30
0.0
 10
499.0944397551015
 20
97.8503640584237
 30
0.0
 10
498.9409933572852
 20
97.98773613488964
 30
0.0
 10
498.7848746346469
 20
98.12401513188448
 30
0.0
 10
498.6261072118403
 20
98.25918092823748
 30
0.0
 10
498.4647150436052
 20
98.39321385371407
 30
0.0
 10
498.3007223878465
 20
98.52609468428331
 30
0.0
 10
498.1341537802982
 20
98.65780463594524
 30
0.0
 10
497.9650340107814
 20
98.7883253573151
 30
0.0
 10
497.7933881010409
 20
98.9176389211554
 30
0.0
 10
497.6192412841245
 20
99.0457278150384
 30
0.0
 10
497.442618985254
 20
99.17257493130866
 30
0.0
 10
497.2635468041199
 20
99.29816355650425
 30
0.0
 10
497.0820504985194
 20
99.42247736038313
 30
0.0
 10
496.8981559692518
 20
99.54550038468476
 30
0.0
 10
496.7118892461705
 20
99.66721703174889
 30
0.0
 10
496.523276475293
 20
99.78761205309402
 30
0.0
 10
496.3323440885008
 20
99.90667042478516
 30
0.0
 10
496.1391187247957
 20
100.0243773917858
 30
0.0
 10
495.9436271000472
 20
100.1407185362991
 30
0.0
 10
495.7458958037574
 20
100.2556798740533
 30
0.0
 10
495.5459513613149
 20
100.3692477893801
 30
0.0
 10
495.343820350936
 20
100.4814089485371
 30
0.0
 10
495.1395293967566
 20
100.5921502891521
 30
0.0
 10
494.9331051606157
 20
100.701459010938
 30
0.0
 10
494.7245743338449
 20
100.8093225668386
 30
0.0
 10
494.51396362897
 20
100.9157286546029
 30
0.0
 10
494.3012997712062
 20
101.0206652087815
 30
0.0
 10
494.0866094896498
 20
101.1241203931613
 30
0.0
 10
493.8699195079779
 20
101.2260825935522
 30
0.0
 10
493.6512565348042
 20
101.3265404112025
 30
0.0
 10
493.4306472525445
 20
101.4254826557467
 30
0.0
 10
493.2081183084628
 20
101.5228983417063
 30
0.0
 10
492.9836962935461
 20
101.6187766734434
 30
0.0
 10
492.7574077620885
 20
101.7131070748294
 30
0.0
 10
492.5292790938534
 20
101.8058790535203
 30
0.0
 10
492.2993369375519
 20
101.8970826839863
 30
0.0
 10
492.0676064772088
 20
101.9867067821351
 30
0.0
 10
491.834117817171
 20
102.0747456980158
 30
0.0
 10
491.5988820514797
 20
102.1611739388301
 30
0.0
 10
491.3619804913309
 20
102.2460408827091
 30
0.0
 10
491.1232314493785
 20
102.3291171816583
 30
0.0
 10
490.9556467161344
 20
102.3864919048226
 30
0.0
 10
490.8672036807277
 20
102.4156905911098
 30
0.0
 10
490.8593966356128
 20
102.4182680180388
 30
0.0
  0
SPLINE
  5
100
330
1F
100
AcDbEntity
  8
0
  6
Continuous
 62
     7
370
    30
100
AcDbSpline
210
0.0
220
0.0
230
1.0
 70
     8
 71
     3
 72
   102
 73
    98
 74
     0
 42
0.000000001
 43
0.00000001
 40
0.0
 40
0.0
 40
0.0
 40
0.0
 40
0.0050752511986605
 40
0.0157657676716593
 40
0.0264606594260102
 40
0.0371597795250417
 40
0.0478629881737919
 40
0.0585701519330431
 40
0.0692811429806122
 40
0.0799958384137624
 40
0.0907141195876535
 40
0.1014358714845323
 40
0.1121609821098662
 40
0.1228893419110795
 40
0.1336208432159483
 40
0.1443553796876835
 40
0.1550928457939773
 40
0.1658331362874829
 40
0.1765761456966274
 40
0.1873217678240195
 40
0.1980698952521768
 40
0.2088204188547539
 40
0.2195732273131216
 40
0.2303282066371844
 40
0.2410852396910761
 40
0.2518442057231542
 40
0.262604979901507
 40
0.2733674328549021
 40
0.2841314302214653
 40
0.2948968322054791
 40
0.3056634506908718
 40
0.3164311252591441
 40
0.3271996937201908
 40
0.3379689866392919
 40
0.3487388270361479
 40
0.3595090300576013
 40
0.3702794026843291
 40
0.3810497434754515
 40
0.3918198423575869
 40
0.4025894804638392
 40
0.4133584300293007
 40
0.4241264543502302
 40
0.4348933078139537
 40
0.4456587360068408
 40
0.4564224759083331
 40
0.4671842561785011
 40
0.4779437975467684
 40
0.4887008133096666
 40
0.4994550099445308
 40
0.5102060878461661
 40
0.5209537421919251
 40
0.531697663941615
 40
0.5424375409750827
 40
0.5531730593714177
 40
0.5639039048307982
 40
0.5746297642387215
 40
0.5853503273712422
 40
0.5960652887360465
 40
0.6067743495444059
 40
0.6174772198045787
 40
0.6281736205261235
 40
0.6388632860220671
 40
0.6495459662928135
 40
0.6602214294744032
 40
0.6708894643303127
 40
0.6815498827653595
 40
0.6922025223371158
 40
0.7028472487400305
 40
0.7134839582352471
 40
0.7241125799992747
 40
0.7347330783635834
 40
0.7453454549175909
 40
0.7559497504485982
 40
0.7665460466918577
 40
0.777134467866946
 40
0.7877151819771114
 40
0.7982884018512783
 40
0.8088543859105822
 40
0.819413438643689
 40
0.8299659107789222
 40
0.8405121991435656
 40
0.8510527462039086
 40
0.8615880392836055
 40
0.8721186094597002
 40
0.8826450301401477
 40
0.8931679153285145
 40
0.9036879175847847
 40
0.9142057256938609
 40
0.9247220620554453
 40
0.93523767981115
 40
0.9457533597272598
 40
0.9562699068521197
 40
0.9667881469700809
 40
0.9773089228741719
 40
0.9878330904816599
 40
0.9983615148173499
 40
1.0
 40
1.0
 40
1.0
 40
1.0
 10
466.8593966356129
 20
102.3081982669506
 30
0.0
 10
466.8235190299461
 20
102.2958213170874
 30
0.0
 10
466.7120687837578
 20
102.2573735421126
 30
0.0
 10
466.5265759663621
 20
102.1912642958201
 30
0.0
 10
466.3028498419054
 20
102.1099435961828
 30
0.0
 10
466.0806292320409
 20
102.0270543264352
 30
0.0
 10
465.8598440313665
 20
101.9427072187211
 30
0.0
 10
465.6405515486758
 20
101.8568829891377
 30
0.0
 10
465.4227744989666
 20
101.7695974136813
 30
0.0
 10
465.2065444547048
 20
101.6808570687218
 30
0.0
 10
464.9918902115589
 20
101.5906711952766
 30
0.0
 10
464.7788409213364
 20
101.4990485169137
 30
0.0
 10
464.5674252649367
 20
101.4059980918027
 30
0.0
 10
464.3576716860392
 20
101.3115290835832
 30
0.0
 10
464.1496083396246
 20
101.2156508224201
 30
0.0
 10
463.9432631162223
 20
101.1183727886134
 30
0.0
 10
463.7386636452039
 20
101.0197046173311
 30
0.0
 10
463.5358373030954
 20
100.9196560980534
 30
0.0
 10
463.3348112199957
 20
100.8182371758221
 30
0.0
 10
463.1356122859876
 20
100.7154579524064
 30
0.0
 10
462.9382671570687
 20
100.6113286879043
 30
0.0
 10
462.7428022607452
 20
100.5058598026524
 30
0.0
 10
462.5492438012689
 20
100.3990618794923
 30
0.0
 10
462.3576177645245
 20
100.2909456663877
 30
0.0
 10
462.1679499225666
 20
100.1815220794063
 30
0.0
 10
461.9802658377957
 20
100.0708022060666
 30
0.0
 10
461.7945908667655
 20
99.9587973090563
 30
0.0
 10
461.6109501635979
 20
99.84551883032029
 30
0.0
 10
461.4293686829909
 20
99.73097839551916
 30
0.0
 10
461.2498714187357
 20
99.61518797105617
 30
0.0
 10
461.072483203806
 20
99.49815975498896
 30
0.0
 10
460.8972286817612
 20
99.37990616608069
 30
0.0
 10
460.7241320838561
 20
99.26043969144285
 30
0.0
 10
460.5532174206123
 20
99.13977301388053
 30
0.0
 10
460.3845085090189
 20
99.01791903650232
 30
0.0
 10
460.2180289710803
 20
98.89489088906241
 30
0.0
 10
460.0538022319112
 20
98.77070193465639
 30
0.0
 10
459.8918515170288
 20
98.64536577651461
 30
0.0
 10
459.7321998488011
 20
98.51889626483396
 30
0.0
 10
459.5748700420017
 20
98.391307503576
 30
0.0
 10
459.4198846984266
 20
98.26261385715354
 30
0.0
 10
459.2672662005337
 20
98.13282995691708
 30
0.0
 10
459.1170367040696
 20
98.00197070734536
 30
0.0
 10
458.9692181296546
 20
97.87005129183578
 30
0.0
 10
458.8238321533084
 20
97.73708717798304
 30
0.0
 10
458.6809001959065
 20
97.60309412222828
 30
0.0
 10
458.5404434115704
 20
97.46808817375378
 30
0.0
 10
458.4024826750099
 20
97.3320856774957
 30
0.0
 10
458.2670385678488
 20
97.19510327614161
 30
0.0
 10
458.1341313639851
 20
97.05715791098393
 30
0.0
 10
458.0037810140541
 20
96.91826682149413
 30
0.0
 10
457.8760071290843
 20
96.77844754349465
 30
0.0
 10
457.7508289634531
 20
96.63771790580336
 30
0.0
 10
457.628265397278
 20
96.49609602524292
 30
0.0
 10
457.5083349183937
 20
96.35360029991386
 30
0.0
 10
457.3910556040905
 20
96.21024940064791
 30
0.0
 10
457.2764451028117
 20
96.06606226057903
 30
0.0
 10
457.1645206160226
 20
95.92105806278704
 30
0.0
 10
457.0552988804865
 20
95.77525622600008
 30
0.0
 10
456.9487961511925
 20
95.62867638836329
 30
0.0
 10
456.8450281851962
 20
95.48133838931683
 30
0.0
 10
456.7440102266376
 20
95.33326224965587
 30
0.0
 10
456.6457569932055
 20
95.18446814987719
 30
0.0
 10
456.5502826643167
 20
95.03497640695535
 30
0.0
 10
456.4576008712675
 20
94.88480744971979
 30
0.0
 10
456.3677246896062
 20
94.73398179304193
 30
0.0
 10
456.2806666339515
 20
94.58252001106766
 30
0.0
 10
456.1964386554624
 20
94.43044270976326
 30
0.0
 10
456.1150521421312
 20
94.27777049906304
 30
0.0
 10
456.0365179220377
 20
94.12452396493165
 30
0.0
 10
455.9608462696637
 20
93.97072364166685
 30
0.0
 10
455.8880469153237
 20
93.81638998477885
 30
0.0
 10
455.8181290577189
 20
93.66154334478837
 30
0.0
 10
455.7511013795761
 20
93.50620394228035
 30
0.0
 10
455.6869720662855
 20
93.35039184454777
 30
0.0
 10
455.6257488273965
 20
93.19412694414025
 30
0.0
 10
455.5674389207895
 20
93.03742893961672
 30
0.0
 10
455.5120491792928
 20
92.88031731877561
 30
0.0
 10
455.4595860394707
 20
92.72281134460617
 30
0.0
 10
455.4100555722728
 20
92.5649300441721
 30
0.0
 10
455.3634635152063
 20
92.40669220060273
 30
0.0
 10
455.3198153056267
 20
92.248116348327
 30
0.0
 10
455.2791161148794
 20
92.08922077164905
 30
0.0
 10
455.2413708824035
 20
91.93002350671755
 30
0.0
 10
455.2065843511555
 20
91.77054234691096
 30
0.0
 10
455.1747610972914
 20
91.61079485159868
 30
0.0
 10
455.1459055784366
 20
91.45079835827173
 30
0.0
 10
455.1200221077739
 20
91.29056999774085
 30
0.0
 10
455.097115098096
 20
91.13012671303058
 30
0.0
 10
455.0771882898397
 20
90.96948527897072
 30
0.0
 10
455.0602477600506
 20
90.80866233287074
 30
0.0
 10
455.0462908082616
 20
90.6476743765888
 30
0.0
 10
455.0353475434413
 20
90.48653789706765
 30
0.0
 10
455.0273257238471
 20
90.32526905517769
 30
0.0
 10
455.0225901202776
 20
90.16388499552194
 30
0.0
 10
455.020585189143
 20
90.0478756225917
 30
0.0
 10
455.0210618930805
 20
89.98567258826453
 30
0.0
 10
455.0211260895255
 20
89.9772958719006
 30
0.0
  0
LINE
  5
101
330
1F
100
AcDbEntity
  8
0
  6
Continuous
 62
     7
370
    30
100
AcDbLine
 10
503.0209281883
 20
84.2625624834
 30
0.0
 11
503.0209281883
 21
89.9783481666
 31
0.0
  0
LINE
  5
102
330
1F
100
AcDbEntity
  8
0
  6
Continuous
 62
     7
370
    30
100
AcDbLine
 10
455.0209281883
 20
89.9783481666
 30
0.0
 11
455.0209281883
 21
84.2625624834
 31
0.0
  0
SPLINE
  5
103
330
1F
100
AcDbEntity
  8
0
  6
Continuous
 62
     7
370
    30
100
AcDbSpline
210
0.0
220
0.0
230
1.0
 70
     8
 71
     3
 72
    28
 73
    24
 74
     0
 42
0.000000001
 43
0.00000001
 40
0.0
 40
0.0
 40
0.0
 40
0.0
 40
0.0356703988531061
 40
0.0668866145028614
 40
0.0938799069834905
 40
0.117185969098366
 40
0.1383090091875933
 40
0.1612787504066431
 40
0.1989100042270376
 40
0.2411563707352287
 40
0.2772874374632103
 40
0.3097280441207592
 40
0.3727115294997854
 40
0.4483482570989745
 40
0.5412379655617845
 40
0.6279634088937418
 40
0.722832105556766
 40
0.7593539039404564
 40
0.7926165264027768
 40
0.8236854343035593
 40
0.8663857302208748
 40
0.9250515773756428
 40
1.0
 40
1.0
 40
1.0
 40
1.0
 10
433.11347943997
 20
152.8652785838242
 30
0.0
 10
433.1184438313284
 20
152.861706690299
 30
0.0
 10
433.1277527076434
 20
152.8550089276457
 30
0.0
 10
433.1421307038605
 20
152.8455103843678
 30
0.0
 10
433.1553688990797
 20
152.8370632780768
 30
0.0
 10
433.1675044219487
 20
152.8294553193691
 30
0.0
 10
433.1787455406276
 20
152.8223345009185
 30
0.0
 10
433.1911904517067
 20
152.8143723752841
 30
0.0
 10
433.2048337612822
 20
152.8056960619764
 30
0.0
 10
433.2177992757434
 20
152.7978740987558
 30
0.0
 10
433.2340718557879
 20
152.7889696318182
 30
0.0
 10
433.2570821177315
 20
152.7770415088687
 30
0.0
 10
433.287134574665
 20
152.7626437737656
 30
0.0
 10
433.3284949391984
 20
152.7451087450377
 30
0.0
 10
433.3751109283522
 20
152.728441305668
 30
0.0
 10
433.4261994117405
 20
152.7137466038448
 30
0.0
 10
433.4674785175826
 20
152.7047616411875
 30
0.0
 10
433.4988702553857
 20
152.6995172450823
 30
0.0
 10
433.5181730488878
 20
152.6968103301826
 30
0.0
 10
433.5387288409178
 20
152.6944323328506
 30
0.0
 10
433.5642887828397
 20
152.6922252915864
 30
0.0
 10
433.5983854093926
 20
152.6904985828294
 30
0.0
 10
433.6241715184752
 20
152.6909667249083
 30
0.0
 10
433.6386357535046
 20
152.6912293204412
 30
0.0
  0
LINE
  5
104
330
1F
100
AcDbEntity
  8
0
  6
Continuous
 62
     7
370
    30
100
AcDbLine
 10
424.6957464512
 20
159.0400598621
 30
0.0
 11
433.1142288734
 21
152.8647132918
 31
0.0
  0
SPLINE
  5
105
330
1F
100
AcDbEntity
  8
0
  6
Continuous
 62
     7
370
    30
100
AcDbSpline
210
0.0
220
0.0
230
1.0
 70
     8
 71
     3
 72
    26
 73
    22
 74
     0
 42
0.000000001
 43
0.00000001
 40
0.0
 40
0.0
 40
0.0
 40
0.0
 40
0.0347663956319647
 40
0.0857536463987059
 40
0.1369098655250549
 40
0.1882948115449839
 40
0.2399777680897588
 40
0.2920407515404624
 40
0.3445829234400367
 40
0.3977268157091914
 40
0.4516272860934243
 40
0.5064845135324904
 40
0.5625627475487639
 40
0.6202167161480698
 40
0.6799270298070327
 40
0.7423431873957808
 40
0.8011648962887818
 40
0.8628136617331789
 40
0.9273236262528094
 40
0.9939441075029556
 40
1.0
 40
1.0
 40
1.0
 40
1.0
 10
439.1253783544269
 20
159.6023416786475
 30
0.0
 10
439.1277810410184
 20
159.6113808400181
 30
0.0
 10
439.13370742863
 20
159.6336765377405
 30
0.0
 10
439.1397803071844
 20
159.6700383527003
 30
0.0
 10
439.1439945453151
 20
159.7110802295395
 30
0.0
 10
439.1450780419053
 20
159.7524643183378
 30
0.0
 10
439.1431529793728
 20
159.7939598969089
 30
0.0
 10
439.138175340873
 20
159.8353892608379
 30
0.0
 10
439.1301606109664
 20
159.8765722136619
 30
0.0
 10
439.1191187669203
 20
159.9173470715555
 30
0.0
 10
439.1050652189832
 20
159.9575729463276
 30
0.0
 10
439.0880068813895
 20
159.9971397920546
 30
0.0
 10
439.0679281065776
 20
160.0359794005825
 30
0.0
 10
439.0447671125982
 20
160.0740797972617
 30
0.0
 10
439.0183800244309
 20
160.1114983248657
 30
0.0
 10
438.9896372760911
 20
160.1469766576037
 30
0.0
 10
438.9586557229725
 20
160.1806916181988
 30
0.0
 10
438.9256326521888
 20
160.2128150205498
 30
0.0
 10
438.8893159028154
 20
160.2440901673135
 30
0.0
 10
438.8627374174571
 20
160.2654650725785
 30
0.0
 10
438.8478083927853
 20
160.2759293470215
 30
0.0
 10
438.8465644043495
 20
160.2768013019336
 30
0.0
  0
LINE
  5
106
330
1F
100
AcDbEntity
  8
0
  6
Continuous
 62
     7
370
    30
100
AcDbLine
 10
433.6388559545
 20
152.6911524472
 30
0.0
 11
436.7707203865
 21
152.8016041507
 31
0.0
  0
LINE
  5
107
330
1F
100
AcDbEntity
  8
0
  6
Continuous
 62
     7
370
    30
100
AcDbLine
 10
437.473719641
 20
153.4074025605
 30
0.0
 11
439.1256818508
 21
159.6022166207
 31
0.0
  0
LINE
  5
108
330
1F
100
AcDbEntity
  8
0
  6
Continuous
 62
     7
370
    30
100
AcDbLine
 10
438.8466680841
 20
160.2768490023
 30
0.0
 11
430.678297877
 21
166.2687266845
 31
0.0
  0
SPLINE
  5
109
330
1F
100
AcDbEntity
  8
0
  6
Continuous
 62
     7
370
    30
100
AcDbSpline
210
0.0
220
0.0
230
1.0
 70
     8
 71
     3
 72
    46
 73
    42
 74
     0
 42
0.000000001
 43
0.00000001
 40
0.0
 40
0.0
 40
0.0
 40
0.0
 40
0.047052737271881
 40
0.0838899841598633
 40
0.1102932583713568
 40
0.1270733360845188
 40
0.1429955646521266
 40
0.1602819193997005
 40
0.1789036765810366
 40
0.2105929272871476
 40
0.2384544414334763
 40
0.2700681318650447
 40
0.2925867965659298
 40
0.3172967686083765
 40
0.3441314499440677
 40
0.3680500816913634
 40
0.3852974462719794
 40
0.4003579812874911
 40
0.4252631086292529
 40
0.4567739068234491
 40
0.4853003745114841
 40
0.5088205169598955
 40
0.5441934202502298
 40
0.5851000850355853
 40
0.6286984622812772
 40
0.6693820080956536
 40
0.7048193308622902
 40
0.7392451755791417
 40
0.7737649844082719
 40
0.8086333388676076
 40
0.8490450187886082
 40
0.8661541588447401
 40
0.8840674257957647
 40
0.902969713048344
 40
0.9233539537004554
 40
0.9444739610234159
 40
0.9536305938938031
 40
0.9621267640603757
 40
0.9705059952727964
 40
0.9793226690663105
 40
1.0
 40
1.0
 40
1.0
 40
1.0
 10
436.7705001855358
 20
152.8016810239463
 30
0.0
 10
436.7865617526404
 20
152.8025544887488
 30
0.0
 10
436.8151978041883
 20
152.8041117828128
 30
0.0
 10
436.8524502189625
 20
152.8090666114564
 30
0.0
 10
436.8792472990025
 20
152.8137474843421
 30
0.0
 10
436.89892806385
 20
152.81783113782
 30
0.0
 10
436.9154924967379
 20
152.8216692637646
 30
0.0
 10
436.9325607055283
 20
152.8260528941758
 30
0.0
 10
436.9546575256203
 20
152.8323342041184
 30
0.0
 10
436.9799200987616
 20
152.8405041924944
 30
0.0
 10
437.0089477142645
 20
152.8512710018699
 30
0.0
 10
437.0346141464781
 20
152.8620485071103
 30
0.0
 10
437.058857952559
 20
152.8733456030805
 30
0.0
 10
437.0812575263597
 20
152.8847134572372
 30
0.0
 10
437.1036307584915
 20
152.8971174105424
 30
0.0
 10
437.1233605461138
 20
152.9090019041194
 30
0.0
 10
437.1393716414572
 20
152.9192916465987
 30
0.0
 10
437.1554230293758
 20
152.9301309274288
 30
0.0
 10
437.1750773101174
 20
152.944222435717
 30
0.0
 10
437.1977357770382
 20
152.96186017092
 30
0.0
 10
437.2192627949836
 20
152.9801039697207
 30
0.0
 10
437.2410769862835
 20
152.9999730136172
 30
0.0
 10
437.2650349999323
 20
153.0236202924238
 30
0.0
 10
437.2922696086736
 20
153.0534038069419
 30
0.0
 10
437.3187959300631
 20
153.0858473185272
 30
0.0
 10
437.3424661943377
 20
153.1181828105199
 30
0.0
 10
437.3629901982351
 20
153.1491997629648
 30
0.0
 10
437.3810302790888
 20
153.1791491989566
 30
0.0
 10
437.3976953449808
 20
153.209528129328
 30
0.0
 10
437.4140297150072
 20
153.2423144866808
 30
0.0
 10
437.4265957826033
 20
153.2704011193597
 30
0.0
 10
437.4361841285257
 20
153.2937394488019
 30
0.0
 10
437.4425584265362
 20
153.3101092852218
 30
0.0
 10
437.4483376630236
 20
153.3258529708558
 30
0.0
 10
437.453543626472
 20
153.3411215441947
 30
0.0
 10
437.4569145187791
 20
153.3522948196118
 30
0.0
 10
437.4604321224998
 20
153.363717925076
 30
0.0
 10
437.4630916501619
 20
153.3722192470894
 30
0.0
 10
437.4658363508444
 20
153.3809207941268
 30
0.0
 10
437.469756224383
 20
153.3933656971685
 30
0.0
 10
437.472031832367
 20
153.4014130933911
 30
0.0
 10
437.4736271904674
 20
153.4070548730134
 30
0.0
  0
LINE
  5
10A
330
1F
100
AcDbEntity
  8
0
  6
Continuous
 62
     7
370
    30
100
AcDbLine
 10
424.2808028462
 20
139.0096991351
 30
0.0
 11
428.8162444736
 21
156.017483814
 31
0.0
  0
LINE
  5
10B
330
1F
100
AcDbEntity
  8
0
  6
Continuous
 62
     7
370
    30
100
AcDbLine
 10
431.4073216817
 20
165.7339539753
 30
0.0
 11
432.1407576323
 21
168.4843191544
 31
0.0
  0
LINE
  5
10C
330
1F
100
AcDbEntity
  8
0
  6
Continuous
 62
     7
370
    30
100
AcDbLine
 10
408.9511300733
 20
174.6682639856
 30
0.0
 11
401.0911752872
 21
145.1936439663
 31
0.0
  0
SPLINE
  5
10D
330
1F
100
AcDbEntity
  8
0
  6
Continuous
 62
     7
370
    30
100
AcDbSpline
210
0.0
220
0.0
230
1.0
 70
     8
 71
     3
 72
    12
 73
     8
 74
     0
 42
0.000000001
 43
0.00000001
 40
0.0
 40
0.0
 40
0.0
 40
0.0
 40
0.1102967083926716
 40
0.402952748412807
 40
0.6965524648655212
 40
0.991416538772709
 40
1.0
 40
1.0
 40
1.0
 40
1.0
 10
432.1403457698046
 20
168.4841454431801
 30
0.0
 10
432.1428660604622
 20
168.4932398402599
 30
0.0
 10
432.1520735704784
 20
168.5264648779954
 30
0.0
 10
432.1650278852703
 20
168.5846803026691
 30
0.0
 10
432.1788046429442
 20
168.6588410697098
 30
0.0
 10
432.1868809668815
 20
168.7093789996892
 30
0.0
 10
432.1896046518815
 20
168.7352749393874
 30
0.0
 10
432.1896816953302
 20
168.7360074442478
 30
0.0
  0
SPLINE
  5
10E
330
1F
100
AcDbEntity
  8
0
  6
Continuous
 62
     7
370
    30
100
AcDbSpline
210
0.0
220
0.0
230
1.0
 70
     8
 71
     3
 72
    11
 73
     7
 74
     0
 42
0.000000001
 43
0.00000001
 40
0.0
 40
0.0
 40
0.0
 40
0.0
 40
0.2293965257694214
 40
0.5227779734576996
 40
0.8162069487559703
 40
1.0
 40
1.0
 40
1.0
 40
1.0
 10
409.0337113528634
 20
174.9095998652327
 30
0.0
 10
409.0262276065985
 20
174.891543392621
 30
0.0
 10
409.0091726939613
 20
174.8503940067353
 30
0.0
 10
408.98596724789
 20
174.78492258232
 30
0.0
 10
408.9658632470569
 20
174.7225256270543
 30
0.0
 10
408.9554762751774
 20
174.6833015217689
 30
0.0
 10
408.9514759291147
 20
174.6681950983607
 30
0.0
  0
SPLINE
  5
10F
330
1F
100
AcDbEntity
  8
0
  6
Continuous
 62
     7
370
    30
100
AcDbSpline
210
0.0
220
0.0
230
1.0
 70
     8
 71
     3
 72
    30
 73
    26
 74
     0
 42
0.000000001
 43
0.00000001
 40
0.0
 40
0.0
 40
0.0
 40
0.0
 40
0.0378652692778345
 40
0.0714205697338689
 40
0.1025885193697492
 40
0.1453556181871189
 40
0.1885558934348416
 40
0.231639025056379
 40
0.2819978083577467
 40
0.32614908286649
 40
0.3778162853267596
 40
0.4366589925157922
 40
0.4906378454519518
 40
0.5293847789746281
 40
0.5758968482960678
 40
0.6282366001860691
 40
0.6663884155207415
 40
0.6991370730590265
 40
0.7524720861547699
 40
0.7865323255417412
 40
0.8118608892948914
 40
0.8390219277757675
 40
0.8742255825262822
 40
0.9278549539341305
 40
1.0
 40
1.0
 40
1.0
 40
1.0
 10
423.8462368161398
 20
159.437108116929
 30
0.0
 10
423.8483409470383
 20
159.4369944947353
 30
0.0
 10
423.8523097086618
 20
159.4367801832578
 30
0.0
 10
423.8628363889538
 20
159.4361898529653
 30
0.0
 10
423.8781840441108
 20
159.4350132741264
 30
0.0
 10
423.9004555265404
 20
159.4327550290747
 30
0.0
 10
423.9236109651724
 20
159.4300939885246
 30
0.0
 10
423.9456266220669
 20
159.4272166231568
 30
0.0
 10
423.9643823399245
 20
159.4244304581026
 30
0.0
 10
423.984392409033
 20
159.421113223324
 30
0.0
 10
424.0049365294701
 20
159.4173094467126
 30
0.0
 10
424.0261257060222
 20
159.4129029188256
 30
0.0
 10
424.0449458828439
 20
159.4085267155012
 30
0.0
 10
424.0616761157784
 20
159.4042853831648
 30
0.0
 10
424.0777262096735
 20
159.3998931249935
 30
0.0
 10
424.0931453281639
 20
159.3952971202422
 30
0.0
 10
424.1065322326482
 20
159.3909934890963
 30
0.0
 10
424.119545656891
 20
159.3865623130768
 30
0.0
 10
424.1316513266875
 20
159.3821493643254
 30
0.0
 10
424.1425680818284
 20
159.3778924432657
 30
0.0
 10
424.1506669426421
 20
159.374588936575
 30
0.0
 10
424.1586452668029
 20
159.3712054568163
 30
0.0
 10
424.1688166580016
 20
159.3666834493254
 30
0.0
 10
424.18233017048
 20
159.360311385967
 30
0.0
 10
424.1920153148563
 20
159.3551781564588
 30
0.0
 10
424.1975707783696
 20
159.3522337017218
 30
0.0
  0
SPLINE
  5
110
330
1F
100
AcDbEntity
  8
0
  6
Continuous
 62
     7
370
    30
100
AcDbSpline
210
0.0
220
0.0
230
1.0
 70
     8
 71
     3
 72
    25
 73
    21
 74
     0
 42
0.000000001
 43
0.00000001
 40
0.0
 40
0.0
 40
0.0
 40
0.0
 40
0.0953429673313029
 40
0.1779490911669167
 40
0.2478706027464317
 40
0.3051519816453662
 40
0.3498300747609535
 40
0.3820336722194917
 40
0.4102333784520363
 40
0.4398473469771597
 40
0.4708728588376599
 40
0.5033070211375114
 40
0.5509813721744955
 40
0.6010975771384431
 40
0.6536387082926388
 40
0.710192342990605
 40
0.7656538765898632
 40
0.8324831214729832
 40
0.9106215787653923
 40
1.0
 40
1.0
 40
1.0
 40
1.0
 10
424.1970598777914
 20
159.3523462391221
 30
0.0
 10
424.2153181847499
 20
159.3423052470922
 30
0.0
 10
424.2493956759426
 20
159.3235646366817
 30
0.0
 10
424.2955927084784
 20
159.2973610837699
 30
0.0
 10
424.334009371066
 20
159.2751482549404
 30
0.0
 10
424.3649357433512
 20
159.2569389631159
 30
0.0
 10
424.3887273160972
 20
159.2427294365269
 30
0.0
 10
424.4071050814959
 20
159.2316325338869
 30
0.0
 10
424.4226589989016
 20
159.2221595644514
 30
0.0
 10
424.4378672436034
 20
159.2128200325551
 30
0.0
 10
424.4536373255305
 20
159.203050358565
 30
0.0
 10
424.4722714754057
 20
159.1913994892419
 30
0.0
 10
424.4938095297122
 20
159.1777739037106
 30
0.0
 10
424.5182175422937
 20
159.162107684615
 30
0.0
 10
424.5435796156191
 20
159.1455775035233
 30
0.0
 10
424.5692672338853
 20
159.1285551502896
 30
0.0
 10
424.5964824082025
 20
159.1102097244147
 30
0.0
 10
424.6262371852453
 20
159.0897576921475
 30
0.0
 10
424.6601310795531
 20
159.0659621531103
 30
0.0
 10
424.6833548906567
 20
159.0490719787585
 30
0.0
 10
424.6957459260541
 20
159.0400602473365
 30
0.0
  0
SPLINE
  5
111
330
1F
100
AcDbEntity
  8
0
  6
Continuous
 62
     7
370
    30
100
AcDbSpline
210
0.0
220
0.0
230
1.0
 70
     8
 71
     3
 72
   112
 73
   108
 74
     0
 42
0.000000001
 43
0.00000001
 40
0.0
 40
0.0
 40
0.0
 40
0.0
 40
0.010226101494092
 40
0.0144411500653724
 40
0.0214316562624432
 40
0.028703998653903
 40
0.0365153930885998
 40
0.0446758642174243
 40
0.0531086380187183
 40
0.0617524798184956
 40
0.0705638745437382
 40
0.0795106139377765
 40
0.0885684157519718
 40
0.0977186156480296
 40
0.1069466168470262
 40
0.1162408238049217
 40
0.1255918947122975
 40
0.1349922076748058
 40
0.1444354728139179
 40
0.1539164458182034
 40
0.1634307132356643
 40
0.1729745293127047
 40
0.1825446904246912
 40
0.1921384373026934
 40
0.2017533780792691
 40
0.2113874271154287
 40
0.2210387559229455
 40
0.2307057534543834
 40
0.2403869937178353
 40
0.2500812091716039
 40
0.2597872687177064
 40
0.2695041593843236
 40
0.2792309709885709
 40
0.2889668832246933
 40
0.2987111547388403
 40
0.3084631138409367
 40
0.3182221505742254
 40
0.3279877099163095
 40
0.337759285928809
 40
0.3475364167059429
 40
0.3573186799991304
 40
0.3671056894164282
 40
0.376897091112265
 40
0.3866925608976582
 40
0.3964918017110883
 40
0.4062945414010189
 40
0.4161005307765804
 40
0.4259095418908027
 40
0.4357213665241568
 40
0.4455358148409778
 40
0.4553527141941782
 40
0.4651719080558621
 40
0.4749932550536767
 40
0.4848166280932843
 40
0.4946419135486906
 40
0.5044690105018809
 40
0.5142978300131058
 40
0.5241282944021446
 40
0.533960336519808
 40
0.5437938989868482
 40
0.5536289333750107
 40
0.5634653993019352
 40
0.5733032634078535
 40
0.5831424981777282
 40
0.5929830805669032
 40
0.6028249903833005
 40
0.6126682083715905
 40
0.6225127139387037
 40
0.6323584824517164
 40
0.6422054820319075
 40
0.6520536697617524
 40
0.6619029872149454
 40
0.6717533552163211
 40
0.6816046677380593
 40
0.6914567848439283
 40
0.7013095246076553
 40
0.7111626539568727
 40
0.7210158784361848
 40
0.7308688309458091
 40
0.7407210173113112
 40
0.750571575861717
 40
0.7604197889689487
 40
0.7702648044604468
 40
0.7801056309990182
 40
0.7899411306368133
 40
0.7997700161469209
 40
0.8095908548846796
 40
0.8194020812799099
 40
0.8292020201412141
 40
0.83898892282768
 40
0.8487610179359963
 40
0.8585165774068685
 40
0.8682539978574909
 40
0.8779718955422897
 40
0.887669211751918
 40
0.8973453238725098
 40
0.9070001559780753
 40
0.9166342819606551
 40
0.9262490139889432
 40
0.935846469602781
 40
0.9454296119318638
 40
0.9550022591893077
 40
0.9645690614707698
 40
0.9741354447168095
 40
0.9837075232507315
 40
0.9932919834674961
 40
1.0
 40
1.0
 40
1.0
 40
1.0
 10
411.5855140243387
 20
137.9749196038237
 30
0.0
 10
411.6469420427719
 20
137.9586380042176
 30
0.0
 10
411.733689786565
 20
137.9356453688178
 30
0.0
 10
411.8625875614112
 20
137.9022166548647
 30
0.0
 10
411.9737823487028
 20
137.8737123853365
 30
0.0
 10
412.1067083922817
 20
137.8401955947347
 30
0.0
 10
412.2467573695503
 20
137.8054889372954
 30
0.0
 10
412.3938628919015
 20
137.7697113939367
 30
0.0
 10
412.5460304366121
 20
137.733429431472
 30
0.0
 10
412.7021420413041
 20
137.6969743751017
 30
0.0
 10
412.8613437724294
 20
137.660597428174
 30
0.0
 10
413.0230012425967
 20
137.6244857951048
 30
0.0
 10
413.1866275090058
 20
137.5887830875816
 30
0.0
 10
413.3518400498299
 20
137.5536018828768
 30
0.0
 10
413.5183315047962
 20
137.5190322284595
 30
0.0
 10
413.6858497083309
 20
137.4851474792643
 30
0.0
 10
413.8541837698511
 20
137.4520083799483
 30
0.0
 10
414.0231541885312
 20
137.4196659769488
 30
0.0
 10
414.1926057080868
 20
137.3881637324813
 30
0.0
 10
414.3624020669149
 20
137.3575390850797
 30
0.0
 10
414.5324220821615
 20
137.32782461931
 30
0.0
 10
414.7025566880194
 20
137.2990489550176
 30
0.0
 10
414.872706667094
 20
137.271237432199
 30
0.0
 10
415.0427808923155
 20
137.2444126448305
 30
0.0
 10
415.2126949499227
 20
137.218594861597
 30
0.0
 10
415.3823700503585
 20
137.1938023609008
 30
0.0
 10
415.5517321591764
 20
137.1700517001731
 30
0.0
 10
415.7207112978392
 20
137.1473579343067
 30
0.0
 10
415.8892409770102
 20
137.1257347943123
 30
0.0
 10
416.0572577341056
 20
137.1051948345984
 30
0.0
 10
416.2247007536042
 20
137.0857495553028
 30
0.0
 10
416.3915115535603
 20
137.0674095046362
 30
0.0
 10
416.5576337254803
 20
137.0501843651044
 30
0.0
 10
416.7230127175093
 20
137.0340830266454
 30
0.0
 10
416.8875956529998
 20
137.0191136490888
 30
0.0
 10
417.0513311781642
 20
137.0052837158578
 30
0.0
 10
417.214169333768
 20
136.9926000804589
 30
0.0
 10
417.3760614468048
 20
136.9810690070121
 30
0.0
 10
417.5369600388611
 20
136.9706962058424
 30
0.0
 10
417.696818748486
 20
136.9614868649727
 30
0.0
 10
417.8555922653624
 20
136.9534456782118
 30
0.0
 10
418.013236274462
 20
136.9465768704178
 30
0.0
 10
418.1697074086753
 20
136.9408842204219
 30
0.0
 10
418.3249632086553
 20
136.9363710820239
 30
0.0
 10
418.4789620888185
 20
136.9330404034093
 30
0.0
 10
418.631663308605
 20
136.9308947452883
 30
0.0
 10
418.7830269482398
 20
136.9299362980179
 30
0.0
 10
418.9330138883402
 20
136.9301668979331
 30
0.0
 10
419.0815857928035
 20
136.9315880430878
 30
0.0
 10
419.2287050944838
 20
136.9342009085814
 30
0.0
 10
419.37433498322
 20
136.9380063616311
 30
0.0
 10
419.5184393958272
 20
136.9430049765313
 30
0.0
 10
419.6609830076956
 20
136.9491970496277
 30
0.0
 10
419.8019312256717
 20
136.9565826144242
 30
0.0
 10
419.9412501819143
 20
136.9651614569264
 30
0.0
 10
420.0789067284313
 20
136.9749331313164
 30
0.0
 10
420.2148684320093
 20
136.9858969760423
 30
0.0
 10
420.3491035692497
 20
136.9980521303931
 30
0.0
 10
420.4815811214189
 20
137.0113975516188
 30
0.0
 10
420.6122707688111
 20
137.0259320326373
 30
0.0
 10
420.7411428843094
 20
137.0416542203528
 30
0.0
 10
420.8681685258061
 20
137.0585626345886
 30
0.0
 10
420.9933194271254
 20
137.0766556876078
 30
0.0
 10
421.1165679870592
 20
137.0959317041629
 30
0.0
 10
421.2378872561001
 20
137.1163889419733
 30
0.0
 10
421.3572509204171
 20
137.138025612477
 30
0.0
 10
421.4746332825915
 20
137.1608399016425
 30
0.0
 10
421.5900092385933
 20
137.1848299905498
 30
0.0
 10
421.7033542504528
 20
137.209994075358
 30
0.0
 10
421.8146443140609
 20
137.2363303861707
 30
0.0
 10
421.9238559215266
 20
137.2638372041837
 30
0.0
 10
422.0309660175332
 20
137.2925128763537
 30
0.0
 10
422.1359519491814
 20
137.322355826664
 30
0.0
 10
422.2387914088923
 20
137.3533645628823
 30
0.0
 10
422.3394623700875
 20
137.3855376775137
 30
0.0
 10
422.4379430155755
 20
137.418873841459
 30
0.0
 10
422.5342116588855
 20
137.4533717887076
 30
0.0
 10
422.6282466592013
 20
137.489030290245
 30
0.0
 10
422.7200261997806
 20
137.5258480625924
 30
0.0
 10
422.8095273947641
 20
137.5638233584567
 30
0.0
 10
422.896727079195
 20
137.6029541665321
 30
0.0
 10
422.9816018289187
 20
137.6432381559432
 30
0.0
 10
423.0641285999393
 20
137.68467295206
 30
0.0
 10
423.1442838864751
 20
137.7272556766477
 30
0.0
 10
423.2220437073294
 20
137.7709828188177
 30
0.0
 10
423.2973836074611
 20
137.8158500901378
 30
0.0
 10
423.3702786997164
 20
137.8618522788605
 30
0.0
 10
423.4407037530938
 20
137.9089831127699
 30
0.0
 10
423.508633332131
 20
137.9572351427596
 30
0.0
 10
423.5740419884714
 20
138.0065996611874
 30
0.0
 10
423.6369045007161
 20
138.0570666700003
 30
0.0
 10
423.6971961525352
 20
138.1086249130538
 30
0.0
 10
423.7548930321344
 20
138.1612619845573
 30
0.0
 10
423.8099723298143
 20
138.2149645208341
 30
0.0
 10
423.8624126042598
 20
138.2697184761071
 30
0.0
 10
423.9121939887058
 20
138.3255094739679
 30
0.0
 10
423.9592982971157
 20
138.3823232208027
 30
0.0
 10
424.0037090395847
 20
138.4401459473941
 30
0.0
 10
424.0454112006167
 20
138.4989648843787
 30
0.0
 10
424.0843912568317
 20
138.5587686058605
 30
0.0
 10
424.1206356483732
 20
138.6195477033602
 30
0.0
 10
424.1541344020719
 20
138.6812939204045
 30
0.0
 10
424.1848650557185
 20
138.7440045851836
 30
0.0
 10
424.2128496884532
 20
138.8076667493005
 30
0.0
 10
424.2379389362333
 20
138.8723164639249
 30
0.0
 10
424.2583325570195
 20
138.9312213968865
 30
0.0
 10
424.2690893616304
 20
138.9689198195715
 30
0.0
 10
424.2735182047264
 20
138.9844411946522
 30
0.0
  0
SPLINE
  5
112
330
1F
100
AcDbEntity
  8
0
  6
Continuous
 62
     7
370
    30
100
AcDbSpline
210
0.0
220
0.0
230
1.0
 70
     8
 71
     3
 72
   106
 73
   102
 74
     0
 42
0.000000001
 43
0.00000001
 40
0.0
 40
0.0
 40
0.0
 40
0.0
 40
0.0051374409716115
 40
0.014802661349849
 40
0.0245071942050308
 40
0.0342581170945393
 40
0.0440620551472023
 40
0.053924981431942
 40
0.0638520286883403
 40
0.0738473206679573
 40
0.0839138326395512
 40
0.0940532906795298
 40
0.1042661183630419
 40
0.1145514371513574
 40
0.1249071231416611
 40
0.1353299182306974
 40
0.1458155887752586
 40
0.1563591203430725
 40
0.1669549339576681
 40
0.1775971079366129
 40
0.1882795901834088
 40
0.1989963883556454
 40
0.2097417290866971
 40
0.2205101816231233
 40
0.2312967451495448
 40
0.2420969022040882
 40
0.2529066427003497
 40
0.2637224641661575
 40
0.2745413540466541
 40
0.2853607595412768
 40
0.2961783676522919
 40
0.3069922407930043
 40
0.3178010333049431
 40
0.328603691348259
 40
0.3393994076269052
 40
0.3501875859044233
 40
0.360967809390231
 40
0.3717398128742251
 40
0.3825034584662764
 40
0.393258714696583
 40
0.4040056386762542
 40
0.4147443609970426
 40
0.4254750730507975
 40
0.4361980164652324
 40
0.4469134743776817
 40
0.4576217642963766
 40
0.4683232323291351
 40
0.4790182485879275
 40
0.4897072036057947
 40
0.5003905056273791
 40
0.5110685786581716
 40
0.521741861177513
 40
0.5324108054395416
 40
0.5430758773031582
 40
0.5537375565469692
 40
0.5643963376398936
 40
0.5750527309509166
 40
0.5857072643948926
 40
0.5963604855241323
 40
0.6070129640889638
 40
0.6176652951052932
 40
0.6283181024831578
 40
0.6389720432896279
 40
0.6496278127408941
 40
0.6602861500462366
 40
0.6709478452595435
 40
0.6816137473359997
 40
0.6922847736456946
 40
0.7029619212646782
 40
0.7136462804553096
 40
0.7243390508671528
 40
0.7350415611519948
 40
0.7457552929039004
 40
0.7553742785843095
 40
0.7660839026082535
 40
0.7756988803088587
 40
0.785312625075526
 40
0.7949242124218946
 40
0.8045334697196337
 40
0.8141401813610544
 40
0.8237440784326342
 40
0.8333448240169871
 40
0.8429419931081796
 40
0.8525350446779724
 40
0.862123282046979
 40
0.8717057953864527
 40
0.8812813761267686
 40
0.8908483857367174
 40
0.9004045475508595
 40
0.909946602992917
 40
0.9194697160799489
 40
0.9289663804704824
 40
0.9384242647772398
 40
0.9478215606781397
 40
0.9571156618984249
 40
0.9662106126313224
 40
0.9748359288851866
 40
0.9822038350182852
 40
0.9879478884850619
 40
0.9946025512880051
 40
1.0
 40
1.0
 40
1.0
 40
1.0
 10
401.0847878458787
 20
145.1673518119192
 30
0.0
 10
401.0817443506506
 20
145.1553726627725
 30
0.0
 10
401.0729750374009
 20
145.1208567843307
 30
0.0
 10
401.0616698038899
 20
145.0629010740712
 30
0.0
 10
401.0506587227597
 20
144.9934969803192
 30
0.0
 10
401.0427365103715
 20
144.9230954487423
 30
0.0
 10
401.0377524539462
 20
144.8517431386651
 30
0.0
 10
401.0357945238757
 20
144.7794279606033
 30
0.0
 10
401.0368890834498
 20
144.7061574769052
 30
0.0
 10
401.0410809408693
 20
144.6319388499873
 30
0.0
 10
401.0484104214395
 20
144.5567852789112
 30
0.0
 10
401.0589180868222
 20
144.4807150910273
 30
0.0
 10
401.0726418589644
 20
144.4037525576858
 30
0.0
 10
401.08961618119
 20
144.3259279127611
 30
0.0
 10
401.1098707185015
 20
144.2472772118099
 30
0.0
 10
401.1334293838099
 20
144.1678418470474
 30
0.0
 10
401.160309574044
 20
144.0876677942624
 30
0.0
 10
401.1905217179865
 20
144.0068046347048
 30
0.0
 10
401.2240691423148
 20
143.9253044342647
 30
0.0
 10
401.260948247924
 20
143.8432205692284
 30
0.0
 10
401.3011489551522
 20
143.7606065881267
 30
0.0
 10
401.3446553569744
 20
143.6775151863619
 30
0.0
 10
401.391446508252
 20
143.5939973496941
 30
0.0
 10
401.4414972788923
 20
143.5101016982486
 30
0.0
 10
401.4947792068489
 20
143.4258740390018
 30
0.0
 10
401.5512613004136
 20
143.3413571150529
 30
0.0
 10
401.6109107549669
 20
143.2565905261983
 30
0.0
 10
401.6736935645865
 20
143.17161078774
 30
0.0
 10
401.7395750218385
 20
143.086451492285
 30
0.0
 10
401.8085197221603
 20
143.0011440196143
 30
0.0
 10
401.8804917518267
 20
142.915717824925
 30
0.0
 10
401.9554553890097
 20
142.8302000591391
 30
0.0
 10
402.0333757304637
 20
142.7446153821861
 30
0.0
 10
402.1142188837115
 20
142.6589862463543
 30
0.0
 10
402.197951405643
 20
142.5733338454554
 30
0.0
 10
402.2845402810467
 20
142.4876783562664
 30
0.0
 10
402.373952895533
 20
142.4020391346907
 30
0.0
 10
402.4661569953811
 20
142.3164348841048
 30
0.0
 10
402.5611206395108
 20
142.2308837979823
 30
0.0
 10
402.6588121477886
 20
142.1454036790603
 30
0.0
 10
402.7592000487812
 20
142.0600120375564
 30
0.0
 10
402.8622530291859
 20
141.9747261709967
 30
0.0
 10
402.9679398864804
 20
141.8895632281095
 30
0.0
 10
403.0762294858181
 20
141.8045402590658
 30
0.0
 10
403.1870907218081
 20
141.7196742541159
 30
0.0
 10
403.300492485548
 20
141.6349821724382
 30
0.0
 10
403.4164036370884
 20
141.5504809627749
 30
0.0
 10
403.5347929833811
 20
141.466187577203
 30
0.0
 10
403.655629261697
 20
141.3821189791846
 30
0.0
 10
403.7788811284597
 20
141.2982921468529
 30
0.0
 10
403.9045171534439
 20
141.2147240723232
 30
0.0
 10
404.0325058193002
 20
141.131431757676
 30
0.0
 10
404.1628155264153
 20
141.0484322081302
 30
0.0
 10
404.2954146031639
 20
140.9657424228118
 30
0.0
 10
404.4302713216834
 20
140.8833793834278
 30
0.0
 10
404.5673539193866
 20
140.8013600410665
 30
0.0
 10
404.7066306265251
 20
140.7197013012644
 30
0.0
 10
404.8480697002398
 20
140.6384200074093
 30
0.0
 10
404.9916394656727
 20
140.5575329224771
 30
0.0
 10
405.1373083648827
 20
140.4770567090287
 30
0.0
 10
405.285045014511
 20
140.397007907322
 30
0.0
 10
405.4348182733883
 20
140.3174029113148
 30
0.0
 10
405.5865973215766
 20
140.2382579422429
 30
0.0
 10
405.7403517527084
 20
140.1595890193616
 30
0.0
 10
405.8960516819795
 20
140.0814119272951
 30
0.0
 10
406.0536678726459
 20
140.0037421793363
 30
0.0
 10
406.2131718850127
 20
139.9265949756781
 30
0.0
 10
406.3745362514376
 20
139.84998515592
 30
0.0
 10
406.5377346875518
 20
139.7739271426069
 30
0.0
 10
406.7027423313667
 20
139.6984348805985
 30
0.0
 10
406.8695360796526
 20
139.6235217449039
 30
0.0
 10
407.0380948119389
 20
139.5492005069245
 30
0.0
 10
407.2025316819278
 20
139.4780232857925
 30
0.0
 10
407.3684005289924
 20
139.4074741811286
 30
0.0
 10
407.5297069656972
 20
139.340058881749
 30
0.0
 10
407.6922489053701
 20
139.2733102217084
 30
0.0
 10
407.8499469818847
 20
139.2096203638461
 30
0.0
 10
408.0086953628744
 20
139.1465678783705
 30
0.0
 10
408.1684505642453
 20
139.0841692188779
 30
0.0
 10
408.3291723026058
 20
139.0224392244483
 30
0.0
 10
408.4908191146516
 20
138.9613928571952
 30
0.0
 10
408.6533480635568
 20
138.9010452828678
 30
0.0
 10
408.8167143785662
 20
138.8414119639464
 30
0.0
 10
408.9808709349007
 20
138.7825087974205
 30
0.0
 10
409.1457675121601
 20
138.7243523119301
 30
0.0
 10
409.3113497063387
 20
138.6669599585849
 30
0.0
 10
409.47755729293
 20
138.6103505501748
 30
0.0
 10
409.6443216866489
 20
138.5545449449206
 30
0.0
 10
409.8115618533521
 20
138.4995671498499
 30
0.0
 10
409.9791774387051
 20
138.4454461794957
 30
0.0
 10
410.1470365935344
 20
138.3922193575522
 30
0.0
 10
410.3149529444366
 20
138.3399385717775
 30
0.0
 10
410.4826382583273
 20
138.2886831754735
 30
0.0
 10
410.6495938089339
 20
138.2385896075368
 30
0.0
 10
410.8148196864282
 20
138.1899311157177
 30
0.0
 10
410.9758260460265
 20
138.1433889363113
 30
0.0
 10
411.125654948762
 20
138.1008589245438
 30
0.0
 10
411.255685911268
 20
138.0645551805059
 30
0.0
 10
411.3740761307779
 20
138.0319620160962
 30
0.0
 10
411.4807734347181
 20
138.0029467304875
 30
0.0
 10
411.5531159608237
 20
137.9835888755271
 30
0.0
 10
411.5855140243387
 20
137.9749196038237
 30
0.0
  0
LWPOLYLINE
  5
113
330
1F
100
AcDbEntity
  8
0
  6
Continuous
 62
     7
370
    30
100
AcDbPolyline
 90
       87
 70
   128
 43
0.0
 10
412.6933099415
 20
170.7779920593
 10
412.918161052
 20
170.6501945669
 10
413.148322738
 20
170.523342551
 10
413.3836372581
 20
170.3975229497
 10
413.6239433396
 20
170.2728219933
 10
413.8690762886
 20
170.1493251458
 10
414.1188681033
 20
170.0271170457
 10
414.3731475888
 20
169.9062814483
 10
414.6317404747
 20
169.7869011683
 10
414.8944695344
 20
169.6690580229
 10
415.1611547064
 20
169.5528327761
 10
415.4316132181
 20
169.4383050827
 10
415.7056597106
 20
169.3255534343
 10
415.9831063664
 20
169.2146551054
 10
416.2637630371
 20
169.1056860999
 10
416.5474373749
 20
168.9987210999
 10
416.8339349634
 20
168.8938334139
 10
417.1230594516
 20
168.7910949265
 10
417.4146126879
 20
168.6905760497
 10
417.7083948564
 20
168.5923456741
 10
418.0042046133
 20
168.4964711218
 10
418.3018392255
 20
168.4030181005
 10
418.6010947091
 20
168.3120506581
 10
418.9017659693
 20
168.2236311394
 10
419.2036469411
 20
168.1378201425
 10
419.5065307303
 20
168.054676478
 10
419.8102097554
 20
167.9742571285
 10
420.1144758902
 20
167.8966172094
 10
420.4191206057
 20
167.8218099311
 10
420.7239351136
 20
167.7498865629
 10
421.0287105094
 20
167.6808963975
 10
421.3332379152
 20
167.6148867172
 10
421.6373086232
 20
167.5519027617
 10
421.9407142384
 20
167.4919876973
 10
422.2432468218
 20
167.4351825866
 10
422.5446990327
 20
167.3815263609
 10
422.8448642708
 20
167.3310557938
 10
423.1435368178
 20
167.283805475
 10
423.4405119786
 20
167.2398077877
 10
423.7355862211
 20
167.1990928856
 10
424.0285573162
 20
167.1616886728
 10
424.3192244761
 20
167.1276207841
 10
424.6073884921
 20
167.0969125681
 10
424.8928518711
 20
167.0695850706
 10
425.1754189705
 20
167.0456570204
 10
425.4548961332
 20
167.0251448168
 10
425.7310918193
 20
167.0080625177
 10
426.0038167381
 20
166.9944218304
 10
426.2728839777
 20
166.9842321037
 10
426.5381091327
 20
166.9775003211
 10
426.7993104311
 20
166.9742310962
 10
427.0563088586
 20
166.9744266695
 10
427.3089282813
 20
166.978086907
 10
427.5569955664
 20
166.9852093002
 10
427.800340701
 20
166.9957889677
 10
428.0387969086
 20
167.0098186588
 10
428.2722007631
 20
167.0272887582
 10
428.5003923013
 20
167.0481872928
 10
428.7232151319
 20
167.0724999397
 10
428.9405165435
 20
167.1002100364
 10
429.1521476084
 20
167.1312985916
 10
429.3579632853
 20
167.1657442989
 10
429.5578225184
 20
167.2035235508
 10
429.7515883342
 20
167.2446104554
 10
429.9391279352
 20
167.2889768538
 10
430.1203127913
 20
167.3365923393
 10
430.2950187273
 20
167.3874242789
 10
430.4631260085
 20
167.4414378347
 10
430.6245194225
 20
167.4985959886
 10
430.7790883585
 20
167.5588595672
 10
430.9267268826
 20
167.622187269
 10
431.0673338106
 20
167.6885356922
 10
431.2008127777
 20
167.7578593649
 10
431.3270723041
 20
167.8301107763
 10
431.4460258576
 20
167.9052404087
 10
431.5575919136
 20
167.9831967721
 10
431.6616940102
 20
168.0639264391
 10
431.7582608011
 20
168.1473740815
 10
431.8472261042
 20
168.2334825086
 10
431.928528947
 20
168.322192706
 10
432.0021136088
 20
168.413443876
 10
432.0679296583
 20
168.5071734798
 10
432.1259319883
 20
168.6033172796
 10
432.1760808471
 20
168.7018093834
 10
432.2183418651
 20
168.8025822896
 10
432.2526860787
 20
168.9055669335
 10
432.2616800136
 20
168.937774847
  0
LWPOLYLINE
  5
114
330
1F
100
AcDbEntity
  8
0
  6
Continuous
 62
     7
370
    30
100
AcDbPolyline
 90
       36
 70
   128
 43
0.0
 10
409.0720524546
 20
175.1217196782
 10
409.0546425182
 20
175.0488017906
 10
409.0361970848
 20
174.9416068804
 10
409.0257227312
 20
174.8324163271
 10
409.0232266358
 20
174.7213049644
 10
409.0287105094
 20
174.6083489425
 10
409.0421705936
 20
174.4936256758
 10
409.0635976635
 20
174.3772137899
 10
409.0929770341
 20
174.2591930677
 10
409.1302885702
 20
174.1396443948
 10
409.1755067004
 20
174.0186497037
 10
409.2286004344
 20
173.8962919182
 10
409.2895333845
 20
173.7726548963
 10
409.3582637901
 20
173.6478233726
 10
409.434744547
 20
173.5218829003
 10
409.5189232391
 20
173.3949197927
 10
409.6107421744
 20
173.2670210641
 10
409.7101384249
 20
173.1382743699
 10
409.8170438693
 20
173.0087679465
 10
409.93138524
 20
172.8785905513
 10
410.0530841731
 20
172.7478314013
 10
410.1820572623
 20
172.6165801122
 10
410.3182161159
 20
172.4849266373
 10
410.4614674173
 20
172.3529612051
 10
410.6117129892
 20
172.2207742583
 10
410.768849861
 20
172.0884563911
 10
410.9327703387
 20
171.9560982876
 10
411.1033620796
 20
171.8237906594
 10
411.2805081685
 20
171.6916241836
 10
411.4640871983
 20
171.5596894404
 10
411.6539733532
 20
171.4280768514
 10
411.8500364947
 20
171.2968766173
 10
412.0521422509
 20
171.1661786561
 10
412.2601521085
 20
171.0360725416
 10
412.4739235082
 20
170.9066474422
 10
412.6933099415
 20
170.7779920593
  0
LINE
  5
115
330
1F
100
AcDbEntity
  8
0
  6
Continuous
 62
     7
370
    30
100
AcDbLine
 10
455.0209281883
 20
89.9783481666
 30
0.0
 11
455.0209282473
 21
89.977376727
 31
0.0
  0
LINE
  5
116
330
1F
100
AcDbEntity
  8
0
  6
Continuous
 62
     7
370
    30
100
AcDbLine
 10
503.0209281883
 20
89.9783481666
 30
0.0
 11
503.0209280032
 21
89.9800688047
 31
0.0
  0
LWPOLYLINE
  5
117
330
1F
100
AcDbEntity
  8
0
  6
Continuous
 62
     7
370
    30
100
AcDbPolyline
 90
       31
 70
   128
 43
0.0
 10
495.9914909368
 20
74.4656651416
 10
496.4299130926
 20
74.7254751689
 10
496.8564039998
 20
74.9918214395
 10
497.2706713627
 20
75.2645214129
 10
497.6724312633
 20
75.5433881942
 10
498.0614083553
 20
75.828230662
 10
498.4373360533
 20
76.1188535996
 10
498.7999567152
 20
76.4150578284
 10
499.149021819
 20
76.716640345
 10
499.4842921328
 20
77.0233944596
 10
499.8055378791
 20
77.3351099384
 10
500.1125388922
 20
77.6515731472
 10
500.4050847688
 20
77.9725671978
 10
500.6829750127
 20
78.2978720969
 10
500.9460191717
 20
78.627264897
 10
501.1940369686
 20
78.9605198485
 10
501.4268584242
 20
79.2974085552
 10
501.6443239745
 20
79.6377001303
 10
501.8462845794
 20
79.9811613552
 10
502.0326018251
 20
80.3275568384
 10
502.2031480192
 20
80.676649178
 10
502.3578062779
 20
81.0281991235
 10
502.4964706059
 20
81.38196574
 10
502.6190459698
 20
81.7377065737
 10
502.7254483626
 20
82.0951778175
 10
502.8156048613
 20
82.4541344785
 10
502.8894536772
 20
82.8143305457
 10
502.9469441979
 20
83.1755191587
 10
502.9880370224
 20
83.5374527769
 10
503.0127039877
 20
83.8998833491
 10
503.0209281883
 20
84.2625624834
  0
LWPOLYLINE
  5
118
330
1F
100
AcDbEntity
  8
0
  6
Continuous
 62
     7
370
    30
100
AcDbPolyline
 90
       91
 70
   128
 43
0.0
 10
455.0209281883
 20
84.2625624834
 10
455.0291523889
 20
83.8998833491
 10
455.0538193542
 20
83.5374527769
 10
455.0949121787
 20
83.1755191587
 10
455.1524026995
 20
82.8143305457
 10
455.2262515153
 20
82.4541344785
 10
455.316408014
 20
82.0951778175
 10
455.4228104068
 20
81.7377065737
 10
455.5453857707
 20
81.38196574
 10
455.6840500988
 20
81.0281991235
 10
455.8387083574
 20
80.676649178
 10
456.0092545515
 20
80.3275568384
 10
456.1955717972
 20
79.9811613552
 10
456.3975324021
 20
79.6377001303
 10
456.6149979524
 20
79.2974085552
 10
456.847819408
 20
78.9605198485
 10
457.0958372049
 20
78.627264897
 10
457.3588813639
 20
78.2978720969
 10
457.6367716078
 20
77.9725671978
 10
457.9293174844
 20
77.6515731472
 10
458.2363184975
 20
77.3351099384
 10
458.5575642438
 20
77.0233944596
 10
458.8928345576
 20
76.716640345
 10
459.2418996614
 20
76.4150578284
 10
459.6045203233
 20
76.1188535996
 10
459.9804480213
 20
75.828230662
 10
460.3694251133
 20
75.5433881942
 10
460.7711850139
 20
75.2645214129
 10
461.1854523769
 20
74.9918214395
 10
461.611943284
 20
74.7254751689
 10
462.0503654398
 20
74.4656651416
 10
462.5004183717
 20
74.2125694183
 10
462.9617936357
 20
73.9663614583
 10
463.4341750284
 20
73.7272100001
 10
463.9172388031
 20
73.4952789463
 10
464.4106538921
 20
73.2707272508
 10
464.9140821333
 20
73.0537088101
 10
465.4271785021
 20
72.8443723579
 10
465.949591348
 20
72.6428613627
 10
466.4809626351
 20
72.4493139303
 10
467.0209281883
 20
72.2638627084
 10
467.5691179421
 20
72.086634796
 10
468.1251561946
 20
71.9177516562
 10
468.6886618649
 20
71.7573290331
 10
469.2592487545
 20
71.6054768723
 10
469.8365258116
 20
71.4622992458
 10
470.4200973992
 20
71.3278942804
 10
471.0095635667
 20
71.2023540904
 10
471.6045203233
 20
71.0857647149
 10
472.2045599154
 20
70.9782060584
 10
472.8092711059
 20
70.8797518362
 10
473.4182394558
 20
70.7904695239
 10
474.0310476087
 20
70.7104203112
 10
474.6472755765
 20
70.6396590598
 10
475.2665010273
 20
70.5782342659
 10
475.888299575
 20
70.5261880271
 10
476.5122450699
 20
70.4835560131
 10
477.1379098908
 20
70.4503674419
 10
477.7648652385
 20
70.4266450593
 10
478.3926814289
 20
70.4124051233
 10
479.0209281883
 20
70.4076573934
 10
479.6491749477
 20
70.4124051233
 10
480.2769911381
 20
70.4266450593
 10
480.9039464858
 20
70.4503674419
 10
481.5296113067
 20
70.4835560131
 10
482.1535568016
 20
70.5261880271
 10
482.7753553493
 20
70.5782342659
 10
483.3945808001
 20
70.6396590598
 10
484.0108087679
 20
70.7104203112
 10
484.6236169209
 20
70.7904695239
 10
485.2325852708
 20
70.8797518362
 10
485.8372964612
 20
70.9782060584
 10
486.4373360533
 20
71.0857647149
 10
487.0322928099
 20
71.2023540904
 10
487.6217589774
 20
71.3278942804
 10
488.2053305651
 20
71.4622992458
 10
488.7826076221
 20
71.6054768723
 10
489.3531945117
 20
71.7573290331
 10
489.9167001821
 20
71.9177516562
 10
490.4727384345
 20
72.086634796
 10
491.0209281883
 20
72.2638627084
 10
491.5608937415
 20
72.4493139303
 10
492.0922650287
 20
72.6428613627
 10
492.6146778745
 20
72.8443723579
 10
493.1277742433
 20
73.0537088101
 10
493.6312024845
 20
73.2707272508
 10
494.1246175735
 20
73.4952789463
 10
494.6076813482
 20
73.7272100001
 10
495.0800627409
 20
73.9663614583
 10
495.541438005
 20
74.2125694183
 10
495.9914909368
 20
74.4656651416
  0
SPLINE
  5
119
330
1F
100
AcDbEntity
  8
0
  6
Continuous
 62
     7
370
    30
100
AcDbSpline
210
0.0
220
0.0
230
1.0
 70
     8
 71
     3
 72
    20
 73
    16
 74
     0
 42
0.000000001
 43
0.00000001
 40
0.0
 40
0.0
 40
0.0
 40
0.0
 40
0.063539833720461
 40
0.1506681112056421
 40
0.2231997303216773
 40
0.2954013026846122
 40
0.36744946461803
 40
0.4395219803955759
 40
0.5117964345909692
 40
0.5844489309981556
 40
0.6677926301967191
 40
0.7507502110968819
 40
0.8335907427565478
 40
0.9165844326772157
 40
1.0
 40
1.0
 40
1.0
 40
1.0
 10
429.8531135566333
 20
167.2684819242054
 30
0.0
 10
429.8508101080586
 20
167.2510478715184
 30
0.0
 10
429.8453480817094
 20
167.2097075715017
 30
0.0
 10
429.8503894135417
 20
167.1453140007561
 30
0.0
 10
429.8637955406854
 20
167.0767287470844
 30
0.0
 10
429.8848698593591
 20
167.0109132709282
 30
0.0
 10
429.9140226621601
 20
166.943802628275
 30
0.0
 10
429.9513604400975
 20
166.8753708608028
 30
0.0
 10
429.9968573403443
 20
166.8056258604907
 30
0.0
 10
430.0529985096138
 20
166.7312665699251
 30
0.0
 10
430.1208332790426
 20
166.6525181613019
 30
0.0
 10
430.2015839746342
 20
166.5696443534506
 30
0.0
 10
430.2922288489109
 20
166.4863932536605
 30
0.0
 10
430.3919817108008
 20
166.4027395898908
 30
0.0
 10
430.4662528716684
 20
166.3469742059875
 30
0.0
 10
430.5034825974788
 20
166.319020826396
 30
0.0
  0
ARC
  5
11A
330
1F
100
AcDbEntity
  8
0
  6
Continuous
 62
     7
370
    30
100
AcDbCircle
 10
430.5188265634
 20
166.043390681
 30
0.0
 40
0.2760569041296866
100
AcDbArc
 50
54.7127838836
 51
93.1862915932
  0
LINE
  5
11B
330
1F
100
AcDbEntity
  8
0
  6
Continuous
 62
     7
370
    30
100
AcDbLine
 10
401.0911752872
 20
145.1936439663
 30
0.0
 11
401.0851662184
 21
145.1703221349
 31
0.0
  0
LINE
  5
11C
330
1F
100
AcDbEntity
  8
0
  6
Continuous
 62
     7
370
    30
100
AcDbLine
 10
424.2745886539
 20
138.9871399365
 30
0.0
 11
424.2808028462
 21
139.0096991351
 31
0.0
  0
ARC
  5
11D
330
1F
100
AcDbEntity
  8
0
  6
Continuous
 62
     7
370
    30
100
AcDbCircle
 10
430.0655845661
 20
167.2209889118
 30
0.0
 40
0.5587518738090901
100
AcDbArc
 50
345.9167092413
 51
27.1609389928
  0
ARC
  5
11E
330
1F
100
AcDbEntity
  8
0
  6
Continuous
 62
     7
370
    30
100
AcDbCircle
 10
430.7659281773
 20
166.5265756329
 30
0.0
 40
0.5804771005979713
100
AcDbArc
 50
105.8342322131
 51
158.9361846578
  0
ENDSEC
  0
SECTION
  2
OBJECTS
  0
DICTIONARY
  5
C
330
0
100
AcDbDictionary
281
     1
  3
ACAD_GROUP
350
D
  3
ACAD_LAYOUT
350
1A
  3
ACAD_MLINESTYLE
350
17
  3
ACAD_PLOTSETTINGS
350
19
  3
ACAD_PLOTSTYLENAME
350
E
  3
ACAD_SCALELIST
350
47
  0
DICTIONARY
  5
D
102
{ACAD_REACTORS
330
C
102
}
330
C
100
AcDbDictionary
281
     1
  0
DICTIONARY
  5
1A
102
{ACAD_REACTORS
330
C
102
}
330
C
100
AcDbDictionary
281
     1
  3
Layout1
350
1E
  3
Layout2
350
26
  3
Model
350
22
  0
DICTIONARY
  5
17
102
{ACAD_REACTORS
330
C
102
}
330
C
100
AcDbDictionary
281
     1
  3
Standard
350
18
  0
DICTIONARY
  5
19
102
{ACAD_REACTORS
330
C
102
}
330
C
100
AcDbDictionary
281
     1
  0
ACDBDICTIONARYWDFLT
  5
E
102
{ACAD_REACTORS
330
C
102
}
330
C
100
AcDbDictionary
281
     1
  3
Normal
350
F
100
AcDbDictionaryWithDefault
340
F
  0
DICTIONARY
  5
47
102
{ACAD_REACTORS
330
C
102
}
330
C
100
AcDbDictionary
281
     1
  3
A0
350
48
  3
A1
350
49
  3
A2
350
4A
  3
A3
350
4B
  3
A4
350
4C
  3
A5
350
4D
  3
A6
350
4E
  3
A7
350
4F
  3
A8
350
50
  3
A9
350
51
  3
B0
350
52
  3
B1
350
53
  3
B2
350
54
  3
B3
350
55
  3
B4
350
56
  3
B5
350
57
  3
B6
350
58
  3
B7
350
59
  3
B8
350
5A
  3
B9
350
5B
  3
C0
350
5C
  3
C1
350
5D
  3
C2
350
5E
  3
C3
350
5F
  3
C4
350
60
  3
C5
350
61
  3
C6
350
62
  3
C7
350
63
  3
C8
350
64
  3
C9
350
65
  3
D0
350
66
  3
D1
350
67
  3
D2
350
68
  0
LAYOUT
  5
1E
102
{ACAD_REACTORS
330
1A
102
}
330
1A
100
AcDbPlotSettings
  1

  2
none_device
  4

  6

 40
0.0
 41
0.0
 42
0.0
 43
0.0
 44
0.0
 45
0.0
 46
0.0
 47
0.0
 48
0.0
 49
0.0
140
0.0
141
0.0
142
1.0
143
1.0
 70
   688
 72
     1
 73
     0
 74
     5
  7

 75
    16
147
1.0
148
0.0
149
0.0
100
AcDbLayout
  1
Layout1
 70
     1
 71
     1
 10
0.0
 20
0.0
 11
420.0
 21
297.0
 12
0.0
 22
0.0
 32
0.0
 14
1.0000000000E+20
 24
1.0000000000E+20
 34
1.0000000000E+20
 15
-1.0000000000E+20
 25
-1.0000000000E+20
 35
-1.0000000000E+20
146
0.0
 13
0.0
 23
0.0
 33
0.0
 16
1.0
 26
0.0
 36
0.0
 17
0.0
 27
1.0
 37
0.0
 76
     0
330
1B
  0
LAYOUT
  5
26
102
{ACAD_REACTORS
330
1A
102
}
330
1A
100
AcDbPlotSettings
  1

  2
none_device
  4

  6

 40
0.0
 41
0.0
 42
0.0
 43
0.0
 44
0.0
 45
0.0
 46
0.0
 47
0.0
 48
0.0
 49
0.0
140
0.0
141
0.0
142
1.0
143
1.0
 70
   688
 72
     1
 73
     0
 74
     5
  7

 75
    16
147
1.0
148
0.0
149
0.0
100
AcDbLayout
  1
Layout2
 70
     1
 71
     2
 10
0.0
 20
0.0
 11
0.0
 21
0.0
 12
0.0
 22
0.0
 32
0.0
 14
0.0
 24
0.0
 34
0.0
 15
0.0
 25
0.0
 35
0.0
146
0.0
 13
0.0
 23
0.0
 33
0.0
 16
1.0
 26
0.0
 36
0.0
 17
0.0
 27
1.0
 37
0.0
 76
     0
330
23
  0
LAYOUT
  5
22
102
{ACAD_REACTORS
330
1A
102
}
330
1A
100
AcDbPlotSettings
  1

  2
none_device
  4
Letter_(8.50_x_11.00_Inches)
  6

 40
6.35
 41
6.35
 42
6.35000508
 43
6.35000508
 44
215.9
 45
279.4
 46
0.0
 47
0.0
 48
0.0
 49
0.0
140
0.0
141
0.0
142
1.0
143
1.0
 70
  1712
 72
     1
 73
     0
 74
     0
  7

 75
     0
147
1.0
148
0.0
149
0.0
100
AcDbLayout
  1
Model
 70
     1
 71
     0
 10
0.0
 20
0.0
 11
545.0
 21
533.0
 12
0.0
 22
0.0
 32
0.0
 14
0.0
 24
0.0
 34
0.0
 15
545.0
 25
533.0
 35
0.0
146
0.0
 13
0.0
 23
0.0
 33
0.0
 16
1.0
 26
0.0
 36
0.0
 17
0.0
 27
1.0
 37
0.0
 76
     0
330
1F
331
29
  0
MLINESTYLE
  5
18
102
{ACAD_REACTORS
330
17
102
}
330
17
100
AcDbMlineStyle
  2
Standard
 70
     0
  3

 62
   256
 51
90.0
 52
90.0
 71
     2
 49
0.5
 62
   256
  6
BYLAYER
 49
-0.5
 62
   256
  6
BYLAYER
  0
ACDBPLACEHOLDER
  5
F
102
{ACAD_REACTORS
330
E
102
}
330
E
  0
SCALE
  5
48
102
{ACAD_REACTORS
330
47
102
}
330
47
100
AcDbScale
 70
     0
300
1:1
140
1.0
141
1.0
290
     1
  0
SCALE
  5
49
102
{ACAD_REACTORS
330
47
102
}
330
47
100
AcDbScale
 70
     0
300
1:2
140
1.0
141
2.0
290
     0
  0
SCALE
  5
4A
102
{ACAD_REACTORS
330
47
102
}
330
47
100
AcDbScale
 70
     0
300
1:4
140
1.0
141
4.0
290
     0
  0
SCALE
  5
4B
102
{ACAD_REACTORS
330
47
102
}
330
47
100
AcDbScale
 70
     0
300
1:5
140
1.0
141
5.0
290
     0
  0
SCALE
  5
4C
102
{ACAD_REACTORS
330
47
102
}
330
47
100
AcDbScale
 70
     0
300
1:8
140
1.0
141
8.0
290
     0
  0
SCALE
  5
4D
102
{ACAD_REACTORS
330
47
102
}
330
47
100
AcDbScale
 70
     0
300
1:10
140
1.0
141
10.0
290
     0
  0
SCALE
  5
4E
102
{ACAD_REACTORS
330
47
102
}
330
47
100
AcDbScale
 70
     0
300
1:16
140
1.0
141
16.0
290
     0
  0
SCALE
  5
4F
102
{ACAD_REACTORS
330
47
102
}
330
47
100
AcDbScale
 70
     0
300
1:20
140
1.0
141
20.0
290
     0
  0
SCALE
  5
50
102
{ACAD_REACTORS
330
47
102
}
330
47
100
AcDbScale
 70
     0
300
1:30
140
1.0
141
30.0
290
     0
  0
SCALE
  5
51
102
{ACAD_REACTORS
330
47
102
}
330
47
100
AcDbScale
 70
     0
300
1:40
140
1.0
141
40.0
290
     0
  0
SCALE
  5
52
102
{ACAD_REACTORS
330
47
102
}
330
47
100
AcDbScale
 70
     0
300
1:50
140
1.0
141
50.0
290
     0
  0
SCALE
  5
53
102
{ACAD_REACTORS
330
47
102
}
330
47
100
AcDbScale
 70
     0
300
1:100
140
1.0
141
100.0
290
     0
  0
SCALE
  5
54
102
{ACAD_REACTORS
330
47
102
}
330
47
100
AcDbScale
 70
     0
300
2:1
140
2.0
141
1.0
290
     0
  0
SCALE
  5
55
102
{ACAD_REACTORS
330
47
102
}
330
47
100
AcDbScale
 70
     0
300
4:1
140
4.0
141
1.0
290
     0
  0
SCALE
  5
56
102
{ACAD_REACTORS
330
47
102
}
330
47
100
AcDbScale
 70
     0
300
8:1
140
8.0
141
1.0
290
     0
  0
SCALE
  5
57
102
{ACAD_REACTORS
330
47
102
}
330
47
100
AcDbScale
 70
     0
300
10:1
140
10.0
141
1.0
290
     0
  0
SCALE
  5
58
102
{ACAD_REACTORS
330
47
102
}
330
47
100
AcDbScale
 70
     0
300
100:1
140
100.0
141
1.0
290
     0
  0
SCALE
  5
59
102
{ACAD_REACTORS
330
47
102
}
330
47
100
AcDbScale
 70
     0
300
1/128" = 1'-0"
140
0.0078125
141
12.0
290
     0
  0
SCALE
  5
5A
102
{ACAD_REACTORS
330
47
102
}
330
47
100
AcDbScale
 70
     0
300
1/64" = 1'-0"
140
0.015625
141
12.0
290
     0
  0
SCALE
  5
5B
102
{ACAD_REACTORS
330
47
102
}
330
47
100
AcDbScale
 70
     0
300
1/32" = 1'-0"
140
0.03125
141
12.0
290
     0
  0
SCALE
  5
5C
102
{ACAD_REACTORS
330
47
102
}
330
47
100
AcDbScale
 70
     0
300
1/16" = 1'-0"
140
0.0625
141
12.0
290
     0
  0
SCALE
  5
5D
102
{ACAD_REACTORS
330
47
102
}
330
47
100
AcDbScale
 70
     0
300
3/32" = 1'-0"
140
0.09375
141
12.0
290
     0
  0
SCALE
  5
5E
102
{ACAD_REACTORS
330
47
102
}
330
47
100
AcDbScale
 70
     0
300
1/8" = 1'-0"
140
0.125
141
12.0
290
     0
  0
SCALE
  5
5F
102
{ACAD_REACTORS
330
47
102
}
330
47
100
AcDbScale
 70
     0
300
3/16" = 1'-0"
140
0.1875
141
12.0
290
     0
  0
SCALE
  5
60
102
{ACAD_REACTORS
330
47
102
}
330
47
100
AcDbScale
 70
     0
300
1/4" = 1'-0"
140
0.25
141
12.0
290
     0
  0
SCALE
  5
61
102
{ACAD_REACTORS
330
47
102
}
330
47
100
AcDbScale
 70
     0
300
3/8" = 1'-0"
140
0.375
141
12.0
290
     0
  0
SCALE
  5
62
102
{ACAD_REACTORS
330
47
102
}
330
47
100
AcDbScale
 70
     0
300
1/2" = 1'-0"
140
0.5
141
12.0
290
     0
  0
SCALE
  5
63
102
{ACAD_REACTORS
330
47
102
}
330
47
100
AcDbScale
 70
     0
300
3/4" = 1'-0"
140
0.75
141
12.0
290
     0
  0
SCALE
  5
64
102
{ACAD_REACTORS
330
47
102
}
330
47
100
AcDbScale
 70
     0
300
1" = 1'-0"
140
1.0
141
12.0
290
     0
  0
SCALE
  5
65
102
{ACAD_REACTORS
330
47
102
}
330
47
100
AcDbScale
 70
     0
300
1-1/2" = 1'-0"
140
1.5
141
12.0
290
     0
  0
SCALE
  5
66
102
{ACAD_REACTORS
330
47
102
}
330
47
100
AcDbScale
 70
     0
300
3" = 1'-0"
140
3.0
141
12.0
290
     0
  0
SCALE
  5
67
102
{ACAD_REACTORS
330
47
102
}
330
47
100
AcDbScale
 70
     0
300
6" = 1'-0"
140
6.0
141
12.0
290
     0
  0
SCALE
  5
68
102
{ACAD_REACTORS
330
47
102
}
330
47
100
AcDbScale
 70
     0
300
1'-0" = 1'-0"
140
12.0
141
12.0
290
     0
  0
ENDSEC
  0
EOF
