  0
SECTION
  2
HEADER
  9
$ACADVER
  1
AC1015
  9
$ACADMAINTVER
 70
     6
  9
$DWGCODEPAGE
  3
ANSI_1252
  9
$INSBASE
 10
0.0
 20
0.0
 30
0.0
  9
$EXTMIN
 10
0.0
 20
0.0
 30
0.0
  9
$EXTMAX
 10
291.0
 20
337.0
 30
0.0
  9
$LIMMIN
 10
0.0
 20
0.0
  9
$LIMMAX
 10
291.0
 20
337.0
  9
$ORTHOMODE
 70
     0
  9
$REGENMODE
 70
     1
  9
$FILLMODE
 70
     1
  9
$QTEXTMODE
 70
     0
  9
$MIRRTEXT
 70
     1
  9
$LTSCALE
 40
1.0
  9
$ATTMODE
 70
     1
  9
$TEXTSIZE
 40
3.5
  9
$TRACEWID
 40
1.0
  9
$TEXTSTYLE
  7
Standard
  9
$CLAYER
  8
0
  9
$CELTYPE
  6
ByLayer
  9
$CECOLOR
 62
   256
  9
$CELTSCALE
 40
1.0
  9
$DISPSILH
 70
     0
  9
$DIMSCALE
 40
1.0
  9
$DIMASZ
 40
3.302
  9
$DIMEXO
 40
1.0
  9
$DIMDLI
 40
3.75
  9
$DIMRND
 40
0.0
  9
$DIMDLE
 40
0.0
  9
$DIMEXE
 40
1.0
  9
$DIMTP
 40
0.0
  9
$DIMTM
 40
0.0
  9
$DIMTXT
 40
2.8
  9
$DIMCEN
 40
2.5
  9
$DIMTSZ
 40
0.0
  9
$DIMTOL
 70
     0
  9
$DIMLIM
 70
     0
  9
$DIMTIH
 70
     1
  9
$DIMTOH
 70
     1
  9
$DIMSE1
 70
     0
  9
$DIMSE2
 70
     0
  9
$DIMTAD
 70
     1
  9
$DIMZIN
 70
     0
  9
$DIMBLK
  1

  9
$DIMASO
 70
     1
  9
$DIMSHO
 70
     1
  9
$DIMPOST
  1

  9
$DIMAPOST
  1

  9
$DIMALT
 70
     0
  9
$DIMALTD
 70
     3
  9
$DIMALTF
 40
0.0393700787
  9
$DIMLFAC
 40
1.0
  9
$DIMTOFL
 70
     1
  9
$DIMTVP
 40
0.0
  9
$DIMTIX
 70
     0
  9
$DIMSOXD
 70
     0
  9
$DIMSAH
 70
     0
  9
$DIMBLK1
  1

  9
$DIMBLK2
  1

  9
$DIMSTYLE
  2
ISO-25
  9
$DIMCLRD
 70
     0
  9
$DIMCLRE
 70
     0
  9
$DIMCLRT
 70
     0
  9
$DIMTFAC
 40
1.0
  9
$DIMGAP
 40
1.524
  9
$DIMJUST
 70
     0
  9
$DIMSD1
 70
     0
  9
$DIMSD2
 70
     0
  9
$DIMTOLJ
 70
     0
  9
$DIMTZIN
 70
     0
  9
$DIMALTZ
 70
     0
  9
$DIMALTTZ
 70
     0
  9
$DIMUPT
 70
     0
  9
$DIMDEC
 70
     2
  9
$DIMTDEC
 70
     2
  9
$DIMALTU
 70
     2
  9
$DIMALTTD
 70
     3
  9
$DIMTXSTY
  7
Standard
  9
$DIMAUNIT
 70
     0
  9
$DIMADEC
 70
     2
  9
$DIMALTRND
 40
0.0
  9
$DIMAZIN
 70
     0
  9
$DIMDSEP
 70
    44
  9
$DIMATFIT
 70
     3
  9
$DIMFRAC
 70
     0
  9
$DIMLDRBLK
  1

  9
$DIMLUNIT
 70
     2
  9
$DIMLWD
 70
    -2
  9
$DIMLWE
 70
    -2
  9
$DIMTMOVE
 70
     0
  9
$LUNITS
 70
     2
  9
$LUPREC
 70
     2
  9
$SKETCHINC
 40
1.0
  9
$FILLETRAD
 40
10.0
  9
$AUNITS
 70
     0
  9
$AUPREC
 70
     2
  9
$MENU
  1
.
  9
$ELEVATION
 40
0.0
  9
$PELEVATION
 40
0.0
  9
$THICKNESS
 40
0.0
  9
$LIMCHECK
 70
     0
  9
$CHAMFERA
 40
0.0
  9
$CHAMFERB
 40
0.0
  9
$CHAMFERC
 40
0.0
  9
$CHAMFERD
 40
0.0
  9
$SKPOLY
 70
     0
  9
$TDCREATE
 40
2458200.306701678
  9
$TDUCREATE
 40
2458200.223368345
  9
$TDUPDATE
 40
2458200.306702164
  9
$TDUUPDATE
 40
2458200.223368831
  9
$TDINDWG
 40
0.0000000116
  9
$TDUSRTIMER
 40
0.0000000116
  9
$USRTIMER
 70
     1
  9
$ANGBASE
 50
0.0
  9
$ANGDIR
 70
     0
  9
$PDMODE
 70
     0
  9
$PDSIZE
 40
-1.0
  9
$PLINEWID
 40
0.0
  9
$SPLFRAME
 70
     0
  9
$SPLINETYPE
 70
     6
  9
$SPLINESEGS
 70
     8
  9
$HANDSEED
  5
103
  9
$SURFTAB1
 70
     6
  9
$SURFTAB2
 70
     6
  9
$SURFTYPE
 70
     6
  9
$SURFU
 70
     6
  9
$SURFV
 70
     6
  9
$UCSBASE
  2

  9
$UCSNAME
  2

  9
$UCSORG
 10
0.0
 20
0.0
 30
0.0
  9
$UCSXDIR
 10
1.0
 20
0.0
 30
0.0
  9
$UCSYDIR
 10
0.0
 20
1.0
 30
0.0
  9
$UCSORTHOREF
  2

  9
$UCSORTHOVIEW
 70
     0
  9
$UCSORGTOP
 10
0.0
 20
0.0
 30
0.0
  9
$UCSORGBOTTOM
 10
0.0
 20
0.0
 30
0.0
  9
$UCSORGLEFT
 10
0.0
 20
0.0
 30
0.0
  9
$UCSORGRIGHT
 10
0.0
 20
0.0
 30
0.0
  9
$UCSORGFRONT
 10
0.0
 20
0.0
 30
0.0
  9
$UCSORGBACK
 10
0.0
 20
0.0
 30
0.0
  9
$PUCSBASE
  2

  9
$PUCSNAME
  2

  9
$PUCSORG
 10
0.0
 20
0.0
 30
0.0
  9
$PUCSXDIR
 10
1.0
 20
0.0
 30
0.0
  9
$PUCSYDIR
 10
0.0
 20
1.0
 30
0.0
  9
$PUCSORTHOREF
  2

  9
$PUCSORTHOVIEW
 70
     0
  9
$PUCSORGTOP
 10
0.0
 20
0.0
 30
0.0
  9
$PUCSORGBOTTOM
 10
0.0
 20
0.0
 30
0.0
  9
$PUCSORGLEFT
 10
0.0
 20
0.0
 30
0.0
  9
$PUCSORGRIGHT
 10
0.0
 20
0.0
 30
0.0
  9
$PUCSORGFRONT
 10
0.0
 20
0.0
 30
0.0
  9
$PUCSORGBACK
 10
0.0
 20
0.0
 30
0.0
  9
$USERI1
 70
     0
  9
$USERI2
 70
     0
  9
$USERI3
 70
     0
  9
$USERI4
 70
     0
  9
$USERI5
 70
     0
  9
$USERR1
 40
0.0
  9
$USERR2
 40
0.0
  9
$USERR3
 40
0.0
  9
$USERR4
 40
0.0
  9
$USERR5
 40
0.0
  9
$WORLDVIEW
 70
     1
  9
$SHADEDGE
 70
     3
  9
$SHADEDIF
 70
    70
  9
$TILEMODE
 70
     1
  9
$MAXACTVP
 70
    64
  9
$PINSBASE
 10
0.0
 20
0.0
 30
0.0
  9
$PLIMCHECK
 70
     0
  9
$PEXTMIN
 10
1.0000000000E+20
 20
1.0000000000E+20
 30
1.0000000000E+20
  9
$PEXTMAX
 10
-1.0000000000E+20
 20
-1.0000000000E+20
 30
-1.0000000000E+20
  9
$PLIMMIN
 10
0.0
 20
0.0
  9
$PLIMMAX
 10
420.0
 20
297.0
  9
$UNITMODE
 70
     0
  9
$VISRETAIN
 70
     1
  9
$PLINEGEN
 70
     0
  9
$PSLTSCALE
 70
     1
  9
$TREEDEPTH
 70
  3020
  9
$CMLSTYLE
  2
Standard
  9
$CMLJUST
 70
     0
  9
$CMLSCALE
 40
20.0
  9
$PROXYGRAPHICS
 70
     1
  9
$MEASUREMENT
 70
     1
  9
$CELWEIGHT
370
    -1
  9
$ENDCAPS
280
     0
  9
$JOINSTYLE
280
     0
  9
$LWDISPLAY
290
     1
  9
$INSUNITS
 70
     4
  9
$HYPERLINKBASE
  1

  9
$STYLESHEET
  1

  9
$XEDIT
290
     1
  9
$CEPSNTYPE
380
     0
  9
$PSTYLEMODE
290
     1
  9
$FINGERPRINTGUID
  2
{AF9633F6-BC44-40AE-899A-9A4B45993E7B}
  9
$VERSIONGUID
  2
{FAEB1C32-E019-11D5-929B-00C0DF256EC4}
  9
$EXTNAMES
290
     1
  9
$PSVPSCALE
 40
0.0
  9
$OLESTARTUP
290
     0
  0
ENDSEC
  0
SECTION
  2
CLASSES
  0
CLASS
  1
ACDBDICTIONARYWDFLT
  2
AcDbDictionaryWithDefault
  3
ObjectDBX Classes
 90
        0
280
     0
281
     0
  0
CLASS
  1
VISUALSTYLE
  2
AcDbVisualStyle
  3
ObjectDBX Classes
 90
     4095
280
     0
281
     0
  0
CLASS
  1
MATERIAL
  2
AcDbMaterial
  3
ObjectDBX Classes
 90
     1153
280
     0
281
     0
  0
CLASS
  1
SCALE
  2
AcDbScale
  3
ObjectDBX Classes
 90
     1153
280
     0
281
     0
  0
CLASS
  1
TABLESTYLE
  2
AcDbTableStyle
  3
ObjectDBX Classes
 90
     4095
280
     0
281
     0
  0
CLASS
  1
MLEADERSTYLE
  2
AcDbMLeaderStyle
  3
ACDB_MLEADERSTYLE_CLASS
 90
     4095
280
     0
281
     0
  0
CLASS
  1
SUN
  2
AcDbSun
  3
SCENEOE
 90
     1153
280
     0
281
     0
  0
CLASS
  1
ACDBPLACEHOLDER
  2
AcDbPlaceHolder
  3
ObjectDBX Classes
 90
        0
280
     0
281
     0
  0
CLASS
  1
LAYOUT
  2
AcDbLayout
  3
ObjectDBX Classes
 90
        0
280
     0
281
     0
  0
ENDSEC
  0
SECTION
  2
TABLES
  0
TABLE
  2
VPORT
  5
8
330
0
100
AcDbSymbolTable
 70
     1
  0
VPORT
  5
29
330
8
100
AcDbSymbolTableRecord
100
AcDbViewportTableRecord
  2
*Active
 70
     0
 10
0.0
 20
0.0
 11
1.0
 21
1.0
 12
145.5
 22
168.5
 13
0.0
 23
0.0
 14
10.0
 24
10.0
 15
10.0
 25
10.0
 16
0.0
 26
0.0
 36
1.0
 17
0.0
 27
0.0
 37
0.0
 40
337.0
 41
0.8635014837
 42
50.0
 43
0.0
 44
0.0
 50
0.0
 51
0.0
 71
     0
 72
  2000
 73
     1
 74
     3
 75
     0
 76
     0
 77
     0
 78
     0
281
     0
 65
     1
110
0.0
120
0.0
130
0.0
111
1.0
121
0.0
131
0.0
112
0.0
122
1.0
132
0.0
 79
     0
146
0.0
  0
ENDTAB
  0
TABLE
  2
LTYPE
  5
5
330
0
100
AcDbSymbolTable
 70
     6
  0
LTYPE
  5
14
330
5
100
AcDbSymbolTableRecord
100
AcDbLinetypeTableRecord
  2
ByBlock
 70
     0
  3

 72
    65
 73
     0
 40
0.0
  0
LTYPE
  5
15
330
5
100
AcDbSymbolTableRecord
100
AcDbLinetypeTableRecord
  2
ByLayer
 70
     0
  3

 72
    65
 73
     0
 40
0.0
  0
LTYPE
  5
16
330
5
100
AcDbSymbolTableRecord
100
AcDbLinetypeTableRecord
  2
Continuous
 70
     0
  3
Solid line
 72
    65
 73
     0
 40
0.0
  0
LTYPE
  5
6E
330
5
100
AcDbSymbolTableRecord
100
AcDbLinetypeTableRecord
  2
HIDDEN
 70
     0
  3
Hidden __ __ __ __ __ __ __ __ __ __ __ __ __ __
 72
    65
 73
     2
 40
1.905
 49
1.27
 74
     0
 49
-0.635
 74
     0
  0
LTYPE
  5
6F
330
5
100
AcDbSymbolTableRecord
100
AcDbLinetypeTableRecord
  2
PHANTOM
 70
     0
  3
Phantom ______  __  __  ______  __  __  ______
 72
    65
 73
     6
 40
12.7
 49
6.35
 74
     0
 49
-1.27
 74
     0
 49
1.27
 74
     0
 49
-1.27
 74
     0
 49
1.27
 74
     0
 49
-1.27
 74
     0
  0
LTYPE
  5
70
330
5
100
AcDbSymbolTableRecord
100
AcDbLinetypeTableRecord
  2
CENTER
 70
     0
  3
Center ____ _ ____ _ ____ _ ____ _ ____ _ ____
 72
    65
 73
     4
 40
10.16
 49
6.35
 74
     0
 49
-1.27
 74
     0
 49
1.27
 74
     0
 49
-1.27
 74
     0
  0
LTYPE
  5
71
330
5
100
AcDbSymbolTableRecord
100
AcDbLinetypeTableRecord
  2
CENTERX2
 70
     0
  3
Center (2x) ________  __  ________  __  _____
 72
    65
 73
     4
 40
20.32
 49
12.7
 74
     0
 49
-2.54
 74
     0
 49
2.54
 74
     0
 49
-2.54
 74
     0
  0
LTYPE
  5
72
330
5
100
AcDbSymbolTableRecord
100
AcDbLinetypeTableRecord
  2
DOT2
 70
     0
  3
Dot (.5x) ........................................
 72
    65
 73
     2
 40
0.635
 49
0.0
 74
     0
 49
-0.635
 74
     0
  0
ENDTAB
  0
TABLE
  2
LAYER
  5
2
330
0
100
AcDbSymbolTable
 70
     2
  0
LAYER
  5
10
330
2
100
AcDbSymbolTableRecord
100
AcDbLayerTableRecord
  2
0
 70
     0
 62
     7
  6
Continuous
370
    -3
390
F
  0
LAYER
  5
73
330
2
100
AcDbSymbolTableRecord
100
AcDbLayerTableRecord
  2
FORMAT
 70
     0
 62
     7
  6
Continuous
370
    -3
390
F
  0
ENDTAB
  0
TABLE
  2
STYLE
  5
3
330
0
100
AcDbSymbolTable
 70
     2
  0
STYLE
  5
11
330
3
100
AcDbSymbolTableRecord
100
AcDbTextStyleTableRecord
  2
Standard
 70
     0
 40
0.0
 41
1.0
 50
0.0
 71
     0
 42
3.5
  3
txt
  4

  0
STYLE
  5
74
330
3
100
AcDbSymbolTableRecord
100
AcDbTextStyleTableRecord
  2
SLDTEXTSTYLE0
 70
     0
 40
0.0
 41
0.605
 50
0.0
 71
     0
 42
3.5
  3
TXT
  4

  0
ENDTAB
  0
TABLE
  2
VIEW
  5
6
330
0
100
AcDbSymbolTable
 70
     0
  0
ENDTAB
  0
TABLE
  2
UCS
  5
7
330
0
100
AcDbSymbolTable
 70
     0
  0
ENDTAB
  0
TABLE
  2
APPID
  5
9
330
0
100
AcDbSymbolTable
 70
     1
  0
APPID
  5
12
330
9
100
AcDbSymbolTableRecord
100
AcDbRegAppTableRecord
  2
ACAD
 70
     0
  0
ENDTAB
  0
TABLE
  2
DIMSTYLE
  5
A
330
0
100
AcDbSymbolTable
 70
     1
100
AcDbDimStyleTable
  0
DIMSTYLE
105
27
330
A
100
AcDbSymbolTableRecord
100
AcDbDimStyleTableRecord
  2
ISO-25
 70
     0
 41
2.5
 42
0.625
 43
3.75
 44
1.25
 73
     0
 74
     0
 77
     1
 78
     8
140
2.5
141
2.5
143
0.0393700787
147
0.625
171
     3
172
     1
178
     0
271
     2
272
     2
274
     3
278
    44
283
     0
284
     8
340
11
  0
ENDTAB
  0
TABLE
  2
BLOCK_RECORD
  5
1
330
0
100
AcDbSymbolTable
 70
     1
  0
BLOCK_RECORD
  5
1F
330
1
100
AcDbSymbolTableRecord
100
AcDbBlockTableRecord
  2
*Model_Space
340
22
  0
BLOCK_RECORD
  5
1B
330
1
100
AcDbSymbolTableRecord
100
AcDbBlockTableRecord
  2
*Paper_Space
340
1E
  0
BLOCK_RECORD
  5
23
330
1
100
AcDbSymbolTableRecord
100
AcDbBlockTableRecord
  2
*Paper_Space0
340
26
  0
ENDTAB
  0
ENDSEC
  0
SECTION
  2
BLOCKS
  0
BLOCK
  5
20
330
1F
100
AcDbEntity
  8
0
100
AcDbBlockBegin
  2
*Model_Space
 70
     0
 10
0.0
 20
0.0
 30
0.0
  3
*Model_Space
  1

  0
ENDBLK
  5
21
330
1F
100
AcDbEntity
  8
0
100
AcDbBlockEnd
  0
BLOCK
  5
1C
330
1B
100
AcDbEntity
 67
     1
  8
0
100
AcDbBlockBegin
  2
*Paper_Space
 70
     0
 10
0.0
 20
0.0
 30
0.0
  3
*Paper_Space
  1

  0
ENDBLK
  5
1D
330
1B
100
AcDbEntity
 67
     1
  8
0
100
AcDbBlockEnd
  0
BLOCK
  5
24
330
23
100
AcDbEntity
  8
0
100
AcDbBlockBegin
  2
*Paper_Space0
 70
     0
 10
0.0
 20
0.0
 30
0.0
  3
*Paper_Space0
  1

  0
ENDBLK
  5
25
330
23
100
AcDbEntity
  8
0
100
AcDbBlockEnd
  0
ENDSEC
  0
SECTION
  2
ENTITIES
  0
MTEXT
  5
75
330
1F
100
AcDbEntity
  8
0
  6
Continuous
 62
     7
370
     0
100
AcDbMText
 10
7.2782978723
 20
22.1884790273
 30
0.0
 40
10.0
 41
0.0
 71
     1
 72
     1
  1
1:1
  7
SLDTEXTSTYLE0
 73
     1
 44
1.0
  0
LINE
  5
76
330
1F
100
AcDbEntity
  8
0
  6
Continuous
 62
     7
370
    30
100
AcDbLine
 10
153.0
 20
216.0908374948
 30
0.0
 11
153.0
 21
239.0402000477
 31
0.0
  0
LINE
  5
77
330
1F
100
AcDbEntity
  8
0
  6
Continuous
 62
     7
370
    30
100
AcDbLine
 10
138.0
 20
241.0757064508
 30
0.0
 11
138.0
 21
216.0908374948
 31
0.0
  0
ARC
  5
78
330
1F
100
AcDbEntity
  8
0
  6
Continuous
 62
     7
370
    30
100
AcDbCircle
 10
156.6278641091
 20
186.5908374948
 30
0.0
 40
0.5000000000000259
100
AcDbArc
 50
270.0
 51
2.4812648012
  0
ARC
  5
79
330
1F
100
AcDbEntity
  8
0
  6
Continuous
 62
     7
370
    30
100
AcDbCircle
 10
134.3721358909
 20
186.5908374948
 30
0.0
 40
0.5
100
AcDbArc
 50
177.5187351988
 51
270.0
  0
LINE
  5
7A
330
1F
100
AcDbEntity
  8
0
  6
Continuous
 62
     7
370
    30
100
AcDbLine
 10
157.1273953247
 20
186.6124838475
 30
0.0
 11
155.8707286581
 21
215.6124838475
 31
0.0
  0
LINE
  5
7B
330
1F
100
AcDbEntity
  8
0
  6
Continuous
 62
     7
370
    30
100
AcDbLine
 10
135.1292713419
 20
215.6124838475
 30
0.0
 11
133.8726046753
 21
186.6124838475
 31
0.0
  0
ARC
  5
7C
330
1F
100
AcDbEntity
  8
0
  6
Continuous
 62
     7
370
    30
100
AcDbCircle
 10
135.6288025576
 20
215.5908374948
 30
0.0
 40
0.5000000000000012
100
AcDbArc
 50
90.0
 51
177.5187351988
  0
ARC
  5
7D
330
1F
100
AcDbEntity
  8
0
  6
Continuous
 62
     7
370
    30
100
AcDbCircle
 10
155.3711974424
 20
215.5908374948
 30
0.0
 40
0.5
100
AcDbArc
 50
2.4812648012
 51
90.0
  0
ARC
  5
7E
330
1F
100
AcDbEntity
  8
0
  6
Continuous
 62
     7
370
    30
100
AcDbCircle
 10
134.3721358909
 20
309.4091625052
 30
0.0
 40
0.5
100
AcDbArc
 50
90.0
 51
182.4812648012
  0
ARC
  5
7F
330
1F
100
AcDbEntity
  8
0
  6
Continuous
 62
     7
370
    30
100
AcDbCircle
 10
156.6278641091
 20
309.4091625052
 30
0.0
 40
0.5000000000000259
100
AcDbArc
 50
357.5187351988
 51
90.0
  0
LINE
  5
80
330
1F
100
AcDbEntity
  8
0
  6
Continuous
 62
     7
370
    30
100
AcDbLine
 10
133.8726046753
 20
309.3875161525
 30
0.0
 11
135.1292713419
 21
280.3875161525
 31
0.0
  0
LINE
  5
81
330
1F
100
AcDbEntity
  8
0
  6
Continuous
 62
     7
370
    30
100
AcDbLine
 10
155.8707286581
 20
280.3875161525
 30
0.0
 11
157.1273953247
 21
309.3875161525
 31
0.0
  0
ARC
  5
82
330
1F
100
AcDbEntity
  8
0
  6
Continuous
 62
     7
370
    30
100
AcDbCircle
 10
155.3711974424
 20
280.4091625052
 30
0.0
 40
0.5
100
AcDbArc
 50
270.0
 51
357.5187351988
  0
ARC
  5
83
330
1F
100
AcDbEntity
  8
0
  6
Continuous
 62
     7
370
    30
100
AcDbCircle
 10
135.6288025576
 20
280.4091625052
 30
0.0
 40
0.5
100
AcDbArc
 50
182.4812648012
 51
270.0
  0
LINE
  5
84
330
1F
100
AcDbEntity
  8
0
  6
Continuous
 62
     7
370
    30
100
AcDbLine
 10
138.0
 20
279.9091625052
 30
0.0
 11
138.0
 21
256.9597377036
 31
0.0
  0
LINE
  5
85
330
1F
100
AcDbEntity
  8
0
  6
Continuous
 62
     7
370
    30
100
AcDbLine
 10
153.0
 20
254.9242935492
 30
0.0
 11
153.0
 21
279.9091625052
 31
0.0
  0
SPLINE
  5
86
330
1F
100
AcDbEntity
  8
0
  6
Continuous
 62
     7
370
    30
100
AcDbSpline
210
0.0
220
0.0
230
1.0
 70
     8
 71
     3
 72
   196
 73
   192
 74
     0
 42
0.000000001
 43
0.00000001
 40
0.0
 40
0.0
 40
0.0
 40
0.0
 40
0.0050128413084264
 40
0.0100256829981325
 40
0.0150454121257727
 40
0.0200651423881223
 40
0.0266798906259321
 40
0.0332956165816293
 40
0.0399103875390955
 40
0.0465597477844009
 40
0.0532100695017692
 40
0.0598594642352112
 40
0.0663618717151499
 40
0.0728651356776343
 40
0.0793675801742904
 40
0.0858997184580573
 40
0.0924326762875745
 40
0.0989648522765355
 40
0.1043933180443238
 40
0.1098222270406422
 40
0.115250708395538
 40
0.120694664345282
 40
0.1261390475690677
 40
0.1315830149768545
 40
0.1370479341653165
 40
0.1425132714437808
 40
0.1479781957077832
 40
0.1534580769404096
 40
0.1589383742474753
 40
0.1644182514309127
 40
0.1699187961046176
 40
0.1754197683999001
 40
0.1809202964482871
 40
0.1864369337353963
 40
0.1919540260942028
 40
0.1974706297313027
 40
0.2049020730762855
 40
0.208620418529504
 40
0.2123387604311295
 40
0.2172332820205309
 40
0.222128199244349
 40
0.2270226716193827
 40
0.2319332829203708
 40
0.2368443602704452
 40
0.2417549027393328
 40
0.2465609184660708
 40
0.2513674567850043
 40
0.2561733896220056
 40
0.2610013032101604
 40
0.2658298578813641
 40
0.2706576668031908
 40
0.2740887678766565
 40
0.2775198603904975
 40
0.2809557026841855
 40
0.2843915359576652
 40
0.288992527786944
 40
0.2935943217546397
 40
0.2981952103024449
 40
0.3028289196874144
 40
0.3074635843362938
 40
0.312097198415826
 40
0.3155942395084237
 40
0.3190912736573116
 40
0.3225958990885268
 40
0.326100528429616
 40
0.3295276483737085
 40
0.3329547827574452
 40
0.3363883144029474
 40
0.3398218610930651
 40
0.3444221300466525
 40
0.3490232192335712
 40
0.3536236511295785
 40
0.3582479904454943
 40
0.3628729522975802
 40
0.3674974323885001
 40
0.3709745535290233
 40
0.3744516853214442
 40
0.3814112232522175
 40
0.3854799494970887
 40
0.3895486900804075
 40
0.3936203578149702
 40
0.3976920370968773
 40
0.4058592707007774
 40
0.4140266310464463
 40
0.4222070901655016
 40
0.4303876086323715
 40
0.4385960122374958
 40
0.4468044140276087
 40
0.455022593281273
 40
0.4632407050821772
 40
0.4687399588215354
 40
0.4742394672970942
 40
0.4797386164224878
 40
0.4852509400335185
 40
0.490763665323222
 40
0.4962758037106557
 40
0.5004273695406275
 40
0.5045789110307062
 40
0.5087357571398177
 40
0.512892572892265
 40
0.5172713784886626
 40
0.5216501772253012
 40
0.526037427813652
 40
0.5304246733772222
 40
0.5363152297151346
 40
0.5422071205082679
 40
0.5480976528479604
 40
0.5540373907474447
 40
0.5599785216352354
 40
0.56591828204775
 40
0.5704064772427765
 40
0.574894677451613
 40
0.579392086215382
 40
0.5838895015984539
 40
0.5882608460549971
 40
0.5926321974619038
 40
0.5970114409476954
 40
0.6013906921304161
 40
0.6072650424797061
 40
0.6131405135450363
 40
0.6190149560440712
 40
0.6249267522987194
 40
0.6308395694292118
 40
0.6367514569291631
 40
0.6412082411622819
 40
0.6456650331149798
 40
0.6501277931610963
 40
0.6545905603549702
 40
0.6597815390444268
 40
0.6649730617466919
 40
0.6701640803050766
 40
0.6753733778882305
 40
0.6805831744841215
 40
0.6857925047658814
 40
0.6910251155530229
 40
0.6962581905030981
 40
0.7014908271886975
 40
0.7067393455997137
 40
0.7119882997784511
 40
0.7172368377839902
 40
0.722506400441238
 40
0.727776379479756
 40
0.7330459563203653
 40
0.7383300974486597
 40
0.7436146407631562
 40
0.7488987914373333
 40
0.7541776219301185
 40
0.7594568417633285
 40
0.7647356779043225
 40
0.7700283989373999
 40
0.77532150555691
 40
0.7806142292093828
 40
0.785926321686627
 40
0.7912388009823277
 40
0.7965508936861745
 40
0.8018769704523613
 40
0.8072034371092798
 40
0.8125295122552473
 40
0.8178748143656608
 40
0.8232205129394962
 40
0.8285658120561707
 40
0.8339255574818825
 40
0.83928570663825
 40
0.8446454481257286
 40
0.8502697162651598
 40
0.8558944569301874
 40
0.8615187196455367
 40
0.8671602735922757
 40
0.8728023115458343
 40
0.8784438597572577
 40
0.8842570840014519
 40
0.8900708459169328
 40
0.8958840638291138
 40
0.9017169689972013
 40
0.9075504255057267
 40
0.9133833247413746
 40
0.9193918632337141
 40
0.9254010126724628
 40
0.9314095453581325
 40
0.9374404073720232
 40
0.9434718945807568
 40
0.9495027518518895
 40
0.9546475813310802
 40
0.9597924102486812
 40
0.9649435364038383
 40
0.9700946621166163
 40
0.9768791988015763
 40
0.9836646407754306
 40
0.9904491748039453
 40
0.9972666367045626
 40
1.0
 40
1.0
 40
1.0
 40
1.0
 10
138.0
 20
241.0757064508214
 30
0.0
 10
138.0001943618903
 20
241.0758086922666
 30
0.0
 10
138.0005830856855
 20
241.0760131751647
 30
0.0
 10
138.0037267368337
 20
241.077664646712
 30
0.0
 10
138.0087476524143
 20
241.0802993518834
 30
0.0
 10
138.0165779570961
 20
241.0843988339105
 30
0.0
 10
138.0279797158231
 20
241.0903523278057
 30
0.0
 10
138.0438689940275
 20
241.0986067961792
 30
0.0
 10
138.0632624448256
 20
241.1086185364098
 30
0.0
 10
138.0861715858057
 20
241.1203633349253
 30
0.0
 10
138.1125900059169
 20
241.1337880732715
 30
0.0
 10
138.1422353359849
 20
241.1487009076025
 30
0.0
 10
138.1750001375289
 20
241.1650025311764
 30
0.0
 10
138.2107675395207
 20
241.1825754218641
 30
0.0
 10
138.2498161358608
 20
241.2014940178544
 30
0.0
 10
138.2921402474345
 20
241.2216897191446
 30
0.0
 10
138.3377248597033
 20
241.2430725183929
 30
0.0
 10
138.3837323603886
 20
241.2642532435442
 30
0.0
 10
138.4295462340173
 20
241.2849550213762
 30
0.0
 10
138.4746051701579
 20
241.3049465178141
 30
0.0
 10
138.521846063314
 20
241.3254983638669
 30
0.0
 10
138.5712616350907
 20
241.3465495216099
 30
0.0
 10
138.6228425448725
 20
241.3680299502921
 30
0.0
 10
138.6765960710426
 20
241.389876427507
 30
0.0
 10
138.7325181832017
 20
241.4120192075538
 30
0.0
 10
138.7906034568189
 20
241.4343789928028
 30
0.0
 10
138.8508219013216
 20
241.4568675857001
 30
0.0
 10
138.9131679742383
 20
241.47940490086
 30
0.0
 10
138.9776351604334
 20
241.5019007907406
 30
0.0
 10
139.0442384238839
 20
241.5242724163242
 30
0.0
 10
139.112975888954
 20
241.546428341697
 30
0.0
 10
139.1838445286429
 20
241.5682654911999
 30
0.0
 10
139.2568181685117
 20
241.5896744410512
 30
0.0
 10
139.3318932880938
 20
241.6105505982892
 30
0.0
 10
139.4090646552766
 20
241.6307761932181
 30
0.0
 10
139.4974075751586
 20
241.6524634789892
 30
0.0
 10
139.5795098349003
 20
241.6709678401363
 30
0.0
 10
139.6545472842782
 20
241.6864949077589
 30
0.0
 10
139.7177699599371
 20
241.6987850529843
 30
0.0
 10
139.7882725919719
 20
241.7114450124898
 30
0.0
 10
139.8664402432763
 20
241.72411464387
 30
0.0
 10
139.9462059728554
 20
241.7356016925192
 30
0.0
 10
140.0275593548642
 20
241.7457975967947
 30
0.0
 10
140.1104831650943
 20
241.7545840829627
 30
0.0
 10
140.1942650246673
 20
241.7617843230438
 30
0.0
 10
140.2788436059719
 20
241.7673227236047
 30
0.0
 10
140.3641508494603
 20
241.7711246616252
 30
0.0
 10
140.4508918579799
 20
241.7731172599185
 30
0.0
 10
140.5390362941814
 20
241.7731714254918
 30
0.0
 10
140.6285394232281
 20
241.7711554215613
 30
0.0
 10
140.7104705672906
 20
241.7673523261949
 30
0.0
 10
140.784419619333
 20
241.7623555321329
 30
0.0
 10
140.8501000695113
 20
241.7567395430862
 30
0.0
 10
140.9163220082865
 20
241.7498608714355
 30
0.0
 10
140.9906000191954
 20
241.7407504563171
 30
0.0
 10
141.0730777125966
 20
241.7287801340147
 30
0.0
 10
141.1638861808823
 20
241.7131952821231
 30
0.0
 10
141.2555513963047
 20
241.6949645496923
 30
0.0
 10
141.3479857725542
 20
241.6739676561418
 30
0.0
 10
141.4410844177447
 20
241.6501130602944
 30
0.0
 10
141.5268795333711
 20
241.625564413335
 30
0.0
 10
141.6051861317899
 20
241.6010386236775
 30
0.0
 10
141.6759613156884
 20
241.577198573636
 30
0.0
 10
141.7468024626653
 20
241.5516126401482
 30
0.0
 10
141.8171366897772
 20
241.5244854326408
 30
0.0
 10
141.8868719301844
 20
241.4959101337814
 30
0.0
 10
141.9560261195874
 20
241.4659784157327
 30
0.0
 10
142.0250927851012
 20
241.4345255836087
 30
0.0
 10
142.1018589256766
 20
241.3978834929827
 30
0.0
 10
142.1861923507429
 20
241.355523371506
 30
0.0
 10
142.2779636106459
 20
241.3069212211713
 30
0.0
 10
142.3695173761357
 20
241.2560492337704
 30
0.0
 10
142.4608305385114
 20
241.203039483098
 30
0.0
 10
142.5518958357369
 20
241.1480311724828
 30
0.0
 10
142.6350587766155
 20
241.0959541373504
 30
0.0
 10
142.7104291083415
 20
241.0473874116195
 30
0.0
 10
142.8007072577504
 20
240.9878797760528
 30
0.0
 10
142.8943882750458
 20
240.9241621062897
 30
0.0
 10
142.9914501471484
 20
240.8562519649476
 30
0.0
 10
143.0697074665437
 20
240.800460086267
 30
0.0
 10
143.1477680139077
 20
240.7438623145545
 30
0.0
 10
143.251771735183
 20
240.667312467564
 30
0.0
 10
143.3814845678996
 20
240.5699258268237
 30
0.0
 10
143.5368909514559
 20
240.4509112460344
 30
0.0
 10
143.6922175032727
 20
240.330350028616
 30
0.0
 10
143.847914863656
 20
240.2086142836403
 30
0.0
 10
144.0041871231404
 20
240.0862688973617
 30
0.0
 10
144.1614030320575
 20
239.9637657945912
 30
0.0
 10
144.3196911455086
 20
239.8417470362877
 30
0.0
 10
144.4617701041504
 20
239.7340852665431
 30
0.0
 10
144.5873135761236
 20
239.6408096884808
 30
0.0
 10
144.6959364405113
 20
239.5616252643167
 30
0.0
 10
144.8055863578568
 20
239.4834556222105
 30
0.0
 10
144.9163597383413
 20
239.4064895732975
 30
0.0
 10
145.0283590751624
 20
239.3309442232135
 30
0.0
 10
145.1322736805423
 20
239.2631755142182
 30
0.0
 10
145.227831229039
 20
239.2028999234172
 30
0.0
 10
145.3147991324512
 20
239.1497425317581
 30
0.0
 10
145.4026210157095
 20
239.097880896558
 30
0.0
 10
145.4929063561339
 20
239.046536564581
 30
0.0
 10
145.5857017083552
 20
238.9959617194649
 30
0.0
 10
145.6810859827769
 20
238.9462614044104
 30
0.0
 10
145.7774223283081
 20
238.8983370343923
 30
0.0
 10
145.8857684623928
 20
238.8469445207127
 30
0.0
 10
146.0063772444871
 20
238.7929509995023
 30
0.0
 10
146.1394924546976
 20
238.7373117525536
 30
0.0
 10
146.2741376962277
 20
238.6849229919903
 30
0.0
 10
146.4101847741242
 20
238.6358490994196
 30
0.0
 10
146.5474836146691
 20
238.5900999825304
 30
0.0
 10
146.6742620816713
 20
238.5512410226206
 30
0.0
 10
146.7902000799533
 20
238.5183496988344
 30
0.0
 10
146.8951819789179
 20
238.4905696740012
 30
0.0
 10
147.0004232249731
 20
238.4646860305505
 30
0.0
 10
147.1048721378546
 20
238.4408973965185
 30
0.0
 10
147.2083892226329
 20
238.4191328268287
 30
0.0
 10
147.3109754822686
 20
238.3992869037405
 30
0.0
 10
147.413559006661
 20
238.381123642739
 30
0.0
 10
147.5277503486473
 20
238.362727651369
 30
0.0
 10
147.6533684326502
 20
238.3447810086744
 30
0.0
 10
147.7901895209618
 20
238.327982416789
 30
0.0
 10
147.9267411523895
 20
238.3138592571853
 30
0.0
 10
148.0629029561376
 20
238.3023270598785
 30
0.0
 10
148.1985659838362
 20
238.2932837254342
 30
0.0
 10
148.3222869424236
 20
238.2871823977007
 30
0.0
 10
148.4342223911069
 20
238.2832985946837
 30
0.0
 10
148.5346231780345
 20
238.2810388247729
 30
0.0
 10
148.6344383255978
 20
238.2799735896693
 30
0.0
 10
148.7390293245192
 20
238.2800581497895
 30
0.0
 10
148.8481856309867
 20
238.2814611846849
 30
0.0
 10
148.9617087423779
 20
238.2843374373478
 30
0.0
 10
149.074333112183
 20
238.2885462020815
 30
0.0
 10
149.1860117773579
 20
238.2940165264528
 30
0.0
 10
149.2967033188523
 20
238.3006793620196
 30
0.0
 10
149.406403851559
 20
238.3084669542041
 30
0.0
 10
149.5150716532688
 20
238.3173124095036
 30
0.0
 10
149.6226692260676
 20
238.3271519177351
 30
0.0
 10
149.7291118864757
 20
238.3379149212284
 30
0.0
 10
149.8343645451581
 20
238.3495366650738
 30
0.0
 10
149.9383956288944
 20
238.3619565057603
 30
0.0
 10
150.0412090449543
 20
238.3751173148596
 30
0.0
 10
150.1427714515049
 20
238.3889597098622
 30
0.0
 10
150.2430521989771
 20
238.4034285539279
 30
0.0
 10
150.341982745707
 20
238.4184615162892
 30
0.0
 10
150.4395337492021
 20
238.4340028312076
 30
0.0
 10
150.5356781880326
 20
238.4500012588522
 30
0.0
 10
150.6302719158666
 20
238.466384509885
 30
0.0
 10
150.7232935101693
 20
238.4830999682749
 30
0.0
 10
150.8147238924788
 20
238.5000999948748
 30
0.0
 10
150.9046515657272
 20
238.5173582660718
 30
0.0
 10
150.9930494095262
 20
238.5348285159672
 30
0.0
 10
151.0798921723674
 20
238.5524687144456
 30
0.0
 10
151.1651853752173
 20
238.5702426924758
 30
0.0
 10
151.2488999855255
 20
238.5881083099146
 30
0.0
 10
151.3310087785956
 20
238.6060273806826
 30
0.0
 10
151.4114595568758
 20
238.6239554168158
 30
0.0
 10
151.4902250810781
 20
238.6418538254861
 30
0.0
 10
151.5672801663789
 20
238.6596879551409
 30
0.0
 10
151.6426256548252
 20
238.6774288777801
 30
0.0
 10
151.716232047114
 20
238.6950413320846
 30
0.0
 10
151.7880720692498
 20
238.7124937775181
 30
0.0
 10
151.8580998191293
 20
238.7297495721498
 30
0.0
 10
151.9262875258234
 20
238.7467767889736
 30
0.0
 10
151.9926100685827
 20
238.7635472198574
 30
0.0
 10
152.0580449457841
 20
238.7802889001717
 30
0.0
 10
152.1224560607385
 20
238.7969549399085
 30
0.0
 10
152.1857045366765
 20
238.8134980474245
 30
0.0
 10
152.2468046824099
 20
238.8296414686144
 30
0.0
 10
152.3057243867577
 20
238.8453554413363
 30
0.0
 10
152.3624357243213
 20
238.8606144847882
 30
0.0
 10
152.4174091037471
 20
238.8755280659352
 30
0.0
 10
152.4705388097601
 20
238.8900530251898
 30
0.0
 10
152.5217208904556
 20
238.9041484133133
 30
0.0
 10
152.5704607103322
 20
238.9176626684276
 30
0.0
 10
152.6167248719872
 20
238.9305704806777
 30
0.0
 10
152.6604859066902
 20
238.9428511808365
 30
0.0
 10
152.7020858496061
 20
238.9545881711467
 30
0.0
 10
152.7414115433838
 20
238.9657381931607
 30
0.0
 10
152.778353758945
 20
238.9762610560859
 30
0.0
 10
152.8125500529467
 20
238.9860428840363
 30
0.0
 10
152.8439680366228
 20
238.9950634433522
 30
0.0
 10
152.8725833553743
 20
239.0033076336396
 30
0.0
 10
152.8970812149136
 20
239.0103872250993
 30
0.0
 10
152.9179164544906
 20
239.0164228458358
 30
0.0
 10
152.9355328643211
 20
239.0215365356318
 30
0.0
 10
152.9510496008076
 20
239.0260486286126
 30
0.0
 10
152.9658807426776
 20
239.0303681999088
 30
0.0
 10
152.9791397839057
 20
239.0342354538451
 30
0.0
 10
152.9899347260527
 20
239.0373884393457
 30
0.0
 10
152.9968199220745
 20
239.0394017530072
 30
0.0
 10
153.0000524728834
 20
239.0403468972555
 30
0.0
 10
152.9996620539359
 20
239.0402327232973
 30
0.0
 10
152.9995503194209
 20
239.0402000477012
 30
0.0
  0
LINE
  5
87
330
1F
100
AcDbEntity
  8
0
  6
Continuous
 62
     7
370
    30
100
AcDbLine
 10
134.3721358909
 20
186.0908374948
 30
0.0
 11
156.6278641091
 21
186.0908374948
 31
0.0
  0
LINE
  5
88
330
1F
100
AcDbEntity
  8
0
  6
Continuous
 62
     7
370
    30
100
AcDbLine
 10
155.3711974424
 20
216.0908374948
 30
0.0
 11
135.6288025576
 21
216.0908374948
 31
0.0
  0
LINE
  5
89
330
1F
100
AcDbEntity
  8
0
  6
Continuous
 62
     7
370
    30
100
AcDbLine
 10
134.3721358909
 20
309.9091625052
 30
0.0
 11
156.6278641091
 21
309.9091625052
 31
0.0
  0
LINE
  5
8A
330
1F
100
AcDbEntity
  8
0
  6
Continuous
 62
     7
370
    30
100
AcDbLine
 10
155.3711974424
 20
279.9091625052
 30
0.0
 11
135.6288025576
 21
279.9091625052
 31
0.0
  0
LWPOLYLINE
  5
8B
330
1F
100
AcDbEntity
  8
0
  6
Continuous
 62
     7
370
    30
100
AcDbPolyline
 90
      188
 70
   128
 43
0.0
 10
138.0002375076
 20
256.9597377036
 10
138.0007284725
 20
256.9598813862
 10
138.0039393319
 20
256.9608203768
 10
138.0097079241
 20
256.9625064699
 10
138.0184637072
 20
256.9650640214
 10
138.0300044055
 20
256.9684313008
 10
138.0443219658
 20
256.9726029822
 10
138.0614794687
 20
256.9775940502
 10
138.0814216578
 20
256.9833834768
 10
138.1041346692
 20
256.9899619062
 10
138.1268071887
 20
256.9965124537
 10
138.1516852821
 20
257.0036811041
 10
138.1787553108
 20
257.0114583871
 10
138.208097673
 20
257.0198614459
 10
138.239627464
 20
257.0288587947
 10
138.2733276411
 20
257.0384381715
 10
138.3104523924
 20
257.0489460483
 10
138.3498759925
 20
257.0600517762
 10
138.3915762157
 20
257.0717386423
 10
138.4356784541
 20
257.0840305864
 10
138.4820449961
 20
257.0968762789
 10
138.5306503282
 20
257.1102554965
 10
138.5832203285
 20
257.1246246044
 10
138.6381500338
 20
257.1395231891
 10
138.6954082885
 20
257.1549249949
 10
138.7551720219
 20
257.1708584704
 10
138.8172446211
 20
257.1872495392
 10
138.8815920506
 20
257.2040674575
 10
138.9445884841
 20
257.2203573988
 10
139.0095920821
 20
257.2369802127
 10
139.0765722153
 20
257.253906122
 10
139.1457084922
 20
257.2711569644
 10
139.2168007408
 20
257.2886567446
 10
139.2898166608
 20
257.3063715878
 10
139.3673242288
 20
257.3248831539
 10
139.4468539578
 20
257.3435553846
 10
139.5283687829
 20
257.3623461955
 10
139.6120998989
 20
257.3812728505
 10
139.6977923228
 20
257.4002381811
 10
139.7854073594
 20
257.4191945959
 10
139.8779482447
 20
257.4387277392
 10
139.9725038012
 20
257.4581520011
 10
140.0690297094
 20
257.4774085813
 10
140.1678228635
 20
257.496502642
 10
140.2685593791
 20
257.5153126477
 10
140.3711923241
 20
257.5337721668
 10
140.4716186825
 20
257.5511277788
 10
140.5737605361
 20
257.5680413317
 10
140.677573427
 20
257.5844470853
 10
140.7833691355
 20
257.600330476
 10
140.8908075248
 20
257.6155717062
 10
140.9998396398
 20
257.630097237
 10
141.1143175057
 20
257.6442985493
 10
141.230454549
 20
257.6575734102
 10
141.3481897482
 20
257.6698318604
 10
141.4679472621
 20
257.6810256535
 10
141.5892575628
 20
257.6910124346
 10
141.7120488884
 20
257.6996925889
 10
141.840639673
 20
257.7071944114
 10
141.9707385088
 20
257.7130770836
 10
142.1022500802
 20
257.7172216613
 10
142.2357821324
 20
257.719515471
 10
142.3706374299
 20
257.7198093033
 10
142.5066975737
 20
257.7179767638
 10
142.606341829
 20
257.7152364365
 10
142.7065538869
 20
257.711255299
 10
142.8074377662
 20
257.7059755252
 10
142.9088145569
 20
257.6993525172
 10
143.0453855854
 20
257.6882825009
 10
143.1826846182
 20
257.6745933017
 10
143.3205496087
 20
257.6581762797
 10
143.459821172
 20
257.6387755274
 10
143.5994669676
 20
257.6163861131
 10
143.7392940228
 20
257.5909173714
 10
143.8449153526
 20
257.5695865415
 10
143.9505112027
 20
257.5464087305
 10
144.0562272298
 20
257.5212983615
 10
144.1617851627
 20
257.4942716307
 10
144.265038521
 20
257.4658936191
 10
144.3680100887
 20
257.4356300614
 10
144.4708442521
 20
257.4033964335
 10
144.5732652153
 20
257.3692420112
 10
144.7100540453
 20
257.3203329346
 10
144.8458595765
 20
257.2679313965
 10
144.9804686454
 20
257.2120713084
 10
145.1148900381
 20
257.1522362247
 10
145.2478729352
 20
257.0889185159
 10
145.3792256283
 20
257.0221990551
 10
145.4773139343
 20
256.9695612391
 10
145.5743836202
 20
256.9150597394
 10
145.670610229
 20
256.8586978683
 10
145.7658545302
 20
256.8007345701
 10
145.8896580276
 20
256.7223387948
 10
146.0119577033
 20
256.6417337882
 10
146.1328392586
 20
256.5592317375
 10
146.2528516343
 20
256.4748073315
 10
146.3717035159
 20
256.3889900189
 10
146.4895045805
 20
256.3020335615
 10
146.6063277424
 20
256.2142128874
 10
146.7223673496
 20
256.1256898486
 10
146.8377376775
 20
256.0366809352
 10
147.0100769977
 20
255.9024913747
 10
147.181603159
 20
255.7683216188
 10
147.2954353761
 20
255.6794189356
 10
147.4092002038
 20
255.5910121946
 10
147.5229958057
 20
255.5033105763
 10
147.6371502448
 20
255.4163500754
 10
147.7515530949
 20
255.330510979
 10
147.8662824017
 20
255.2460300718
 10
147.952664158
 20
255.1836519987
 10
148.0393171131
 20
255.1222717871
 10
148.1263566387
 20
255.0619393188
 10
148.213724675
 20
255.0028284883
 10
148.2898431429
 20
254.9526021984
 10
148.366237527
 20
254.9034646833
 10
148.4430042014
 20
254.8554441455
 10
148.520060676
 20
254.8086824678
 10
148.6237556053
 20
254.7481592878
 10
148.7279795732
 20
254.6902569184
 10
148.8326675559
 20
254.635216399
 10
148.9386238156
 20
254.5828598365
 10
149.0449929191
 20
254.5338333945
 10
149.1516369638
 20
254.4883809824
 10
149.2324858601
 20
254.4564870455
 10
149.3133957059
 20
254.4268221356
 10
149.3945260897
 20
254.3993336038
 10
149.4755640693
 20
254.3740783356
 10
149.5545191885
 20
254.3515453023
 10
149.6332395036
 20
254.3310730862
 10
149.7118498247
 20
254.312577546
 10
149.7900906297
 20
254.296063146
 10
149.8945465433
 20
254.2769016481
 10
149.9981121309
 20
254.2610830286
 10
150.1006133218
 20
254.2484692885
 10
150.2027570913
 20
254.2388449315
 10
150.3036465094
 20
254.2321563721
 10
150.4031516384
 20
254.2282426549
 10
150.4772580272
 20
254.2270267523
 10
150.5505118028
 20
254.2272253013
 10
150.6229904072
 20
254.2287717016
 10
150.6945628601
 20
254.2315973696
 10
150.7723448311
 20
254.2361101172
 10
150.8489755334
 20
254.2420035371
 10
150.9245389135
 20
254.2492011127
 10
150.998905998
 20
254.2576100607
 10
151.0964647313
 20
254.2706040923
 10
151.1918314894
 20
254.2854267854
 10
151.2849524285
 20
254.3018899486
 10
151.3762029487
 20
254.3198967461
 10
151.4651630504
 20
254.3392130763
 10
151.5517942574
 20
254.3596711003
 10
151.6362115277
 20
254.3811460343
 10
151.7182779411
 20
254.4034632359
 10
151.7979626116
 20
254.4264746688
 10
151.8755207837
 20
254.450124349
 10
151.9506668363
 20
254.4742058783
 10
152.0233722549
 20
254.4985872549
 10
152.1127757427
 20
254.5300086196
 10
152.1981421261
 20
254.5614796702
 10
152.2796251754
 20
254.5928405581
 10
152.3569798946
 20
254.6237959454
 10
152.4071025452
 20
254.644462708
 10
152.4552966057
 20
254.6647833879
 10
152.501542044
 20
254.68469404
 10
152.5459415345
 20
254.7041861388
 10
152.5883613468
 20
254.7231525407
 10
152.6287810103
 20
254.7415353931
 10
152.6678688831
 20
254.7595986068
 10
152.7048594956
 20
254.7769515333
 10
152.7397316964
 20
254.7935403396
 10
152.7725673694
 20
254.80936226
 10
152.8032475749
 20
254.8243229173
 10
152.8317524618
 20
254.8383759389
 10
152.8518864095
 20
254.8483901491
 10
152.8707599272
 20
254.8578438175
 10
152.8883811243
 20
254.8667279424
 10
152.9047286157
 20
254.8750197904
 10
152.9245889553
 20
254.8851573444
 10
152.942152702
 20
254.8941817854
 10
152.9574059754
 20
254.9020642102
 10
152.9703808715
 20
254.9088010015
 10
152.9810142839
 20
254.914344788
 10
152.9892973062
 20
254.9186775985
 10
152.9939765515
 20
254.9211303652
 10
152.9973208915
 20
254.9228858511
 10
152.9993301136
 20
254.923941408
 10
153.0
 20
254.9242935492
 10
153.0
 20
254.9242935492
  0
LINE
  5
8C
330
1F
100
AcDbEntity
  8
0
  6
Continuous
 62
     8
370
     0
100
AcDbLine
 10
157.1273953247
 20
186.6124838475
 30
0.0
 11
133.8726046753
 21
186.6124838475
 31
0.0
  0
LINE
  5
8D
330
1F
100
AcDbEntity
  8
0
  6
Continuous
 62
     8
370
     0
100
AcDbLine
 10
135.1292713419
 20
215.6124838475
 30
0.0
 11
155.8707286581
 21
215.6124838475
 31
0.0
  0
LINE
  5
8E
330
1F
100
AcDbEntity
  8
0
  6
Continuous
 62
     8
370
     0
100
AcDbLine
 10
157.1273953247
 20
309.3875161525
 30
0.0
 11
133.8726046753
 21
309.3875161525
 31
0.0
  0
LINE
  5
8F
330
1F
100
AcDbEntity
  8
0
  6
Continuous
 62
     8
370
     0
100
AcDbLine
 10
135.1292713419
 20
280.3875161525
 30
0.0
 11
155.8707286581
 21
280.3875161525
 31
0.0
  0
LINE
  5
90
330
1F
100
AcDbEntity
  8
0
  6
Continuous
 62
     7
370
    30
100
AcDbLine
 10
260.0
 20
216.0908374948
 30
0.0
 11
260.0
 21
239.0430838731
 31
0.0
  0
LINE
  5
91
330
1F
100
AcDbEntity
  8
0
  6
Continuous
 62
     7
370
    30
100
AcDbLine
 10
245.0
 20
239.0431426774
 30
0.0
 11
245.0
 21
216.0908374948
 31
0.0
  0
LINE
  5
92
330
1F
100
AcDbEntity
  8
0
  6
Continuous
 62
     7
370
    30
100
AcDbLine
 10
258.0870451191
 20
241.7730610909
 30
0.0
 11
246.9130537848
 21
241.7730610909
 31
0.0
  0
ARC
  5
93
330
1F
100
AcDbEntity
  8
0
  6
Continuous
 62
     7
370
    30
100
AcDbCircle
 10
263.6278641091
 20
186.5908374948
 30
0.0
 40
0.5
100
AcDbArc
 50
270.0
 51
2.4812648012
  0
ARC
  5
94
330
1F
100
AcDbEntity
  8
0
  6
Continuous
 62
     7
370
    30
100
AcDbCircle
 10
241.3721358909
 20
186.5908374948
 30
0.0
 40
0.5
100
AcDbArc
 50
177.5187351988
 51
270.0
  0
LINE
  5
95
330
1F
100
AcDbEntity
  8
0
  6
Continuous
 62
     7
370
    30
100
AcDbLine
 10
264.1273953247
 20
186.6124838475
 30
0.0
 11
262.8707286581
 21
215.6124838475
 31
0.0
  0
LINE
  5
96
330
1F
100
AcDbEntity
  8
0
  6
Continuous
 62
     7
370
    30
100
AcDbLine
 10
242.1292713419
 20
215.6124838475
 30
0.0
 11
240.8726046753
 21
186.6124838475
 31
0.0
  0
ARC
  5
97
330
1F
100
AcDbEntity
  8
0
  6
Continuous
 62
     7
370
    30
100
AcDbCircle
 10
242.6288025576
 20
215.5908374948
 30
0.0
 40
0.5000000000000012
100
AcDbArc
 50
90.0
 51
177.5187351988
  0
ARC
  5
98
330
1F
100
AcDbEntity
  8
0
  6
Continuous
 62
     7
370
    30
100
AcDbCircle
 10
262.3711974424
 20
215.5908374948
 30
0.0
 40
0.5000000000000295
100
AcDbArc
 50
2.4812648012
 51
90.0
  0
ARC
  5
99
330
1F
100
AcDbEntity
  8
0
  6
Continuous
 62
     7
370
    30
100
AcDbCircle
 10
241.3721358909
 20
309.4091625052
 30
0.0
 40
0.5
100
AcDbArc
 50
90.0
 51
182.4812648012
  0
ARC
  5
9A
330
1F
100
AcDbEntity
  8
0
  6
Continuous
 62
     7
370
    30
100
AcDbCircle
 10
263.6278641091
 20
309.4091625052
 30
0.0
 40
0.5
100
AcDbArc
 50
357.5187351988
 51
90.0
  0
LINE
  5
9B
330
1F
100
AcDbEntity
  8
0
  6
Continuous
 62
     7
370
    30
100
AcDbLine
 10
240.8726046753
 20
309.3875161525
 30
0.0
 11
242.1292713419
 21
280.3875161525
 31
0.0
  0
LINE
  5
9C
330
1F
100
AcDbEntity
  8
0
  6
Continuous
 62
     7
370
    30
100
AcDbLine
 10
262.8707286581
 20
280.3875161525
 30
0.0
 11
264.1273953247
 21
309.3875161525
 31
0.0
  0
ARC
  5
9D
330
1F
100
AcDbEntity
  8
0
  6
Continuous
 62
     7
370
    30
100
AcDbCircle
 10
262.3711974424
 20
280.4091625052
 30
0.0
 40
0.5000000000000283
100
AcDbArc
 50
270.0
 51
357.5187351988
  0
ARC
  5
9E
330
1F
100
AcDbEntity
  8
0
  6
Continuous
 62
     7
370
    30
100
AcDbCircle
 10
242.6288025576
 20
280.4091625052
 30
0.0
 40
0.5
100
AcDbArc
 50
182.4812648012
 51
270.0
  0
LINE
  5
9F
330
1F
100
AcDbEntity
  8
0
  6
Continuous
 62
     7
370
    30
100
AcDbLine
 10
246.9129549349
 20
254.2269389091
 30
0.0
 11
258.0871705991
 21
254.2269389091
 31
0.0
  0
LINE
  5
A0
330
1F
100
AcDbEntity
  8
0
  6
Continuous
 62
     7
370
    30
100
AcDbLine
 10
245.0
 20
279.9091625052
 30
0.0
 11
245.0
 21
256.9569161237
 31
0.0
  0
LINE
  5
A1
330
1F
100
AcDbEntity
  8
0
  6
Continuous
 62
     7
370
    30
100
AcDbLine
 10
260.0
 20
256.9568572485
 30
0.0
 11
260.0
 21
279.9091625052
 31
0.0
  0
SPLINE
  5
A2
330
1F
100
AcDbEntity
  8
0
  6
Continuous
 62
     7
370
    30
100
AcDbSpline
210
0.0
220
0.0
230
1.0
 70
     8
 71
     3
 72
   104
 73
   100
 74
     0
 42
0.000000001
 43
0.00000001
 40
0.0
 40
0.0
 40
0.0
 40
0.0
 40
0.0129233945063926
 40
0.0258487350970441
 40
0.0387721453076807
 40
0.051765459086473
 40
0.0647607255639435
 40
0.0777540849723988
 40
0.0905339478148379
 40
0.1033156091646187
 40
0.1160955355426787
 40
0.1289383138460064
 40
0.1417828319011113
 40
0.1546256863347251
 40
0.1641654729253402
 40
0.173705266251691
 40
0.1832556204589852
 40
0.1928059811796061
 40
0.200735295293063
 40
0.2086646122853815
 40
0.2165996675077241
 40
0.2245347253298779
 40
0.2351465152244074
 40
0.2457591388923419
 40
0.256370951155083
 40
0.2670121350089741
 40
0.2776541320752275
 40
0.2882953257922146
 40
0.2989766640239704
 40
0.3096588140666143
 40
0.3203401443887857
 40
0.3310511771162897
 40
0.3417630417298768
 40
0.3524740421244897
 40
0.3605319724084351
 40
0.3685898976034211
 40
0.3766539834485763
 40
0.3847180624867457
 40
0.3942998426554446
 40
0.4038823138949185
 40
0.4134640270672936
 40
0.4230732256194135
 40
0.4326832121677989
 40
0.4422923119771441
 40
0.4517393050774025
 40
0.4611871722274649
 40
0.4706340380691618
 40
0.4801172464056109
 40
0.4896015102712238
 40
0.4990845489488916
 40
0.506134808953302
 40
0.5131850514126495
 40
0.5202442945627856
 40
0.5273035183828708
 40
0.536217894000058
 40
0.5451335598037216
 40
0.554047746221662
 40
0.563015582611735
 40
0.5719849837693283
 40
0.5809526185787286
 40
0.5899759973923321
 40
0.599001234700108
 40
0.6080244281677456
 40
0.6171215914006274
 40
0.6262209128942299
 40
0.6353180047018226
 40
0.6442237879424533
 40
0.6531315522850442
 40
0.662037653504376
 40
0.6710040988511673
 40
0.6799721445508004
 40
0.6889389079309588
 40
0.6979440352757591
 40
0.7069503738131039
 40
0.7159557749301554
 40
0.7249953382789996
 40
0.7340357789587065
 40
0.743075556467559
 40
0.7536527842494688
 40
0.7642309828188205
 40
0.7748084894858662
 40
0.7907129326137864
 40
0.8066176221845797
 40
0.822572490811017
 40
0.8385274755012285
 40
0.8545018445228281
 40
0.8704762099585418
 40
0.8865046705022782
 40
0.9025329989770683
 40
0.9132350813026034
 40
0.9239376584887019
 40
0.9346395378236186
 40
0.9453836965786863
 40
0.9561286389795804
 40
0.966872436175647
 40
0.9776582749155578
 40
0.9884454044879153
 40
0.9992306565286232
 40
1.0
 40
1.0
 40
1.0
 40
1.0
 10
252.4999999999808
 20
241.0757064508214
 30
0.0
 10
252.5542807230584
 20
241.0758860512061
 30
0.0
 10
252.6628503431388
 20
241.0762452790208
 30
0.0
 10
252.8256027530289
 20
241.0791359727397
 30
0.0
 10
252.9884531981133
 20
241.0837400176334
 30
0.0
 10
253.1513026559315
 20
241.0902282585805
 30
0.0
 10
253.314053575889
 20
241.0985262166788
 30
0.0
 10
253.4754306465702
 20
241.1085414168108
 30
0.0
 10
253.6353503522522
 20
241.1202008756493
 30
0.0
 10
253.7937411272182
 20
241.1334119032689
 30
0.0
 10
253.9516650041284
 20
241.1482047579938
 30
0.0
 10
254.1090363758563
 20
241.1645311228816
 30
0.0
 10
254.2657757011582
 20
241.1823179142908
 30
0.0
 10
254.4081992693008
 20
241.1998188762736
 30
0.0
 10
254.5365133388798
 20
241.2165979781259
 30
0.0
 10
254.6509964915707
 20
241.2323097388732
 30
0.0
 10
254.7648974948783
 20
241.2486535284807
 30
0.0
 10
254.8717810041676
 20
241.2646298769651
 30
0.0
 10
254.9717067188581
 20
241.2800885960905
 30
0.0
 10
255.0648020310242
 20
241.2949129328395
 30
0.0
 10
255.1574284326253
 20
241.310063795265
 30
0.0
 10
255.2599340610917
 20
241.3272509747041
 30
0.0
 10
255.3720658363384
 20
241.3465609160679
 30
0.0
 10
255.49353983527
 20
241.3680532783271
 30
0.0
 10
255.6141478558195
 20
241.3899040919579
 30
0.0
 10
255.7338598149083
 20
241.4120431952686
 30
0.0
 10
255.8526484599074
 20
241.4343910689518
 30
0.0
 10
255.9705272921854
 20
241.456875331681
 30
0.0
 10
256.0874668598005
 20
241.479416063602
 30
0.0
 10
256.2034396360417
 20
241.5019230167859
 30
0.0
 10
256.3183819657427
 20
241.5242980886841
 30
0.0
 10
256.4322657654935
 20
241.546450010383
 30
0.0
 10
256.5450641980495
 20
241.5682760216608
 30
0.0
 10
256.6474353396127
 20
241.5878886737476
 30
0.0
 10
256.739682468737
 20
241.6053316178429
 30
0.0
 10
256.8221153535308
 20
241.6206925529472
 30
0.0
 10
256.9038444519381
 20
241.6356486266851
 30
0.0
 10
256.9899400150874
 20
241.6510582315896
 30
0.0
 10
257.0801981712143
 20
241.6667497761071
 30
0.0
 10
257.1744084226545
 20
241.6825041605065
 30
0.0
 10
257.2676065433814
 20
241.6973677827583
 30
0.0
 10
257.3597638731553
 20
241.7112435844859
 30
0.0
 10
257.4508516764409
 20
241.7240244341745
 30
0.0
 10
257.5402491189091
 20
241.735527388072
 30
0.0
 10
257.6279492408633
 20
241.7456722128868
 30
0.0
 10
257.7139471993788
 20
241.7543755440653
 30
0.0
 10
257.7988187547156
 20
241.7615944326328
 30
0.0
 10
257.8825226683841
 20
241.7672097633586
 30
0.0
 10
257.965018135396
 20
241.7710949625136
 30
0.0
 10
258.0392213056497
 20
241.77294907814
 30
0.0
 10
258.1054718080526
 20
241.7731986242844
 30
0.0
 10
258.1641244023918
 20
241.7722761216827
 30
0.0
 10
258.2219924680863
 20
241.770153625135
 30
0.0
 10
258.2840552145811
 20
241.7664821915758
 30
0.0
 10
258.3499909756089
 20
241.7607783385075
 30
0.0
 10
258.4194469197615
 20
241.7524650510969
 30
0.0
 10
258.4876037339453
 20
241.7418444779423
 30
0.0
 10
258.5544032592483
 20
241.7287934332772
 30
0.0
 10
258.6197955354828
 20
241.7132033286538
 30
0.0
 10
258.6837357247571
 20
241.6949704510403
 30
0.0
 10
258.7461620055618
 20
241.673977713881
 30
0.0
 10
258.8070262456472
 20
241.6501351453924
 30
0.0
 10
258.8663215191797
 20
241.6233466502787
 30
0.0
 10
258.9239825358358
 20
241.5934938698677
 30
0.0
 10
258.9799678688114
 20
241.5605275574057
 30
0.0
 10
259.0337135143718
 20
241.5247596945916
 30
0.0
 10
259.0852419176207
 20
241.486285931842
 30
0.0
 10
259.1346236064052
 20
241.4453654581034
 30
0.0
 10
259.1823472396825
 20
241.401753341082
 30
0.0
 10
259.2284192017172
 20
241.3555667992694
 30
0.0
 10
259.2728607512973
 20
241.3069441733384
 30
0.0
 10
259.3156642046762
 20
241.2560650480257
 30
0.0
 10
259.3568589613229
 20
241.2030640455629
 30
0.0
 10
259.396480564098
 20
241.1480822687711
 30
0.0
 10
259.434562264802
 20
241.0912666195883
 30
0.0
 10
259.4711430342738
 20
241.0327499166548
 30
0.0
 10
259.5062609006691
 20
240.9726615569201
 30
0.0
 10
259.5418222867214
 20
240.9077225804717
 30
0.0
 10
259.5775797346752
 20
240.8378023839869
 30
0.0
 10
259.6132812260091
 20
240.762817533041
 30
0.0
 10
259.6528589811426
 20
240.6737036087437
 30
0.0
 10
259.6952048107442
 20
240.5698723211233
 30
0.0
 10
259.7391393299707
 20
240.4508495413818
 30
0.0
 10
259.7795013499289
 20
240.3302175312672
 30
0.0
 10
259.8164107438724
 20
240.208436016399
 30
0.0
 10
259.8499390245382
 20
240.0861350167485
 30
0.0
 10
259.8801768101222
 20
239.9636765378979
 30
0.0
 10
259.9071570227254
 20
239.8416131313087
 30
0.0
 10
259.9282415307786
 20
239.733894146094
 30
0.0
 10
259.9445555628041
 20
239.6406357640159
 30
0.0
 10
259.9570568428682
 20
239.5615396941371
 30
0.0
 10
259.9680614259891
 20
239.4834154270633
 30
0.0
 10
259.9775396080157
 20
239.4064556173488
 30
0.0
 10
259.9854496757813
 20
239.3308718023619
 30
0.0
 10
259.9917258586097
 20
239.2569185942004
 30
0.0
 10
259.9963917460179
 20
239.1847216784729
 30
0.0
 10
259.999098010505
 20
239.1149670169018
 30
0.0
 10
260.0002871522108
 20
239.0676772517691
 30
0.0
 10
259.9999551381694
 20
239.044619157837
 30
0.0
 10
259.9999330315682
 20
239.043083873109
 30
0.0
  0
SPLINE
  5
A3
330
1F
100
AcDbEntity
  8
0
  6
Continuous
 62
     7
370
    30
100
AcDbSpline
210
0.0
220
0.0
230
1.0
 70
     8
 71
     3
 72
   105
 73
   101
 74
     0
 42
0.000000001
 43
0.00000001
 40
0.0
 40
0.0
 40
0.0
 40
0.0
 40
0.0008910359709573
 40
0.0126835029137005
 40
0.024473999495064
 40
0.0355741485915286
 40
0.0466757341513949
 40
0.0577763502331642
 40
0.0689127934907946
 40
0.0800501138051778
 40
0.091186828846356
 40
0.1027123999228232
 40
0.1142385805698092
 40
0.1257642961435182
 40
0.1430786668357183
 40
0.1603930550301905
 40
0.1724313046207635
 40
0.1844700625083356
 40
0.1965081758522188
 40
0.2085699409130487
 40
0.220632416296336
 40
0.2326938674404203
 40
0.2419305463244572
 40
0.2511671783497765
 40
0.2604136395796857
 40
0.2696600411548486
 40
0.2772864120837619
 40
0.2849127496688679
 40
0.2925477964142691
 40
0.3001828043813557
 40
0.310403053871903
 40
0.3206249840573164
 40
0.3308447198540372
 40
0.3411442507726422
 40
0.3514461947432652
 40
0.3617451527815349
 40
0.3695324343495825
 40
0.3773196897785126
 40
0.3851290996469193
 40
0.3929385328498747
 40
0.3990070322976129
 40
0.4050755420041844
 40
0.4111536439988632
 40
0.4172317573706678
 40
0.4254240564886206
 40
0.4336177170908005
 40
0.4418101562122639
 40
0.4500468775199828
 40
0.4582847984675648
 40
0.4665216599936632
 40
0.474872681293642
 40
0.4832247658679116
 40
0.4915759200984052
 40
0.4999608398849976
 40
0.5083466654284029
 40
0.5167316988509887
 40
0.5283689770819264
 40
0.5400082782184558
 40
0.5516458787123321
 40
0.5633455779597764
 40
0.5750469269654779
 40
0.5867468510558831
 40
0.59828492087662
 40
0.6098243085253678
 40
0.6213625130861933
 40
0.632943772789536
 40
0.6445261993409371
 40
0.6561075362902393
 40
0.6647199350735231
 40
0.6733323375919649
 40
0.6819517150224024
 40
0.6905710945493431
 40
0.7029895853729573
 40
0.7154093553846912
 40
0.7278278456656796
 40
0.7402927688332473
 40
0.7527589918627933
 40
0.7652238812976213
 40
0.7772934011465202
 40
0.7893641437500841
 40
0.8014336150444286
 40
0.8135491286354056
 40
0.8256659442945152
 40
0.8377813984681548
 40
0.8466927709292822
 40
0.8556041382386278
 40
0.864524459415513
 40
0.873444775516881
 40
0.8839362167340532
 40
0.8944286026841205
 40
0.90492001263909
 40
0.9154466939907095
 40
0.9259743696023862
 40
0.9365010255688466
 40
0.9470648159897773
 40
0.9576296431283539
 40
0.9681934168844493
 40
0.978795257151249
 40
0.9893981655876065
 40
1.0
 40
1.0
 40
1.0
 40
1.0
 10
245.0000791382956
 20
239.0431426773538
 30
0.0
 10
245.000052986312
 20
239.0449208187388
 30
0.0
 10
244.9996807243934
 20
239.0702318748278
 30
0.0
 10
245.0010784168836
 20
239.122152986104
 30
0.0
 10
245.004263380071
 20
239.1972745444927
 30
0.0
 10
245.0095488735963
 20
239.2736738740073
 30
0.0
 10
245.0164420701
 20
239.3504366958404
 30
0.0
 10
245.0250845888097
 20
239.4290655673985
 30
0.0
 10
245.0354121560264
 20
239.5092863583783
 30
0.0
 10
245.0474073988181
 20
239.5908967676816
 30
0.0
 10
245.0611887962032
 20
239.6745584420903
 30
0.0
 10
245.0767963309185
 20
239.7601019128151
 30
0.0
 10
245.0942912806005
 20
239.8473590777675
 30
0.0
 10
245.116706495325
 20
239.9498512135114
 30
0.0
 10
245.1451797445685
 20
240.0676070005294
 30
0.0
 10
245.1774841112338
 20
240.186782384359
 30
0.0
 10
245.2088274241924
 20
240.292137172034
 30
0.0
 10
245.2381527070208
 20
240.3835987635804
 30
0.0
 10
245.2695277404978
 20
240.4744357838681
 30
0.0
 10
245.3030088942833
 20
240.5644251613037
 30
0.0
 10
245.3386804074297
 20
240.6533258460923
 30
0.0
 10
245.3736386393664
 20
240.7340033804452
 30
0.0
 10
245.4073691068264
 20
240.806620770956
 30
0.0
 10
245.4394009071289
 20
240.8714559127564
 30
0.0
 10
245.4728982610885
 20
240.9350998728351
 30
0.0
 10
245.5058660753971
 20
240.9937794523169
 30
0.0
 10
245.5380377420687
 20
241.0476225671417
 30
0.0
 10
245.5691761609306
 20
241.0968338933
 30
0.0
 10
245.601437288295
 20
241.1448893846132
 30
0.0
 10
245.6386212381689
 20
241.196986408613
 30
0.0
 10
245.6812525959276
 20
241.2524366373488
 30
0.0
 10
245.729961535801
 20
241.3103612039314
 30
0.0
 10
245.7810126731679
 20
241.365581094646
 30
0.0
 10
245.8344850244259
 20
241.4178336517005
 30
0.0
 10
245.8904361216015
 20
241.4668787348853
 30
0.0
 10
245.9440199842706
 20
241.5086695920002
 30
0.0
 10
245.9946222950076
 20
241.5439650609587
 30
0.0
 10
246.0417270397576
 20
241.5736326059844
 30
0.0
 10
246.0902429718849
 20
241.601060301487
 30
0.0
 10
246.1364410994551
 20
241.6244139485884
 30
0.0
 10
246.179932296987
 20
241.644227252678
 30
0.0
 10
246.2204363511062
 20
241.6610121235779
 30
0.0
 10
246.2617395150987
 20
241.6765139623201
 30
0.0
 10
246.3087092462015
 20
241.6924059649572
 30
0.0
 10
246.3616533829285
 20
241.7081467217295
 30
0.0
 10
246.4209132030478
 20
241.7231723112595
 30
0.0
 10
246.4815818786409
 20
241.7360943229799
 30
0.0
 10
246.5436373345518
 20
241.7469679434388
 30
0.0
 10
246.6070498509591
 20
241.755862734783
 30
0.0
 10
246.6719731393169
 20
241.7628707148108
 30
0.0
 10
246.7383961078933
 20
241.7680409959547
 30
0.0
 10
246.8063017769333
 20
241.7714319246873
 30
0.0
 10
246.8754470560347
 20
241.7731078510037
 30
0.0
 10
246.945807898079
 20
241.7731463492032
 30
0.0
 10
247.0173577261609
 20
241.7716267948419
 30
0.0
 10
247.0993606865756
 20
241.768247080389
 30
0.0
 10
247.1923202200852
 20
241.7623941599672
 30
0.0
 10
247.2967588221459
 20
241.7534827529771
 30
0.0
 10
247.4032546061715
 20
241.7423054654461
 30
0.0
 10
247.5117630003493
 20
241.7290589402727
 30
0.0
 10
247.6222375127805
 20
241.7139247288156
 30
0.0
 10
247.7339182503785
 20
241.6971947086501
 30
0.0
 10
247.8467329568986
 20
241.679081676524
 30
0.0
 10
247.9606116972502
 20
241.659771248869
 30
0.0
 10
248.0761844485872
 20
241.6393141447814
 30
0.0
 10
248.1934229426082
 20
241.6178650842968
 30
0.0
 10
248.3122974148899
 20
241.5955625166533
 30
0.0
 10
248.422347843684
 20
241.5745395279302
 30
0.0
 10
248.5231424314949
 20
241.5550877259704
 30
0.0
 10
248.6143492121316
 20
241.537386285642
 30
0.0
 10
248.7063450942078
 20
241.5194835096946
 30
0.0
 10
248.8127480324321
 20
241.4987761742091
 30
0.0
 10
248.9339570536303
 20
241.4752632483014
 30
0.0
 10
249.0704278880734
 20
241.4490187255775
 30
0.0
 10
249.2085325945447
 20
241.4228150046675
 30
0.0
 10
249.348241030257
 20
241.3967889550099
 30
0.0
 10
249.4895176947486
 20
241.3710619773611
 30
0.0
 10
249.6306398114765
 20
241.3460546246501
 30
0.0
 10
249.771517275637
 20
241.3218673817643
 30
0.0
 10
249.9120604608215
 20
241.2985750651812
 30
0.0
 10
250.0539278776865
 20
241.2759841968893
 30
0.0
 10
250.1970810784665
 20
241.2541959039004
 30
0.0
 10
250.3414740768183
 20
241.2332974124275
 30
0.0
 10
250.4740580290994
 20
241.2151549011265
 30
0.0
 10
250.5945000261093
 20
241.1995434676554
 30
0.0
 10
250.7025820084314
 20
241.1862138433782
 30
0.0
 10
250.8111713598147
 20
241.1735261373101
 30
0.0
 10
250.9266476767217
 20
241.1608016271266
 30
0.0
 10
251.0490463181441
 20
241.1482232195189
 30
0.0
 10
251.1784173877633
 20
241.1359904861185
 30
0.0
 10
251.308432558968
 20
241.1247878306353
 30
0.0
 10
251.4390495717228
 20
241.1146570047139
 30
0.0
 10
251.5702224561493
 20
241.1056286743814
 30
0.0
 10
251.701911869248
 20
241.0977321621965
 30
0.0
 10
251.8340706519534
 20
241.0909998614201
 30
0.0
 10
251.9666485677888
 20
241.0854548757732
 30
0.0
 10
252.0995985421299
 20
241.0811085584386
 30
0.0
 10
252.2328693209948
 20
241.0780144835425
 30
0.0
 10
252.3664076209244
 20
241.076068565852
 30
0.0
 10
252.4554707106491
 20
241.0758271517555
 30
0.0
 10
252.4999999999808
 20
241.0757064508211
 30
0.0
  0
LINE
  5
A4
330
1F
100
AcDbEntity
  8
0
  6
Continuous
 62
     7
370
    30
100
AcDbLine
 10
252.5
 20
186.0908374948
 30
0.0
 11
263.6278641091
 21
186.0908374948
 31
0.0
  0
LINE
  5
A5
330
1F
100
AcDbEntity
  8
0
  6
Continuous
 62
     7
370
    30
100
AcDbLine
 10
241.3721358909
 20
186.0908374948
 30
0.0
 11
252.5
 21
186.0908374948
 31
0.0
  0
LINE
  5
A6
330
1F
100
AcDbEntity
  8
0
  6
Continuous
 62
     7
370
    30
100
AcDbLine
 10
262.3711974424
 20
216.0908374948
 30
0.0
 11
242.6288025576
 21
216.0908374948
 31
0.0
  0
LINE
  5
A7
330
1F
100
AcDbEntity
  8
0
  6
Continuous
 62
     7
370
    30
100
AcDbLine
 10
241.3721358909
 20
309.9091625052
 30
0.0
 11
263.6278641091
 21
309.9091625052
 31
0.0
  0
LINE
  5
A8
330
1F
100
AcDbEntity
  8
0
  6
Continuous
 62
     7
370
    30
100
AcDbLine
 10
252.5
 20
279.9091625052
 30
0.0
 11
242.6288025576
 21
279.9091625052
 31
0.0
  0
LINE
  5
A9
330
1F
100
AcDbEntity
  8
0
  6
Continuous
 62
     7
370
    30
100
AcDbLine
 10
262.3711974424
 20
279.9091625052
 30
0.0
 11
252.5
 21
279.9091625052
 31
0.0
  0
SPLINE
  5
AA
330
1F
100
AcDbEntity
  8
0
  6
Continuous
 62
     7
370
    30
100
AcDbSpline
210
0.0
220
0.0
230
1.0
 70
     8
 71
     3
 72
   284
 73
   280
 74
     0
 42
0.000000001
 43
0.00000001
 40
0.0
 40
0.0
 40
0.0
 40
0.0
 40
0.0007522497973172
 40
0.0031928155930803
 40
0.0056364966083834
 40
0.0080801709340245
 40
0.0111651375091231
 40
0.0142505502301715
 40
0.0173354514057396
 40
0.0204389036827476
 40
0.02354289701341
 40
0.0266462796102263
 40
0.0297713358910764
 40
0.0328970362431652
 40
0.0360220282533237
 40
0.0391726564172674
 40
0.0423240326003814
 40
0.0454746359796762
 40
0.047783554791636
 40
0.0500924832989764
 40
0.0524057125920553
 40
0.0547189519867876
 40
0.0578216824705994
 40
0.0609249663279859
 40
0.0640278067210788
 40
0.0671467770494678
 40
0.0702661674002464
 40
0.0733852326979801
 40
0.0757330885558032
 40
0.0780809516320299
 40
0.0827802480046763
 40
0.0864501916429485
 40
0.0901204735652376
 40
0.0937905145658564
 40
0.0993088725328853
 40
0.1048273164137202
 40
0.1103458367671725
 40
0.1158643969861733
 40
0.1213896454161825
 40
0.126914892483284
 40
0.1324546313206428
 40
0.1379943246578972
 40
0.1416931496078348
 40
0.145392145071008
 40
0.1490909002142569
 40
0.1528119282127337
 40
0.1565332277223315
 40
0.1602541303953044
 40
0.1639896015416445
 40
0.1677255200089446
 40
0.1714607877463801
 40
0.1754023267921988
 40
0.1793446916503567
 40
0.1832861866272729
 40
0.1872591778154558
 40
0.1912330690371351
 40
0.1952060440412632
 40
0.1992122812723331
 40
0.2032194580653754
 40
0.2072257104830301
 40
0.2112654648368607
 40
0.2153061578365557
 40
0.2193459556979316
 40
0.2232804699483751
 40
0.2272157965474053
 40
0.2311503655555895
 40
0.2351124265462653
 40
0.2390752434077367
 40
0.2430373665489086
 40
0.2470247553194168
 40
0.2510128326604904
 40
0.2550002829756659
 40
0.2590105159515667
 40
0.2630213694761987
 40
0.2670316579021238
 40
0.2712927432033093
 40
0.275554488283201
 40
0.2798156313328027
 40
0.2840986722070856
 40
0.2883823095459594
 40
0.2926653954862118
 40
0.2968846704277688
 40
0.3011044620143868
 40
0.3053237676970778
 40
0.3095607236134011
 40
0.3137981641445155
 40
0.3180351414001097
 40
0.3211848102521464
 40
0.3243344804286327
 40
0.327487128328641
 40
0.3306397772517148
 40
0.3332712640857981
 40
0.335902751295773
 40
0.3385359253170742
 40
0.3411690996174417
 40
0.3447149467890424
 40
0.3482610488756092
 40
0.3518068977983909
 40
0.3553619053664833
 40
0.3589171678144768
 40
0.3624721755649485
 40
0.3660914478780368
 40
0.3697109891071695
 40
0.3733302603216355
 40
0.3769592980939308
 40
0.3805886085500936
 40
0.3842176442631672
 40
0.3869668959492847
 40
0.3897161473939512
 40
0.3924673246739843
 40
0.3952185016885472
 40
0.3980205559543272
 40
0.4008226099157993
 40
0.4036267307676228
 40
0.4064308513016101
 40
0.4102591327035985
 40
0.4140877464939556
 40
0.4179160239329189
 40
0.421756470739544
 40
0.425597258269946
 40
0.42943770114171
 40
0.4334518610738496
 40
0.4374664158814082
 40
0.4414805714682247
 40
0.445509178682833
 40
0.4495381906396691
 40
0.4535667940222178
 40
0.4566591480727551
 40
0.4597515017971523
 40
0.4628468331657306
 40
0.4659421642479674
 40
0.4686544198608866
 40
0.4713666753291728
 40
0.4740809557601403
 40
0.4767952360697507
 40
0.4805009169938564
 40
0.4842069216631627
 40
0.4879126015698474
 40
0.4916300293145785
 40
0.4953477851251172
 40
0.4990652124859725
 40
0.5029505397205002
 40
0.5068362419813904
 40
0.5107215695602025
 40
0.5146204576701129
 40
0.5185197241810462
 40
0.5224186134629847
 40
0.5254109321234134
 40
0.5284032509597296
 40
0.5313982922004641
 40
0.534393333656565
 40
0.5370717840158666
 40
0.5397502345353962
 40
0.5424306219755812
 40
0.5451110095965721
 40
0.5487495935457329
 40
0.552388478898688
 40
0.556027065326917
 40
0.5596764632511678
 40
0.5633261619949832
 40
0.5669755628025013
 40
0.5707483590859023
 40
0.574521483587395
 40
0.5782942834695078
 40
0.5820788281924951
 40
0.5858636994997642
 40
0.5896482480074146
 40
0.5925370159131252
 40
0.5954257841828013
 40
0.5983168323958742
 40
0.6012078809638808
 40
0.603942714799976
 40
0.6066775489069066
 40
0.6094142896102344
 40
0.6121510305664026
 40
0.6158657319522972
 40
0.6195807291267988
 40
0.6232954330318671
 40
0.6270207474888979
 40
0.6307463571178806
 40
0.6344716731598017
 40
0.6383224928408436
 40
0.6421736364724936
 40
0.6460244563514853
 40
0.6498869970202964
 40
0.6537498646291569
 40
0.6576124032231125
 40
0.6605606539276592
 40
0.6635089042182652
 40
0.6664595198085952
 40
0.6694101348131036
 40
0.6722442227505867
 40
0.6750783100280731
 40
0.6779145532886978
 40
0.6807507957088527
 40
0.6846020121469889
 40
0.6884535747169672
 40
0.6923047774401274
 40
0.6961690216876857
 40
0.7000336342197419
 40
0.7038978585361323
 40
0.7078962635645182
 40
0.7118951061992855
 40
0.7158934800062988
 40
0.7199088672159487
 40
0.7239247397267675
 40
0.7279400853644072
 40
0.7310097936956991
 40
0.7340794972126944
 40
0.7371532281092203
 40
0.7402269536719356
 40
0.7441995999885604
 40
0.7481728369194609
 40
0.7521454250639874
 40
0.7561415628821554
 40
0.7601383792985423
 40
0.7641344528714188
 40
0.7681575375785517
 40
0.7721813995993967
 40
0.7762044208713297
 40
0.7802579401319377
 40
0.7843123371887389
 40
0.7883658045048078
 40
0.7923473059638805
 40
0.7963296999066836
 40
0.8003111759528437
 40
0.8043259073399835
 40
0.8083415832946815
 40
0.8123563194790839
 40
0.8164051817500685
 40
0.8204550015622321
 40
0.8245039020988221
 40
0.8285853938362363
 40
0.8326678298721153
 40
0.8367495838213808
 40
0.8397698504852804
 40
0.8427901369366848
 40
0.8458136918963985
 40
0.8488372620976411
 40
0.8528750207951504
 40
0.8569131189175871
 40
0.8609509858670075
 40
0.8649974030429217
 40
0.8690440317559036
 40
0.8730904965907977
 40
0.8791498631927114
 40
0.8852092288802462
 40
0.8892545701337043
 40
0.8933000761188907
 40
0.8973453706918008
 40
0.9013871676738574
 40
0.9054291956626039
 40
0.909470893237946
 40
0.9135246926494198
 40
0.9175788628261343
 40
0.9216324943868051
 40
0.92515164001644
 40
0.928671174591554
 40
0.9321901826990328
 40
0.935728364453893
 40
0.9392671278542357
 40
0.9428051318052338
 40
0.9463707864375559
 40
0.9499372762244366
 40
0.9535027325261025
 40
0.9571050586590025
 40
0.9607085281801422
 40
0.9643108758381779
 40
0.967837211589951
 40
0.9713645601624993
 40
0.9748910020831787
 40
0.9784503972710152
 40
0.9820106897035217
 40
0.9855702055242315
 40
0.9891576211729074
 40
0.9927457963132726
 40
0.9963333263610241
 40
0.9999443600584439
 40
1.0
 40
1.0
 40
1.0
 40
1.0
 10
246.9129549348898
 20
254.227058689233
 30
0.0
 10
246.9068428429969
 20
254.2270245429282
 30
0.0
 10
246.8809009519235
 20
254.2268796138708
 30
0.0
 10
246.8359006416056
 20
254.2277751774325
 30
0.0
 10
246.7779929659798
 20
254.2298330932815
 30
0.0
 10
246.7159555524016
 20
254.2335221214145
 30
0.0
 10
246.6500350201711
 20
254.2392178047423
 30
0.0
 10
246.5806060025646
 20
254.2475284024749
 30
0.0
 10
246.512473602285
 20
254.2581422100421
 30
0.0
 10
246.4456978670523
 20
254.2711850852577
 30
0.0
 10
246.3803281688659
 20
254.2867647350592
 30
0.0
 10
246.3163930019857
 20
254.3049896419162
 30
0.0
 10
246.2539555378025
 20
254.3259791589832
 30
0.0
 10
246.1930654472107
 20
254.3498257940473
 30
0.0
 10
246.1337453864319
 20
254.3766204820746
 30
0.0
 10
246.0760607002452
 20
254.4064817378456
 30
0.0
 10
246.0200529900308
 20
254.4394588860008
 30
0.0
 10
245.9707279891953
 20
254.4722838727889
 30
0.0
 10
245.9275716956845
 20
254.5040585176997
 30
0.0
 10
245.8900680365028
 20
254.5339533382916
 30
0.0
 10
245.8535402307825
 20
254.5653670258519
 30
0.0
 10
245.8139352195576
 20
254.6019781235975
 30
0.0
 10
245.7716914484074
 20
254.6443176884499
 30
0.0
 10
245.7272660866162
 20
254.6929117858209
 30
0.0
 10
245.6844640806902
 20
254.7437762004632
 30
0.0
 10
245.6432580912839
 20
254.7967788581434
 30
0.0
 10
245.6036143405082
 20
254.8517805527131
 30
0.0
 10
245.568696167175
 20
254.9038679952623
 30
0.0
 10
245.5380460354401
 20
254.9524634010849
 30
0.0
 10
245.5023396889967
 20
255.0120347143763
 30
0.0
 10
245.4635172635723
 20
255.081831389919
 30
0.0
 10
245.4223377399535
 20
255.1623611125572
 30
0.0
 10
245.386563083833
 20
255.2375172613816
 30
0.0
 10
245.3469090345412
 20
255.3268372534604
 30
0.0
 10
245.3044880805856
 20
255.4309111452561
 30
0.0
 10
245.26053058363
 20
255.5500880804634
 30
0.0
 10
245.2201930818088
 20
255.670746251803
 30
0.0
 10
245.1833431021957
 20
255.7924219202908
 30
0.0
 10
245.149867484406
 20
255.9146125512284
 30
0.0
 10
245.1196836628352
 20
256.0369262666747
 30
0.0
 10
245.092756076351
 20
256.1588124627917
 30
0.0
 10
245.0717146757758
 20
256.2663476101858
 30
0.0
 10
245.0554313096733
 20
256.3594476881239
 30
0.0
 10
245.0429512884709
 20
256.4384107514901
 30
0.0
 10
245.0319556228339
 20
256.5164588931713
 30
0.0
 10
245.0224761440095
 20
256.5933995144229
 30
0.0
 10
245.0145636291515
 20
256.6690099365533
 30
0.0
 10
245.0082703967255
 20
256.7430121360513
 30
0.0
 10
245.003647681157
 20
256.8151699328481
 30
0.0
 10
245.0007652949634
 20
256.8852092871504
 30
0.0
 10
244.9996717653361
 20
256.9540119622438
 30
0.0
 10
245.0005615283361
 20
257.0210904741099
 30
0.0
 10
245.003643747099
 20
257.0861804840101
 30
0.0
 10
245.0089956954482
 20
257.1482026142327
 30
0.0
 10
245.0167250251337
 20
257.2070575403226
 30
0.0
 10
245.0269155292978
 20
257.2626961858057
 30
0.0
 10
245.0396466108133
 20
257.3150842197385
 30
0.0
 10
245.0550133958836
 20
257.3641578792743
 30
0.0
 10
245.0730803681464
 20
257.4099067673064
 30
0.0
 10
245.093905800815
 20
257.452329995012
 30
0.0
 10
245.1175649968789
 20
257.4914071143774
 30
0.0
 10
245.1440990348208
 20
257.5271697551711
 30
0.0
 10
245.1732069039749
 20
257.5592868018466
 30
0.0
 10
245.2048263566363
 20
257.5879142223829
 30
0.0
 10
245.238864751751
 20
257.6132414496473
 30
0.0
 10
245.2756854408403
 20
257.6356573281058
 30
0.0
 10
245.3153129777959
 20
257.6552209217553
 30
0.0
 10
245.3577463508279
 20
257.6720192674139
 30
0.0
 10
245.4029726656869
 20
257.6861420620774
 30
0.0
 10
245.4509991458306
 20
257.6976740526008
 30
0.0
 10
245.5018123060537
 20
257.7067171851575
 30
0.0
 10
245.5553849452955
 20
257.7133762660551
 30
0.0
 10
245.6117112621863
 20
257.7177517163466
 30
0.0
 10
245.6707697128757
 20
257.7199517967335
 30
0.0
 10
245.7337049001066
 20
257.7200906390056
 30
0.0
 10
245.8006785892218
 20
257.7181424512349
 30
0.0
 10
245.8718362844299
 20
257.7141000468966
 30
0.0
 10
245.9459216222121
 20
257.7081296504995
 30
0.0
 10
246.0229126694132
 20
257.7003567555379
 30
0.0
 10
246.1027768146826
 20
257.6909022370765
 30
0.0
 10
246.1849289456134
 20
257.6799628343281
 30
0.0
 10
246.2692828104889
 20
257.6676906484626
 30
0.0
 10
246.355747816467
 20
257.654222914319
 30
0.0
 10
246.444830135877
 20
257.6395890158723
 30
0.0
 10
246.5365041015921
 20
257.6238942153373
 30
0.0
 10
246.6307375933559
 20
257.6072351056941
 30
0.0
 10
246.7190982716648
 20
257.5912311982008
 30
0.0
 10
246.8008895863751
 20
257.5761883535529
 30
0.0
 10
246.8755470739746
 20
257.5623200827665
 30
0.0
 10
246.9514965289379
 20
257.5481115033433
 30
0.0
 10
247.0244672633739
 20
257.5343975707337
 30
0.0
 10
247.0941915890592
 20
257.5212670048595
 30
0.0
 10
247.1604639737925
 20
257.5087816580115
 30
0.0
 10
247.227593503977
 20
257.4961478035611
 30
0.0
 10
247.3034245224703
 20
257.4819091590784
 30
0.0
 10
247.3883029395257
 20
257.4660384191085
 30
0.0
 10
247.482616927889
 20
257.4485237063068
 30
0.0
 10
247.578459682167
 20
257.4308808448354
 30
0.0
 10
247.6758123799479
 20
257.4131513387693
 30
0.0
 10
247.774653618731
 20
257.3953726568485
 30
0.0
 10
247.8754787037848
 20
257.3774906160506
 30
0.0
 10
247.978292453656
 20
257.3595437457512
 30
0.0
 10
248.0830954446107
 20
257.3415683869329
 30
0.0
 10
248.1893435977065
 20
257.323690774429
 30
0.0
 10
248.2970143596869
 20
257.3059469054933
 30
0.0
 10
248.4060819449109
 20
257.2883688278255
 30
0.0
 10
248.5075047883848
 20
257.2724074333815
 30
0.0
 10
248.6009229270608
 20
257.2580302824576
 30
0.0
 10
248.6860560715068
 20
257.2451886687334
 30
0.0
 10
248.7718958539141
 20
257.2325096575548
 30
0.0
 10
248.8589625379239
 20
257.2199280248924
 30
0.0
 10
248.9472368704216
 20
257.2074626697556
 30
0.0
 10
249.0367402547881
 20
257.1951263007957
 30
0.0
 10
249.1269210534391
 20
257.1830067139579
 30
0.0
 10
249.2288236681628
 20
257.1696670935737
 30
0.0
 10
249.3427103384332
 20
257.1552349205303
 30
0.0
 10
249.4688708152041
 20
257.1398657618044
 30
0.0
 10
249.5962497538315
 20
257.1249813102611
 30
0.0
 10
249.7248104793485
 20
257.1106086353491
 30
0.0
 10
249.8545127869509
 20
257.0967704190026
 30
0.0
 10
249.9871471004872
 20
257.083302952584
 30
0.0
 10
250.1227201975072
 20
257.070259418969
 30
0.0
 10
250.26122826753
 20
257.0576916686507
 30
0.0
 10
250.4008019948201
 20
257.0457962568109
 30
0.0
 10
250.5413928243345
 20
257.034596638326
 30
0.0
 10
250.6829481190772
 20
257.0241112339381
 30
0.0
 10
250.8142219531824
 20
257.0151242378954
 30
0.0
 10
250.9349784114807
 20
257.0074597900136
 30
0.0
 10
251.0450784661643
 20
257.0009488745137
 30
0.0
 10
251.1555660125059
 20
256.9948955813831
 30
0.0
 10
251.2618424364366
 20
256.9895359284642
 30
0.0
 10
251.3638036431981
 20
256.984811545243
 30
0.0
 10
251.4614169730523
 20
256.9806622372602
 30
0.0
 10
251.5592490699198
 20
256.9768788459413
 30
0.0
 10
251.6692171518308
 20
256.9730481168023
 30
0.0
 10
251.7913588186658
 20
256.9693486309417
 30
0.0
 10
251.9257065423553
 20
256.9659844900841
 30
0.0
 10
252.0603977872281
 20
256.9633189910431
 30
0.0
 10
252.1953861615565
 20
256.9613592795586
 30
0.0
 10
252.3306244078387
 20
256.9601089950849
 30
0.0
 10
252.4679592840378
 20
256.9595635976323
 30
0.0
 10
252.6073446237734
 20
256.9597632766008
 30
0.0
 10
252.748725505416
 20
256.9607451420798
 30
0.0
 10
252.8901748689029
 20
256.9625070181467
 30
0.0
 10
253.0316375434579
 20
256.9650513781773
 30
0.0
 10
253.1730580200588
 20
256.9683763816651
 30
0.0
 10
253.3032776313746
 20
256.972157171124
 30
0.0
 10
253.4223152029885
 20
256.9761944238218
 30
0.0
 10
253.5302568891652
 20
256.9803120432821
 30
0.0
 10
253.6379963735727
 20
256.9848779373096
 30
0.0
 10
253.7417212323156
 20
256.9897120795607
 30
0.0
 10
253.8414080513971
 20
256.9947567373223
 30
0.0
 10
253.9370955472655
 20
256.9999597069635
 30
0.0
 10
254.0325451277375
 20
257.005509337077
 30
0.0
 10
254.1390829696789
 20
257.0121041725199
 30
0.0
 10
254.2565384906564
 20
257.0198953015748
 30
0.0
 10
254.3847108020865
 20
257.0290481644056
 30
0.0
 10
254.5123835157608
 20
257.0388112898971
 30
0.0
 10
254.6395127741881
 20
257.0491757841569
 30
0.0
 10
254.7660565027049
 20
257.0601291316536
 30
0.0
 10
254.8932668318892
 20
257.0717766827876
 30
0.0
 10
255.0210726055579
 20
257.0841266485214
 30
0.0
 10
255.1493993745412
 20
257.0971819490733
 30
0.0
 10
255.2769286685218
 20
257.1108016409327
 30
0.0
 10
255.4036145351942
 20
257.12496915048
 30
0.0
 10
255.5294133571799
 20
257.1396633807553
 30
0.0
 10
255.6443126114536
 20
257.1536492845149
 30
0.0
 10
255.7485498772892
 20
257.1667832886212
 30
0.0
 10
255.8423901177634
 20
257.1789503572517
 30
0.0
 10
255.9355801279878
 20
257.1913699296853
 30
0.0
 10
256.0264363910029
 20
257.2038019340567
 30
0.0
 10
256.1149614606086
 20
257.216216949116
 30
0.0
 10
256.2012048777317
 20
257.228593084807
 30
0.0
 10
256.2868063905763
 20
257.2411514359139
 30
0.0
 10
256.3818703556515
 20
257.2553962863631
 30
0.0
 10
256.4860508917732
 20
257.2713855548125
 30
0.0
 10
256.5989512344811
 20
257.2891677864362
 30
0.0
 10
256.7106247088045
 20
257.3071892847781
 30
0.0
 10
256.821034135252
 20
257.3254181810688
 30
0.0
 10
256.9301452795377
 20
257.3438176725572
 30
0.0
 10
257.0390319763117
 20
257.3625409882566
 30
0.0
 10
257.1476054004073
 20
257.3815541562506
 30
0.0
 10
257.2557750430388
 20
257.4008137131037
 30
0.0
 10
257.3624246862996
 20
257.4200837647342
 30
0.0
 10
257.4675154541299
 20
257.4393175715834
 30
0.0
 10
257.5710114142634
 20
257.4584619267162
 30
0.0
 10
257.6647462342992
 20
257.4759468211084
 30
0.0
 10
257.7491382485251
 20
257.4917732110344
 30
0.0
 10
257.8246035184869
 20
257.5059688950485
 30
0.0
 10
257.899033261065
 20
257.5199906668332
 30
0.0
 10
257.971447386026
 20
257.5336290255655
 30
0.0
 10
258.0418614332794
 20
257.5468633055926
 30
0.0
 10
258.1103296909499
 20
257.5596814685821
 30
0.0
 10
258.1777910342405
 20
257.5722364272677
 30
0.0
 10
258.2521583194271
 20
257.5859634877039
 30
0.0
 10
258.3329226399676
 20
257.6006855837518
 30
0.0
 10
258.4195010741702
 20
257.6161607014698
 30
0.0
 10
258.5041812481807
 20
257.6309132971373
 30
0.0
 10
258.5869224874693
 20
257.6448652315212
 30
0.0
 10
258.6676876324021
 20
257.6579305735481
 30
0.0
 10
258.7472626777539
 20
257.6701500151344
 30
0.0
 10
258.8255266415371
 20
257.6813954459449
 30
0.0
 10
258.9023577097633
 20
257.6915214662208
 30
0.0
 10
258.9769408093118
 20
257.7003114203262
 30
0.0
 10
259.0492247985791
 20
257.7076544305185
 30
0.0
 10
259.1191647898467
 20
257.7134321542845
 30
0.0
 10
259.1813270495843
 20
257.7172009956004
 30
0.0
 10
259.2363145968142
 20
257.719308174456
 30
0.0
 10
259.2847148458354
 20
257.7201136432144
 30
0.0
 10
259.3316286719792
 20
257.7197587992208
 30
0.0
 10
259.3814663456006
 20
257.7180354207441
 30
0.0
 10
259.4336233488539
 20
257.714418670846
 30
0.0
 10
259.487432421554
 20
257.7082689746255
 30
0.0
 10
259.5387110507413
 20
257.6997480640458
 30
0.0
 10
259.5874049771219
 20
257.6887177851677
 30
0.0
 10
259.6334775969362
 20
257.6750490715231
 30
0.0
 10
259.6769086594363
 20
257.6586139511315
 30
0.0
 10
259.7176478619698
 20
257.6392714536646
 30
0.0
 10
259.7556688581
 20
257.6169013316585
 30
0.0
 10
259.7909606133412
 20
257.5913838996444
 30
0.0
 10
259.8234828736474
 20
257.5625852998921
 30
0.0
 10
259.8532263128924
 20
257.5304067517849
 30
0.0
 10
259.8799612178429
 20
257.4950585311167
 30
0.0
 10
259.9037515185942
 20
257.4565329980308
 30
0.0
 10
259.9246941093559
 20
257.4148721807094
 30
0.0
 10
259.9430157372921
 20
257.3696879122307
 30
0.0
 10
259.9587196920017
 20
257.3209078707037
 30
0.0
 10
259.9718436327393
 20
257.2685134789576
 30
0.0
 10
259.9824323963085
 20
257.2124905847939
 30
0.0
 10
259.9905160933878
 20
257.1528093022818
 30
0.0
 10
259.996156670986
 20
257.0894885425153
 30
0.0
 10
259.9994201185184
 20
257.0225902825789
 30
0.0
 10
260.0003675506846
 20
256.9520466208847
 30
0.0
 10
259.9990755737879
 20
256.8780704764815
 30
0.0
 10
259.9959296095917
 20
256.8078348004914
 30
0.0
 10
259.9915962607519
 20
256.7423950124199
 30
0.0
 10
259.9866116314107
 20
256.6825243217932
 30
0.0
 10
259.9805479243337
 20
256.621481107872
 30
0.0
 10
259.9726291388617
 20
256.5524412444656
 30
0.0
 10
259.9624372233672
 20
256.4751483859309
 30
0.0
 10
259.949505126572
 20
256.3894119062613
 30
0.0
 10
259.9347827594045
 20
256.3024727272509
 30
0.0
 10
259.9182939486175
 20
256.2145630587054
 30
0.0
 10
259.9000370426331
 20
256.1258910107885
 30
0.0
 10
259.8767071081478
 20
256.0219443248848
 30
0.0
 10
259.8471419006157
 20
255.902738552999
 30
0.0
 10
259.8140083166493
 20
255.7835574132005
 30
0.0
 10
259.7823422892714
 20
255.6796657359445
 30
0.0
 10
259.753306329939
 20
255.5910611519076
 30
0.0
 10
259.7223524510695
 20
255.5031847747917
 30
0.0
 10
259.689432963718
 20
255.4162394988969
 30
0.0
 10
259.6544763239708
 20
255.3304430018921
 30
0.0
 10
259.6173631151403
 20
255.2459101853248
 30
0.0
 10
259.5780131916655
 20
255.1628762453743
 30
0.0
 10
259.5363246470379
 20
255.0816017893782
 30
0.0
 10
259.4941818753385
 20
255.0059112641931
 30
0.0
 10
259.4518618149442
 20
254.9357290245868
 30
0.0
 10
259.4096414215941
 20
254.8709143903876
 30
0.0
 10
259.3653371625838
 20
254.8081691696136
 30
0.0
 10
259.3188710123221
 20
254.7477172415217
 30
0.0
 10
259.2701683448212
 20
254.6897862251592
 30
0.0
 10
259.2191236165719
 20
254.6345593865982
 30
0.0
 10
259.1656579779309
 20
254.582298213562
 30
0.0
 10
259.1097126143932
 20
254.5332468917456
 30
0.0
 10
259.0511964465443
 20
254.4875831339617
 30
0.0
 10
258.9900348932249
 20
254.4456511815625
 30
0.0
 10
258.9262282631365
 20
254.4075529899173
 30
0.0
 10
258.860489330602
 20
254.3736607249292
 30
0.0
 10
258.792910333513
 20
254.3438586064938
 30
0.0
 10
258.7236210703943
 20
254.3179060929828
 30
0.0
 10
258.6519746470817
 20
254.2954242498763
 30
0.0
 10
258.5780004974517
 20
254.2763440077987
 30
0.0
 10
258.5017515775519
 20
254.2605520283751
 30
0.0
 10
258.4233230968109
 20
254.2479233493907
 30
0.0
 10
258.3427375534456
 20
254.2383684105463
 30
0.0
 10
258.2601201608077
 20
254.2316466461315
 30
0.0
 10
258.1753013362373
 20
254.2279802022426
 30
0.0
 10
258.1175842454127
 20
254.2265485445382
 30
0.0
 10
258.08762521247
 20
254.2269512552601
 30
0.0
 10
258.0871705991048
 20
254.2269573661942
 30
0.0
  0
SPLINE
  5
AB
330
1F
100
AcDbEntity
  8
0
  6
Continuous
 62
     7
370
    30
100
AcDbSpline
210
0.0
220
0.0
230
1.0
 70
     8
 71
     3
 72
    78
 73
    74
 74
     0
 42
0.000000001
 43
0.00000001
 40
0.0
 40
0.0
 40
0.0
 40
0.0
 40
0.0099260658612404
 40
0.0198521312972215
 40
0.0297945844695109
 40
0.0397370363552092
 40
0.0530711504179731
 40
0.0664077534072964
 40
0.0797418382929558
 40
0.0931677042686603
 40
0.1065961524187761
 40
0.1200219690637083
 40
0.1301553965685866
 40
0.1402888183599313
 40
0.1504406913222983
 40
0.1605925580170074
 40
0.1768404564094148
 40
0.1931079017424117
 40
0.2092205555995008
 40
0.225333173745196
 40
0.2415251327907053
 40
0.2577170698897316
 40
0.2736216216445853
 40
0.2895261751842146
 40
0.3055080971067294
 40
0.3214900503193315
 40
0.331112249205276
 40
0.3407344556212838
 40
0.3503730664671687
 40
0.3600116874362831
 40
0.3729379418489484
 40
0.3858665814679631
 40
0.3987929885162504
 40
0.4118002952901657
 40
0.4248098250961986
 40
0.4378173243283296
 40
0.4476228349726308
 40
0.4574283644962861
 40
0.4672468209425844
 40
0.477065296418282
 40
0.4955110276685245
 40
0.5139569862519936
 40
0.5324728665895359
 40
0.5509889510975975
 40
0.5695878205733808
 40
0.5881868601532515
 40
0.6068389836622589
 40
0.625491235257852
 40
0.6442111365477562
 40
0.6629311200239646
 40
0.681694497311712
 40
0.7004579065781703
 40
0.7171362361124067
 40
0.7338145532099738
 40
0.7505226657866267
 40
0.7672307316062308
 40
0.7838634351213782
 40
0.8004960541451204
 40
0.8171641586899692
 40
0.8338321323658474
 40
0.8503939569085771
 40
0.8669556016196202
 40
0.8835666897235143
 40
0.900177535373092
 40
0.9167696303293331
 40
0.9333784458297982
 40
0.9432586617300002
 40
0.9531388637088
 40
0.9630346342254904
 40
0.9729303919825755
 40
0.9862007877164453
 40
0.9994736624615662
 40
1.0
 40
1.0
 40
1.0
 40
1.0
 10
252.5
 20
254.449869560929
 30
0.0
 10
252.5237328167508
 20
254.4499182378407
 30
0.0
 10
252.5711984492358
 20
254.450015591662
 30
0.0
 10
252.6424067771409
 20
254.4508048729872
 30
0.0
 10
252.7135956874966
 20
254.4520683145189
 30
0.0
 10
252.7928243911718
 20
254.4540611673212
 30
0.0
 10
252.879980966536
 20
254.4570015668375
 30
0.0
 10
252.9749271392515
 20
254.4611710612915
 30
0.0
 10
253.0697352424068
 20
254.4663305700308
 30
0.0
 10
253.1643286823343
 20
254.4725130020518
 30
0.0
 10
253.2586298190242
 20
254.4797611403701
 30
0.0
 10
253.3446882302634
 20
254.4874150938582
 30
0.0
 10
253.4225942191525
 20
254.4952126736393
 30
0.0
 10
253.4925222255203
 20
254.5029122905527
 30
0.0
 10
253.5620506509379
 20
254.5112957764332
 30
0.0
 10
253.6449749156943
 20
254.5222027194546
 30
0.0
 10
253.7408511129289
 20
254.5362452662394
 30
0.0
 10
253.8486822769828
 20
254.5541688770818
 30
0.0
 10
253.9546497076371
 20
254.5740301615088
 30
0.0
 10
254.0587692168196
 20
254.595907036588
 30
0.0
 10
254.1612353159469
 20
254.6199501849643
 30
0.0
 10
254.2613196282579
 20
254.6460728215735
 30
0.0
 10
254.3587688708313
 20
254.6742501350074
 30
0.0
 10
254.453675850787
 20
254.7045165406923
 30
0.0
 10
254.5465020799147
 20
254.7370897001374
 30
0.0
 10
254.6251245615392
 20
254.7673591458862
 30
0.0
 10
254.6902942316916
 20
254.7943399634838
 30
0.0
 10
254.7428358950942
 20
254.8172842665456
 30
0.0
 10
254.7944965036372
 20
254.8410618646857
 30
0.0
 10
254.8510338213352
 20
254.8684632279167
 30
0.0
 10
254.9120003798885
 20
254.8998256455613
 30
0.0
 10
254.9769059432999
 20
254.9355149974842
 30
0.0
 10
255.040217732568
 20
254.9726727010694
 30
0.0
 10
255.1019039715772
 20
255.0112805521927
 30
0.0
 10
255.161949143368
 20
255.0512993140709
 30
0.0
 10
255.2154404384854
 20
255.0892152014532
 30
0.0
 10
255.2628455576838
 20
255.1246488952419
 30
0.0
 10
255.3046111598795
 20
255.1572990152295
 30
0.0
 10
255.3453916828744
 20
255.1906230203276
 30
0.0
 10
255.3968472321473
 20
255.2345467040074
 30
0.0
 10
255.4576932393299
 20
255.2898201783918
 30
0.0
 10
255.5264015594569
 20
255.3573698193385
 30
0.0
 10
255.5917731657124
 20
255.4268297264936
 30
0.0
 10
255.6539479068524
 20
255.4981292579332
 30
0.0
 10
255.7128901587274
 20
255.5710148973324
 30
0.0
 10
255.7687015706123
 20
255.6453790711929
 30
0.0
 10
255.8213498183933
 20
255.7209401856074
 30
0.0
 10
255.8709442223393
 20
255.7976100375479
 30
0.0
 10
255.9174808273548
 20
255.8751422616241
 30
0.0
 10
255.9610277483741
 20
255.9534160297451
 30
0.0
 10
256.0015663610027
 20
256.0321586195096
 30
0.0
 10
256.0377272595523
 20
256.1082571210351
 30
0.0
 10
256.0698807020962
 20
256.1814598710808
 30
0.0
 10
256.0984065779078
 20
256.2516695276784
 30
0.0
 10
256.1245897238391
 20
256.3216780027506
 30
0.0
 10
256.1483791619291
 20
256.3912365927267
 30
0.0
 10
256.169758671119
 20
256.4601606471787
 30
0.0
 10
256.1887267169856
 20
256.5283488138933
 30
0.0
 10
256.2052785015642
 20
256.5957461863215
 30
0.0
 10
256.2193316716765
 20
256.6620410723214
 30
0.0
 10
256.2308425918543
 20
256.7270192411056
 30
0.0
 10
256.2397744676727
 20
256.7905693202561
 30
0.0
 10
256.2460734390324
 20
256.852631455576
 30
0.0
 10
256.2496459137213
 20
256.9129742133463
 30
0.0
 10
256.250400770416
 20
256.971333143641
 30
0.0
 10
256.2485324884287
 20
257.0199269341508
 30
0.0
 10
256.2451995612194
 20
257.0596525968529
 30
0.0
 10
256.2413984350549
 20
257.0912473407354
 30
0.0
 10
256.2364765022941
 20
257.1220367271636
 30
0.0
 10
256.2297856259616
 20
257.1554602248974
 30
0.0
 10
256.2205384024332
 20
257.190934865686
 30
0.0
 10
256.2128811558436
 20
257.2167130230455
 30
0.0
 10
256.2079709372532
 20
257.2291305705628
 30
0.0
 10
256.2077836488549
 20
257.2296042078444
 30
0.0
  0
SPLINE
  5
AC
330
1F
100
AcDbEntity
  8
0
  6
Continuous
 62
     7
370
    30
100
AcDbSpline
210
0.0
220
0.0
230
1.0
 70
     8
 71
     3
 72
    83
 73
    79
 74
     0
 42
0.000000001
 43
0.00000001
 40
0.0
 40
0.0
 40
0.0
 40
0.0
 40
0.0025315107734582
 40
0.0155996476067337
 40
0.0286654250257067
 40
0.0418167758186645
 40
0.0549704942666086
 40
0.0681219923910571
 40
0.0780399103005442
 40
0.0879578434499937
 40
0.09789005414881
 40
0.1078223004632208
 40
0.1221795827295297
 40
0.136536994253489
 40
0.1509272494958389
 40
0.1653176059885779
 40
0.1797724233946089
 40
0.1942273174334641
 40
0.208706755499653
 40
0.2231862475324525
 40
0.2377393660775283
 40
0.2522925191132506
 40
0.2668661640393759
 40
0.2814398254128794
 40
0.2960698068035796
 40
0.3106997882048019
 40
0.3253495879796713
 40
0.3399993722183985
 40
0.3574301104100374
 40
0.3748607852138717
 40
0.3923289927305434
 40
0.4097971025003545
 40
0.4272034150976181
 40
0.444609599935713
 40
0.4620636476197536
 40
0.479517537977168
 40
0.4968824316761523
 40
0.5142471501405171
 40
0.531675085225173
 40
0.549102831777244
 40
0.5665236582366298
 40
0.5839638188588827
 40
0.5937392927129584
 40
0.6035147497806754
 40
0.613305494715405
 40
0.6230962244913997
 40
0.636225772334424
 40
0.649357780660287
 40
0.6624871964084732
 40
0.6757105338775292
 40
0.6889365502829957
 40
0.7021598162678027
 40
0.7121439214446563
 40
0.7221280244496414
 40
0.732131220782576
 40
0.7421344175671757
 40
0.7519130020997183
 40
0.7616915890194079
 40
0.77148800391154
 40
0.7812844227044039
 40
0.7944293504906815
 40
0.8075769427145247
 40
0.8207219296307507
 40
0.8339616846289261
 40
0.8472040822141065
 40
0.8604439017342854
 40
0.8704368106547112
 40
0.8804297249617337
 40
0.8904401243631821
 40
0.9004505285101212
 40
0.9128451663103576
 40
0.9252398131477919
 40
0.9376670045129526
 40
0.9500942024531585
 40
0.9625543856506774
 40
0.9750145728382416
 40
0.9875072857477535
 40
1.0
 40
1.0
 40
1.0
 40
1.0
 10
248.792366166825
 20
257.2295977574075
 30
0.0
 10
248.7914794204103
 20
257.2273095585181
 30
0.0
 10
248.7860151214903
 20
257.2132092447039
 30
0.0
 10
248.7779883762523
 20
257.1858500833293
 30
0.0
 10
248.7683316151363
 20
257.147376538879
 30
0.0
 10
248.7608467732609
 20
257.1072194647805
 30
0.0
 10
248.7552689882492
 20
257.0655647129384
 30
0.0
 10
248.7519323497071
 20
257.0260100085968
 30
0.0
 10
248.7502745198306
 20
256.9889679034567
 30
0.0
 10
248.7498305248383
 20
256.9547611815008
 30
0.0
 10
248.7504184921218
 20
256.9197729039755
 30
0.0
 10
248.7522571303503
 20
256.8787473681857
 30
0.0
 10
248.7559077944522
 20
256.8313543601109
 30
0.0
 10
248.7620000809884
 20
256.7772327929436
 30
0.0
 10
248.7700693292479
 20
256.7219363543275
 30
0.0
 10
248.780091050316
 20
256.6655032837585
 30
0.0
 10
248.7920270238462
 20
256.6080911997507
 30
0.0
 10
248.8058609512101
 20
256.5497775171904
 30
0.0
 10
248.8215470888618
 20
256.490757627369
 30
0.0
 10
248.8390956970814
 20
256.4310346588664
 30
0.0
 10
248.8584876099987
 20
256.3707420593802
 30
0.0
 10
248.8797308068509
 20
256.3099475016007
 30
0.0
 10
248.9027845763882
 20
256.2488496352932
 30
0.0
 10
248.9276811625177
 20
256.1874622603937
 30
0.0
 10
248.9544166478425
 20
256.1259060312834
 30
0.0
 10
248.9830185308742
 20
256.0642427718267
 30
0.0
 10
249.0134630862835
 20
256.0026417107182
 30
0.0
 10
249.0478120232566
 20
255.937302602676
 30
0.0
 10
249.0865023580266
 20
255.8684033719139
 30
0.0
 10
249.1300703868267
 20
255.7961058732746
 30
0.0
 10
249.1763889840545
 20
255.7244302466767
 30
0.0
 10
249.22545538211
 20
255.6536081812802
 30
0.0
 10
249.2772739343871
 20
255.5838383217192
 30
0.0
 10
249.3319368416165
 20
255.5151991279707
 30
0.0
 10
249.3895685831112
 20
255.4477641055726
 30
0.0
 10
249.4501294841135
 20
255.3817957672373
 30
0.0
 10
249.5136023456219
 20
255.3175008065822
 30
0.0
 10
249.5800957241058
 20
255.254934375302
 30
0.0
 10
249.6497757954769
 20
255.1941440448482
 30
0.0
 10
249.7226772781319
 20
255.1352787701574
 30
0.0
 10
249.7987692518834
 20
255.0785297443017
 30
0.0
 10
249.8664462676289
 20
255.0320082549686
 30
0.0
 10
249.924286678794
 20
254.9947656405795
 30
0.0
 10
249.9711653455892
 20
254.9659870696123
 30
0.0
 10
250.0190650833636
 20
254.9379758976952
 30
0.0
 10
250.0735406966913
 20
254.9076520736187
 30
0.0
 10
250.134998427367
 20
254.8753998875469
 30
0.0
 10
250.2038921293253
 20
254.8416474301218
 30
0.0
 10
250.274669537651
 20
254.8093255713925
 30
0.0
 10
250.3473170092227
 20
254.7784723340486
 30
0.0
 10
250.4218001801828
 20
254.7491000279034
 30
0.0
 10
250.4916882357807
 20
254.7235557054126
 30
0.0
 10
250.5565090884508
 20
254.7014296196828
 30
0.0
 10
250.6159113201944
 20
254.6823311096543
 30
0.0
 10
250.6761984837426
 20
254.6640985021336
 30
0.0
 10
250.7368873325223
 20
254.6468536995704
 30
0.0
 10
250.7978919900119
 20
254.6305768955319
 30
0.0
 10
250.859201785075
 20
254.6152241666405
 30
0.0
 10
250.9212552481149
 20
254.6006619310597
 30
0.0
 10
250.9911759374542
 20
254.5853062506358
 30
0.0
 10
251.0691920223294
 20
254.5694890653024
 30
0.0
 10
251.1555452022843
 20
254.5535537431168
 30
0.0
 10
251.2431361067045
 20
254.5388916907397
 30
0.0
 10
251.3319034643197
 20
254.5254737205532
 30
0.0
 10
251.4217784397399
 20
254.513264367607
 30
0.0
 10
251.505062520394
 20
254.5031526005905
 30
0.0
 10
251.581475390673
 20
254.4947896442808
 30
0.0
 10
251.6508565768433
 20
254.4878798913491
 30
0.0
 10
251.7206427608615
 20
254.4815902446552
 30
0.0
 10
251.7963729479623
 20
254.4754545596863
 30
0.0
 10
251.8780669069453
 20
254.469636645625
 30
0.0
 10
251.9658388687699
 20
254.464298829967
 30
0.0
 10
252.0540352579872
 20
254.4598170766197
 30
0.0
 10
252.1426765229813
 20
254.4561724273656
 30
0.0
 10
252.2316284447009
 20
254.4533475000648
 30
0.0
 10
252.3209107882581
 20
254.4513500443821
 30
0.0
 10
252.4103873680556
 20
254.4501007768185
 30
0.0
 10
252.470129121615
 20
254.4499466328949
 30
0.0
 10
252.5
 20
254.4498695609289
 30
0.0
  0
LINE
  5
AD
330
1F
100
AcDbEntity
  8
0
  6
Continuous
 62
     8
370
     0
100
AcDbLine
 10
264.1273953247
 20
186.6124838475
 30
0.0
 11
240.8726046753
 21
186.6124838475
 31
0.0
  0
LINE
  5
AE
330
1F
100
AcDbEntity
  8
0
  6
Continuous
 62
     8
370
     0
100
AcDbLine
 10
242.1292713419
 20
215.6124838475
 30
0.0
 11
262.8707286581
 21
215.6124838475
 31
0.0
  0
LINE
  5
AF
330
1F
100
AcDbEntity
  8
0
  6
Continuous
 62
     8
370
     0
100
AcDbLine
 10
252.5
 20
309.3875161525
 30
0.0
 11
240.8726046753
 21
309.3875161525
 31
0.0
  0
LINE
  5
B0
330
1F
100
AcDbEntity
  8
0
  6
Continuous
 62
     8
370
     0
100
AcDbLine
 10
264.1273953247
 20
309.3875161525
 30
0.0
 11
252.5
 21
309.3875161525
 31
0.0
  0
LINE
  5
B1
330
1F
100
AcDbEntity
  8
0
  6
Continuous
 62
     8
370
     0
100
AcDbLine
 10
252.5
 20
280.3875161525
 30
0.0
 11
262.8707286581
 21
280.3875161525
 31
0.0
  0
LINE
  5
B2
330
1F
100
AcDbEntity
  8
0
  6
Continuous
 62
     8
370
     0
100
AcDbLine
 10
242.1292713419
 20
280.3875161525
 30
0.0
 11
252.5
 21
280.3875161525
 31
0.0
  0
LINE
  5
B3
330
1F
100
AcDbEntity
  8
0
  6
Continuous
 62
     7
370
    30
100
AcDbLine
 10
46.0
 20
216.0908374948
 30
0.0
 11
46.0
 21
239.0431760662
 31
0.0
  0
LINE
  5
B4
330
1F
100
AcDbEntity
  8
0
  6
Continuous
 62
     7
370
    30
100
AcDbLine
 10
31.0
 20
239.0430490754
 30
0.0
 11
31.0
 21
216.0908374948
 31
0.0
  0
LINE
  5
B5
330
1F
100
AcDbEntity
  8
0
  6
Continuous
 62
     7
370
    30
100
AcDbLine
 10
44.0870792385
 20
241.7730610909
 30
0.0
 11
32.9131219951
 21
241.7730610909
 31
0.0
  0
ARC
  5
B6
330
1F
100
AcDbEntity
  8
0
  6
Continuous
 62
     7
370
    30
100
AcDbCircle
 10
49.6278641091
 20
186.5908374948
 30
0.0
 40
0.5
100
AcDbArc
 50
270.0
 51
2.4812648012
  0
ARC
  5
B7
330
1F
100
AcDbEntity
  8
0
  6
Continuous
 62
     7
370
    30
100
AcDbCircle
 10
27.3721358909
 20
186.5908374948
 30
0.0
 40
0.500000000000001
100
AcDbArc
 50
177.5187351988
 51
270.0
  0
LINE
  5
B8
330
1F
100
AcDbEntity
  8
0
  6
Continuous
 62
     7
370
    30
100
AcDbLine
 10
50.1273953247
 20
186.6124838475
 30
0.0
 11
48.8707286581
 21
215.6124838475
 31
0.0
  0
LINE
  5
B9
330
1F
100
AcDbEntity
  8
0
  6
Continuous
 62
     7
370
    30
100
AcDbLine
 10
28.1292713419
 20
215.6124838475
 30
0.0
 11
26.8726046753
 21
186.6124838475
 31
0.0
  0
ARC
  5
BA
330
1F
100
AcDbEntity
  8
0
  6
Continuous
 62
     7
370
    30
100
AcDbCircle
 10
28.6288025576
 20
215.5908374948
 30
0.0
 40
0.5
100
AcDbArc
 50
90.0
 51
177.5187351988
  0
ARC
  5
BB
330
1F
100
AcDbEntity
  8
0
  6
Continuous
 62
     7
370
    30
100
AcDbCircle
 10
48.3711974424
 20
215.5908374948
 30
0.0
 40
0.5000000000000012
100
AcDbArc
 50
2.4812648012
 51
90.0
  0
ARC
  5
BC
330
1F
100
AcDbEntity
  8
0
  6
Continuous
 62
     7
370
    30
100
AcDbCircle
 10
27.3721358909
 20
309.4091625052
 30
0.0
 40
0.5
100
AcDbArc
 50
90.0
 51
182.4812648012
  0
ARC
  5
BD
330
1F
100
AcDbEntity
  8
0
  6
Continuous
 62
     7
370
    30
100
AcDbCircle
 10
49.6278641091
 20
309.4091625052
 30
0.0
 40
0.5
100
AcDbArc
 50
357.5187351988
 51
90.0
  0
LINE
  5
BE
330
1F
100
AcDbEntity
  8
0
  6
Continuous
 62
     7
370
    30
100
AcDbLine
 10
26.8726046753
 20
309.3875161525
 30
0.0
 11
28.1292713419
 21
280.3875161525
 31
0.0
  0
LINE
  5
BF
330
1F
100
AcDbEntity
  8
0
  6
Continuous
 62
     7
370
    30
100
AcDbLine
 10
48.8707286581
 20
280.3875161525
 30
0.0
 11
50.1273953247
 21
309.3875161525
 31
0.0
  0
ARC
  5
C0
330
1F
100
AcDbEntity
  8
0
  6
Continuous
 62
     7
370
    30
100
AcDbCircle
 10
48.3711974424
 20
280.4091625052
 30
0.0
 40
0.5
100
AcDbArc
 50
270.0
 51
357.5187351988
  0
ARC
  5
C1
330
1F
100
AcDbEntity
  8
0
  6
Continuous
 62
     7
370
    30
100
AcDbCircle
 10
28.6288025576
 20
280.4091625052
 30
0.0
 40
0.5
100
AcDbArc
 50
182.4812648012
 51
270.0
  0
LINE
  5
C2
330
1F
100
AcDbEntity
  8
0
  6
Continuous
 62
     7
370
    30
100
AcDbLine
 10
32.9130034438
 20
254.2269389091
 30
0.0
 11
44.0868780291
 21
254.2269389091
 31
0.0
  0
LINE
  5
C3
330
1F
100
AcDbEntity
  8
0
  6
Continuous
 62
     7
370
    30
100
AcDbLine
 10
31.0
 20
279.9091625052
 30
0.0
 11
31.0
 21
256.9568239842
 31
0.0
  0
LINE
  5
C4
330
1F
100
AcDbEntity
  8
0
  6
Continuous
 62
     7
370
    30
100
AcDbLine
 10
46.0
 20
256.9569509222
 30
0.0
 11
46.0
 21
279.9091625052
 31
0.0
  0
SPLINE
  5
C5
330
1F
100
AcDbEntity
  8
0
  6
Continuous
 62
     7
370
    30
100
AcDbSpline
210
0.0
220
0.0
230
1.0
 70
     8
 71
     3
 72
   284
 73
   280
 74
     0
 42
0.000000001
 43
0.00000001
 40
0.0
 40
0.0
 40
0.0
 40
0.0
 40
0.0015283577382615
 40
0.0048059822882369
 40
0.0080830941784073
 40
0.0103962166944606
 40
0.0127093334478618
 40
0.0150256493002221
 40
0.0173419590799435
 40
0.020445174498552
 40
0.023548930886937
 40
0.0266520766458686
 40
0.0297773572997713
 40
0.0329032821998293
 40
0.0360284985681815
 40
0.0383882191921623
 40
0.0407479351235531
 40
0.0431127780473019
 40
0.0454776236083571
 40
0.0477880570399493
 40
0.0500985001927473
 40
0.0524132523842235
 40
0.0547280147042192
 40
0.0578307443262713
 40
0.0609340272311636
 40
0.0640368667565729
 40
0.0671558331569905
 40
0.0702752194955674
 40
0.0733942808527479
 40
0.0757405672151699
 40
0.0780868607758347
 40
0.0827830105117975
 40
0.0855284861423586
 40
0.0882739714608517
 40
0.0910214335709313
 40
0.093768903482252
 40
0.0992792316370576
 40
0.1047896453550432
 40
0.1103089000103802
 40
0.1158281947060281
 40
0.1213645316538404
 40
0.126900867331881
 40
0.1324437986137212
 40
0.1379866843474098
 40
0.1416945863318389
 40
0.1454026600384008
 40
0.1491104915118698
 40
0.1528272036251031
 40
0.1565441864971588
 40
0.1602607738028711
 40
0.1630596098416339
 40
0.165858429491107
 40
0.1686608225043802
 40
0.1714631950792321
 40
0.1744166612237284
 40
0.1773701227409587
 40
0.1803292853295567
 40
0.1832884445287157
 40
0.1872614477702868
 40
0.1912353510636697
 40
0.1952083381201371
 40
0.1992145128808152
 40
0.2032216271708766
 40
0.2072278171169154
 40
0.21025487186807
 40
0.2132819300005114
 40
0.2163151984204892
 40
0.2193484713044278
 40
0.2222968852057077
 40
0.2252453037952786
 40
0.2281990457520743
 40
0.2311527929007557
 40
0.2351148651272045
 40
0.239077693241222
 40
0.2430398276199774
 40
0.2470271559196477
 40
0.2510151727675449
 40
0.2550025626093294
 40
0.2580084524084157
 40
0.2610143474135826
 40
0.2640242674039336
 40
0.2670341922147358
 40
0.2705364146326345
 40
0.2740390043042172
 40
0.2775412536444251
 40
0.2810558426186116
 40
0.2845707684604877
 40
0.2880853795135753
 40
0.2916145460683678
 40
0.295144025653122
 40
0.2986732096714201
 40
0.3022131043525124
 40
0.3057532929166938
 40
0.3092932008102479
 40
0.3128463664424962
 40
0.3163998126681234
 40
0.3199529878544242
 40
0.3235159778146364
 40
0.3270792388058592
 40
0.3306422351968206
 40
0.3342035687246923
 40
0.3377651650548395
 40
0.3413265023959096
 40
0.3448972119489391
 40
0.3484681817706432
 40
0.3520388930915058
 40
0.3556216636601441
 40
0.359204695109293
 40
0.3627874658300321
 40
0.3663796677926102
 40
0.3699721327085401
 40
0.3735643335779062
 40
0.3771687302963762
 40
0.3807733942298301
 40
0.3843777889307431
 40
0.387991920365185
 40
0.3916063239113248
 40
0.3952204526919993
 40
0.3990395665334854
 40
0.4028590056094923
 40
0.4066781156914284
 40
0.4105091289074556
 40
0.4143404753371663
 40
0.4181714845779716
 40
0.422092567223343
 40
0.4260140126518533
 40
0.4299350910282929
 40
0.4338694528790753
 40
0.4378041867322311
 40
0.4417385445864628
 40
0.4457651883988602
 40
0.4497922364776575
 40
0.4538188764793681
 40
0.4578602896900957
 40
0.4619021164966708
 40
0.4659435265928596
 40
0.4693852335205467
 40
0.4728269400813581
 40
0.4762727905221517
 40
0.4797186406732227
 40
0.4842825671057272
 40
0.4888470992925903
 40
0.4934110239348655
 40
0.4979969811411562
 40
0.5025835549959409
 40
0.5071695122415766
 40
0.5116959809956697
 40
0.5162230423942668
 40
0.5207495129466339
 40
0.5252974083732537
 40
0.5298459023015251
 40
0.5343938012743207
 40
0.5380741657906607
 40
0.5417548449423298
 40
0.5454352115912955
 40
0.5491268821123264
 40
0.5528188673324586
 40
0.5565105404966347
 40
0.5602167397214342
 40
0.5639232538684535
 40
0.5676294561779857
 40
0.5713469389103891
 40
0.5750647353932067
 40
0.5787822215288624
 40
0.5825141163766924
 40
0.5862463241758835
 40
0.5899782226035176
 40
0.5937213131273321
 40
0.5974647147736104
 40
0.6012078088400237
 40
0.6049656607108556
 40
0.6087238228137214
 40
0.6124816779446003
 40
0.6162506399213226
 40
0.6200199107264649
 40
0.6237888753423185
 40
0.6275721153345527
 40
0.6313556643643502
 40
0.6351389059773549
 40
0.6389332732721041
 40
0.6427279504203033
 40
0.6465223178098507
 40
0.6503310343433996
 40
0.6541400644000965
 40
0.6579487788823378
 40
0.661768918943611
 40
0.6655893783825428
 40
0.6694095134916076
 40
0.6733028653637357
 40
0.6771965625952567
 40
0.6810899050849674
 40
0.6849961017438699
 40
0.6889026600625371
 40
0.6928088419969776
 40
0.6967336953323453
 40
0.7006589356277909
 40
0.7045837673875526
 40
0.7085234150153913
 40
0.7124634831630188
 40
0.7164031009324561
 40
0.7203641949995836
 40
0.7243257568676913
 40
0.728286811220251
 40
0.7322662855313443
 40
0.7362462875087474
 40
0.7402257116644552
 40
0.7432032198250806
 40
0.7461807229005487
 40
0.7491623754169902
 40
0.7521440225038771
 40
0.7561401618534501
 40
0.7601369798087432
 40
0.7641330549117913
 40
0.7681560881484104
 40
0.772179898677165
 40
0.7762028684805619
 40
0.7792402726788884
 40
0.7822776717750706
 40
0.7853211440724742
 40
0.7883646121086263
 40
0.7913478743157413
 40
0.7943311336302394
 40
0.7973204898737094
 40
0.8003098444372604
 40
0.8043245903430468
 40
0.8083402808378707
 40
0.8123550315404954
 40
0.8164038283214938
 40
0.8204535826091892
 40
0.8245024176534572
 40
0.827561110688035
 40
0.8306198177610467
 40
0.8336841522379109
 40
0.8367485134845144
 40
0.8396293715861938
 40
0.8425102461627966
 40
0.8453939868941514
 40
0.8482777404807097
 40
0.8521964015909407
 40
0.8561153811713139
 40
0.8600341422039744
 40
0.8659244270917169
 40
0.8718147793010664
 40
0.877933156875409
 40
0.8840515403296486
 40
0.8881363251276181
 40
0.8922212762485641
 40
0.8963060170156201
 40
0.9005200974777628
 40
0.904734430755291
 40
0.9089483981635649
 40
0.9131757882395694
 40
0.917403590882048
 40
0.9216307843320253
 40
0.9251514408226945
 40
0.9286724867713716
 40
0.9321930054924528
 40
0.9357327257476368
 40
0.9392730285171694
 40
0.9428125706365443
 40
0.9463766796726016
 40
0.9499416229968372
 40
0.9535055340454385
 40
0.9571062710608533
 40
0.9607081500307798
 40
0.9643089086408129
 40
0.9671199993903187
 40
0.969931604266305
 40
0.9727427370036137
 40
0.9755709716398684
 40
0.9783996735328002
 40
0.9812279561026793
 40
0.9840924958145314
 40
0.9869574565198229
 40
0.9898220456586457
 40
0.9927001146181027
 40
0.9955785464814901
 40
0.998456660623353
 40
1.0
 40
1.0
 40
1.0
 40
1.0
 10
32.91312199511191
 20
241.772807759632
 30
0.0
 10
32.90071409661098
 20
241.772862531372
 30
0.0
 10
32.86169696146202
 20
241.7730347633079
 30
0.0
 10
32.79759960552095
 20
241.771108520918
 30
0.0
 10
32.72834325768548
 20
241.7673790077033
 30
0.0
 10
32.66773198548699
 20
241.7623546616323
 30
0.0
 10
32.6152540168051
 20
241.7567458136694
 30
0.0
 10
32.56355227807187
 20
241.7498707187394
 30
0.0
 10
32.50687562054842
 20
241.7407654347515
 30
0.0
 10
32.44562710613763
 20
241.7287996019526
 30
0.0
 10
32.38026377360851
 20
241.7132183446498
 30
0.0
 10
32.31633143361373
 20
241.6949913273002
 30
0.0
 10
32.25389381622231
 20
241.6739983141102
 30
0.0
 10
32.19300066457504
 20
241.6501477406736
 30
0.0
 10
32.13867000983824
 20
241.6255998068962
 30
0.0
 10
32.09047981363877
 20
241.6010703495693
 30
0.0
 10
32.04798509631895
 20
241.5772214010252
 30
0.0
 10
32.00650337400759
 20
241.5516249842206
 30
0.0
 10
31.96635503923369
 20
241.524493914427
 30
0.0
 10
31.92754610981754
 20
241.4959232020319
 30
0.0
 10
31.89001886565933
 20
241.4660062147487
 30
0.0
 10
31.85346839322579
 20
241.434569459614
 30
0.0
 10
31.81385011007722
 20
241.3979400004528
 30
0.0
 10
31.77160170418605
 20
241.3555882832414
 30
0.0
 10
31.72717949646513
 20
241.3069894186351
 30
0.0
 10
31.68438060668939
 20
241.2561205242513
 30
0.0
 10
31.64317768835523
 20
241.2031136698004
 30
0.0
 10
31.60353695460759
 20
241.1481080607366
 30
0.0
 10
31.5686278592005
 20
241.0960267753421
 30
0.0
 10
31.53799207788644
 20
241.0474483356118
 30
0.0
 10
31.50231134996081
 20
240.9879147003127
 30
0.0
 10
31.4668548988125
 20
240.9241683648065
 30
0.0
 10
31.43178495864154
 20
240.8562270202411
 30
0.0
 10
31.40448745612619
 20
240.8004092823465
 30
0.0
 10
31.37821960160994
 20
240.7437849864107
 30
0.0
 10
31.34448894966028
 20
240.6672039899479
 30
0.0
 10
31.30475883310112
 20
240.5697813175439
 30
0.0
 10
31.26081722441765
 20
240.4507258590428
 30
0.0
 10
31.22046973080946
 20
240.3301235732693
 30
0.0
 10
31.1835671266452
 20
240.20836000229
 30
0.0
 10
31.15002480186275
 20
240.0860007239696
 30
0.0
 10
31.1197814330965
 20
239.963497841353
 30
0.0
 10
31.09281646370465
 20
239.8414804197496
 30
0.0
 10
31.07174672807916
 20
239.7338295425469
 30
0.0
 10
31.05543376879287
 20
239.6405737309479
 30
0.0
 10
31.04292445542895
 20
239.5614172235927
 30
0.0
 10
31.03192022654168
 20
239.4832753465689
 30
0.0
 10
31.02244661692092
 20
239.4063367613024
 30
0.0
 10
31.01454792674638
 20
239.3308183951456
 30
0.0
 10
31.00878926238526
 20
239.2630763119456
 30
0.0
 10
31.00476898032969
 20
239.2028268355807
 30
0.0
 10
31.00211536730307
 20
239.1496950012167
 30
0.0
 10
31.00045854422654
 20
239.0978578612374
 30
0.0
 10
30.99981724497735
 20
239.0465286025754
 30
0.0
 10
31.00028986095467
 20
238.9959600825854
 30
0.0
 10
31.00198206963602
 20
238.9462582606515
 30
0.0
 10
31.00492452024942
 20
238.89833249842
 30
0.0
 10
31.00963418423056
 20
238.8469392186686
 30
0.0
 10
31.01672441152628
 20
238.7929455055862
 30
0.0
 10
31.02691497974107
 20
238.7373065625792
 30
0.0
 10
31.03964593892764
 20
238.6849181110344
 30
0.0
 10
31.0550126223019
 20
238.635844531304
 30
0.0
 10
31.07307904506228
 20
238.5900957297558
 30
0.0
 10
31.09215526330839
 20
238.551237404976
 30
0.0
 10
31.11155478257849
 20
238.5183469508617
 30
0.0
 10
31.1306535843846
 20
238.4905679705664
 30
0.0
 10
31.1513558698065
 20
238.4646852490167
 30
0.0
 10
31.17346194999911
 20
238.4408969622184
 30
0.0
 10
31.19691234813943
 20
238.4191322889394
 30
0.0
 10
31.2216707063725
 20
238.3992859282675
 30
0.0
 10
31.2479651523508
 20
238.3811223129636
 30
0.0
 10
31.27896121607558
 20
238.3627262022349
 30
0.0
 10
31.31531126153311
 20
238.3447796308599
 30
0.0
 10
31.35774501375462
 20
238.3279812442874
 30
0.0
 10
31.40297135008961
 20
238.3138582836412
 30
0.0
 10
31.45099765404349
 20
238.3023262783854
 30
0.0
 10
31.50181010490125
 20
238.2932831288048
 30
0.0
 10
31.55089379730094
 20
238.2871820062012
 30
0.0
 10
31.59751657799193
 20
238.2832983865238
 30
0.0
 10
31.64106220401683
 20
238.2810387509317
 30
0.0
 10
31.68609670066158
 20
238.2799735870663
 30
0.0
 10
31.7351421497646
 20
238.2800581699597
 30
0.0
 10
31.78845581513396
 20
238.2814617074303
 30
0.0
 10
31.84631694917079
 20
238.2843394638045
 30
0.0
 10
31.90615105442017
 20
238.2885504990603
 30
0.0
 10
31.96794416094546
 20
238.2940237979879
 30
0.0
 10
32.03167719641829
 20
238.3006902519759
 30
0.0
 10
32.09734399338343
 20
238.308481191336
 30
0.0
 10
32.1649309645754
 20
238.317329262341
 30
0.0
 10
32.23442047090229
 20
238.3271702655471
 30
0.0
 10
32.30576731156917
 20
238.3379346079521
 30
0.0
 10
32.37895517882311
 20
238.3495575414141
 30
0.0
 10
32.45396449055804
 20
238.3619784291233
 30
0.0
 10
32.5307931973315
 20
238.3751390091241
 30
0.0
 10
32.6094263182564
 20
238.3889797040358
 30
0.0
 10
32.68984592509905
 20
238.4034452268096
 30
0.0
 10
32.77200591972457
 20
238.4184744843766
 30
0.0
 10
32.85588918826537
 20
238.4340117595531
 30
0.0
 10
32.94147593111053
 20
238.4500058560223
 30
0.0
 10
33.0286517753125
 20
238.4663874927692
 30
0.0
 10
33.11739327872576
 20
238.4831043119788
 30
0.0
 10
33.20767466587473
 20
238.5001088493761
 30
0.0
 10
33.29956649600125
 20
238.5173717455387
 30
0.0
 10
33.3930506329774
 20
238.5348466992425
 30
0.0
 10
33.48810628754327
 20
238.5524916494286
 30
0.0
 10
33.58473582689773
 20
238.5702687187779
 30
0.0
 10
33.68292140175502
 20
238.588135712438
 30
0.0
 10
33.78264233818087
 20
238.6060544268423
 30
0.0
 10
33.88385158608477
 20
238.6239820488724
 30
0.0
 10
33.98652863958333
 20
238.6418799901603
 30
0.0
 10
34.0906501224033
 20
238.6597136031458
 30
0.0
 10
34.1962185749055
 20
238.6774526952065
 30
0.0
 10
34.30321297018709
 20
238.6950620462227
 30
0.0
 10
34.41160922080587
 20
238.7125101769838
 30
0.0
 10
34.5213566668239
 20
238.7297617166212
 30
0.0
 10
34.63243114301707
 20
238.7467847622056
 30
0.0
 10
34.74480545527462
 20
238.7635511258379
 30
0.0
 10
34.86049574831475
 20
238.7803292258522
 30
0.0
 10
34.97954954097072
 20
238.7970693101729
 30
0.0
 10
35.10200563030776
 20
238.813720491886
 30
0.0
 10
35.22578559726838
 20
238.829966291314
 30
0.0
 10
35.35085590910442
 20
238.8457763338391
 30
0.0
 10
35.47717925035116
 20
238.8611246431462
 30
0.0
 10
35.60558341673587
 20
238.8760864956662
 30
0.0
 10
35.73605705205868
 20
238.8906222956615
 30
0.0
 10
35.86858175828611
 20
238.9046953028537
 30
0.0
 10
36.00225512101873
 20
238.9181862200695
 30
0.0
 10
36.13703475164754
 20
238.9310697825479
 30
0.0
 10
36.27287445009522
 20
238.9433253648919
 30
0.0
 10
36.41064164401073
 20
238.9550104566211
 30
0.0
 10
36.55030994233555
 20
238.9660871814106
 30
0.0
 10
36.69184546243762
 20
238.9765211671217
 30
0.0
 10
36.83429161060335
 20
238.9862230701488
 30
0.0
 10
36.9775961055842
 20
238.995173105838
 30
0.0
 10
37.12170311339396
 20
239.0033564935216
 30
0.0
 10
37.25922423635302
 20
239.010384324947
 30
0.0
 10
37.39000998269905
 20
239.0163770549999
 30
0.0
 10
37.51400025072351
 20
239.0214561912594
 30
0.0
 10
37.63833793919092
 20
239.0259438240105
 30
0.0
 10
37.7764669705244
 20
239.0302560025267
 30
0.0
 10
37.92840293162899
 20
239.0341363342143
 30
0.0
 10
38.09415152863812
 20
239.0372975485797
 30
0.0
 10
38.26038326830855
 20
239.0393925367352
 30
0.0
 10
38.42701077676409
 20
239.040408345104
 30
0.0
 10
38.59394468463607
 20
239.0403401202267
 30
0.0
 10
38.76010666112893
 20
239.0391913332916
 30
0.0
 10
38.92540835784379
 20
239.036977435384
 30
0.0
 10
39.08976656472822
 20
239.033721582947
 30
0.0
 10
39.25407540568718
 20
239.0294131408251
 30
0.0
 10
39.41824688196237
 20
239.0240510910411
 30
0.0
 10
39.58219312963688
 20
239.0176424661075
 30
0.0
 10
39.73518359386221
 20
239.0106800382305
 30
0.0
 10
39.87726448177293
 20
239.0033889052355
 30
0.0
 10
40.00852348970795
 20
238.9959738825336
 30
0.0
 10
40.13940018078582
 20
238.9879046477135
 30
0.0
 10
40.26984854403817
 20
238.9791876332421
 30
0.0
 10
40.39982364837044
 20
238.9698329164499
 30
0.0
 10
40.52931894467292
 20
238.9598482955312
 30
0.0
 10
40.65828809861083
 20
238.9492425259953
 30
0.0
 10
40.78668630002452
 20
238.9380282337926
 30
0.0
 10
40.91443262400779
 20
238.9262223549041
 30
0.0
 10
41.04148214584032
 20
238.9138374982892
 30
0.0
 10
41.16779196423161
 20
238.9008902870104
 30
0.0
 10
41.2933553324837
 20
238.8873941210867
 30
0.0
 10
41.4181274857012
 20
238.8733645628597
 30
0.0
 10
41.54206585177
 20
238.858821437516
 30
0.0
 10
41.66509403097783
 20
238.8437896372482
 30
0.0
 10
41.78716936523727
 20
238.8282890532872
 30
0.0
 10
41.90825176864655
 20
238.8123440001104
 30
0.0
 10
42.02834041733733
 20
238.7959740702798
 30
0.0
 10
42.14739271552668
 20
238.7792028237781
 30
0.0
 10
42.26536867550867
 20
238.762058565641
 30
0.0
 10
42.38219232319777
 20
238.7445758835121
 30
0.0
 10
42.49782367129334
 20
238.7267833249063
 30
0.0
 10
42.61222559086956
 20
238.7087143695034
 30
0.0
 10
42.72539391486273
 20
238.6903977320686
 30
0.0
 10
42.83728856157706
 20
238.6718666863575
 30
0.0
 10
42.94787223669697
 20
238.6531598476942
 30
0.0
 10
43.05707926418712
 20
238.6343214690405
 30
0.0
 10
43.16487190120119
 20
238.6153905399943
 30
0.0
 10
43.27121529551312
 20
238.5964116601272
 30
0.0
 10
43.3761055645676
 20
238.577424300513
 30
0.0
 10
43.47950410677755
 20
238.5584735481931
 30
0.0
 10
43.58137506364258
 20
238.539610647438
 30
0.0
 10
43.68165888578557
 20
238.5208918161608
 30
0.0
 10
43.78031862405872
 20
238.502368979032
 30
0.0
 10
43.8773201393162
 20
238.4841005683148
 30
0.0
 10
43.97314388453317
 20
238.4660484134344
 30
0.0
 10
44.06771837991005
 20
238.4482793430001
 30
0.0
 10
44.16097283042018
 20
238.4308705864275
 30
0.0
 10
44.25238024279606
 20
238.4139844788828
 30
0.0
 10
44.34190009837938
 20
238.3976926402302
 30
0.0
 10
44.42949501765115
 20
238.3820746456315
 30
0.0
 10
44.51517136774915
 20
238.3672025170829
 30
0.0
 10
44.59888350210786
 20
238.3531595180279
 30
0.0
 10
44.68058914435662
 20
238.3400374945132
 30
0.0
 10
44.76022261864912
 20
238.3279313697273
 30
0.0
 10
44.83773844792313
 20
238.3169350609911
 30
0.0
 10
44.91309555637207
 20
238.3071505611885
 30
0.0
 10
44.98629549466968
 20
238.2986742125329
 30
0.0
 10
45.05728591994026
 20
238.2916146872922
 30
0.0
 10
45.12602026130279
 20
238.2860880360394
 30
0.0
 10
45.19243810828635
 20
238.2822089489873
 30
0.0
 10
45.25648701375643
 20
238.2800974068828
 30
0.0
 10
45.31812312671578
 20
238.2798775381486
 30
0.0
 10
45.37225453887903
 20
238.2815181738086
 30
0.0
 10
45.41954437367923
 20
238.2845567531738
 30
0.0
 10
45.46062680572656
 20
238.2885313286318
 30
0.0
 10
45.50025398021015
 20
238.293800465978
 30
0.0
 10
45.54274049057409
 20
238.3011649162338
 30
0.0
 10
45.58740273537827
 20
238.311281573324
 30
0.0
 10
45.63347561544327
 20
238.3249502759535
 30
0.0
 10
45.67690692909546
 20
238.3413852904974
 30
0.0
 10
45.71764610208716
 20
238.3607277002446
 30
0.0
 10
45.75566710327074
 20
238.3830972474978
 30
0.0
 10
45.78799488251356
 20
238.4064726166416
 30
0.0
 10
45.81536725681061
 20
238.4301048874306
 30
0.0
 10
45.83847618994037
 20
238.4532924179806
 30
0.0
 10
45.85998988672402
 20
238.4783819431349
 30
0.0
 10
45.87978151767221
 20
238.5052261328956
 30
0.0
 10
45.8978795400077
 20
238.5337918032479
 30
0.0
 10
45.91434411706577
 20
238.5640723635914
 30
0.0
 10
45.9293031457044
 20
238.59628242203
 30
0.0
 10
45.9443111388698
 20
238.6343383730965
 30
0.0
 10
45.95871903499427
 20
238.6790890492359
 30
0.0
 10
45.97184302685859
 20
238.7314839824554
 30
0.0
 10
45.98243198487169
 20
238.7875066330704
 30
0.0
 10
45.99051576619089
 20
238.8471883855023
 30
0.0
 10
45.9961563449035
 20
238.9105052386259
 30
0.0
 10
45.99914613254442
 20
238.9717959055745
 30
0.0
 10
46.00017762605133
 20
239.0301249351996
 30
0.0
 10
45.99983643981
 20
239.0846776074193
 30
0.0
 10
45.99825942184547
 20
239.1410357522054
 30
0.0
 10
45.99553634013058
 20
239.1978659672541
 30
0.0
 10
45.99178314231033
 20
239.2548910687419
 30
0.0
 10
45.98710109381473
 20
239.3119160584671
 30
0.0
 10
45.98143522939483
 20
239.3700163994635
 30
0.0
 10
45.97401037089845
 20
239.4361561519934
 30
0.0
 10
45.96441318545959
 20
239.5106090486116
 30
0.0
 10
45.95218030461513
 20
239.5935889862093
 30
0.0
 10
45.93593301581726
 20
239.6917901407988
 30
0.0
 10
45.9145883690869
 20
239.8056028177678
 30
0.0
 10
45.88648448500886
 20
239.9367580275076
 30
0.0
 10
45.85414255985265
 20
240.0703558887508
 30
0.0
 10
45.82139600218511
 20
240.1907504862846
 30
0.0
 10
45.79003206934686
 20
240.2957790096736
 30
0.0
 10
45.76123081002876
 20
240.3854053865013
 30
0.0
 10
45.73015460209837
 20
240.4753093720301
 30
0.0
 10
45.6966801829217
 20
240.5652507236658
 30
0.0
 10
45.66065071388658
 20
240.6549509048729
 30
0.0
 10
45.62229035874984
 20
240.7433219388328
 30
0.0
 10
45.58150973535764
 20
240.8300994279491
 30
0.0
 10
45.53819347861488
 20
240.9149891681987
 30
0.0
 10
45.49483855094387
 20
240.9930004134837
 30
0.0
 10
45.45184415479514
 20
241.0642999299845
 30
0.0
 10
45.40960407891425
 20
241.1291414457768
 30
0.0
 10
45.36527823857766
 20
241.1919116322791
 30
0.0
 10
45.31878846736399
 20
241.2523862965772
 30
0.0
 10
45.27006004979297
 20
241.310337504717
 30
0.0
 10
45.21900227782442
 20
241.3655655263864
 30
0.0
 10
45.16553857073403
 20
241.417811677253
 30
0.0
 10
45.10961248751751
 20
241.4668352372102
 30
0.0
 10
45.05111781847017
 20
241.5124736621636
 30
0.0
 10
44.98998002951122
 20
241.5543832373502
 30
0.0
 10
44.92619978631478
 20
241.5924621214292
 30
0.0
 10
44.86485996001966
 20
241.6240852397128
 30
0.0
 10
44.80656815218785
 20
241.6502144197149
 30
0.0
 10
44.75186574017949
 20
241.6717828447728
 30
0.0
 10
44.69567692355486
 20
241.6911107709806
 30
0.0
 10
44.63801861906997
 20
241.7082344145461
 30
0.0
 10
44.57891853051353
 20
241.7232092524422
 30
0.0
 10
44.51826803173491
 20
241.7361241542738
 30
0.0
 10
44.45607766343939
 20
241.7470159353462
 30
0.0
 10
44.39236755962879
 20
241.7559384925795
 30
0.0
 10
44.3273302032412
 20
241.7629327125528
 30
0.0
 10
44.26100115773885
 20
241.7680848180105
 30
0.0
 10
44.19336729383934
 20
241.7714106534775
 30
0.0
 10
44.13533313868379
 20
241.7729362496927
 30
0.0
 10
44.09956452436923
 20
241.7729597198008
 30
0.0
 10
44.08707923854893
 20
241.7729679122067
 30
0.0
  0
SPLINE
  5
C6
330
1F
100
AcDbEntity
  8
0
  6
Continuous
 62
     7
370
    30
100
AcDbSpline
210
0.0
220
0.0
230
1.0
 70
     8
 71
     3
 72
    78
 73
    74
 74
     0
 42
0.000000001
 43
0.00000001
 40
0.0
 40
0.0
 40
0.0
 40
0.0
 40
0.0099242650529901
 40
0.0198485296810734
 40
0.0297891737422737
 40
0.0397298165179531
 40
0.0530636494280304
 40
0.066399971199446
 40
0.0797337749363319
 40
0.0931593572439539
 40
0.1065875216538307
 40
0.1200130546349155
 40
0.1301479262607141
 40
0.1402827921695437
 40
0.1504361178234899
 40
0.1605894372058581
 40
0.1772670415442025
 40
0.1939657941550504
 40
0.2102154397248692
 40
0.226465048661625
 40
0.2427961044924165
 40
0.2591271384161651
 40
0.2746801327691819
 40
0.2902331295458713
 40
0.3058584460407518
 40
0.3214837914489773
 40
0.3311043731985177
 40
0.3407249624733087
 40
0.3503619485901655
 40
0.3599989448234702
 40
0.3729249295733112
 40
0.3858532994986009
 40
0.3987794368735056
 40
0.4117864732311224
 40
0.4247957326034898
 40
0.4378029614108669
 40
0.447609739404167
 40
0.4574165362876123
 40
0.4672362657685813
 40
0.4770560142899421
 40
0.495480813172941
 40
0.5139058383837414
 40
0.5324005596249388
 40
0.5508954841721062
 40
0.5695023286034893
 40
0.5881093435233778
 40
0.6067695267182643
 40
0.6254298382995271
 40
0.6441616396939595
 40
0.6628935235371537
 40
0.6816688883775069
 40
0.700444285297532
 40
0.717183455473592
 40
0.7339226129697881
 40
0.7506918999045075
 40
0.767461139186342
 40
0.7841387823884316
 40
0.8008163398092949
 40
0.8175297225202255
 40
0.8342429723514838
 40
0.8507565430905099
 40
0.8672699354389201
 40
0.8838324402500597
 40
0.9003947048812482
 40
0.9168693191588743
 40
0.9333603124972961
 40
0.9432387260566815
 40
0.953117125703915
 40
0.9630110858709524
 40
0.9729050332866332
 40
0.9861751488600465
 40
0.9994477433563097
 40
1.0
 40
1.0
 40
1.0
 40
1.0
 10
38.5000000000096
 20
241.550130439071
 30
0.0
 10
38.52372897209544
 20
241.5500817779157
 30
0.0
 10
38.57118691525117
 20
241.5499844556072
 30
0.0
 10
38.64238370429769
 20
241.5491954303627
 30
0.0
 10
38.71356108529663
 20
241.5479323998922
 30
0.0
 10
38.79278209147098
 20
241.5459400695674
 30
0.0
 10
38.87993482520524
 20
241.5430002221468
 30
0.0
 10
38.97488099613298
 20
241.538831203755
 30
0.0
 10
39.06968913260305
 20
241.533672187628
 30
0.0
 10
39.1642826417746
 20
241.5274902674559
 30
0.0
 10
39.25858388480184
 20
241.5202426622868
 30
0.0
 10
39.34464628683783
 20
241.5125888755342
 30
0.0
 10
39.42256006194174
 20
241.5047909517993
 30
0.0
 10
39.49249957833349
 20
241.4970903595567
 30
0.0
 10
39.56203941475129
 20
241.4887056799846
 30
0.0
 10
39.64594677421726
 20
241.4776695100603
 30
0.0
 10
39.74374785375654
 20
241.4633210052357
 30
0.0
 10
39.85373431007488
 20
241.444950144726
 30
0.0
 10
39.96115009621312
 20
241.424681537422
 30
0.0
 10
40.06604314624423
 20
241.402478270656
 30
0.0
 10
40.16924639574311
 20
241.3780660105014
 30
0.0
 10
40.26901415478049
 20
241.3517987073376
 30
0.0
 10
40.36515927684592
 20
241.3237816919346
 30
0.0
 10
40.45784399912789
 20
241.2940636579102
 30
0.0
 10
40.54853181491232
 20
241.2621403796468
 30
0.0
 10
40.62578099349648
 20
241.2323689886529
 30
0.0
 10
40.69028632336616
 20
241.2056633442816
 30
0.0
 10
40.74282035867051
 20
241.1827226373437
 30
0.0
 10
40.79447361429992
 20
241.1589488855228
 30
0.0
 10
40.85100639032225
 20
241.1315504541109
 30
0.0
 10
40.91197110746901
 20
241.1001899239966
 30
0.0
 10
40.97687734460676
 20
241.0645012516114
 30
0.0
 10
41.04018982277503
 20
241.027344217144
 30
0.0
 10
41.10187676316435
 20
240.9887370220049
 30
0.0
 10
41.16192264671496
 20
240.9487189007157
 30
0.0
 10
41.21541679679234
 20
240.9108020279415
 30
0.0
 10
41.26282671024811
 20
240.8753655851329
 30
0.0
 10
41.30459890267067
 20
240.8427108550374
 30
0.0
 10
41.34538572409924
 20
240.8093820300254
 30
0.0
 10
41.39681752679906
 20
240.7654787569307
 30
0.0
 10
41.45761348211656
 20
240.7102532710821
 30
0.0
 10
41.52625074122244
 20
240.6427823836889
 30
0.0
 10
41.5915585520578
 20
240.5734052091834
 30
0.0
 10
41.65370919404985
 20
240.5021544650752
 30
0.0
 10
41.71266101751832
 20
240.4292800720916
 30
0.0
 10
41.76850975157718
 20
240.3548870440456
 30
0.0
 10
41.82119229636171
 20
240.2792953049709
 30
0.0
 10
41.87082145708317
 20
240.2025880518055
 30
0.0
 10
41.91739253274325
 20
240.1250118120265
 30
0.0
 10
41.9609730626541
 20
240.0466874701655
 30
0.0
 10
42.00154131155702
 20
239.9678934022941
 30
0.0
 10
42.03776044200062
 20
239.8916743607456
 30
0.0
 10
42.06999245731304
 20
239.8182823760339
 30
0.0
 10
42.09861006035077
 20
239.7478157485595
 30
0.0
 10
42.12486772965159
 20
239.6775526458082
 30
0.0
 10
42.14870655154398
 20
239.6077659719428
 30
0.0
 10
42.1701126450974
 20
239.5386419046558
 30
0.0
 10
42.18908693717973
 20
239.4702820684522
 30
0.0
 10
42.20563100386669
 20
239.4027204567219
 30
0.0
 10
42.21963572344331
 20
239.3363945194323
 30
0.0
 10
42.23107331381289
 20
239.2715128344392
 30
0.0
 10
42.23992366952587
 20
239.2081780714946
 30
0.0
 10
42.2461547774629
 20
239.1463267060256
 30
0.0
 10
42.24966883367198
 20
239.0862718814179
 30
0.0
 10
42.25038899958807
 20
239.0282669957272
 30
0.0
 10
42.24852178999451
 20
238.9799465438026
 30
0.0
 10
42.24520003469846
 20
238.9403526560907
 30
0.0
 10
42.24139978741348
 20
238.9087628787989
 30
0.0
 10
42.23647914484463
 20
238.8779781648301
 30
0.0
 10
42.22978951533727
 20
238.8445575305634
 30
0.0
 10
42.22054428618866
 20
238.8090833711024
 30
0.0
 10
42.21287868157791
 20
238.7832813035583
 30
0.0
 10
42.20795900739582
 20
238.7708406132421
 30
0.0
 10
42.2077624828384
 20
238.7703436492017
 30
0.0
  0
SPLINE
  5
C7
330
1F
100
AcDbEntity
  8
0
  6
Continuous
 62
     7
370
    30
100
AcDbSpline
210
0.0
220
0.0
230
1.0
 70
     8
 71
     3
 72
    83
 73
    79
 74
     0
 42
0.000000001
 43
0.00000001
 40
0.0
 40
0.0
 40
0.0
 40
0.0
 40
0.0025370074510951
 40
0.0156049726702197
 40
0.0286705784881173
 40
0.0418217572050924
 40
0.0549753035662203
 40
0.0681266296079533
 40
0.0780459667486996
 40
0.0879653191377514
 40
0.0978989557202654
 40
0.1078326279404543
 40
0.1221666431698963
 40
0.1365007868497999
 40
0.150867623001913
 40
0.165234559816626
 40
0.1796795946243355
 40
0.1941247059475102
 40
0.2085943242292946
 40
0.2230639964235938
 40
0.2376265357274493
 40
0.2521891096933532
 40
0.2667722211828379
 40
0.281355349223774
 40
0.2960083121431494
 40
0.3106612751115083
 40
0.3253341502535523
 40
0.3400070097728913
 40
0.3574958132038762
 40
0.3749845523382258
 40
0.3925112141539856
 40
0.4100377767371012
 40
0.4274899018877736
 40
0.4449418976817176
 40
0.4624421994268915
 40
0.4799423418919546
 40
0.4972609014543575
 40
0.5145792874625549
 40
0.5319604689712911
 40
0.549341463922763
 40
0.5666455747128262
 40
0.5839686422578239
 40
0.5937424029894435
 40
0.6035161469457608
 40
0.6133051709647478
 40
0.623094179834638
 40
0.6362235532344996
 40
0.6493553870437211
 40
0.6624846283416266
 40
0.6757077889477691
 40
0.6889336284244314
 40
0.7021567175367959
 40
0.7121423402186122
 40
0.7221279607264692
 40
0.7321326837173422
 40
0.7421374071599681
 40
0.7519142177816877
 40
0.7616910307887628
 40
0.7714856624874582
 40
0.7812802980838671
 40
0.794425049281629
 40
0.8075724648830944
 40
0.8207172752075574
 40
0.8339568524798154
 40
0.8471990723083765
 40
0.8604387141021721
 40
0.8704332040760535
 40
0.8804276994402768
 40
0.8904396886706263
 40
0.9004516826497093
 40
0.9128454130319441
 40
0.9252391524491222
 40
0.9376654300027423
 40
0.9500917141299446
 40
0.9625525165903225
 40
0.975013323041923
 40
0.9875066608493953
 40
1.0
 40
1.0
 40
1.0
 40
1.0
 10
34.79237790876267
 20
238.7703705424051
 30
0.0
 10
34.79148914724386
 20
238.7726636792475
 30
0.0
 10
34.78602243124924
 20
238.7867686191993
 30
0.0
 10
34.77799317345383
 20
238.8141323105288
 30
0.0
 10
34.76833559348169
 20
238.8526051894107
 30
0.0
 10
34.76084981102125
 20
238.8927615068759
 30
0.0
 10
34.75527113269194
 20
238.934415533814
 30
0.0
 10
34.75193353632565
 20
238.9739712653873
 30
0.0
 10
34.75027491549243
 20
239.0110163222857
 30
0.0
 10
34.74983044810582
 20
239.04522804088
 30
0.0
 10
34.75041826943527
 20
239.0802215704805
 30
0.0
 10
34.75225574355709
 20
239.1212230491213
 30
0.0
 10
34.75590069426312
 20
239.1685602751368
 30
0.0
 10
34.7619783374863
 20
239.2225916981545
 30
0.0
 10
34.77002671834419
 20
239.2777945589321
 30
0.0
 10
34.78002464995797
 20
239.3341489728049
 30
0.0
 10
34.79193619812982
 20
239.3914990554105
 30
0.0
 10
34.80574715777681
 20
239.4497685128096
 30
0.0
 10
34.82140806576346
 20
239.5087440677174
 30
0.0
 10
34.83893690255812
 20
239.568449163259
 30
0.0
 10
34.85831731720111
 20
239.6287513090168
 30
0.0
 10
34.87956004168648
 20
239.6895833945039
 30
0.0
 10
34.90261578385557
 20
239.7507199472331
 30
0.0
 10
34.92752442344005
 20
239.8121659161351
 30
0.0
 10
34.9542839482209
 20
239.8738004887575
 30
0.0
 10
34.9829238853056
 20
239.9355616336612
 30
0.0
 10
35.01341231845505
 20
239.9972607090866
 30
0.0
 10
35.04783668631624
 20
240.0627465202424
 30
0.0
 10
35.08664043807926
 20
240.1318396787281
 30
0.0
 10
35.13036785748128
 20
240.2043763474357
 30
0.0
 10
35.17686472798479
 20
240.2762861575089
 30
0.0
 10
35.22611701112848
 20
240.3473188306972
 30
0.0
 10
35.27812680594536
 20
240.4172744835264
 30
0.0
 10
35.33298486279159
 20
240.4860749182209
 30
0.0
 10
35.39082880870269
 20
240.5536621810097
 30
0.0
 10
35.45151199256986
 20
240.619655837211
 30
0.0
 10
35.51499819058697
 20
240.6838571450013
 30
0.0
 10
35.58137637992734
 20
240.7462213432785
 30
0.0
 10
35.6509249784457
 20
240.8068161056253
 30
0.0
 10
35.72358055058094
 20
240.8654149749954
 30
0.0
 10
35.79929690331006
 20
240.9218379964784
 30
0.0
 10
35.86662661308212
 20
240.9681077604396
 30
0.0
 10
35.92427914767391
 20
241.0052295485162
 30
0.0
 10
35.97114988795219
 20
241.0340035920966
 30
0.0
 10
36.01904136322919
 20
241.062010492842
 30
0.0
 10
36.073510954396
 20
241.0923318288533
 30
0.0
 10
36.13496508122172
 20
241.1245831981595
 30
0.0
 10
36.20385781527212
 20
241.1583363353492
 30
0.0
 10
36.27463426129355
 20
241.1906588889566
 30
0.0
 10
36.34728077886032
 20
241.2215128334119
 30
0.0
 10
36.42176300713164
 20
241.2508858557987
 30
0.0
 10
36.49165338071079
 20
241.2764319981718
 30
0.0
 10
36.55648000691223
 20
241.2985608085326
 30
0.0
 10
36.61589161718926
 20
241.3176628082359
 30
0.0
 10
36.67618846406769
 20
241.3358986209297
 30
0.0
 10
36.73688055926819
 20
241.353144434578
 30
0.0
 10
36.79788168719716
 20
241.3694203846007
 30
0.0
 10
36.85918087378592
 20
241.3847707084761
 30
0.0
 10
36.9212234781476
 20
241.3993308022312
 30
0.0
 10
36.99113654188671
 20
241.4146854216472
 30
0.0
 10
37.06914838563612
 20
241.4305024904611
 30
0.0
 10
37.15550086435389
 20
241.4464384609718
 30
0.0
 10
37.24309109914707
 20
241.4611011468675
 30
0.0
 10
37.33185781967541
 20
241.4745197344173
 30
0.0
 10
37.4217321912728
 20
241.4867296885206
 30
0.0
 10
37.50501966538857
 20
241.4968424667498
 30
0.0
 10
37.58144001588406
 20
241.5052066991491
 30
0.0
 10
37.65083283765654
 20
241.5121178955273
 30
0.0
 10
37.72063081275702
 20
241.5184087697649
 30
0.0
 10
37.79636715925076
 20
241.524545010574
 30
0.0
 10
37.87806152316351
 20
241.5303629806102
 30
0.0
 10
37.96582803139656
 20
241.5357005477046
 30
0.0
 10
38.05401891696859
 20
241.5401821552496
 30
0.0
 10
38.14265828146565
 20
241.5438269090195
 30
0.0
 10
38.23161196546928
 20
241.5466520707125
 30
0.0
 10
38.32089976976925
 20
241.5486497731042
 30
0.0
 10
38.41038184625567
 20
241.5498991947255
 30
0.0
 10
38.4701272810211
 20
241.5500533576198
 30
0.0
 10
38.5000000000096
 20
241.5501304390711
 30
0.0
  0
LINE
  5
C8
330
1F
100
AcDbEntity
  8
0
  6
Continuous
 62
     7
370
    30
100
AcDbLine
 10
27.3721358909
 20
186.0908374948
 30
0.0
 11
49.6278641091
 21
186.0908374948
 31
0.0
  0
LINE
  5
C9
330
1F
100
AcDbEntity
  8
0
  6
Continuous
 62
     7
370
    30
100
AcDbLine
 10
38.5
 20
216.0908374948
 30
0.0
 11
28.6288025576
 21
216.0908374948
 31
0.0
  0
LINE
  5
CA
330
1F
100
AcDbEntity
  8
0
  6
Continuous
 62
     7
370
    30
100
AcDbLine
 10
48.3711974424
 20
216.0908374948
 30
0.0
 11
38.5
 21
216.0908374948
 31
0.0
  0
LINE
  5
CB
330
1F
100
AcDbEntity
  8
0
  6
Continuous
 62
     7
370
    30
100
AcDbLine
 10
38.5
 20
309.9091625052
 30
0.0
 11
49.6278641091
 21
309.9091625052
 31
0.0
  0
LINE
  5
CC
330
1F
100
AcDbEntity
  8
0
  6
Continuous
 62
     7
370
    30
100
AcDbLine
 10
27.3721358909
 20
309.9091625052
 30
0.0
 11
38.5
 21
309.9091625052
 31
0.0
  0
LINE
  5
CD
330
1F
100
AcDbEntity
  8
0
  6
Continuous
 62
     7
370
    30
100
AcDbLine
 10
48.3711974424
 20
279.9091625052
 30
0.0
 11
28.6288025576
 21
279.9091625052
 31
0.0
  0
SPLINE
  5
CE
330
1F
100
AcDbEntity
  8
0
  6
Continuous
 62
     7
370
    30
100
AcDbSpline
210
0.0
220
0.0
230
1.0
 70
     8
 71
     3
 72
   105
 73
   101
 74
     0
 42
0.000000001
 43
0.00000001
 40
0.0
 40
0.0
 40
0.0
 40
0.0
 40
0.0096309340609009
 40
0.0192618688146559
 40
0.0289056723336617
 40
0.0385494779150951
 40
0.0513788479726977
 40
0.0642100980048489
 40
0.0770395111303132
 40
0.0899354517235271
 40
0.1028332416406215
 40
0.1157292478679412
 40
0.1285447203402422
 40
0.141361922409217
 40
0.1541774703057767
 40
0.1670529665772129
 40
0.1799301174761369
 40
0.192805690745816
 40
0.2031534396935956
 40
0.213501997561956
 40
0.223849774405639
 40
0.2342258071591001
 40
0.2446026201095635
 40
0.2549786736208511
 40
0.265623330137171
 40
0.2762688015544426
 40
0.2869134685968819
 40
0.2975872647506994
 40
0.3082618710208311
 40
0.3189356601811835
 40
0.3298822433318188
 40
0.3408297132356498
 40
0.351776262101614
 40
0.362756219761793
 40
0.3737371213548951
 40
0.3847170080380666
 40
0.3990859083094408
 40
0.4062753532992703
 40
0.4134647915914888
 40
0.4229775455478877
 40
0.4324910639203553
 40
0.4420037232033051
 40
0.4515475484464915
 40
0.4610922735314085
 40
0.4706359664128321
 40
0.4800582321185614
 40
0.4894815330328388
 40
0.4989036335235514
 40
0.5083693178517885
 40
0.5178362737295843
 40
0.5273017490324466
 40
0.5339807195382026
 40
0.5406596734239233
 40
0.5473478571406201
 40
0.5540360233434789
 40
0.5629997112630729
 40
0.5719649616716227
 40
0.5809284483786745
 40
0.5899558680556665
 40
0.5989851485330885
 40
0.6080123825076011
 40
0.614831097921507
 40
0.6216497997582525
 40
0.6284833277889222
 40
0.6353168634380307
 40
0.644217645937667
 40
0.6531204062336063
 40
0.6620215059959575
 40
0.67098285540515
 40
0.6799458027096901
 40
0.6889074694613376
 40
0.6979175782002015
 40
0.70692890054986
 40
0.7159392837190112
 40
0.7249838936462026
 40
0.7340293825291155
 40
0.7430742071141674
 40
0.7510221679669025
 40
0.7589701570460112
 40
0.7669238918165576
 40
0.7748776493043606
 40
0.7908048101736008
 40
0.8067322184746529
 40
0.8226851884058649
 40
0.8386382739050523
 40
0.8546094460499206
 40
0.8705806142037634
 40
0.8865707654393777
 40
0.9025607855742048
 40
0.9132642430955893
 40
0.9239681958530129
 40
0.9346714501525129
 40
0.9454003103567832
 40
0.9561299512143293
 40
0.9668584518552582
 40
0.9749460558898393
 40
0.9830336125172234
 40
0.9911315017140524
 40
0.9992293317857559
 40
0.9999999999999999
 40
0.9999999999999999
 40
0.9999999999999999
 40
0.9999999999999999
 10
38.50000000000001
 20
254.9242935491786
 30
0.0
 10
38.54045139367764
 20
254.924194121931
 30
0.0
 10
38.62135418394299
 20
254.9239952674284
 30
0.0
 10
38.7427218434192
 20
254.9223891896527
 30
0.0
 10
38.864062551198
 20
254.9198268550918
 30
0.0
 10
38.99868834206371
 20
254.915824648329
 30
0.0
 10
39.14644777047554
 20
254.9099859446481
 30
0.0
 10
39.30716028810613
 20
254.9018541125527
 30
0.0
 10
39.46768081400146
 20
254.8919788195242
 30
0.0
 10
39.62791533089742
 20
254.8803836058943
 30
0.0
 10
39.78777463690729
 20
254.867120426318
 30
0.0
 10
39.94656730116252
 20
254.8522996873833
 30
0.0
 10
40.1042154692185
 20
254.8359909523261
 30
0.0
 10
40.26065122630334
 20
254.8182861656678
 30
0.0
 10
40.41637369695489
 20
254.7992001371837
 30
0.0
 10
40.57130553221534
 20
254.7788034269824
 30
0.0
 10
40.72537651566209
 20
254.7571890867928
 30
0.0
 10
40.86827714966879
 20
254.7359721308993
 30
0.0
 10
41.00020542858086
 20
254.7154655232754
 30
0.0
 10
41.12137994777592
 20
254.6959237995036
 30
0.0
 10
41.24181514359255
 20
254.6758433682687
 30
0.0
 10
41.36148039481193
 20
254.6552813604959
 30
0.0
 10
41.48034776895758
 20
254.6343031270585
 30
0.0
 10
41.59930114446541
 20
254.6128099743236
 30
0.0
 10
41.71828671048664
 20
254.5908599161876
 30
0.0
 10
41.83725049548777
 20
254.5685248942411
 30
0.0
 10
41.95526642265903
 20
254.5460505598373
 30
0.0
 10
42.07230623596374
 20
254.523516532926
 30
0.0
 10
42.18834377000874
 20
254.5010124422255
 30
0.0
 10
42.3042279168024
 20
254.4784582326632
 30
0.0
 10
42.41989999941214
 20
254.4559505415087
 30
0.0
 10
42.53530006323129
 20
254.4336046652036
 30
0.0
 10
42.64954962058592
 20
254.4116957384963
 30
0.0
 10
42.76261643540499
 20
254.3903348312847
 30
0.0
 10
42.87446947879825
 20
254.3696473581101
 30
0.0
 10
42.99633168701041
 20
254.3477347956599
 30
0.0
 10
43.10389617355975
 20
254.3291868296277
 30
0.0
 10
43.19770024658727
 20
254.3137643535573
 30
0.0
 10
43.27496872438601
 20
254.3015259735893
 30
0.0
 10
43.35885924419372
 20
254.2888913933533
 30
0.0
 10
43.44905002048051
 20
254.2762220113851
 30
0.0
 10
43.53817746182027
 20
254.2647266805416
 30
0.0
 10
43.62620738893422
 20
254.2545130467612
 30
0.0
 10
43.71310564982915
 20
254.2456983802647
 30
0.0
 10
43.79838054372615
 20
254.23843798629
 30
0.0
 10
43.88201435671361
 20
254.2328229879208
 30
0.0
 10
43.9639920898432
 20
254.2289463887469
 30
0.0
 10
44.04475788122785
 20
254.2268989250179
 30
0.0
 10
44.12426144471956
 20
254.2268121300179
 30
0.0
 10
44.20245444717678
 20
254.2288202963565
 30
0.0
 10
44.27164231466239
 20
254.2326337171542
 30
0.0
 10
44.33224982672994
 20
254.2376406303329
 30
0.0
 10
44.38470561830231
 20
254.2432503858745
 30
0.0
 10
44.43638907451147
 20
254.2501206361666
 30
0.0
 10
44.49305369272007
 20
254.259222148231
 30
0.0
 10
44.55429733089154
 20
254.2711840293595
 30
0.0
 10
44.61966218193142
 20
254.2867623264175
 30
0.0
 10
44.68359612302582
 20
254.3049862132135
 30
0.0
 10
44.74603539229337
 20
254.3259759755069
 30
0.0
 10
44.80693025485336
 20
254.3498231750852
 30
0.0
 10
44.86126827377084
 20
254.3743705070287
 30
0.0
 10
44.90947095370328
 20
254.3989030488899
 30
0.0
 10
44.95198288370177
 20
254.4227594268307
 30
0.0
 10
44.99348107344261
 20
254.4483647599183
 30
0.0
 10
45.03803674149501
 20
254.4784731682525
 30
0.0
 10
45.08521379439208
 20
254.5136914222196
 30
0.0
 10
45.13456890079518
 20
254.5545880008916
 30
0.0
 10
45.18226829299513
 20
254.5981717179333
 30
0.0
 10
45.22831764152649
 20
254.6443275779718
 30
0.0
 10
45.27273835241674
 20
254.6929169277435
 30
0.0
 10
45.31553879675564
 20
254.7437797722369
 30
0.0
 10
45.35674614367258
 20
254.796784384262
 30
0.0
 10
45.3963938009171
 20
254.8517920849482
 30
0.0
 10
45.43449978010937
 20
254.9086360649205
 30
0.0
 10
45.47110314343336
 20
254.9671832834491
 30
0.0
 10
45.50624184882229
 20
255.0273041270232
 30
0.0
 10
45.53855380424579
 20
255.0863077256032
 30
0.0
 10
45.56827755942006
 20
255.1438951872795
 30
0.0
 10
45.59563200458568
 20
255.1998394332772
 30
0.0
 10
45.62195246714538
 20
255.2565936250852
 30
0.0
 10
45.65572118710827
 20
255.3332917197249
 30
0.0
 10
45.69547441326194
 20
255.4308178049195
 30
0.0
 10
45.73942480010763
 20
255.549960810175
 30
0.0
 10
45.77977718908126
 20
255.6706496426062
 30
0.0
 10
45.81665684548973
 20
255.7924186605681
 30
0.0
 10
45.85015611521677
 20
255.9147002186614
 30
0.0
 10
45.8803435812158
 20
256.0370429176095
 30
0.0
 10
45.90726122651792
 20
256.1588990967419
 30
0.0
 10
45.92829985308655
 20
256.2664248888816
 30
0.0
 10
45.94459356313622
 20
256.359592218205
 30
0.0
 10
45.95709216212322
 20
256.4386958551091
 30
0.0
 10
45.9680875163227
 20
256.516785775152
 30
0.0
 10
45.97755444461438
 20
256.5936741296156
 30
0.0
 10
45.98544756426359
 20
256.6691426841333
 30
0.0
 10
45.99120785914624
 20
256.7368649562499
 30
0.0
 10
45.99522229458162
 20
256.7971038332466
 30
0.0
 10
45.99790284354218
 20
256.8502940777001
 30
0.0
 10
45.99946732715176
 20
256.9020137479907
 30
0.0
 10
46.00015156828585
 20
256.9376025799648
 30
0.0
 10
45.99996720367734
 20
256.9554039884341
 30
0.0
 10
45.99995118248198
 20
256.9569509222254
 30
0.0
  0
SPLINE
  5
CF
330
1F
100
AcDbEntity
  8
0
  6
Continuous
 62
     7
370
    30
100
AcDbSpline
210
0.0
220
0.0
230
1.0
 70
     8
 71
     3
 72
   105
 73
   101
 74
     0
 42
0.000000001
 43
0.00000001
 40
0.0
 40
0.0
 40
0.0
 40
0.0
 40
0.0067704620071101
 40
0.0156217197033426
 40
0.0244730547178539
 40
0.0361030015282285
 40
0.0477345951543133
 40
0.0593650981030776
 40
0.0710360026822762
 40
0.0827078899430145
 40
0.0943791081117691
 40
0.1060486218699732
 40
0.1177187437977135
 40
0.1293883944623352
 40
0.1469190175239696
 40
0.1644496380797712
 40
0.1761185161646437
 40
0.1877878681032312
 40
0.1994566121927671
 40
0.2111476316253493
 40
0.2228393207362959
 40
0.234530051551056
 40
0.2433081583421823
 40
0.2520862261849278
 40
0.2608728464780553
 40
0.2696594178596529
 40
0.2772792174670105
 40
0.284898983847748
 40
0.2925274355279534
 40
0.3001558485704942
 40
0.3103760228586373
 40
0.3205978772687007
 40
0.3308175379559096
 40
0.3411169696850488
 40
0.3514188137471161
 40
0.3617176726042625
 40
0.3695116855403972
 40
0.3773056721265197
 40
0.385121870160452
 40
0.3929380916072649
 40
0.4005690326325019
 40
0.4081999996916316
 40
0.4158498219277031
 40
0.4234996734178882
 40
0.4337805475333226
 40
0.4440640129663356
 40
0.4543452354616819
 40
0.464708100135079
 40
0.4750731589735159
 40
0.4854363541597638
 40
0.4932541668641697
 40
0.5010720062079225
 40
0.5089012362040357
 40
0.5167304899552214
 40
0.5253500942951428
 40
0.5339697288114944
 40
0.5426016225228403
 40
0.551233541822688
 40
0.5627833569166691
 40
0.5743347635154517
 40
0.5858847937662583
 40
0.597485000180422
 40
0.6090865509640613
 40
0.6206868965788545
 40
0.6323136422535077
 40
0.6439415709930566
 40
0.6555683960482437
 40
0.6672353278555363
 40
0.6789033592658789
 40
0.6905703254669314
 40
0.705538615598733
 40
0.720506907705214
 40
0.7355111728596556
 40
0.7505154228492803
 40
0.7606589844796418
 40
0.7708032593921953
 40
0.7809468007148647
 40
0.7911168670781992
 40
0.8012876797750351
 40
0.8114577193714482
 40
0.821773223285652
 40
0.8320895427253887
 40
0.8424050148563664
 40
0.8527511122919754
 40
0.863098074081252
 40
0.8734441390628368
 40
0.8813098577917604
 40
0.8891755735971161
 40
0.89704775594298
 40
0.9049199355685582
 40
0.9154467759212533
 40
0.9259746105765351
 40
0.9365014255427783
 40
0.9470650892716063
 40
0.9576297896782562
 40
0.9681934367432873
 40
0.9761414644100277
 40
0.9840894912873478
 40
0.99204474577699
 40
0.9999999999999999
 40
0.9999999999999999
 40
0.9999999999999999
 40
0.9999999999999999
 10
31.00011252876035
 20
256.956823984237
 30
0.0
 10
31.0001393245833
 20
256.9429867850629
 30
0.0
 10
31.00020115150661
 20
256.9110597397964
 30
0.0
 10
31.00176567657863
 20
256.8589263573887
 30
0.0
 10
31.00480102402727
 20
256.7949218688399
 30
0.0
 10
31.0098022190967
 20
256.7227492284367
 30
0.0
 10
31.0171658709017
 20
256.6421627603672
 30
0.0
 10
31.02643221014208
 20
256.5595721823408
 30
0.0
 10
31.03754626436486
 20
256.4752618813233
 30
0.0
 10
31.05048533792022
 20
256.3894694007225
 30
0.0
 10
31.0652057417239
 20
256.3025384969234
 30
0.0
 10
31.08167924693475
 20
256.214703758496
 30
0.0
 10
31.09990280919657
 20
256.1261748014388
 30
0.0
 10
31.12321924877312
 20
256.0222537521523
 30
0.0
 10
31.15279958577565
 20
255.9029531119234
 30
0.0
 10
31.18595850780093
 20
255.7836698902163
 30
0.0
 10
31.21761966505236
 20
255.6797891282644
 30
0.0
 10
31.24661147192864
 20
255.5913061310525
 30
0.0
 10
31.27754430983964
 20
255.50346765241
 30
0.0
 10
31.31047199241406
 20
255.4164785645669
 30
0.0
 10
31.34547281341384
 20
255.330560563709
 30
0.0
 10
31.37951559322197
 20
255.253016212542
 30
0.0
 10
31.4120795826958
 20
255.1836536868158
 30
0.0
 10
31.44269012536351
 20
255.1221776040311
 30
0.0
 10
31.47462802431566
 20
255.0617897071887
 30
0.0
 10
31.50646159766339
 20
255.0052247153626
 30
0.0
 10
31.5380116618085
 20
254.9524206864676
 30
0.0
 10
31.56912176399033
 20
254.9032504305785
 30
0.0
 10
31.60135258112436
 20
254.8552338806309
 30
0.0
 10
31.63851325404038
 20
254.8031596853539
 30
0.0
 10
31.68112928145526
 20
254.7477168888588
 30
0.0
 10
31.72983212532363
 20
254.6897857259881
 30
0.0
 10
31.78087693027727
 20
254.6345586400941
 30
0.0
 10
31.83434271619977
 20
254.5822982576659
 30
0.0
 10
31.89028703928194
 20
254.5332447149444
 30
0.0
 10
31.94387740941688
 20
254.4914354903588
 30
0.0
 10
31.99450117134697
 20
254.4561144027768
 30
0.0
 10
32.04164364460806
 20
254.4264162753925
 30
0.0
 10
32.09019990939239
 20
254.3989619043011
 30
0.0
 10
32.13975435927848
 20
254.37391027682
 30
0.0
 10
32.19020518025764
 20
254.3512030319889
 30
0.0
 10
32.24153299437627
 20
254.3307212513929
 30
0.0
 10
32.29412455032382
 20
254.3122501630052
 30
0.0
 10
32.3541254771206
 20
254.2938517388059
 30
0.0
 10
32.42199583496078
 20
254.2763449427521
 30
0.0
 10
32.4982399084808
 20
254.2605526842841
 30
0.0
 10
32.57666983627546
 20
254.2479280880898
 30
0.0
 10
32.65724507314427
 20
254.2383562353435
 30
0.0
 10
32.73990928248948
 20
254.231695205437
 30
0.0
 10
32.81747192958024
 20
254.2281260319292
 30
0.0
 10
32.88940015615697
 20
254.2267911356667
 30
0.0
 10
32.95529041582068
 20
254.2270011858962
 30
0.0
 10
33.02216301066529
 20
254.2285583885054
 30
0.0
 10
33.09227784268353
 20
254.231491036268
 30
0.0
 10
33.16569122932751
 20
254.235876694186
 30
0.0
 10
33.24252441104593
 20
254.2417820026738
 30
0.0
 10
33.32043913198848
 20
254.2489829981964
 30
0.0
 10
33.40830894799436
 20
254.2583453942712
 30
0.0
 10
33.50651285144389
 20
254.2702680657163
 30
0.0
 10
33.61547754255883
 20
254.2851125931624
 30
0.0
 10
33.72628508448874
 20
254.3016228467491
 30
0.0
 10
33.83890031807365
 20
254.3196238825035
 30
0.0
 10
33.9532871641487
 20
254.338957939177
 30
0.0
 10
34.06933159331278
 20
254.3594510586309
 30
0.0
 10
34.18700202709113
 20
254.3809439020596
 30
0.0
 10
34.30626582745673
 20
254.4032943353535
 30
0.0
 10
34.42713931653607
 20
254.4263686122819
 30
0.0
 10
34.54959743176548
 20
254.4500260504946
 30
0.0
 10
34.67361324052857
 20
254.4741409063395
 30
0.0
 10
34.81084258754286
 20
254.5008608899345
 30
0.0
 10
34.96173930373455
 20
254.5301219139632
 30
0.0
 10
35.12690800030374
 20
254.56177940147
 30
0.0
 10
35.29431766218289
 20
254.5932701012975
 30
0.0
 10
35.44559253405057
 20
254.6210163685022
 30
0.0
 10
35.57985087697585
 20
254.6449893993822
 30
0.0
 10
35.69649706453252
 20
254.6653118364048
 30
0.0
 10
35.81409997403193
 20
254.6852416684824
 30
0.0
 10
35.9326384667558
 20
254.7047161259561
 30
0.0
 10
36.05208789747282
 20
254.7236791135978
 30
0.0
 10
36.17289103497264
 20
254.7421463823654
 30
0.0
 10
36.29503317698089
 20
254.7600517220417
 30
0.0
 10
36.41849458073361
 20
254.77733433607
 30
0.0
 10
36.54278875797971
 20
254.7938756929416
 30
0.0
 10
36.66788516493214
 20
254.8096218726878
 30
0.0
 10
36.79374902950192
 20
254.8245273461131
 30
0.0
 10
36.91011376313226
 20
254.837413885126
 30
0.0
 10
37.01678784251959
 20
254.8484835696654
 30
0.0
 10
37.11365311689346
 20
254.8579426604279
 30
0.0
 10
37.21083799911741
 20
254.866826717254
 30
0.0
 10
37.31928176575288
 20
254.8760535215682
 30
0.0
 10
37.4390551661602
 20
254.8853434603899
 30
0.0
 10
37.57022976991126
 20
254.8943717639322
 30
0.0
 10
37.70191982204133
 20
254.9022683803046
 30
0.0
 10
37.83407805636804
 20
254.9090001085035
 30
0.0
 10
37.96665408562564
 20
254.914546695045
 30
0.0
 10
38.08848378369944
 20
254.9185234875212
 30
0.0
 10
38.19946564441269
 20
254.9212487891553
 30
0.0
 10
38.29957542895136
 20
254.9229948229294
 30
0.0
 10
38.39976110946704
 20
254.9240901061746
 30
0.0
 10
38.46658703686228
 20
254.9242257348449
 30
0.0
 10
38.49999999999996
 20
254.9242935491789
 30
0.0
  0
LINE
  5
D0
330
1F
100
AcDbEntity
  8
0
  6
Continuous
 62
     8
370
     0
100
AcDbLine
 10
38.5
 20
186.6124838475
 30
0.0
 11
26.8726046753
 21
186.6124838475
 31
0.0
  0
LINE
  5
D1
330
1F
100
AcDbEntity
  8
0
  6
Continuous
 62
     8
370
     0
100
AcDbLine
 10
50.1273953247
 20
186.6124838475
 30
0.0
 11
38.5
 21
186.6124838475
 31
0.0
  0
LINE
  5
D2
330
1F
100
AcDbEntity
  8
0
  6
Continuous
 62
     8
370
     0
100
AcDbLine
 10
38.5
 20
215.6124838475
 30
0.0
 11
48.8707286581
 21
215.6124838475
 31
0.0
  0
LINE
  5
D3
330
1F
100
AcDbEntity
  8
0
  6
Continuous
 62
     8
370
     0
100
AcDbLine
 10
28.1292713419
 20
215.6124838475
 30
0.0
 11
38.5
 21
215.6124838475
 31
0.0
  0
LINE
  5
D4
330
1F
100
AcDbEntity
  8
0
  6
Continuous
 62
     8
370
     0
100
AcDbLine
 10
50.1273953247
 20
309.3875161525
 30
0.0
 11
26.8726046753
 21
309.3875161525
 31
0.0
  0
LINE
  5
D5
330
1F
100
AcDbEntity
  8
0
  6
Continuous
 62
     8
370
     0
100
AcDbLine
 10
28.1292713419
 20
280.3875161525
 30
0.0
 11
48.8707286581
 21
280.3875161525
 31
0.0
  0
CIRCLE
  5
D6
330
1F
100
AcDbEntity
  8
0
  6
Continuous
 62
     7
370
    30
100
AcDbCircle
 10
145.5
 20
120.5
 30
0.0
 40
11.6278641090603
  0
CIRCLE
  5
D7
330
1F
100
AcDbEntity
  8
0
  6
Continuous
 62
     7
370
    30
100
AcDbCircle
 10
145.5
 20
120.5
 30
0.0
 40
10.75
  0
CIRCLE
  5
D8
330
1F
100
AcDbEntity
  8
0
  6
Continuous
 62
     7
370
    30
100
AcDbCircle
 10
145.5
 20
120.5
 30
0.0
 40
9.5
  0
CIRCLE
  5
D9
330
1F
100
AcDbEntity
  8
0
  6
Continuous
 62
     7
370
    30
100
AcDbCircle
 10
145.5
 20
120.5
 30
0.0
 40
3.75
  0
CIRCLE
  5
DA
330
1F
100
AcDbEntity
  8
0
  6
Continuous
 62
     7
370
    30
100
AcDbCircle
 10
145.5
 20
120.5
 30
0.0
 40
9.0
  0
CIRCLE
  5
DB
330
1F
100
AcDbEntity
  8
0
  6
Continuous
 62
     8
370
     0
100
AcDbCircle
 10
145.5
 20
120.5
 30
0.0
 40
11.12786410906028
  0
LINE
  5
DC
330
1F
100
AcDbEntity
  8
0
  6
Continuous
 62
     7
370
    30
100
AcDbLine
 10
255.0
 20
60.8901686786
 30
0.0
 11
255.0
 21
79.2412949397
 31
0.0
  0
LINE
  5
DD
330
1F
100
AcDbEntity
  8
0
  6
Continuous
 62
     7
370
    30
100
AcDbLine
 10
240.0
 20
81.9059263274
 30
0.0
 11
240.0
 21
60.8901686786
 31
0.0
  0
LINE
  5
DE
330
1F
100
AcDbEntity
  8
0
  6
Continuous
 62
     7
370
    30
100
AcDbLine
 10
259.1219374016
 20
37.0802294596
 30
0.0
 11
257.8658606168
 21
60.7376876382
 31
0.0
  0
LINE
  5
DF
330
1F
100
AcDbEntity
  8
0
  6
Continuous
 62
     7
370
    30
100
AcDbLine
 10
237.1341393832
 20
60.7376876382
 30
0.0
 11
235.8780625984
 21
37.0802294596
 31
0.0
  0
SPLINE
  5
E0
330
1F
100
AcDbEntity
  8
0
  6
Continuous
 62
     7
370
    30
100
AcDbSpline
210
0.0
220
0.0
230
1.0
 70
     8
 71
     3
 72
    72
 73
    68
 74
     0
 42
0.000000001
 43
0.00000001
 40
0.0
 40
0.0
 40
0.0
 40
0.0
 40
0.0032877185140991
 40
0.0185649675199362
 40
0.0338460597945367
 40
0.0491323821075865
 40
0.0644252953556142
 40
0.0797261281889539
 40
0.0950361708450279
 40
0.1103566692273031
 40
0.1256888192681591
 40
0.1410337616136451
 40
0.1563925766665976
 40
0.1717662800230162
 40
0.1871558183350691
 40
0.202562065631675
 40
0.2179858201244908
 40
0.2334278015243128
 40
0.2488886488886147
 40
0.2643689190167648
 40
0.2798690854045974
 40
0.2953895377644353
 40
0.3109305821112301
 40
0.3264924414093971
 40
0.3420752567688365
 40
0.3576790891718524
 40
0.3733039217076356
 40
0.3889496622839308
 40
0.404616146780747
 40
0.4203031426060131
 40
0.4360103526074966
 40
0.4517374192942132
 40
0.4674839293144694
 40
0.4832494181392633
 40
0.4990333748961153
 40
0.5148352472998593
 40
0.530654446628161
 40
0.5464903526899428
 40
0.5623423187393268
 40
0.5782096762894673
 40
0.594091739785995
 40
0.6099878111034007
 40
0.6258971838321897
 40
0.641819147331256
 40
0.6577529905222733
 40
0.6736980054109944
 40
0.6896534903227981
 40
0.7056187528458013
 40
0.7215931124785429
 40
0.7375759029841628
 40
0.7535664744546148
 40
0.7695641950941025
 40
0.7855684527313922
 40
0.8015786560739362
 40
0.8175942357182054
 40
0.8336146449319027
 40
0.8496393602245212
 40
0.865667881723699
 40
0.881699733374508
 40
0.8977344629787066
 40
0.9137716420916455
 40
0.929810865792523
 40
0.9458517523444714
 40
0.9618939427588425
 40
0.9779371002785476
 40
0.9939809097929891
 40
1.0
 40
1.0
 40
1.0
 40
1.0
 10
257.8657427483583
 20
60.73776573068882
 30
0.0
 10
257.8655058156777
 20
60.74288711362876
 30
0.0
 10
257.8641679129649
 20
60.771806349728
 30
0.0
 10
257.8604085071427
 20
60.82449033909248
 30
0.0
 10
257.8544011970716
 20
60.89580616991323
 30
0.0
 10
257.846934793773
 20
60.96707247048784
 30
0.0
 10
257.8381551285881
 20
61.0382857596976
 30
0.0
 10
257.8280234434664
 20
61.10943737970884
 30
0.0
 10
257.816550450279
 20
61.18051997281685
 30
0.0
 10
257.8037335904888
 20
61.25152572538649
 30
0.0
 10
257.7895738751576
 20
61.32244682032121
 30
0.0
 10
257.7740713871336
 20
61.3932752986086
 30
0.0
 10
257.757226507701
 20
61.4640030808306
 30
0.0
 10
257.7390396094864
 20
61.53462194742669
 30
0.0
 10
257.719511162248
 20
61.60512353184085
 30
0.0
 10
257.6986417290937
 20
61.67549931217985
 30
0.0
 10
257.6764319930302
 20
61.74574060536999
 30
0.0
 10
257.6528827760173
 20
61.81583856285306
 30
0.0
 10
257.6279950603807
 20
61.88578416817061
 30
0.0
 10
257.6017700096358
 20
61.95556823640495
 30
0.0
 10
257.5742089892011
 20
62.02518141552469
 30
0.0
 10
257.5453135865644
 20
62.09461418962809
 30
0.0
 10
257.5150856307156
 20
62.16385688406307
 30
0.0
 10
257.4835272106025
 20
62.23289967237498
 30
0.0
 10
257.4506406923969
 20
62.3017325850066
 30
0.0
 10
257.416428735373
 20
62.3703455196525
 30
0.0
 10
257.3808943062182
 20
62.43872825314317
 30
0.0
 10
257.3440406916262
 20
62.50687045471545
 30
0.0
 10
257.3058715090426
 20
62.57476170050496
 30
0.0
 10
257.2663907154698
 20
62.64239148907699
 30
0.0
 10
257.2256026142632
 20
62.70974925780626
 30
0.0
 10
257.1835118598856
 20
62.77682439989632
 30
0.0
 10
257.1401234606182
 20
62.84360628183458
 30
0.0
 10
257.0954427792568
 20
62.91008426106912
 30
0.0
 10
257.0494755318518
 20
62.97624770370061
 30
0.0
 10
257.0022277845786
 20
63.04208600198907
 30
0.0
 10
256.9537059488495
 20
63.10758859148366
 30
0.0
 10
256.9039167747984
 20
63.17274496759931
 30
0.0
 10
256.8528673432893
 20
63.23754470147968
 30
0.0
 10
256.8005650566126
 20
63.30197745500446
 30
0.0
 10
256.7470176280424
 20
63.36603299482019
 30
0.0
 10
256.6922330704351
 20
63.42970120529554
 30
0.0
 10
256.6362196840515
 20
63.49297210032307
 30
0.0
 10
256.5789860437812
 20
63.55583583391239
 30
0.0
 10
256.520540985947
 20
63.61828270954204
 30
0.0
 10
256.4608935948551
 20
63.6803031882548
 30
0.0
 10
256.400053189249
 20
63.74188789550478
 30
0.0
 10
256.3380293088138
 20
63.80302762677742
 30
0.0
 10
256.2748317008604
 20
63.86371335202185
 30
0.0
 10
256.2104703073081
 20
63.92393621894718
 30
0.0
 10
256.144955252066
 20
63.98368755524414
 30
0.0
 10
256.0782968289051
 20
64.04295886980793
 30
0.0
 10
256.0105054898654
 20
64.1017418530235
 30
0.0
 10
255.941591834358
 20
64.16002837625939
 30
0.0
 10
255.8715665986121
 20
64.21781049041655
 30
0.0
 10
255.8004406469623
 20
64.27508042451133
 30
0.0
 10
255.7282249595169
 20
64.33183058104167
 30
0.0
 10
255.6549306366536
 20
64.38805354068045
 30
0.0
 10
255.5805688440331
 20
64.44374202985715
 30
0.0
 10
255.5051509829823
 20
64.49888902497092
 30
0.0
 10
255.4286880228069
 20
64.55348734499941
 30
0.0
 10
255.351192964693
 20
64.60753115266141
 30
0.0
 10
255.272671619158
 20
64.66101033049493
 30
0.0
 10
255.1931570075854
 20
64.7139314516286
 30
0.0
 10
255.1125809393486
 20
64.76623948535581
 30
0.0
 10
255.0481927812524
 20
64.80730605855847
 30
0.0
 10
255.0103296347027
 20
64.83072907999745
 30
0.0
 10
255.0
 20
64.83711923182439
 30
0.0
  0
SPLINE
  5
E1
330
1F
100
AcDbEntity
  8
0
  6
Continuous
 62
     7
370
    30
100
AcDbSpline
210
0.0
220
0.0
230
1.0
 70
     8
 71
     3
 72
    72
 73
    68
 74
     0
 42
0.000000001
 43
0.00000001
 40
0.0
 40
0.0
 40
0.0
 40
0.0
 40
0.0010151973411223
 40
0.017066876797804
 40
0.0331187579057339
 40
0.0491704957158484
 40
0.0652218015638778
 40
0.0812723657284925
 40
0.0973218567396197
 40
0.1133699207477806
 40
0.1294161809557577
 40
0.1454602371270205
 40
0.1615016651832747
 40
0.1775400169075144
 40
0.1935748197674427
 40
0.2096055768767631
 40
0.2256317671106142
 40
0.2416528453939417
 40
0.2576682431797104
 40
0.2736773691359895
 40
0.2896796100581088
 40
0.3056743320237989
 40
0.3216608818063494
 40
0.3376385885606226
 40
0.3536067657929982
 40
0.3695647136261195
 40
0.3855117213643269
 40
0.40144707036345
 40
0.4173700372041062
 40
0.433279897163776
 40
0.4491759279776297
 40
0.4650574138736634
 40
0.4809236498619652
 40
0.496773946253049
 40
0.5126076333744221
 40
0.5284240664497728
 40
0.5442226305998621
 40
0.5600027459202246
 40
0.5757638725863339
 40
0.5915055159343298
 40
0.6072272314621386
 40
0.6229286296956802
 40
0.6386093808624058
 40
0.6542692193173633
 40
0.669907947666261
 40
0.685525440533963
 40
0.7011216479302124
 40
0.7166965981678997
 40
0.7322504002959105
 40
0.7477832460124878
 40
0.7632954110331991
 40
0.7787872558925797
 40
0.7942592261663827
 40
0.8097118521075768
 40
0.8251457476958495
 40
0.840561609107037
 40
0.8559602126142615
 40
0.871342411938595
 40
0.8867091350714419
 40
0.9020613805955685
 40
0.9174002135348407
 40
0.9327267607664549
 40
0.9480422060313299
 40
0.96334778458063
 40
0.9786447774977769
 40
0.9939345057360458
 40
1.0
 40
1.0
 40
1.0
 40
1.0
 10
240.0
 20
64.83722368031556
 30
0.0
 10
239.9982533169831
 20
64.83614867720924
 30
0.0
 10
239.968889150385
 20
64.81807638246472
 30
0.0
 10
239.9128086372862
 20
64.7824561489872
 30
0.0
 10
239.8318470423485
 20
64.73032371678181
 30
0.0
 10
239.7519848826911
 20
64.67754587988192
 30
0.0
 10
239.6730978544924
 20
64.62421212061123
 30
0.0
 10
239.5952340241207
 20
64.5703063286829
 30
0.0
 10
239.5183951572861
 20
64.51584083882256
 30
0.0
 10
239.4425953407352
 20
64.46082054545138
 30
0.0
 10
239.367845271473
 20
64.40525252410639
 30
0.0
 10
239.2941564612433
 20
64.3491434602567
 30
0.0
 10
239.2215401045329
 20
64.29250034477754
 30
0.0
 10
239.150007375507
 20
64.23533029416178
 30
0.0
 10
239.0795693412998
 20
64.17764060506221
 30
0.0
 10
239.010236977212
 20
64.11943874581844
 30
0.0
 10
238.9420211537056
 20
64.06073236453386
 30
0.0
 10
238.8749326300232
 20
64.00152929229091
 30
0.0
 10
238.8089820450851
 20
63.94183754713386
 30
0.0
 10
238.7441799081601
 20
63.88166533720138
 30
0.0
 10
238.6805365886501
 20
63.82102106332626
 30
0.0
 10
238.6180623051834
 20
63.75991332089873
 30
0.0
 10
238.5567671140026
 20
63.69835090092732
 30
0.0
 10
238.4966608967032
 20
63.63634279019545
 30
0.0
 10
238.4377533473824
 20
63.57389817042488
 30
0.0
 10
238.3800539592732
 20
63.51102641635736
 30
0.0
 10
238.3235720109569
 20
63.44773709267637
 30
0.0
 10
238.2683165522623
 20
63.38403994969693
 30
0.0
 10
238.2142963899764
 20
63.31994491776571
 30
0.0
 10
238.1615200735065
 20
63.25546210032568
 30
0.0
 10
238.1099958806475
 20
63.19060176561753
 30
0.0
 10
238.0597318036224
 20
63.12537433700799
 30
0.0
 10
238.0107355355704
 20
63.05979038195492
 30
0.0
 10
237.96301445767
 20
62.99386059964221
 30
0.0
 10
237.916575627084
 20
62.92759580733995
 30
0.0
 10
237.8714257659175
 20
62.8610069255687
 30
0.0
 10
237.8275712513762
 20
62.7941049621713
 30
0.0
 10
237.785018107305
 20
62.72690099541772
 30
0.0
 10
237.7437719972764
 20
62.65940615629162
 30
0.0
 10
237.7038382193828
 20
62.59163161012604
 30
0.0
 10
237.6652217028675
 20
62.52358853777348
 30
0.0
 10
237.6279270067059
 20
62.45528811651197
 30
0.0
 10
237.5919583202239
 20
62.38674150089562
 30
0.0
 10
237.5573194658081
 20
62.31795980377037
 30
0.0
 10
237.5240139037363
 20
62.2489540776733
 30
0.0
 10
237.492044739119
 20
62.17973529683649
 30
0.0
 10
237.4614147309156
 20
62.1103143400084
 30
0.0
 10
237.4321263029503
 20
62.04070197429563
 30
0.0
 10
237.4041815568269
 20
61.97090884021587
 30
0.0
 10
237.3775822866086
 20
61.9009454381328
 30
0.0
 10
237.3523299951039
 20
61.83082211622698
 30
0.0
 10
237.3284259115665
 20
61.76054906013037
 30
0.0
 10
237.3058710106419
 20
61.69013628432988
 30
0.0
 10
237.2846660321964
 20
61.61959362542361
 30
0.0
 10
237.2648115023317
 20
61.54893073726752
 30
0.0
 10
237.2463077533447
 20
61.47815708810121
 30
0.0
 10
237.2291549498339
 20
61.40728195943703
 30
0.0
 10
237.2133530929584
 20
61.33631444750171
 30
0.0
 10
237.1989021060018
 20
61.26526346418829
 30
0.0
 10
237.1858016157123
 20
61.19413774862951
 30
0.0
 10
237.174051865079
 20
61.12294584768173
 30
0.0
 10
237.1636504056281
 20
61.05169622039534
 30
0.0
 10
237.1546045175601
 20
60.98039688796125
 30
0.0
 10
237.1468849907711
 20
60.9090567852701
 30
0.0
 10
237.1405985340479
 20
60.83768077461927
 30
0.0
 10
237.1364007119525
 20
60.78063561143652
 30
0.0
 10
237.1347750591762
 20
60.74737268289469
 30
0.0
 10
237.1343133272701
 20
60.73792505938002
 30
0.0
  0
SPLINE
  5
E2
330
1F
100
AcDbEntity
  8
0
  6
Continuous
 62
     7
370
    30
100
AcDbSpline
210
0.0
220
0.0
230
1.0
 70
     8
 71
     3
 72
   304
 73
   300
 74
     0
 42
0.000000001
 43
0.00000001
 40
0.0
 40
0.0
 40
0.0
 40
0.0
 40
0.0031626869539569
 40
0.0064259543625609
 40
0.0096887289597063
 40
0.012951260802669
 40
0.0162137581869175
 40
0.01947643116521
 40
0.0227395298334713
 40
0.0260033022186514
 40
0.029267993173661
 40
0.0325338432928137
 40
0.035801087854463
 40
0.0390699557973855
 40
0.0423406687372435
 40
0.0456134400293404
 40
0.0488884738835757
 40
0.0521659645374711
 40
0.0554460954924635
 40
0.0587290388186958
 40
0.0620149545328625
 40
0.0653039900532544
 40
0.0685962797356441
 40
0.0718919444929527
 40
0.0751910915010738
 40
0.0784938139924461
 40
0.0818001911381506
 40
0.0851102880185763
 40
0.0884241556818319
 40
0.0917418312881412
 40
0.0950633383377506
 40
0.0983886869788669
 40
0.1017178743914666
 40
0.1050508852420017
 40
0.1083876922032674
 40
0.1117282565333427
 40
0.1150725287064926
 40
0.1184204490891656
 40
0.1217719486533237
 40
0.125126949719511
 40
0.1284853667219008
 40
0.1318471069875751
 40
0.1352120715226025
 40
0.1385801557974954
 40
0.1419512505254207
 40
0.1453252424264825
 40
0.1487020149724342
 40
0.1520814491064235
 40
0.1554634239331728
 40
0.1588478173756028
 40
0.1622345067945665
 40
0.1656233695692604
 40
0.1690142836359988
 40
0.1724071279843675
 40
0.175801783109832
 40
0.1791981314226218
 40
0.1825960576132925
 40
0.1859954489756797
 40
0.1893961956884004
 40
0.1927981910564109
 40
0.1962013317144187
 40
0.1996055177940932
 40
0.2030106530572823
 40
0.2064166449975098
 40
0.2098234049121223
 40
0.2132308479475071
 40
0.216638893119662
 40
0.2200474633127326
 40
0.2234564852575789
 40
0.2268658894927084
 40
0.2302756103098239
 40
0.2336855856858003
 40
0.2370957572031646
 40
0.240506069960859
 40
0.2439164724767848
 40
0.2473269165839212
 40
0.2507373432132338
 40
0.2541477113159483
 40
0.2575579829706747
 40
0.2609681230761127
 40
0.2643780992324345
 40
0.267787881622922
 40
0.271197442896438
 40
0.2746067580514023
 40
0.278015804321664
 40
0.2814245610648147
 40
0.284833009653156
 40
0.2882411333677304
 40
0.2916489172954985
 40
0.2950563482299974
 40
0.2984634145754971
 40
0.301870106254746
 40
0.3052764146204502
 40
0.3086823323704225
 40
0.312087853466426
 40
0.3154929730566829
 40
0.3188976874020523
 40
0.3223019938057025
 40
0.3257058905463676
 40
0.3291093768149028
 40
0.3325124526542394
 40
0.3359151189024884
 40
0.3393173771391882
 40
0.3427192296344992
 40
0.3461206793013293
 40
0.3495217296501649
 40
0.3529223847465829
 40
0.3563226491712669
 40
0.3597225279825008
 40
0.3631220266808639
 40
0.3665211511762465
 40
0.3699199077568409
 40
0.3733183030601736
 40
0.3767163440460169
 40
0.3801140379710699
 40
0.3835113923653329
 40
0.3869084150100638
 40
0.3903051139172765
 40
0.3937014973106289
 40
0.3970975736076566
 40
0.4004933514033134
 40
0.4038888394546515
 40
0.4072840466666449
 40
0.4106789820790779
 40
0.4140736548544039
 40
0.4174680742665521
 40
0.4208622496905869
 40
0.4242561905931988
 40
0.4276499065239495
 40
0.4310434071072308
 40
0.4344367020349158
 40
0.437829801059581
 40
0.4412227139883573
 40
0.4446154506772974
 40
0.4480080210262368
 40
0.4514004349741319
 40
0.4547927024948257
 40
0.4581848335932205
 40
0.4615768383017568
 40
0.4649687266773174
 40
0.4683605087983682
 40
0.4717521947623715
 40
0.4751437946835335
 40
0.4785353186906368
 40
0.4819267769252412
 40
0.4853181795398959
 40
0.4887095366966255
 40
0.4921008585654868
 40
0.4954921553232555
 40
0.4988834371521841
 40
0.5022747142388351
 40
0.5056659961677609
 40
0.5090572903392574
 40
0.5124486069465578
 40
0.5158399561831156
 40
0.5192313482415173
 40
0.5226227933122302
 40
0.5260143015823795
 40
0.5294058832343755
 40
0.5327975484444378
 40
0.5361893073810116
 40
0.5395811702029792
 40
0.5429731470576865
 40
0.5463652480788187
 40
0.5497574833839658
 40
0.5531498630719878
 40
0.5565423972200504
 40
0.5599350958803868
 40
0.5633279690766538
 40
0.566721026799993
 40
0.5701142790045988
 40
0.5735077356029296
 40
0.5769014064603591
 40
0.5802953013893452
 40
0.5836894301431076
 40
0.5870838024085722
 40
0.5904784277988004
 40
0.5938733158446865
 40
0.5972684759858865
 40
0.6006639175610298
 40
0.6040596497970262
 40
0.6074556817975243
 40
0.6108520225303966
 40
0.6142486808142017
 40
0.6176456653035568
 40
0.6210429844733842
 40
0.6244406466019117
 40
0.6278386597524105
 40
0.6312370317534439
 40
0.6346357701778068
 40
0.6380348823198128
 40
0.6414343751709582
 40
0.6448342553938752
 40
0.6482345292944288
 40
0.6516352027919242
 40
0.6550362813872207
 40
0.6584377701287506
 40
0.6618396735762448
 40
0.6652419957621369
 40
0.6686447401504647
 40
0.6720479095931627
 40
0.6754515062836326
 40
0.678855531707564
 40
0.6822599865906808
 40
0.6856648708435003
 40
0.6890701835029143
 40
0.692475922670452
 40
0.6958820854471813
 40
0.6992886678650947
 40
0.7026956648149474
 40
0.7061030699704371
 40
0.7095108757086614
 40
0.7129190730268895
 40
0.7163276514554218
 40
0.7197365989668589
 40
0.7231459018814409
 40
0.7265555447688268
 40
0.7299655103462297
 40
0.733375779373095
 40
0.7367863305425445
 40
0.7401971403697635
 40
0.7436081830776265
 40
0.7470194304800367
 40
0.7504308518632384
 40
0.7538424138657717
 40
0.7572540803575469
 40
0.7606658123188723
 40
0.7640775621499678
 40
0.7674892745088063
 40
0.7709008998891055
 40
0.7743123853928932
 40
0.7777236746243479
 40
0.7811347075914712
 40
0.7845454206162704
 40
0.7879557462552119
 40
0.7913656132316897
 40
0.7947749463826576
 40
0.798183666621279
 40
0.8015916909181124
 40
0.8049989323028518
 40
0.8084052998892127
 40
0.8118106989253542
 40
0.8152150308722529
 40
0.8186181935126075
 40
0.8220200810925866
 40
0.8254205844988789
 40
0.8288195914731802
 40
0.8322169868661603
 40
0.8356126529327709
 40
0.839006469670264
 40
0.8423983152001904
 40
0.8457880661950136
 40
0.8491755983496616
 40
0.8525607868976243
 40
0.8559435071708625
 40
0.8593236352019321
 40
0.862701048366193
 40
0.8660756260612278
 40
0.8694472504199313
 40
0.8728158070529728
 40
0.876181185815653
 40
0.8795432815935821
 40
0.8829019951008122
 40
0.8862572336837481
 40
0.8896089121235348
 40
0.8929569534291908
 40
0.8963012896137417
 40
0.8996418624450528
 40
0.9029786241634867
 40
0.9063115381583116
 40
0.9096405795949929
 40
0.9129657359861448
 40
0.9162870076990891
 40
0.9196044083937261
 40
0.9229179653850882
 40
0.9262277199256549
 40
0.9295337274034371
 40
0.932836057452679
 40
0.9361347939749105
 40
0.939430035069065
 40
0.9427218928703167
 40
0.9460104932980633
 40
0.9492959757145313
 40
0.9525784924961483
 40
0.955858208520566
 40
0.9591353005730684
 40
0.9624099566765254
 40
0.9656823753496446
 40
0.9689527647988645
 40
0.9722213420493886
 40
0.975488332021428
 40
0.9787539665577852
 40
0.9820184834092944
 40
0.9852821251846389
 40
0.9885451382712432
 40
0.9918077717340888
 40
0.9950702761992137
 40
0.9983328221216593
 40
1.0
 40
1.0
 40
1.0
 40
1.0
 10
235.8780488676542
 20
37.07958819767789
 30
0.0
 10
235.876875585146
 20
37.05528300101902
 30
0.0
 10
235.8744917071456
 20
37.00589964857962
 30
0.0
 10
235.8725881887687
 20
36.93140625939348
 30
0.0
 10
235.87190694901
 20
36.85613534937013
 30
0.0
 10
235.8725998244954
 20
36.78086970957548
 30
0.0
 10
235.8746310569194
 20
36.70561810060416
 30
0.0
 10
235.878009781346
 20
36.63038800209654
 30
0.0
 10
235.8827330990495
 20
36.55518689494545
 30
0.0
 10
235.8888013681749
 20
36.48002185962731
 30
0.0
 10
235.8962141029705
 20
36.40490002055236
 30
0.0
 10
235.9049710652569
 20
36.32982852936766
 30
0.0
 10
235.9150719646349
 20
36.25481458690811
 30
0.0
 10
235.9265165296443
 20
36.17986545418377
 30
0.0
 10
235.9393044776256
 20
36.10498846554538
 30
0.0
 10
235.9534355099856
 20
36.03019104035469
 30
0.0
 10
235.9689092990261
 20
35.95548069399756
 30
0.0
 10
235.9857254755524
 20
35.88086504787815
 30
0.0
 10
236.00388361495
 20
35.80635183835932
 30
0.0
 10
236.0233832225257
 20
35.73194892453903
 30
0.0
 10
236.0442237180882
 20
35.65766429478324
 30
0.0
 10
236.0664044199764
 20
35.58350607194081
 30
0.0
 10
236.0899245286919
 20
35.50948251718143
 30
0.0
 10
236.1147831103121
 20
35.43560203240789
 30
0.0
 10
236.1409790798618
 20
35.36187316121114
 30
0.0
 10
236.168511184823
 20
35.28830458835209
 30
0.0
 10
236.1973779889587
 20
35.21490513776939
 30
0.0
 10
236.227577856628
 20
35.14168376913105
 30
0.0
 10
236.259108937758
 20
35.06864957296483
 30
0.0
 10
236.2919691536333
 20
34.99581176441898
 30
0.0
 10
236.3261561836491
 20
34.92317967572297
 30
0.0
 10
236.361667453164
 20
34.85076274743374
 30
0.0
 10
236.3985001225676
 20
34.7785705185665
 30
0.0
 10
236.436651077666
 20
34.70661261572686
 30
0.0
 10
236.4761169214638
 20
34.63489874136592
 30
0.0
 10
236.5168939674043
 20
34.56343866129815
 30
0.0
 10
236.5589782341077
 20
34.4922421916203
 30
0.0
 10
236.6023654416227
 20
34.4213191851833
 30
0.0
 10
236.6470510091931
 20
34.35067951776269
 30
0.0
 10
236.6930300545116
 20
34.28033307408073
 30
0.0
 10
236.7402973944194
 20
34.210289733825
 30
0.0
 10
236.7888475469927
 20
34.14055935780471
 30
0.0
 10
236.8386747349362
 20
34.07115177438132
 30
0.0
 10
236.8897728901948
 20
34.00207676629402
 30
0.0
 10
236.9421356596804
 20
33.93334405799784
 30
0.0
 10
236.995756412002
 20
33.86496330361207
 30
0.0
 10
237.0506282450791
 20
33.79694407556764
 30
0.0
 10
237.1067439945172
 20
33.72929585402704
 30
0.0
 10
237.1640962426189
 20
33.66202801713364
 30
0.0
 10
237.2226773279049
 20
33.59514983213598
 30
0.0
 10
237.2824793550248
 20
33.52867044741504
 30
0.0
 10
237.3434942049357
 20
33.46259888543138
 30
0.0
 10
237.4057135452394
 20
33.39694403659376
 30
0.0
 10
237.4691288405704
 20
33.3317146540417
 30
0.0
 10
237.533731362938
 20
33.26691934932037
 30
0.0
 10
237.5995122019351
 20
33.20256658891957
 30
0.0
 10
237.666462274734
 20
33.13866469163942
 30
0.0
 10
237.734572335801
 20
33.0752218267367
 30
0.0
 10
237.8038329862715
 20
33.01224601280505
 30
0.0
 10
237.8742346829353
 20
32.94974511733189
 30
0.0
 10
237.9457677467945
 20
32.88772685687836
 30
0.0
 10
238.0184223711617
 20
32.82619879782083
 30
0.0
 10
238.0921886292791
 20
32.76516835759787
 30
0.0
 10
238.167056481441
 20
32.70464280640071
 30
0.0
 10
238.2430157816178
 20
32.64462926925179
 30
0.0
 10
238.3200562835756
 20
32.58513472841422
 30
0.0
 10
238.3981676465015
 20
32.52616602607809
 30
0.0
 10
238.4773394401408
 20
32.46772986727375
 30
0.0
 10
238.5575611494636
 20
32.40983282296339
 30
0.0
 10
238.6388221788767
 20
32.35248133326637
 30
0.0
 10
238.7211118560006
 20
32.29568171077894
 30
0.0
 10
238.8044194350373
 20
32.23944014394868
 30
0.0
 10
238.8887340997495
 20
32.18376270047276
 30
0.0
 10
238.9740449660783
 20
32.12865533068818
 30
0.0
 10
239.060341084426
 20
32.07412387092867
 30
0.0
 10
239.1476113212939
 20
32.02017412121417
 30
0.0
 10
239.2358444823897
 20
31.96681176617079
 30
0.0
 10
239.3250293159924
 20
31.91404237754484
 30
0.0
 10
239.4151546406553
 20
31.86187134697251
 30
0.0
 10
239.506209218553
 20
31.81030396784181
 30
0.0
 10
239.59818175457
 20
31.75934543903821
 30
0.0
 10
239.6910608968675
 20
31.70900086756217
 30
0.0
 10
239.7848352373145
 20
31.65927527100337
 30
0.0
 10
239.8794933118033
 20
31.61017357986782
 30
0.0
 10
239.9750236004676
 20
31.56170063975866
 30
0.0
 10
240.0714145278197
 20
31.51386121340909
 30
0.0
 10
240.168654462822
 20
31.46665998257003
 30
0.0
 10
240.2667317189061
 20
31.42010154975495
 30
0.0
 10
240.365634553955
 20
31.37419043984372
 30
0.0
 10
240.465351170256
 20
31.3289311015515
 30
0.0
 10
240.5658697144388
 20
31.28432790876467
 30
0.0
 10
240.6671782774055
 20
31.24038516175092
 30
0.0
 10
240.7692648942627
 20
31.19710708824635
 30
0.0
 10
240.872117544262
 20
31.1544978444275
 30
0.0
 10
240.9757241507562
 20
31.11256151577122
 30
0.0
 10
241.0800725811773
 20
31.07130211781035
 30
0.0
 10
241.1851506470398
 20
31.03072359678973
 30
0.0
 10
241.2909461039769
 20
30.99082983022815
 30
0.0
 10
241.3974466518083
 20
30.95162462739291
 30
0.0
 10
241.5046399346486
 20
30.91311172969125
 30
0.0
 10
241.6125135410532
 20
30.87529481098545
 30
0.0
 10
241.721055004209
 20
30.83817747783591
 30
0.0
 10
241.8302518021671
 20
30.80176326967798
 30
0.0
 10
241.9400913581217
 20
30.76605565893723
 30
0.0
 10
242.0505610407357
 20
30.73105805108837
 30
0.0
 10
242.1616481645121
 20
30.69677378466178
 30
0.0
 10
242.2733399902124
 20
30.66320613120326
 30
0.0
 10
242.3856237253238
 20
30.63035829518983
 30
0.0
 10
242.4984865245713
 20
30.59823341390655
 30
0.0
 10
242.6119154904789
 20
30.56683455728828
 30
0.0
 10
242.7258976739745
 20
30.53616472772908
 30
0.0
 10
242.8404200750426
 20
30.50622685986413
 30
0.0
 10
242.9554696434207
 20
30.47702382032597
 30
0.0
 10
243.0710332793395
 20
30.4485584074792
 30
0.0
 10
243.1870978343069
 20
30.42083335113609
 30
0.0
 10
243.3036501119334
 20
30.3938513122557
 30
0.0
 10
243.4206768687985
 20
30.36761488262981
 30
0.0
 10
243.5381648153568
 20
30.3421265845566
 30
0.0
 10
243.6561006168824
 20
30.31738887050658
 30
0.0
 10
243.7744708944507
 20
30.29340412278008
 30
0.0
 10
243.8932622259568
 20
30.27017465316103
 30
0.0
 10
244.0124611471676
 20
30.24770270256669
 30
0.0
 10
244.1320541528083
 20
30.22599044069684
 30
0.0
 10
244.2520276976807
 20
30.20503996568177
 30
0.0
 10
244.3723681978124
 20
30.18485330373372
 30
0.0
 10
244.4930620316362
 20
30.16543240879992
 30
0.0
 10
244.6140955411969
 20
30.14677916222034
 30
0.0
 10
244.7354550333867
 20
30.12889537239161
 30
0.0
 10
244.857126781205
 20
30.11178277443635
 30
0.0
 10
244.9790970250439
 20
30.09544302988176
 30
0.0
 10
245.1013519739971
 20
30.07987772634475
 30
0.0
 10
245.2238778071907
 20
30.06508837722872
 30
0.0
 10
245.3466606751349
 20
30.05107642142894
 30
0.0
 10
245.4696867010968
 20
30.03784322304994
 30
0.0
 10
245.5929419824904
 20
30.02539007113399
 30
0.0
 10
245.7164125922856
 20
30.0137181794025
 30
0.0
 10
245.8400845804333
 20
30.00282868600961
 30
0.0
 10
245.9639439753059
 20
29.99272265331017
 30
0.0
 10
246.0879767851521
 20
29.9834010676406
 30
0.0
 10
246.2121689995654
 20
29.9748648391149
 30
0.0
 10
246.336506590965
 20
29.96711480143507
 30
0.0
 10
246.4609755160875
 20
29.96015171171675
 30
0.0
 10
246.5855617174891
 20
29.95397625033026
 30
0.0
 10
246.7102511250577
 20
29.94858902075757
 30
0.0
 10
246.8350296575322
 20
29.94399054946468
 30
0.0
 10
246.9598832240301
 20
29.94018128579113
 30
0.0
 10
247.0847977255812
 20
29.93716160185513
 30
0.0
 10
247.2097590566663
 20
29.93493179247596
 30
0.0
 10
247.334753106761
 20
29.93349207511229
 30
0.0
 10
247.4597657618826
 20
29.93284258981829
 30
0.0
 10
247.5847828987029
 20
29.93298339920777
 30
0.0
 10
247.7097903592393
 20
29.93391448798478
 30
0.0
 10
247.834773986751
 20
29.93563576223097
 30
0.0
 10
247.9597196347912
 20
29.93814704964996
 30
0.0
 10
248.084613195611
 20
29.94144810083248
 30
0.0
 10
248.2094405674081
 20
29.94553858906034
 30
0.0
 10
248.3341876558735
 20
29.95041811038258
 30
0.0
 10
248.4588403757334
 20
29.95608618370874
 30
0.0
 10
248.5833846522876
 20
29.96254225091891
 30
0.0
 10
248.7078064229419
 20
29.9697856769908
 30
0.0
 10
248.8320916387342
 20
29.97781575014332
 30
0.0
 10
248.9562262658523
 20
29.9866316819964
 30
0.0
 10
249.0801962871441
 20
29.99623260774743
 30
0.0
 10
249.2039877036177
 20
30.00661758636352
 30
0.0
 10
249.3275865359313
 20
30.01778560078965
 30
0.0
 10
249.4509788258717
 20
30.02973555817217
 30
0.0
 10
249.57415063782
 20
30.0424662900976
 30
0.0
 10
249.6970880602034
 20
30.05597655284604
 30
0.0
 10
249.8197772069332
 20
30.07026502765919
 30
0.0
 10
249.9422042188262
 20
30.08533032102229
 30
0.0
 10
250.0643552650101
 20
30.10117096495906
 30
0.0
 10
250.1862165443102
 20
30.1177854173402
 30
0.0
 10
250.3077742866171
 20
30.13517206220375
 30
0.0
 10
250.4290147542347
 20
30.15332921008714
 30
0.0
 10
250.5499242432063
 20
30.1722550983704
 30
0.0
 10
250.6704890846181
 20
30.19194789162943
 30
0.0
 10
250.7906956458787
 20
30.21240568199842
 30
0.0
 10
250.9105303319741
 20
30.23362648954108
 30
0.0
 10
251.0299795866958
 20
30.25560826262893
 30
0.0
 10
251.149029893841
 20
30.27834887832614
 30
0.0
 10
251.2676677783849
 20
30.30184614277969
 30
0.0
 10
251.3858798076217
 20
30.3260977916131
 30
0.0
 10
251.5036525922745
 20
30.35110149032336
 30
0.0
 10
251.6209727875723
 20
30.37685483467834
 30
0.0
 10
251.7378270942928
 20
30.40335535111432
 30
0.0
 10
251.8542022597691
 20
30.43060049713096
 30
0.0
 10
251.9700850788609
 20
30.45858766168288
 30
0.0
 10
252.0854623948855
 20
30.48731416556497
 30
0.0
 10
252.200321100511
 20
30.51677726178947
 30
0.0
 10
252.3146481386072
 20
30.54697413595375
 30
0.0
 10
252.4284305030559
 20
30.57790190659451
 30
0.0
 10
252.5416552395164
 20
30.60955762552723
 30
0.0
 10
252.6543094461476
 20
30.64193827816792
 30
0.0
 10
252.7663802742838
 20
30.67504078383345
 30
0.0
 10
252.8778549290643
 20
30.70886199601852
 30
0.0
 10
252.9887206700151
 20
30.74339870264508
 30
0.0
 10
253.0989648115823
 20
30.77864762628093
 30
0.0
 10
253.2085747236165
 20
30.81460542432383
 30
0.0
 10
253.3175378318068
 20
30.8512686891476
 30
0.0
 10
253.4258416180661
 20
30.88863394820505
 30
0.0
 10
253.5334736208648
 20
30.92669766408431
 30
0.0
 10
253.6404214355148
 20
30.9654562345134
 30
0.0
 10
253.7466727144033
 20
31.00490599230867
 30
0.0
 10
253.8522151671784
 20
31.04504320526161
 30
0.0
 10
253.9570365608836
 20
31.08586407595844
 30
0.0
 10
254.0611247200485
 20
31.12736474152857
 30
0.0
 10
254.164467526731
 20
31.16954127331396
 30
0.0
 10
254.2670529205183
 20
31.21238967645546
 30
0.0
 10
254.3688688984859
 20
31.25590588938906
 30
0.0
 10
254.4699035151195
 20
31.30008578324543
 30
0.0
 10
254.5701448822028
 20
31.34492516114829
 30
0.0
 10
254.6695811686772
 20
31.3904197574029
 30
0.0
 10
254.7682006004761
 20
31.43656523656954
 30
0.0
 10
254.8659914603421
 20
31.48335719241595
 30
0.0
 10
254.9629420876322
 20
31.53079114674084
 30
0.0
 10
255.0590408781209
 20
31.57886254806354
 30
0.0
 10
255.1542762838072
 20
31.62756677017355
 30
0.0
 10
255.2486368127383
 20
31.67689911053378
 30
0.0
 10
255.3421110288584
 20
31.72685478853268
 30
0.0
 10
255.4346875518968
 20
31.77742894358104
 30
0.0
 10
255.5263550573071
 20
31.82861663304717
 30
0.0
 10
255.6171022762734
 20
31.88041283003053
 30
0.0
 10
255.7069179957986
 20
31.93281242096842
 30
0.0
 10
255.7957910588934
 20
31.98581020307611
 30
0.0
 10
255.8837103648828
 20
32.03940088162056
 30
0.0
 10
255.970664869853
 20
32.09357906702807
 30
0.0
 10
256.0566435404671
 20
32.14833924203047
 30
0.0
 10
256.1416353193984
 20
32.20367573178589
 30
0.0
 10
256.2256292063751
 20
32.25958274703181
 30
0.0
 10
256.308614304259
 20
32.31605441135765
 30
0.0
 10
256.390579854248
 20
32.37308478489371
 30
0.0
 10
256.4715151620705
 20
32.43066781130896
 30
0.0
 10
256.5514096002068
 20
32.48879731401598
 30
0.0
 10
256.6302526104677
 20
32.54746699232496
 30
0.0
 10
256.7080337069534
 20
32.60667041756767
 30
0.0
 10
256.7847424794161
 20
32.66640102922248
 30
0.0
 10
256.8603685970554
 20
32.72665213107551
 30
0.0
 10
256.9349018127696
 20
32.78741688745645
 30
0.0
 10
257.0083319678854
 20
32.8486883195916
 30
0.0
 10
257.0806489973858
 20
32.91045930212147
 30
0.0
 10
257.1518429356523
 20
32.97272255983356
 30
0.0
 10
257.2219039227341
 20
33.03547066466388
 30
0.0
 10
257.2908222111491
 20
33.09869603302558
 30
0.0
 10
257.3585881732211
 20
33.16239092352457
 30
0.0
 10
257.4251923089444
 20
33.22654743512505
 30
0.0
 10
257.4906252543658
 20
33.29115750582839
 30
0.0
 10
257.5548777904612
 20
33.3562129119318
 30
0.0
 10
257.6179408524785
 20
33.42170526792926
 30
0.0
 10
257.6798055397056
 20
33.48762602712031
 30
0.0
 10
257.740463125618
 20
33.55396648298569
 30
0.0
 10
257.7999050683412
 20
33.62071777138725
 30
0.0
 10
257.8581230213643
 20
33.68787087364485
 30
0.0
 10
257.9151088444196
 20
33.75541662053261
 30
0.0
 10
257.9708546144401
 20
33.82334569723524
 30
0.0
 10
258.025352636495
 20
33.89164864928652
 30
0.0
 10
258.0785954545934
 20
33.96031588951135
 30
0.0
 10
258.1305758622415
 20
34.02933770597087
 30
0.0
 10
258.1812869126272
 20
34.09870427090302
 30
0.0
 10
258.2307219283092
 20
34.16840565063432
 30
0.0
 10
258.2788745102759
 20
34.23843181642295
 30
0.0
 10
258.3257385462469
 20
34.30877265617892
 30
0.0
 10
258.3713082180847
 20
34.37941798699046
 30
0.0
 10
258.4155780081946
 20
34.45035756837071
 30
0.0
 10
258.4585427047923
 20
34.52158111612497
 30
0.0
 10
258.5001974059319
 20
34.59307831672309
 30
0.0
 10
258.5405375221972
 20
34.66483884205137
 30
0.0
 10
258.5795587779717
 20
34.73685236440572
 30
0.0
 10
258.6172572112242
 20
34.80910857158045
 30
0.0
 10
258.6536291717587
 20
34.88159718190148
 30
0.0
 10
258.6886713179024
 20
34.95430795904584
 30
0.0
 10
258.722380611624
 20
35.02723072649275
 30
0.0
 10
258.7547543120963
 20
35.10035538144795
 30
0.0
 10
258.7857899677389
 20
35.17367190809264
 30
0.0
 10
258.8154854068019
 20
35.24717039001008
 30
0.0
 10
258.8438387265644
 20
35.32084102165629
 30
0.0
 10
258.8708482812519
 20
35.3946741187497
 30
0.0
 10
258.896512668786
 20
35.46866012747086
 30
0.0
 10
258.9208307165015
 20
35.54278963237554
 30
0.0
 10
258.9438014659781
 20
35.6170533629433
 30
0.0
 10
258.9654241571466
 20
35.69144219869791
 30
0.0
 10
258.9856982118375
 20
35.76594717285767
 30
0.0
 10
259.0046232169481
 20
35.84055947448621
 30
0.0
 10
259.0221989074063
 20
35.91527044913659
 30
0.0
 10
259.0384251491177
 20
35.99007159799525
 30
0.0
 10
259.0533019220467
 20
36.06495457554873
 30
0.0
 10
259.0668293037232
 20
36.1399111858159
 30
0.0
 10
259.0790074529099
 20
36.21493337718479
 30
0.0
 10
259.0898365952201
 20
36.29001323596686
 30
0.0
 10
259.099317004774
 20
36.36514297857019
 30
0.0
 10
259.1074490046559
 20
36.44031494302455
 30
0.0
 10
259.1142329019653
 20
36.51552157755044
 30
0.0
 10
259.1196691721003
 20
36.59075543522263
 30
0.0
 10
259.1237577193324
 20
36.66600914147302
 30
0.0
 10
259.1265005893169
 20
36.74127545898423
 30
0.0
 10
259.1278918106893
 20
36.81654698588293
 30
0.0
 10
259.1279552650772
 20
36.89181721926359
 30
0.0
 10
259.1266033615628
 20
36.9670759020478
 30
0.0
 10
259.1245621000771
 20
37.03005728664533
 30
0.0
 10
259.1224545682011
 20
37.06793419091343
 30
0.0
 10
259.1217418243105
 20
37.08074373957126
 30
0.0
  0
SPLINE
  5
E3
330
1F
100
AcDbEntity
  8
0
  6
Continuous
 62
     7
370
    30
100
AcDbSpline
210
0.0
220
0.0
230
1.0
 70
     8
 71
     3
 72
   304
 73
   300
 74
     0
 42
0.000000001
 43
0.00000001
 40
0.0
 40
0.0
 40
0.0
 40
0.0
 40
0.0031626869547172
 40
0.0064259543633222
 40
0.0096887289604659
 40
0.0129512608034329
 40
0.0162137581876916
 40
0.0194764311659765
 40
0.022739529834242
 40
0.0260033022194258
 40
0.0292679931744342
 40
0.0325338432935865
 40
0.0358010878552395
 40
0.0390699557981613
 40
0.0423406687380253
 40
0.04561344003012
 40
0.0488884738843578
 40
0.0521659645382559
 40
0.0554460954932461
 40
0.0587290388194806
 40
0.0620149545336449
 40
0.0653039900540422
 40
0.0685962797364294
 40
0.0718919444937352
 40
0.0751910915018614
 40
0.0784938139932377
 40
0.0818001911389432
 40
0.0851102880193704
 40
0.0884241556826169
 40
0.0917418312889301
 40
0.0950633383385418
 40
0.0983886869796552
 40
0.1017178743922605
 40
0.1050508852427871
 40
0.1083876922040615
 40
0.1117282565341373
 40
0.1150725287072874
 40
0.1184204490899613
 40
0.1217719486541217
 40
0.1251269497203087
 40
0.1284853667227008
 40
0.1318471069883769
 40
0.1352120715233973
 40
0.1385801557982913
 40
0.1419512505262167
 40
0.1453252424272822
 40
0.148702014973236
 40
0.1520814491072254
 40
0.1554634239339749
 40
0.1588478173763976
 40
0.1622345067953708
 40
0.1656233695700613
 40
0.1690142836367992
 40
0.1724071279851771
 40
0.1758017831106377
 40
0.1791981314234293
 40
0.1825960576141023
 40
0.1859954489764893
 40
0.1893961956892107
 40
0.1927981910572183
 40
0.1962013317152276
 40
0.1996055177948963
 40
0.2030106530580848
 40
0.2064166449983119
 40
0.2098234049129388
 40
0.2132308479483171
 40
0.2166388931204751
 40
0.22004746331355
 40
0.2234564852583878
 40
0.2268658894935227
 40
0.2302756103106386
 40
0.2336855856866155
 40
0.2370957572039828
 40
0.2405060699616756
 40
0.2439164724776049
 40
0.2473269165847395
 40
0.2507373432140534
 40
0.2541477113167739
 40
0.2575579829715035
 40
0.2609681230769351
 40
0.2643780992332549
 40
0.2677878816237452
 40
0.271197442897258
 40
0.2746067580522193
 40
0.2780158043224861
 40
0.2814245610656292
 40
0.2848330096539751
 40
0.2882411333685492
 40
0.2916489172963159
 40
0.2950563482308179
 40
0.2984634145763147
 40
0.301870106255565
 40
0.3052764146212689
 40
0.3086823323712449
 40
0.312087853467247
 40
0.3154929730575107
 40
0.3188976874028729
 40
0.3223019938065289
 40
0.3257058905471986
 40
0.3291093768157328
 40
0.3325124526550662
 40
0.335915118903311
 40
0.3393173771400096
 40
0.3427192296353221
 40
0.3461206793021526
 40
0.3495217296509872
 40
0.3529223847474033
 40
0.3563226491720926
 40
0.3597225279833209
 40
0.3631220266816865
 40
0.3665211511770693
 40
0.3699199077576581
 40
0.373318303060989
 40
0.3767163440468288
 40
0.3801140379718851
 40
0.3835113923661443
 40
0.3869084150108782
 40
0.3903051139180919
 40
0.393701497311444
 40
0.3970975736084741
 40
0.4004933514041314
 40
0.403888839455467
 40
0.4072840466674653
 40
0.410678982079895
 40
0.4140736548552245
 40
0.4174680742673689
 40
0.4208622496914032
 40
0.4242561905940126
 40
0.4276499065247537
 40
0.4310434071080386
 40
0.4344367020357253
 40
0.4378298010603849
 40
0.441222713989164
 40
0.4446154506781069
 40
0.4480080210270359
 40
0.4514004349749335
 40
0.4547927024956306
 40
0.4581848335940246
 40
0.4615768383025611
 40
0.4649687266781292
 40
0.4683605087991723
 40
0.471752194763181
 40
0.4751437946843348
 40
0.4785353186914476
 40
0.4819267769260496
 40
0.4853181795407033
 40
0.4887095366974352
 40
0.4921008585662958
 40
0.4954921553240605
 40
0.4988834371529915
 40
0.5022747142396419
 40
0.5056659961685608
 40
0.5090572903400601
 40
0.5124486069473537
 40
0.5158399561839215
 40
0.5192313482423204
 40
0.5226227933130353
 40
0.52601430158318
 40
0.5294058832351697
 40
0.5327975484452337
 40
0.5361893073818118
 40
0.5395811702037769
 40
0.5429731470584841
 40
0.5463652480796142
 40
0.549757483384763
 40
0.5531498630727841
 40
0.5565423972208486
 40
0.559935095881185
 40
0.5633279690774542
 40
0.566721026800792
 40
0.5701142790054083
 40
0.5735077356037362
 40
0.5769014064611565
 40
0.5802953013901466
 40
0.5836894301439057
 40
0.587083802409374
 40
0.5904784277996084
 40
0.5938733158454929
 40
0.5972684759866949
 40
0.6006639175618372
 40
0.6040596497978347
 40
0.6074556817983398
 40
0.6108520225312164
 40
0.6142486808150174
 40
0.6176456653043668
 40
0.6210429844741955
 40
0.6244406466027305
 40
0.627838659753225
 40
0.6312370317542604
 40
0.634635770178622
 40
0.6380348823206277
 40
0.6414343751717747
 40
0.6448342553946903
 40
0.648234529295244
 40
0.6516352027927411
 40
0.6550362813880353
 40
0.6584377701295647
 40
0.6618396735770553
 40
0.6652419957629498
 40
0.6686447401512765
 40
0.6720479095939695
 40
0.6754515062844493
 40
0.6788555317083821
 40
0.6822599865914921
 40
0.6856648708443105
 40
0.6890701835037242
 40
0.6924759226712669
 40
0.6958820854479976
 40
0.6992886678659087
 40
0.7026956648157641
 40
0.7061030699712486
 40
0.7095108757094809
 40
0.7129190730277088
 40
0.7163276514562466
 40
0.7197365989676844
 40
0.7231459018822678
 40
0.7265555447696554
 40
0.7299655103470557
 40
0.7333757793739193
 40
0.7367863305433717
 40
0.740197140370584
 40
0.7436081830784492
 40
0.747019430480865
 40
0.7504308518640684
 40
0.7538424138665982
 40
0.7572540803583792
 40
0.7606658123197021
 40
0.7640775621507868
 40
0.7674892745096314
 40
0.7709008998899238
 40
0.7743123853937111
 40
0.7777236746251652
 40
0.7811347075922864
 40
0.784545420617089
 40
0.7879557462560322
 40
0.7913656132325112
 40
0.7947749463834748
 40
0.7981836666220972
 40
0.8015916909189293
 40
0.8049989323036655
 40
0.8084052998900272
 40
0.8118106989261644
 40
0.8152150308730718
 40
0.8186181935134212
 40
0.8220200810933994
 40
0.8254205844996897
 40
0.8288195914739925
 40
0.8322169868669714
 40
0.83561265293358
 40
0.8390064696710762
 40
0.8423983152010015
 40
0.8457880661958274
 40
0.8491755983504685
 40
0.8525607868984307
 40
0.8559435071716651
 40
0.8593236352027394
 40
0.8627010483670048
 40
0.866075626062037
 40
0.8694472504207297
 40
0.8728158070537689
 40
0.8761811858164574
 40
0.8795432815943885
 40
0.8829019951016123
 40
0.886257233684547
 40
0.8896089121243312
 40
0.8929569534299945
 40
0.8963012896145438
 40
0.8996418624458447
 40
0.9029786241642898
 40
0.9063115381591123
 40
0.9096405795957907
 40
0.9129657359869463
 40
0.9162870076998932
 40
0.9196044083945308
 40
0.9229179653858939
 40
0.9262277199264553
 40
0.9295337274042388
 40
0.9328360574534823
 40
0.9361347939757074
 40
0.9394300350698669
 40
0.942721892871116
 40
0.9460104932988612
 40
0.9492959757153322
 40
0.9525784924969476
 40
0.9558582085213638
 40
0.9591353005738651
 40
0.9624099566773173
 40
0.9656823753504393
 40
0.9689527647996624
 40
0.9722213420501873
 40
0.975488332022222
 40
0.9787539665585758
 40
0.9820184834100852
 40
0.985282125185427
 40
0.9885451382720318
 40
0.9918077717348808
 40
0.995070276200006
 40
0.9983328221224517
 40
1.0
 40
1.0
 40
1.0
 40
1.0
 10
259.121951132346
 20
136.9204118023223
 30
0.0
 10
259.1231244148543
 20
136.944716998987
 30
0.0
 10
259.1255082928548
 20
136.9941003514323
 30
0.0
 10
259.1274118112316
 20
137.0685937406242
 30
0.0
 10
259.1280930509899
 20
137.1438646506477
 30
0.0
 10
259.1274001755043
 20
137.2191302904423
 30
0.0
 10
259.1253689430799
 20
137.2943818994137
 30
0.0
 10
259.121990218653
 20
137.3696119979214
 30
0.0
 10
259.1172669009492
 20
137.4448131050725
 30
0.0
 10
259.1111986318235
 20
137.5199781403907
 30
0.0
 10
259.1037858970275
 20
137.5950999794656
 30
0.0
 10
259.0950289347408
 20
137.6701714706503
 30
0.0
 10
259.0849280353625
 20
137.7451854131098
 30
0.0
 10
259.0734834703528
 20
137.8201345458342
 30
0.0
 10
259.0606955223711
 20
137.8950115344726
 30
0.0
 10
259.0465644900108
 20
137.9698089596633
 30
0.0
 10
259.03109070097
 20
138.0445193060204
 30
0.0
 10
259.0142745244434
 20
138.1191349521398
 30
0.0
 10
258.9961163850455
 20
138.1936481616586
 30
0.0
 10
258.9766167774694
 20
138.2680510754788
 30
0.0
 10
258.9557762819066
 20
138.3423357052347
 30
0.0
 10
258.933595580018
 20
138.416493928077
 30
0.0
 10
258.9100754713023
 20
138.4905174828364
 30
0.0
 10
258.8852168896818
 20
138.5643979676099
 30
0.0
 10
258.8590209201317
 20
138.6381268388066
 30
0.0
 10
258.8314888151701
 20
138.7116954116656
 30
0.0
 10
258.8026220110341
 20
138.7850948622483
 30
0.0
 10
258.7724221433646
 20
138.8583162308866
 30
0.0
 10
258.7408910622343
 20
138.9313504270527
 30
0.0
 10
258.7080308463587
 20
139.0041882355985
 30
0.0
 10
258.6738438163425
 20
139.0768203242944
 30
0.0
 10
258.6383325468273
 20
139.1492372525836
 30
0.0
 10
258.6014998774234
 20
139.2214294814507
 30
0.0
 10
258.5633489223247
 20
139.2933873842903
 30
0.0
 10
258.5238830785266
 20
139.3651012586512
 30
0.0
 10
258.4831060325857
 20
139.4365613387189
 30
0.0
 10
258.4410217658821
 20
139.5077578083967
 30
0.0
 10
258.3976345583668
 20
139.5786808148337
 30
0.0
 10
258.352948990796
 20
139.6493204822542
 30
0.0
 10
258.3069699454772
 20
139.7196669259361
 30
0.0
 10
258.2597026055691
 20
139.7897102661918
 30
0.0
 10
258.2111524529955
 20
139.8594406422119
 30
0.0
 10
258.1613252650517
 20
139.9288482256352
 30
0.0
 10
258.1102271097929
 20
139.9979232337224
 30
0.0
 10
258.0578643403069
 20
140.0666559420185
 30
0.0
 10
258.004243587985
 20
140.1350366964043
 30
0.0
 10
257.9493717549076
 20
140.2030559244486
 30
0.0
 10
257.8932560054692
 20
140.2707041459891
 30
0.0
 10
257.8359037573673
 20
140.3379719828823
 30
0.0
 10
257.7773226720809
 20
140.4048501678799
 30
0.0
 10
257.7175206449608
 20
140.4713295526007
 30
0.0
 10
257.6565057950496
 20
140.5374011145844
 30
0.0
 10
257.5942864547456
 20
140.6030559634219
 30
0.0
 10
257.5308711594142
 20
140.6682853459739
 30
0.0
 10
257.4662686370464
 20
140.7330806506951
 30
0.0
 10
257.400487798049
 20
140.7974334110957
 30
0.0
 10
257.3335377252498
 20
140.8613353083759
 30
0.0
 10
257.2654276641825
 20
140.9247781732785
 30
0.0
 10
257.1961670137117
 20
140.98775398721
 30
0.0
 10
257.1257653170477
 20
141.050254882683
 30
0.0
 10
257.0542322531883
 20
141.1122731431364
 30
0.0
 10
256.9815776288208
 20
141.1738012021937
 30
0.0
 10
256.9078113707033
 20
141.2348316424166
 30
0.0
 10
256.832943518541
 20
141.2953571936137
 30
0.0
 10
256.7569842183639
 20
141.3553707307625
 30
0.0
 10
256.6799437164057
 20
141.4148652716
 30
0.0
 10
256.6018323534796
 20
141.473833973936
 30
0.0
 10
256.5226605598401
 20
141.5322701327402
 30
0.0
 10
256.4424388505169
 20
141.5901671770505
 30
0.0
 10
256.3611778211037
 20
141.6475186667473
 30
0.0
 10
256.2788881439794
 20
141.7043182892347
 30
0.0
 10
256.1955805649424
 20
141.7605598560648
 30
0.0
 10
256.1112659002301
 20
141.8162372995406
 30
0.0
 10
256.025955033901
 20
141.8713446693251
 30
0.0
 10
255.939658915553
 20
141.9258761290845
 30
0.0
 10
255.8523886786849
 20
141.9798258787988
 30
0.0
 10
255.7641555175888
 20
142.0331882338421
 30
0.0
 10
255.6749706839857
 20
142.0859576224679
 30
0.0
 10
255.5848453593226
 20
142.1381286530401
 30
0.0
 10
255.4937907814248
 20
142.1896960321707
 30
0.0
 10
255.4018182454075
 20
142.2406545609741
 30
0.0
 10
255.3089391031098
 20
142.2909991324499
 30
0.0
 10
255.2151647626627
 20
142.3407247290086
 30
0.0
 10
255.1205066881737
 20
142.389826420144
 30
0.0
 10
255.0249763995092
 20
142.438299360253
 30
0.0
 10
254.9285854721568
 20
142.4861387866024
 30
0.0
 10
254.8313455371544
 20
142.5333400174413
 30
0.0
 10
254.73326828107
 20
142.5798984502562
 30
0.0
 10
254.6343654460209
 20
142.6258095601673
 30
0.0
 10
254.5346488297198
 20
142.6710688984594
 30
0.0
 10
254.4341302855368
 20
142.715672091246
 30
0.0
 10
254.3328217225698
 20
142.7596148382596
 30
0.0
 10
254.2307351057124
 20
142.802892911764
 30
0.0
 10
254.1278824557129
 20
142.8455021555827
 30
0.0
 10
254.0242758492184
 20
142.8874384842389
 30
0.0
 10
253.9199274187972
 20
142.9286978821996
 30
0.0
 10
253.8148493529344
 20
142.9692764032201
 30
0.0
 10
253.7090538959971
 20
143.0091701697815
 30
0.0
 10
253.6025533481655
 20
143.0483753726166
 30
0.0
 10
253.495360065325
 20
143.0868882703181
 30
0.0
 10
253.3874864589203
 20
143.1247051890237
 30
0.0
 10
253.2789449957644
 20
143.161822522173
 30
0.0
 10
253.1697481978063
 20
143.1982367303308
 30
0.0
 10
253.0599086418515
 20
143.2339443410713
 30
0.0
 10
252.9494389592373
 20
143.2689419489201
 30
0.0
 10
252.8383518354608
 20
143.3032262153465
 30
0.0
 10
252.7266600097603
 20
143.3367938688048
 30
0.0
 10
252.6143762746488
 20
143.3696417048181
 30
0.0
 10
252.5015134754011
 20
143.4017665861012
 30
0.0
 10
252.3880845094935
 20
143.4331654427193
 30
0.0
 10
252.2741023259977
 20
143.4638352722783
 30
0.0
 10
252.1595799249295
 20
143.493773140143
 30
0.0
 10
252.0445303565514
 20
143.522976179681
 30
0.0
 10
251.9289667206326
 20
143.5514415925276
 30
0.0
 10
251.8129021656651
 20
143.5791666488705
 30
0.0
 10
251.6963498880385
 20
143.6061486877507
 30
0.0
 10
251.5793231311731
 20
143.6323851173764
 30
0.0
 10
251.4618351846147
 20
143.6578734154494
 30
0.0
 10
251.3438993830891
 20
143.6826111294993
 30
0.0
 10
251.2255291055206
 20
143.7065958772256
 30
0.0
 10
251.1067377740144
 20
143.7298253468445
 30
0.0
 10
250.9875388528035
 20
143.7522972974386
 30
0.0
 10
250.8679458471626
 20
143.7740095593084
 30
0.0
 10
250.7479723022901
 20
143.7949600343232
 30
0.0
 10
250.6276318021583
 20
143.8151466962711
 30
0.0
 10
250.5069379683345
 20
143.8345675912047
 30
0.0
 10
250.3859044587738
 20
143.8532208377841
 30
0.0
 10
250.2645449665841
 20
143.8711046276126
 30
0.0
 10
250.1428732187658
 20
143.8882172255676
 30
0.0
 10
250.0209029749269
 20
143.9045569701221
 30
0.0
 10
249.8986480259736
 20
143.9201222736589
 30
0.0
 10
249.77612219278
 20
143.9349116227747
 30
0.0
 10
249.6533393248357
 20
143.9489235785743
 30
0.0
 10
249.5303132988738
 20
143.9621567769531
 30
0.0
 10
249.4070580174802
 20
143.9746099288689
 30
0.0
 10
249.283587407685
 20
143.9862818206002
 30
0.0
 10
249.1599154195371
 20
143.9971713139929
 30
0.0
 10
249.0360560246645
 20
144.0072773466921
 30
0.0
 10
248.9120232148182
 20
144.0165989323615
 30
0.0
 10
248.7878310004048
 20
144.0251351608871
 30
0.0
 10
248.6634934090052
 20
144.0328851985667
 30
0.0
 10
248.5390244838827
 20
144.0398482882848
 30
0.0
 10
248.414438282481
 20
144.0460237496711
 30
0.0
 10
248.2897488749124
 20
144.0514109792436
 30
0.0
 10
248.1649703424379
 20
144.0560094505363
 30
0.0
 10
248.0401167759399
 20
144.0598187142097
 30
0.0
 10
247.9152022743888
 20
144.0628383981455
 30
0.0
 10
247.7902409433037
 20
144.0650682075245
 30
0.0
 10
247.6652468932091
 20
144.0665079248879
 30
0.0
 10
247.5402342380875
 20
144.0671574101817
 30
0.0
 10
247.4152171012672
 20
144.0670166007921
 30
0.0
 10
247.2902096407309
 20
144.0660855120149
 30
0.0
 10
247.1652260132193
 20
144.0643642377685
 30
0.0
 10
247.0402803651791
 20
144.0618529503493
 30
0.0
 10
246.9153868043593
 20
144.0585518991666
 30
0.0
 10
246.790559432562
 20
144.0544614109386
 30
0.0
 10
246.6658123440968
 20
144.0495818896161
 30
0.0
 10
246.5411596242371
 20
144.0439138162898
 30
0.0
 10
246.416615347683
 20
144.0374577490794
 30
0.0
 10
246.2921935770287
 20
144.0302143230074
 30
0.0
 10
246.1679083612364
 20
144.0221842498547
 30
0.0
 10
246.0437737341182
 20
144.0133683180014
 30
0.0
 10
245.9198037128266
 20
144.0037673922502
 30
0.0
 10
245.7960122963531
 20
143.9933824136339
 30
0.0
 10
245.6724134640396
 20
143.9822143992076
 30
0.0
 10
245.5490211740992
 20
143.9702644418249
 30
0.0
 10
245.4258493621509
 20
143.9575337098993
 30
0.0
 10
245.3029119397675
 20
143.9440234471507
 30
0.0
 10
245.1802227930378
 20
143.9297349723373
 30
0.0
 10
245.0577957811447
 20
143.914669678974
 30
0.0
 10
244.9356447349608
 20
143.898829035037
 30
0.0
 10
244.8137834556608
 20
143.8822145826557
 30
0.0
 10
244.692225713354
 20
143.864827937792
 30
0.0
 10
244.5709852457366
 20
143.8466707899084
 30
0.0
 10
244.450075756765
 20
143.827744901625
 30
0.0
 10
244.3295109153533
 20
143.8080521083658
 30
0.0
 10
244.2093043540927
 20
143.7875943179966
 30
0.0
 10
244.0894696679973
 20
143.7663735104537
 30
0.0
 10
243.9700204132757
 20
143.7443917373657
 30
0.0
 10
243.8509701061305
 20
143.7216511216683
 30
0.0
 10
243.7323322215866
 20
143.6981538572146
 30
0.0
 10
243.6141201923498
 20
143.673902208381
 30
0.0
 10
243.4963474076971
 20
143.6488985096705
 30
0.0
 10
243.3790272123994
 20
143.6231451653153
 30
0.0
 10
243.2621729056792
 20
143.5966446488792
 30
0.0
 10
243.145797740203
 20
143.5693995028624
 30
0.0
 10
243.0299149211112
 20
143.5414123383102
 30
0.0
 10
242.9145376050867
 20
143.512685834428
 30
0.0
 10
242.7996788994614
 20
143.4832227382033
 30
0.0
 10
242.6853518613653
 20
143.4530258640389
 30
0.0
 10
242.5715694969168
 20
143.4220980933979
 30
0.0
 10
242.4583447604564
 20
143.390442374465
 30
0.0
 10
242.3456905538253
 20
143.3580617218242
 30
0.0
 10
242.2336197256892
 20
143.3249592161585
 30
0.0
 10
242.1221450709089
 20
143.2911380039732
 30
0.0
 10
242.0112793299583
 20
143.2566012973465
 30
0.0
 10
241.9010351883912
 20
143.2213523737105
 30
0.0
 10
241.7914252763573
 20
143.1853945756674
 30
0.0
 10
241.6824621681672
 20
143.1487313108435
 30
0.0
 10
241.574158381908
 20
143.1113660517859
 30
0.0
 10
241.4665263791095
 20
143.0733023359065
 30
0.0
 10
241.3595785644597
 20
143.0345437654772
 30
0.0
 10
241.2533272855712
 20
142.9950940076817
 30
0.0
 10
241.1477848327964
 20
142.9549567947287
 30
0.0
 10
241.0429634390914
 20
142.9141359240317
 30
0.0
 10
240.9388752799267
 20
142.8726352584614
 30
0.0
 10
240.8355324732443
 20
142.8304587266758
 30
0.0
 10
240.7329470794571
 20
142.7876103235341
 30
0.0
 10
240.6311311014897
 20
142.7440941106004
 30
0.0
 10
240.5300964848564
 20
142.6999142167438
 30
0.0
 10
240.4298551177733
 20
142.6550748388408
 30
0.0
 10
240.3304188312989
 20
142.6095802425861
 30
0.0
 10
240.2317993995001
 20
142.5634347634192
 30
0.0
 10
240.1340085396343
 20
142.5166428075726
 30
0.0
 10
240.0370579123443
 20
142.4692088532476
 30
0.0
 10
239.9409591218558
 20
142.4211374519246
 30
0.0
 10
239.8457237161697
 20
142.3724332298145
 30
0.0
 10
239.7513631872389
 20
142.3231008894542
 30
0.0
 10
239.657888971119
 20
142.273145211455
 30
0.0
 10
239.5653124480808
 20
142.2225710564066
 30
0.0
 10
239.4736449426708
 20
142.1713833669403
 30
0.0
 10
239.3828977237047
 20
142.1195871699568
 30
0.0
 10
239.2930820041796
 20
142.0671875790188
 30
0.0
 10
239.2042089410851
 20
142.0141897969109
 30
0.0
 10
239.1162896350958
 20
141.9605991183663
 30
0.0
 10
239.0293351301259
 20
141.9064209329586
 30
0.0
 10
238.9433564595121
 20
141.8516607579561
 30
0.0
 10
238.858364680581
 20
141.7963242682006
 30
0.0
 10
238.7743707936048
 20
141.7404172529546
 30
0.0
 10
238.691385695721
 20
141.6839455886286
 30
0.0
 10
238.6094201457324
 20
141.6269152150925
 30
0.0
 10
238.5284848379101
 20
141.5693321886771
 30
0.0
 10
238.4485903997741
 20
141.51120268597
 30
0.0
 10
238.3697473895134
 20
141.4525330076608
 30
0.0
 10
238.291966293028
 20
141.3933295824179
 30
0.0
 10
238.2152575205656
 20
141.333598970763
 30
0.0
 10
238.1396314029265
 20
141.2733478689099
 30
0.0
 10
238.0650981872126
 20
141.2125831125288
 30
0.0
 10
237.9916680320971
 20
141.1513116803936
 30
0.0
 10
237.919351002597
 20
141.0895406978636
 30
0.0
 10
237.8481570643307
 20
141.0272774401514
 30
0.0
 10
237.7780960772492
 20
140.964529335321
 30
0.0
 10
237.7091777888345
 20
140.9013039669591
 30
0.0
 10
237.6414118267628
 20
140.83760907646
 30
0.0
 10
237.5748076910398
 20
140.7734525648595
 30
0.0
 10
237.5093747456187
 20
140.708842494156
 30
0.0
 10
237.4451222095235
 20
140.6437870880526
 30
0.0
 10
237.3820591475066
 20
140.578294732055
 30
0.0
 10
237.3201944602796
 20
140.5123739728638
 30
0.0
 10
237.2595368743676
 20
140.4460335169983
 30
0.0
 10
237.2000949316447
 20
140.3792822285966
 30
0.0
 10
237.1418769786218
 20
140.312129126339
 30
0.0
 10
237.0848911555669
 20
140.2445833794511
 30
0.0
 10
237.0291453855467
 20
140.1766543027485
 30
0.0
 10
236.9746473634922
 20
140.1083513506971
 30
0.0
 10
236.9214045453939
 20
140.0396841104721
 30
0.0
 10
236.8694241377462
 20
139.9706622940124
 30
0.0
 10
236.8187130873608
 20
139.9012957290803
 30
0.0
 10
236.7692780716792
 20
139.831594349349
 30
0.0
 10
236.7211254897127
 20
139.7615681835603
 30
0.0
 10
236.674261453742
 20
139.6912273438041
 30
0.0
 10
236.6286917819045
 20
139.6205820129926
 30
0.0
 10
236.5844219917949
 20
139.5496424316123
 30
0.0
 10
236.5414572951976
 20
139.478418883858
 30
0.0
 10
236.4998025940583
 20
139.4069216832597
 30
0.0
 10
236.4594624777933
 20
139.3351611579313
 30
0.0
 10
236.4204412220191
 20
139.263147635577
 30
0.0
 10
236.3827427887669
 20
139.1908914284021
 30
0.0
 10
236.3463708282328
 20
139.1184028180811
 30
0.0
 10
236.3113286820893
 20
139.0456920409366
 30
0.0
 10
236.277619388368
 20
138.9727692734896
 30
0.0
 10
236.2452456878961
 20
138.8996446185343
 30
0.0
 10
236.2142100322537
 20
138.8263280918895
 30
0.0
 10
236.184514593191
 20
138.7528296099719
 30
0.0
 10
236.1561612734289
 20
138.6791589783257
 30
0.0
 10
236.1291517187417
 20
138.6053258812323
 30
0.0
 10
236.1034873312079
 20
138.5313398725111
 30
0.0
 10
236.0791692834928
 20
138.4572103676063
 30
0.0
 10
236.0561985340165
 20
138.3829466370386
 30
0.0
 10
236.0345758428483
 20
138.3085578012839
 30
0.0
 10
236.0143017881578
 20
138.2340528271241
 30
0.0
 10
235.9953767830474
 20
138.1594405254956
 30
0.0
 10
235.9778010925896
 20
138.0847295508451
 30
0.0
 10
235.9615748508785
 20
138.0099284019865
 30
0.0
 10
235.9466980779499
 20
137.935045424433
 30
0.0
 10
235.9331706962736
 20
137.8600888141658
 30
0.0
 10
235.9209925470872
 20
137.7850666227969
 30
0.0
 10
235.9101634047774
 20
137.7099867640149
 30
0.0
 10
235.9006829952239
 20
137.6348570214114
 30
0.0
 10
235.8925509953422
 20
137.5596850569571
 30
0.0
 10
235.8857670980333
 20
137.4844784224312
 30
0.0
 10
235.8803308278985
 20
137.4092445647591
 30
0.0
 10
235.8762422806668
 20
137.3339908585087
 30
0.0
 10
235.8734994106825
 20
137.2587245409975
 30
0.0
 10
235.8721081893105
 20
137.1834530140988
 30
0.0
 10
235.8720447349229
 20
137.1081827807181
 30
0.0
 10
235.8733966384377
 20
137.0329240979338
 30
0.0
 10
235.8754378999235
 20
136.9699427133424
 30
0.0
 10
235.8775454317992
 20
136.9320658090804
 30
0.0
 10
235.8782581756895
 20
136.9192562604287
 30
0.0
  0
LINE
  5
E4
330
1F
100
AcDbEntity
  8
0
  6
Continuous
 62
     7
370
    30
100
AcDbLine
 10
235.8780625984
 20
136.9197705404
 30
0.0
 11
237.1341393832
 21
113.2623123618
 31
0.0
  0
LINE
  5
E5
330
1F
100
AcDbEntity
  8
0
  6
Continuous
 62
     7
370
    30
100
AcDbLine
 10
257.8658606168
 20
113.2623123618
 30
0.0
 11
259.1219374016
 21
136.9197705404
 31
0.0
  0
SPLINE
  5
E6
330
1F
100
AcDbEntity
  8
0
  6
Continuous
 62
     7
370
    30
100
AcDbSpline
210
0.0
220
0.0
230
1.0
 70
     8
 71
     3
 72
   277
 73
   273
 74
     0
 42
0.000000001
 43
0.00000001
 40
0.0
 40
0.0
 40
0.0
 40
0.0
 40
0.0007711877154901
 40
0.0043547143153596
 40
0.0079391424162671
 40
0.0115247973075387
 40
0.0151119982095401
 40
0.0187010567787569
 40
0.0222922756613068
 40
0.0258859471040655
 40
0.0294823516323701
 40
0.0330817568032562
 40
0.0366844160427357
 40
0.0402905675753298
 40
0.0439004334536654
 40
0.0475142186953989
 40
0.0511321105340209
 40
0.0547542777893814
 40
0.0583808703627763
 40
0.062012018860539
 40
0.0656478343487948
 40
0.0692884082408747
 40
0.0729338123175644
 40
0.0765840988787851
 40
0.0802393010241483
 40
0.0838994330580539
 40
0.0875644910137854
 40
0.0912344532896007
 40
0.0949092813885283
 40
0.0985889207522849
 40
0.102273301679023
 40
0.1059623403134109
 40
0.1096559396971134
 40
0.1133539908673303
 40
0.1170563739906059
 40
0.1207629595195161
 40
0.1244736093596788
 40
0.1281881780352228
 40
0.1319065138413938
 40
0.1356284599737642
 40
0.1393538556244429
 40
0.1430825370367469
 40
0.146814338510898
 40
0.1505490933544695
 40
0.1542866347725121
 40
0.1580267966934979
 40
0.1617694145282623
 40
0.1655143258603487
 40
0.1692613710671126
 40
0.1730103938718831
 40
0.1767612418281807
 40
0.180513766738066
 40
0.1842678250068356
 40
0.1880232779372324
 40
0.191779991966418
 40
0.1955378388494596
 40
0.1992966957931721
 40
0.2030564455443965
 40
0.2068169764366962
 40
0.2105781823996543
 40
0.2143399629346229
 40
0.2181022230608714
 40
0.2218648732358014
 40
0.225627829252831
 40
0.2293910121200979
 40
0.2331543479233044
 40
0.2369177676753169
 40
0.2406811952690836
 40
0.2444445640852936
 40
0.2482078203636332
 40
0.2519709145262408
 40
0.2557338009965833
 40
0.2594964380171678
 40
0.2632587874681447
 40
0.2670208146878493
 40
0.2707824882963248
 40
0.2745437800223906
 40
0.278304664535172
 40
0.2820651192803025
 40
0.2858251243214268
 40
0.2895846621872702
 40
0.2933437177243872
 40
0.2971022779559799
 40
0.3008603319465931
 40
0.3046178706729568
 40
0.3083748869008395
 40
0.3121313750678631
 40
0.3158873311722979
 40
0.319642752667519
 40
0.3233976383622139
 40
0.3271519883260001
 40
0.3309058038004358
 40
0.3346590871150494
 40
0.3384118416084096
 40
0.3421640715538652
 40
0.3459157820898729
 40
0.3496669791546352
 40
0.3534176694248617
 40
0.357167860258541
 40
0.3609175596413799
 40
0.3646667761368335
 40
0.3684155188395148
 40
0.3721637973317653
 40
0.3759116216432496
 40
0.379659002213405
 40
0.3834059498565732
 40
0.3871524757296116
 40
0.3908985913019681
 40
0.3946443083278704
 40
0.3983896388207677
 40
0.4021345950295728
 40
0.4058791894168795
 40
0.409623434638835
 40
0.4133673435266356
 40
0.417110929069573
 40
0.4208542043994397
 40
0.424597182776271
 40
0.4283398775753034
 40
0.4320823022750716
 40
0.4358244704465654
 40
0.4395663957433876
 40
0.4433080918927602
 40
0.4470495726874376
 40
0.4507908519783501
 40
0.4545319436679877
 40
0.4582728617043968
 40
0.4620136200758233
 40
0.465754232805875
 40
0.4694947139491688
 40
0.4732350775874317
 40
0.4769753378260216
 40
0.480715508790743
 40
0.4844556046250436
 40
0.4881956394874306
 40
0.4919356275491301
 40
0.4956755829919174
 40
0.4994155200061505
 40
0.5031554527888268
 40
0.506895393919704
 40
0.5106353544918228
 40
0.514375348712059
 40
0.5181153907873449
 40
0.5218554949227567
 40
0.5255956753195575
 40
0.5293359461731031
 40
0.5330763216705504
 40
0.5368168159883692
 40
0.5405574432896162
 40
0.5442982177208621
 40
0.5480391534088128
 40
0.5517802644565764
 40
0.5555215649394193
 40
0.559263068900125
 40
0.5630047903437886
 40
0.5667467432320082
 40
0.5704889414764851
 40
0.5742313989319026
 40
0.5779741293880565
 40
0.581717146561133
 40
0.5854604640841816
 40
0.5892040954965195
 40
0.5929480542321769
 40
0.5966923536072113
 40
0.6004370068057917
 40
0.6041820268650011
 40
0.6079274266583168
 40
0.6116732188775076
 40
0.6154194160130017
 40
0.619166030332553
 40
0.6229130738580934
 40
0.6266605583406045
 40
0.6304084952329778
 40
0.6341568956606318
 40
0.6379057703898002
 40
0.6416551297933387
 40
0.6454049838138279
 40
0.649155341923947
 40
0.6529062130837748
 40
0.6566576056950141
 40
0.6604095275518173
 40
0.6641619857881191
 40
0.6679149868212478
 40
0.6716685362915943
 40
0.6754226389982063
 40
0.6791772988300077
 40
0.6829325186925614
 40
0.6866883004300086
 40
0.690444644742182
 40
0.6942015510964664
 40
0.6979590176344503
 40
0.701717041072956
 40
0.705475616599486
 40
0.7092347377617298
 40
0.7129943963512136
 40
0.7167545822807669
 40
0.7205152834559417
 40
0.7242764856401254
 40
0.7280381723135597
 40
0.7318003245262023
 40
0.7355629207445727
 40
0.7393259366928204
 40
0.7430893451881652
 40
0.7468531159712863
 40
0.7506172155318764
 40
0.7543816069301429
 40
0.7581462496148227
 40
0.7619110992387127
 40
0.7656761074725172
 40
0.7694412218184958
 40
0.7732063834641978
 40
0.7769715114976755
 40
0.7807365382092543
 40
0.7845013909500785
 40
0.7882659919698535
 40
0.7920302582689205
 40
0.7957941014649825
 40
0.7995574276777421
 40
0.8033201374345359
 40
0.8070821256006767
 40
0.8108432813380477
 40
0.8146034880959846
 40
0.8183626236383889
 40
0.8221205601113453
 40
0.8258771641553388
 40
0.8296322970663406
 40
0.8333858150098212
 40
0.837137569291693
 40
0.8408874066897997
 40
0.8446351698493284
 40
0.8483806977449604
 40
0.852123826212043
 40
0.8558643885483802
 40
0.8596022161873293
 40
0.8633371394421876
 40
0.8670689883205777
 40
0.8707975934066005
 40
0.8745227868073299
 40
0.8782444031589071
 40
0.8819622806863728
 40
0.885676262309999
 40
0.8893861967897505
 40
0.8930919398983054
 40
0.8967933556121062
 40
0.9004903173088289
 40
0.9041827089591065
 40
0.9078704262996523
 40
0.9115533779746079
 40
0.9152314866318926
 40
0.918904689961276
 40
0.922572941661548
 40
0.9262362123244845
 40
0.9298944902242428
 40
0.9335477820019713
 40
0.9371961132363881
 40
0.9408395288926238
 40
0.9444780936430757
 40
0.9481118920554598
 40
0.9517410286449137
 40
0.9553656277886494
 40
0.9589858335029873
 40
0.9626018090843282
 40
0.9662137366168716
 40
0.9698218163511455
 40
0.9734262659586996
 40
0.9770273196691168
 40
0.9806252272965422
 40
0.984220253163573
 40
0.987812674930867
 40
0.9914027823414361
 40
0.9949908758887874
 40
0.9985772654183955
 40
1.0
 40
1.0
 40
1.0
 40
1.0
 10
237.1342572516418
 20
113.2622342693107
 30
0.0
 10
237.1344941843226
 20
113.2571128863657
 30
0.0
 10
237.1358320870357
 20
113.2281936502614
 30
0.0
 10
237.1395914928585
 20
113.1755096608919
 30
0.0
 10
237.1455988029299
 20
113.1041938300711
 30
0.0
 10
237.1530652062288
 20
113.0329275294966
 30
0.0
 10
237.161844871414
 20
112.9617142402868
 30
0.0
 10
237.171976556536
 20
112.8905626202756
 30
0.0
 10
237.1834495497237
 20
112.8194800271675
 30
0.0
 10
237.1962664095142
 20
112.7484742745979
 30
0.0
 10
237.2104261248457
 20
112.6775531796631
 30
0.0
 10
237.2259286128699
 20
112.6067247013758
 30
0.0
 10
237.2427734923028
 20
112.5359969191538
 30
0.0
 10
237.2609603905177
 20
112.4653780525578
 30
0.0
 10
237.2804888377565
 20
112.3948764681436
 30
0.0
 10
237.3013582709111
 20
112.3245006878046
 30
0.0
 10
237.3235680069748
 20
112.2542593946146
 30
0.0
 10
237.3471172239881
 20
112.1841614371315
 30
0.0
 10
237.372004939625
 20
112.1142158318141
 30
0.0
 10
237.3982299903701
 20
112.0444317635797
 30
0.0
 10
237.4257910108052
 20
111.9748185844599
 30
0.0
 10
237.4546864134422
 20
111.9053858103565
 30
0.0
 10
237.4849143692913
 20
111.8361431159216
 30
0.0
 10
237.5164727894046
 20
111.7671003276098
 30
0.0
 10
237.5493593076105
 20
111.6982674149781
 30
0.0
 10
237.5835712646348
 20
111.6296544803322
 30
0.0
 10
237.6191056937898
 20
111.5612717468417
 30
0.0
 10
237.6559593083822
 20
111.4931295452694
 30
0.0
 10
237.6941284909661
 20
111.42523829948
 30
0.0
 10
237.7336092845391
 20
111.357608510908
 30
0.0
 10
237.774397385746
 20
111.2902507421789
 30
0.0
 10
237.8164881401239
 20
111.2231756000889
 30
0.0
 10
237.8598765393915
 20
111.1563937181507
 30
0.0
 10
237.9045572207532
 20
111.0899157389162
 30
0.0
 10
237.9505244681585
 20
111.0237522962848
 30
0.0
 10
237.997772215432
 20
110.9579139979964
 30
0.0
 10
238.0462940511613
 20
110.8924114085019
 30
0.0
 10
238.0960832252128
 20
110.8272550323862
 30
0.0
 10
238.1471326567222
 20
110.7624552985059
 30
0.0
 10
238.1994349433992
 20
110.6980225449812
 30
0.0
 10
238.2529823719696
 20
110.6339670051656
 30
0.0
 10
238.3077669295771
 20
110.5702987946904
 30
0.0
 10
238.363780315961
 20
110.507027899663
 30
0.0
 10
238.4210139562315
 20
110.4441641660738
 30
0.0
 10
238.4794590140659
 20
110.3817172904443
 30
0.0
 10
238.5391064051582
 20
110.3196968117316
 30
0.0
 10
238.5999468107645
 20
110.2581121044817
 30
0.0
 10
238.6619706912
 20
110.1969723732091
 30
0.0
 10
238.7251682991537
 20
110.1362866479648
 30
0.0
 10
238.7895296927063
 20
110.0760637810396
 30
0.0
 10
238.8550447479482
 20
110.0163124447425
 30
0.0
 10
238.9217031711111
 20
109.9570411301799
 30
0.0
 10
238.9894945101444
 20
109.8982581469603
 30
0.0
 10
239.0584081656774
 20
109.8399716237399
 30
0.0
 10
239.1284334013289
 20
109.7821895095252
 30
0.0
 10
239.1995593533321
 20
109.7249195756458
 30
0.0
 10
239.2717750394597
 20
109.668169418312
 30
0.0
 10
239.3450693672441
 20
109.6119464616732
 30
0.0
 10
239.4194311414943
 20
109.5562579612971
 30
0.0
 10
239.4948490711234
 20
109.5011110079916
 30
0.0
 10
239.5713117753047
 20
109.4465125318981
 30
0.0
 10
239.6488077889819
 20
109.392469306789
 30
0.0
 10
239.727325567763
 20
109.3389879545073
 30
0.0
 10
239.8068534922301
 20
109.286074949492
 30
0.0
 10
239.8873798717046
 20
109.2337366233389
 30
0.0
 10
239.9688929474994
 20
109.1819791693527
 30
0.0
 10
240.0513808088631
 20
109.1308087009216
 30
0.0
 10
240.1348314258993
 20
109.0802312305986
 30
0.0
 10
240.2192327115114
 20
109.03025263495
 30
0.0
 10
240.3045726147558
 20
108.980878608291
 30
0.0
 10
240.3908390898274
 20
108.9321146915728
 30
0.0
 10
240.4780200341507
 20
108.8839663142645
 30
0.0
 10
240.5661032890367
 20
108.836438797982
 30
0.0
 10
240.6550766401297
 20
108.7895373599213
 30
0.0
 10
240.7449278176815
 20
108.7432671160867
 30
0.0
 10
240.8356444966795
 20
108.6976330843127
 30
0.0
 10
240.9272142968553
 20
108.6526401870785
 30
0.0
 10
241.0196247825952
 20
108.6082932541166
 30
0.0
 10
241.1128634627771
 20
108.5645970248196
 30
0.0
 10
241.2069177905495
 20
108.5215561504499
 30
0.0
 10
241.3017751630741
 20
108.479175196156
 30
0.0
 10
241.3974229212443
 20
108.4374586428043
 30
0.0
 10
241.4938483493956
 20
108.3964108886323
 30
0.0
 10
241.5910386750203
 20
108.3560362507307
 30
0.0
 10
241.6889810684966
 20
108.3163389663634
 30
0.0
 10
241.7876626428415
 20
108.2773231941333
 30
0.0
 10
241.8870704534976
 20
108.2389930150019
 30
0.0
 10
241.9871914981587
 20
108.2013524331726
 30
0.0
 10
242.0880127166412
 20
108.1644053768439
 30
0.0
 10
242.1895209908067
 20
108.1281556988438
 30
0.0
 10
242.2917031445394
 20
108.0926071771513
 30
0.0
 10
242.3945459437817
 20
108.0577635153138
 30
0.0
 10
242.4980360966309
 20
108.0236283427688
 30
0.0
 10
242.6021602534986
 20
107.9902052150766
 30
0.0
 10
242.7069050073348
 20
107.9574976140715
 30
0.0
 10
242.8122568939171
 20
107.9255089479387
 30
0.0
 10
242.9182023922055
 20
107.8942425512236
 30
0.0
 10
243.0247279247634
 20
107.863701684779
 30
0.0
 10
243.1318198582437
 20
107.833889535657
 30
0.0
 10
243.2394645039403
 20
107.8048092169519
 30
0.0
 10
243.3476481184031
 20
107.7764637675971
 30
0.0
 10
243.4563569041172
 20
107.7488561521241
 30
0.0
 10
243.5655770102426
 20
107.7219892603862
 30
0.0
 10
243.6752945334158
 20
107.6958659072519
 30
0.0
 10
243.7854955186088
 20
107.6704888322734
 30
0.0
 10
243.8961659600475
 20
107.6458606993315
 30
0.0
 10
244.0072918021835
 20
107.6219840962639
 30
0.0
 10
244.1188589407215
 20
107.5988615344776
 30
0.0
 10
244.2308532236976
 20
107.5764954485497
 30
0.0
 10
244.3432604526087
 20
107.5548881958201
 30
0.0
 10
244.4560663835895
 20
107.5340420559778
 30
0.0
 10
244.5692567286363
 20
107.5139592306438
 30
0.0
 10
244.682817156875
 20
107.4946418429534
 30
0.0
 10
244.7967332958717
 20
107.4760919371393
 30
0.0
 10
244.9109907329843
 20
107.4583114781187
 30
0.0
 10
245.0255750167526
 20
107.4413023510845
 30
0.0
 10
245.1404716583256
 20
107.4250663611047
 30
0.0
 10
245.2556661329232
 20
107.409605232729
 30
0.0
 10
245.371143881332
 20
107.3949206096066
 30
0.0
 10
245.4868903114321
 20
107.3810140541145
 30
0.0
 10
245.6028907997539
 20
107.3678870469987
 30
0.0
 10
245.7191306930629
 20
107.3555409870296
 30
0.0
 10
245.8355953099699
 20
107.3439771906713
 30
0.0
 10
245.9522699425674
 20
107.3331968917673
 30
0.0
 10
246.0691398580874
 20
107.3232012412429
 30
0.0
 10
246.1861903005815
 20
107.3139913068246
 30
0.0
 10
246.3034064926204
 20
107.305568072778
 30
0.0
 10
246.4207736370115
 20
107.2979324396642
 30
0.0
 10
246.5382769185336
 20
107.291085224116
 30
0.0
 10
246.6559015056859
 20
107.2850271586336
 30
0.0
 10
246.7736325524515
 20
107.2797588914013
 30
0.0
 10
246.8914552000729
 20
107.2752809861239
 30
0.0
 10
247.0093545788373
 20
107.2715939218857
 30
0.0
 10
247.1273158098726
 20
107.26869809303
 30
0.0
 10
247.2453240069505
 20
107.2665938090605
 30
0.0
 10
247.3633642782956
 20
107.2652812945652
 30
0.0
 10
247.4814217284006
 20
107.2647606891619
 30
0.0
 10
247.5994814427761
 20
107.2650320474275
 30
0.0
 10
247.7175284741064
 20
107.2660953381169
 30
0.0
 10
247.8355478768841
 20
107.2679504434838
 30
0.0
 10
247.9535247263676
 20
107.2705971598721
 30
0.0
 10
248.0714441360601
 20
107.2740351990202
 30
0.0
 10
248.1892912267846
 20
107.2782641878483
 30
0.0
 10
248.3070511284957
 20
107.2832836685635
 30
0.0
 10
248.4247089820861
 20
107.2890930987867
 30
0.0
 10
248.5422499411859
 20
107.2956918517023
 30
0.0
 10
248.6596591739541
 20
107.3030792162297
 30
0.0
 10
248.7769218648588
 20
107.3112543972156
 30
0.0
 10
248.8940232164472
 20
107.3202165156497
 30
0.0
 10
249.0109484511021
 20
107.3299646088994
 30
0.0
 10
249.1276828127839
 20
107.3404976309669
 30
0.0
 10
249.2442115687575
 20
107.3518144527658
 30
0.0
 10
249.360520011301
 20
107.3639138624172
 30
0.0
 10
249.4765934593956
 20
107.3767945655661
 30
0.0
 10
249.5924172603949
 20
107.3904551857157
 30
0.0
 10
249.7079767916726
 20
107.4048942645795
 30
0.0
 10
249.8232574622456
 20
107.420110262451
 30
0.0
 10
249.9382447143716
 20
107.4361015585896
 30
0.0
 10
250.0529240251205
 20
107.4528664516221
 30
0.0
 10
250.1672809079153
 20
107.4704031599579
 30
0.0
 10
250.2813009140438
 20
107.4887098222183
 30
0.0
 10
250.3949696341363
 20
107.5077844976772
 30
0.0
 10
250.5082726996104
 20
107.5276251667132
 30
0.0
 10
250.6211957840776
 20
107.5482297312699
 30
0.0
 10
250.7337246047138
 20
107.5695960153247
 30
0.0
 10
250.8458449235883
 20
107.5917217653635
 30
0.0
 10
250.9575425489509
 20
107.6146046508585
 30
0.0
 10
251.0688033364755
 20
107.6382422647494
 30
0.0
 10
251.1796131904572
 20
107.6626321239232
 30
0.0
 10
251.2899580649611
 20
107.6877716696916
 30
0.0
 10
251.3998239649221
 20
107.7136582682641
 30
0.0
 10
251.5091969471909
 20
107.7402892112115
 30
0.0
 10
251.6180631215276
 20
107.7676617159199
 30
0.0
 10
251.7264086515382
 20
107.7957729260294
 30
0.0
 10
251.8342197555539
 20
107.8246199118556
 30
0.0
 10
251.9414827074499
 20
107.8541996707892
 30
0.0
 10
252.048183837403
 20
107.8845091276702
 30
0.0
 10
252.1543095325858
 20
107.9155451351322
 30
0.0
 10
252.2598462377956
 20
107.9473044739124
 30
0.0
 10
252.3647804560181
 20
107.9797838531216
 30
0.0
 10
252.4690987489217
 20
108.0129799104703
 30
0.0
 10
252.5727877372846
 20
108.0468892124438
 30
0.0
 10
252.6758341013517
 20
108.0815082544215
 30
0.0
 10
252.7782245811213
 20
108.1168334607335
 30
0.0
 10
252.8799459765613
 20
108.1528611846482
 30
0.0
 10
252.9809851477559
 20
108.1895877082837
 30
0.0
 10
253.0813290149816
 20
108.2270092424353
 30
0.0
 10
253.180964558715
 20
108.2651219263121
 30
0.0
 10
253.2798788195739
 20
108.3039218271745
 30
0.0
 10
253.3780588981924
 20
108.3434049398629
 30
0.0
 10
253.4754919550354
 20
108.3835671862111
 30
0.0
 10
253.5721652101533
 20
108.4244044143333
 30
0.0
 10
253.6680659428839
 20
108.4659123977767
 30
0.0
 10
253.7631814915057
 20
108.5080868345297
 30
0.0
 10
253.8574992528492
 20
108.5509233458768
 30
0.0
 10
253.9510066818748
 20
108.5944174750891
 30
0.0
 10
254.0436912912244
 20
108.6385646859426
 30
0.0
 10
254.1355406507595
 20
108.6833603610535
 30
0.0
 10
254.2265423870956
 20
108.728799800021
 30
0.0
 10
254.316684183148
 20
108.7748782173709
 30
0.0
 10
254.4059537777019
 20
108.8215907402878
 30
0.0
 10
254.4943389650272
 20
108.8689324061328
 30
0.0
 10
254.5818275945529
 20
108.9168981597354
 30
0.0
 10
254.6684075706266
 20
108.9654828504584
 30
0.0
 10
254.7540668523774
 20
109.014681229028
 30
0.0
 10
254.8387934537118
 20
109.0644879441286
 30
0.0
 10
254.922575443467
 20
109.1148975387616
 30
0.0
 10
255.005400945753
 20
109.1659044463693
 30
0.0
 10
255.0872581263052
 20
109.2175029777724
 30
0.0
 10
255.1681350684887
 20
109.2696872351454
 30
0.0
 10
255.2480199105649
 20
109.3224511856671
 30
0.0
 10
255.3269008612585
 20
109.3757886656404
 30
0.0
 10
255.4047663199839
 20
109.4296934606762
 30
0.0
 10
255.4816047505447
 20
109.4841592176272
 30
0.0
 10
255.5574046839792
 20
109.5391794394411
 30
0.0
 10
255.6321547219273
 20
109.5947474799568
 30
0.0
 10
255.7058435405457
 20
109.6508565386709
 30
0.0
 10
255.7784598950086
 20
109.707499655526
 30
0.0
 10
255.8499926246361
 20
109.7646697057733
 30
0.0
 10
255.9204306586819
 20
109.8223593949717
 30
0.0
 10
255.9897630228127
 20
109.8805612541892
 30
0.0
 10
256.0579788463073
 20
109.9392676354809
 30
0.0
 10
256.1250673699924
 20
109.9984707077221
 30
0.0
 10
256.1910179549295
 20
110.0581624528797
 30
0.0
 10
256.2558200918545
 20
110.1183346628122
 30
0.0
 10
256.3194634113642
 20
110.1789789366874
 30
0.0
 10
256.3819376948305
 20
110.2400866791151
 30
0.0
 10
256.4432328860111
 20
110.3016490990866
 30
0.0
 10
256.5033391033102
 20
110.3636572098185
 30
0.0
 10
256.5622466526307
 20
110.4261018295891
 30
0.0
 10
256.6199460407396
 20
110.4889735836567
 30
0.0
 10
256.6764279890556
 20
110.5522629073378
 30
0.0
 10
256.7316834477499
 20
110.6159600503173
 30
0.0
 10
256.7857036100355
 20
110.6800550822486
 30
0.0
 10
256.8384799265052
 20
110.7445378996888
 30
0.0
 10
256.8900041193639
 20
110.809398234397
 30
0.0
 10
256.9402681963888
 20
110.8746256630067
 30
0.0
 10
256.9892644644405
 20
110.9402096180599
 30
0.0
 10
257.0369855423406
 20
111.0061394003727
 30
0.0
 10
257.0834243729263
 20
111.072404192675
 30
0.0
 10
257.1285742340925
 20
111.1389930744463
 30
0.0
 10
257.1724287486335
 20
111.2058950378438
 30
0.0
 10
257.2149818927045
 20
111.2730990045974
 30
0.0
 10
257.2562280027328
 20
111.3405938437236
 30
0.0
 10
257.2961617806261
 20
111.4083683898893
 30
0.0
 10
257.3347782971411
 20
111.4764114622419
 30
0.0
 10
257.3720729933023
 20
111.5447118835035
 30
0.0
 10
257.408041679784
 20
111.6132584991198
 30
0.0
 10
257.4426805341995
 20
111.6820401962451
 30
0.0
 10
257.4759860962711
 20
111.7510459223422
 30
0.0
 10
257.507955260888
 20
111.820264703179
 30
0.0
 10
257.5385852690911
 20
111.8896856600071
 30
0.0
 10
257.5678736970562
 20
111.9592980257199
 30
0.0
 10
257.5958184431792
 20
112.0290911597998
 30
0.0
 10
257.6224177133972
 20
112.0990545618829
 30
0.0
 10
257.6476700049016
 20
112.1691778837887
 30
0.0
 10
257.6715740884387
 20
112.2394509398853
 30
0.0
 10
257.6941289893629
 20
112.3098637156858
 30
0.0
 10
257.7153339678082
 20
112.3804063745922
 30
0.0
 10
257.7351884976727
 20
112.4510692627482
 30
0.0
 10
257.7536922466593
 20
112.5218429119147
 30
0.0
 10
257.7708450501698
 20
112.5927180405789
 30
0.0
 10
257.7866469070449
 20
112.6636855525142
 30
0.0
 10
257.8010978940014
 20
112.7347365358277
 30
0.0
 10
257.8141983842905
 20
112.8058622513865
 30
0.0
 10
257.8259481349235
 20
112.8770541523343
 30
0.0
 10
257.836349594374
 20
112.9483037796207
 30
0.0
 10
257.8453954824418
 20
113.0196031120548
 30
0.0
 10
257.8531150092305
 20
113.0909432147459
 30
0.0
 10
257.8594014659533
 20
113.1623192253968
 30
0.0
 10
257.8635992880481
 20
113.2193643885742
 30
0.0
 10
257.8652249408241
 20
113.2526273171108
 30
0.0
 10
257.8656866727299
 20
113.2620749406201
 30
0.0
  0
LINE
  5
E7
330
1F
100
AcDbEntity
  8
0
  6
Continuous
 62
     7
370
    30
100
AcDbLine
 10
240.0
 20
109.1628807682
 30
0.0
 11
240.0
 21
94.7587264093
 31
0.0
  0
LINE
  5
E8
330
1F
100
AcDbEntity
  8
0
  6
Continuous
 62
     7
370
    30
100
AcDbLine
 10
255.0
 20
92.093893081
 30
0.0
 11
255.0
 21
109.1627763197
 31
0.0
  0
SPLINE
  5
E9
330
1F
100
AcDbEntity
  8
0
  6
Continuous
 62
     7
370
    30
100
AcDbSpline
210
0.0
220
0.0
230
1.0
 70
    11
 71
     3
 72
   295
 73
   291
 74
     0
 42
0.000000001
 43
0.00000001
 40
0.0
 40
0.0
 40
0.0
 40
0.0
 40
0.003967708759855
 40
0.00793794204758
 40
0.0119090570422518
 40
0.015879361064559
 40
0.0198471291880245
 40
0.0237992869830187
 40
0.0277537520361374
 40
0.0317090771664307
 40
0.0356637092234689
 40
0.0396160071685123
 40
0.0429046851632552
 40
0.046193781646399
 40
0.0494824790246716
 40
0.0535550221590847
 40
0.0576275765781809
 40
0.0617182829067444
 40
0.0658104084518667
 40
0.0699025676215181
 40
0.073993319817551
 40
0.0781098295058357
 40
0.0822277722504924
 40
0.0863456751903571
 40
0.0904621305803886
 40
0.0945986880218353
 40
0.0987352211493583
 40
0.102410068019852
 40
0.1060862159950139
 40
0.1097621999483439
 40
0.1134368230716927
 40
0.1163567161727228
 40
0.119278021905393
 40
0.1221996180716793
 40
0.1251205738995932
 40
0.1280401733929613
 40
0.1304696592092204
 40
0.1328994714192156
 40
0.1353289035774281
 40
0.1380808493364145
 40
0.1408348547526551
 40
0.1435893087013314
 40
0.1463428523444884
 40
0.1490944105252572
 40
0.1518838118589776
 40
0.1546759940726971
 40
0.1574689299108687
 40
0.160260770982472
 40
0.1630498859145459
 40
0.1657997707627158
 40
0.1685517608915589
 40
0.1713048571107551
 40
0.1740576018703152
 40
0.1768081201330157
 40
0.179586475757106
 40
0.1823660093346584
 40
0.1851462436464494
 40
0.1879263521321196
 40
0.190705190149654
 40
0.1947828047694727
 40
0.1988616978784844
 40
0.2029410464366777
 40
0.20701928230565
 40
0.2111168594633045
 40
0.2152150882411363
 40
0.2193133959610066
 40
0.2234110807836369
 40
0.2275270136069485
 40
0.2316437598882151
 40
0.2357602109323395
 40
0.2398757410747215
 40
0.2431892032992993
 40
0.2465044335430557
 40
0.2498196874136163
 40
0.2531338173988842
 40
0.2564463563582087
 40
0.2593780519364804
 40
0.2623123754724955
 40
0.2652479504421251
 40
0.2681834417739922
 40
0.2711175722138681
 40
0.2740491389473947
 40
0.2770293923393056
 40
0.2800123479173822
 40
0.2829967330173287
 40
0.2859811996009091
 40
0.2889643433048906
 40
0.2919447222291015
 40
0.2948698977941075
 40
0.2977972433119678
 40
0.3007258187089255
 40
0.30365455592865
 40
0.3065822750270421
 40
0.3095076998357739
 40
0.3130634276782552
 40
0.3166215231576188
 40
0.3201806232996553
 40
0.323739117355478
 40
0.3272951797134855
 40
0.3311897006151289
 40
0.3350842503848134
 40
0.3389997636904982
 40
0.3429168749178763
 40
0.3468341023481298
 40
0.3507497741760903
 40
0.3546928097555371
 40
0.3586372664488793
 40
0.3625817899032185
 40
0.3665249165529185
 40
0.3704869985703018
 40
0.3744490874832203
 40
0.3784093265308225
 40
0.3823695696672251
 40
0.386346285275104
 40
0.3903243034403276
 40
0.3943023270842218
 40
0.39827905016546
 40
0.4022797344837142
 40
0.4062817475287674
 40
0.4102837512816057
 40
0.4142844229244442
 40
0.4183033748514542
 40
0.4223223239328943
 40
0.4265692237301729
 40
0.430816119496183
 40
0.4342634440126426
 40
0.437712114677183
 40
0.4411612202309136
 40
0.4446098627675156
 40
0.4480571636836044
 40
0.4515973169077027
 40
0.4551389698481683
 40
0.458681109803241
 40
0.4622227360825472
 40
0.4657628669362138
 40
0.4687589011113715
 40
0.4717552418989019
 40
0.4747512737651484
 40
0.4788221656364059
 40
0.4828954033324606
 40
0.4869694156645129
 40
0.4910426349366203
 40
0.4951135113466363
 40
0.49916530195629
 40
0.5032194121904837
 40
0.5072743013496134
 40
0.5113284179628197
 40
0.5153802139256767
 40
0.5187517202312008
 40
0.5221236702259267
 40
0.5254951791603489
 40
0.5295877879468874
 40
0.5336803990201855
 40
0.5377928612384231
 40
0.5419068948425633
 40
0.5460209453512731
 40
0.550133430629987
 40
0.554274533333827
 40
0.5584171992272008
 40
0.5625598857572464
 40
0.5667010166125995
 40
0.570863376158346
 40
0.5750257395027311
 40
0.5792045135563553
 40
0.5833832911056451
 40
0.5875815781009485
 40
0.5917814080957745
 40
0.5959812508365685
 40
0.6001795552191155
 40
0.6044061332992171
 40
0.6086342725621132
 40
0.6128624063809038
 40
0.6170889770344815
 40
0.6213370172420769
 40
0.625585052139546
 40
0.6284713235145807
 40
0.6313578509160322
 40
0.6342441153355686
 40
0.6377265151540312
 40
0.6412103962796755
 40
0.6446947088283488
 40
0.6481784674812345
 40
0.651660764537206
 40
0.6551740204755988
 40
0.6586890660133975
 40
0.6622045873665918
 40
0.6657193974267638
 40
0.669232455768252
 40
0.6721825725748062
 40
0.6751330805579651
 40
0.678083160182662
 40
0.6816262215422271
 40
0.6851718673558785
 40
0.6887181606955568
 40
0.692263389158555
 40
0.6958061002300581
 40
0.6987980114580586
 40
0.7017925147554407
 40
0.7047881876059097
 40
0.7077837000632551
 40
0.7107778330651136
 40
0.7137694972206344
 40
0.7167313400496843
 40
0.7196959250901299
 40
0.722661865310507
 40
0.7256277759394121
 40
0.7285922926601829
 40
0.7315540899007885
 40
0.7345654940959067
 40
0.7375793520127555
 40
0.7405947393311434
 40
0.7436104717609641
 40
0.7466251264332371
 40
0.749637062254783
 40
0.7530882714020262
 40
0.7565407196922208
 40
0.7599940591021856
 40
0.7634473901102676
 40
0.7668993398825737
 40
0.7713500412633575
 40
0.775801618469857
 40
0.7802533487794138
 40
0.7847042589768697
 40
0.7883952120949979
 40
0.7920871458960689
 40
0.79577914546737
 40
0.7994705614187823
 40
0.8031610801008917
 40
0.8062949851185258
 40
0.809429195985424
 40
0.8125629552376372
 40
0.8151729351172093
 40
0.8177832037149698
 40
0.8203930814613591
 40
0.8230247747886731
 40
0.825659030565305
 40
0.8282941418250644
 40
0.8309287313463241
 40
0.8335617825638566
 40
0.836192672130901
 40
0.8388620183698113
 40
0.8415322111776234
 40
0.8442015734253432
 40
0.846285528595439
 40
0.848369864904613
 40
0.8504538512016651
 40
0.8529848941478083
 40
0.8555175222472342
 40
0.8580508574716856
 40
0.8605838181956008
 40
0.8631151402947772
 40
0.866328418140156
 40
0.8695433290343552
 40
0.872758489142354
 40
0.875972106992634
 40
0.8795477866132552
 40
0.8831256415462092
 40
0.8867045620092376
 40
0.890283046284341
 40
0.8938592540688725
 40
0.8974244310063856
 40
0.9009911760174759
 40
0.9045585799391199
 40
0.9081255742123928
 40
0.9116909603016341
 40
0.9146562133637051
 40
0.9176217403753907
 40
0.920587001879186
 40
0.9243837752614922
 40
0.9281822300555385
 40
0.9319812276163049
 40
0.9357796421435796
 40
0.9395763817388274
 40
0.9433123118115737
 40
0.9470499819773137
 40
0.9507881663478548
 40
0.9545257066894125
 40
0.9582615278269487
 40
0.9613477448998916
 40
0.9644343078807442
 40
0.96752050971858
 40
0.9715654342043708
 40
0.9756120521984752
 40
0.9796586120014183
 40
0.9837034571021945
 40
0.9869618387255678
 40
0.9902216294515129
 40
0.9934818768745777
 40
0.9967416408349036
 40
1.0
 40
1.0
 40
1.0
 40
1.0
 10
242.1966991411144
 20
84.40756214296141
 30
0.0
 10
242.1511297634114
 20
84.38106801570542
 30
0.0
 10
242.0599620136483
 20
84.32806290381636
 30
0.0
 10
241.9278489931431
 20
84.24874641821336
 30
0.0
 10
241.7992468959805
 20
84.16961315027035
 30
0.0
 10
241.6746409882002
 20
84.09074692204494
 30
0.0
 10
241.5542162663576
 20
84.01229177185321
 30
0.0
 10
241.4380559641857
 20
83.93426349560275
 30
0.0
 10
241.3261603121761
 20
83.85661499986618
 30
0.0
 10
241.2184507579339
 20
83.77922547666655
 30
0.0
 10
241.1150330994963
 20
83.70209916512542
 30
0.0
 10
241.0215258747883
 20
83.62951941088183
 30
0.0
 10
240.9371612858659
 20
83.56140727454661
 30
0.0
 10
240.8611747883879
 20
83.49766651967674
 30
0.0
 10
240.7824854081332
 20
83.42890515482054
 30
0.0
 10
240.7020426530725
 20
83.3550789869349
 30
0.0
 10
240.6207673482142
 20
83.27595605267163
 30
0.0
 10
240.5442308368752
 20
83.1964830168099
 30
0.0
 10
240.4724835011172
 20
83.11651484227397
 30
0.0
 10
240.4056710437055
 20
83.036022733111
 30
0.0
 10
240.3437003488518
 20
82.95469068298748
 30
0.0
 10
240.2866353526008
 20
82.8723479299298
 30
0.0
 10
240.2345250179617
 20
82.78876498570965
 30
0.0
 10
240.1875213246042
 20
82.70390569164299
 30
0.0
 10
240.1455940492694
 20
82.61742512590511
 30
0.0
 10
240.1088086199571
 20
82.52908826272201
 30
0.0
 10
240.078390986482
 20
82.44196220379202
 30
0.0
 10
240.0537787048185
 20
82.35621192285404
 30
0.0
 10
240.0343589568301
 20
82.27189466491042
 30
0.0
 10
240.0191692954749
 20
82.18535449068551
 30
0.0
 10
240.0089883643215
 20
82.10247802830257
 30
0.0
 10
240.0028870350943
 20
82.02363953762104
 30
0.0
 10
239.9999893693777
 20
81.94923981520942
 30
0.0
 10
239.9998155773299
 20
81.87291091238731
 30
0.0
 10
240.0023727083168
 20
81.794558555986
 30
0.0
 10
240.0073739012956
 20
81.7185753742655
 30
0.0
 10
240.0143131360403
 20
81.64526401070025
 30
0.0
 10
240.0227058291306
 20
81.57493759849258
 30
0.0
 10
240.033434973765
 20
81.49973294606951
 30
0.0
 10
240.0468127871833
 20
81.41928014227223
 30
0.0
 10
240.0631271051995
 20
81.33320240733505
 30
0.0
 10
240.0817875233461
 20
81.24472163310989
 30
0.0
 10
240.1027455814835
 20
81.15382425226292
 30
0.0
 10
240.1260642393808
 20
81.06004646318952
 30
0.0
 10
240.1517553069406
 20
80.96324036656732
 30
0.0
 10
240.1797576242585
 20
80.86335092493043
 30
0.0
 10
240.2098461123465
 20
80.76087250846855
 30
0.0
 10
240.2418977577056
 20
80.6559146324326
 30
0.0
 10
240.2756501114528
 20
80.54902067916817
 30
0.0
 10
240.3109763169282
 20
80.44029223429011
 30
0.0
 10
240.3477527767815
 20
80.33002903117979
 30
0.0
 10
240.3860544440309
 20
80.21794193753942
 30
0.0
 10
240.4257746780696
 20
80.10430906035164
 30
0.0
 10
240.4669702414951
 20
79.98894996569675
 30
0.0
 10
240.5095901116729
 20
79.87201628945107
 30
0.0
 10
240.5536047921065
 20
79.75365010765894
 30
0.0
 10
240.5988251007543
 20
79.63441196704524
 30
0.0
 10
240.6451960447896
 20
79.51449191948026
 30
0.0
 10
240.7000761649293
 20
79.37527762413629
 30
0.0
 10
240.7641153330245
 20
79.21661148876923
 30
0.0
 10
240.8380999673026
 20
79.03853381804673
 30
0.0
 10
240.9144315982222
 20
78.8602241151749
 30
0.0
 10
240.9932541649461
 20
78.68171131140522
 30
0.0
 10
241.0746204088918
 20
78.5032529625513
 30
0.0
 10
241.1586839645256
 20
78.32509542568047
 30
0.0
 10
241.2454563528642
 20
78.1477857606675
 30
0.0
 10
241.3352143646173
 20
77.97132425262326
 30
0.0
 10
241.4281218306739
 20
77.79595111848644
 30
0.0
 10
241.5244555389529
 20
77.62198026761111
 30
0.0
 10
241.6243336319317
 20
77.4500216602465
 30
0.0
 10
241.7212671454643
 20
77.29145771299001
 30
0.0
 10
241.814643265355
 20
77.14605642791871
 30
0.0
 10
241.9038724189064
 20
77.01353620877549
 30
0.0
 10
241.9960965659931
 20
76.8833545569049
 30
0.0
 10
242.0914574920625
 20
76.75588263937357
 30
0.0
 10
242.1863134486761
 20
76.63622269007793
 30
0.0
 10
242.2804315131462
 20
76.52432404574273
 30
0.0
 10
242.3734168223626
 20
76.41987975045569
 30
0.0
 10
242.4691242235765
 20
76.31834313659606
 30
0.0
 10
242.5674781149888
 20
76.2198771254279
 30
0.0
 10
242.6683988252618
 20
76.12464006798295
 30
0.0
 10
242.7724227906347
 20
76.03224437085757
 30
0.0
 10
242.8796157040211
 20
75.94284808145102
 30
0.0
 10
242.9899722978121
 20
75.85651868697792
 30
0.0
 10
243.102810754267
 20
75.77378838315154
 30
0.0
 10
243.2179900418024
 20
75.69473991399545
 30
0.0
 10
243.3353684582071
 20
75.61945478640317
 30
0.0
 10
243.4541252337316
 20
75.54842620181617
 30
0.0
 10
243.5741788370439
 20
75.48158881938669
 30
0.0
 10
243.6954190553149
 20
75.41878425849849
 30
0.0
 10
243.8184940975289
 20
75.35956694417544
 30
0.0
 10
243.943260004574
 20
75.30392751052304
 30
0.0
 10
244.0695731783476
 20
75.25185648734178
 30
0.0
 10
244.2065172987004
 20
75.19984455990378
 30
0.0
 10
244.3544391258727
 20
75.14876613300977
 30
0.0
 10
244.5136133460635
 20
75.09946966858894
 30
0.0
 10
244.6745867307179
 20
75.05504210279368
 30
0.0
 10
244.837138448242
 20
75.0153748269001
 30
0.0
 10
245.006319593368
 20
74.97924076796694
 30
0.0
 10
245.182164157629
 20
74.94701819006869
 30
0.0
 10
245.3650175023936
 20
74.91897655364457
 30
0.0
 10
245.5495178671023
 20
74.89592974304287
 30
0.0
 10
245.7355209762977
 20
74.87771931929903
 30
0.0
 10
245.9225293865845
 20
74.86420443474125
 30
0.0
 10
246.1108227184498
 20
74.85518603042426
 30
0.0
 10
246.3003037677018
 20
74.85052253645094
 30
0.0
 10
246.4908760564755
 20
74.85007481613617
 30
0.0
 10
246.6819573638775
 20
74.85368883246055
 30
0.0
 10
246.8737168965748
 20
74.86121373492408
 30
0.0
 10
247.0660439149851
 20
74.87251414468469
 30
0.0
 10
247.2588188582437
 20
74.88746144246304
 30
0.0
 10
247.4516256211606
 20
74.90589202685379
 30
0.0
 10
247.6446218689704
 20
74.92769919897604
 30
0.0
 10
247.8377511673089
 20
74.95277280322146
 30
0.0
 10
248.0309026677388
 20
74.98100548788578
 30
0.0
 10
248.223678797934
 20
75.01224159403294
 30
0.0
 10
248.4163354066925
 20
75.04643020625349
 30
0.0
 10
248.608779145022
 20
75.08348306208698
 30
0.0
 10
248.8009124435927
 20
75.12331969017522
 30
0.0
 10
248.9922146295861
 20
75.16576060636486
 30
0.0
 10
249.1828382506703
 20
75.21077042472827
 30
0.0
 10
249.372659721371
 20
75.25826631223399
 30
0.0
 10
249.5651466544756
 20
75.30911859171519
 30
0.0
 10
249.7598002402135
 20
75.3633179172836
 30
0.0
 10
249.9440491072428
 20
75.41730341709827
 30
0.0
 10
250.1145801917246
 20
75.46951411848738
 30
0.0
 10
250.2716611040596
 20
75.51946263580966
 30
0.0
 10
250.4274426092172
 20
75.57084359416689
 30
0.0
 10
250.5818046259287
 20
75.62359511510228
 30
0.0
 10
250.7360316393755
 20
75.6781518501209
 30
0.0
 10
250.8900186079229
 20
75.73451817854395
 30
0.0
 10
251.0436585700156
 20
75.79269480917483
 30
0.0
 10
251.1955014579592
 20
75.85213299152691
 30
0.0
 10
251.34541802466
 20
75.91276758157406
 30
0.0
 10
251.4857372517221
 20
75.97138345206204
 30
0.0
 10
251.616736748977
 20
76.0277467804466
 30
0.0
 10
251.738720207056
 20
76.08165966646048
 30
0.0
 10
251.8735100086388
 20
76.1428458935832
 30
0.0
 10
252.0203201033375
 20
76.21162161456225
 30
0.0
 10
252.1781739577318
 20
76.28829649171549
 30
0.0
 10
252.3327821733696
 20
76.36616282943572
 30
0.0
 10
252.4839643745165
 20
76.44512397766623
 30
0.0
 10
252.6313574830842
 20
76.52498380903344
 30
0.0
 10
252.7748876592866
 20
76.60569217219289
 30
0.0
 10
252.9145170938066
 20
76.68720129604237
 30
0.0
 10
253.0503618126569
 20
76.76957164648555
 30
0.0
 10
253.1822681221335
 20
76.85271161719994
 30
0.0
 10
253.30296674689
 20
76.93186516645942
 30
0.0
 10
253.4131336085791
 20
77.0068559170856
 30
0.0
 10
253.513462095679
 20
77.07755219660717
 30
0.0
 10
253.6177833330299
 20
77.15371639146623
 30
0.0
 10
253.7252491766249
 20
77.23541447193927
 30
0.0
 10
253.8351018087871
 20
77.32284483636711
 30
0.0
 10
253.9405339802228
 20
77.41087333802638
 30
0.0
 10
254.0414532081681
 20
77.49945785732545
 30
0.0
 10
254.1376142176887
 20
77.58840423384518
 30
0.0
 10
254.229147739212
 20
77.67786757916822
 30
0.0
 10
254.3159506051408
 20
77.76782102728394
 30
0.0
 10
254.3979534472436
 20
77.8582508401891
 30
0.0
 10
254.4748991054441
 20
77.94891308759331
 30
0.0
 10
254.5468478604349
 20
78.03992652493972
 30
0.0
 10
254.6137184993888
 20
78.13127091348358
 30
0.0
 10
254.6755446122795
 20
78.22307199688589
 30
0.0
 10
254.7321451691685
 20
78.31516529949164
 30
0.0
 10
254.7835520345655
 20
78.40769898041891
 30
0.0
 10
254.8296272116499
 20
78.50056411893848
 30
0.0
 10
254.8703231596051
 20
78.59378015842252
 30
0.0
 10
254.9055468851554
 20
78.68721643433524
 30
0.0
 10
254.9353373205072
 20
78.7810959603156
 30
0.0
 10
254.9596242138617
 20
78.87545662689647
 30
0.0
 10
254.9783659240279
 20
78.97036636950259
 30
0.0
 10
254.9914968056852
 20
79.06565919370956
 30
0.0
 10
254.9990119176352
 20
79.16154021598459
 30
0.0
 10
255.0008622505683
 20
79.25807325784837
 30
0.0
 10
254.9974298020007
 20
79.34496619420185
 30
0.0
 10
254.9906382265276
 20
79.42190727082422
 30
0.0
 10
254.9821343901259
 20
79.48873504484226
 30
0.0
 10
254.9702288338815
 20
79.56056327437086
 30
0.0
 10
254.954238079781
 20
79.63753348164317
 30
0.0
 10
254.933435177668
 20
79.71982813992162
 30
0.0
 10
254.9087953510825
 20
79.80285761339897
 30
0.0
 10
254.8803283811795
 20
79.88666753413936
 30
0.0
 10
254.8479429952684
 20
79.97157294641089
 30
0.0
 10
254.8115866001148
 20
80.05767042955247
 30
0.0
 10
254.7712356029562
 20
80.14507523563074
 30
0.0
 10
254.7270215773044
 20
80.23361534045497
 30
0.0
 10
254.6789796218515
 20
80.3233465124289
 30
0.0
 10
254.629898484339
 20
80.40948671146786
 30
0.0
 10
254.5804751514372
 20
80.49188212108335
 30
0.0
 10
254.5313635734592
 20
80.57037451917499
 30
0.0
 10
254.4761723144232
 20
80.65527045355562
 30
0.0
 10
254.41425442015
 20
80.74692510539718
 30
0.0
 10
254.3449862039632
 20
80.845731931729
 30
0.0
 10
254.2721259699655
 20
80.94634449104687
 30
0.0
 10
254.1957983476903
 20
81.04878866646803
 30
0.0
 10
254.1202320809159
 20
81.14771764066207
 30
0.0
 10
254.0460627558353
 20
81.242892318166
 30
0.0
 10
253.9738946326042
 20
81.3340528234866
 30
0.0
 10
253.8995464686199
 20
81.42671023302131
 30
0.0
 10
253.8231535903768
 20
81.52083744613518
 30
0.0
 10
253.7448521272098
 20
81.61640698507614
 30
0.0
 10
253.665012927506
 20
81.71310368925118
 30
0.0
 10
253.5837287023042
 20
81.81096790813136
 30
0.0
 10
253.5011324606174
 20
81.90999294539463
 30
0.0
 10
253.4170935112646
 20
82.01046931522568
 30
0.0
 10
253.3317902767886
 20
82.11231629485363
 30
0.0
 10
253.245404202763
 20
82.21545800720892
 30
0.0
 10
253.1575781139016
 20
82.32042760719888
 30
0.0
 10
253.0684331585258
 20
82.42732442048715
 30
0.0
 10
252.9780789864431
 20
82.53614515198704
 30
0.0
 10
252.8871143789325
 20
82.6461596947213
 30
0.0
 10
252.7956913822149
 20
82.75721439374593
 30
0.0
 10
252.703951336237
 20
82.86913978899084
 30
0.0
 10
252.6075493151014
 20
82.98734167540552
 30
0.0
 10
252.5064338789643
 20
83.11175964871622
 30
0.0
 10
252.4003896046525
 20
83.2421526573065
 30
0.0
 10
252.2938538946261
 20
83.37279278245052
 30
0.0
 10
252.1867642682276
 20
83.50340814046767
 30
0.0
 10
252.0686430452473
 20
83.64634692202912
 30
0.0
 10
251.9390952464335
 20
83.80127706083226
 30
0.0
 10
251.7975171362548
 20
83.96764446742309
 30
0.0
 10
251.654084968546
 20
84.13252101742913
 30
0.0
 10
251.5167793275011
 20
84.28623459703913
 30
0.0
 10
251.3857555229551
 20
84.42884861129957
 30
0.0
 10
251.2612150362279
 20
84.5605097431702
 30
0.0
 10
251.1345233487176
 20
84.69009016952614
 30
0.0
 10
251.0054851506919
 20
84.81728024469187
 30
0.0
 10
250.8805131556535
 20
84.9355247588008
 30
0.0
 10
250.7598602093992
 20
85.0450089041621
 30
0.0
 10
250.6438044095065
 20
85.14595795823166
 30
0.0
 10
250.5320683804577
 20
85.23876594475242
 30
0.0
 10
250.4249803279959
 20
85.32370481113443
 30
0.0
 10
250.3228809372596
 20
85.4011050683426
 30
0.0
 10
250.2187138587121
 20
85.47632449471777
 30
0.0
 10
250.1123679255672
 20
85.54914667020113
 30
0.0
 10
250.0037730173275
 20
85.6193511012783
 30
0.0
 10
249.8932195890209
 20
85.68653391861605
 30
0.0
 10
249.7807607778617
 20
85.75044457344337
 30
0.0
 10
249.6664495686084
 20
85.81083105838842
 30
0.0
 10
249.5497430446158
 20
85.86774531714292
 30
0.0
 10
249.4306026922633
 20
85.92084916851451
 30
0.0
 10
249.3091234440004
 20
85.97000095003199
 30
0.0
 10
249.1950283394973
 20
86.01160957050577
 30
0.0
 10
249.0888338126869
 20
86.04666021117029
 30
0.0
 10
248.990932015165
 20
86.0761291709831
 30
0.0
 10
248.8852581808417
 20
86.10495823477066
 30
0.0
 10
248.7716900649579
 20
86.13248586961322
 30
0.0
 10
248.6501638755306
 20
86.15805724781205
 30
0.0
 10
248.5279154450093
 20
86.1800393292409
 30
0.0
 10
248.4051132178595
 20
86.19850906554008
 30
0.0
 10
248.2708120466446
 20
86.21489634102386
 30
0.0
 10
248.1249499718822
 20
86.22816547840459
 30
0.0
 10
247.9675569264402
 20
86.2373196267282
 30
0.0
 10
247.809924397027
 20
86.24157477971397
 30
0.0
 10
247.646305534311
 20
86.2411380429562
 30
0.0
 10
247.476800476977
 20
86.23563120668076
 30
0.0
 10
247.3015315593194
 20
86.22473957101973
 30
0.0
 10
247.1265589229891
 20
86.20894985865624
 30
0.0
 10
246.952070403749
 20
86.18856257005984
 30
0.0
 10
246.778361244798
 20
86.16389001759129
 30
0.0
 10
246.6054824124924
 20
86.13522358049245
 30
0.0
 10
246.4334617976696
 20
86.10281395003047
 30
0.0
 10
246.2621984446235
 20
86.06686270702296
 30
0.0
 10
246.091806398532
 20
86.02760857095751
 30
0.0
 10
245.9318587158173
 20
85.98765453184114
 30
0.0
 10
245.7822219520517
 20
85.94774806902242
 30
0.0
 10
245.6427386915744
 20
85.90848350601324
 30
0.0
 10
245.4910152613633
 20
85.86361138159782
 30
0.0
 10
245.3273252434609
 20
85.81264684646382
 30
0.0
 10
245.1520259504231
 20
85.75513310072743
 30
0.0
 10
244.9780838748583
 20
85.6952734587663
 30
0.0
 10
244.8056219217742
 20
85.63327415253065
 30
0.0
 10
244.6356337027721
 20
85.56966742056929
 30
0.0
 10
244.468134379256
 20
85.50465789902623
 30
0.0
 10
244.3031409370915
 20
85.43841082856841
 30
0.0
 10
244.1398417468649
 20
85.37072488632467
 30
0.0
 10
243.9783743346222
 20
85.30176599101542
 30
0.0
 10
243.8280826876091
 20
85.2357460036541
 30
0.0
 10
243.6886681460817
 20
85.1729936573147
 30
0.0
 10
243.5598075689994
 20
85.11374252828857
 30
0.0
 10
243.4192287197553
 20
85.04775893869666
 30
0.0
 10
243.2675764307934
 20
84.97492161550038
 30
0.0
 10
243.1056605544139
 20
84.8951617913855
 30
0.0
 10
242.9466438703341
 20
84.81486989191708
 30
0.0
 10
242.8007933250378
 20
84.73941984700265
 30
0.0
 10
242.6675670098154
 20
84.66899738469805
 30
0.0
 10
242.5463605655179
 20
84.60368674770761
 30
0.0
 10
242.4273886033964
 20
84.53829986557237
 30
0.0
 10
242.3105345414943
 20
84.47289787606603
 30
0.0
 10
242.2346388221897
 20
84.42933759127114
 30
0.0
 10
242.1966991411145
 20
84.40756214296118
 30
0.0
  0
SPLINE
  5
EA
330
1F
100
AcDbEntity
  8
0
  6
Continuous
 62
     7
370
    30
100
AcDbSpline
210
0.0
220
0.0
230
1.0
 70
    11
 71
     3
 72
   207
 73
   203
 74
     0
 42
0.000000001
 43
0.00000001
 40
0.0
 40
0.0
 40
0.0
 40
0.0
 40
0.0056893488563782
 40
0.0113834426518761
 40
0.0170774932909261
 40
0.0227667832484401
 40
0.0273817378962461
 40
0.0320006571801156
 40
0.0366208255414788
 40
0.0412395935964312
 40
0.0458544212984491
 40
0.0505556551456475
 40
0.0552598225170534
 40
0.0599639239048223
 40
0.0646650677179579
 40
0.0692159075840439
 40
0.0737695057555278
 40
0.0783230892522277
 40
0.0828739090951037
 40
0.0873356956528486
 40
0.0917974904667573
 40
0.0973126541777745
 40
0.1028324303065217
 40
0.1083524907509127
 40
0.1138680424856662
 40
0.1194535024768092
 40
0.125042929758766
 40
0.1306328161097453
 40
0.1362189025393402
 40
0.1414800772497693
 40
0.1467413165877753
 40
0.1520372223189487
 40
0.157335318945891
 40
0.1626337095763296
 40
0.1679300163831593
 40
0.1732676970501638
 40
0.1786070813459045
 40
0.1839466314362144
 40
0.1892845382576018
 40
0.1946458165708373
 40
0.2000071040443767
 40
0.2047869499120631
 40
0.2095667921590328
 40
0.2159334751323002
 40
0.2223014331946482
 40
0.2286679064880954
 40
0.2349926682278003
 40
0.2413189800244789
 40
0.2476432512246109
 40
0.2523603907628927
 40
0.2570796412921433
 40
0.2617985358712113
 40
0.2665151897989805
 40
0.2710449127704082
 40
0.2755782512105114
 40
0.2801126174832548
 40
0.284645607497622
 40
0.2891750380095644
 40
0.2937695374111376
 40
0.2983681643086238
 40
0.3029681021813714
 40
0.3075665910552855
 40
0.3121609745914353
 40
0.3166946741624461
 40
0.3212323545346824
 40
0.3257714107554433
 40
0.33030916917394
 40
0.3348429342606699
 40
0.339444405316678
 40
0.3440498209167868
 40
0.3486566585472208
 40
0.3532622623895186
 40
0.3578638914619293
 40
0.3634809643079317
 40
0.3691025377503612
 40
0.3747242533262701
 40
0.3803415201450507
 40
0.3860307629704616
 40
0.3917243982097715
 40
0.3974181335578512
 40
0.4031075130001764
 40
0.4070908680267971
 40
0.4110742258433508
 40
0.4164151819981201
 40
0.4217578804928951
 40
0.427098856128091
 40
0.4324817128524938
 40
0.4378663296160024
 40
0.4432491939629403
 40
0.4473072412748161
 40
0.4513652887302645
 40
0.4555033671141696
 40
0.4596414454022031
 40
0.4651916673834152
 40
0.4707438101021867
 40
0.4762940290543705
 40
0.4818910305156315
 40
0.4874900058620359
 40
0.4930870048562014
 40
0.4973084020974774
 40
0.501529799293613
 40
0.5056805442421253
 40
0.5098312892787129
 40
0.5153987695466814
 40
0.5209681946292894
 40
0.5265356776276993
 40
0.5321503871881214
 40
0.537767087655024
 40
0.5433818001302176
 40
0.5476166547708624
 40
0.5518515094267853
 40
0.5560029057205504
 40
0.5601543017194109
 40
0.5657226546793701
 40
0.5712929491549669
 40
0.5768612906328805
 40
0.5824771904993215
 40
0.5880950993634891
 40
0.5937109703716532
 40
0.5979472063399114
 40
0.6021834380932636
 40
0.6063188893246977
 40
0.6104543356993591
 40
0.6160032016992901
 40
0.6215541117624116
 40
0.6271029053982778
 40
0.6327032964619953
 40
0.6383058889912201
 40
0.6439061863175625
 40
0.6481337201455596
 40
0.6523612449140589
 40
0.6572668196853697
 40
0.6621756587410313
 40
0.6670844220087253
 40
0.6719898933637465
 40
0.6767420540667611
 40
0.6814972908722062
 40
0.6862525103869986
 40
0.6910046474965724
 40
0.6956664266493399
 40
0.7003282124811657
 40
0.7059026347077151
 40
0.7114818152003198
 40
0.7170612024510625
 40
0.7226359068592777
 40
0.7282845102262845
 40
0.7339374217975797
 40
0.7395907839362487
 40
0.7452400021729627
 40
0.7493331664943543
 40
0.7534263674955484
 40
0.7589107059153062
 40
0.7643963552814392
 40
0.7698809728023694
 40
0.7754074078235289
 40
0.7809348400041373
 40
0.7864614144826114
 40
0.7920267542809605
 40
0.7975929475381153
 40
0.803158313373497
 40
0.8073482411824399
 40
0.8115381645302252
 40
0.8165321976103984
 40
0.8215262123302804
 40
0.8281845662877407
 40
0.8348445646659955
 40
0.8415025571685114
 40
0.8464730763867813
 40
0.8514455501243743
 40
0.856417761894984
 40
0.8613879237416463
 40
0.8663404540409921
 40
0.8712955229164424
 40
0.8762503032890957
 40
0.8812024399696978
 40
0.8856842744512761
 40
0.8901696917913339
 40
0.8946560947141782
 40
0.8991411046885645
 40
0.9036225972379655
 40
0.9081688390742104
 40
0.9127191881366279
 40
0.917270858736337
 40
0.921821103023282
 40
0.9263672569040963
 40
0.9308522742826874
 40
0.9353411790247244
 40
0.9398314533768046
 40
0.9443204838177676
 40
0.9488056067128771
 40
0.9533565918985494
 40
0.9579114076904374
 40
0.9624675909836286
 40
0.967022565334928
 40
0.9715736836182186
 40
0.9751127879234319
 40
0.9786518948086277
 40
0.983389098551831
 40
0.9881276836197719
 40
0.9928649040064595
 40
0.99643245181146
 40
1.0
 40
1.0
 40
1.0
 40
1.0
 10
244.8483495705572
 20
83.26418348183333
 30
0.0
 10
244.8824105716453
 20
83.2832570468497
 30
0.0
 10
244.9505609808291
 20
83.32142008431003
 30
0.0
 10
245.0575192795029
 20
83.3736327568313
 30
0.0
 10
245.1676867308715
 20
83.42200279231754
 30
0.0
 10
245.2740618231724
 20
83.4632612973204
 30
0.0
 10
245.3757452133035
 20
83.49827154758556
 30
0.0
 10
245.4720791272754
 20
83.52778036499879
 30
0.0
 10
245.570242034457
 20
83.55422303141857
 30
0.0
 10
245.6700542843793
 20
83.57749018195582
 30
0.0
 10
245.7720136861262
 20
83.59760979125866
 30
0.0
 10
245.8760546167771
 20
83.61440457076476
 30
0.0
 10
245.9820693855213
 20
83.62772545788252
 30
0.0
 10
246.0892342726214
 20
83.63738245863888
 30
0.0
 10
246.1962133270935
 20
83.6432216330557
 30
0.0
 10
246.302831394362
 20
83.64528219209762
 30
0.0
 10
246.4089175959066
 20
83.64367554016268
 30
0.0
 10
246.5154514028301
 20
83.6383933216125
 30
0.0
 10
246.6215551716536
 20
83.62945296877245
 30
0.0
 10
246.7270637986897
 20
83.6169057124899
 30
0.0
 10
246.8400952687399
 20
83.59960926134777
 30
0.0
 10
246.9611858624735
 20
83.57639176310992
 30
0.0
 10
247.0900207158476
 20
83.54620939429816
 30
0.0
 10
247.2181051564525
 20
83.51078469538007
 30
0.0
 10
247.3457149570528
 20
83.47006442624969
 30
0.0
 10
247.4726433603303
 20
83.42407264404969
 30
0.0
 10
247.598760910511
 20
83.37298371661522
 30
0.0
 10
247.7233737965289
 20
83.31723053805972
 30
0.0
 10
247.8439468165223
 20
83.2582035255747
 30
0.0
 10
247.9604928501519
 20
83.19640580617485
 30
0.0
 10
248.0733693671023
 20
83.13218993934366
 30
0.0
 10
248.1848892971229
 20
83.06446326405617
 30
0.0
 10
248.2950333955155
 20
82.9934097413087
 30
0.0
 10
248.4035466825576
 20
82.91938763979529
 30
0.0
 10
248.5107024144716
 20
82.84239703022027
 30
0.0
 10
248.6165154254718
 20
82.76259157655447
 30
0.0
 10
248.7210219681248
 20
82.68012051647857
 30
0.0
 10
248.8239737489786
 20
82.59536994902176
 30
0.0
 10
248.9255493360788
 20
82.50838877340736
 30
0.0
 10
249.025784543332
 20
82.41932723371302
 30
0.0
 10
249.1211499553588
 20
82.33160756349753
 30
0.0
 10
249.2117138242391
 20
82.24571311666851
 30
0.0
 10
249.3071788933949
 20
82.15266780852863
 30
0.0
 10
249.4106656160787
 20
82.04873688558253
 30
0.0
 10
249.5217056757292
 20
81.93361899792431
 30
0.0
 10
249.6307203372491
 20
81.81721498521885
 30
0.0
 10
249.7377465381674
 20
81.69977243262896
 30
0.0
 10
249.8427822953746
 20
81.58154390551653
 30
0.0
 10
249.9372782165927
 20
81.47260092268165
 30
0.0
 10
250.0216919901164
 20
81.37338608591952
 30
0.0
 10
250.0964338250872
 20
81.28412452986113
 30
0.0
 10
250.1700197930418
 20
81.19481947853657
 30
0.0
 10
250.2414082573226
 20
81.10679521263417
 30
0.0
 10
250.3105561664865
 20
81.02012185752494
 30
0.0
 10
250.3773885778445
 20
80.93478257778634
 30
0.0
 10
250.4427128714273
 20
80.84966603934413
 30
0.0
 10
250.5063570306545
 20
80.76486570935387
 30
0.0
 10
250.5684739625855
 20
80.68004013615918
 30
0.0
 10
250.6289027388804
 20
80.59522181230885
 30
0.0
 10
250.6875022313542
 20
80.51042925054666
 30
0.0
 10
250.7438511327555
 20
80.42611739793753
 30
0.0
 10
250.7977820179144
 20
80.34238157077536
 30
0.0
 10
250.8489271191871
 20
80.25964398727442
 30
0.0
 10
250.8971996319008
 20
80.17791152251536
 30
0.0
 10
250.9425708952002
 20
80.09716489003908
 30
0.0
 10
250.9851581680534
 20
80.01707600238895
 30
0.0
 10
251.0248409163366
 20
79.93771700227906
 30
0.0
 10
251.0616989752772
 20
79.85873199736817
 30
0.0
 10
251.0955854569606
 20
79.78012891832633
 30
0.0
 10
251.1264120280138
 20
79.70189752286011
 30
0.0
 10
251.1539542340155
 20
79.62444280525305
 30
0.0
 10
251.1781396236879
 20
79.54781664236684
 30
0.0
 10
251.2004310706872
 20
79.46646403759782
 30
0.0
 10
251.2198203941188
 20
79.38058021241609
 30
0.0
 10
251.2352606448782
 20
79.29038716842312
 30
0.0
 10
251.2454704984481
 20
79.20141132459018
 30
0.0
 10
251.2504249440966
 20
79.11329873199647
 30
0.0
 10
251.2499878829516
 20
79.0260402448929
 30
0.0
 10
251.2441114792819
 20
78.93962443311999
 30
0.0
 10
251.2328134144517
 20
78.85444015806897
 30
0.0
 10
251.217766470815
 20
78.77889094264562
 30
0.0
 10
251.2007091855597
 20
78.71258853147525
 30
0.0
 10
251.1811577763645
 20
78.64864831817479
 30
0.0
 10
251.1558333797884
 20
78.57904099656204
 30
0.0
 10
251.1234897898991
 20
78.50408497578427
 30
0.0
 10
251.086416980625
 20
78.43003963481405
 30
0.0
 10
251.044602852988
 20
78.35692785106401
 30
0.0
 10
250.9980781429141
 20
78.2847808344217
 30
0.0
 10
250.9511987564348
 20
78.219631888757
 30
0.0
 10
250.9052259725363
 20
78.16119684002845
 30
0.0
 10
250.8609623474516
 20
78.10885210212815
 30
0.0
 10
250.8138668877259
 20
78.05689393472929
 30
0.0
 10
250.7582415560077
 20
77.99949450125726
 30
0.0
 10
250.693313657935
 20
77.93733706869091
 30
0.0
 10
250.6179601474212
 20
77.87086742512692
 30
0.0
 10
250.5380770533434
 20
77.80571495570139
 30
0.0
 10
250.4537151965347
 20
77.74195317163715
 30
0.0
 10
250.3649702840349
 20
77.6796632535573
 30
0.0
 10
250.2797986774729
 20
77.62405307034523
 30
0.0
 10
250.1993772719767
 20
77.5747286975956
 30
0.0
 10
250.1250950408061
 20
77.53153163860117
 30
0.0
 10
250.0491701996282
 20
77.48964339037448
 30
0.0
 10
249.9628925407019
 20
77.44446158418464
 30
0.0
 10
249.8650344395971
 20
77.39626713467912
 30
0.0
 10
249.7548240753813
 20
77.3457117588171
 30
0.0
 10
249.6411620817489
 20
77.2972155300366
 30
0.0
 10
249.524164280833
 20
77.25089931921988
 30
0.0
 10
249.4039804538157
 20
77.20688506921339
 30
0.0
 10
249.2911699978661
 20
77.1688044466746
 30
0.0
 10
249.186592866074
 20
77.13606903726861
 30
0.0
 10
249.0915332577487
 20
77.10827608213599
 30
0.0
 10
248.9958503995507
 20
77.08223195905737
 30
0.0
 10
248.8887039525472
 20
77.0551829953727
 30
0.0
 10
248.7690322547164
 20
77.0277149544843
 30
0.0
 10
248.6365058387437
 20
77.00075692286731
 30
0.0
 10
248.5020149102659
 20
76.97690552996787
 30
0.0
 10
248.36572637362
 20
76.95632354823232
 30
0.0
 10
248.2278288507375
 20
76.93916571884252
 30
0.0
 10
248.1002780441823
 20
76.92672984575135
 30
0.0
 10
247.9835180490957
 20
76.91815629745074
 30
0.0
 10
247.8786485715775
 20
76.91265393827895
 30
0.0
 10
247.7743339328505
 20
76.90938131216491
 30
0.0
 10
247.658857490803
 20
76.908207424982
 30
0.0
 10
247.5313931025204
 20
76.9101500970808
 30
0.0
 10
247.3921249905931
 20
76.91644366464556
 30
0.0
 10
247.2526604997597
 20
76.92706252854575
 30
0.0
 10
247.1132268498465
 20
76.94219390400079
 30
0.0
 10
246.9740617492547
 20
76.96198364130643
 30
0.0
 10
246.8471208257811
 20
76.98449277965464
 30
0.0
 10
246.7323624105752
 20
77.00854597429166
 30
0.0
 10
246.6240893780533
 20
77.03434065100706
 30
0.0
 10
246.511349296714
 20
77.06483946459107
 30
0.0
 10
246.3944911200084
 20
77.10065963590714
 30
0.0
 10
246.279143766832
 20
77.14034020432078
 30
0.0
 10
246.1666826798624
 20
77.18344727133707
 30
0.0
 10
246.0571938476516
 20
77.22988624747788
 30
0.0
 10
245.950715370149
 20
77.27949121568223
 30
0.0
 10
245.8462374106289
 20
77.33271460853997
 30
0.0
 10
245.7445687598126
 20
77.38916446376987
 30
0.0
 10
245.6457955428139
 20
77.44873281441261
 30
0.0
 10
245.5436818849615
 20
77.51534696531704
 30
0.0
 10
245.4382604214781
 20
77.59018062295281
 30
0.0
 10
245.3302938148462
 20
77.67392058887523
 30
0.0
 10
245.2260069159804
 20
77.76204417950933
 30
0.0
 10
245.1251041434546
 20
77.85476909978226
 30
0.0
 10
245.0277534335475
 20
77.9520504425999
 30
0.0
 10
244.9340057707756
 20
78.05370950402424
 30
0.0
 10
244.8443145387333
 20
78.15902525586534
 30
0.0
 10
244.7665756569209
 20
78.25776877154817
 30
0.0
 10
244.6995587241432
 20
78.34871837049059
 30
0.0
 10
244.6356111138787
 20
78.440231419789
 30
0.0
 10
244.56801853578
 20
78.54303066724593
 30
0.0
 10
244.4976694785586
 20
78.65751117703206
 30
0.0
 10
244.4305346057339
 20
78.7742370636289
 30
0.0
 10
244.3665380771701
 20
78.89299666742254
 30
0.0
 10
244.3056334455193
 20
79.01361118672021
 30
0.0
 10
244.2477727985581
 20
79.13588055381487
 30
0.0
 10
244.1929078199606
 20
79.25963790127516
 30
0.0
 10
244.1410277611986
 20
79.38473753680363
 30
0.0
 10
244.0962450750662
 20
79.50035977392947
 30
0.0
 10
244.057718533936
 20
79.60614493669834
 30
0.0
 10
244.0226125780802
 20
79.70798754921948
 30
0.0
 10
243.9875358523061
 20
79.81633390524699
 30
0.0
 10
243.9491063956292
 20
79.94391677472929
 30
0.0
 10
243.9103896283989
 20
80.08460383040322
 30
0.0
 10
243.872693235877
 20
80.2382450190689
 30
0.0
 10
243.8424455172399
 20
80.37883020432743
 30
0.0
 10
243.818470245578
 20
80.50617162264668
 30
0.0
 10
243.7996814545385
 20
80.62026295285551
 30
0.0
 10
243.783726534741
 20
80.73390856087512
 30
0.0
 10
243.7707080907324
 20
80.84682758800781
 30
0.0
 10
243.7607085643382
 20
80.95889655121935
 30
0.0
 10
243.7538096316535
 20
81.06999936376091
 30
0.0
 10
243.7500978289336
 20
81.18010797578486
 30
0.0
 10
243.7496869785766
 20
81.28560466151998
 30
0.0
 10
243.7523293471883
 20
81.38648406535287
 30
0.0
 10
243.757736245958
 20
81.48280968612089
 30
0.0
 10
243.7660533080582
 20
81.57787999897886
 30
0.0
 10
243.7773397599075
 20
81.67153723746642
 30
0.0
 10
243.7917262819932
 20
81.76410454933652
 30
0.0
 10
243.8093491252317
 20
81.85546762784362
 30
0.0
 10
243.830286337822
 20
81.94555853185204
 30
0.0
 10
243.8544709816433
 20
82.0338565435631
 30
0.0
 10
243.8819135328693
 20
82.12023029576667
 30
0.0
 10
243.9125013816132
 20
82.20420936228626
 30
0.0
 10
243.946229745363
 20
82.28577454748995
 30
0.0
 10
243.9830258259549
 20
82.36496758732073
 30
0.0
 10
244.0230144515864
 20
82.44211520391413
 30
0.0
 10
244.0661519731354
 20
82.51714050172293
 30
0.0
 10
244.1126447088205
 20
82.59035519188484
 30
0.0
 10
244.1625539611642
 20
82.66171706391823
 30
0.0
 10
244.21588292013
 20
82.73121397621583
 30
0.0
 10
244.2723284899627
 20
82.79847801237014
 30
0.0
 10
244.3318046121157
 20
82.86345776042424
 30
0.0
 10
244.3896325022624
 20
82.92148626620892
 30
0.0
 10
244.4450454591325
 20
82.97310948144893
 30
0.0
 10
244.5032801317577
 20
83.02400587616255
 30
0.0
 10
244.569889190701
 20
83.07805276245514
 30
0.0
 10
244.6455990011557
 20
83.13453866535261
 30
0.0
 10
244.7177791681108
 20
83.1839669089168
 30
0.0
 10
244.7854180528234
 20
83.22715894676746
 30
0.0
 10
244.8273723972276
 20
83.2518419697025
 30
0.0
 10
244.8483495705572
 20
83.2641834818334
 30
0.0
  0
LINE
  5
EB
330
1F
100
AcDbEntity
  8
0
  6
Continuous
 62
     7
370
    30
100
AcDbLine
 10
235.8780312907
 20
37.0796389497
 30
0.0
 11
235.8780625984
 21
37.0802294596
 31
0.0
  0
LINE
  5
EC
330
1F
100
AcDbEntity
  8
0
  6
Continuous
 62
     7
370
    30
100
AcDbLine
 10
259.1219119926
 20
37.0807074676
 30
0.0
 11
259.1219374016
 21
37.0802294596
 31
0.0
  0
LINE
  5
ED
330
1F
100
AcDbEntity
  8
0
  6
Continuous
 62
     7
370
    30
100
AcDbLine
 10
259.1219687093
 20
136.9203610503
 30
0.0
 11
259.1219374016
 21
136.9197705404
 31
0.0
  0
LINE
  5
EE
330
1F
100
AcDbEntity
  8
0
  6
Continuous
 62
     7
370
    30
100
AcDbLine
 10
235.8780880074
 20
136.9192925324
 30
0.0
 11
235.8780625984
 21
136.9197705404
 31
0.0
  0
LWPOLYLINE
  5
EF
330
1F
100
AcDbEntity
  8
0
  6
Continuous
 62
     7
370
    30
100
AcDbPolyline
 90
      241
 70
   128
 43
0.0
 10
239.8986021022
 20
141.9395514162
 10
240.1001883113
 20
142.0529172089
 10
240.3068459816
 20
142.1631978577
 10
240.5184334805
 20
142.2703177816
 10
240.7348057962
 20
142.3742035662
 10
240.9558146382
 20
142.4747840131
 10
241.1813085379
 20
142.5719901897
 10
241.4111329531
 20
142.6657554756
 10
241.6451303736
 20
142.7560156088
 10
241.8831404293
 20
142.8427087296
 10
242.125
 20
142.9257754227
 10
242.3705433272
 20
143.0051587585
 10
242.6196021278
 20
143.0808043315
 10
242.8720057093
 20
143.1526602981
 10
243.1275810869
 20
143.2206774118
 10
243.3861531021
 20
143.284809057
 10
243.6475445424
 20
143.3450112811
 10
243.9115762632
 20
143.4012428245
 10
244.1780673105
 20
143.453465149
 10
244.4468350444
 20
143.5016424639
 10
244.7176952651
 20
143.5457417509
 10
244.9904623385
 20
143.5857327866
 10
245.2649493237
 20
143.6215881631
 10
245.540968101
 20
143.653283307
 10
245.8183295008
 20
143.6807964959
 10
246.0968434336
 20
143.7041088737
 10
246.3763190199
 20
143.7232044633
 10
246.6565647209
 20
143.7380701775
 10
246.9373884704
 20
143.7486958281
 10
247.2185978057
 20
143.7550741327
 10
247.5
 20
143.7572007201
 10
247.7814021943
 20
143.7550741327
 10
248.0626115296
 20
143.7486958281
 10
248.3434352791
 20
143.7380701775
 10
248.6236809801
 20
143.7232044633
 10
248.9031565664
 20
143.7041088737
 10
249.1816704992
 20
143.6807964959
 10
249.459031899
 20
143.653283307
 10
249.7350506763
 20
143.6215881631
 10
250.0095376615
 20
143.5857327866
 10
250.2823047349
 20
143.5457417509
 10
250.5531649556
 20
143.5016424639
 10
250.8219326895
 20
143.453465149
 10
251.0884237368
 20
143.4012428245
 10
251.3524554576
 20
143.3450112811
 10
251.6138468979
 20
143.284809057
 10
251.8724189131
 20
143.2206774118
 10
252.1279942907
 20
143.1526602981
 10
252.3803978722
 20
143.0808043315
 10
252.6294566728
 20
143.0051587585
 10
252.875
 20
142.9257754227
 10
253.1168595707
 20
142.8427087296
 10
253.3548696264
 20
142.7560156088
 10
253.5888670469
 20
142.6657554756
 10
253.8186914621
 20
142.5719901897
 10
254.0441853618
 20
142.4747840131
 10
254.2651942038
 20
142.3742035662
 10
254.4815665195
 20
142.2703177816
 10
254.6931540184
 20
142.1631978577
 10
254.8998116887
 20
142.0529172089
 10
255.1013978978
 20
141.9395514162
 10
255.2977744884
 20
141.8231781748
 10
255.4888068739
 20
141.7038772411
 10
255.6743641302
 20
141.581730378
 10
255.8543190857
 20
141.4568212989
 10
256.0285484081
 20
141.3292356102
 10
256.1969326895
 20
141.1990607527
 10
256.3593565277
 20
141.0663859419
 10
256.5157086054
 20
140.9313021064
 10
256.6658817668
 20
140.7939018258
 10
256.8097730907
 20
140.6542792676
 10
256.9472839611
 20
140.512530122
 10
257.078320135
 20
140.3687515369
 10
257.2027918068
 20
140.2230420508
 10
257.3206136697
 20
140.0755015258
 10
257.4317049745
 20
139.9262310787
 10
257.5359895848
 20
139.7753330122
 10
257.6333960292
 20
139.6229107442
 10
257.7238575502
 20
139.4690687372
 10
257.8073121498
 20
139.313912427
 10
257.8837026326
 20
139.1575481499
 10
257.9529766443
 20
139.0000830701
 10
258.0150867079
 20
138.8416251065
 10
258.0699902563
 20
138.6822828581
 10
258.1176496614
 20
138.5221655301
 10
258.1580322598
 20
138.3613828591
 10
258.1911103752
 20
138.2000450373
 10
258.2168613376
 20
138.0382626377
 10
258.2352674986
 20
137.8761465379
 10
258.2463162435
 20
137.7138078441
 10
258.25
 20
137.5513578152
 10
258.2463162435
 20
137.3889077862
 10
258.2352674986
 20
137.2265690924
 10
258.2168613376
 20
137.0644529926
 10
258.1911103752
 20
136.902670593
 10
258.1580322598
 20
136.7413327713
 10
258.1176496614
 20
136.5805501002
 10
258.0699902563
 20
136.4204327723
 10
258.0150867079
 20
136.2610905239
 10
257.9529766443
 20
136.1026325602
 10
257.8837026326
 20
135.9451674805
 10
257.8073121498
 20
135.7888032033
 10
257.7238575502
 20
135.6336468931
 10
257.6333960292
 20
135.4798048862
 10
257.5359895848
 20
135.3273826181
 10
257.4317049745
 20
135.1764845516
 10
257.3206136697
 20
135.0272141046
 10
257.2027918068
 20
134.8796735795
 10
257.078320135
 20
134.7339640935
 10
256.9472839611
 20
134.5901855083
 10
256.8097730907
 20
134.4484363627
 10
256.6658817668
 20
134.3088138045
 10
256.5157086054
 20
134.171413524
 10
256.3593565277
 20
134.0363296884
 10
256.1969326895
 20
133.9036548776
 10
256.0285484081
 20
133.7734800202
 10
255.8543190857
 20
133.6458943314
 10
255.6743641302
 20
133.5209852523
 10
255.4888068739
 20
133.3988383892
 10
255.2977744884
 20
133.2795374555
 10
255.1013978978
 20
133.1631642141
 10
254.8998116887
 20
133.0497984214
 10
254.6931540184
 20
132.9395177726
 10
254.4815665195
 20
132.8323978487
 10
254.2651942038
 20
132.7285120642
 10
254.0441853618
 20
132.6279316172
 10
253.8186914621
 20
132.5307254407
 10
253.5888670469
 20
132.4369601547
 10
253.3548696264
 20
132.3467000215
 10
253.1168595707
 20
132.2600069008
 10
252.875
 20
132.1769402076
 10
252.6294566728
 20
132.0975568718
 10
252.3803978722
 20
132.0219112988
 10
252.1279942907
 20
131.9500553322
 10
251.8724189131
 20
131.8820382185
 10
251.6138468979
 20
131.8179065733
 10
251.3524554576
 20
131.7577043492
 10
251.0884237368
 20
131.7014728058
 10
250.8219326895
 20
131.6492504813
 10
250.5531649556
 20
131.6010731664
 10
250.2823047349
 20
131.5569738794
 10
250.0095376615
 20
131.5169828437
 10
249.7350506763
 20
131.4811274672
 10
249.459031899
 20
131.4494323233
 10
249.1816704992
 20
131.4219191344
 10
248.9031565664
 20
131.3986067566
 10
248.6236809801
 20
131.379511167
 10
248.3434352791
 20
131.3646454528
 10
248.0626115296
 20
131.3540198023
 10
247.7814021943
 20
131.3476414976
 10
247.5
 20
131.3455149102
 10
247.2185978057
 20
131.3476414976
 10
246.9373884704
 20
131.3540198023
 10
246.6565647209
 20
131.3646454528
 10
246.3763190199
 20
131.379511167
 10
246.0968434336
 20
131.3986067566
 10
245.8183295008
 20
131.4219191344
 10
245.540968101
 20
131.4494323233
 10
245.2649493237
 20
131.4811274672
 10
244.9904623385
 20
131.5169828437
 10
244.7176952651
 20
131.5569738794
 10
244.4468350444
 20
131.6010731664
 10
244.1780673105
 20
131.6492504813
 10
243.9115762632
 20
131.7014728058
 10
243.6475445424
 20
131.7577043492
 10
243.3861531021
 20
131.8179065733
 10
243.1275810869
 20
131.8820382185
 10
242.8720057093
 20
131.9500553322
 10
242.6196021278
 20
132.0219112988
 10
242.3705433272
 20
132.0975568718
 10
242.125
 20
132.1769402076
 10
241.8831404293
 20
132.2600069008
 10
241.6451303736
 20
132.3467000215
 10
241.4111329531
 20
132.4369601547
 10
241.1813085379
 20
132.5307254407
 10
240.9558146382
 20
132.6279316172
 10
240.7348057962
 20
132.7285120642
 10
240.5184334805
 20
132.8323978487
 10
240.3068459816
 20
132.9395177726
 10
240.1001883113
 20
133.0497984214
 10
239.8986021022
 20
133.1631642141
 10
239.7022255116
 20
133.2795374555
 10
239.5111931261
 20
133.3988383892
 10
239.3256358698
 20
133.5209852523
 10
239.1456809143
 20
133.6458943314
 10
238.9714515919
 20
133.7734800202
 10
238.8030673105
 20
133.9036548776
 10
238.6406434723
 20
134.0363296884
 10
238.4842913946
 20
134.171413524
 10
238.3341182332
 20
134.3088138045
 10
238.1902269093
 20
134.4484363627
 10
238.0527160389
 20
134.5901855083
 10
237.921679865
 20
134.7339640935
 10
237.7972081932
 20
134.8796735795
 10
237.6793863303
 20
135.0272141046
 10
237.5682950255
 20
135.1764845516
 10
237.4640104152
 20
135.3273826181
 10
237.3666039708
 20
135.4798048862
 10
237.2761424498
 20
135.6336468931
 10
237.1926878502
 20
135.7888032033
 10
237.1162973674
 20
135.9451674805
 10
237.0470233557
 20
136.1026325602
 10
236.9849132921
 20
136.2610905239
 10
236.9300097437
 20
136.4204327723
 10
236.8823503386
 20
136.5805501002
 10
236.8419677402
 20
136.7413327713
 10
236.8088896248
 20
136.902670593
 10
236.7831386624
 20
137.0644529926
 10
236.7647325014
 20
137.2265690924
 10
236.7536837565
 20
137.3889077862
 10
236.75
 20
137.5513578152
 10
236.7536837565
 20
137.7138078441
 10
236.7647325014
 20
137.8761465379
 10
236.7831386624
 20
138.0382626377
 10
236.8088896248
 20
138.2000450373
 10
236.8419677402
 20
138.3613828591
 10
236.8823503386
 20
138.5221655301
 10
236.9300097437
 20
138.6822828581
 10
236.9849132921
 20
138.8416251065
 10
237.0470233557
 20
139.0000830701
 10
237.1162973674
 20
139.1575481499
 10
237.1926878502
 20
139.313912427
 10
237.2761424498
 20
139.4690687372
 10
237.3666039708
 20
139.6229107442
 10
237.4640104152
 20
139.7753330122
 10
237.5682950255
 20
139.9262310787
 10
237.6793863303
 20
140.0755015258
 10
237.7972081932
 20
140.2230420508
 10
237.921679865
 20
140.3687515369
 10
238.0527160389
 20
140.512530122
 10
238.1902269093
 20
140.6542792676
 10
238.3341182332
 20
140.7939018258
 10
238.4842913946
 20
140.9313021064
 10
238.6406434723
 20
141.0663859419
 10
238.8030673105
 20
141.1990607527
 10
238.9714515919
 20
141.3292356102
 10
239.1456809143
 20
141.4568212989
 10
239.3256358698
 20
141.581730378
 10
239.5111931261
 20
141.7038772411
 10
239.7022255116
 20
141.8231781748
 10
239.8986021022
 20
141.9395514162
  0
LWPOLYLINE
  5
F0
330
1F
100
AcDbEntity
  8
0
  6
Continuous
 62
     7
370
    30
100
AcDbPolyline
 90
       88
 70
   128
 43
0.0
 10
239.8986021022
 20
140.7147401984
 10
240.1001883113
 20
140.8281059911
 10
240.3068459816
 20
140.9383866399
 10
240.5184334805
 20
141.0455065638
 10
240.7348057962
 20
141.1493923483
 10
240.9558146382
 20
141.2499727953
 10
241.1813085379
 20
141.3471789718
 10
241.4111329531
 20
141.4409442578
 10
241.6451303736
 20
141.531204391
 10
241.8831404293
 20
141.6178975117
 10
242.125
 20
141.7009642049
 10
242.3705433272
 20
141.7803475407
 10
242.6196021278
 20
141.8559931137
 10
242.8720057093
 20
141.9278490803
 10
243.1275810869
 20
141.995866194
 10
243.3861531021
 20
142.0599978392
 10
243.6475445424
 20
142.1202000633
 10
243.9115762632
 20
142.1764316067
 10
244.1780673105
 20
142.2286539312
 10
244.4468350444
 20
142.2768312461
 10
244.7176952651
 20
142.3209305331
 10
244.9904623385
 20
142.3609215688
 10
245.2649493237
 20
142.3967769453
 10
245.540968101
 20
142.4284720892
 10
245.8183295008
 20
142.4559852781
 10
246.0968434336
 20
142.4792976559
 10
246.3763190199
 20
142.4983932455
 10
246.6565647209
 20
142.5132589597
 10
246.9373884704
 20
142.5238846102
 10
247.2185978057
 20
142.5302629149
 10
247.5
 20
142.5323895023
 10
247.7814021943
 20
142.5302629149
 10
248.0626115296
 20
142.5238846102
 10
248.3434352791
 20
142.5132589597
 10
248.6236809801
 20
142.4983932455
 10
248.9031565664
 20
142.4792976559
 10
249.1816704992
 20
142.4559852781
 10
249.459031899
 20
142.4284720892
 10
249.7350506763
 20
142.3967769453
 10
250.0095376615
 20
142.3609215688
 10
250.2823047349
 20
142.3209305331
 10
250.5531649556
 20
142.2768312461
 10
250.8219326895
 20
142.2286539312
 10
251.0884237368
 20
142.1764316067
 10
251.3524554576
 20
142.1202000633
 10
251.6138468979
 20
142.0599978392
 10
251.8724189131
 20
141.995866194
 10
252.1279942907
 20
141.9278490803
 10
252.3803978722
 20
141.8559931137
 10
252.6294566728
 20
141.7803475407
 10
252.875
 20
141.7009642049
 10
253.1168595707
 20
141.6178975117
 10
253.3548696264
 20
141.531204391
 10
253.5888670469
 20
141.4409442578
 10
253.8186914621
 20
141.3471789718
 10
254.0441853618
 20
141.2499727953
 10
254.2651942038
 20
141.1493923483
 10
254.4815665195
 20
141.0455065638
 10
254.6931540184
 20
140.9383866399
 10
254.8998116887
 20
140.8281059911
 10
255.1013978978
 20
140.7147401984
 10
255.2977744884
 20
140.598366957
 10
255.4888068739
 20
140.4790660233
 10
255.6743641302
 20
140.3569191602
 10
255.8543190857
 20
140.2320100811
 10
256.0285484081
 20
140.1044243923
 10
256.1969326895
 20
139.9742495349
 10
256.3593565277
 20
139.8415747241
 10
256.5157086054
 20
139.7064908885
 10
256.6658817668
 20
139.569090608
 10
256.8097730907
 20
139.4294680498
 10
256.9472839611
 20
139.2877189042
 10
257.078320135
 20
139.143940319
 10
257.2027918068
 20
138.998230833
 10
257.3206136697
 20
138.8506903079
 10
257.4317049745
 20
138.7014198609
 10
257.5359895848
 20
138.5505217944
 10
257.6333960292
 20
138.3980995263
 10
257.7238575502
 20
138.2442575194
 10
257.8073121498
 20
138.0891012092
 10
257.8837026326
 20
137.932736932
 10
257.9529766443
 20
137.7752718523
 10
258.0150867079
 20
137.6168138886
 10
258.0699902563
 20
137.4574716402
 10
258.1176496614
 20
137.2973543123
 10
258.1580322598
 20
137.1365716412
 10
258.1911103752
 20
136.9752338195
 10
258.1975293527
 20
136.9389522063
  0
ARC
  5
F1
330
1F
100
AcDbEntity
  8
0
  6
Continuous
 62
     7
370
    30
100
AcDbCircle
 10
242.4268459695
 20
135.4842882031
 30
0.0
 40
5.809444476683034
100
AcDbArc
 50
115.7977320169
 51
165.4990294663
  0
LWPOLYLINE
  5
F2
330
1F
100
AcDbEntity
  8
0
  6
Continuous
 62
     7
370
    30
100
AcDbPolyline
 90
       97
 70
   128
 43
0.0
 10
240.7824855787
 20
139.1838091136
 10
240.9606315309
 20
139.2839928374
 10
241.1432592396
 20
139.3814501549
 10
241.3302435409
 20
139.4761142738
 10
241.521456285
 20
139.5679203159
 10
241.7167664244
 20
139.6568053621
 10
241.9160401032
 20
139.7427084948
 10
242.1191407492
 20
139.8255708405
 10
242.3259291674
 20
139.9053356094
 10
242.5362636352
 20
139.9819481347
 10
242.75
 20
140.0553559101
 10
242.9669917775
 20
140.1255086254
 10
243.1870902525
 20
140.1923582016
 10
243.4101445803
 20
140.2558588232
 10
243.6360018908
 20
140.3159669702
 10
243.8645073925
 20
140.3726414474
 10
244.0955044793
 20
140.4258434129
 10
244.3288348373
 20
140.4755364047
 10
244.5643385534
 20
140.5216863659
 10
244.8018542253
 20
140.5642616674
 10
245.0412190715
 20
140.6032331304
 10
245.2822690434
 20
140.6385740456
 10
245.5248389372
 20
140.6702601923
 10
245.7687625078
 20
140.6982698543
 10
246.0138725821
 20
140.7225838352
 10
246.2600011739
 20
140.7431854715
 10
246.506979599
 20
140.7600606436
 10
246.7546385906
 20
140.7731977864
 10
247.0028084157
 20
140.7825878962
 10
247.2513189911
 20
140.7882245375
 10
247.5
 20
140.7901038473
 10
247.7486810089
 20
140.7882245375
 10
247.9971915843
 20
140.7825878962
 10
248.2453614094
 20
140.7731977864
 10
248.493020401
 20
140.7600606436
 10
248.7399988261
 20
140.7431854715
 10
248.9861274179
 20
140.7225838352
 10
249.2312374922
 20
140.6982698543
 10
249.4751610628
 20
140.6702601923
 10
249.7177309566
 20
140.6385740456
 10
249.9587809285
 20
140.6032331304
 10
250.1981457747
 20
140.5642616674
 10
250.4356614466
 20
140.5216863659
 10
250.6711651627
 20
140.4755364047
 10
250.9044955207
 20
140.4258434129
 10
251.1354926075
 20
140.3726414474
 10
251.3639981092
 20
140.3159669702
 10
251.5898554197
 20
140.2558588232
 10
251.8129097475
 20
140.1923582016
 10
252.0330082225
 20
140.1255086254
 10
252.25
 20
140.0553559101
 10
252.4637363648
 20
139.9819481347
 10
252.6740708326
 20
139.9053356094
 10
252.8808592508
 20
139.8255708405
 10
253.0839598968
 20
139.7427084948
 10
253.2832335756
 20
139.6568053621
 10
253.478543715
 20
139.5679203159
 10
253.6697564591
 20
139.4761142738
 10
253.8567407604
 20
139.3814501549
 10
254.0393684691
 20
139.2839928374
 10
254.2175144213
 20
139.1838091136
 10
254.3910565246
 20
139.0809676445
 10
254.559875842
 20
138.9755389124
 10
254.7238566732
 20
138.8675951729
 10
254.8828866338
 20
138.7572104053
 10
255.0368567328
 20
138.6444602618
 10
255.1856614466
 20
138.5294220157
 10
255.3291987919
 20
138.4121745084
 10
255.4673703955
 20
138.2927980956
 10
255.6000815614
 20
138.1713745919
 10
255.727241336
 20
138.0479872149
 10
255.8487625703
 20
137.9227205281
 10
255.9645619798
 20
137.7956603831
 10
256.0745602013
 20
137.6668938605
 10
256.1786818476
 20
137.5365092105
 10
256.2768555589
 20
137.4045957921
 10
256.3690140517
 20
137.2712440124
 10
256.4550941654
 20
137.1365452639
 10
256.5350369048
 20
137.0005918624
 10
256.6087874812
 20
136.8634769836
 10
256.6762953497
 20
136.7252945992
 10
256.7375142438
 20
136.5861394125
 10
256.792402207
 20
136.4461067934
 10
256.8409216219
 20
136.3052927134
 10
256.8830392357
 20
136.1637936794
 10
256.9187261831
 20
136.0217066678
 10
256.947958006
 20
135.8791290579
 10
256.9707146705
 20
135.7361585652
 10
256.9869805802
 20
135.5928931747
 10
256.9967445873
 20
135.4494310732
 10
257.0
 20
135.3058705825
 10
256.9967445873
 20
135.1623100918
 10
256.9869805802
 20
135.0188479903
 10
256.9707146705
 20
134.8755825998
 10
256.947958006
 20
134.7326121071
 10
256.9187261831
 20
134.5900344972
 10
256.9093971905
 20
134.5502531165
  0
ARC
  5
F3
330
1F
100
AcDbEntity
  8
0
  6
Continuous
 62
     7
370
    30
100
AcDbCircle
 10
242.4438892571
 20
135.1199020503
 30
0.0
 40
4.390398934267485
100
AcDbArc
 50
112.2356918061
 51
187.4550758936
  0
LWPOLYLINE
  5
F4
330
1F
100
AcDbEntity
  8
0
  6
Continuous
 62
     7
370
    30
100
AcDbPolyline
 90
       95
 70
   128
 43
0.0
 10
255.9099293665
 20
133.6858749856
 10
255.9022238385
 20
133.6975048551
 10
255.8149157926
 20
133.8238381201
 10
255.7219091188
 20
133.9488087269
 10
255.6232675591
 20
134.0723310269
 10
255.5190587177
 20
134.1943203641
 10
255.409354014
 20
134.3146931331
 10
255.2942286341
 20
134.4333668364
 10
255.1737614792
 20
134.5502601409
 10
255.0480351115
 20
134.6652929339
 10
254.9171356976
 20
134.7783863776
 10
254.7811529494
 20
134.8894629634
 10
254.6401800626
 20
134.998446565
 10
254.4943136531
 20
135.1052624904
 10
254.3436536904
 20
135.2098375334
 10
254.1883034293
 20
135.3121000234
 10
254.0283693391
 20
135.4119798749
 10
253.8639610307
 20
135.5094086352
 10
253.6951911812
 20
135.6043195314
 10
253.5221754572
 20
135.6966475164
 10
253.345032435
 20
135.7863293132
 10
253.1638835194
 20
135.8733034584
 10
252.9788528611
 20
135.9575103442
 10
252.7900672706
 20
136.0388922595
 10
252.5976561323
 20
136.1173934291
 10
252.4017513151
 20
136.1929600522
 10
252.2024870824
 20
136.2655403394
 10
252.0
 20
136.3350845476
 10
251.7944288423
 20
136.4015450148
 10
251.5859144977
 20
136.4648761922
 10
251.3745998713
 20
136.5250346758
 10
251.1606297877
 20
136.5819792361
 10
250.9441508913
 20
136.6356708461
 10
250.7253115459
 20
136.6860727081
 10
250.5042617331
 20
136.7331502794
 10
250.2811529494
 20
136.7768712952
 10
250.0561381023
 20
136.8172057914
 10
249.8293714059
 20
136.8541261247
 10
249.6010082747
 20
136.8876069918
 10
249.3712052174
 20
136.9176254466
 10
249.1401197294
 20
136.9441609158
 10
248.9079101854
 20
136.9671952135
 10
248.67473573
 20
136.9867125531
 10
248.4407561694
 20
137.0026995583
 10
248.2061318616
 20
137.0151452725
 10
247.9710236062
 20
137.024041166
 10
247.7355925348
 20
137.029381142
 10
247.5
 20
137.0311615407
 10
247.2644074652
 20
137.029381142
 10
247.0289763938
 20
137.024041166
 10
246.7938681384
 20
137.0151452725
 10
246.5592438306
 20
137.0026995583
 10
246.32526427
 20
136.9867125531
 10
246.0920898146
 20
136.9671952135
 10
245.8598802706
 20
136.9441609158
 10
245.6287947826
 20
136.9176254466
 10
245.3989917253
 20
136.8876069918
 10
245.1706285941
 20
136.8541261247
 10
244.9438618977
 20
136.8172057914
 10
244.7188470506
 20
136.7768712952
 10
244.4957382669
 20
136.7331502794
 10
244.2746884541
 20
136.6860727081
 10
244.0558491087
 20
136.6356708461
 10
243.8393702123
 20
136.5819792361
 10
243.6254001287
 20
136.5250346758
 10
243.4140855023
 20
136.4648761922
 10
243.2055711577
 20
136.4015450148
 10
243.0
 20
136.3350845476
 10
242.7975129176
 20
136.2655403394
 10
242.5982486849
 20
136.1929600522
 10
242.4023438677
 20
136.1173934291
 10
242.2099327294
 20
136.0388922595
 10
242.0211471389
 20
135.9575103442
 10
241.8361164806
 20
135.8733034584
 10
241.654967565
 20
135.7863293132
 10
241.4778245428
 20
135.6966475164
 10
241.3048088188
 20
135.6043195314
 10
241.1360389693
 20
135.5094086352
 10
240.9716306609
 20
135.4119798749
 10
240.8116965707
 20
135.3121000234
 10
240.6563463096
 20
135.2098375334
 10
240.5056863469
 20
135.1052624904
 10
240.3598199374
 20
134.998446565
 10
240.2188470506
 20
134.8894629634
 10
240.0828643024
 20
134.7783863776
 10
239.9519648885
 20
134.6652929339
 10
239.8262385208
 20
134.5502601409
 10
239.7057713659
 20
134.4333668364
 10
239.590645986
 20
134.3146931331
 10
239.4809412823
 20
134.1943203641
 10
239.3767324409
 20
134.0723310269
 10
239.2780908812
 20
133.9488087269
 10
239.1850842074
 20
133.8238381201
 10
239.0977761615
 20
133.6975048551
 10
239.0900706335
 20
133.6858749856
  0
LWPOLYLINE
  5
F5
330
1F
100
AcDbEntity
  8
0
  6
Continuous
 62
     7
370
    30
100
AcDbPolyline
 90
      125
 70
   128
 43
0.0
 10
251.2459079438
 20
131.7344665278
 10
251.2487149687
 20
131.7789035172
 10
251.25
 20
131.835572132
 10
251.2487149687
 20
131.8922407467
 10
251.2448607553
 20
131.9488705236
 10
251.2384400015
 20
132.0054226515
 10
251.2294571076
 20
132.0618583722
 10
251.2179182302
 20
132.1181390077
 10
251.2038312772
 20
132.174225986
 10
251.1872059034
 20
132.2300808679
 10
251.1680535028
 20
132.2856653731
 10
251.1463872015
 20
132.340941407
 10
251.1222218486
 20
132.3958710859
 10
251.0955740058
 20
132.450416764
 10
251.0664619361
 20
132.5045410583
 10
251.0349055916
 20
132.5582068746
 10
251.0009265994
 20
132.6113774333
 10
250.9645482469
 20
132.6640162937
 10
250.9257954662
 20
132.7160873799
 10
250.8846948163
 20
132.7675550049
 10
250.8412744657
 20
132.8183838954
 10
250.7955641725
 20
132.8685392158
 10
250.7475952642
 20
132.9179865921
 10
250.6974006163
 20
132.9666921357
 10
250.6450146298
 20
133.0146224661
 10
250.5904732073
 20
133.0617447343
 10
250.5338137289
 20
133.1080266451
 10
250.4750750261
 20
133.1534364791
 10
250.4142973555
 20
133.1979431147
 10
250.351522371
 20
133.2415160492
 10
250.2867930955
 20
133.2841254201
 10
250.2201538913
 20
133.3257420249
 10
250.1516504294
 20
133.3663373416
 10
250.0813296589
 20
133.4058835484
 10
250.0092397738
 20
133.4443535421
 10
249.9354301812
 20
133.4817209575
 10
249.8599514664
 20
133.5179601846
 10
249.7828553588
 20
133.5530463871
 10
249.7041946961
 20
133.5869555184
 10
249.6240233885
 20
133.6196643391
 10
249.5423963813
 20
133.6511504321
 10
249.4593696177
 20
133.6813922184
 10
249.375
 20
133.7103689718
 10
249.289345351
 20
133.7380608331
 10
249.202464374
 20
133.7644488237
 10
249.114416613
 20
133.7895148586
 10
249.0252624115
 20
133.8132417587
 10
248.9350628714
 20
133.8356132628
 10
248.8438798108
 20
133.8566140387
 10
248.7517757221
 20
133.8762296934
 10
248.6588137289
 20
133.8944467833
 10
248.5650575426
 20
133.9112528234
 10
248.4705714191
 20
133.9266362956
 10
248.3754201145
 20
133.9405866569
 10
248.2796688406
 20
133.9530943464
 10
248.1833832206
 20
133.9641507919
 10
248.0866292439
 20
133.9737484159
 10
247.9894732208
 20
133.9818806408
 10
247.8919817373
 20
133.988541893
 10
247.794221609
 20
133.9937276072
 10
247.6962598359
 20
133.9974342295
 10
247.5981635562
 20
133.9996592195
 10
247.5
 20
134.0004010523
 10
247.4018364438
 20
133.9996592195
 10
247.3037401641
 20
133.9974342295
 10
247.205778391
 20
133.9937276072
 10
247.1080182627
 20
133.988541893
 10
247.0105267792
 20
133.9818806408
 10
246.9133707561
 20
133.9737484159
 10
246.8166167794
 20
133.9641507919
 10
246.7203311594
 20
133.9530943464
 10
246.6245798855
 20
133.9405866569
 10
246.5294285809
 20
133.9266362956
 10
246.4349424574
 20
133.9112528234
 10
246.3411862711
 20
133.8944467833
 10
246.2482242779
 20
133.8762296934
 10
246.1561201892
 20
133.8566140387
 10
246.0649371286
 20
133.8356132628
 10
245.9747375885
 20
133.8132417587
 10
245.885583387
 20
133.7895148586
 10
245.797535626
 20
133.7644488237
 10
245.710654649
 20
133.7380608331
 10
245.625
 20
133.7103689718
 10
245.5406303823
 20
133.6813922184
 10
245.4576036187
 20
133.6511504321
 10
245.3759766115
 20
133.6196643391
 10
245.2958053039
 20
133.5869555184
 10
245.2171446412
 20
133.5530463871
 10
245.1400485336
 20
133.5179601846
 10
245.0645698188
 20
133.4817209575
 10
244.9907602262
 20
133.4443535421
 10
244.9186703411
 20
133.4058835484
 10
244.8483495706
 20
133.3663373416
 10
244.7798461087
 20
133.3257420249
 10
244.7132069045
 20
133.2841254201
 10
244.648477629
 20
133.2415160492
 10
244.5857026445
 20
133.1979431147
 10
244.5249249739
 20
133.1534364791
 10
244.4661862711
 20
133.1080266451
 10
244.4095267927
 20
133.0617447343
 10
244.3549853702
 20
133.0146224661
 10
244.3025993837
 20
132.9666921357
 10
244.2524047358
 20
132.9179865921
 10
244.2044358275
 20
132.8685392158
 10
244.1587255343
 20
132.8183838954
 10
244.1153051837
 20
132.7675550049
 10
244.0742045338
 20
132.7160873799
 10
244.0354517531
 20
132.6640162937
 10
243.9990734006
 20
132.6113774333
 10
243.9650944084
 20
132.5582068746
 10
243.9335380639
 20
132.5045410583
 10
243.9044259942
 20
132.450416764
 10
243.8777781514
 20
132.3958710859
 10
243.8536127985
 20
132.340941407
 10
243.8319464972
 20
132.2856653731
 10
243.8127940966
 20
132.2300808679
 10
243.7961687228
 20
132.174225986
 10
243.7820817698
 20
132.1181390077
 10
243.7705428924
 20
132.0618583722
 10
243.7615599985
 20
132.0054226515
 10
243.7551392447
 20
131.9488705236
 10
243.7512850313
 20
131.8922407467
 10
243.75
 20
131.835572132
 10
243.7512850313
 20
131.7789035172
 10
243.7540920562
 20
131.7344665278
  0
SPLINE
  5
F6
330
1F
100
AcDbEntity
  8
0
  6
Continuous
 62
     7
370
    30
100
AcDbSpline
210
0.0
220
0.0
230
1.0
 70
     8
 71
     3
 72
    43
 73
    39
 74
     0
 42
0.000000001
 43
0.00000001
 40
0.0
 40
0.0
 40
0.0
 40
0.0
 40
0.0271775735027703
 40
0.0543591649861679
 40
0.0815367703289735
 40
0.1088587075598614
 40
0.1361846761803969
 40
0.163506705979333
 40
0.1907239669182897
 40
0.2179450874794218
 40
0.2451624845378643
 40
0.2725147759813326
 40
0.2998708015950695
 40
0.3272232567064713
 40
0.3477078217930834
 40
0.3681924018626475
 40
0.388700204380086
 40
0.4092080213876346
 40
0.4421398396075954
 40
0.4750945080335894
 40
0.5085100329353177
 40
0.5419256243857815
 40
0.5754317653189781
 40
0.6089379368908998
 40
0.6433046136045266
 40
0.6776712674795703
 40
0.7121354691584071
 40
0.7465995696741402
 40
0.7815415232685442
 40
0.7990268486132751
 40
0.8165121582649104
 40
0.8468649915104198
 40
0.8772176233561713
 40
0.907656436207988
 40
0.9380949527328428
 40
0.9682274613387968
 40
0.9983595773836307
 40
1.0
 40
1.0
 40
1.0
 40
1.0
 10
252.8033008588991
 20
89.5924378570464
 30
0.0
 10
252.841095584464
 20
89.61438543423264
 30
0.0
 10
252.9166906232329
 20
89.65828383337382
 30
0.0
 10
253.0269021570889
 20
89.7240012804952
 30
0.0
 10
253.1348982275212
 20
89.78970182451066
 30
0.0
 10
253.2403725144357
 20
89.85534672693689
 30
0.0
 10
253.3433160933395
 20
89.92092294126405
 30
0.0
 10
253.4433442015797
 20
89.98621718320688
 30
0.0
 10
253.5404169563995
 20
90.05121732316262
 30
0.0
 10
253.6345049174314
 20
90.11592900394805
 30
0.0
 10
253.7258402603774
 20
90.18054714056203
 30
0.0
 10
253.8143609477313
 20
90.24507630076332
 30
0.0
 10
253.9000186713201
 20
90.30953869662406
 30
0.0
 10
253.9757203056117
 20
90.36846948756939
 30
0.0
 10
254.0422637035236
 20
90.42192452463826
 30
0.0
 10
254.1004057391152
 20
90.46997254429579
 30
0.0
 10
254.1568214784594
 20
90.51800261468212
 30
0.0
 10
254.2225408138111
 20
90.57573363008902
 30
0.0
 10
254.2960885462028
 20
90.64319083415482
 30
0.0
 10
254.3760047222943
 20
90.72083319101853
 30
0.0
 10
254.4516030984776
 20
90.79907252439368
 30
0.0
 10
254.5228267063076
 20
90.87809698330132
 30
0.0
 10
254.5892816710317
 20
90.95768256071537
 30
0.0
 10
254.6514580420464
 20
91.03867985151203
 30
0.0
 10
254.7091200519439
 20
91.12120512618472
 30
0.0
 10
254.7621438108463
 20
91.2055678263602
 30
0.0
 10
254.8099948049264
 20
91.29128419335537
 30
0.0
 10
254.8528245220753
 20
91.37900034407929
 30
0.0
 10
254.8841697095741
 20
91.45386732109525
 30
0.0
 10
254.9066454241711
 20
91.51514613479841
 30
0.0
 10
254.925930313864
 20
91.57309847418055
 30
0.0
 10
254.9461921886834
 20
91.64368242045423
 30
0.0
 10
254.9656194554576
 20
91.72795598467825
 30
0.0
 10
254.9808033594759
 20
91.81453913333954
 30
0.0
 10
254.9917782941313
 20
91.9032879841957
 30
0.0
 10
254.9981464193374
 20
91.99460758685323
 30
0.0
 10
255.0003989604783
 20
92.05829278231629
 30
0.0
 10
254.9999517893905
 20
92.09214500872336
 30
0.0
 10
254.9999287018564
 20
92.09389280603995
 30
0.0
  0
SPLINE
  5
F7
330
1F
100
AcDbEntity
  8
0
  6
Continuous
 62
     7
370
    30
100
AcDbSpline
210
0.0
220
0.0
230
1.0
 70
     8
 71
     3
 72
   133
 73
   129
 74
     0
 42
0.000000001
 43
0.00000001
 40
0.0
 40
0.0
 40
0.0
 40
0.0
 40
0.0017045566054427
 40
0.0074274755848174
 40
0.0131503934515447
 40
0.0243117941812328
 40
0.0354818121203777
 40
0.0430360840670899
 40
0.0505910405006245
 40
0.0581452851265213
 40
0.0657253284941942
 40
0.0733061004931074
 40
0.0808861041245277
 40
0.0886700332687694
 40
0.0964548091008566
 40
0.1042386778993715
 40
0.1120554603661358
 40
0.119873181627022
 40
0.1276898838734327
 40
0.1336436045550678
 40
0.1395973160937685
 40
0.1455587275043841
 40
0.1515201287946085
 40
0.1592823803284896
 40
0.1670457858858065
 40
0.1748079237546485
 40
0.1826160762328786
 40
0.1904255546503691
 40
0.1982335815968674
 40
0.2060943345855421
 40
0.2139566063678759
 40
0.2218172354110341
 40
0.229737454466504
 40
0.2376593886474294
 40
0.2455795062089126
 40
0.2533590729160509
 40
0.2611403834893774
 40
0.2689199005409151
 40
0.2767643967847303
 40
0.2846107386643115
 40
0.2924552442822516
 40
0.3003663515277634
 40
0.3082793297024669
 40
0.316190511714844
 40
0.3241653732970196
 40
0.3321420799323726
 40
0.3401174538469804
 40
0.3460148869004599
 40
0.351912358517674
 40
0.3578162047647828
 40
0.363720080721558
 40
0.3716058448802222
 40
0.3794922715686818
 40
0.3873782469723093
 40
0.3992323184039884
 40
0.4110865244797607
 40
0.4229272848201901
 40
0.4347680435707799
 40
0.4466257650621765
 40
0.4584833547656942
 40
0.4663861509367052
 40
0.4742893991527486
 40
0.4821920006735176
 40
0.4901182889013554
 40
0.4980453028601802
 40
0.5059712622606634
 40
0.5128474015342606
 40
0.5197243007810662
 40
0.5266001713449406
 40
0.5335135059496545
 40
0.5404279770514788
 40
0.5473409642383974
 40
0.5543079453214381
 40
0.5612765582188851
 40
0.5682431517837372
 40
0.575281785512278
 40
0.5823226533125234
 40
0.5893613291001718
 40
0.596251325098306
 40
0.6031432999145474
 40
0.6100335033363881
 40
0.6169880900204763
 40
0.6239444297193248
 40
0.6308992520858745
 40
0.6379089450057647
 40
0.6449201220367725
 40
0.651930038506807
 40
0.6589858829551279
 40
0.6660429519692332
 40
0.6730989848960209
 40
0.680874570385354
 40
0.6886514750789718
 40
0.6964272685190217
 40
0.7042436265326357
 40
0.712061062675374
 40
0.7198775665110476
 40
0.7277185542111423
 40
0.7355604492718565
 40
0.7434015308687172
 40
0.7512722201143903
 40
0.7591437114856919
 40
0.7670144546018269
 40
0.7729312102717404
 40
0.7788479686598724
 40
0.784769671762131
 40
0.7906913763820652
 40
0.8008135251293516
 40
0.8109417264573298
 40
0.8211499876676221
 40
0.831358238351268
 40
0.8415918686710707
 40
0.8518254795497333
 40
0.8622041321132851
 40
0.8725827578667418
 40
0.8829902445923551
 40
0.8933977009146262
 40
0.9038915891813125
 40
0.9143934849305467
 40
0.9250390160738486
 40
0.9356845166283657
 40
0.9463658119379672
 40
0.9570470824093456
 40
0.9641927984216706
 40
0.9713392156902331
 40
0.9784849204303894
 40
0.9856563740967594
 40
0.9928285502935715
 40
1.0
 40
1.0
 40
1.0
 40
1.0
 10
240.0001555065355
 20
94.75872615414288
 30
0.0
 10
240.0001107901877
 20
94.753813850741
 30
0.0
 10
239.9999159421082
 20
94.73240886280094
 30
0.0
 10
240.0010729180107
 20
94.69435875954899
 30
0.0
 10
240.0044945492362
 20
94.62878200935224
 30
0.0
 10
240.0125148244485
 20
94.54695849059586
 30
0.0
 10
240.0260562261197
 20
94.45911674878315
 30
0.0
 10
240.0417169215792
 20
94.38130419976478
 30
0.0
 10
240.0578197066268
 20
94.31376473449833
 30
0.0
 10
240.0765432789106
 20
94.24567869056574
 30
0.0
 10
240.0978981989579
 20
94.1770083332528
 30
0.0
 10
240.1218902352035
 20
94.10771012526651
 30
0.0
 10
240.1487301847694
 20
94.03719416573401
 30
0.0
 10
240.1784993171774
 20
93.9653992768231
 30
0.0
 10
240.21127120088
 20
93.8922560014196
 30
0.0
 10
240.2468252554047
 20
93.81824365867702
 30
0.0
 10
240.2851688902778
 20
93.74330959929716
 30
0.0
 10
240.3262981104358
 20
93.66739672992027
 30
0.0
 10
240.3666606184885
 20
93.59666191858906
 30
0.0
 10
240.4055380594263
 20
93.53131149194141
 30
0.0
 10
240.4423139901581
 20
93.47151678472076
 30
0.0
 10
240.4806527355551
 20
93.41108171555624
 30
0.0
 10
240.524558672262
 20
93.34383018882659
 30
0.0
 10
240.574590059006
 20
93.26950685927116
 30
0.0
 10
240.6313538994406
 20
93.1877859919921
 30
0.0
 10
240.6907311436632
 20
93.10468611835795
 30
0.0
 10
240.7526978238614
 20
93.02015256569015
 30
0.0
 10
240.8172060667912
 20
92.93413746481724
 30
0.0
 10
240.884220093765
 20
92.8465736164866
 30
0.0
 10
240.9536951317363
 20
92.75741282691878
 30
0.0
 10
241.0255580148467
 20
92.66662065750961
 30
0.0
 10
241.099749690027
 20
92.57414237400036
 30
0.0
 10
241.1761988322986
 20
92.47994271561835
 30
0.0
 10
241.2548035368562
 20
92.3840074670143
 30
0.0
 10
241.3347776319042
 20
92.287149575053
 30
0.0
 10
241.4159664745365
 20
92.18939987760486
 30
0.0
 10
241.4982003461682
 20
92.09081155830457
 30
0.0
 10
241.5820659142288
 20
91.99054400579568
 30
0.0
 10
241.6674434022408
 20
91.88860462520059
 30
0.0
 10
241.7541944407484
 20
91.78502738057435
 30
0.0
 10
241.8421842598538
 20
91.67984209322597
 30
0.0
 10
241.931275609572
 20
91.57307901900788
 30
0.0
 10
242.0213201200223
 20
91.46478868717031
 30
0.0
 10
242.1121700682255
 20
91.35505292915582
 30
0.0
 10
242.2036480246143
 20
91.24386883592183
 30
0.0
 10
242.2956740768097
 20
91.13139385396815
 30
0.0
 10
242.3799599204346
 20
91.02796479364905
 30
0.0
 10
242.4564140531766
 20
90.93395225570778
 30
0.0
 10
242.5250246527921
 20
90.84955673917425
 30
0.0
 10
242.593838896651
 20
90.76496721957355
 30
0.0
 10
242.6706013233881
 20
90.67077342726492
 30
0.0
 10
242.7554061434276
 20
90.5670527002779
 30
0.0
 10
242.8484175439391
 20
90.45393546381042
 30
0.0
 10
242.957637823367
 20
90.32210205128793
 30
0.0
 10
243.0835396132375
 20
90.17190870798777
 30
0.0
 10
243.2268272656071
 20
90.0041050328794
 30
0.0
 10
243.3719887273418
 20
89.83794221102734
 30
0.0
 10
243.519430993155
 20
89.6737480732217
 30
0.0
 10
243.6695540035581
 20
89.51187374751052
 30
0.0
 10
243.8057170890052
 20
89.37047254940686
 30
0.0
 10
243.9270328203191
 20
89.24892898840392
 30
0.0
 10
244.032625305304
 20
89.14641707028032
 30
0.0
 10
244.1400629163035
 20
89.04563567299648
 30
0.0
 10
244.2494658050358
 20
88.94677333598445
 30
0.0
 10
244.3609617682994
 20
88.85005289463069
 30
0.0
 10
244.4695401771345
 20
88.75995862086683
 30
0.0
 10
244.5749762359065
 20
88.67632965628769
 30
0.0
 10
244.6770297380551
 20
88.59896066875189
 30
0.0
 10
244.7810511264196
 20
88.52384670706498
 30
0.0
 10
244.8871040038709
 20
88.45119756360218
 30
0.0
 10
244.9952331144915
 20
88.38123419542492
 30
0.0
 10
245.1055551462979
 20
88.314125058166
 30
0.0
 10
245.2181037249537
 20
88.25012860616033
 30
0.0
 10
245.3328746010877
 20
88.18949467041648
 30
0.0
 10
245.4499372099798
 20
88.13240263432218
 30
0.0
 10
245.5692922705963
 20
88.07919405606427
 30
0.0
 10
245.6908236490275
 20
88.03001897470936
 30
0.0
 10
245.8131010803541
 20
87.98542484537735
 30
0.0
 10
245.9359323705089
 20
87.94535262878986
 30
0.0
 10
246.0591104569088
 20
87.90961941066332
 30
0.0
 10
246.1837487647848
 20
87.87780118904112
 30
0.0
 10
246.3097124544326
 20
87.84989607570762
 30
0.0
 10
246.4368635696549
 20
87.82584534497725
 30
0.0
 10
246.5650134406754
 20
87.80558880743291
 30
0.0
 10
246.6940410185699
 20
87.78906862096444
 30
0.0
 10
246.8238312497462
 20
87.7761894428642
 30
0.0
 10
246.9542220252234
 20
87.76685256346595
 30
0.0
 10
247.0851146988414
 20
87.76096374234885
 30
0.0
 10
247.2164201054032
 20
87.75841048148864
 30
0.0
 10
247.3522357976265
 20
87.75909602720621
 30
0.0
 10
247.4924864190079
 20
87.76326759170699
 30
0.0
 10
247.6370778215147
 20
87.7711411590508
 30
0.0
 10
247.781720032561
 20
87.7824324757705
 30
0.0
 10
247.9263411572491
 20
87.79699291258194
 30
0.0
 10
248.0708783591041
 20
87.81467873228776
 30
0.0
 10
248.2151762796637
 20
87.83532790576513
 30
0.0
 10
248.3591831896777
 20
87.8587950519703
 30
0.0
 10
248.5028526924261
 20
87.8849454585009
 30
0.0
 10
248.6461737182139
 20
87.91364923172773
 30
0.0
 10
248.7891056969098
 20
87.94477788805274
 30
0.0
 10
248.9316098420747
 20
87.97821425574269
 30
0.0
 10
249.0617339757073
 20
88.01084951427416
 30
0.0
 10
249.1796202950748
 20
88.04201591968834
 30
0.0
 10
249.2854513171356
 20
88.07119394357771
 30
0.0
 10
249.3909033013043
 20
88.10142703875759
 30
0.0
 10
249.5208018863306
 20
88.14005772260892
 30
0.0
 10
249.6747106595455
 20
88.18799734201664
 30
0.0
 10
249.8524777095575
 20
88.24637869987299
 30
0.0
 10
250.0293187256448
 20
88.307327033722
 30
0.0
 10
250.2052541090901
 20
88.37070809230069
 30
0.0
 10
250.3797361136667
 20
88.43617468436163
 30
0.0
 10
250.5534925824872
 20
88.503870638811
 30
0.0
 10
250.7262602359943
 20
88.57359059570396
 30
0.0
 10
250.8980708110984
 20
88.64525602562698
 30
0.0
 10
251.0680049960694
 20
88.71837278378912
 30
0.0
 10
251.2364129783978
 20
88.79299077465448
 30
0.0
 10
251.4030432971275
 20
88.86891270417117
 30
0.0
 10
251.5685020400269
 20
88.94634857049212
 30
0.0
 10
251.7321609856828
 20
89.02495362083295
 30
0.0
 10
251.8939860894496
 20
89.10466703572838
 30
0.0
 10
252.0530862294876
 20
89.18499291979609
 30
0.0
 10
252.1920785167294
 20
89.25689141423037
 30
0.0
 10
252.3117559174478
 20
89.32004928456728
 30
0.0
 10
252.4130191834661
 20
89.37435548237721
 30
0.0
 10
252.5128999400868
 20
89.42878456068226
 30
0.0
 10
252.6113080829842
 20
89.483303236104
 30
0.0
 10
252.7083516623118
 20
89.53789054411281
 30
0.0
 10
252.7716521954063
 20
89.57425603336064
 30
0.0
 10
252.8033008588991
 20
89.59243785704662
 30
0.0
  0
LWPOLYLINE
  5
F8
330
1F
100
AcDbEntity
  8
0
  6
Continuous
 62
     8
370
     0
100
AcDbPolyline
 90
       93
 70
   128
 43
0.0
 10
255.7218100816
 20
32.1282377899
 10
255.5037707751
 20
32.0056192887
 10
255.280246084
 20
31.8863377352
 10
255.0513892008
 20
31.7704748791
 10
254.8173569726
 20
31.658110127
 10
254.5783097935
 20
31.5493204881
 10
254.3344114944
 20
31.4441805213
 10
254.0858292311
 20
31.3427622844
 10
253.8327333694
 20
31.2451352843
 10
253.5752973685
 20
31.1513664297
 10
253.3136976623
 20
31.061519985
 10
253.0481135382
 20
30.9756575267
 10
252.7787270141
 20
30.8938379004
 10
252.5057227142
 20
30.8161171814
 10
252.2292877421
 20
30.7425486354
 10
251.9496115523
 20
30.6731826827
 10
251.666885821
 20
30.6080668632
 10
251.3813043144
 20
30.5472458041
 10
251.0930627556
 20
30.4907611891
 10
250.8023586911
 20
30.43865173
 10
250.5093913549
 20
30.3909531398
 10
250.2143615322
 20
30.347698109
 10
249.9174714217
 20
30.3089162823
 10
249.6189244971
 20
30.2746342388
 10
249.3189253674
 20
30.2448754737
 10
249.0176796371
 20
30.2196603823
 10
248.7153937651
 20
30.1990062457
 10
248.4122749228
 20
30.1829272191
 10
248.1085308529
 20
30.1714343224
 10
247.8043697263
 20
30.1645354322
 10
247.5
 20
30.1622352766
 10
247.1956302736
 20
30.1645354322
 10
246.891469147
 20
30.1714343224
 10
246.5877250771
 20
30.1829272191
 10
246.2846062349
 20
30.1990062457
 10
245.9823203628
 20
30.2196603823
 10
245.6810746325
 20
30.2448754738
 10
245.3810755029
 20
30.2746342388
 10
245.0825285782
 20
30.3089162823
 10
244.7856384677
 20
30.347698109
 10
244.490608645
 20
30.3909531399
 10
244.1976413088
 20
30.43865173
 10
243.9069372443
 20
30.4907611891
 10
243.6186956856
 20
30.5472458041
 10
243.3331141789
 20
30.6080668632
 10
243.0503884476
 20
30.6731826827
 10
242.7707122579
 20
30.7425486354
 10
242.4942772857
 20
30.8161171814
 10
242.2212729858
 20
30.8938379005
 10
241.9518864618
 20
30.9756575267
 10
241.6863023376
 20
31.0615199851
 10
241.4247026314
 20
31.1513664297
 10
241.1672666306
 20
31.2451352843
 10
240.9141707689
 20
31.3427622844
 10
240.6655885055
 20
31.4441805213
 10
240.4216902065
 20
31.5493204881
 10
240.1826430273
 20
31.658110127
 10
239.9486107992
 20
31.7704748792
 10
239.719753916
 20
31.8863377353
 10
239.4962292248
 20
32.0056192887
 10
239.2781899183
 20
32.1282377899
 10
239.0657854298
 20
32.2541092023
 10
238.8591613306
 20
32.3831472599
 10
238.6584592307
 20
32.5152635264
 10
238.4638166811
 20
32.6503674559
 10
238.2753670802
 20
32.788366455
 10
238.093239582
 20
32.9291659461
 10
237.9175590074
 20
33.0726694322
 10
237.7484457593
 20
33.2187785631
 10
237.5860157393
 20
33.3673932031
 10
237.4303802689
 20
33.5184114989
 10
237.2816460129
 20
33.6717299503
 10
237.1399149063
 20
33.8272434805
 10
237.0052840846
 20
33.9848455081
 10
236.8778458169
 20
34.1444280208
 10
236.7576874431
 20
34.3058816485
 10
236.6448913137
 20
34.469095739
 10
236.5395347336
 20
34.6339584336
 10
236.4416899089
 20
34.8003567436
 10
236.3514238975
 20
34.9681766279
 10
236.2687985634
 20
35.1373030711
 10
236.1938705337
 20
35.3076201624
 10
236.1266911603
 20
35.4790111751
 10
236.0673064848
 20
35.6513586462
 10
236.0157572063
 20
35.8245444574
 10
235.9720786541
 20
35.9984499158
 10
235.9363007635
 20
36.1729558352
 10
235.9084480546
 20
36.3479426182
 10
235.8885396165
 20
36.5232903374
 10
235.8765890933
 20
36.6988788182
 10
235.8726046753
 20
36.8745877212
 10
235.8765890933
 20
37.0502966241
 10
235.8780312907
 20
37.0796389497
  0
ARC
  5
F9
330
1F
100
AcDbEntity
  8
0
  6
Continuous
 62
     8
370
     0
100
AcDbCircle
 10
253.4205749814
 20
37.3515979455
 30
0.0
 40
5.707816947133027
100
AcDbArc
 50
293.7766601645
 51
357.2749419766
  0
ARC
  5
FA
330
1F
100
AcDbEntity
  8
0
  6
Continuous
 62
     8
370
     0
100
AcDbCircle
 10
252.7806905516
 20
60.9797271367
 30
0.0
 40
5.09092699916185
100
AcDbArc
 50
293.7766601645
 51
357.2749419766
  0
LWPOLYLINE
  5
FB
330
1F
100
AcDbEntity
  8
0
  6
Continuous
 62
     8
370
     0
100
AcDbPolyline
 90
       93
 70
   128
 43
0.0
 10
237.1341393832
 20
60.7376876382
 10
237.1328251316
 20
60.7109898864
 10
237.1292713419
 20
60.5542712659
 10
237.1328251316
 20
60.3975526454
 10
237.1434840651
 20
60.240941432
 10
237.1612408373
 20
60.0845449592
 10
237.1860832786
 20
59.9284704133
 10
237.2179943633
 20
59.7728247602
 10
237.256952221
 20
59.6177146714
 10
237.302930152
 20
59.4632464517
 10
237.3558966453
 20
59.3095259659
 10
237.4158154003
 20
59.1566585664
 10
237.4826453517
 20
59.0047490208
 10
237.5563406977
 20
58.8539014404
 10
237.636850931
 20
58.7042192085
 10
237.7241208741
 20
58.5558049098
 10
237.8180907163
 20
58.4087602602
 10
237.9186960556
 20
58.2631860367
 10
238.025867942
 20
58.1191820085
 10
238.1395329252
 20
57.9768468689
 10
238.2596131051
 20
57.8362781672
 10
238.3860261845
 20
57.6975722422
 10
238.5186855264
 20
57.560824156
 10
238.6575002125
 20
57.426127629
 10
238.8023751063
 20
57.2935749753
 10
238.9532109178
 20
57.16325704
 10
239.1099042716
 20
57.0352631365
 10
239.2723477779
 20
56.9096809854
 10
239.440430106
 20
56.7865966544
 10
239.6140360608
 20
56.6660944993
 10
239.7930466613
 20
56.5482571065
 10
239.9773392227
 20
56.4331652356
 10
240.16678744
 20
56.3208977649
 10
240.3612614749
 20
56.211531637
 10
240.5606280446
 20
56.1051418058
 10
240.7647505132
 20
56.0018011858
 10
240.9734889854
 20
55.9015806014
 10
241.1867004022
 20
55.8045487387
 10
241.4042386392
 20
55.7107720986
 10
241.6259546066
 20
55.6203149509
 10
241.8516963513
 20
55.5332392904
 10
242.0813091611
 20
55.4496047944
 10
242.314635671
 20
55.3694687819
 10
242.5515159705
 20
55.2928861739
 10
242.7917877138
 20
55.2199094565
 10
243.0352862307
 20
55.1505886442
 10
243.2818446394
 20
55.0849712461
 10
243.531293961
 20
55.023102233
 10
243.7834632355
 20
54.9650240069
 10
244.0381796387
 20
54.9107763716
 10
244.2952686006
 20
54.8603965059
 10
244.5545539253
 20
54.8139189375
 10
244.8158579117
 20
54.7713755198
 10
245.0790014749
 20
54.7327954101
 10
245.3438042697
 20
54.698205049
 10
245.6100848132
 20
54.6676281433
 10
245.8776606103
 20
54.6410856487
 10
246.1463482777
 20
54.6185957562
 10
246.4159636704
 20
54.6001738791
 10
246.6863220074
 20
54.585832643
 10
246.9572379987
 20
54.5755818766
 10
247.228525972
 20
54.5694286053
 10
247.5
 20
54.5673770462
 10
247.771474028
 20
54.5694286053
 10
248.0427620012
 20
54.5755818766
 10
248.3136779925
 20
54.585832643
 10
248.5840363296
 20
54.6001738791
 10
248.8536517223
 20
54.6185957562
 10
249.1223393897
 20
54.6410856487
 10
249.3899151867
 20
54.6676281433
 10
249.6561957303
 20
54.698205049
 10
249.920998525
 20
54.73279541
 10
250.1841420883
 20
54.7713755198
 10
250.4454460746
 20
54.8139189375
 10
250.7047313994
 20
54.8603965059
 10
250.9618203613
 20
54.9107763716
 10
251.2165367645
 20
54.9650240069
 10
251.468706039
 20
55.023102233
 10
251.7181553606
 20
55.0849712461
 10
251.9647137693
 20
55.1505886442
 10
252.2082122861
 20
55.2199094565
 10
252.4484840294
 20
55.2928861739
 10
252.685364329
 20
55.3694687818
 10
252.9186908389
 20
55.4496047944
 10
253.1483036487
 20
55.5332392904
 10
253.3740453934
 20
55.6203149509
 10
253.5957613607
 20
55.7107720986
 10
253.8132995977
 20
55.8045487387
 10
254.0265110145
 20
55.9015806014
 10
254.2352494867
 20
56.0018011858
 10
254.4393719553
 20
56.1051418058
 10
254.638738525
 20
56.2115316369
 10
254.8332125599
 20
56.3208977649
  0
LWPOLYLINE
  5
FC
330
1F
100
AcDbEntity
  8
0
  6
Continuous
 62
     8
370
     0
100
AcDbPolyline
 90
      119
 70
   128
 43
0.0
 10
254.4799906499
 20
56.9154037087
 10
254.294883927
 20
56.8113054647
 10
254.1051203301
 20
56.710040157
 10
253.9108299136
 20
56.6116771877
 10
253.7121458346
 20
56.51628397
 10
253.509204261
 20
56.4239258816
 10
253.3021442791
 20
56.3346662201
 10
253.0911077973
 20
56.2485661595
 10
252.8762394494
 20
56.1656847087
 10
252.6576864957
 20
56.0860786704
 10
252.4355987212
 20
56.0098026026
 10
252.2101283339
 20
55.9369087811
 10
251.9814298599
 20
55.8674471637
 10
251.7496600377
 20
55.8014653559
 10
251.5149777108
 20
55.7390085784
 10
251.2775437188
 20
55.6801196359
 10
251.037520787
 20
55.6248388879
 10
250.7950734151
 20
55.5732042211
 10
250.5503677645
 20
55.5252510234
 10
250.3035715442
 20
55.4810121594
 10
250.054853896
 20
55.4405179483
 10
249.8043852786
 20
55.4037961428
 10
249.5523373506
 20
55.3708719102
 10
249.2988828531
 20
55.341767815
 10
249.0441954912
 20
55.3165038038
 10
248.7884498148
 20
55.2950971913
 10
248.5318210992
 20
55.2775626486
 10
248.2744852251
 20
55.2639121928
 10
248.0166185574
 20
55.2541551793
 10
247.7583978252
 20
55.2482982952
 10
247.5
 20
55.2463455543
 10
247.2416021748
 20
55.2482982952
 10
246.9833814426
 20
55.2541551793
 10
246.7255147749
 20
55.2639121928
 10
246.4681789007
 20
55.2775626486
 10
246.2115501852
 20
55.2950971914
 10
245.9558045088
 20
55.3165038038
 10
245.7011171468
 20
55.341767815
 10
245.4476626493
 20
55.3708719102
 10
245.1956147213
 20
55.4037961428
 10
244.9451461039
 20
55.4405179484
 10
244.6964284557
 20
55.4810121595
 10
244.4496322354
 20
55.5252510234
 10
244.2049265849
 20
55.5732042211
 10
243.962479213
 20
55.6248388879
 10
243.7224562812
 20
55.6801196359
 10
243.4850222891
 20
55.7390085784
 10
243.2503399622
 20
55.8014653559
 10
243.0185701401
 20
55.8674471637
 10
242.7898716661
 20
55.9369087811
 10
242.5644012788
 20
56.0098026026
 10
242.3423135043
 20
56.0860786704
 10
242.1237605505
 20
56.1656847087
 10
241.9088922027
 20
56.2485661596
 10
241.6978557209
 20
56.3346662201
 10
241.4907957389
 20
56.4239258816
 10
241.2878541654
 20
56.51628397
 10
241.0891700863
 20
56.6116771878
 10
240.8948796699
 20
56.710040157
 10
240.7051160729
 20
56.8113054647
 10
240.52000935
 20
56.9154037087
 10
240.3396863641
 20
57.0222635453
 10
240.1642706994
 20
57.131811738
 10
239.9938825772
 20
57.243973208
 10
239.8286387729
 20
57.3586710854
 10
239.6686525364
 20
57.4758267621
 10
239.5140335143
 20
57.5953599453
 10
239.3648876747
 20
57.7171887131
 10
239.2213172347
 20
57.84122957
 10
239.0834205903
 20
57.9673975047
 10
238.9512922491
 20
58.0956060479
 10
238.8250227651
 20
58.2257673319
 10
238.7046986773
 20
58.3577921507
 10
238.5904024496
 20
58.4915900211
 10
238.482212415
 20
58.6270692446
 10
238.3802027216
 20
58.7641369707
 10
238.2844432817
 20
58.9026992598
 10
238.194999724
 20
59.0426611485
 10
238.1119333488
 20
59.1839267136
 10
238.0353010854
 20
59.326399139
 10
237.965155454
 20
59.4699807811
 10
237.9015445287
 20
59.6145732362
 10
237.8445119053
 20
59.7600774078
 10
237.7940966712
 20
59.9063935748
 10
237.7503333784
 20
60.0534214593
 10
237.7132520201
 20
60.2010602957
 10
237.68287801
 20
60.3492088997
 10
237.659232165
 20
60.4977657378
 10
237.6423306906
 20
60.6466289964
 10
237.6321851704
 20
60.7956966521
 10
237.6288025576
 20
60.9448665414
 10
237.6321851704
 20
61.0940364307
 10
237.6423306906
 20
61.2431040864
 10
237.659232165
 20
61.3919673451
 10
237.68287801
 20
61.5405241831
 10
237.7132520201
 20
61.6886727871
 10
237.7503333784
 20
61.8363116236
 10
237.7940966712
 20
61.983339508
 10
237.8445119054
 20
62.129655675
 10
237.9015445287
 20
62.2751598467
 10
237.965155454
 20
62.4197523018
 10
238.0353010855
 20
62.5633339439
 10
238.1119333488
 20
62.7058063692
 10
238.194999724
 20
62.8470719344
 10
238.2844432817
 20
62.987033823
 10
238.3802027216
 20
63.1255961122
 10
238.482212415
 20
63.2626638382
 10
238.5904024496
 20
63.3981430617
 10
238.7046986773
 20
63.5319409321
 10
238.8250227652
 20
63.6639657509
 10
238.9512922491
 20
63.794127035
 10
239.0834205904
 20
63.9223355782
 10
239.2213172347
 20
64.0485035128
 10
239.3648876747
 20
64.1725443697
 10
239.5140335143
 20
64.2943731375
 10
239.6686525364
 20
64.4139063207
 10
239.8286387729
 20
64.5310619974
 10
239.9938825772
 20
64.6457598748
 10
240.0
 20
64.649890755
  0
LWPOLYLINE
  5
FD
330
1F
100
AcDbEntity
  8
0
  6
Continuous
 62
     8
370
     0
100
AcDbPolyline
 90
       59
 70
   128
 43
0.0
 10
255.0
 20
64.649890755
 10
255.0061174228
 20
64.6457598748
 10
255.1713612271
 20
64.5310619974
 10
255.3313474636
 20
64.4139063207
 10
255.4859664857
 20
64.2943731375
 10
255.6351123253
 20
64.1725443697
 10
255.7786827653
 20
64.0485035128
 10
255.9165794097
 20
63.9223355781
 10
256.0487077509
 20
63.7941270349
 10
256.1749772349
 20
63.6639657509
 10
256.2953013227
 20
63.5319409321
 10
256.4095975504
 20
63.3981430617
 10
256.517787585
 20
63.2626638382
 10
256.6197972784
 20
63.1255961121
 10
256.7155567183
 20
62.987033823
 10
256.805000276
 20
62.8470719344
 10
256.8880666512
 20
62.7058063692
 10
256.9646989146
 20
62.5633339438
 10
257.034844546
 20
62.4197523018
 10
257.0984554713
 20
62.2751598467
 10
257.1554880947
 20
62.129655675
 10
257.2059033288
 20
61.983339508
 10
257.2496666216
 20
61.8363116235
 10
257.2867479799
 20
61.6886727871
 10
257.31712199
 20
61.5405241831
 10
257.340767835
 20
61.391967345
 10
257.3576693094
 20
61.2431040864
 10
257.3678148296
 20
61.0940364307
 10
257.3711974424
 20
60.9448665414
 10
257.3678148296
 20
60.7956966521
 10
257.3576693094
 20
60.6466289964
 10
257.340767835
 20
60.4977657378
 10
257.31712199
 20
60.3492088997
 10
257.2867479799
 20
60.2010602957
 10
257.2496666216
 20
60.0534214593
 10
257.2059033288
 20
59.9063935748
 10
257.1554880946
 20
59.7600774078
 10
257.0984554713
 20
59.6145732361
 10
257.034844546
 20
59.469980781
 10
256.9646989145
 20
59.3263991389
 10
256.8880666512
 20
59.1839267136
 10
256.805000276
 20
59.0426611484
 10
256.7155567183
 20
58.9026992598
 10
256.6197972784
 20
58.7641369707
 10
256.517787585
 20
58.6270692446
 10
256.4095975504
 20
58.4915900211
 10
256.2953013227
 20
58.3577921507
 10
256.1749772348
 20
58.2257673319
 10
256.0487077509
 20
58.0956060479
 10
255.9165794096
 20
57.9673975046
 10
255.7786827653
 20
57.84122957
 10
255.6351123253
 20
57.7171887131
 10
255.4859664857
 20
57.5953599453
 10
255.3313474636
 20
57.4758267621
 10
255.1713612271
 20
57.3586710854
 10
255.0061174228
 20
57.243973208
 10
254.8357293006
 20
57.131811738
 10
254.6603136359
 20
57.0222635453
 10
254.4799906499
 20
56.9154037087
  0
ARC
  5
FE
330
1F
100
AcDbEntity
  8
0
  6
Continuous
 62
     8
370
     0
100
AcDbCircle
 10
251.7693496091
 20
60.9720819556
 30
0.0
 40
3.412776974670595
100
AcDbArc
 50
290.7789369092
 51
18.8027299885
  0
LWPOLYLINE
  5
FF
330
1F
100
AcDbEntity
  8
0
  6
Continuous
 62
     8
370
     0
100
AcDbPolyline
 90
      101
 70
   128
 43
0.0
 10
240.0
 20
62.072056833
 10
239.9641331169
 20
61.9892963764
 10
239.9193560943
 20
61.8750592398
 10
239.8797744664
 20
61.7601845956
 10
239.8454153604
 20
61.6447511731
 10
239.8163023244
 20
61.5288380847
 10
239.7924553109
 20
61.4125247713
 10
239.7738906636
 20
61.2958909484
 10
239.7606211057
 20
61.1790165508
 10
239.7526557314
 20
61.0619816786
 10
239.75
 20
60.9448665414
 10
239.7526557314
 20
60.8277514043
 10
239.7606211057
 20
60.710716532
 10
239.7738906636
 20
60.5938421345
 10
239.7924553109
 20
60.4772083115
 10
239.8163023244
 20
60.3608949981
 10
239.8454153604
 20
60.2449819097
 10
239.8797744664
 20
60.1295484872
 10
239.9193560943
 20
60.014673843
 10
239.9641331169
 20
59.9004367064
 10
240.0140748463
 20
59.7869153699
 10
240.0691470548
 20
59.6741876352
 10
240.1293119987
 20
59.5623307604
 10
240.194528444
 20
59.4514214066
 10
240.2647516946
 20
59.3415355854
 10
240.339933623
 20
59.2327486072
 10
240.4200227033
 20
59.1251350291
 10
240.5049640463
 20
59.0187686041
 10
240.5946994375
 20
58.9137222304
 10
240.6891673769
 20
58.8100679016
 10
240.7883031207
 20
58.7078766571
 10
240.8920387262
 20
58.6072185337
 10
241.0003030984
 20
58.5081625175
 10
241.1130220382
 20
58.4107764966
 10
241.2301182936
 20
58.3151272143
 10
241.3515116127
 20
58.2212802241
 10
241.4771187987
 20
58.1292998439
 10
241.6068537666
 20
58.0392491124
 10
241.7406276025
 20
57.951189746
 10
241.8783486246
 20
57.8651820961
 10
242.0199224458
 20
57.7812851081
 10
242.1652520384
 20
57.6995562808
 10
242.3142378007
 20
57.620051627
 10
242.4667776254
 20
57.5428256353
 10
242.6227669693
 20
57.4679312326
 10
242.7820989252
 20
57.3954197475
 10
242.9446642947
 20
57.3253408761
 10
243.1103516638
 20
57.2577426467
 10
243.2790474786
 20
57.1926713879
 10
243.4506361234
 20
57.1301716961
 10
243.625
 20
57.0702864057
 10
243.802019608
 20
57.013056559
 10
243.981573627
 20
56.9585213784
 10
244.1635389997
 20
56.9067182397
 10
244.3477910161
 20
56.8576826462
 10
244.5342033992
 20
56.8114482043
 10
244.722648391
 20
56.7680466008
 10
244.9129968409
 20
56.7275075812
 10
245.1051182936
 20
56.6898589287
 10
245.2988810785
 20
56.6551264458
 10
245.4941524004
 20
56.6233339366
 10
245.6907984301
 20
56.5945031899
 10
245.8886843961
 20
56.568653965
 10
246.0876746774
 20
56.5458039775
 10
246.2876328959
 20
56.5259688878
 10
246.4884220103
 20
56.5091622899
 10
246.6899044097
 20
56.495395702
 10
246.8919420081
 20
56.4846785593
 10
247.0943963391
 20
56.4770182065
 10
247.2971286506
 20
56.4724198939
 10
247.5
 20
56.4708867727
 10
247.7028713494
 20
56.4724198939
 10
247.9056036609
 20
56.4770182065
 10
248.1080579919
 20
56.4846785593
 10
248.3100955903
 20
56.495395702
 10
248.5115779897
 20
56.5091622899
 10
248.712367104
 20
56.5259688878
 10
248.9123253225
 20
56.5458039775
 10
249.1113156038
 20
56.568653965
 10
249.3092015699
 20
56.5945031899
 10
249.5058475995
 20
56.6233339366
 10
249.7011189214
 20
56.6551264458
 10
249.8948817064
 20
56.6898589286
 10
250.087003159
 20
56.7275075812
 10
250.277351609
 20
56.7680466008
 10
250.4657966008
 20
56.8114482043
 10
250.6522089838
 20
56.8576826462
 10
250.8364610002
 20
56.9067182397
 10
251.018426373
 20
56.9585213784
 10
251.197980392
 20
57.013056559
 10
251.375
 20
57.0702864057
 10
251.5493638765
 20
57.1301716961
 10
251.7209525213
 20
57.1926713878
 10
251.8896483362
 20
57.2577426467
 10
252.0553357053
 20
57.3253408761
 10
252.2179010748
 20
57.3954197475
 10
252.3772330306
 20
57.4679312325
 10
252.5332223745
 20
57.5428256353
 10
252.6857621993
 20
57.620051627
 10
252.8347479616
 20
57.6995562808
 10
252.9800775542
 20
57.7812851081
  0
LWPOLYLINE
  5
100
330
1F
100
AcDbEntity
  8
0
  6
Continuous
 62
     8
370
     0
100
AcDbPolyline
 90
      119
 70
   128
 43
0.0
 10
259.1219374016
 20
136.9197705404
 10
259.1114603835
 20
136.774114895
 10
259.0915519454
 20
136.5987671758
 10
259.0636992365
 20
136.4237803929
 10
259.0279213459
 20
136.2492744734
 10
258.9842427937
 20
136.075369015
 10
258.9326935152
 20
135.9021832038
 10
258.8733088397
 20
135.7298357327
 10
258.8061294663
 20
135.5584447201
 10
258.7312014366
 20
135.3881276288
 10
258.6485761025
 20
135.2190011855
 10
258.5583100911
 20
135.0511813012
 10
258.4604652664
 20
134.8847829913
 10
258.3551086863
 20
134.7199202967
 10
258.2423125569
 20
134.5567062061
 10
258.1221541831
 20
134.3952525784
 10
257.9947159154
 20
134.2356700658
 10
257.8600850936
 20
134.0780680381
 10
257.718353987
 20
133.922554508
 10
257.569619731
 20
133.7692360566
 10
257.4139842607
 20
133.6182177607
 10
257.2515542407
 20
133.4696031208
 10
257.0824409926
 20
133.3234939898
 10
256.906760418
 20
133.1799905038
 10
256.7246329198
 20
133.0391910127
 10
256.5361833189
 20
132.9011920136
 10
256.3415407693
 20
132.766088084
 10
256.1408386693
 20
132.6339718175
 10
255.9342145702
 20
132.50493376
 10
255.7218100816
 20
132.3790623476
 10
255.5037707752
 20
132.2564438464
 10
255.280246084
 20
132.1371622929
 10
255.0513892008
 20
132.0212994368
 10
254.8173569726
 20
131.9089346847
 10
254.5783097935
 20
131.8001450458
 10
254.3344114944
 20
131.695005079
 10
254.0858292311
 20
131.593586842
 10
253.8327333694
 20
131.4959598419
 10
253.5752973685
 20
131.4021909873
 10
253.3136976624
 20
131.3123445427
 10
253.0481135382
 20
131.2264820844
 10
252.7787270141
 20
131.1446624581
 10
252.5057227143
 20
131.066941739
 10
252.2292877421
 20
130.993373193
 10
251.9496115523
 20
130.9240072403
 10
251.6668858211
 20
130.8588914209
 10
251.3813043144
 20
130.7980703618
 10
251.0930627557
 20
130.7415857468
 10
250.8023586912
 20
130.6894762876
 10
250.509391355
 20
130.6417776975
 10
250.2143615323
 20
130.5985226667
 10
249.9174714218
 20
130.5597408399
 10
249.6189244971
 20
130.5254587965
 10
249.3189253674
 20
130.4957000314
 10
249.0176796372
 20
130.47048494
 10
248.7153937651
 20
130.4498308033
 10
248.4122749228
 20
130.4337517768
 10
248.1085308529
 20
130.4222588801
 10
247.8043697264
 20
130.4153599899
 10
247.5
 20
130.4130598343
 10
247.1956302736
 20
130.4153599899
 10
246.8914691471
 20
130.4222588801
 10
246.5877250772
 20
130.4337517768
 10
246.2846062349
 20
130.4498308033
 10
245.9823203628
 20
130.47048494
 10
245.6810746326
 20
130.4957000314
 10
245.3810755029
 20
130.5254587965
 10
245.0825285782
 20
130.5597408399
 10
244.7856384677
 20
130.5985226667
 10
244.490608645
 20
130.6417776975
 10
244.1976413088
 20
130.6894762876
 10
243.9069372443
 20
130.7415857468
 10
243.6186956856
 20
130.7980703618
 10
243.3331141789
 20
130.8588914209
 10
243.0503884477
 20
130.9240072403
 10
242.7707122579
 20
130.993373193
 10
242.4942772857
 20
131.066941739
 10
242.2212729859
 20
131.1446624581
 10
241.9518864618
 20
131.2264820844
 10
241.6863023376
 20
131.3123445427
 10
241.4247026315
 20
131.4021909873
 10
241.1672666306
 20
131.4959598419
 10
240.9141707689
 20
131.593586842
 10
240.6655885056
 20
131.695005079
 10
240.4216902065
 20
131.8001450458
 10
240.1826430274
 20
131.9089346847
 10
239.9486107992
 20
132.0212994368
 10
239.719753916
 20
132.1371622929
 10
239.4962292248
 20
132.2564438464
 10
239.2781899184
 20
132.3790623476
 10
239.0657854298
 20
132.50493376
 10
238.8591613307
 20
132.6339718175
 10
238.6584592307
 20
132.766088084
 10
238.4638166811
 20
132.9011920136
 10
238.2753670802
 20
133.0391910127
 10
238.093239582
 20
133.1799905038
 10
237.9175590074
 20
133.3234939898
 10
237.7484457593
 20
133.4696031208
 10
237.5860157393
 20
133.6182177607
 10
237.430380269
 20
133.7692360566
 10
237.281646013
 20
133.922554508
 10
237.1399149064
 20
134.0780680381
 10
237.0052840846
 20
134.2356700658
 10
236.8778458169
 20
134.3952525784
 10
236.7576874431
 20
134.5567062061
 10
236.6448913137
 20
134.7199202967
 10
236.5395347336
 20
134.8847829913
 10
236.4416899089
 20
135.0511813012
 10
236.3514238975
 20
135.2190011855
 10
236.2687985634
 20
135.3881276288
 10
236.1938705337
 20
135.5584447201
 10
236.1266911603
 20
135.7298357327
 10
236.0673064848
 20
135.9021832038
 10
236.0157572063
 20
136.075369015
 10
235.9720786541
 20
136.2492744734
 10
235.9363007635
 20
136.4237803929
 10
235.9084480546
 20
136.5987671758
 10
235.8885396165
 20
136.774114895
 10
235.8780880074
 20
136.9192925324
  0
LWPOLYLINE
  5
101
330
1F
100
AcDbEntity
  8
0
  6
Continuous
 62
     8
370
     0
100
AcDbPolyline
 90
      241
 70
   128
 43
0.0
 10
255.3685881716
 20
133.0089185522
 10
255.5718674288
 20
133.1293823305
 10
255.7696146313
 20
133.2528767099
 10
255.9616942529
 20
133.3793170535
 10
256.147974652
 20
133.5086167054
 10
256.3283281612
 20
133.6406870502
 10
256.5026311753
 20
133.7754375734
 10
256.6707642357
 20
133.9127759237
 10
256.8326121124
 20
134.0526079762
 10
256.9880638829
 20
134.1948378972
 10
257.1370130083
 20
134.3393682092
 10
257.2793574064
 20
134.4860998585
 10
257.4149995215
 20
134.6349322824
 10
257.5438463911
 20
134.7857634788
 10
257.6658097101
 20
134.9384900753
 10
257.7808058909
 20
135.0930074009
 10
257.8887561209
 20
135.2492095571
 10
257.9895864164
 20
135.4069894907
 10
258.0832276734
 20
135.5662390672
 10
258.1696157147
 20
135.7268491449
 10
258.2486913344
 20
135.8887096498
 10
258.3204003379
 20
136.0517096506
 10
258.3846935796
 20
136.2157374354
 10
258.4415269959
 20
136.3806805877
 10
258.4908616362
 20
136.5464260637
 10
258.532663689
 20
136.7128602697
 10
258.5669045051
 20
136.8798691401
 10
258.5935606177
 20
137.0473382152
 10
258.612613758
 20
137.2151527202
 10
258.624050868
 20
137.3831976434
 10
258.6278641091
 20
137.5513578152
 10
258.624050868
 20
137.7195179869
 10
258.612613758
 20
137.8875629101
 10
258.5935606177
 20
138.0553774151
 10
258.5669045051
 20
138.2228464903
 10
258.532663689
 20
138.3898553606
 10
258.4908616362
 20
138.5562895666
 10
258.4415269959
 20
138.7220350426
 10
258.3846935796
 20
138.8869781949
 10
258.3204003379
 20
139.0510059797
 10
258.2486913344
 20
139.2140059806
 10
258.1696157147
 20
139.3758664854
 10
258.0832276734
 20
139.5364765632
 10
257.9895864164
 20
139.6957261397
 10
257.8887561209
 20
139.8535060733
 10
257.7808058909
 20
140.0097082294
 10
257.6658097101
 20
140.164225555
 10
257.5438463911
 20
140.3169521516
 10
257.4149995215
 20
140.4677833479
 10
257.2793574064
 20
140.6166157719
 10
257.1370130083
 20
140.7633474211
 10
256.9880638829
 20
140.9078777332
 10
256.8326121124
 20
141.0501076541
 10
256.6707642357
 20
141.1899397067
 10
256.5026311753
 20
141.327278057
 10
256.3283281612
 20
141.4620285801
 10
256.147974652
 20
141.5940989249
 10
255.9616942529
 20
141.7233985769
 10
255.7696146313
 20
141.8498389205
 10
255.5718674288
 20
141.9733332999
 10
255.3685881716
 20
142.0937970781
 10
255.1599161772
 20
142.2111476954
 10
254.9459944588
 20
142.3253047255
 10
254.7269696277
 20
142.4361899308
 10
254.5029917927
 20
142.5437273162
 10
254.2742144568
 20
142.6478431809
 10
254.0407944128
 20
142.7484661691
 10
253.802891635
 20
142.8455273189
 10
253.5606691701
 20
142.9389601093
 10
253.3142930253
 20
143.0287005062
 10
253.0639320545
 20
143.1146870061
 10
252.8097578426
 20
143.196860678
 10
252.5519445879
 20
143.2751652042
 10
252.2906689827
 20
143.3495469188
 10
252.0261100923
 20
143.4199548442
 10
251.7584492321
 20
143.4863407263
 10
251.4878698436
 20
143.5486590676
 10
251.2145573682
 20
143.6068671582
 10
250.9386991208
 20
143.6609251052
 10
250.6604841608
 20
143.7107958599
 10
250.3801031627
 20
143.7564452435
 10
250.0977482859
 20
143.7978419701
 10
249.8136130421
 20
143.8349576685
 10
249.5278921635
 20
143.8677669014
 10
249.2407814689
 20
143.896247183
 10
248.9524777297
 20
143.9203789944
 10
248.6631785348
 20
143.9401457968
 10
248.3730821554
 20
143.9555340431
 10
248.0823874091
 20
143.9665331868
 10
247.7912935236
 20
143.9731356899
 10
247.5
 20
143.9753370271
 10
247.2087064764
 20
143.9731356899
 10
246.9176125909
 20
143.9665331868
 10
246.6269178446
 20
143.9555340431
 10
246.3368214652
 20
143.9401457968
 10
246.0475222703
 20
143.9203789944
 10
245.7592185311
 20
143.896247183
 10
245.4721078365
 20
143.8677669014
 10
245.1863869579
 20
143.8349576685
 10
244.9022517141
 20
143.7978419701
 10
244.6198968373
 20
143.7564452435
 10
244.3395158392
 20
143.7107958599
 10
244.0613008792
 20
143.6609251052
 10
243.7854426318
 20
143.6068671582
 10
243.5121301564
 20
143.5486590676
 10
243.2415507679
 20
143.4863407263
 10
242.9738899077
 20
143.4199548442
 10
242.7093310173
 20
143.3495469188
 10
242.4480554121
 20
143.2751652042
 10
242.1902421574
 20
143.196860678
 10
241.9360679455
 20
143.1146870061
 10
241.6857069747
 20
143.0287005062
 10
241.4393308299
 20
142.9389601093
 10
241.197108365
 20
142.8455273189
 10
240.9592055872
 20
142.7484661691
 10
240.7257855432
 20
142.6478431809
 10
240.4970082073
 20
142.5437273162
 10
240.2730303723
 20
142.4361899308
 10
240.0540055412
 20
142.3253047255
 10
239.8400838228
 20
142.2111476954
 10
239.6314118284
 20
142.0937970781
 10
239.4281325712
 20
141.9733332999
 10
239.2303853687
 20
141.8498389205
 10
239.0383057471
 20
141.7233985769
 10
238.852025348
 20
141.5940989249
 10
238.6716718388
 20
141.4620285801
 10
238.4973688247
 20
141.327278057
 10
238.3292357643
 20
141.1899397067
 10
238.1673878876
 20
141.0501076541
 10
238.0119361171
 20
140.9078777332
 10
237.8629869917
 20
140.7633474211
 10
237.7206425936
 20
140.6166157719
 10
237.5850004785
 20
140.4677833479
 10
237.4561536089
 20
140.3169521516
 10
237.3341902899
 20
140.164225555
 10
237.2191941091
 20
140.0097082294
 10
237.1112438791
 20
139.8535060733
 10
237.0104135836
 20
139.6957261397
 10
236.9167723266
 20
139.5364765632
 10
236.8303842853
 20
139.3758664854
 10
236.7513086656
 20
139.2140059806
 10
236.6795996621
 20
139.0510059797
 10
236.6153064204
 20
138.8869781949
 10
236.5584730041
 20
138.7220350426
 10
236.5091383638
 20
138.5562895666
 10
236.467336311
 20
138.3898553606
 10
236.4330954949
 20
138.2228464903
 10
236.4064393823
 20
138.0553774151
 10
236.387386242
 20
137.8875629101
 10
236.375949132
 20
137.7195179869
 10
236.3721358909
 20
137.5513578152
 10
236.375949132
 20
137.3831976434
 10
236.387386242
 20
137.2151527202
 10
236.4064393823
 20
137.0473382152
 10
236.4330954949
 20
136.8798691401
 10
236.467336311
 20
136.7128602697
 10
236.5091383638
 20
136.5464260637
 10
236.5584730041
 20
136.3806805877
 10
236.6153064204
 20
136.2157374354
 10
236.6795996621
 20
136.0517096506
 10
236.7513086656
 20
135.8887096498
 10
236.8303842853
 20
135.7268491449
 10
236.9167723266
 20
135.5662390672
 10
237.0104135836
 20
135.4069894907
 10
237.1112438791
 20
135.2492095571
 10
237.2191941091
 20
135.0930074009
 10
237.3341902899
 20
134.9384900753
 10
237.4561536089
 20
134.7857634788
 10
237.5850004785
 20
134.6349322824
 10
237.7206425936
 20
134.4860998585
 10
237.8629869917
 20
134.3393682092
 10
238.0119361171
 20
134.1948378972
 10
238.1673878876
 20
134.0526079762
 10
238.3292357643
 20
133.9127759237
 10
238.4973688247
 20
133.7754375734
 10
238.6716718388
 20
133.6406870502
 10
238.852025348
 20
133.5086167054
 10
239.0383057471
 20
133.3793170535
 10
239.2303853687
 20
133.2528767099
 10
239.4281325712
 20
133.1293823305
 10
239.6314118284
 20
133.0089185522
 10
239.8400838228
 20
132.8915679349
 10
240.0540055412
 20
132.7774109049
 10
240.2730303723
 20
132.6665256995
 10
240.4970082073
 20
132.5589883141
 10
240.7257855432
 20
132.4548724494
 10
240.9592055872
 20
132.3542494612
 10
241.197108365
 20
132.2571883115
 10
241.4393308299
 20
132.163755521
 10
241.6857069747
 20
132.0740151241
 10
241.9360679455
 20
131.9880286243
 10
242.1902421574
 20
131.9058549523
 10
242.4480554121
 20
131.8275504261
 10
242.7093310173
 20
131.7531687115
 10
242.9738899077
 20
131.6827607861
 10
243.2415507679
 20
131.616374904
 10
243.5121301564
 20
131.5540565627
 10
243.7854426318
 20
131.4958484721
 10
244.0613008792
 20
131.4417905251
 10
244.3395158392
 20
131.3919197704
 10
244.6198968373
 20
131.3462703868
 10
244.9022517141
 20
131.3048736602
 10
245.1863869579
 20
131.2677579619
 10
245.4721078365
 20
131.234948729
 10
245.7592185311
 20
131.2064684473
 10
246.0475222703
 20
131.1823366359
 10
246.3368214652
 20
131.1625698335
 10
246.6269178446
 20
131.1471815873
 10
246.9176125909
 20
131.1361824435
 10
247.2087064764
 20
131.1295799405
 10
247.5
 20
131.1273786032
 10
247.7912935236
 20
131.1295799405
 10
248.0823874091
 20
131.1361824435
 10
248.3730821554
 20
131.1471815873
 10
248.6631785348
 20
131.1625698335
 10
248.9524777297
 20
131.1823366359
 10
249.2407814689
 20
131.2064684473
 10
249.5278921635
 20
131.234948729
 10
249.8136130421
 20
131.2677579619
 10
250.0977482859
 20
131.3048736602
 10
250.3801031627
 20
131.3462703868
 10
250.6604841608
 20
131.3919197704
 10
250.9386991208
 20
131.4417905251
 10
251.2145573682
 20
131.4958484721
 10
251.4878698436
 20
131.5540565627
 10
251.7584492321
 20
131.616374904
 10
252.0261100923
 20
131.6827607861
 10
252.2906689827
 20
131.7531687115
 10
252.5519445879
 20
131.8275504261
 10
252.8097578426
 20
131.9058549523
 10
253.0639320545
 20
131.9880286243
 10
253.3142930253
 20
132.0740151241
 10
253.5606691701
 20
132.163755521
 10
253.802891635
 20
132.2571883115
 10
254.0407944128
 20
132.3542494612
 10
254.2742144568
 20
132.4548724494
 10
254.5029917927
 20
132.5589883141
 10
254.7269696277
 20
132.6665256995
 10
254.9459944588
 20
132.7774109049
 10
255.1599161772
 20
132.8915679349
 10
255.3685881716
 20
133.0089185522
  0
LWPOLYLINE
  5
102
330
1F
100
AcDbEntity
  8
0
  6
Continuous
 62
     8
370
     0
100
AcDbPolyline
 90
      119
 70
   128
 43
0.0
 10
237.1341393832
 20
113.2623123618
 10
237.1434840651
 20
113.1323989002
 10
237.1612408373
 20
112.9760024275
 10
237.1860832786
 20
112.8199278816
 10
237.2179943633
 20
112.6642822284
 10
237.256952221
 20
112.5091721396
 10
237.302930152
 20
112.35470392
 10
237.3558966453
 20
112.2009834342
 10
237.4158154003
 20
112.0481160347
 10
237.4826453518
 20
111.8962064891
 10
237.5563406977
 20
111.7453589086
 10
237.636850931
 20
111.5956766767
 10
237.7241208741
 20
111.4472623781
 10
237.8180907163
 20
111.3002177285
 10
237.9186960556
 20
111.154643505
 10
238.025867942
 20
111.0106394768
 10
238.1395329253
 20
110.8683043372
 10
238.2596131051
 20
110.7277356355
 10
238.3860261845
 20
110.5890297105
 10
238.5186855264
 20
110.4522816243
 10
238.6575002125
 20
110.3175850973
 10
238.8023751063
 20
110.1850324436
 10
238.9532109178
 20
110.0547145083
 10
239.1099042716
 20
109.9267206048
 10
239.2723477779
 20
109.8011384537
 10
239.440430106
 20
109.6780541227
 10
239.6140360608
 20
109.5575519676
 10
239.7930466613
 20
109.4397145747
 10
239.9773392227
 20
109.3246227038
 10
240.16678744
 20
109.2123552332
 10
240.361261475
 20
109.1029891052
 10
240.5606280447
 20
108.9965992741
 10
240.7647505133
 20
108.8932586541
 10
240.9734889854
 20
108.7930380697
 10
241.1867004023
 20
108.696006207
 10
241.4042386393
 20
108.6022295669
 10
241.6259546066
 20
108.5117724192
 10
241.8516963513
 20
108.4246967587
 10
242.0813091611
 20
108.3410622627
 10
242.314635671
 20
108.2609262501
 10
242.5515159705
 20
108.1843436422
 10
242.7917877139
 20
108.1113669248
 10
243.0352862307
 20
108.0420461125
 10
243.2818446394
 20
107.9764287144
 10
243.531293961
 20
107.9145597013
 10
243.7834632355
 20
107.8564814752
 10
244.0381796387
 20
107.8022338399
 10
244.2952686006
 20
107.7518539742
 10
244.5545539254
 20
107.7053764058
 10
244.8158579117
 20
107.6628329881
 10
245.079001475
 20
107.6242528783
 10
245.3438042697
 20
107.5896625173
 10
245.6100848133
 20
107.5590856116
 10
245.8776606103
 20
107.532543117
 10
246.1463482777
 20
107.5100532245
 10
246.4159636704
 20
107.4916313474
 10
246.6863220075
 20
107.4772901113
 10
246.9572379987
 20
107.4670393449
 10
247.228525972
 20
107.4608860736
 10
247.5
 20
107.4588345145
 10
247.771474028
 20
107.4608860736
 10
248.0427620013
 20
107.4670393449
 10
248.3136779925
 20
107.4772901113
 10
248.5840363296
 20
107.4916313474
 10
248.8536517223
 20
107.5100532245
 10
249.1223393897
 20
107.532543117
 10
249.3899151867
 20
107.5590856116
 10
249.6561957303
 20
107.5896625173
 10
249.920998525
 20
107.6242528783
 10
250.1841420883
 20
107.6628329881
 10
250.4454460746
 20
107.7053764058
 10
250.7047313994
 20
107.7518539742
 10
250.9618203613
 20
107.8022338399
 10
251.2165367645
 20
107.8564814752
 10
251.468706039
 20
107.9145597013
 10
251.7181553606
 20
107.9764287144
 10
251.9647137693
 20
108.0420461125
 10
252.2082122861
 20
108.1113669248
 10
252.4484840295
 20
108.1843436422
 10
252.685364329
 20
108.2609262501
 10
252.9186908389
 20
108.3410622627
 10
253.1483036487
 20
108.4246967587
 10
253.3740453934
 20
108.5117724192
 10
253.5957613607
 20
108.6022295669
 10
253.8132995977
 20
108.696006207
 10
254.0265110146
 20
108.7930380697
 10
254.2352494867
 20
108.8932586541
 10
254.4393719553
 20
108.9965992741
 10
254.638738525
 20
109.1029891052
 10
254.83321256
 20
109.2123552332
 10
255.0226607773
 20
109.3246227038
 10
255.2069533387
 20
109.4397145747
 10
255.3859639392
 20
109.5575519676
 10
255.559569894
 20
109.6780541227
 10
255.7276522221
 20
109.8011384537
 10
255.8900957284
 20
109.9267206048
 10
256.0467890822
 20
110.0547145083
 10
256.1976248937
 20
110.1850324436
 10
256.3424997875
 20
110.3175850973
 10
256.4813144736
 20
110.4522816243
 10
256.6139738155
 20
110.5890297105
 10
256.7403868949
 20
110.7277356355
 10
256.8604670747
 20
110.8683043372
 10
256.974132058
 20
111.0106394768
 10
257.0813039444
 20
111.154643505
 10
257.1819092837
 20
111.3002177285
 10
257.2758791259
 20
111.4472623781
 10
257.363149069
 20
111.5956766767
 10
257.4436593023
 20
111.7453589086
 10
257.5173546482
 20
111.8962064891
 10
257.5841845997
 20
112.0481160347
 10
257.6441033547
 20
112.2009834342
 10
257.697069848
 20
112.35470392
 10
257.743047779
 20
112.5091721396
 10
257.7820056367
 20
112.6642822284
 10
257.8139167214
 20
112.8199278816
 10
257.8387591627
 20
112.9760024275
 10
257.8565159349
 20
113.1323989002
 10
257.8658606168
 20
113.2623123618
  0
ENDSEC
  0
SECTION
  2
OBJECTS
  0
DICTIONARY
  5
C
330
0
100
AcDbDictionary
281
     1
  3
ACAD_GROUP
350
D
  3
ACAD_LAYOUT
350
1A
  3
ACAD_MLINESTYLE
350
17
  3
ACAD_PLOTSETTINGS
350
19
  3
ACAD_PLOTSTYLENAME
350
E
  3
ACAD_SCALELIST
350
47
  0
DICTIONARY
  5
D
102
{ACAD_REACTORS
330
C
102
}
330
C
100
AcDbDictionary
281
     1
  0
DICTIONARY
  5
1A
102
{ACAD_REACTORS
330
C
102
}
330
C
100
AcDbDictionary
281
     1
  3
Layout1
350
1E
  3
Layout2
350
26
  3
Model
350
22
  0
DICTIONARY
  5
17
102
{ACAD_REACTORS
330
C
102
}
330
C
100
AcDbDictionary
281
     1
  3
Standard
350
18
  0
DICTIONARY
  5
19
102
{ACAD_REACTORS
330
C
102
}
330
C
100
AcDbDictionary
281
     1
  0
ACDBDICTIONARYWDFLT
  5
E
102
{ACAD_REACTORS
330
C
102
}
330
C
100
AcDbDictionary
281
     1
  3
Normal
350
F
100
AcDbDictionaryWithDefault
340
F
  0
DICTIONARY
  5
47
102
{ACAD_REACTORS
330
C
102
}
330
C
100
AcDbDictionary
281
     1
  3
A0
350
48
  3
A1
350
49
  3
A2
350
4A
  3
A3
350
4B
  3
A4
350
4C
  3
A5
350
4D
  3
A6
350
4E
  3
A7
350
4F
  3
A8
350
50
  3
A9
350
51
  3
B0
350
52
  3
B1
350
53
  3
B2
350
54
  3
B3
350
55
  3
B4
350
56
  3
B5
350
57
  3
B6
350
58
  3
B7
350
59
  3
B8
350
5A
  3
B9
350
5B
  3
C0
350
5C
  3
C1
350
5D
  3
C2
350
5E
  3
C3
350
5F
  3
C4
350
60
  3
C5
350
61
  3
C6
350
62
  3
C7
350
63
  3
C8
350
64
  3
C9
350
65
  3
D0
350
66
  3
D1
350
67
  3
D2
350
68
  0
LAYOUT
  5
1E
102
{ACAD_REACTORS
330
1A
102
}
330
1A
100
AcDbPlotSettings
  1

  2
none_device
  4

  6

 40
0.0
 41
0.0
 42
0.0
 43
0.0
 44
0.0
 45
0.0
 46
0.0
 47
0.0
 48
0.0
 49
0.0
140
0.0
141
0.0
142
1.0
143
1.0
 70
   688
 72
     1
 73
     0
 74
     5
  7

 75
    16
147
1.0
148
0.0
149
0.0
100
AcDbLayout
  1
Layout1
 70
     1
 71
     1
 10
0.0
 20
0.0
 11
420.0
 21
297.0
 12
0.0
 22
0.0
 32
0.0
 14
1.0000000000E+20
 24
1.0000000000E+20
 34
1.0000000000E+20
 15
-1.0000000000E+20
 25
-1.0000000000E+20
 35
-1.0000000000E+20
146
0.0
 13
0.0
 23
0.0
 33
0.0
 16
1.0
 26
0.0
 36
0.0
 17
0.0
 27
1.0
 37
0.0
 76
     0
330
1B
  0
LAYOUT
  5
26
102
{ACAD_REACTORS
330
1A
102
}
330
1A
100
AcDbPlotSettings
  1

  2
none_device
  4

  6

 40
0.0
 41
0.0
 42
0.0
 43
0.0
 44
0.0
 45
0.0
 46
0.0
 47
0.0
 48
0.0
 49
0.0
140
0.0
141
0.0
142
1.0
143
1.0
 70
   688
 72
     1
 73
     0
 74
     5
  7

 75
    16
147
1.0
148
0.0
149
0.0
100
AcDbLayout
  1
Layout2
 70
     1
 71
     2
 10
0.0
 20
0.0
 11
0.0
 21
0.0
 12
0.0
 22
0.0
 32
0.0
 14
0.0
 24
0.0
 34
0.0
 15
0.0
 25
0.0
 35
0.0
146
0.0
 13
0.0
 23
0.0
 33
0.0
 16
1.0
 26
0.0
 36
0.0
 17
0.0
 27
1.0
 37
0.0
 76
     0
330
23
  0
LAYOUT
  5
22
102
{ACAD_REACTORS
330
1A
102
}
330
1A
100
AcDbPlotSettings
  1

  2
none_device
  4
Letter_(8.50_x_11.00_Inches)
  6

 40
6.35
 41
6.35
 42
6.35000508
 43
6.35000508
 44
215.9
 45
279.4
 46
0.0
 47
0.0
 48
0.0
 49
0.0
140
0.0
141
0.0
142
1.0
143
1.0
 70
  1712
 72
     1
 73
     0
 74
     0
  7

 75
     0
147
1.0
148
0.0
149
0.0
100
AcDbLayout
  1
Model
 70
     1
 71
     0
 10
0.0
 20
0.0
 11
291.0
 21
337.0
 12
0.0
 22
0.0
 32
0.0
 14
0.0
 24
0.0
 34
0.0
 15
291.0
 25
337.0
 35
0.0
146
0.0
 13
0.0
 23
0.0
 33
0.0
 16
1.0
 26
0.0
 36
0.0
 17
0.0
 27
1.0
 37
0.0
 76
     0
330
1F
331
29
  0
MLINESTYLE
  5
18
102
{ACAD_REACTORS
330
17
102
}
330
17
100
AcDbMlineStyle
  2
Standard
 70
     0
  3

 62
   256
 51
90.0
 52
90.0
 71
     2
 49
0.5
 62
   256
  6
BYLAYER
 49
-0.5
 62
   256
  6
BYLAYER
  0
ACDBPLACEHOLDER
  5
F
102
{ACAD_REACTORS
330
E
102
}
330
E
  0
SCALE
  5
48
102
{ACAD_REACTORS
330
47
102
}
330
47
100
AcDbScale
 70
     0
300
1:1
140
1.0
141
1.0
290
     1
  0
SCALE
  5
49
102
{ACAD_REACTORS
330
47
102
}
330
47
100
AcDbScale
 70
     0
300
1:2
140
1.0
141
2.0
290
     0
  0
SCALE
  5
4A
102
{ACAD_REACTORS
330
47
102
}
330
47
100
AcDbScale
 70
     0
300
1:4
140
1.0
141
4.0
290
     0
  0
SCALE
  5
4B
102
{ACAD_REACTORS
330
47
102
}
330
47
100
AcDbScale
 70
     0
300
1:5
140
1.0
141
5.0
290
     0
  0
SCALE
  5
4C
102
{ACAD_REACTORS
330
47
102
}
330
47
100
AcDbScale
 70
     0
300
1:8
140
1.0
141
8.0
290
     0
  0
SCALE
  5
4D
102
{ACAD_REACTORS
330
47
102
}
330
47
100
AcDbScale
 70
     0
300
1:10
140
1.0
141
10.0
290
     0
  0
SCALE
  5
4E
102
{ACAD_REACTORS
330
47
102
}
330
47
100
AcDbScale
 70
     0
300
1:16
140
1.0
141
16.0
290
     0
  0
SCALE
  5
4F
102
{ACAD_REACTORS
330
47
102
}
330
47
100
AcDbScale
 70
     0
300
1:20
140
1.0
141
20.0
290
     0
  0
SCALE
  5
50
102
{ACAD_REACTORS
330
47
102
}
330
47
100
AcDbScale
 70
     0
300
1:30
140
1.0
141
30.0
290
     0
  0
SCALE
  5
51
102
{ACAD_REACTORS
330
47
102
}
330
47
100
AcDbScale
 70
     0
300
1:40
140
1.0
141
40.0
290
     0
  0
SCALE
  5
52
102
{ACAD_REACTORS
330
47
102
}
330
47
100
AcDbScale
 70
     0
300
1:50
140
1.0
141
50.0
290
     0
  0
SCALE
  5
53
102
{ACAD_REACTORS
330
47
102
}
330
47
100
AcDbScale
 70
     0
300
1:100
140
1.0
141
100.0
290
     0
  0
SCALE
  5
54
102
{ACAD_REACTORS
330
47
102
}
330
47
100
AcDbScale
 70
     0
300
2:1
140
2.0
141
1.0
290
     0
  0
SCALE
  5
55
102
{ACAD_REACTORS
330
47
102
}
330
47
100
AcDbScale
 70
     0
300
4:1
140
4.0
141
1.0
290
     0
  0
SCALE
  5
56
102
{ACAD_REACTORS
330
47
102
}
330
47
100
AcDbScale
 70
     0
300
8:1
140
8.0
141
1.0
290
     0
  0
SCALE
  5
57
102
{ACAD_REACTORS
330
47
102
}
330
47
100
AcDbScale
 70
     0
300
10:1
140
10.0
141
1.0
290
     0
  0
SCALE
  5
58
102
{ACAD_REACTORS
330
47
102
}
330
47
100
AcDbScale
 70
     0
300
100:1
140
100.0
141
1.0
290
     0
  0
SCALE
  5
59
102
{ACAD_REACTORS
330
47
102
}
330
47
100
AcDbScale
 70
     0
300
1/128" = 1'-0"
140
0.0078125
141
12.0
290
     0
  0
SCALE
  5
5A
102
{ACAD_REACTORS
330
47
102
}
330
47
100
AcDbScale
 70
     0
300
1/64" = 1'-0"
140
0.015625
141
12.0
290
     0
  0
SCALE
  5
5B
102
{ACAD_REACTORS
330
47
102
}
330
47
100
AcDbScale
 70
     0
300
1/32" = 1'-0"
140
0.03125
141
12.0
290
     0
  0
SCALE
  5
5C
102
{ACAD_REACTORS
330
47
102
}
330
47
100
AcDbScale
 70
     0
300
1/16" = 1'-0"
140
0.0625
141
12.0
290
     0
  0
SCALE
  5
5D
102
{ACAD_REACTORS
330
47
102
}
330
47
100
AcDbScale
 70
     0
300
3/32" = 1'-0"
140
0.09375
141
12.0
290
     0
  0
SCALE
  5
5E
102
{ACAD_REACTORS
330
47
102
}
330
47
100
AcDbScale
 70
     0
300
1/8" = 1'-0"
140
0.125
141
12.0
290
     0
  0
SCALE
  5
5F
102
{ACAD_REACTORS
330
47
102
}
330
47
100
AcDbScale
 70
     0
300
3/16" = 1'-0"
140
0.1875
141
12.0
290
     0
  0
SCALE
  5
60
102
{ACAD_REACTORS
330
47
102
}
330
47
100
AcDbScale
 70
     0
300
1/4" = 1'-0"
140
0.25
141
12.0
290
     0
  0
SCALE
  5
61
102
{ACAD_REACTORS
330
47
102
}
330
47
100
AcDbScale
 70
     0
300
3/8" = 1'-0"
140
0.375
141
12.0
290
     0
  0
SCALE
  5
62
102
{ACAD_REACTORS
330
47
102
}
330
47
100
AcDbScale
 70
     0
300
1/2" = 1'-0"
140
0.5
141
12.0
290
     0
  0
SCALE
  5
63
102
{ACAD_REACTORS
330
47
102
}
330
47
100
AcDbScale
 70
     0
300
3/4" = 1'-0"
140
0.75
141
12.0
290
     0
  0
SCALE
  5
64
102
{ACAD_REACTORS
330
47
102
}
330
47
100
AcDbScale
 70
     0
300
1" = 1'-0"
140
1.0
141
12.0
290
     0
  0
SCALE
  5
65
102
{ACAD_REACTORS
330
47
102
}
330
47
100
AcDbScale
 70
     0
300
1-1/2" = 1'-0"
140
1.5
141
12.0
290
     0
  0
SCALE
  5
66
102
{ACAD_REACTORS
330
47
102
}
330
47
100
AcDbScale
 70
     0
300
3" = 1'-0"
140
3.0
141
12.0
290
     0
  0
SCALE
  5
67
102
{ACAD_REACTORS
330
47
102
}
330
47
100
AcDbScale
 70
     0
300
6" = 1'-0"
140
6.0
141
12.0
290
     0
  0
SCALE
  5
68
102
{ACAD_REACTORS
330
47
102
}
330
47
100
AcDbScale
 70
     0
300
1'-0" = 1'-0"
140
12.0
141
12.0
290
     0
  0
ENDSEC
  0
EOF
