  0
SECTION
  2
HEADER
  9
$ACADVER
  1
AC1015
  9
$ACADMAINTVER
 70
     6
  9
$DWGCODEPAGE
  3
ANSI_1252
  9
$INSBASE
 10
0.0
 20
0.0
 30
0.0
  9
$EXTMIN
 10
0.0
 20
0.0
 30
0.0
  9
$EXTMAX
 10
291.0
 20
337.0
 30
0.0
  9
$LIMMIN
 10
0.0
 20
0.0
  9
$LIMMAX
 10
291.0
 20
337.0
  9
$ORTHOMODE
 70
     0
  9
$REGENMODE
 70
     1
  9
$FILLMODE
 70
     1
  9
$QTEXTMODE
 70
     0
  9
$MIRRTEXT
 70
     1
  9
$LTSCALE
 40
1.0
  9
$ATTMODE
 70
     1
  9
$TEXTSIZE
 40
3.5
  9
$TRACEWID
 40
1.0
  9
$TEXTSTYLE
  7
Standard
  9
$CLAYER
  8
0
  9
$CELTYPE
  6
ByLayer
  9
$CECOLOR
 62
   256
  9
$CELTSCALE
 40
1.0
  9
$DISPSILH
 70
     0
  9
$DIMSCALE
 40
1.0
  9
$DIMASZ
 40
3.302
  9
$DIMEXO
 40
1.0
  9
$DIMDLI
 40
3.75
  9
$DIMRND
 40
0.0
  9
$DIMDLE
 40
0.0
  9
$DIMEXE
 40
1.0
  9
$DIMTP
 40
0.0
  9
$DIMTM
 40
0.0
  9
$DIMTXT
 40
2.8
  9
$DIMCEN
 40
2.5
  9
$DIMTSZ
 40
0.0
  9
$DIMTOL
 70
     0
  9
$DIMLIM
 70
     0
  9
$DIMTIH
 70
     1
  9
$DIMTOH
 70
     1
  9
$DIMSE1
 70
     0
  9
$DIMSE2
 70
     0
  9
$DIMTAD
 70
     1
  9
$DIMZIN
 70
     0
  9
$DIMBLK
  1

  9
$DIMASO
 70
     1
  9
$DIMSHO
 70
     1
  9
$DIMPOST
  1

  9
$DIMAPOST
  1

  9
$DIMALT
 70
     0
  9
$DIMALTD
 70
     3
  9
$DIMALTF
 40
0.0393700787
  9
$DIMLFAC
 40
1.0
  9
$DIMTOFL
 70
     1
  9
$DIMTVP
 40
0.0
  9
$DIMTIX
 70
     0
  9
$DIMSOXD
 70
     0
  9
$DIMSAH
 70
     0
  9
$DIMBLK1
  1

  9
$DIMBLK2
  1

  9
$DIMSTYLE
  2
ISO-25
  9
$DIMCLRD
 70
     0
  9
$DIMCLRE
 70
     0
  9
$DIMCLRT
 70
     0
  9
$DIMTFAC
 40
1.0
  9
$DIMGAP
 40
1.524
  9
$DIMJUST
 70
     0
  9
$DIMSD1
 70
     0
  9
$DIMSD2
 70
     0
  9
$DIMTOLJ
 70
     0
  9
$DIMTZIN
 70
     0
  9
$DIMALTZ
 70
     0
  9
$DIMALTTZ
 70
     0
  9
$DIMUPT
 70
     0
  9
$DIMDEC
 70
     2
  9
$DIMTDEC
 70
     2
  9
$DIMALTU
 70
     2
  9
$DIMALTTD
 70
     3
  9
$DIMTXSTY
  7
Standard
  9
$DIMAUNIT
 70
     0
  9
$DIMADEC
 70
     2
  9
$DIMALTRND
 40
0.0
  9
$DIMAZIN
 70
     0
  9
$DIMDSEP
 70
    44
  9
$DIMATFIT
 70
     3
  9
$DIMFRAC
 70
     0
  9
$DIMLDRBLK
  1

  9
$DIMLUNIT
 70
     2
  9
$DIMLWD
 70
    -2
  9
$DIMLWE
 70
    -2
  9
$DIMTMOVE
 70
     0
  9
$LUNITS
 70
     2
  9
$LUPREC
 70
     2
  9
$SKETCHINC
 40
1.0
  9
$FILLETRAD
 40
10.0
  9
$AUNITS
 70
     0
  9
$AUPREC
 70
     2
  9
$MENU
  1
.
  9
$ELEVATION
 40
0.0
  9
$PELEVATION
 40
0.0
  9
$THICKNESS
 40
0.0
  9
$LIMCHECK
 70
     0
  9
$CHAMFERA
 40
0.0
  9
$CHAMFERB
 40
0.0
  9
$CHAMFERC
 40
0.0
  9
$CHAMFERD
 40
0.0
  9
$SKPOLY
 70
     0
  9
$TDCREATE
 40
2458200.306748901
  9
$TDUCREATE
 40
2458200.223415567
  9
$TDUPDATE
 40
2458200.306749398
  9
$TDUUPDATE
 40
2458200.223416065
  9
$TDINDWG
 40
0.0000000116
  9
$TDUSRTIMER
 40
0.0000000116
  9
$USRTIMER
 70
     1
  9
$ANGBASE
 50
0.0
  9
$ANGDIR
 70
     0
  9
$PDMODE
 70
     0
  9
$PDSIZE
 40
-1.0
  9
$PLINEWID
 40
0.0
  9
$SPLFRAME
 70
     0
  9
$SPLINETYPE
 70
     6
  9
$SPLINESEGS
 70
     8
  9
$HANDSEED
  5
103
  9
$SURFTAB1
 70
     6
  9
$SURFTAB2
 70
     6
  9
$SURFTYPE
 70
     6
  9
$SURFU
 70
     6
  9
$SURFV
 70
     6
  9
$UCSBASE
  2

  9
$UCSNAME
  2

  9
$UCSORG
 10
0.0
 20
0.0
 30
0.0
  9
$UCSXDIR
 10
1.0
 20
0.0
 30
0.0
  9
$UCSYDIR
 10
0.0
 20
1.0
 30
0.0
  9
$UCSORTHOREF
  2

  9
$UCSORTHOVIEW
 70
     0
  9
$UCSORGTOP
 10
0.0
 20
0.0
 30
0.0
  9
$UCSORGBOTTOM
 10
0.0
 20
0.0
 30
0.0
  9
$UCSORGLEFT
 10
0.0
 20
0.0
 30
0.0
  9
$UCSORGRIGHT
 10
0.0
 20
0.0
 30
0.0
  9
$UCSORGFRONT
 10
0.0
 20
0.0
 30
0.0
  9
$UCSORGBACK
 10
0.0
 20
0.0
 30
0.0
  9
$PUCSBASE
  2

  9
$PUCSNAME
  2

  9
$PUCSORG
 10
0.0
 20
0.0
 30
0.0
  9
$PUCSXDIR
 10
1.0
 20
0.0
 30
0.0
  9
$PUCSYDIR
 10
0.0
 20
1.0
 30
0.0
  9
$PUCSORTHOREF
  2

  9
$PUCSORTHOVIEW
 70
     0
  9
$PUCSORGTOP
 10
0.0
 20
0.0
 30
0.0
  9
$PUCSORGBOTTOM
 10
0.0
 20
0.0
 30
0.0
  9
$PUCSORGLEFT
 10
0.0
 20
0.0
 30
0.0
  9
$PUCSORGRIGHT
 10
0.0
 20
0.0
 30
0.0
  9
$PUCSORGFRONT
 10
0.0
 20
0.0
 30
0.0
  9
$PUCSORGBACK
 10
0.0
 20
0.0
 30
0.0
  9
$USERI1
 70
     0
  9
$USERI2
 70
     0
  9
$USERI3
 70
     0
  9
$USERI4
 70
     0
  9
$USERI5
 70
     0
  9
$USERR1
 40
0.0
  9
$USERR2
 40
0.0
  9
$USERR3
 40
0.0
  9
$USERR4
 40
0.0
  9
$USERR5
 40
0.0
  9
$WORLDVIEW
 70
     1
  9
$SHADEDGE
 70
     3
  9
$SHADEDIF
 70
    70
  9
$TILEMODE
 70
     1
  9
$MAXACTVP
 70
    64
  9
$PINSBASE
 10
0.0
 20
0.0
 30
0.0
  9
$PLIMCHECK
 70
     0
  9
$PEXTMIN
 10
1.0000000000E+20
 20
1.0000000000E+20
 30
1.0000000000E+20
  9
$PEXTMAX
 10
-1.0000000000E+20
 20
-1.0000000000E+20
 30
-1.0000000000E+20
  9
$PLIMMIN
 10
0.0
 20
0.0
  9
$PLIMMAX
 10
420.0
 20
297.0
  9
$UNITMODE
 70
     0
  9
$VISRETAIN
 70
     1
  9
$PLINEGEN
 70
     0
  9
$PSLTSCALE
 70
     1
  9
$TREEDEPTH
 70
  3020
  9
$CMLSTYLE
  2
Standard
  9
$CMLJUST
 70
     0
  9
$CMLSCALE
 40
20.0
  9
$PROXYGRAPHICS
 70
     1
  9
$MEASUREMENT
 70
     1
  9
$CELWEIGHT
370
    -1
  9
$ENDCAPS
280
     0
  9
$JOINSTYLE
280
     0
  9
$LWDISPLAY
290
     1
  9
$INSUNITS
 70
     4
  9
$HYPERLINKBASE
  1

  9
$STYLESHEET
  1

  9
$XEDIT
290
     1
  9
$CEPSNTYPE
380
     0
  9
$PSTYLEMODE
290
     1
  9
$FINGERPRINTGUID
  2
{91F1B39B-2759-44F9-BF5C-1E42C7AA0C66}
  9
$VERSIONGUID
  2
{FAEB1C32-E019-11D5-929B-00C0DF256EC4}
  9
$EXTNAMES
290
     1
  9
$PSVPSCALE
 40
0.0
  9
$OLESTARTUP
290
     0
  0
ENDSEC
  0
SECTION
  2
CLASSES
  0
CLASS
  1
ACDBDICTIONARYWDFLT
  2
AcDbDictionaryWithDefault
  3
ObjectDBX Classes
 90
        0
280
     0
281
     0
  0
CLASS
  1
VISUALSTYLE
  2
AcDbVisualStyle
  3
ObjectDBX Classes
 90
     4095
280
     0
281
     0
  0
CLASS
  1
MATERIAL
  2
AcDbMaterial
  3
ObjectDBX Classes
 90
     1153
280
     0
281
     0
  0
CLASS
  1
SCALE
  2
AcDbScale
  3
ObjectDBX Classes
 90
     1153
280
     0
281
     0
  0
CLASS
  1
TABLESTYLE
  2
AcDbTableStyle
  3
ObjectDBX Classes
 90
     4095
280
     0
281
     0
  0
CLASS
  1
MLEADERSTYLE
  2
AcDbMLeaderStyle
  3
ACDB_MLEADERSTYLE_CLASS
 90
     4095
280
     0
281
     0
  0
CLASS
  1
SUN
  2
AcDbSun
  3
SCENEOE
 90
     1153
280
     0
281
     0
  0
CLASS
  1
ACDBPLACEHOLDER
  2
AcDbPlaceHolder
  3
ObjectDBX Classes
 90
        0
280
     0
281
     0
  0
CLASS
  1
LAYOUT
  2
AcDbLayout
  3
ObjectDBX Classes
 90
        0
280
     0
281
     0
  0
ENDSEC
  0
SECTION
  2
TABLES
  0
TABLE
  2
VPORT
  5
8
330
0
100
AcDbSymbolTable
 70
     1
  0
VPORT
  5
29
330
8
100
AcDbSymbolTableRecord
100
AcDbViewportTableRecord
  2
*Active
 70
     0
 10
0.0
 20
0.0
 11
1.0
 21
1.0
 12
145.5
 22
168.5
 13
0.0
 23
0.0
 14
10.0
 24
10.0
 15
10.0
 25
10.0
 16
0.0
 26
0.0
 36
1.0
 17
0.0
 27
0.0
 37
0.0
 40
337.0
 41
0.8635014837
 42
50.0
 43
0.0
 44
0.0
 50
0.0
 51
0.0
 71
     0
 72
  2000
 73
     1
 74
     3
 75
     0
 76
     0
 77
     0
 78
     0
281
     0
 65
     1
110
0.0
120
0.0
130
0.0
111
1.0
121
0.0
131
0.0
112
0.0
122
1.0
132
0.0
 79
     0
146
0.0
  0
ENDTAB
  0
TABLE
  2
LTYPE
  5
5
330
0
100
AcDbSymbolTable
 70
     6
  0
LTYPE
  5
14
330
5
100
AcDbSymbolTableRecord
100
AcDbLinetypeTableRecord
  2
ByBlock
 70
     0
  3

 72
    65
 73
     0
 40
0.0
  0
LTYPE
  5
15
330
5
100
AcDbSymbolTableRecord
100
AcDbLinetypeTableRecord
  2
ByLayer
 70
     0
  3

 72
    65
 73
     0
 40
0.0
  0
LTYPE
  5
16
330
5
100
AcDbSymbolTableRecord
100
AcDbLinetypeTableRecord
  2
Continuous
 70
     0
  3
Solid line
 72
    65
 73
     0
 40
0.0
  0
LTYPE
  5
6E
330
5
100
AcDbSymbolTableRecord
100
AcDbLinetypeTableRecord
  2
HIDDEN
 70
     0
  3
Hidden __ __ __ __ __ __ __ __ __ __ __ __ __ __
 72
    65
 73
     2
 40
1.905
 49
1.27
 74
     0
 49
-0.635
 74
     0
  0
LTYPE
  5
6F
330
5
100
AcDbSymbolTableRecord
100
AcDbLinetypeTableRecord
  2
PHANTOM
 70
     0
  3
Phantom ______  __  __  ______  __  __  ______
 72
    65
 73
     6
 40
12.7
 49
6.35
 74
     0
 49
-1.27
 74
     0
 49
1.27
 74
     0
 49
-1.27
 74
     0
 49
1.27
 74
     0
 49
-1.27
 74
     0
  0
LTYPE
  5
70
330
5
100
AcDbSymbolTableRecord
100
AcDbLinetypeTableRecord
  2
CENTER
 70
     0
  3
Center ____ _ ____ _ ____ _ ____ _ ____ _ ____
 72
    65
 73
     4
 40
10.16
 49
6.35
 74
     0
 49
-1.27
 74
     0
 49
1.27
 74
     0
 49
-1.27
 74
     0
  0
LTYPE
  5
71
330
5
100
AcDbSymbolTableRecord
100
AcDbLinetypeTableRecord
  2
CENTERX2
 70
     0
  3
Center (2x) ________  __  ________  __  _____
 72
    65
 73
     4
 40
20.32
 49
12.7
 74
     0
 49
-2.54
 74
     0
 49
2.54
 74
     0
 49
-2.54
 74
     0
  0
LTYPE
  5
72
330
5
100
AcDbSymbolTableRecord
100
AcDbLinetypeTableRecord
  2
DOT2
 70
     0
  3
Dot (.5x) ........................................
 72
    65
 73
     2
 40
0.635
 49
0.0
 74
     0
 49
-0.635
 74
     0
  0
ENDTAB
  0
TABLE
  2
LAYER
  5
2
330
0
100
AcDbSymbolTable
 70
     2
  0
LAYER
  5
10
330
2
100
AcDbSymbolTableRecord
100
AcDbLayerTableRecord
  2
0
 70
     0
 62
     7
  6
Continuous
370
    -3
390
F
  0
LAYER
  5
73
330
2
100
AcDbSymbolTableRecord
100
AcDbLayerTableRecord
  2
FORMAT
 70
     0
 62
     7
  6
Continuous
370
    -3
390
F
  0
ENDTAB
  0
TABLE
  2
STYLE
  5
3
330
0
100
AcDbSymbolTable
 70
     2
  0
STYLE
  5
11
330
3
100
AcDbSymbolTableRecord
100
AcDbTextStyleTableRecord
  2
Standard
 70
     0
 40
0.0
 41
1.0
 50
0.0
 71
     0
 42
3.5
  3
txt
  4

  0
STYLE
  5
74
330
3
100
AcDbSymbolTableRecord
100
AcDbTextStyleTableRecord
  2
SLDTEXTSTYLE0
 70
     0
 40
0.0
 41
0.605
 50
0.0
 71
     0
 42
3.5
  3
TXT
  4

  0
ENDTAB
  0
TABLE
  2
VIEW
  5
6
330
0
100
AcDbSymbolTable
 70
     0
  0
ENDTAB
  0
TABLE
  2
UCS
  5
7
330
0
100
AcDbSymbolTable
 70
     0
  0
ENDTAB
  0
TABLE
  2
APPID
  5
9
330
0
100
AcDbSymbolTable
 70
     1
  0
APPID
  5
12
330
9
100
AcDbSymbolTableRecord
100
AcDbRegAppTableRecord
  2
ACAD
 70
     0
  0
ENDTAB
  0
TABLE
  2
DIMSTYLE
  5
A
330
0
100
AcDbSymbolTable
 70
     1
100
AcDbDimStyleTable
  0
DIMSTYLE
105
27
330
A
100
AcDbSymbolTableRecord
100
AcDbDimStyleTableRecord
  2
ISO-25
 70
     0
 41
2.5
 42
0.625
 43
3.75
 44
1.25
 73
     0
 74
     0
 77
     1
 78
     8
140
2.5
141
2.5
143
0.0393700787
147
0.625
171
     3
172
     1
178
     0
271
     2
272
     2
274
     3
278
    44
283
     0
284
     8
340
11
  0
ENDTAB
  0
TABLE
  2
BLOCK_RECORD
  5
1
330
0
100
AcDbSymbolTable
 70
     1
  0
BLOCK_RECORD
  5
1F
330
1
100
AcDbSymbolTableRecord
100
AcDbBlockTableRecord
  2
*Model_Space
340
22
  0
BLOCK_RECORD
  5
1B
330
1
100
AcDbSymbolTableRecord
100
AcDbBlockTableRecord
  2
*Paper_Space
340
1E
  0
BLOCK_RECORD
  5
23
330
1
100
AcDbSymbolTableRecord
100
AcDbBlockTableRecord
  2
*Paper_Space0
340
26
  0
ENDTAB
  0
ENDSEC
  0
SECTION
  2
BLOCKS
  0
BLOCK
  5
20
330
1F
100
AcDbEntity
  8
0
100
AcDbBlockBegin
  2
*Model_Space
 70
     0
 10
0.0
 20
0.0
 30
0.0
  3
*Model_Space
  1

  0
ENDBLK
  5
21
330
1F
100
AcDbEntity
  8
0
100
AcDbBlockEnd
  0
BLOCK
  5
1C
330
1B
100
AcDbEntity
 67
     1
  8
0
100
AcDbBlockBegin
  2
*Paper_Space
 70
     0
 10
0.0
 20
0.0
 30
0.0
  3
*Paper_Space
  1

  0
ENDBLK
  5
1D
330
1B
100
AcDbEntity
 67
     1
  8
0
100
AcDbBlockEnd
  0
BLOCK
  5
24
330
23
100
AcDbEntity
  8
0
100
AcDbBlockBegin
  2
*Paper_Space0
 70
     0
 10
0.0
 20
0.0
 30
0.0
  3
*Paper_Space0
  1

  0
ENDBLK
  5
25
330
23
100
AcDbEntity
  8
0
100
AcDbBlockEnd
  0
ENDSEC
  0
SECTION
  2
ENTITIES
  0
MTEXT
  5
75
330
1F
100
AcDbEntity
  8
0
  6
Continuous
 62
     7
370
     0
100
AcDbMText
 10
7.2782978723
 20
22.1884790273
 30
0.0
 40
10.0
 41
0.0
 71
     1
 72
     1
  1
1:1
  7
SLDTEXTSTYLE0
 73
     1
 44
1.0
  0
LINE
  5
76
330
1F
100
AcDbEntity
  8
0
  6
Continuous
 62
     7
370
    30
100
AcDbLine
 10
153.0
 20
216.0908374948
 30
0.0
 11
153.0
 21
239.0401964895
 31
0.0
  0
LINE
  5
77
330
1F
100
AcDbEntity
  8
0
  6
Continuous
 62
     7
370
    30
100
AcDbLine
 10
138.0
 20
241.0757064508
 30
0.0
 11
138.0
 21
216.0908374948
 31
0.0
  0
ARC
  5
78
330
1F
100
AcDbEntity
  8
0
  6
Continuous
 62
     7
370
    30
100
AcDbCircle
 10
156.6278641091
 20
186.5908374948
 30
0.0
 40
0.5000000000000259
100
AcDbArc
 50
270.0
 51
2.4812648012
  0
ARC
  5
79
330
1F
100
AcDbEntity
  8
0
  6
Continuous
 62
     7
370
    30
100
AcDbCircle
 10
134.3721358909
 20
186.5908374948
 30
0.0
 40
0.5
100
AcDbArc
 50
177.5187351988
 51
270.0
  0
LINE
  5
7A
330
1F
100
AcDbEntity
  8
0
  6
Continuous
 62
     7
370
    30
100
AcDbLine
 10
157.1273953247
 20
186.6124838475
 30
0.0
 11
155.8707286581
 21
215.6124838475
 31
0.0
  0
LINE
  5
7B
330
1F
100
AcDbEntity
  8
0
  6
Continuous
 62
     7
370
    30
100
AcDbLine
 10
135.1292713419
 20
215.6124838475
 30
0.0
 11
133.8726046753
 21
186.6124838475
 31
0.0
  0
ARC
  5
7C
330
1F
100
AcDbEntity
  8
0
  6
Continuous
 62
     7
370
    30
100
AcDbCircle
 10
135.6288025576
 20
215.5908374948
 30
0.0
 40
0.5000000000000012
100
AcDbArc
 50
90.0
 51
177.5187351988
  0
ARC
  5
7D
330
1F
100
AcDbEntity
  8
0
  6
Continuous
 62
     7
370
    30
100
AcDbCircle
 10
155.3711974424
 20
215.5908374948
 30
0.0
 40
0.5
100
AcDbArc
 50
2.4812648012
 51
90.0
  0
ARC
  5
7E
330
1F
100
AcDbEntity
  8
0
  6
Continuous
 62
     7
370
    30
100
AcDbCircle
 10
134.3721358909
 20
309.4091625052
 30
0.0
 40
0.5
100
AcDbArc
 50
90.0
 51
182.4812648012
  0
ARC
  5
7F
330
1F
100
AcDbEntity
  8
0
  6
Continuous
 62
     7
370
    30
100
AcDbCircle
 10
156.6278641091
 20
309.4091625052
 30
0.0
 40
0.5000000000000259
100
AcDbArc
 50
357.5187351988
 51
90.0
  0
LINE
  5
80
330
1F
100
AcDbEntity
  8
0
  6
Continuous
 62
     7
370
    30
100
AcDbLine
 10
133.8726046753
 20
309.3875161525
 30
0.0
 11
135.1292713419
 21
280.3875161525
 31
0.0
  0
LINE
  5
81
330
1F
100
AcDbEntity
  8
0
  6
Continuous
 62
     7
370
    30
100
AcDbLine
 10
155.8707286581
 20
280.3875161525
 30
0.0
 11
157.1273953247
 21
309.3875161525
 31
0.0
  0
ARC
  5
82
330
1F
100
AcDbEntity
  8
0
  6
Continuous
 62
     7
370
    30
100
AcDbCircle
 10
155.3711974424
 20
280.4091625052
 30
0.0
 40
0.5
100
AcDbArc
 50
270.0
 51
357.5187351988
  0
ARC
  5
83
330
1F
100
AcDbEntity
  8
0
  6
Continuous
 62
     7
370
    30
100
AcDbCircle
 10
135.6288025576
 20
280.4091625052
 30
0.0
 40
0.5
100
AcDbArc
 50
182.4812648012
 51
270.0
  0
LINE
  5
84
330
1F
100
AcDbEntity
  8
0
  6
Continuous
 62
     7
370
    30
100
AcDbLine
 10
138.0
 20
279.9091625052
 30
0.0
 11
138.0
 21
256.9596953511
 31
0.0
  0
LINE
  5
85
330
1F
100
AcDbEntity
  8
0
  6
Continuous
 62
     7
370
    30
100
AcDbLine
 10
153.0
 20
254.9242935492
 30
0.0
 11
153.0
 21
279.9091625052
 31
0.0
  0
SPLINE
  5
86
330
1F
100
AcDbEntity
  8
0
  6
Continuous
 62
     7
370
    30
100
AcDbSpline
210
0.0
220
0.0
230
1.0
 70
     8
 71
     3
 72
   195
 73
   191
 74
     0
 42
0.000000001
 43
0.00000001
 40
0.0
 40
0.0
 40
0.0
 40
0.0
 40
0.0049278011847158
 40
0.0098556027194798
 40
0.0147899471447375
 40
0.01972429261204
 40
0.0263027860222659
 40
0.0328822415415603
 40
0.0394607569213902
 40
0.046073321000888
 40
0.0526868315710066
 40
0.0592994291613792
 40
0.0658945010114432
 40
0.0724904678032971
 40
0.0790855787578279
 40
0.0857117068629104
 40
0.0923386910755565
 40
0.0989648591214451
 40
0.1043966460918596
 40
0.1098288771032534
 40
0.1152606796979069
 40
0.120707985040272
 40
0.1261557184338315
 40
0.1316030352574976
 40
0.1370678185796458
 40
0.1425330199479603
 40
0.147997808335785
 40
0.1534775524656967
 40
0.1589577126387477
 40
0.1644374527073442
 40
0.1699348145884831
 40
0.1754326033653896
 40
0.1809299486471874
 40
0.1864433757753438
 40
0.1919572571992155
 40
0.1974706507501126
 40
0.2047843001168114
 40
0.2121027863637077
 40
0.2169725919820805
 40
0.2218427863786836
 40
0.2267125440791851
 40
0.2315981433872346
 40
0.2364842000005044
 40
0.2413697323434932
 40
0.2462395052700894
 40
0.2511098193238127
 40
0.2559795053028378
 40
0.2608719977136875
 40
0.2657651557272776
 40
0.2706575378980865
 40
0.2740859112891892
 40
0.2775142761480476
 40
0.2809473791548717
 40
0.2843804731705867
 40
0.288981429074061
 40
0.293583186990788
 40
0.2981840396141932
 40
0.3028177084991394
 40
0.3074523325173373
 40
0.31208590608406
 40
0.3155857310469323
 40
0.319085549042025
 40
0.3225929762414822
 40
0.3261004073513661
 40
0.3295247914335121
 40
0.3329491899089139
 40
0.336379970815739
 40
0.3398107667189216
 40
0.344411004341343
 40
0.3490120623536603
 40
0.353612462927948
 40
0.3582367762293984
 40
0.3628617122133442
 40
0.3674861663113183
 40
0.3709660722198171
 40
0.3744459888161827
 40
0.3814111099201752
 40
0.3854845988254951
 40
0.3895581021347757
 40
0.3936345422430319
 40
0.3977109939481254
 40
0.4058850309389355
 40
0.4140591949767187
 40
0.4222464815759215
 40
0.4304338275687365
 40
0.4386422941683371
 40
0.4468507587783088
 40
0.455069004674269
 40
0.463287182913515
 40
0.4687819274618956
 40
0.474276926403029
 40
0.4797715665212247
 40
0.4852793614016839
 40
0.4907875573433705
 40
0.4962951674602104
 40
0.5004418770585866
 40
0.5045885624211681
 40
0.5087405354203542
 40
0.5128924782013571
 40
0.5172715296540246
 40
0.5216505742454625
 40
0.5260380721263184
 40
0.5304255649814157
 40
0.5363161262051677
 40
0.5422080218900864
 40
0.5480985591181273
 40
0.5540383020317092
 40
0.5599794379363858
 40
0.5659192033656072
 40
0.5704071478917448
 40
0.5748950974307168
 40
0.5793922539597247
 40
0.5838894171065876
 40
0.588260955655932
 40
0.5926325011568897
 40
0.5970119397736133
 40
0.601391386088669
 40
0.6072657398494463
 40
0.6131412143227224
 40
0.61901566023351
 40
0.6249274597628275
 40
0.6308402801640285
 40
0.6367521709384627
 40
0.6412087584904288
 40
0.6456653537605705
 40
0.6501279163132666
 40
0.6545904860124379
 40
0.659785056074733
 40
0.6649801712752266
 40
0.6701747813141882
 40
0.6753877074451266
 40
0.6806011335967228
 40
0.6858140925095576
 40
0.6910465806508821
 40
0.6962795328716045
 40
0.7015120468993689
 40
0.7067604400476671
 40
0.712009268894152
 40
0.7172576816268774
 40
0.7225237751024354
 40
0.7277902841113499
 40
0.733056391727757
 40
0.7383370343526695
 40
0.7436180783569195
 40
0.7488987305010122
 40
0.7541806638800791
 40
0.7594629872858082
 40
0.7647449263253747
 40
0.7700407747279208
 40
0.7753370093975972
 40
0.7806328604233399
 40
0.7859448185282832
 40
0.7912571634206127
 40
0.7965691217496819
 40
0.801895063100391
 40
0.8072213943134375
 40
0.8125473340423102
 40
0.8178896702189039
 40
0.8232324022025845
 40
0.8285747353911399
 40
0.8339314908713873
 40
0.8392886494091101
 40
0.8446454009597011
 40
0.850357828723284
 40
0.8560707515996759
 40
0.8617831735876224
 40
0.8675137195440438
 40
0.873244772914229
 40
0.8789753127638283
 40
0.8847893900630561
 40
0.890604005523185
 40
0.8964180764965889
 40
0.9022518522588949
 40
0.9080861798508101
 40
0.9139199496967406
 40
0.9198395431053266
 40
0.9257597209341706
 40
0.93167930889376
 40
0.9376202492721524
 40
0.9435617873712343
 40
0.9495027232921606
 40
0.9545600943788889
 40
0.9596174649403071
 40
0.9646808162549219
 40
0.9697441671535774
 40
0.9764915241576235
 40
0.983239771558255
 40
0.9899871259107584
 40
0.9967668652185107
 40
1.0
 40
1.0
 40
1.0
 40
1.0
 10
138.0
 20
241.0757064508214
 30
0.0
 10
138.0001878208563
 20
241.0758052491919
 30
0.0
 10
138.0005634625823
 20
241.0760028459399
 30
0.0
 10
138.0036013297361
 20
241.0775987792671
 30
0.0
 10
138.0084532152103
 20
241.0801449403114
 30
0.0
 10
138.0160551095374
 20
241.0841253765286
 30
0.0
 10
138.0271852632674
 20
241.0899383430986
 30
0.0
 10
138.0427804826007
 20
241.0980426274796
 30
0.0
 10
138.0618420457519
 20
241.1078872620259
 30
0.0
 10
138.0843813414067
 20
241.1194488564319
 30
0.0
 10
138.1103921740279
 20
241.1326757159283
 30
0.0
 10
138.1397877655569
 20
241.1474756319205
 30
0.0
 10
138.1725387320594
 20
241.1637857679388
 30
0.0
 10
138.2086034155296
 20
241.1815200178932
 30
0.0
 10
138.2480456993477
 20
241.2006435931336
 30
0.0
 10
138.2908600643766
 20
241.2210854860861
 30
0.0
 10
138.3370310481228
 20
241.2427519594623
 30
0.0
 10
138.3834929911358
 20
241.2641451427848
 30
0.0
 10
138.4295727023669
 20
241.2849669522535
 30
0.0
 10
138.4746611740758
 20
241.304971211704
 30
0.0
 10
138.5219342832522
 20
241.3255364424166
 30
0.0
 10
138.5713847433869
 20
241.3466014888691
 30
0.0
 10
138.6230032008815
 20
241.3680961750935
 30
0.0
 10
138.6767853707475
 20
241.3899524481624
 30
0.0
 10
138.732725634853
 20
241.4121002202534
 30
0.0
 10
138.7908170115226
 20
241.4344599887408
 30
0.0
 10
138.8510414100636
 20
241.456948262625
 30
0.0
 10
138.9133932899848
 20
241.4794849508583
 30
0.0
 10
138.9778661380317
 20
241.501979900038
 30
0.0
 10
139.0444626037058
 20
241.5243461284587
 30
0.0
 10
139.1131794807069
 20
241.5464923476637
 30
0.0
 10
139.1840124400889
 20
241.5683158058621
 30
0.0
 10
139.2569478967609
 20
241.5897113043269
 30
0.0
 10
139.3319823622979
 20
241.6105744269579
 30
0.0
 10
139.40911049698
 20
241.6307875840768
 30
0.0
 10
139.4968600561299
 20
241.6523287408195
 30
0.0
 10
139.5960738330039
 20
241.6747074099003
 30
0.0
 10
139.695212204457
 20
241.6946884345167
 30
0.0
 10
139.7841564250991
 20
241.7107371804481
 30
0.0
 10
139.8618451023835
 20
241.7234059547593
 30
0.0
 10
139.9411157348199
 20
241.7349100100233
 30
0.0
 10
140.0219583418745
 20
241.7451427534323
 30
0.0
 10
140.1043561040295
 20
241.7539880034296
 30
0.0
 10
140.1881075290156
 20
241.761314585427
 30
0.0
 10
140.2731822887478
 20
241.7670143355494
 30
0.0
 10
140.3595407211219
 20
241.7709739007404
 30
0.0
 10
140.4473746215155
 20
241.7730824229758
 30
0.0
 10
140.5366528201288
 20
241.7732056435081
 30
0.0
 10
140.6273290176635
 20
241.7712064126696
 30
0.0
 10
140.7100450207019
 20
241.767380717964
 30
0.0
 10
140.7843677682018
 20
241.7623591853972
 30
0.0
 10
140.8499953147659
 20
241.756749130938
 30
0.0
 10
140.9161635027226
 20
241.7498784765825
 30
0.0
 10
140.9904043432156
 20
241.7407765373947
 30
0.0
 10
141.0728619990852
 20
241.7288142512613
 30
0.0
 10
141.163668104407
 20
241.7132356396471
 30
0.0
 10
141.2553311337561
 20
241.6950114244204
 30
0.0
 10
141.3477635219547
 20
241.6740213196789
 30
0.0
 10
141.4408603981802
 20
241.6501737660947
 30
0.0
 10
141.5266730512413
 20
241.6256263678466
 30
0.0
 10
141.6050165740434
 20
241.6010941589057
 30
0.0
 10
141.6758480942952
 20
241.5772385328941
 30
0.0
 10
141.7467458103331
 20
241.5516342487183
 30
0.0
 10
141.8170993928902
 20
241.5245002749494
 30
0.0
 10
141.886816673904
 20
241.4959329930992
 30
0.0
 10
141.9559157151344
 20
241.4660270420207
 30
0.0
 10
142.0249273815959
 20
241.4346023313655
 30
0.0
 10
142.1016569769652
 20
241.3979823353287
 30
0.0
 10
142.185972342515
 20
241.3556369145461
 30
0.0
 10
142.2777438417855
 20
241.3070405118912
 30
0.0
 10
142.3692979423495
 20
241.2561739350743
 30
0.0
 10
142.4606115105409
 20
241.2031692507427
 30
0.0
 10
142.5516772639512
 20
241.148165665944
 30
0.0
 10
142.6348589422581
 20
241.0960811966082
 30
0.0
 10
142.710266040674
 20
241.0474939810278
 30
0.0
 10
142.8006171144668
 20
240.9879408665878
 30
0.0
 10
142.8943831412628
 20
240.9241662981377
 30
0.0
 10
142.9915419478772
 20
240.8561875142685
 30
0.0
 10
143.0698904960744
 20
240.800328821516
 30
0.0
 10
143.1480418853813
 20
240.7436625169461
 30
0.0
 10
143.2521488558199
 20
240.6670322040465
 30
0.0
 10
143.3819772162084
 20
240.5695525018672
 30
0.0
 10
143.5375120076517
 20
240.4504323592653
 30
0.0
 10
143.6929679089668
 20
240.3297650897881
 30
0.0
 10
143.8487534532023
 20
240.2079575182669
 30
0.0
 10
144.0050729671441
 20
240.0855763164059
 30
0.0
 10
144.1622949294479
 20
239.9630738672049
 30
0.0
 10
144.3205909128076
 20
239.8410586452537
 30
0.0
 10
144.4626490487463
 20
239.7334250588538
 30
0.0
 10
144.5881414735977
 20
239.6402005497558
 30
0.0
 10
144.6966817134255
 20
239.5610882125477
 30
0.0
 10
144.8062480037779
 20
239.4829902645389
 30
0.0
 10
144.9169365164486
 20
239.4060951303875
 30
0.0
 10
145.028849477553
 20
239.330619455487
 30
0.0
 10
145.1326734202324
 20
239.2629194841604
 30
0.0
 10
145.2281359494352
 20
239.2027112992251
 30
0.0
 10
145.3150043889863
 20
239.1496198647455
 30
0.0
 10
145.4027248522232
 20
239.0978214463473
 30
0.0
 10
145.4929431176452
 20
239.0465164867673
 30
0.0
 10
145.5857070042743
 20
238.99595885478
 30
0.0
 10
145.6810967043725
 20
238.9462559025222
 30
0.0
 10
145.7774385815315
 20
238.8983290960043
 30
0.0
 10
145.8857885699512
 20
238.8469352416279
 30
0.0
 10
146.0063994609175
 20
238.7929413846266
 30
0.0
 10
146.1395149690003
 20
238.7373026696061
 30
0.0
 10
146.274160487515
 20
238.6849144498559
 30
0.0
 10
146.4102078200227
 20
238.6358411047868
 30
0.0
 10
146.5475068917146
 20
238.5900925397756
 30
0.0
 10
146.6742835770532
 20
238.5512346914026
 30
0.0
 10
146.7902177622955
 20
238.518344889622
 30
0.0
 10
146.8951938045581
 20
238.4905666928268
 30
0.0
 10
147.0004291531038
 20
238.4646846627901
 30
0.0
 10
147.1048756266978
 20
238.4408966365345
 30
0.0
 10
147.2083937610155
 20
238.4191318856985
 30
0.0
 10
147.3109845646325
 20
238.399285196984
 30
0.0
 10
147.4135726303718
 20
238.381121316072
 30
0.0
 10
147.5277670033922
 20
238.3627251158665
 30
0.0
 10
147.6533865961546
 20
238.3447785979594
 30
0.0
 10
147.7902076776726
 20
238.3279803653043
 30
0.0
 10
147.9267592851751
 20
238.3138575538109
 30
0.0
 10
148.0629210485833
 20
238.3023256925302
 30
0.0
 10
148.1985840202418
 20
238.2932826815367
 30
0.0
 10
148.3223034017082
 20
238.2871817127118
 30
0.0
 10
148.4342357892925
 20
238.2832982304762
 30
0.0
 10
148.5346320583631
 20
238.2810386955771
 30
0.0
 10
148.6344427350371
 20
238.2799735851139
 30
0.0
 10
148.7390573842625
 20
238.2800581900542
 30
0.0
 10
148.8482647377737
 20
238.2814623739107
 30
0.0
 10
148.9618653403819
 20
238.2843420476123
 30
0.0
 10
149.0745659830236
 20
238.2885559779376
 30
0.0
 10
149.186319605212
 20
238.2940330696027
 30
0.0
 10
149.2970847048197
 20
238.3007041372495
 30
0.0
 10
149.4068307692457
 20
238.3084994014943
 30
0.0
 10
149.5155169954093
 20
238.3173509487665
 30
0.0
 10
149.6231069093499
 20
238.3271941059555
 30
0.0
 10
149.7295418241408
 20
238.3379604414714
 30
0.0
 10
149.8347866598838
 20
238.349585211637
 30
0.0
 10
149.9388098504643
 20
238.3620077843858
 30
0.0
 10
150.0415935224148
 20
238.3751682542535
 30
0.0
 10
150.1431053606812
 20
238.3890067575402
 30
0.0
 10
150.2433158075319
 20
238.4034677858734
 30
0.0
 10
150.3421777009419
 20
238.4184920303913
 30
0.0
 10
150.439661761924
 20
238.4340238395606
 30
0.0
 10
150.5357410263869
 20
238.4500120758989
 30
0.0
 10
150.6303109784699
 20
238.4663914089116
 30
0.0
 10
150.7233480094712
 20
238.483109821367
 30
0.0
 10
150.8148307422457
 20
238.5001200801308
 30
0.0
 10
150.904809018929
 20
238.5173888424905
 30
0.0
 10
150.9932556675648
 20
238.5348697623872
 30
0.0
 10
151.080145389806
 20
238.5525207394948
 30
0.0
 10
151.1654660320015
 20
238.5703018597897
 30
0.0
 10
151.2491897197373
 20
238.5881708608628
 30
0.0
 10
151.3312904439826
 20
238.6060895162547
 30
0.0
 10
151.4117331584051
 20
238.6240170051487
 30
0.0
 10
151.490490626244
 20
238.6419147423306
 30
0.0
 10
151.5675376647696
 20
238.6597480831411
 30
0.0
 10
151.642861791592
 20
238.6774849687255
 30
0.0
 10
151.7164346367285
 20
238.6950902366667
 30
0.0
 10
151.7882300991795
 20
238.7125324954765
 30
0.0
 10
151.8582152161387
 20
238.729778244395
 30
0.0
 10
151.9263622666579
 20
238.7467956132445
 30
0.0
 10
151.9926461770158
 20
238.7635564416427
 30
0.0
 10
152.0584094860261
 20
238.7803822046086
 30
0.0
 10
152.1234760028122
 20
238.7972193750917
 30
0.0
 10
152.1876634935768
 20
238.814012289335
 30
0.0
 10
152.2496350190991
 20
238.8303922807935
 30
0.0
 10
152.3093567706747
 20
238.8463281583654
 30
0.0
 10
152.3667994048122
 20
238.8617932862752
 30
0.0
 10
152.4221451957496
 20
238.8768182110881
 30
0.0
 10
152.4753292750135
 20
238.8913680856106
 30
0.0
 10
152.5262907687707
 20
238.9054117372336
 30
0.0
 10
152.5748071183077
 20
238.9188720390756
 30
0.0
 10
152.6208449691307
 20
238.9317237851171
 30
0.0
 10
152.664376908615
 20
238.9439464071154
 30
0.0
 10
152.7055327030662
 20
238.9555635208996
 30
0.0
 10
152.7442464020268
 20
238.9665443088406
 30
0.0
 10
152.7804577576081
 20
238.9768619770155
 30
0.0
 10
152.8140020773329
 20
238.9864592485067
 30
0.0
 10
152.8448486727053
 20
238.9953169182382
 30
0.0
 10
152.8729744263423
 20
239.0034206140409
 30
0.0
 10
152.8970715921544
 20
239.0103845215978
 30
0.0
 10
152.9175872151145
 20
239.0163274331931
 30
0.0
 10
152.9349564857512
 20
239.0213691201555
 30
0.0
 10
152.9502971777794
 20
239.0258296961887
 30
0.0
 10
152.9650808040448
 20
239.0301350445508
 30
0.0
 10
152.9784091005841
 20
239.0340221793059
 30
0.0
 10
152.9893583710996
 20
239.0372200181735
 30
0.0
 10
152.9964691582686
 20
239.0392991682831
 30
0.0
 10
152.9999305908689
 20
239.0403112436922
 30
0.0
 10
152.9996339309747
 20
239.0402244990906
 30
0.0
 10
152.9995381401544
 20
239.0401964894515
 30
0.0
  0
LINE
  5
87
330
1F
100
AcDbEntity
  8
0
  6
Continuous
 62
     7
370
    30
100
AcDbLine
 10
134.3721358909
 20
186.0908374948
 30
0.0
 11
156.6278641091
 21
186.0908374948
 31
0.0
  0
LINE
  5
88
330
1F
100
AcDbEntity
  8
0
  6
Continuous
 62
     7
370
    30
100
AcDbLine
 10
155.3711974424
 20
216.0908374948
 30
0.0
 11
135.6288025576
 21
216.0908374948
 31
0.0
  0
LINE
  5
89
330
1F
100
AcDbEntity
  8
0
  6
Continuous
 62
     7
370
    30
100
AcDbLine
 10
134.3721358909
 20
309.9091625052
 30
0.0
 11
156.6278641091
 21
309.9091625052
 31
0.0
  0
LINE
  5
8A
330
1F
100
AcDbEntity
  8
0
  6
Continuous
 62
     7
370
    30
100
AcDbLine
 10
155.3711974424
 20
279.9091625052
 30
0.0
 11
135.6288025576
 21
279.9091625052
 31
0.0
  0
LWPOLYLINE
  5
8B
330
1F
100
AcDbEntity
  8
0
  6
Continuous
 62
     7
370
    30
100
AcDbPolyline
 90
      188
 70
   128
 43
0.0
 10
138.0000927738
 20
256.9596953511
 10
138.0010879791
 20
256.9599865368
 10
138.0047291714
 20
256.9610513113
 10
138.0109291436
 20
256.9628633096
 10
138.0198516359
 20
256.9654691868
 10
138.0314117715
 20
256.9688416421
 10
138.0456019105
 20
256.97297562
 10
138.0624805617
 20
256.9778849613
 10
138.0819957632
 20
256.9835499472
 10
138.1041346692
 20
256.9899619062
 10
138.1273132943
 20
256.9966584958
 10
138.1527921204
 20
257.0039995827
 10
138.1805565823
 20
257.0119750495
 10
138.2106928751
 20
257.0206032819
 10
138.2431102049
 20
257.0298505846
 10
138.2777903051
 20
257.0397037979
 10
138.3152068304
 20
257.0502882811
 10
138.3549212069
 20
257.0614690634
 10
138.3969110622
 20
257.0732292878
 10
138.4413025692
 20
257.0855929748
 10
138.4879570881
 20
257.0985084407
 10
138.5368489723
 20
257.1119553085
 10
138.5886256713
 20
257.1260959505
 10
138.6426667382
 20
257.1407429206
 10
138.6989427657
 20
257.1558713876
 10
138.7576204363
 20
257.1715080599
 10
138.8185142141
 20
257.1875830732
 10
138.8815920506
 20
257.2040674575
 10
138.945949258
 20
257.2207073433
 10
139.0123995131
 20
257.2376938267
 10
139.0809101745
 20
257.2549951492
 10
139.1516730399
 20
257.2726345789
 10
139.2244746334
 20
257.2905310069
 10
139.2992804954
 20
257.3086482038
 10
139.377052692
 20
257.3271849085
 10
139.4568448285
 20
257.3458775924
 10
139.5386197659
 20
257.3646839462
 10
139.622609487
 20
257.3836210413
 10
139.7085581957
 20
257.4025914075
 10
139.796427121
 20
257.4215472056
 10
139.8873405101
 20
257.4406815185
 10
139.9801862054
 20
257.4597059964
 10
140.0749224349
 20
257.4785650987
 10
140.1718289117
 20
257.4972634795
 10
140.2706002703
 20
257.5156866961
 10
140.3711923241
 20
257.5337721668
 10
140.4737847467
 20
257.5514942788
 10
140.5781663991
 20
257.5687538542
 10
140.6842898715
 20
257.5854807665
 10
140.7924881743
 20
257.6016592526
 10
140.9023982285
 20
257.6171614244
 10
141.0139676778
 20
257.6319086386
 10
141.1286788162
 20
257.6460025504
 10
141.2450453676
 20
257.6591588739
 10
141.3630059225
 20
257.6712872268
 10
141.4829868867
 20
257.6823384945
 10
141.6045159875
 20
257.6921701602
 10
141.7275209119
 20
257.7006821901
 10
141.8537027781
 20
257.7078635154
 10
141.9813269416
 20
257.713478602
 10
142.1103031681
 20
257.7174152892
 10
142.2412047366
 20
257.7195669636
 10
142.3733734045
 20
257.7197937639
 10
142.5066975737
 20
257.7179767638
 10
142.6063430603
 20
257.7152363952
 10
142.7065563632
 20
257.7112551852
 10
142.8074415048
 20
257.7059753055
 10
142.9088195686
 20
257.6993521566
 10
143.0453906413
 20
257.6882820446
 10
143.1826897144
 20
257.6745927449
 10
143.320554741
 20
257.6581756175
 10
143.4598263375
 20
257.6387747543
 10
143.5994721617
 20
257.6163852243
 10
143.7392992401
 20
257.5909163627
 10
143.8449192697
 20
257.5695857163
 10
143.9505138178
 20
257.5464081331
 10
144.0562285359
 20
257.5212980393
 10
144.1617851627
 20
257.4942716307
 10
144.2650404308
 20
257.4658930762
 10
144.3680138968
 20
257.4356289053
 10
144.4708499547
 20
257.4033945893
 10
144.5732727936
 20
257.3692394069
 10
144.7100616033
 20
257.3203301263
 10
144.8458671054
 20
257.2679283825
 10
144.9804761363
 20
257.2120680881
 10
145.1148974823
 20
257.1522327966
 10
145.2478803245
 20
257.0889148807
 10
145.379232955
 20
257.0221952145
 10
145.4773193785
 20
256.9695582498
 10
145.5743872183
 20
256.9150576746
 10
145.6706120094
 20
256.8586968047
 10
145.7658545302
 20
256.8007345701
 10
145.8894022081
 20
256.7225041787
 10
146.0114520533
 20
256.6420731411
 10
146.1320891987
 20
256.5597517743
 10
146.2518595544
 20
256.4755147845
 10
146.3704732189
 20
256.3898886624
 10
146.4880391477
 20
256.3031257319
 10
146.6047932709
 20
256.215375492
 10
146.7207632643
 20
256.1269210507
 10
146.8360631724
 20
256.0379785656
 10
147.0082946008
 20
255.9038840509
 10
147.1797098257
 20
255.7698024299
 10
147.2937114975
 20
255.6807626924
 10
147.4076438995
 20
255.592217337
 10
147.5216057016
 20
255.504376388
 10
147.6359261034
 20
255.4172761731
 10
147.7504946013
 20
255.3312983107
 10
147.8653896764
 20
255.246680516
 10
147.9519923352
 20
255.1841327037
 10
148.0388673443
 20
255.1225870905
 10
148.1261309367
 20
255.0620939527
 10
148.213724675
 20
255.0028284883
 10
148.2898438294
 20
254.952601751
 10
148.3662389051
 20
254.9034638088
 10
148.4430062788
 20
254.8554428651
 10
148.5200634581
 20
254.8086808064
 10
148.6237584109
 20
254.7481576888
 10
148.7279824021
 20
254.6902553882
 10
148.8326704072
 20
254.6352149441
 10
148.9386266905
 20
254.5828584629
 10
149.044995816
 20
254.533832109
 10
149.1516398801
 20
254.4883797916
 10
149.2324880529
 20
254.4564862109
 10
149.3133971724
 20
254.4268216185
 10
149.3945268224
 20
254.3993333656
 10
149.4755640693
 20
254.3740783356
 10
149.5545116652
 20
254.3515473532
 10
149.6332245083
 20
254.3310767987
 10
149.711827374
 20
254.312582554
 10
149.7900608124
 20
254.2960690841
 10
149.8945168419
 20
254.2769066354
 10
149.9980825856
 20
254.2610870971
 10
150.1005839687
 20
254.2484724734
 10
150.2027279791
 20
254.2388472628
 10
150.3036176689
 20
254.2321578898
 10
150.4031230965
 20
254.2282434005
 10
150.4772368456
 20
254.2270268952
 10
150.5504978267
 20
254.2272251319
 10
150.6229835049
 20
254.228771491
 10
150.6945628601
 20
254.2315973696
 10
150.7722166705
 20
254.2361014584
 10
150.8487230683
 20
254.2419817853
 10
150.9241656008
 20
254.2491622023
 10
150.9984159055
 20
254.2575503806
 10
151.0959347022
 20
254.2705275353
 10
151.1912640062
 20
254.2853324562
 10
151.2843500181
 20
254.3017772048
 10
151.3755677332
 20
254.3197650397
 10
151.4644975975
 20
254.3390621957
 10
151.5511011688
 20
254.3595010472
 10
151.6356492194
 20
254.3809979892
 10
151.7178402161
 20
254.4033404633
 10
151.7976431386
 20
254.4263797974
 10
151.8753143168
 20
254.4500597556
 10
151.9505668992
 20
254.474173091
 10
152.0233722549
 20
254.4985872549
 10
152.1136995947
 20
254.5303415378
 10
152.199903638
 20
254.5621440366
 10
152.2821427559
 20
254.5938299288
 10
152.3601641101
 20
254.6250946837
 10
152.4101725001
 20
254.6457440402
 10
152.4582510154
 20
254.6660433477
 10
152.5043796058
 20
254.6859287752
 10
152.548660725
 20
254.7053918827
 10
152.5909607891
 20
254.7243256463
 10
152.6312593205
 20
254.7426723303
 10
152.6698285468
 20
254.7605116362
 10
152.7063425349
 20
254.7776524942
 10
152.7407807915
 20
254.7940428248
 10
152.7732226258
 20
254.8096800152
 10
152.8035529269
 20
254.8244726901
 10
152.8317524618
 20
254.8383759389
 10
152.8518865555
 20
254.848390222
 10
152.8707602003
 20
254.8578439548
 10
152.8883815057
 20
254.8667281353
 10
152.9047290863
 20
254.8750200298
 10
152.9245893753
 20
254.8851575595
 10
152.9421530709
 20
254.8941819755
 10
152.9574062928
 20
254.9020643746
 10
152.9703811369
 20
254.9088011396
 10
152.9810144968
 20
254.9143448992
 10
152.9892974665
 20
254.9186776825
 10
152.9939766417
 20
254.9211304125
 10
152.9973209317
 20
254.9228858722
 10
152.9993301237
 20
254.9239414133
 10
153.0
 20
254.9242935492
 10
153.0
 20
254.9242935492
  0
LINE
  5
8C
330
1F
100
AcDbEntity
  8
0
  6
Continuous
 62
     8
370
     0
100
AcDbLine
 10
157.1273953247
 20
186.6124838475
 30
0.0
 11
133.8726046753
 21
186.6124838475
 31
0.0
  0
LINE
  5
8D
330
1F
100
AcDbEntity
  8
0
  6
Continuous
 62
     8
370
     0
100
AcDbLine
 10
135.1292713419
 20
215.6124838475
 30
0.0
 11
155.8707286581
 21
215.6124838475
 31
0.0
  0
LINE
  5
8E
330
1F
100
AcDbEntity
  8
0
  6
Continuous
 62
     8
370
     0
100
AcDbLine
 10
157.1273953247
 20
309.3875161525
 30
0.0
 11
133.8726046753
 21
309.3875161525
 31
0.0
  0
LINE
  5
8F
330
1F
100
AcDbEntity
  8
0
  6
Continuous
 62
     8
370
     0
100
AcDbLine
 10
135.1292713419
 20
280.3875161525
 30
0.0
 11
155.8707286581
 21
280.3875161525
 31
0.0
  0
LINE
  5
90
330
1F
100
AcDbEntity
  8
0
  6
Continuous
 62
     7
370
    30
100
AcDbLine
 10
260.0
 20
216.0908374948
 30
0.0
 11
260.0
 21
239.043083877
 31
0.0
  0
LINE
  5
91
330
1F
100
AcDbEntity
  8
0
  6
Continuous
 62
     7
370
    30
100
AcDbLine
 10
245.0
 20
239.0431427705
 30
0.0
 11
245.0
 21
216.0908374948
 31
0.0
  0
LINE
  5
92
330
1F
100
AcDbEntity
  8
0
  6
Continuous
 62
     7
370
    30
100
AcDbLine
 10
258.0870547095
 20
241.7730610909
 30
0.0
 11
246.9130520124
 21
241.7730610909
 31
0.0
  0
ARC
  5
93
330
1F
100
AcDbEntity
  8
0
  6
Continuous
 62
     7
370
    30
100
AcDbCircle
 10
263.6278641091
 20
186.5908374948
 30
0.0
 40
0.5
100
AcDbArc
 50
270.0
 51
2.4812648012
  0
ARC
  5
94
330
1F
100
AcDbEntity
  8
0
  6
Continuous
 62
     7
370
    30
100
AcDbCircle
 10
241.3721358909
 20
186.5908374948
 30
0.0
 40
0.5
100
AcDbArc
 50
177.5187351988
 51
270.0
  0
LINE
  5
95
330
1F
100
AcDbEntity
  8
0
  6
Continuous
 62
     7
370
    30
100
AcDbLine
 10
264.1273953247
 20
186.6124838475
 30
0.0
 11
262.8707286581
 21
215.6124838475
 31
0.0
  0
LINE
  5
96
330
1F
100
AcDbEntity
  8
0
  6
Continuous
 62
     7
370
    30
100
AcDbLine
 10
242.1292713419
 20
215.6124838475
 30
0.0
 11
240.8726046753
 21
186.6124838475
 31
0.0
  0
ARC
  5
97
330
1F
100
AcDbEntity
  8
0
  6
Continuous
 62
     7
370
    30
100
AcDbCircle
 10
242.6288025576
 20
215.5908374948
 30
0.0
 40
0.5000000000000012
100
AcDbArc
 50
90.0
 51
177.5187351988
  0
ARC
  5
98
330
1F
100
AcDbEntity
  8
0
  6
Continuous
 62
     7
370
    30
100
AcDbCircle
 10
262.3711974424
 20
215.5908374948
 30
0.0
 40
0.5000000000000295
100
AcDbArc
 50
2.4812648012
 51
90.0
  0
ARC
  5
99
330
1F
100
AcDbEntity
  8
0
  6
Continuous
 62
     7
370
    30
100
AcDbCircle
 10
241.3721358909
 20
309.4091625052
 30
0.0
 40
0.5
100
AcDbArc
 50
90.0
 51
182.4812648012
  0
ARC
  5
9A
330
1F
100
AcDbEntity
  8
0
  6
Continuous
 62
     7
370
    30
100
AcDbCircle
 10
263.6278641091
 20
309.4091625052
 30
0.0
 40
0.5
100
AcDbArc
 50
357.5187351988
 51
90.0
  0
LINE
  5
9B
330
1F
100
AcDbEntity
  8
0
  6
Continuous
 62
     7
370
    30
100
AcDbLine
 10
240.8726046753
 20
309.3875161525
 30
0.0
 11
242.1292713419
 21
280.3875161525
 31
0.0
  0
LINE
  5
9C
330
1F
100
AcDbEntity
  8
0
  6
Continuous
 62
     7
370
    30
100
AcDbLine
 10
262.8707286581
 20
280.3875161525
 30
0.0
 11
264.1273953247
 21
309.3875161525
 31
0.0
  0
ARC
  5
9D
330
1F
100
AcDbEntity
  8
0
  6
Continuous
 62
     7
370
    30
100
AcDbCircle
 10
262.3711974424
 20
280.4091625052
 30
0.0
 40
0.5000000000000283
100
AcDbArc
 50
270.0
 51
357.5187351988
  0
ARC
  5
9E
330
1F
100
AcDbEntity
  8
0
  6
Continuous
 62
     7
370
    30
100
AcDbCircle
 10
242.6288025576
 20
280.4091625052
 30
0.0
 40
0.5
100
AcDbArc
 50
182.4812648012
 51
270.0
  0
LINE
  5
9F
330
1F
100
AcDbEntity
  8
0
  6
Continuous
 62
     7
370
    30
100
AcDbLine
 10
246.9129437805
 20
254.2269389091
 30
0.0
 11
258.0871704545
 21
254.2269389091
 31
0.0
  0
LINE
  5
A0
330
1F
100
AcDbEntity
  8
0
  6
Continuous
 62
     7
370
    30
100
AcDbLine
 10
245.0
 20
279.9091625052
 30
0.0
 11
245.0
 21
256.9569161225
 31
0.0
  0
LINE
  5
A1
330
1F
100
AcDbEntity
  8
0
  6
Continuous
 62
     7
370
    30
100
AcDbLine
 10
260.0
 20
256.9568572182
 30
0.0
 11
260.0
 21
279.9091625052
 31
0.0
  0
SPLINE
  5
A2
330
1F
100
AcDbEntity
  8
0
  6
Continuous
 62
     7
370
    30
100
AcDbSpline
210
0.0
220
0.0
230
1.0
 70
     8
 71
     3
 72
   103
 73
    99
 74
     0
 42
0.000000001
 43
0.00000001
 40
0.0
 40
0.0
 40
0.0
 40
0.0
 40
0.0127785881734471
 40
0.0255590576954894
 40
0.0383376607161936
 40
0.0511838451839239
 40
0.064031917252816
 40
0.0768781448914809
 40
0.0897119991476686
 40
0.1025476764709163
 40
0.1153815949972787
 40
0.1282792314308615
 40
0.1411786317439543
 40
0.1540763455156705
 40
0.1637532583082639
 40
0.1734301782349162
 40
0.1831181269575244
 40
0.192806082579741
 40
0.2007402469526063
 40
0.2086744142113034
 40
0.2166143301678731
 40
0.2245542487303206
 40
0.2351691592208693
 40
0.245784904198086
 40
0.2563998370751902
 40
0.2670441668005499
 40
0.2776893104401648
 40
0.2883336500244268
 40
0.2990117703398267
 40
0.3096907017323155
 40
0.3203688141261447
 40
0.3310766026690898
 40
0.3417852223660492
 40
0.3524929785948026
 40
0.3605462253240646
 40
0.3685994669748187
 40
0.3766588587001873
 40
0.3847182436338884
 40
0.3989407380807325
 40
0.4131631398137264
 40
0.4226712475969562
 40
0.4321801175504371
 40
0.4416881311997201
 40
0.4511727110808346
 40
0.46065817242074
 40
0.4701426237437139
 40
0.479663735899792
 40
0.4891859129285131
 40
0.4987068533488764
 40
0.5058513128388897
 40
0.5129957538647659
 40
0.5201495481352498
 40
0.5273033220306212
 40
0.5362141490737987
 40
0.5451262647514286
 40
0.5540369028998267
 40
0.5630011233559662
 40
0.5719669065697138
 40
0.580930925767048
 40
0.5899578520803519
 40
0.5989866388885122
 40
0.6080133795415922
 40
0.6171141742043464
 40
0.6262171296388228
 40
0.6353178527034083
 40
0.6442200797615913
 40
0.6531242855635752
 40
0.6620268300894532
 40
0.6709896513511797
 40
0.6799540712129207
 40
0.6889172100149332
 40
0.6979259119759847
 40
0.7069358268588367
 40
0.7159448030625672
 40
0.7249879876439999
 40
0.7340320507183486
 40
0.7430754498157186
 40
0.7536632558916795
 40
0.7642520356146361
 40
0.7748401216321292
 40
0.7907605346303066
 40
0.80668119484608
 40
0.8226427716736604
 40
0.8386044644875646
 40
0.8545855582962912
 40
0.8705666481986118
 40
0.8865885933348694
 40
0.9026104062520326
 40
0.9133081395427771
 40
0.9240063675639065
 40
0.9347038979111777
 40
0.9454373814552841
 40
0.9561716470311217
 40
0.966904770178817
 40
0.9776798312181731
 40
0.9884561797990905
 40
0.999230656356951
 40
1.0
 40
1.0
 40
1.0
 40
1.0
 10
252.4999999999808
 20
241.0757064508214
 30
0.0
 10
252.5536724568537
 20
241.0758820321954
 30
0.0
 10
252.6610252726149
 20
241.0762332207937
 30
0.0
 10
252.8219558662587
 20
241.0790595454382
 30
0.0
 10
252.9829812354802
 20
241.08356129424
 30
0.0
 10
253.14400566737
 20
241.0899054717297
 30
0.0
 10
253.3049348618982
 20
241.0980199089016
 30
0.0
 10
253.4653433695322
 20
241.1078659848919
 30
0.0
 10
253.6251408882881
 20
241.1194037345137
 30
0.0
 10
253.7842436071879
 20
241.1325711503638
 30
0.0
 10
253.9428818264223
 20
241.1473374833111
 30
0.0
 10
254.1009686371522
 20
241.1636543290247
 30
0.0
 10
254.2584233030795
 20
241.1814480332325
 30
0.0
 10
254.4018862210373
 20
241.1990172217457
 30
0.0
 10
254.5315563868451
 20
241.2159306383572
 30
0.0
 10
254.6477087932676
 20
241.231844946922
 30
0.0
 10
254.7632635829024
 20
241.2484108979062
 30
0.0
 10
254.8712590768715
 20
241.2645490310661
 30
0.0
 10
254.9717638551708
 20
241.2800974812103
 30
0.0
 10
255.0649156619437
 20
241.2949311957763
 30
0.0
 10
255.1575979786632
 20
241.3100918058605
 30
0.0
 10
255.2601520615463
 20
241.3272879891285
 30
0.0
 10
255.3723247904682
 20
241.3466060866938
 30
0.0
 10
255.4938322757364
 20
241.3681056181378
 30
0.0
 10
255.6144732386633
 20
241.3899636414639
 30
0.0
 10
255.7342175709293
 20
241.4121099268623
 30
0.0
 10
255.8530379968334
 20
241.4344648750753
 30
0.0
 10
255.9709244347477
 20
241.4569515310192
 30
0.0
 10
256.0878481589052
 20
241.4794898703412
 30
0.0
 10
256.203782431113
 20
241.5019896959522
 30
0.0
 10
256.3186867756376
 20
241.5243574402467
 30
0.0
 10
256.4325331354777
 20
241.5465019054332
 30
0.0
 10
256.5452946983173
 20
241.5683204156701
 30
0.0
 10
256.6476248528751
 20
241.587924746545
 30
0.0
 10
256.7398269825662
 20
241.6053587152622
 30
0.0
 10
256.8222108285159
 20
241.6207101397892
 30
0.0
 10
256.9038917742732
 20
241.635657136788
 30
0.0
 10
257.005495722144
 20
241.6538423122076
 30
0.0
 10
257.1261794883467
 20
241.6746586199958
 30
0.0
 10
257.2495188643952
 20
241.6946223270521
 30
0.0
 10
257.3559261399856
 20
241.7106805230441
 30
0.0
 10
257.4461101070997
 20
241.7233805122102
 30
0.0
 10
257.5350622289753
 20
241.7348890175635
 30
0.0
 10
257.6227565739644
 20
241.7451072495293
 30
0.0
 10
257.7091675943909
 20
241.7539287839648
 30
0.0
 10
257.7944452652384
 20
241.7612604491381
 30
0.0
 10
257.8785479709659
 20
241.7669819293806
 30
0.0
 10
257.9614345356146
 20
241.7709652719426
 30
0.0
 10
258.0361754821497
 20
241.7729053415931
 30
0.0
 10
258.103102903512
 20
241.7732165138661
 30
0.0
 10
258.1625669758566
 20
241.7723216211797
 30
0.0
 10
258.2212262116432
 20
241.7701958484797
 30
0.0
 10
258.283795180191
 20
241.7665044220263
 30
0.0
 10
258.3499628266184
 20
241.7607809208007
 30
0.0
 10
258.4193919352705
 20
241.7524722728707
 30
0.0
 10
258.4875229169955
 20
241.7418582721341
 30
0.0
 10
258.55429769623
 20
241.728815889241
 30
0.0
 10
258.6196663746882
 20
241.7132366645015
 30
0.0
 10
258.6836013267806
 20
241.6950121183758
 30
0.0
 10
258.7460392823775
 20
241.6740227406488
 30
0.0
 10
258.8069305111349
 20
241.6501759271898
 30
0.0
 10
258.8662516695974
 20
241.623380966049
 30
0.0
 10
258.9239373781142
 20
241.5935193372914
 30
0.0
 10
258.979946151964
 20
241.5605417102349
 30
0.0
 10
259.0336995107827
 20
241.5247695817513
 30
0.0
 10
259.0852215820464
 20
241.4863013960818
 30
0.0
 10
259.1345845943881
 20
241.4453988951897
 30
0.0
 10
259.1822908279216
 20
241.4018068232689
 30
0.0
 10
259.2283466592577
 20
241.3556422644339
 30
0.0
 10
259.2727733174114
 20
241.3070433919064
 30
0.0
 10
259.3155746230296
 20
241.2561759014046
 30
0.0
 10
259.356778373
 20
241.203172318863
 30
0.0
 10
259.3964185859761
 20
241.1481720233579
 30
0.0
 10
259.4345176334271
 20
241.0913361360294
 30
0.0
 10
259.4711145267836
 20
241.0327976340644
 30
0.0
 10
259.5062473368727
 20
240.9726860712681
 30
0.0
 10
259.5418311230306
 20
240.9077069969623
 30
0.0
 10
259.5776169830449
 20
240.8377286390848
 30
0.0
 10
259.6133513867122
 20
240.7626666570346
 30
0.0
 10
259.652963553918
 20
240.6734598393094
 30
0.0
 10
259.6953432450288
 20
240.5695192214395
 30
0.0
 10
259.7393003155528
 20
240.4503939326051
 30
0.0
 10
259.7796721545305
 20
240.3296826283452
 30
0.0
 10
259.8165811124107
 20
240.2078465682401
 30
0.0
 10
259.8501065496361
 20
240.0854929950135
 30
0.0
 10
259.8803306450764
 20
239.9630183506639
 30
0.0
 10
259.9072893920595
 20
239.8409754054738
 30
0.0
 10
259.9283505706834
 20
239.7333062597028
 30
0.0
 10
259.9446458148446
 20
239.6400924308184
 30
0.0
 10
259.9571320815729
 20
239.5610350517001
 30
0.0
 10
259.9681205560674
 20
239.4829651774601
 30
0.0
 10
259.9775825724706
 20
239.4060744463886
 30
0.0
 10
259.9854775595795
 20
239.3305729628258
 30
0.0
 10
259.9917417040425
 20
239.2566998290517
 30
0.0
 10
259.9963986413615
 20
239.1845802056598
 30
0.0
 10
259.9990995351233
 20
239.1148988401382
 30
0.0
 10
260.000286864635
 20
239.0676557072071
 30
0.0
 10
259.9999551376448
 20
239.0446191592031
 30
0.0
 10
259.9999330295344
 20
239.0430838769952
 30
0.0
  0
SPLINE
  5
A3
330
1F
100
AcDbEntity
  8
0
  6
Continuous
 62
     7
370
    30
100
AcDbSpline
210
0.0
220
0.0
230
1.0
 70
     8
 71
     3
 72
   105
 73
   101
 74
     0
 42
0.000000001
 43
0.00000001
 40
0.0
 40
0.0
 40
0.0
 40
0.0
 40
0.0008917048778273
 40
0.0126838352983632
 40
0.024473995533948
 40
0.0358016648057702
 40
0.0471308585936301
 40
0.0584590317784655
 40
0.0698249593686009
 40
0.0811918086386869
 40
0.0925580255755369
 40
0.104149276603074
 40
0.1157411371224537
 40
0.1273325296533828
 40
0.1447455806271212
 40
0.1621586406616374
 40
0.1740375307656851
 40
0.185916913987937
 40
0.197795668523235
 40
0.209697479389795
 40
0.2215999830605043
 40
0.2335014909252105
 40
0.2425365410953369
 40
0.2515715480093355
 40
0.2606158096676573
 40
0.2696600165885966
 40
0.2772806625708676
 40
0.2849012753113078
 40
0.2925305764466594
 40
0.3001598389260908
 40
0.3103800096510771
 40
0.3206018605704432
 40
0.3308215176830591
 40
0.3411209488710806
 40
0.3514227924825795
 40
0.3617216507982637
 40
0.3695147763532492
 40
0.3773078755857817
 40
0.3851231788027996
 40
0.3929385054224489
 40
0.3990426116375904
 40
0.4051467283581527
 40
0.4112606046783048
 40
0.4173744926531384
 40
0.425582054599897
 40
0.4337909845856437
 40
0.4419986876138819
 40
0.4502508726570849
 40
0.4585042626515906
 40
0.4667565888840255
 40
0.4750687087783405
 40
0.4833818755819239
 40
0.4916941258159828
 40
0.5000396394094733
 40
0.5083860454050161
 40
0.5167316704617492
 40
0.5282591772574056
 40
0.5397886507873246
 40
0.551316468362455
 40
0.5629047383066165
 40
0.5744946148009236
 40
0.5860831024220284
 40
0.5976623481417492
 40
0.6092429297986279
 40
0.6208223133853262
 40
0.6324453018076138
 40
0.644069471659363
 40
0.65569253916542
 40
0.6644085553551821
 40
0.6731245754968788
 40
0.6818478277229723
 40
0.6905710821582295
 40
0.7027611334457756
 40
0.714952394687237
 40
0.7271424457971192
 40
0.7393763925160516
 40
0.7516115676244013
 40
0.7638454837368704
 40
0.7760006524460059
 40
0.7881570680449056
 40
0.8003121873165262
 40
0.8125142598281861
 40
0.8247176602789075
 40
0.8369196718280364
 40
0.8460461481956306
 40
0.8551726188954745
 40
0.8643087011800614
 40
0.8734447778777731
 40
0.8839363432897336
 40
0.8944288534682446
 40
0.9049203876165496
 40
0.9154471944336107
 40
0.925974995546814
 40
0.9365017769776434
 40
0.9470654428461166
 40
0.957630145396177
 40
0.9681937946007799
 40
0.9787955089746518
 40
0.989398291480188
 40
0.9999999999999999
 40
0.9999999999999999
 40
0.9999999999999999
 40
0.9999999999999999
 10
245.0000791905065
 20
239.043142770547
 30
0.0
 10
245.0000530218833
 20
239.0449222511685
 30
0.0
 10
244.9996807927807
 20
239.0702340327704
 30
0.0
 10
245.0010783559572
 20
239.1221549358188
 30
0.0
 10
245.0042847616915
 20
239.1977687673835
 30
0.0
 10
245.0096607978486
 20
239.2752151757214
 30
0.0
 10
245.0167502138216
 20
239.3536115619845
 30
0.0
 10
245.0256594928631
 20
239.4339417392625
 30
0.0
 10
245.0363213489283
 20
239.5159161371883
 30
0.0
 10
245.0487179875158
 20
239.5993206536769
 30
0.0
 10
245.0629005715319
 20
239.6843951424382
 30
0.0
 10
245.0788811367129
 20
239.7709427852697
 30
0.0
 10
245.0966942785999
 20
239.8587773948932
 30
0.0
 10
245.119503861174
 20
239.9619202782304
 30
0.0
 10
245.1484625649586
 20
240.0803824724487
 30
0.0
 10
245.1811448988445
 20
240.199635477734
 30
0.0
 10
245.2126338802193
 20
240.3043701912568
 30
0.0
 10
245.2418216473021
 20
240.3945469387031
 30
0.0
 10
245.2730120171811
 20
240.4840895388706
 30
0.0
 10
245.3062602899923
 20
240.5727828956171
 30
0.0
 10
245.3416481337303
 20
240.6603944178771
 30
0.0
 10
245.3762129151144
 20
240.7397080297536
 30
0.0
 10
245.4094365208087
 20
240.8109000034019
 30
0.0
 10
245.4408455261999
 20
240.8742566639857
 30
0.0
 10
245.4736585304279
 20
240.9364678369471
 30
0.0
 10
245.5061243562833
 20
240.9942109637111
 30
0.0
 10
245.538015058724
 20
241.0475849487779
 30
0.0
 10
245.5691288529673
 20
241.0967605585732
 30
0.0
 10
245.6013636191386
 20
241.14478218295
 30
0.0
 10
245.6385273252899
 20
241.1968593535682
 30
0.0
 10
245.6811453502453
 20
241.2523031187795
 30
0.0
 10
245.7298489885072
 20
241.3102334221664
 30
0.0
 10
245.7808946186015
 20
241.3654595705105
 30
0.0
 10
245.8343612601758
 20
241.4177189332986
 30
0.0
 10
245.8903064655529
 20
241.4667713736382
 30
0.0
 10
245.9438959893397
 20
241.5085782048016
 30
0.0
 10
245.9945169517745
 20
241.5438959527525
 30
0.0
 10
246.041654524078
 20
241.5735900970539
 30
0.0
 10
246.0902054757033
 20
241.6010409814713
 30
0.0
 10
246.1365040940622
 20
241.6244464379529
 30
0.0
 10
246.18016601108
 20
241.6443320481095
 30
0.0
 10
246.2209149171889
 20
241.6612039780927
 30
0.0
 10
246.2624723387941
 20
241.6767780388732
 30
0.0
 10
246.309659956982
 20
241.6927088466302
 30
0.0
 10
246.3627831182914
 20
241.7084584892687
 30
0.0
 10
246.4221800639157
 20
241.7234682145323
 30
0.0
 10
246.4829905393976
 20
241.7363679700361
 30
0.0
 10
246.5451923469155
 20
241.7472133401609
 30
0.0
 10
246.6087556052883
 20
241.7560743325507
 30
0.0
 10
246.6736912138758
 20
241.7630279876002
 30
0.0
 10
246.7399786751019
 20
241.7681381551965
 30
0.0
 10
246.8075924073378
 20
241.7714763455629
 30
0.0
 10
246.8764331446701
 20
241.7731170278414
 30
0.0
 10
246.9464771538616
 20
241.773136752181
 30
0.0
 10
247.0176982248699
 20
241.7716138054147
 30
0.0
 10
247.0991595226195
 20
241.7682528725464
 30
0.0
 10
247.1913500186659
 20
241.7624591525697
 30
0.0
 10
247.2947765209531
 20
241.7536652598396
 30
0.0
 10
247.4002211763261
 20
241.7426444491362
 30
0.0
 10
247.5076404589504
 20
241.7295880340305
 30
0.0
 10
247.616989002058
 20
241.7146728158702
 30
0.0
 10
247.7280011621778
 20
241.6981117652967
 30
0.0
 10
247.8406315306573
 20
241.6800902130017
 30
0.0
 10
247.9548345385379
 20
241.6607736805557
 30
0.0
 10
248.0707462914149
 20
241.6402942090398
 30
0.0
 10
248.1883381539038
 20
241.6188084982186
 30
0.0
 10
248.3075799929219
 20
241.5964567154066
 30
0.0
 10
248.4182284629708
 20
241.5753311704891
 30
0.0
 10
248.5198571559383
 20
241.555724196169
 30
0.0
 10
248.612138441677
 20
241.5378163138369
 30
0.0
 10
248.7052285567066
 20
241.5197008982247
 30
0.0
 10
248.8115521999127
 20
241.4990086758816
 30
0.0
 10
248.931469417011
 20
241.4757454664785
 30
0.0
 10
249.0653893189809
 20
241.4499841821978
 30
0.0
 10
249.2008816642214
 20
241.4242581405815
 30
0.0
 10
249.3379178533684
 20
241.3986968857701
 30
0.0
 10
249.476464365833
 20
241.373415572422
 30
0.0
 10
249.6160182114362
 20
241.3486129000784
 30
0.0
 10
249.7565309998806
 20
241.3244001052898
 30
0.0
 10
249.8979497611578
 20
241.3008714708865
 30
0.0
 10
250.0407169638037
 20
241.2780444009699
 30
0.0
 10
250.1847936095428
 20
241.2560226361286
 30
0.0
 10
250.3301330017719
 20
241.2348956385038
 30
0.0
 10
250.4642023615536
 20
241.2164686762963
 30
0.0
 10
250.586674755636
 20
241.2005297167567
 30
0.0
 10
250.697337680209
 20
241.1868388697552
 30
0.0
 10
250.8085348775058
 20
241.1738198180856
 30
0.0
 10
250.9257650886655
 20
241.1608923220094
 30
0.0
 10
251.0490478409737
 20
241.1482230654437
 30
0.0
 10
251.1784204615014
 20
241.1359902039155
 30
0.0
 10
251.3084371901318
 20
241.12478744697
 30
0.0
 10
251.4390557773887
 20
241.1146565457815
 30
0.0
 10
251.5702302484401
 20
241.1056281678681
 30
0.0
 10
251.7019202128595
 20
241.0977316993488
 30
0.0
 10
251.8340785002974
 20
241.0909995018974
 30
0.0
 10
251.9666548678957
 20
241.0854546458035
 30
0.0
 10
252.0996032809039
 20
241.0811084306718
 30
0.0
 10
252.2328724871171
 20
241.078014428815
 30
0.0
 10
252.3664092049471
 20
241.0760685572407
 30
0.0
 10
252.4554712386031
 20
241.0758271488853
 30
0.0
 10
252.4999999999808
 20
241.0757064508211
 30
0.0
  0
LINE
  5
A4
330
1F
100
AcDbEntity
  8
0
  6
Continuous
 62
     7
370
    30
100
AcDbLine
 10
252.5
 20
186.0908374948
 30
0.0
 11
263.6278641091
 21
186.0908374948
 31
0.0
  0
LINE
  5
A5
330
1F
100
AcDbEntity
  8
0
  6
Continuous
 62
     7
370
    30
100
AcDbLine
 10
241.3721358909
 20
186.0908374948
 30
0.0
 11
252.5
 21
186.0908374948
 31
0.0
  0
LINE
  5
A6
330
1F
100
AcDbEntity
  8
0
  6
Continuous
 62
     7
370
    30
100
AcDbLine
 10
262.3711974424
 20
216.0908374948
 30
0.0
 11
242.6288025576
 21
216.0908374948
 31
0.0
  0
LINE
  5
A7
330
1F
100
AcDbEntity
  8
0
  6
Continuous
 62
     7
370
    30
100
AcDbLine
 10
241.3721358909
 20
309.9091625052
 30
0.0
 11
263.6278641091
 21
309.9091625052
 31
0.0
  0
LINE
  5
A8
330
1F
100
AcDbEntity
  8
0
  6
Continuous
 62
     7
370
    30
100
AcDbLine
 10
252.5
 20
279.9091625052
 30
0.0
 11
242.6288025576
 21
279.9091625052
 31
0.0
  0
LINE
  5
A9
330
1F
100
AcDbEntity
  8
0
  6
Continuous
 62
     7
370
    30
100
AcDbLine
 10
262.3711974424
 20
279.9091625052
 30
0.0
 11
252.5
 21
279.9091625052
 31
0.0
  0
SPLINE
  5
AA
330
1F
100
AcDbEntity
  8
0
  6
Continuous
 62
     7
370
    30
100
AcDbSpline
210
0.0
220
0.0
230
1.0
 70
     8
 71
     3
 72
   284
 73
   280
 74
     0
 42
0.000000001
 43
0.00000001
 40
0.0
 40
0.0
 40
0.0
 40
0.0
 40
0.0006402180641842
 40
0.0031179663268961
 40
0.0055989691907316
 40
0.0080799649513548
 40
0.011164718464866
 40
0.0142499180310786
 40
0.0173346061633507
 40
0.0204378413317377
 40
0.0235416174330231
 40
0.0266447829405555
 40
0.0297700529285856
 40
0.0328959671082916
 40
0.0360211728067099
 40
0.0391720197303642
 40
0.0423236148243507
 40
0.0454744369529473
 40
0.0477838016821976
 40
0.0500931761143685
 40
0.0524068537448409
 40
0.0547205414848107
 40
0.0578232777566566
 40
0.0609265673767106
 40
0.0640294135563256
 40
0.0671483888107147
 40
0.0702677840637622
 40
0.0733868542840143
 40
0.0757342572963658
 40
0.0780816675212548
 40
0.0827800559804228
 40
0.0864485003746327
 40
0.090117282646167
 40
0.0937858242522886
 40
0.0993019187944946
 40
0.1048180991403565
 40
0.1103452107831577
 40
0.1158723625422828
 40
0.1214062333411867
 40
0.126940102705545
 40
0.1324847808245006
 40
0.1380294131487682
 40
0.141731552608425
 40
0.1454338632620386
 40
0.1491359325034851
 40
0.1528494620930725
 40
0.1565632620603089
 40
0.1602766671406205
 40
0.164004567913953
 40
0.167732913697561
 40
0.1714606126188025
 40
0.1754021868078301
 40
0.1793445868310791
 40
0.1832861169497761
 40
0.1872591441272305
 40
0.1912330713626939
 40
0.1952060823559238
 40
0.1992122859498007
 40
0.2032194290815274
 40
0.2072256478618722
 40
0.2112653677047721
 40
0.2153060261687555
 40
0.2193457895177953
 40
0.2232803377114052
 40
0.22721569827428
 40
0.2311503012275292
 40
0.2351123968484062
 40
0.2390752483588879
 40
0.2430374061324131
 40
0.2470247623986471
 40
0.251012807217045
 40
0.2550002250258401
 40
0.2590104249000041
 40
0.263021245306731
 40
0.2670315006290203
 40
0.2712437558645626
 40
0.2754566485587486
 40
0.2796689590173557
 40
0.2839024426091847
 40
0.2881365029999255
 40
0.2923700298279011
 40
0.2966075795619585
 40
0.3008456537273979
 40
0.3050832349697714
 40
0.3093387230037145
 40
0.3135947026380183
 40
0.3178502125396678
 40
0.3210460120512754
 40
0.3242418129742407
 40
0.327440725546559
 40
0.3306396392055829
 40
0.3332989457299824
 40
0.3359582526458574
 40
0.3386193003277999
 40
0.3412803482992927
 40
0.3448450485090858
 40
0.3484100076861308
 40
0.3519747096608289
 40
0.3555487168359197
 40
0.3591229829841215
 40
0.3626969903196559
 40
0.3662977814983203
 40
0.3698988375111192
 40
0.3734996275936304
 40
0.3771100360110035
 40
0.3807207129670658
 40
0.3843311193571828
 40
0.3870520002904624
 40
0.3897728809917083
 40
0.3924956286075255
 40
0.3952183759685743
 40
0.3981018262999789
 40
0.4009852762899007
 40
0.4038709791621966
 40
0.4067566816775635
 40
0.4106400746228666
 40
0.4145238146813207
 40
0.4184072034292479
 40
0.4223033046432469
 40
0.4261997618512774
 40
0.4300958589077634
 40
0.4340560442705025
 40
0.4380166090852705
 40
0.4419767903532095
 40
0.4459508537959644
 40
0.4499253059571934
 40
0.4538993657928775
 40
0.4569086660963106
 40
0.4599179661086774
 40
0.4629300104111114
 40
0.4659420544573109
 40
0.468733074052999
 40
0.4715240934868863
 40
0.4743173198138472
 40
0.4771105460058865
 40
0.4808695567479384
 40
0.4846289054690118
 40
0.488387915157437
 40
0.4921591906153986
 40
0.4959308086441187
 40
0.4997020837301181
 40
0.5035351612930968
 40
0.5073685989473371
 40
0.5112016768736249
 40
0.5150477722569085
 40
0.5188942308300406
 40
0.5227403273494886
 40
0.5256523007701348
 40
0.5285642743499536
 40
0.5314787564195405
 40
0.5343932386827009
 40
0.5371286051021409
 40
0.5398639716961051
 40
0.5426014012731546
 40
0.5453388310475726
 40
0.5490159113503342
 40
0.5526933026594109
 40
0.5563703855590982
 40
0.560058624092661
 40
0.5637471730361564
 40
0.5674354145899839
 40
0.5711704203029329
 40
0.5749057442939857
 40
0.578640753471518
 40
0.5823871515852086
 40
0.5861338663664836
 40
0.5898802681155205
 40
0.5927110780623922
 40
0.5955418883446995
 40
0.5983748435934271
 40
0.6012077991692873
 40
0.6040007213867329
 40
0.6067936438985794
 40
0.6095885969465219
 40
0.612383550268751
 40
0.6161375207645909
 40
0.6198917964483299
 40
0.6236457695503655
 40
0.6274106913101901
 40
0.6311759176712569
 40
0.6349408410395558
 40
0.6387530915396873
 40
0.6425656563089618
 40
0.6463779069333659
 40
0.6502015292983108
 40
0.6540254688604763
 40
0.6578490891686571
 40
0.6607382208856609
 40
0.6636273522165241
 40
0.6665187097395597
 40
0.6694100667207626
 40
0.6723047080713191
 40
0.675199348701675
 40
0.6780962873398237
 40
0.6809932250566085
 40
0.6848854734164529
 40
0.6887780794332983
 40
0.6926703133360411
 40
0.696576035501939
 40
0.7004821386984438
 40
0.7043878398076937
 40
0.7083461657299557
 40
0.7123049176170474
 40
0.7162632132354912
 40
0.7202380639013446
 40
0.7242133867159279
 40
0.7281881972114168
 40
0.7311959816043705
 40
0.7342037615457413
 40
0.7372153347914149
 40
0.7402269031173014
 40
0.7441995746924358
 40
0.7481728368929424
 40
0.7521454502945115
 40
0.7561416138282886
 40
0.7601384559736973
 40
0.764134555260552
 40
0.7681576162474513
 40
0.7721814545349993
 40
0.7762044520882956
 40
0.7802579470953255
 40
0.7843123198828609
 40
0.7883657629466804
 40
0.7923473020830134
 40
0.7963297337281662
 40
0.8003112474507683
 40
0.8043260174569534
 40
0.808341732057751
 40
0.8123565068618387
 40
0.81640533295661
 40
0.8204551165659116
 40
0.8245039809253377
 40
0.8285854355598632
 40
0.8326678344654024
 40
0.8367495513040752
 40
0.839763543877658
 40
0.8427775560799513
 40
0.8457948179816922
 40
0.8488120950114886
 40
0.8528442563905664
 40
0.8568767561827959
 40
0.8609090254108565
 40
0.8649498218034041
 40
0.8689908291753907
 40
0.8730316731806281
 40
0.8790934125816736
 40
0.8851551513716668
 40
0.8892020777636788
 40
0.8932491689204722
 40
0.8972960487641674
 40
0.901346032747508
 40
0.9053962487538976
 40
0.9094461327030915
 40
0.9135081796305534
 40
0.9175705992548937
 40
0.9216324770377546
 40
0.9251516392034644
 40
0.9286711903200595
 40
0.9321902149610162
 40
0.9357284135429974
 40
0.9392671937796062
 40
0.9428052145542435
 40
0.9463708540576492
 40
0.9499373287068409
 40
0.9535027698830999
 40
0.9571050804450322
 40
0.9607085343806248
 40
0.9643108664684195
 40
0.9678370344081736
 40
0.9713642150242119
 40
0.9748904891121252
 40
0.9784497119400845
 40
0.9820098318901739
 40
0.9855691753277173
 40
0.9891567605888136
 40
0.9927451054630458
 40
0.9963328051459774
 40
0.9999440120980545
 40
1.0
 40
1.0
 40
1.0
 40
1.0
 10
246.9129437805123
 20
254.2270496815174
 30
0.0
 10
246.907739110491
 20
254.2270165610491
 30
0.0
 10
246.8823915191361
 20
254.2268552589697
 30
0.0
 10
246.8376807247846
 20
254.2277294602809
 30
0.0
 10
246.7788655129322
 20
254.2297833302538
 30
0.0
 10
246.7162431270428
 20
254.2334977996019
 30
0.0
 10
246.6500398202066
 20
254.2392172238825
 30
0.0
 10
246.5806155785772
 20
254.2475271834775
 30
0.0
 10
246.5124876353724
 20
254.2581398044876
 30
0.0
 10
246.4457162073815
 20
254.2711811874016
 30
0.0
 10
246.3803506065418
 20
254.2867589442999
 30
0.0
 10
246.3164163501525
 20
254.3049824048948
 30
0.0
 10
246.2539768576255
 20
254.325971338018
 30
0.0
 10
246.1930820784662
 20
254.3498187102068
 30
0.0
 10
246.1337575208214
 20
254.3766145211717
 30
0.0
 10
246.0760685451064
 20
254.4064773138739
 30
0.0
 10
246.0200567625953
 20
254.4394564273318
 30
0.0
 10
245.970726649373
 20
254.4722846786464
 30
0.0
 10
245.927564303178
 20
254.5040640357339
 30
0.0
 10
245.8900536887561
 20
254.5339650747775
 30
0.0
 10
245.8535192986644
 20
254.565385549502
 30
0.0
 10
245.8139104129999
 20
254.6020019796086
 30
0.0
 10
245.7716652932087
 20
254.644345092573
 30
0.0
 10
245.7272408499922
 20
254.692940577444
 30
0.0
 10
245.6844397524567
 20
254.743806298224
 30
0.0
 10
245.6432346579168
 20
254.796810178948
 30
0.0
 10
245.6035917869457
 20
254.8518130143652
 30
0.0
 10
245.5686762576991
 20
254.9038986629184
 30
0.0
 10
245.5380303132929
 20
254.9524891235704
 30
0.0
 10
245.5023314107708
 20
255.0120494600454
 30
0.0
 10
245.4635195880862
 20
255.081827699945
 30
0.0
 10
245.4223530012665
 20
255.1623308955914
 30
0.0
 10
245.3865918274723
 20
255.2374554379614
 30
0.0
 10
245.3469518722706
 20
255.3267373636743
 30
0.0
 10
245.3045447819094
 20
255.4307664535901
 30
0.0
 10
245.2605711850255
 20
255.549970064312
 30
0.0
 10
245.2201943216007
 20
255.6707361053092
 30
0.0
 10
245.1832893967274
 20
255.7926020301225
 30
0.0
 10
245.1497691801051
 20
255.9149838615592
 30
0.0
 10
245.1195576432399
 20
256.037460223632
 30
0.0
 10
245.0926165736335
 20
256.1594783204334
 30
0.0
 10
245.0715737092338
 20
256.267102548447
 30
0.0
 10
245.0552929825902
 20
256.3602765697707
 30
0.0
 10
245.0428180391554
 20
256.4392997713592
 30
0.0
 10
245.0318411267636
 20
256.5173281152274
 30
0.0
 10
245.0223890121228
 20
256.5941726200228
 30
0.0
 10
245.0145070746808
 20
256.6696160645288
 30
0.0
 10
245.0082382824728
 20
256.7434558155592
 30
0.0
 10
245.0036336193679
 20
256.8154569903926
 30
0.0
 10
245.000762493643
 20
256.8853471387403
 30
0.0
 10
244.9996723395817
 20
256.9540558718974
 30
0.0
 10
245.0005615399122
 20
257.0210910647899
 30
0.0
 10
245.0036438137508
 20
257.0861816019984
 30
0.0
 10
245.008995859318
 20
257.1482042052353
 30
0.0
 10
245.0167253302196
 20
257.2070595487679
 30
0.0
 10
245.0269160220409
 20
257.2626985546804
 30
0.0
 10
245.0396472645099
 20
257.3150865824406
 30
0.0
 10
245.0550141325077
 20
257.3641599389301
 30
0.0
 10
245.0730810552351
 20
257.4099082982669
 30
0.0
 10
245.0939063921588
 20
257.4523310537547
 30
0.0
 10
245.1175654437079
 20
257.4914077588709
 30
0.0
 10
245.1440992870123
 20
257.5271700429607
 30
0.0
 10
245.1732070780506
 20
257.5592869753664
 30
0.0
 10
245.2048266250528
 20
257.5879144574719
 30
0.0
 10
245.2388653417464
 20
257.6132418602366
 30
0.0
 10
245.2756864000573
 20
257.6356578668642
 30
0.0
 10
245.3153143546474
 20
257.6552215427496
 30
0.0
 10
245.3577481936356
 20
257.6720199270122
 30
0.0
 10
245.4029747651557
 20
257.6861426387118
 30
0.0
 10
245.4510012387126
 20
257.6976744790276
 30
0.0
 10
245.5018140767643
 20
257.7067174431049
 30
0.0
 10
245.5553863455075
 20
257.7133763989498
 30
0.0
 10
245.6117122458911
 20
257.717751765577
 30
0.0
 10
245.6707702251688
 20
257.7199518002122
 30
0.0
 10
245.7334548849074
 20
257.7200900833541
 30
0.0
 10
245.7998901838981
 20
257.7181693188899
 30
0.0
 10
245.8701841776038
 20
257.7142074010652
 30
0.0
 10
245.9433386539483
 20
257.7083585791452
 30
0.0
 10
246.0193322216288
 20
257.7007442288268
 30
0.0
 10
246.098133281997
 20
257.6914813386146
 30
0.0
 10
246.1795984842553
 20
257.6807038618039
 30
0.0
 10
246.2636921253564
 20
257.6685337606158
 30
0.0
 10
246.3503713358599
 20
257.6550842783244
 30
0.0
 10
246.4396936268603
 20
257.6404516982614
 30
0.0
 10
246.5316330753985
 20
257.624742851087
 30
0.0
 10
246.6261571805352
 20
257.6080557592903
 30
0.0
 10
246.7150502336276
 20
257.5919706894839
 30
0.0
 10
246.7976269575355
 20
257.5767922430412
 30
0.0
 10
246.873331162445
 20
257.5627337967473
 30
0.0
 10
246.9503663529258
 20
257.5483238269882
 30
0.0
 10
247.0243110835933
 20
257.5344270694141
 30
0.0
 10
247.0948846041268
 20
257.5211364561787
 30
0.0
 10
247.1618715115847
 20
257.5085165171338
 30
0.0
 10
247.2297337456042
 20
257.4957452967503
 30
0.0
 10
247.3062412410711
 20
257.4813811573777
 30
0.0
 10
247.3917385580669
 20
257.4653978594859
 30
0.0
 10
247.4866117972595
 20
257.4477847258906
 30
0.0
 10
247.5830295730196
 20
257.4300437299437
 30
0.0
 10
247.6809727782548
 20
257.4122169856868
 30
0.0
 10
247.780419659134
 20
257.3943424900682
 30
0.0
 10
247.8815117227066
 20
257.3764293052684
 30
0.0
 10
247.9842364863344
 20
257.3585160089499
 30
0.0
 10
248.0885781280749
 20
257.3406377918745
 30
0.0
 10
248.1943483683868
 20
257.3228582020938
 30
0.0
 10
248.3015249470584
 20
257.305212615387
 30
0.0
 10
248.410082430699
 20
257.2877325419529
 30
0.0
 10
248.5108788981994
 20
257.2718829840557
 30
0.0
 10
248.6035535787601
 20
257.2576304202323
 30
0.0
 10
248.6878254511512
 20
257.2449255002526
 30
0.0
 10
248.7727889763135
 20
257.2323801154184
 30
0.0
 10
248.8601163059984
 20
257.2197623021784
 30
0.0
 10
248.9498202771105
 20
257.2070993670997
 30
0.0
 10
249.0419547736836
 20
257.1944139649985
 30
0.0
 10
249.134806420761
 20
257.1819587431475
 30
0.0
 10
249.2391400431678
 20
257.1683381038554
 30
0.0
 10
249.3552130923137
 20
257.1536810275565
 30
0.0
 10
249.4833094073119
 20
257.1381435889239
 30
0.0
 10
249.6126569131083
 20
257.1231075367107
 30
0.0
 10
249.743217294901
 20
257.1086010321666
 30
0.0
 10
249.8749484627717
 20
257.0946475977687
 30
0.0
 10
250.0083902368152
 20
257.0812116397074
 30
0.0
 10
250.1435156887995
 20
257.0683272765022
 30
0.0
 10
250.280291738224
 20
257.0560249202446
 30
0.0
 10
250.4180959103018
 20
257.0443798008801
 30
0.0
 10
250.556881401611
 20
257.033414209031
 30
0.0
 10
250.6965975372823
 20
257.023145675663
 30
0.0
 10
250.8256663456843
 20
257.0143745930256
 30
0.0
 10
250.9438531752247
 20
257.0069214678379
 30
0.0
 10
251.0510179666944
 20
257.0006154765687
 30
0.0
 10
251.1585474804095
 20
256.994743159964
 30
0.0
 10
251.2637794050319
 20
256.9894423830656
 30
0.0
 10
251.3666326820078
 20
256.9846823664402
 30
0.0
 10
251.4670914319692
 20
256.9804288514274
 30
0.0
 10
251.5677815033191
 20
256.9765629721408
 30
0.0
 10
251.6803120952669
 20
256.9726868980934
 30
0.0
 10
251.804715996595
 20
256.9689791708338
 30
0.0
 10
251.9410215452776
 20
256.9656423942257
 30
0.0
 10
252.077677235608
 20
256.9630249715569
 30
0.0
 10
252.2146346171589
 20
256.9611343160817
 30
0.0
 10
252.3518442991355
 20
256.9599741251143
 30
0.0
 10
252.4898576086302
 20
256.9595455470679
 30
0.0
 10
252.6286250731359
 20
256.9598646684034
 30
0.0
 10
252.7680939980984
 20
256.9609438407639
 30
0.0
 10
252.9076200832698
 20
256.9627820345843
 30
0.0
 10
253.0471503648167
 20
256.9653814304169
 30
0.0
 10
253.1866315574146
 20
256.9687401237917
 30
0.0
 10
253.3145833949919
 20
256.9725181882009
 30
0.0
 10
253.4310293229611
 20
256.9765139329687
 30
0.0
 10
253.5360561792061
 20
256.9805502445233
 30
0.0
 10
253.640889489509
 20
256.9850108483938
 30
0.0
 10
253.7433637594081
 20
256.9897925149057
 30
0.0
 10
253.8434452445603
 20
256.9948611715287
 30
0.0
 10
253.9411589527762
 20
257.0001860613037
 30
0.0
 10
254.0386242792238
 20
257.0058723941196
 30
0.0
 10
254.1469442383704
 20
257.0126078329817
 30
0.0
 10
254.2659454245607
 20
257.0205426509799
 30
0.0
 10
254.3954258126677
 20
257.0298405019126
 30
0.0
 10
254.5243937513933
 20
257.0397607325503
 30
0.0
 10
254.652803981729
 20
257.0502941151536
 30
0.0
 10
254.780613088879
 20
257.0614276347072
 30
0.0
 10
254.9081872374039
 20
257.0731853742708
 30
0.0
 10
255.0354731112124
 20
257.0855613203548
 30
0.0
 10
255.1624178160357
 20
257.0985449828117
 30
0.0
 10
255.2885753002108
 20
257.1120797484396
 30
0.0
 10
255.4139010914347
 20
257.1261493869177
 30
0.0
 10
255.5383529500102
 20
257.1407333211602
 30
0.0
 10
255.6517118154427
 20
257.1545684408634
 30
0.0
 10
255.754219936604
 20
257.1675110396453
 30
0.0
 10
255.8461435305662
 20
257.1794463486855
 30
0.0
 10
255.9374416173959
 20
257.1916236030105
 30
0.0
 10
256.0276710987474
 20
257.2039730010769
 30
0.0
 10
256.1168042923244
 20
257.2164764664736
 30
0.0
 10
256.2048591849332
 20
257.2291216656538
 30
0.0
 10
256.2922444323045
 20
257.2419564729372
 30
0.0
 10
256.3888615715956
 20
257.256456413962
 30
0.0
 10
256.4943628546502
 20
257.2726778234796
 30
0.0
 10
256.6083522519891
 20
257.2906670063319
 30
0.0
 10
256.7210870224034
 20
257.3088978703088
 30
0.0
 10
256.8325287815058
 20
257.3273374109404
 30
0.0
 10
256.9426421956976
 20
257.34594745913
 30
0.0
 10
257.0517430686569
 20
257.3647498497789
 30
0.0
 10
257.159777377488
 20
257.3837071303369
 30
0.0
 10
257.2666926905396
 20
257.4027749971092
 30
0.0
 10
257.3721138995205
 20
257.4218482092853
 30
0.0
 10
257.4760033976286
 20
257.4408812024856
 30
0.0
 10
257.5783263865654
 20
257.4598221936247
 30
0.0
 10
257.6707527701527
 20
257.4770711226705
 30
0.0
 10
257.7537067169417
 20
257.492631845314
 30
0.0
 10
257.8276062506914
 20
257.5065344662208
 30
0.0
 10
257.9005104979391
 20
257.5202689763612
 30
0.0
 10
257.9724334018534
 20
257.5338145399219
 30
0.0
 10
258.0433418676782
 20
257.5471414556906
 30
0.0
 10
258.1132405591604
 20
257.5602254732098
 30
0.0
 10
258.1820886574337
 20
257.5730338070085
 30
0.0
 10
258.2576355060692
 20
257.5869688733176
 30
0.0
 10
258.3393708790277
 20
257.6018508048687
 30
0.0
 10
258.4267138763209
 20
257.6174348592684
 30
0.0
 10
258.5121163527484
 20
257.6322745133904
 30
0.0
 10
258.5955361557366
 20
257.6462887964091
 30
0.0
 10
258.6769348008324
 20
257.6593885926154
 30
0.0
 10
258.7565397383891
 20
257.671525585413
 30
0.0
 10
258.8342814179089
 20
257.6825948363822
 30
0.0
 10
258.9100932490062
 20
257.6924805140376
 30
0.0
 10
258.9836972820625
 20
257.7010460879514
 30
0.0
 10
259.0550439697236
 20
257.7081836516467
 30
0.0
 10
259.1240898149863
 20
257.7137782042043
 30
0.0
 10
259.1852989064623
 20
257.7173919106207
 30
0.0
 10
259.2392825160699
 20
257.7193816805331
 30
0.0
 10
259.2866312463492
 20
257.7201144201251
 30
0.0
 10
259.3325519975764
 20
257.7197311484312
 30
0.0
 10
259.3817606549607
 20
257.7180150172745
 30
0.0
 10
259.4336236976314
 20
257.7144186440388
 30
0.0
 10
259.4874330740992
 20
257.7082688893648
 30
0.0
 10
259.5387119813622
 20
257.6997478886952
 30
0.0
 10
259.5874061523045
 20
257.6887174863222
 30
0.0
 10
259.6334789842698
 20
257.6750486130848
 30
0.0
 10
259.6769100450646
 20
257.6586133629567
 30
0.0
 10
259.7176490716175
 20
257.6392708047339
 30
0.0
 10
259.7556697581316
 20
257.6169007342668
 30
0.0
 10
259.7909612361147
 20
257.5913833898516
 30
0.0
 10
259.8234832526071
 20
257.5625849165988
 30
0.0
 10
259.8532264818253
 20
257.5304065359311
 30
0.0
 10
259.8799613490258
 20
257.495058342975
 30
0.0
 10
259.9037517337145
 20
257.4565326374737
 30
0.0
 10
259.9246944812043
 20
257.4148713864892
 30
0.0
 10
259.9430162183243
 20
257.3696866171714
 30
0.0
 10
259.9587202345854
 20
257.3209060053931
 30
0.0
 10
259.9718441904631
 20
257.2685109738438
 30
0.0
 10
259.9824328577625
 20
257.2124877215876
 30
0.0
 10
259.9905164037641
 20
257.1528064395044
 30
0.0
 10
259.9961568286361
 20
257.0894861136733
 30
0.0
 10
259.9994201696065
 20
257.0225883562023
 30
0.0
 10
260.000367540303
 20
256.9520452692653
 30
0.0
 10
259.9990755449703
 20
256.8780697666306
 30
0.0
 10
259.9959313584591
 20
256.807873962422
 30
0.0
 10
259.9916047091123
 20
256.7425171910031
 30
0.0
 10
259.9866338470154
 20
256.6827748010338
 30
0.0
 10
259.9805882886294
 20
256.6218642794519
 30
0.0
 10
259.9726922327339
 20
256.5529568383848
 30
0.0
 10
259.9625279325323
 20
256.4757953790905
 30
0.0
 10
259.9496286248938
 20
256.3901882825853
 30
0.0
 10
259.9349438018659
 20
256.3033797298575
 30
0.0
 10
259.9184972705796
 20
256.2156010809938
 30
0.0
 10
259.9002874997945
 20
256.1270596775769
 30
0.0
 10
259.8770004782531
 20
256.0231845035296
 30
0.0
 10
259.847470419919
 20
255.9039877920507
 30
0.0
 10
259.8143567140031
 20
255.784757131343
 30
0.0
 10
259.7827067344648
 20
255.6808186268526
 30
0.0
 10
259.7536836582118
 20
255.5921716698022
 30
0.0
 10
259.7227249895732
 20
255.5042030792546
 30
0.0
 10
259.6897793278475
 20
255.4171176177091
 30
0.0
 10
259.6547710051184
 20
255.3311359301082
 30
0.0
 10
259.6175979635407
 20
255.2464210816818
 30
0.0
 10
259.5781796304986
 20
255.1632096079469
 30
0.0
 10
259.5364134843608
 20
255.0817636536065
 30
0.0
 10
259.4942132736808
 20
255.0059633305295
 30
0.0
 10
259.4518616324469
 20
254.9357287245521
 30
0.0
 10
259.4096410344472
 20
254.8709138116922
 30
0.0
 10
259.3653365519625
 20
254.8081683321825
 30
0.0
 10
259.3188701568662
 20
254.7477161684347
 30
0.0
 10
259.2701672225315
 20
254.6897849427831
 30
0.0
 10
259.2191223591096
 20
254.6345580919447
 30
0.0
 10
259.1656567404703
 20
254.5822970745944
 30
0.0
 10
259.1097115767663
 20
254.5332460405365
 30
0.0
 10
259.0511956315657
 20
254.4875825452558
 30
0.0
 10
258.9900343250647
 20
254.4456508250236
 30
0.0
 10
258.9262279664114
 20
254.4075528326057
 30
0.0
 10
258.8604902593786
 20
254.3736612116163
 30
0.0
 10
258.7929135582889
 20
254.3438599903555
 30
0.0
 10
258.7236277625935
 20
254.3179084578068
 30
0.0
 10
258.6519850360045
 20
254.2954272769322
 30
0.0
 10
258.5780148091504
 20
254.2763473878146
 30
0.0
 10
258.5017700306282
 20
254.2605554693811
 30
0.0
 10
258.4233433635115
 20
254.2479261715977
 30
0.0
 10
258.3427570813487
 20
254.2383702967691
 30
0.0
 10
258.2601361879754
 20
254.2316476107883
 30
0.0
 10
258.1753136676841
 20
254.2279805141189
 30
0.0
 10
258.1175911800433
 20
254.2265485868118
 30
0.0
 10
258.0876279105892
 20
254.2269513314163
 30
0.0
 10
258.0871704545065
 20
254.2269574802102
 30
0.0
  0
SPLINE
  5
AB
330
1F
100
AcDbEntity
  8
0
  6
Continuous
 62
     7
370
    30
100
AcDbSpline
210
0.0
220
0.0
230
1.0
 70
     8
 71
     3
 72
    78
 73
    74
 74
     0
 42
0.000000001
 43
0.00000001
 40
0.0
 40
0.0
 40
0.0
 40
0.0
 40
0.009926552867724
 40
0.0198531053100874
 40
0.029796047848255
 40
0.0397389890995241
 40
0.0530731336668235
 40
0.0664097671700934
 40
0.0797438825592593
 40
0.0931697794188423
 40
0.1065982584639109
 40
0.1200241059916767
 40
0.1301570730461387
 40
0.1402900343880908
 40
0.1504414443289638
 40
0.1605928480033464
 40
0.176608872850256
 40
0.1926436156660007
 40
0.2086823017627571
 40
0.2247209526442625
 40
0.2408378241085313
 40
0.2569546736254559
 40
0.2730485613252625
 40
0.2891424504107103
 40
0.3053165236134167
 40
0.3214906294389804
 40
0.3311132625939037
 40
0.3407359032802652
 40
0.3503749505454787
 40
0.3600140079358592
 40
0.3729402910726346
 40
0.385868959415563
 40
0.3987953951904493
 40
0.4118027305953184
 40
0.424812289028788
 40
0.4378198168935949
 40
0.4476249202594961
 40
0.4574300425015359
 40
0.4672480899624286
 40
0.4770661564494447
 40
0.4955243480605108
 40
0.5139827676114334
 40
0.5325112447870125
 40
0.5510399266545399
 40
0.5696383849068367
 40
0.5882370131923093
 40
0.6068887118408853
 40
0.6255405385040217
 40
0.6442484726664266
 40
0.6629564887575442
 40
0.6817078127171341
 40
0.7004591685563375
 40
0.7170697898061781
 40
0.7336803988845458
 40
0.750320435976171
 40
0.7669604272877762
 40
0.7835709298457908
 40
0.8001813487284757
 40
0.8168270648163533
 40
0.8334726512388076
 40
0.8500822507331331
 40
0.8666916688490053
 40
0.8833508793745741
 40
0.900009845046475
 40
0.9166864957376035
 40
0.9333801159295988
 40
0.9432608195976704
 40
0.9531415093416938
 40
0.9630377699037495
 40
0.9729340177038407
 40
0.9862044439008606
 40
0.9994773491253462
 40
1.0
 40
1.0
 40
1.0
 40
1.0
 10
252.5
 20
254.449869560929
 30
0.0
 10
252.5237339383454
 20
254.4499182424377
 30
0.0
 10
252.5712018140192
 20
254.4500156054532
 30
0.0
 10
252.6424135081271
 20
254.450804961492
 30
0.0
 10
252.7136057819131
 20
254.4520685229543
 30
0.0
 10
252.7928367311592
 20
254.4540615281902
 30
0.0
 10
252.8799944272288
 20
254.457002088776
 30
0.0
 10
252.9749406004628
 20
254.4611717221119
 30
0.0
 10
253.0697486938945
 20
254.4663313745612
 30
0.0
 10
253.1643421136235
 20
254.4725139559052
 30
0.0
 10
253.2586432192684
 20
254.4797622497568
 30
0.0
 10
253.344700466351
 20
254.4874162518901
 30
0.0
 10
253.4226041835954
 20
254.4952137312869
 30
0.0
 10
253.492528832864
 20
254.5029130637568
 30
0.0
 10
253.5620539268201
 20
254.5112962010072
 30
0.0
 10
253.6444499034295
 20
254.522133681552
 30
0.0
 10
253.7392888212518
 20
254.5360117399854
 30
0.0
 10
253.8459568094232
 20
254.5536955637787
 30
0.0
 10
253.9511421574684
 20
254.5733387639064
 30
0.0
 10
254.0548438034882
 20
254.5950408208597
 30
0.0
 10
254.1569114443863
 20
254.6188863253088
 30
0.0
 10
254.2571663285121
 20
254.6449309121114
 30
0.0
 10
254.3553197999763
 20
254.6731930229565
 30
0.0
 10
254.4514267920981
 20
254.7037527365511
 30
0.0
 10
254.5454072805422
 20
254.7366748653988
 30
0.0
 10
254.6247699370194
 20
254.7672122942098
 30
0.0
 10
254.6902965349782
 20
254.7943409279516
 30
0.0
 10
254.7428404244494
 20
254.8172862789589
 30
0.0
 10
254.7945031756636
 20
254.8410649983988
 30
0.0
 10
254.8510418174262
 20
254.8684672162401
 30
0.0
 10
254.9120089126671
 20
254.8998301841136
 30
0.0
 10
254.9769142797072
 20
254.935519734117
 30
0.0
 10
255.0402258681558
 20
254.9726776327486
 30
0.0
 10
255.1019119027147
 20
255.0112856750885
 30
0.0
 10
255.1619568670282
 20
255.0513046236965
 30
0.0
 10
255.2154473299398
 20
255.0892202238267
 30
0.0
 10
255.2628510516431
 20
255.1246531162731
 30
0.0
 10
255.30461473281
 20
255.1573018923847
 30
0.0
 10
255.3453934198764
 20
255.1906244925664
 30
0.0
 10
255.3968645784733
 20
255.2345615413053
 30
0.0
 10
255.4577414118519
 20
255.2898645432848
 30
0.0
 10
255.5264926474327
 20
255.357461755484
 30
0.0
 10
255.5919027771158
 20
255.4269716391352
 30
0.0
 10
255.6540971971204
 20
255.4983065246352
 30
0.0
 10
255.7130429693298
 20
255.5712111525183
 30
0.0
 10
255.7688444388961
 20
255.6455767436242
 30
0.0
 10
255.8214830470904
 20
255.7211387263502
 30
0.0
 10
255.8710578764819
 20
255.7977931209951
 30
0.0
 10
255.9175672151418
 20
255.8752930293365
 30
0.0
 10
255.9610812553347
 20
255.9535173080259
 30
0.0
 10
256.0015908716508
 20
256.0322095241565
 30
0.0
 10
256.0376895314892
 20
256.1081790037619
 30
0.0
 10
256.0697569141152
 20
256.1811744228932
 30
0.0
 10
256.098181097039
 20
256.2510994895343
 30
0.0
 10
256.1242815289597
 20
256.3208259491498
 30
0.0
 10
256.1480293143968
 20
256.3901706552605
 30
0.0
 10
256.1694010433278
 20
256.458949625036
 30
0.0
 10
256.18838777784
 20
256.5270602604638
 30
0.0
 10
256.2049654520536
 20
256.5943851821427
 30
0.0
 10
256.2190718512267
 20
256.6607067556243
 30
0.0
 10
256.2306513803316
 20
256.7258061192941
 30
0.0
 10
256.2396546184759
 20
256.7895651556203
 30
0.0
 10
256.246011010701
 20
256.8518309699887
 30
0.0
 10
256.2496288985217
 20
256.9124145461992
 30
0.0
 10
256.2504092004284
 20
256.9710446087386
 30
0.0
 10
256.2485402369189
 20
257.0198348714108
 30
0.0
 10
256.2451994233302
 20
257.0596541292375
 30
0.0
 10
256.2413980394132
 20
257.0912503223877
 30
0.0
 10
256.2364757347834
 20
257.1220410753881
 30
0.0
 10
256.2297844752554
 20
257.1554653948801
 30
0.0
 10
256.2205367664377
 20
257.1909402455737
 30
0.0
 10
256.2128806024244
 20
257.2167149334633
 30
0.0
 10
256.2079716728809
 20
257.2291291536685
 30
0.0
 10
256.2077856958677
 20
257.2295994720088
 30
0.0
  0
SPLINE
  5
AC
330
1F
100
AcDbEntity
  8
0
  6
Continuous
 62
     7
370
    30
100
AcDbSpline
210
0.0
220
0.0
230
1.0
 70
     8
 71
     3
 72
    83
 73
    79
 74
     0
 42
0.000000001
 43
0.00000001
 40
0.0
 40
0.0
 40
0.0
 40
0.0
 40
0.0025329101442854
 40
0.0156010578153078
 40
0.0286668460752928
 40
0.0418182075910472
 40
0.0549719367578441
 40
0.0681234456066101
 40
0.0780409199926101
 40
0.0879584096160964
 40
0.0978901748094586
 40
0.1078219756118722
 40
0.1222026323958188
 40
0.1365834192562876
 40
0.1509972029158893
 40
0.165411088421735
 40
0.179875738420161
 40
0.1943404651712952
 40
0.2088297736974121
 40
0.2233191362453868
 40
0.2378626058200412
 40
0.2524061097123574
 40
0.266970059363433
 40
0.2815340253567441
 40
0.296140444880483
 40
0.3107468643760942
 40
0.3253730068390855
 40
0.3399991338539075
 40
0.3573641705561889
 40
0.3747291448843429
 40
0.3921312150279115
 40
0.4095331890801793
 40
0.4269174342186532
 40
0.4443015524893099
 40
0.4617332928017133
 40
0.479164876830302
 40
0.4965761426401071
 40
0.513987231485345
 40
0.5314619782613972
 40
0.5489365344982419
 40
0.566440294682738
 40
0.5839636604489113
 40
0.5937396048893988
 40
0.6035155325403506
 40
0.6133067502904317
 40
0.6230979528790108
 40
0.6362275122066005
 40
0.6493595320310851
 40
0.6624889592663112
 40
0.6757123086444609
 40
0.6889383369702057
 40
0.7021616148671018
 40
0.7121452472133959
 40
0.7221288773884377
 40
0.7321315981629651
 40
0.7421343193891302
 40
0.7519133919099824
 40
0.7616924668184967
 40
0.7714893723531197
 40
0.7812862817893429
 40
0.7944312216352947
 40
0.8075788259206925
 40
0.8207238248973621
 40
0.8339635920023993
 40
0.847206001695467
 40
0.8604458333224501
 40
0.8704382511763001
 40
0.8804306744156385
 40
0.8904405801394225
 40
0.9004504906077377
 40
0.9128453558782168
 40
0.9252402301865242
 40
0.9376676507891629
 40
0.9500950779672539
 40
0.9625550431568902
 40
0.975015012336216
 40
0.9875075054968008
 40
0.9999999999999999
 40
0.9999999999999999
 40
0.9999999999999999
 40
0.9999999999999999
 10
248.7923658719167
 20
257.2295967006959
 30
0.0
 10
248.7914786494249
 20
257.2273072279385
 30
0.0
 10
248.786013943375
 20
257.2132055840507
 30
0.0
 10
248.7779869329688
 20
257.1858449824717
 30
0.0
 10
248.768330467429
 20
257.1473712030911
 30
0.0
 10
248.7608458844462
 20
257.1072139194269
 30
0.0
 10
248.7552683640034
 20
257.065558953273
 30
0.0
 10
248.7519320036467
 20
257.0260045491861
 30
0.0
 10
248.7502744045571
 20
256.9889633044737
 30
0.0
 10
248.7498305472216
 20
256.9547580393542
 30
0.0
 10
248.7504185570285
 20
256.9197712929273
 30
0.0
 10
248.7522584285008
 20
256.8787188026888
 30
0.0
 10
248.7559149807079
 20
256.8312680018666
 30
0.0
 10
248.7620220962056
 20
256.7770552344462
 30
0.0
 10
248.7701124793921
 20
256.7216641181028
 30
0.0
 10
248.7801583168969
 20
256.6651513349841
 30
0.0
 10
248.792119085338
 20
256.6076762539069
 30
0.0
 10
248.8059763797844
 20
256.5493174184994
 30
0.0
 10
248.8216881996208
 20
256.4902522576256
 30
0.0
 10
248.839256958961
 20
256.430510861128
 30
0.0
 10
248.8586606348781
 20
256.3702276476685
 30
0.0
 10
248.8799044160263
 20
256.3094708583122
 30
0.0
 10
248.9029563098988
 20
256.2484119313424
 30
0.0
 10
248.9278407181334
 20
256.1870839068489
 30
0.0
 10
248.9545517716016
 20
256.1256072807808
 30
0.0
 10
248.983114893519
 20
256.0640436659282
 30
0.0
 10
249.0135147688937
 20
256.0025423788791
 30
0.0
 10
249.0477822134034
 20
255.9373615468139
 30
0.0
 10
249.0863466704268
 20
255.868677460418
 30
0.0
 10
249.1297350685471
 20
255.7966496932204
 30
0.0
 10
249.1758528236536
 20
255.7252382040214
 30
0.0
 10
249.2247377886895
 20
255.6546133829687
 30
0.0
 10
249.2764024401414
 20
255.5849743982352
 30
0.0
 10
249.3309467249912
 20
255.5164023383686
 30
0.0
 10
249.3884511488663
 20
255.4490288734155
 30
0.0
 10
249.4489553768679
 20
255.3830292881194
 30
0.0
 10
249.5124563114024
 20
255.3186165766014
 30
0.0
 10
249.5790773156364
 20
255.2558537259147
 30
0.0
 10
249.6489016070413
 20
255.1948742247805
 30
0.0
 10
249.7220147573651
 20
255.1357875612159
 30
0.0
 10
249.7983937557684
 20
255.0787915263238
 30
0.0
 10
249.8663168873658
 20
255.0320915291796
 30
0.0
 10
249.9242888761289
 20
254.9947642370431
 30
0.0
 10
249.971169856658
 20
254.9659843443685
 30
0.0
 10
250.0190720055145
 20
254.9379719261724
 30
0.0
 10
250.073549376329
 20
254.9076473759952
 30
0.0
 10
250.1350081586976
 20
254.8753949515968
 30
0.0
 10
250.2039021431197
 20
254.8416426925416
 30
0.0
 10
250.2746798322681
 20
254.8093210365977
 30
0.0
 10
250.3473275822419
 20
254.7784680056076
 30
0.0
 10
250.4218110283009
 20
254.7490959084805
 30
0.0
 10
250.4916984074383
 20
254.723552117066
 30
0.0
 10
250.5565175752218
 20
254.7014268264321
 30
0.0
 10
250.6159170700479
 20
254.6823293347571
 30
0.0
 10
250.6762014077418
 20
254.6640976625738
 30
0.0
 10
250.7368893084633
 20
254.6468531552594
 30
0.0
 10
250.7978949946004
 20
254.630576102347
 30
0.0
 10
250.8592078833979
 20
254.6152226720997
 30
0.0
 10
250.9212645131467
 20
254.6006598119244
 30
0.0
 10
250.9911874263376
 20
254.5853038221
 30
0.0
 10
251.0692047480491
 20
254.5694866027959
 30
0.0
 10
251.155558132501
 20
254.5535514696783
 30
0.0
 10
251.2431492321997
 20
254.5388896020509
 30
0.0
 10
251.3319167756037
 20
254.5254718119029
 30
0.0
 10
251.4217919271121
 20
254.513262634269
 30
0.0
 10
251.5050750181288
 20
254.5031511621388
 30
0.0
 10
251.5814857069564
 20
254.4947885779545
 30
0.0
 10
251.6508634998522
 20
254.4878792459538
 30
0.0
 10
251.7206462452602
 20
254.4815899572353
 30
0.0
 10
251.7963746361754
 20
254.4754544343578
 30
0.0
 10
251.8780684771969
 20
254.4696365366122
 30
0.0
 10
251.9658420296323
 20
254.4642986484591
 30
0.0
 10
252.0540400240596
 20
254.4598168525898
 30
0.0
 10
252.1426818433582
 20
254.4561722338203
 30
0.0
 10
252.231633251084
 20
254.4533473748815
 30
0.0
 10
252.3209140019445
 20
254.4513499911518
 30
0.0
 10
252.4103889785619
 20
254.4501007685192
 30
0.0
 10
252.4701296584506
 20
254.4499466301284
 30
0.0
 10
252.5
 20
254.4498695609289
 30
0.0
  0
LINE
  5
AD
330
1F
100
AcDbEntity
  8
0
  6
Continuous
 62
     8
370
     0
100
AcDbLine
 10
264.1273953247
 20
186.6124838475
 30
0.0
 11
240.8726046753
 21
186.6124838475
 31
0.0
  0
LINE
  5
AE
330
1F
100
AcDbEntity
  8
0
  6
Continuous
 62
     8
370
     0
100
AcDbLine
 10
242.1292713419
 20
215.6124838475
 30
0.0
 11
262.8707286581
 21
215.6124838475
 31
0.0
  0
LINE
  5
AF
330
1F
100
AcDbEntity
  8
0
  6
Continuous
 62
     8
370
     0
100
AcDbLine
 10
252.5
 20
309.3875161525
 30
0.0
 11
240.8726046753
 21
309.3875161525
 31
0.0
  0
LINE
  5
B0
330
1F
100
AcDbEntity
  8
0
  6
Continuous
 62
     8
370
     0
100
AcDbLine
 10
264.1273953247
 20
309.3875161525
 30
0.0
 11
252.5
 21
309.3875161525
 31
0.0
  0
LINE
  5
B1
330
1F
100
AcDbEntity
  8
0
  6
Continuous
 62
     8
370
     0
100
AcDbLine
 10
252.5
 20
280.3875161525
 30
0.0
 11
262.8707286581
 21
280.3875161525
 31
0.0
  0
LINE
  5
B2
330
1F
100
AcDbEntity
  8
0
  6
Continuous
 62
     8
370
     0
100
AcDbLine
 10
242.1292713419
 20
280.3875161525
 30
0.0
 11
252.5
 21
280.3875161525
 31
0.0
  0
LINE
  5
B3
330
1F
100
AcDbEntity
  8
0
  6
Continuous
 62
     7
370
    30
100
AcDbLine
 10
46.0
 20
216.0908374948
 30
0.0
 11
46.0
 21
239.0431760028
 31
0.0
  0
LINE
  5
B4
330
1F
100
AcDbEntity
  8
0
  6
Continuous
 62
     7
370
    30
100
AcDbLine
 10
31.0
 20
239.0430490783
 30
0.0
 11
31.0
 21
216.0908374948
 31
0.0
  0
LINE
  5
B5
330
1F
100
AcDbEntity
  8
0
  6
Continuous
 62
     7
370
    30
100
AcDbLine
 10
44.0870768609
 20
241.7730610909
 30
0.0
 11
32.9131250273
 21
241.7730610909
 31
0.0
  0
ARC
  5
B6
330
1F
100
AcDbEntity
  8
0
  6
Continuous
 62
     7
370
    30
100
AcDbCircle
 10
49.6278641091
 20
186.5908374948
 30
0.0
 40
0.5
100
AcDbArc
 50
270.0
 51
2.4812648012
  0
ARC
  5
B7
330
1F
100
AcDbEntity
  8
0
  6
Continuous
 62
     7
370
    30
100
AcDbCircle
 10
27.3721358909
 20
186.5908374948
 30
0.0
 40
0.500000000000001
100
AcDbArc
 50
177.5187351988
 51
270.0
  0
LINE
  5
B8
330
1F
100
AcDbEntity
  8
0
  6
Continuous
 62
     7
370
    30
100
AcDbLine
 10
50.1273953247
 20
186.6124838475
 30
0.0
 11
48.8707286581
 21
215.6124838475
 31
0.0
  0
LINE
  5
B9
330
1F
100
AcDbEntity
  8
0
  6
Continuous
 62
     7
370
    30
100
AcDbLine
 10
28.1292713419
 20
215.6124838475
 30
0.0
 11
26.8726046753
 21
186.6124838475
 31
0.0
  0
ARC
  5
BA
330
1F
100
AcDbEntity
  8
0
  6
Continuous
 62
     7
370
    30
100
AcDbCircle
 10
28.6288025576
 20
215.5908374948
 30
0.0
 40
0.5
100
AcDbArc
 50
90.0
 51
177.5187351988
  0
ARC
  5
BB
330
1F
100
AcDbEntity
  8
0
  6
Continuous
 62
     7
370
    30
100
AcDbCircle
 10
48.3711974424
 20
215.5908374948
 30
0.0
 40
0.5000000000000012
100
AcDbArc
 50
2.4812648012
 51
90.0
  0
ARC
  5
BC
330
1F
100
AcDbEntity
  8
0
  6
Continuous
 62
     7
370
    30
100
AcDbCircle
 10
27.3721358909
 20
309.4091625052
 30
0.0
 40
0.5
100
AcDbArc
 50
90.0
 51
182.4812648012
  0
ARC
  5
BD
330
1F
100
AcDbEntity
  8
0
  6
Continuous
 62
     7
370
    30
100
AcDbCircle
 10
49.6278641091
 20
309.4091625052
 30
0.0
 40
0.5
100
AcDbArc
 50
357.5187351988
 51
90.0
  0
LINE
  5
BE
330
1F
100
AcDbEntity
  8
0
  6
Continuous
 62
     7
370
    30
100
AcDbLine
 10
26.8726046753
 20
309.3875161525
 30
0.0
 11
28.1292713419
 21
280.3875161525
 31
0.0
  0
LINE
  5
BF
330
1F
100
AcDbEntity
  8
0
  6
Continuous
 62
     7
370
    30
100
AcDbLine
 10
48.8707286581
 20
280.3875161525
 30
0.0
 11
50.1273953247
 21
309.3875161525
 31
0.0
  0
ARC
  5
C0
330
1F
100
AcDbEntity
  8
0
  6
Continuous
 62
     7
370
    30
100
AcDbCircle
 10
48.3711974424
 20
280.4091625052
 30
0.0
 40
0.5
100
AcDbArc
 50
270.0
 51
357.5187351988
  0
ARC
  5
C1
330
1F
100
AcDbEntity
  8
0
  6
Continuous
 62
     7
370
    30
100
AcDbCircle
 10
28.6288025576
 20
280.4091625052
 30
0.0
 40
0.5
100
AcDbArc
 50
182.4812648012
 51
270.0
  0
LINE
  5
C2
330
1F
100
AcDbEntity
  8
0
  6
Continuous
 62
     7
370
    30
100
AcDbLine
 10
32.9130034948
 20
254.2269389091
 30
0.0
 11
44.0868746554
 21
254.2269389091
 31
0.0
  0
LINE
  5
C3
330
1F
100
AcDbEntity
  8
0
  6
Continuous
 62
     7
370
    30
100
AcDbLine
 10
31.0
 20
279.9091625052
 30
0.0
 11
31.0
 21
256.9568240049
 31
0.0
  0
LINE
  5
C4
330
1F
100
AcDbEntity
  8
0
  6
Continuous
 62
     7
370
    30
100
AcDbLine
 10
46.0
 20
256.9569509213
 30
0.0
 11
46.0
 21
279.9091625052
 31
0.0
  0
SPLINE
  5
C5
330
1F
100
AcDbEntity
  8
0
  6
Continuous
 62
     7
370
    30
100
AcDbSpline
210
0.0
220
0.0
230
1.0
 70
     8
 71
     3
 72
   284
 73
   280
 74
     0
 42
0.000000001
 43
0.00000001
 40
0.0
 40
0.0
 40
0.0
 40
0.0
 40
0.0014713594654352
 40
0.0047775158281104
 40
0.0080831461332309
 40
0.0103953479009715
 40
0.0127075439152924
 40
0.0150229351053805
 40
0.0173383202326415
 40
0.0204415230105408
 40
0.0235452667158945
 40
0.0266483998346033
 40
0.0297736663006937
 40
0.032899576968745
 40
0.0360247791449827
 40
0.038385438692039
 40
0.0407460935383774
 40
0.0431118814263734
 40
0.045477671951859
 40
0.04778718307333
 40
0.0500967039003858
 40
0.0524105287703074
 40
0.0547243637524977
 40
0.0578270822982207
 40
0.0609303541794505
 40
0.0640331826316943
 40
0.0671521397447277
 40
0.0702715168451605
 40
0.073390568922192
 40
0.0757377932948239
 40
0.0780850248778282
 40
0.0827830552317505
 40
0.0855312736509478
 40
0.0882795017958513
 40
0.0910297122927652
 40
0.0937799306194544
 40
0.0992941745734254
 40
0.1048085042663092
 40
0.1103316885927702
 40
0.115854912985794
 40
0.1213912823099587
 40
0.1269276502638037
 40
0.132470616015646
 40
0.138013536101997
 40
0.1417188411410173
 40
0.1454243177043968
 40
0.1491295523383183
 40
0.1528436562534651
 40
0.1565580305718525
 40
0.1602720099442568
 40
0.163068050797859
 40
0.1658640753220239
 40
0.1686636634423809
 40
0.1714632312039269
 40
0.174416779774192
 40
0.1773703237166958
 40
0.1803295692145244
 40
0.1832888113225848
 40
0.1872618155478707
 40
0.1912357198268234
 40
0.1952087078678545
 40
0.1992148836499592
 40
0.2032219989622305
 40
0.2072281899305734
 40
0.2102551596330995
 40
0.2132821327165829
 40
0.2163153155587939
 40
0.2193485028644769
 40
0.2222969817064598
 40
0.2252454652371542
 40
0.2281992724837517
 40
0.231153084922707
 40
0.2351151576370773
 40
0.2390779862376961
 40
0.2430401211044521
 40
0.2470274498416983
 40
0.251015467125721
 40
0.2550028574050081
 40
0.2580086803956514
 40
0.2610145085919012
 40
0.2640243614993084
 40
0.2670342192267335
 40
0.2705382311818049
 40
0.2740426109517135
 40
0.2775466498828275
 40
0.2810630469304071
 40
0.2845797813482451
 40
0.2880962005162632
 40
0.2916253571398751
 40
0.2951548267655201
 40
0.2986840008476369
 40
0.3022238847570444
 40
0.3057640625275561
 40
0.3093039596450816
 40
0.312855343290719
 40
0.3164070070945026
 40
0.3199584002723785
 40
0.3235195931949996
 40
0.3270810567344625
 40
0.3306422560741303
 40
0.3342051317626732
 40
0.3377682705947868
 40
0.3413311501026417
 40
0.3449034139928924
 40
0.3484759384903587
 40
0.3520482041503322
 40
0.3556309596860124
 40
0.3592139760981705
 40
0.3627967317847189
 40
0.3663889186099487
 40
0.3699813683859956
 40
0.3735735541171219
 40
0.3771764228280085
 40
0.3807795584159669
 40
0.3843824251122314
 40
0.3879950161768069
 40
0.3916078790064976
 40
0.3952204674217206
 40
0.3990841727420555
 40
0.4029482148313364
 40
0.4068119162117078
 40
0.4106879460397313
 40
0.4145643210374493
 40
0.4184403466996222
 40
0.4223618744061279
 40
0.426283765147361
 40
0.4302052885880558
 40
0.4341401045148617
 40
0.4380752926954876
 40
0.4420101046338564
 40
0.4459917393036295
 40
0.4499737649376828
 40
0.4539553959750434
 40
0.4579513104108923
 40
0.4619476246687752
 40
0.4659435361323401
 40
0.4693466397827241
 40
0.4727497430820044
 40
0.4761568520482309
 40
0.4795639607362474
 40
0.4841114716431511
 40
0.4886595817517503
 40
0.4932070908707883
 40
0.4977763936712526
 40
0.5023463064099162
 40
0.5069156092183195
 40
0.5114840859628351
 40
0.5160531720386896
 40
0.5206216506239614
 40
0.5252121606135186
 40
0.5298032861261401
 40
0.5343937997885417
 40
0.5380760083354375
 40
0.541758531990884
 40
0.545440742674811
 40
0.5491342742427673
 40
0.5528281209844165
 40
0.5565216552011847
 40
0.5602278431785102
 40
0.5639343460714558
 40
0.5676405371338209
 40
0.5713580083688614
 40
0.5750757933472209
 40
0.5787932679856783
 40
0.5825233289272592
 40
0.5862537023547537
 40
0.5899837668691342
 40
0.5937250068413388
 40
0.5974665574727173
 40
0.6012078009804771
 40
0.6049674730311393
 40
0.6087274557647485
 40
0.6124871310816558
 40
0.6162579293893914
 40
0.6200290369752492
 40
0.6237998379266461
 40
0.627583065296835
 40
0.631366601698937
 40
0.6351498306886411
 40
0.6389441852019737
 40
0.6427388495647183
 40
0.6465332041711094
 40
0.6503401121922218
 40
0.6541473332914198
 40
0.6579542392633576
 40
0.6617725545622387
 40
0.6655911887834272
 40
0.6694094991387852
 40
0.6733057332376194
 40
0.6772023134642232
 40
0.681098538151101
 40
0.6850076460502765
 40
0.6889171164316411
 40
0.6928262095559088
 40
0.6967511094755509
 40
0.7006763964049241
 40
0.7046012747372301
 40
0.7085409711746773
 40
0.7124810881984207
 40
0.7164207547632475
 40
0.7203789229662088
 40
0.7243375579995622
 40
0.7282956865944841
 40
0.7322721958241546
 40
0.7362492315811737
 40
0.740225690801171
 40
0.7432032650763573
 40
0.746180834265929
 40
0.7491625531790621
 40
0.7521442666621467
 40
0.7561404064864926
 40
0.7601372249187465
 40
0.7641333004964811
 40
0.7681563342901577
 40
0.7721801453783395
 40
0.7762031157389062
 40
0.7792404519603541
 40
0.7822777830801371
 40
0.7853211869996887
 40
0.7883645866583814
 40
0.7913479334505733
 40
0.794331277349836
 40
0.7973207187015682
 40
0.800310158373246
 40
0.8043249053269161
 40
0.808340596870835
 40
0.8123553486222854
 40
0.8164041464620109
 40
0.820453901808417
 40
0.8245027379123562
 40
0.827561343621812
 40
0.8306199633695689
 40
0.8336842100114585
 40
0.8367484834199357
 40
0.8396883438567411
 40
0.8426282221164074
 40
0.8455711328861458
 40
0.8485140574870955
 40
0.852483707301314
 40
0.8564536845382092
 40
0.8604234378296951
 40
0.8663905181663507
 40
0.8723576666158346
 40
0.8784517803771325
 40
0.8845458970516816
 40
0.888614462413686
 40
0.8926831934450852
 40
0.8967517135812965
 40
0.9008917923118652
 40
0.9050321143832201
 40
0.9091720860340298
 40
0.913324904323374
 40
0.9174781169309373
 40
0.9216307513548535
 40
0.9251500824169355
 40
0.9286698024916533
 40
0.932188995998898
 40
0.9357273668178168
 40
0.9392663193964674
 40
0.9428045123676455
 40
0.946369939205571
 40
0.9499362010765297
 40
0.9535014296312505
 40
0.957103521892588
 40
0.9607067573423018
 40
0.9643088711380662
 40
0.9671307430066541
 40
0.9699531349237595
 40
0.9727750494425886
 40
0.9756142571660646
 40
0.9784539373481266
 40
0.9812931937620925
 40
0.9841537120359038
 40
0.9870146490489792
 40
0.989875216449441
 40
0.9927491925612145
 40
0.9956235296643167
 40
0.9984975506669947
 40
1.0
 40
1.0
 40
1.0
 40
1.0
 10
32.91312502729854
 20
241.7728054988401
 30
0.0
 10
32.90117592620255
 20
241.7728638569084
 30
0.0
 10
32.86237710038274
 20
241.773053346018
 30
0.0
 10
32.79827236674445
 20
241.7711379384373
 30
0.0
 10
32.72856878185643
 20
241.7673980506212
 30
0.0
 10
32.66775320195516
 20
241.7623563724245
 30
0.0
 10
32.61529556314077
 20
241.7567506409997
 30
0.0
 10
32.5636136684391
 20
241.7498795165673
 30
0.0
 10
32.50694936333806
 20
241.7407784835401
 30
0.0
 10
32.44570601655849
 20
241.7288166664465
 30
0.0
 10
32.38034107620803
 20
241.7132385320375
 30
0.0
 10
32.31640707057473
 20
241.6950147746126
 30
0.0
 10
32.25396772688251
 20
241.6740251576334
 30
0.0
 10
32.19307278941903
 20
241.6501781070993
 30
0.0
 10
32.13873444570177
 20
241.6256307984073
 30
0.0
 10
32.09053121617453
 20
241.6010981305047
 30
0.0
 10
32.0480185259192
 20
241.577241390692
 30
0.0
 10
32.00651961707415
 20
241.5516357941707
 30
0.0
 10
31.96636554803527
 20
241.524501334881
 30
0.0
 10
31.92756141157008
 20
241.4959346228613
 30
0.0
 10
31.89004856294535
 20
241.4660305087646
 30
0.0
 10
31.85351171870809
 20
241.4346078028934
 30
0.0
 10
31.81390145446769
 20
241.3979893819737
 30
0.0
 10
31.77165583975061
 20
241.355645009235
 30
0.0
 10
31.72723173073219
 20
241.3070490163983
 30
0.0
 10
31.68443096074797
 20
241.2561828253663
 30
0.0
 10
31.64322619020402
 20
241.203178502276
 30
0.0
 10
31.60358363542278
 20
241.1481752544407
 30
0.0
 10
31.56866906750453
 20
241.0960902551625
 30
0.0
 10
31.53802461955109
 20
241.0475015788584
 30
0.0
 10
31.50232848470624
 20
240.9879452220653
 30
0.0
 10
31.46685143818612
 20
240.9241630457902
 30
0.0
 10
31.43175681024569
 20
240.8561719768733
 30
0.0
 10
31.40443360418289
 20
240.8002971766808
 30
0.0
 10
31.37814204568935
 20
240.7436143500552
 30
0.0
 10
31.34438721482947
 20
240.666964644476
 30
0.0
 10
31.3046341524367
 20
240.5694625198288
 30
0.0
 10
31.26067264090365
 20
240.4503169486402
 30
0.0
 10
31.22030985217784
 20
240.3296241333978
 30
0.0
 10
31.18340512431502
 20
240.2077992711634
 30
0.0
 10
31.1498709616934
 20
240.0854094634265
 30
0.0
 10
31.11964339694627
 20
239.9629072026148
 30
0.0
 10
31.0926941281266
 20
239.8408928632916
 30
0.0
 10
31.07164213142505
 20
239.733266085871
 30
0.0
 10
31.05534756475422
 20
239.6400538875519
 30
0.0
 10
31.04285628499035
 20
239.560958913313
 30
0.0
 10
31.03186812270271
 20
239.482878233175
 30
0.0
 10
31.0224086027268
 20
239.4060001787631
 30
0.0
 10
31.01452196286876
 20
239.3305412846815
 30
0.0
 10
31.00877288655596
 20
239.2628578637573
 30
0.0
 10
31.00475987260262
 20
239.2026659043741
 30
0.0
 10
31.00211137816516
 20
239.149590342965
 30
0.0
 10
31.00045773815251
 20
239.0978071384283
 30
0.0
 10
30.99981739084
 20
239.0465118224356
 30
0.0
 10
31.00028987995709
 20
238.9959586501188
 30
0.0
 10
31.00198218741136
 20
238.9462555094347
 30
0.0
 10
31.00492480906106
 20
238.8983285288433
 30
0.0
 10
31.00963469469133
 20
238.8469345786802
 30
0.0
 10
31.01672516231858
 20
238.792940697689
 30
0.0
 10
31.02691594221956
 20
238.7373020206724
 30
0.0
 10
31.0396471206135
 20
238.6849138395611
 30
0.0
 10
31.05501403029695
 20
238.6358405336086
 30
0.0
 10
31.07308068586514
 20
238.5900920080267
 30
0.0
 10
31.0921569744648
 20
238.5512342390676
 30
0.0
 10
31.11155634067399
 20
238.5183445460266
 30
0.0
 10
31.13065471835034
 20
238.4905664798356
 30
0.0
 10
31.15135648972099
 20
238.4646845650697
 30
0.0
 10
31.1734623338908
 20
238.4408965822623
 30
0.0
 10
31.19691286758171
 20
238.4191318185284
 30
0.0
 10
31.22167182450985
 20
238.39928507517
 30
0.0
 10
31.24796693763472
 20
238.3811211500144
 30
0.0
 10
31.27896354703407
 20
238.3627249349044
 30
0.0
 10
31.31531398224277
 20
238.3447784259039
 30
0.0
 10
31.35774792348442
 20
238.3279802188877
 30
0.0
 10
31.40297444893005
 20
238.3138574322396
 30
0.0
 10
31.45100094175663
 20
238.3023255949415
 30
0.0
 10
31.50181358101502
 20
238.2932826070334
 30
0.0
 10
31.55089714550889
 20
238.2871816638241
 30
0.0
 10
31.59751943759193
 20
238.2832982044828
 30
0.0
 10
31.64106418075162
 20
238.2810386863567
 30
0.0
 10
31.68609772759733
 20
238.2799735847882
 30
0.0
 10
31.73515172407915
 20
238.28005819524
 30
0.0
 10
31.78848457162006
 20
238.2814625864666
 30
0.0
 10
31.84637675219959
 20
238.2843428716837
 30
0.0
 10
31.9062439323296
 20
238.2885577253693
 30
0.0
 10
31.96807212501126
 20
238.2940360266939
 30
0.0
 10
32.03184223075163
 20
238.3007085658147
 30
0.0
 10
32.09753663265259
 20
238.3085052143657
 30
0.0
 10
32.16514060594707
 20
238.3173578825731
 30
0.0
 10
32.23463541548436
 20
238.327201748256
 30
0.0
 10
32.30598747540555
 20
238.3379687442916
 30
0.0
 10
32.37918047778575
 20
238.3495941280626
 30
0.0
 10
32.45419484061689
 20
238.3620172686834
 30
0.0
 10
32.53101572439602
 20
238.3751777192142
 30
0.0
 10
32.60962714750568
 20
238.3890155213705
 30
0.0
 10
32.69001022741421
 20
238.4034750936309
 30
0.0
 10
32.77213186526125
 20
238.4184977141493
 30
0.0
 10
32.85597496944417
 20
238.4340277526473
 30
0.0
 10
32.94151976858346
 20
238.4500140906907
 30
0.0
 10
33.0286792773975
 20
238.4663926676887
 30
0.0
 10
33.11743182610913
 20
238.4831115759958
 30
0.0
 10
33.20775332410504
 20
238.50012365691
 30
0.0
 10
33.29968667597494
 20
238.5173942875509
 30
0.0
 10
33.39321372409618
 20
238.5348771075743
 30
0.0
 10
33.48831365302493
 20
238.5525300041436
 30
0.0
 10
33.58497455309332
 20
238.5703124259892
 30
0.0
 10
33.68317779959762
 20
238.5881820893511
 30
0.0
 10
33.78290198244004
 20
238.6061007604231
 30
0.0
 10
33.88411440095546
 20
238.6240282413129
 30
0.0
 10
33.9867945485158
 20
238.6419259475904
 30
0.0
 10
34.09091904765852
 20
238.6597592353308
 30
0.0
 10
34.19647563689588
 20
238.6774954283121
 30
0.0
 10
34.30344264140261
 20
238.6950993829781
 30
0.0
 10
34.41179537272105
 20
238.7125397366507
 30
0.0
 10
34.52149806554677
 20
238.7297836067918
 30
0.0
 10
34.63252658059145
 20
238.7467991338458
 30
0.0
 10
34.74485376352666
 20
238.7635581663516
 30
0.0
 10
34.86097899307722
 20
238.7803992390904
 30
0.0
 10
34.98096759843946
 20
238.7972676074779
 30
0.0
 10
35.10487523926631
 20
238.8141060587787
 30
0.0
 10
35.23013853703403
 20
238.8305291475654
 30
0.0
 10
35.35672280642942
 20
238.8465054171901
 30
0.0
 10
35.48458939018449
 20
238.8620080176686
 30
0.0
 10
35.61406611623686
 20
238.8770531462339
 30
0.0
 10
35.74512573931882
 20
238.8916074999927
 30
0.0
 10
35.8777356341883
 20
238.9056417073638
 30
0.0
 10
36.01149135174944
 20
238.9190921600737
 30
0.0
 10
36.1463504258421
 20
238.9319336709479
 30
0.0
 10
36.28226656508178
 20
238.9441456900805
 30
0.0
 10
36.41958069161612
 20
238.9557409834104
 30
0.0
 10
36.55825498582602
 20
238.9666909999196
 30
0.0
 10
36.69824640952805
 20
238.9769713662024
 30
0.0
 10
36.83912388471941
 20
238.9865350761846
 30
0.0
 10
36.98083678983329
 20
238.9953631078987
 30
0.0
 10
37.12333111145778
 20
239.0034412208992
 30
0.0
 10
37.25930827879196
 20
239.0103857544106
 30
0.0
 10
37.38862287242027
 20
239.016314591753
 30
0.0
 10
37.51121594381517
 20
239.0213465084624
 30
0.0
 10
37.63414893884723
 20
239.0258002336961
 30
0.0
 10
37.77113515237788
 20
239.0301029688075
 30
0.0
 10
37.92219476381233
 20
239.0339958013047
 30
0.0
 10
38.08733680570715
 20
239.0371874488887
 30
0.0
 10
38.25296112815982
 20
239.0393207772301
 30
0.0
 10
38.41898132118125
 20
239.0403829238761
 30
0.0
 10
38.58530902197664
 20
239.0403690063991
 30
0.0
 10
38.75158126433045
 20
239.0392774226188
 30
0.0
 10
38.91770907792796
 20
239.0371073436687
 30
0.0
 10
39.08360425251339
 20
239.0338659511057
 30
0.0
 10
39.2494549449334
 20
239.0295520892143
 30
0.0
 10
39.4151706470904
 20
239.0241645576814
 30
0.0
 10
39.58066097515014
 20
239.0177105152286
 30
0.0
 10
39.73469726918412
 20
239.0107051270159
 30
0.0
 10
39.87733046374331
 20
239.0033854607921
 30
0.0
 10
40.00865489474417
 20
238.9959662316392
 30
0.0
 10
40.13959664279882
 20
238.9878921385601
 30
0.0
 10
40.27010963382266
 20
238.9791696241526
 30
0.0
 10
40.40014886653569
 20
238.9698087819892
 30
0.0
 10
40.52968566532791
 20
238.9598191286323
 30
0.0
 10
40.65867403092635
 20
238.9492097982397
 30
0.0
 10
40.78706957552381
 20
238.9379937784527
 30
0.0
 10
40.91481311770762
 20
238.9261862203828
 30
0.0
 10
41.04185973494264
 20
238.9137997361091
 30
0.0
 10
41.16816652770075
 20
238.900850951968
 30
0.0
 10
41.29370626374059
 20
238.887355472832
 30
0.0
 10
41.41843471552486
 20
238.8733291603914
 30
0.0
 10
41.54230992326533
 20
238.8587921047894
 30
0.0
 10
41.66527569864349
 20
238.8437669050073
 30
0.0
 10
41.7872894500482
 20
238.8282734267191
 30
0.0
 10
41.90831115345319
 20
238.812335949854
 30
0.0
 10
42.02837942333615
 20
238.795968663983
 30
0.0
 10
42.14745037544721
 20
238.7791946562441
 30
0.0
 10
42.26548258980041
 20
238.7620418430948
 30
0.0
 10
42.38236139645579
 20
238.74455029924
 30
0.0
 10
42.49804674729512
 20
238.7267486141821
 30
0.0
 10
42.61250145845799
 20
238.7086703195992
 30
0.0
 10
42.72570266735958
 20
238.6903471999539
 30
0.0
 10
42.83761104230852
 20
238.6718126934556
 30
0.0
 10
42.9481901076328
 20
238.6531055287563
 30
0.0
 10
43.05739243791584
 20
238.6342669410527
 30
0.0
 10
43.16518029222817
 20
238.6153359247478
 30
0.0
 10
43.27151881959072
 20
238.5963570845564
 30
0.0
 10
43.37638761483291
 20
238.577372887386
 30
0.0
 10
43.47974896555547
 20
238.5584283944318
 30
0.0
 10
43.58156795881192
 20
238.5395747482886
 30
0.0
 10
43.68180121664847
 20
238.5208651430452
 30
0.0
 10
43.78041184642384
 20
238.5023514338193
 30
0.0
 10
43.87736576044095
 20
238.484091970508
 30
0.0
 10
43.97318269707927
 20
238.4660411091772
 30
0.0
 10
44.06778861628563
 20
238.4482661519335
 30
0.0
 10
44.16110997463075
 20
238.4308450542346
 30
0.0
 10
44.25258158812329
 20
238.4139474714109
 30
0.0
 10
44.34216283952995
 20
238.3976451882604
 30
0.0
 10
44.42981626055387
 20
238.3820179695974
 30
0.0
 10
44.51552701031616
 20
238.3671416930412
 30
0.0
 10
44.59925113800993
 20
238.3530990888823
 30
0.0
 10
44.68094816767736
 20
238.3399812938442
 30
0.0
 10
44.76057283282548
 20
238.3278798240648
 30
0.0
 10
44.83807965123463
 20
238.3168886168403
 30
0.0
 10
44.91342754308674
 20
238.3071096844126
 30
0.0
 10
44.98659964961107
 20
238.2986415201722
 30
0.0
 10
45.05754567185019
 20
238.2915915612376
 30
0.0
 10
45.12622118458723
 20
238.2860743705876
 30
0.0
 10
45.19258344016048
 20
238.2822026480727
 30
0.0
 10
45.25658011939603
 20
238.2800961110752
 30
0.0
 10
45.31816747600386
 20
238.279878608485
 30
0.0
 10
45.37226897857489
 20
238.2815190905304
 30
0.0
 10
45.41954531672253
 20
238.2845568185319
 30
0.0
 10
45.46062861664345
 20
238.2885315247837
 30
0.0
 10
45.5002565941116
 20
238.2938008530389
 30
0.0
 10
45.54274354729139
 20
238.3011655211618
 30
0.0
 10
45.58740590509684
 20
238.3112823976672
 30
0.0
 10
45.63347861223339
 20
238.3249512823056
 30
0.0
 10
45.67690975029667
 20
238.3413864880397
 30
0.0
 10
45.71764874517589
 20
238.3607290981641
 30
0.0
 10
45.75566956601428
 20
238.3830988546687
 30
0.0
 10
45.78799697857998
 20
238.4064742789999
 30
0.0
 10
45.81536884885266
 20
238.4301063940848
 30
0.0
 10
45.83847717625174
 20
238.4532935118977
 30
0.0
 10
45.85999033843486
 20
238.4783825404309
 30
0.0
 10
45.87978183961534
 20
238.5052265999227
 30
0.0
 10
45.89788004414901
 20
238.5337926193963
 30
0.0
 10
45.91434502534932
 20
238.564074123161
 30
0.0
 10
45.92930437328483
 20
238.5962852366062
 30
0.0
 10
45.94431245912286
 20
238.6343420572971
 30
0.0
 10
45.95872026421492
 20
238.6790933628954
 30
0.0
 10
45.97184403887648
 20
238.7314886121473
 30
0.0
 10
45.98243278259486
 20
238.7875115807562
 30
0.0
 10
45.99051635332314
 20
238.8471936518812
 30
0.0
 10
45.99615672581186
 20
238.9105108233408
 30
0.0
 10
45.99914630550666
 20
238.9718012958008
 30
0.0
 10
46.00017763876977
 20
239.0301295459201
 30
0.0
 10
45.99983637273657
 20
239.0846807946549
 30
0.0
 10
45.99825934856555
 20
239.1410374026237
 30
0.0
 10
45.99551846756339
 20
239.1982387055745
 30
0.0
 10
45.99170421789046
 20
239.2560392876402
 30
0.0
 10
45.98689495239332
 20
239.314268304247
 30
0.0
 10
45.98106204034766
 20
239.373612917508
 30
0.0
 10
45.97342940974463
 20
239.4409829174454
 30
0.0
 10
45.96358133223884
 20
239.5166450265775
 30
0.0
 10
45.95105247621107
 20
239.6008038057292
 30
0.0
 10
45.93441041412856
 20
239.7003945133287
 30
0.0
 10
45.91254452615489
 20
239.8158019525208
 30
0.0
 10
45.88391330782243
 20
239.9479966451771
 30
0.0
 10
45.85117464129472
 20
240.0818386086306
 30
0.0
 10
45.81825630106578
 20
240.2017364505097
 30
0.0
 10
45.78675694787529
 20
240.3062976652297
 30
0.0
 10
45.75784941608509
 20
240.3955028564514
 30
0.0
 10
45.72682011925912
 20
240.4845474394177
 30
0.0
 10
45.69357882402639
 20
240.5732069487894
 30
0.0
 10
45.65800624541641
 20
240.6612291675553
 30
0.0
 10
45.62017835739024
 20
240.747950085283
 30
0.0
 10
45.58000980770782
 20
240.8331181066563
 30
0.0
 10
45.53739114372475
 20
240.9164537765388
 30
0.0
 10
45.49455891125709
 20
240.9934635234531
 30
0.0
 10
45.45185943505195
 20
241.0642748872383
 30
0.0
 10
45.40963637434148
 20
241.1290931542734
 30
0.0
 10
45.3653292015798
 20
241.1918417483282
 30
0.0
 10
45.31885985930802
 20
241.2522967487369
 30
0.0
 10
45.27015371299346
 20
241.3102304936253
 30
0.0
 10
45.21910722215918
 20
241.365457492339
 30
0.0
 10
45.16564184530051
 20
241.417716635206
 30
0.0
 10
45.10969908338377
 20
241.466764207021
 30
0.0
 10
45.05118583232507
 20
241.512424536484
 30
0.0
 10
44.99002744414942
 20
241.5543534846056
 30
0.0
 10
44.92622455025846
 20
241.5924489944675
 30
0.0
 10
44.86480249304752
 20
241.6241154492298
 30
0.0
 10
44.80636275477553
 20
241.6503045300238
 30
0.0
 10
44.75144245090643
 20
241.6719423180261
 30
0.0
 10
44.69502413644739
 20
241.691322918181
 30
0.0
 10
44.63712488845538
 20
241.7084829403039
 30
0.0
 10
44.57777273193963
 20
241.72347854931
 30
0.0
 10
44.51696741650434
 20
241.7363763197854
 30
0.0
 10
44.45472773775119
 20
241.7472266052692
 30
0.0
 10
44.39108149374495
 20
241.756095855058
 30
0.0
 10
44.32611254599968
 20
241.7630436303646
 30
0.0
 10
44.25985663113948
 20
241.7681563157814
 30
0.0
 10
44.19229950697956
 20
241.7714480413646
 30
0.0
 10
44.13464350382652
 20
241.7729455328514
 30
0.0
 10
44.09923325609277
 20
241.7729607895678
 30
0.0
 10
44.08707686086822
 20
241.7729660272231
 30
0.0
  0
SPLINE
  5
C6
330
1F
100
AcDbEntity
  8
0
  6
Continuous
 62
     7
370
    30
100
AcDbSpline
210
0.0
220
0.0
230
1.0
 70
     8
 71
     3
 72
    78
 73
    74
 74
     0
 42
0.000000001
 43
0.00000001
 40
0.0
 40
0.0
 40
0.0
 40
0.0
 40
0.0099258737423343
 40
0.0198517470594175
 40
0.0297940077956268
 40
0.0397362672452702
 40
0.0530701232263912
 40
0.0664064680858983
 40
0.0797402948904794
 40
0.093165901008686
 40
0.1065940892513258
 40
0.1200196460397148
 40
0.1301528774122076
 40
0.1402861030712771
 40
0.1504377795442471
 40
0.1605894497496802
 40
0.1768370336641782
 40
0.1931041641409384
 40
0.2092165061377758
 40
0.2253288124239102
 40
0.2415204580742165
 40
0.2577120817784643
 40
0.2736163257008831
 40
0.2895205714080428
 40
0.3055021840006213
 40
0.3214838278826819
 40
0.3311058405310641
 40
0.3407278607093644
 40
0.3503662850000344
 40
0.3600047194137374
 40
0.3729307236388802
 40
0.3858591130242068
 40
0.3987852698820177
 40
0.411792324899644
 40
0.4248016029063598
 40
0.4378088503784759
 40
0.4476141712372185
 40
0.4574195109749513
 40
0.4672377773851254
 40
0.477056062824331
 40
0.4955014370576318
 40
0.5139470386197598
 40
0.5324625605826275
 40
0.5509782867120621
 40
0.5695767962069155
 40
0.5881754758025646
 40
0.6068272382999127
 40
0.6254791288813669
 40
0.6441986678477726
 40
0.6629182889988912
 40
0.681681303121665
 40
0.7004443492225283
 40
0.7171223559478673
 40
0.7338003502367769
 40
0.7505081394280811
 40
0.7672158818632407
 40
0.7838482634525835
 40
0.8004805605521563
 40
0.8171483424860116
 40
0.8338159935534306
 40
0.8503774975422159
 40
0.8669388217027949
 40
0.8835495882992472
 40
0.9001601124460769
 40
0.9167518862624868
 40
0.9333603802994972
 40
0.9432404049682215
 40
0.9531204157158127
 40
0.9630159946999665
 40
0.9729115609247613
 40
0.9861816998102586
 40
0.9994543176590241
 40
1.0
 40
1.0
 40
1.0
 40
1.0
 10
38.5000000000096
 20
241.550130439071
 30
0.0
 10
38.52373281676043
 20
241.5500817621593
 30
0.0
 10
38.57119844924531
 20
241.549984408338
 30
0.0
 10
38.64240677715045
 20
241.5491951270128
 30
0.0
 10
38.71359568750616
 20
241.5479316854811
 30
0.0
 10
38.79282439118131
 20
241.5459388326788
 30
0.0
 10
38.87998096654552
 20
241.5429984331625
 30
0.0
 10
38.97492713926088
 20
241.5388289387085
 30
0.0
 10
39.06973524241617
 20
241.5336694299692
 30
0.0
 10
39.16432868234363
 20
241.5274869979482
 30
0.0
 10
39.25862981903345
 20
241.5202388596299
 30
0.0
 10
39.3446882302727
 20
241.5125849061418
 30
0.0
 10
39.42259421916171
 20
241.5047873263607
 30
0.0
 10
39.49252222552953
 20
241.4970877094472
 30
0.0
 10
39.56205065094711
 20
241.4887042235668
 30
0.0
 10
39.64497491570341
 20
241.4777972805454
 30
0.0
 10
39.74085111293797
 20
241.4637547337606
 30
0.0
 10
39.84868227699172
 20
241.4458311229182
 30
0.0
 10
39.95464970764589
 20
241.4259698384912
 30
0.0
 10
40.05876921682835
 20
241.404092963412
 30
0.0
 10
40.16123531595549
 20
241.3800498150357
 30
0.0
 10
40.26131962826635
 20
241.3539271784265
 30
0.0
 10
40.35876887083963
 20
241.3257498649925
 30
0.0
 10
40.45367585079516
 20
241.2954834593076
 30
0.0
 10
40.54650207992271
 20
241.2629102998627
 30
0.0
 10
40.6251245615471
 20
241.2326408541138
 30
0.0
 10
40.69029423169943
 20
241.2056600365163
 30
0.0
 10
40.74283589510186
 20
241.1827157334544
 30
0.0
 10
40.79449650364468
 20
241.1589381353143
 30
0.0
 10
40.85103382134253
 20
241.1315367720833
 30
0.0
 10
40.9120003798958
 20
241.1001743544387
 30
0.0
 10
40.97690594330705
 20
241.0644850025159
 30
0.0
 10
41.04021773257494
 20
241.0273272989306
 30
0.0
 10
41.10190397158404
 20
240.9887194478073
 30
0.0
 10
41.16194914337473
 20
240.9487006859291
 30
0.0
 10
41.21544043849199
 20
240.9107847985468
 30
0.0
 10
41.2628455576902
 20
240.8753511047581
 30
0.0
 10
41.30461115988584
 20
240.8427009847705
 30
0.0
 10
41.3453916828806
 20
240.8093769796724
 30
0.0
 10
41.39684723215338
 20
240.7654532959926
 30
0.0
 10
41.45769323933577
 20
240.7101798216082
 30
0.0
 10
41.52640155946251
 20
240.6426301806614
 30
0.0
 10
41.5917731657178
 20
240.5731702735064
 30
0.0
 10
41.65394790685761
 20
240.5018707420668
 30
0.0
 10
41.71289015873239
 20
240.4289851026676
 30
0.0
 10
41.76870157061706
 20
240.354620928807
 30
0.0
 10
41.82134981839774
 20
240.2790598143926
 30
0.0
 10
41.87094422234351
 20
240.2023899624521
 30
0.0
 10
41.91748082735876
 20
240.1248577383759
 30
0.0
 10
41.96102774837775
 20
240.0465839702549
 30
0.0
 10
42.0015663610061
 20
239.9678413804904
 30
0.0
 10
42.03772725955548
 20
239.8917428789648
 30
0.0
 10
42.06988070209912
 20
239.8185401289192
 30
0.0
 10
42.09840657791055
 20
239.7483304723216
 30
0.0
 10
42.1245897238416
 20
239.6783219972494
 30
0.0
 10
42.14837916193133
 20
239.6087634072733
 30
0.0
 10
42.16975867112102
 20
239.5398393528212
 30
0.0
 10
42.18872671698733
 20
239.4716511861067
 30
0.0
 10
42.20527850156579
 20
239.4042538136784
 30
0.0
 10
42.21933167167737
 20
239.3379589276787
 30
0.0
 10
42.23084259185629
 20
239.2729807588937
 30
0.0
 10
42.23977446766965
 20
239.2094306797466
 30
0.0
 10
42.24607343904722
 20
239.1473685444138
 30
0.0
 10
42.24964591366827
 20
239.087025786692
 30
0.0
 10
42.25040077061473
 20
239.0286668562161
 30
0.0
 10
42.2485324878128
 20
238.9800730662915
 30
0.0
 10
42.24519956250995
 20
238.9403474022195
 30
0.0
 10
42.2413984301497
 20
238.9087526627881
 30
0.0
 10
42.23647652065183
 20
238.8779632596469
 30
0.0
 10
42.22978554756807
 20
238.8445398314228
 30
0.0
 10
42.22053880804444
 20
238.8090648429063
 30
0.0
 10
42.21287479018709
 20
238.7832691848152
 30
0.0
 10
42.20795723432162
 20
238.7708345432074
 30
0.0
 10
42.20776304087094
 20
238.7703435013102
 30
0.0
  0
SPLINE
  5
C7
330
1F
100
AcDbEntity
  8
0
  6
Continuous
 62
     7
370
    30
100
AcDbSpline
210
0.0
220
0.0
230
1.0
 70
     8
 71
     3
 72
    83
 73
    79
 74
     0
 42
0.000000001
 43
0.00000001
 40
0.0
 40
0.0
 40
0.0
 40
0.0
 40
0.0025430967748019
 40
0.0156110818163646
 40
0.0286767074710295
 40
0.0418279055057098
 40
0.0549814711678772
 40
0.0681328165323376
 40
0.0780506192411825
 40
0.0879684371898137
 40
0.0979005325219716
 40
0.1078326634693108
 40
0.1221897789699593
 40
0.1365470237267563
 40
0.1509371118204511
 40
0.1653273011633601
 40
0.1797819506708211
 40
0.1942366768102157
 40
0.208715946691855
 40
0.223195270539478
 40
0.2377482200441764
 40
0.2523012040391202
 40
0.2668746796864453
 40
0.2814481717809566
 40
0.2960779832384863
 40
0.3107077947065368
 40
0.325357424318035
 40
0.340007038393572
 40
0.3574375741201145
 40
0.3748680464595863
 40
0.3923360510759364
 40
0.4098039579465617
 40
0.427210068362441
 40
0.4446160510206361
 40
0.4620698959688295
 40
0.4795235835922241
 40
0.49688827559092
 40
0.5142527923570327
 40
0.5316805250091501
 40
0.5491080691308727
 40
0.566528693240289
 40
0.5839686512879977
 40
0.5937440115959741
 40
0.6035193551177873
 40
0.6133099863290394
 40
0.6231006023817329
 40
0.6362299977197277
 40
0.6493618535119833
 40
0.6624911167566755
 40
0.6757143006313006
 40
0.6889401634112194
 40
0.7021632758024268
 40
0.7121472650098476
 40
0.7221312520454236
 40
0.7321343321871748
 40
0.7421374127805858
 40
0.7519158837308952
 40
0.7616943570683238
 40
0.7714906581711174
 40
0.7812869631745984
 40
0.7944317382772025
 40
0.8075791777864242
 40
0.8207240120182901
 40
0.8339636132313382
 40
0.8472058570006968
 40
0.8604455227349991
 40
0.8704383155837335
 40
0.880431113819001
 40
0.8904413969456
 40
0.9004516848176345
 40
0.9128461786491223
 40
0.925240681517703
 40
0.9376677285359922
 40
0.9500947821292504
 40
0.962554820596686
 40
0.9750148630541202
 40
0.9875074308557007
 40
1.0
 40
1.0
 40
1.0
 40
1.0
 10
34.79237824056564
 20
238.7703706499205
 30
0.0
 10
34.79148738920286
 20
238.7726693218926
 30
0.0
 10
34.7860187992347
 20
238.786779974928
 30
0.0
 10
34.77798820358763
 20
238.8141497924744
 30
0.0
 10
34.76833166173625
 20
238.8526234946408
 30
0.0
 10
34.76084676072811
 20
238.8927805262052
 30
0.0
 10
34.75526899163761
 20
238.9344352894993
 30
0.0
 10
34.75193234904354
 20
238.9739899909261
 30
0.0
 10
34.7502745199866
 20
239.0110320966556
 30
0.0
 10
34.74983052479645
 20
239.045238818469
 30
0.0
 10
34.75041849213307
 20
239.0802270960325
 30
0.0
 10
34.7522571303462
 20
239.1212526318111
 30
0.0
 10
34.75590779445415
 20
239.16864563989
 30
0.0
 10
34.76200008098879
 20
239.2227672070562
 30
0.0
 10
34.77006932924898
 20
239.2780636456726
 30
0.0
 10
34.78009105031715
 20
239.3344967162414
 30
0.0
 10
34.79202702384764
 20
239.3919088002494
 30
0.0
 10
34.80586095121182
 20
239.4502224828095
 30
0.0
 10
34.82154708886369
 20
239.509242372631
 30
0.0
 10
34.83909569708349
 20
239.5689653411336
 30
0.0
 10
34.85848761000094
 20
239.6292579406198
 30
0.0
 10
34.87973080685341
 20
239.6900524983992
 30
0.0
 10
34.90278457639091
 20
239.7511503647068
 30
0.0
 10
34.92768116252069
 20
239.8125377396063
 30
0.0
 10
34.9544166478457
 20
239.8740939687166
 30
0.0
 10
34.98301853087755
 20
239.9357572281733
 30
0.0
 10
35.01346308628705
 20
239.9973582892818
 30
0.0
 10
35.04781202326036
 20
240.062697397324
 30
0.0
 10
35.08650235803059
 20
240.1315966280861
 30
0.0
 10
35.13007038683088
 20
240.2038941267254
 30
0.0
 10
35.17638898405893
 20
240.2755697533232
 30
0.0
 10
35.22545538211471
 20
240.3463918187197
 30
0.0
 10
35.27727393439202
 20
240.4161616782808
 30
0.0
 10
35.33193684162163
 20
240.4848008720292
 30
0.0
 10
35.38956858311661
 20
240.5522358944274
 30
0.0
 10
35.45012948411907
 20
240.6182042327627
 30
0.0
 10
35.51360234562769
 20
240.6824991934178
 30
0.0
 10
35.58009572411187
 20
240.745065624698
 30
0.0
 10
35.64977579548316
 20
240.8058559551518
 30
0.0
 10
35.72267727813841
 20
240.8647212298425
 30
0.0
 10
35.79876925189009
 20
240.9214702556983
 30
0.0
 10
35.86644626763578
 20
240.9679917450314
 30
0.0
 10
35.92428667880097
 20
241.0052343594205
 30
0.0
 10
35.97116534559625
 20
241.0340129303877
 30
0.0
 10
36.01906508337076
 20
241.0620241023048
 30
0.0
 10
36.07354069669871
 20
241.0923479263813
 30
0.0
 10
36.13499842737452
 20
241.1246001124531
 30
0.0
 10
36.20389212933294
 20
241.1583525698782
 30
0.0
 10
36.27466953765882
 20
241.1906744286075
 30
0.0
 10
36.34731700923073
 20
241.2215276659513
 30
0.0
 10
36.42180018019098
 20
241.2508999720966
 30
0.0
 10
36.49168823578907
 20
241.2764442945874
 30
0.0
 10
36.55650908845912
 20
241.2985703803172
 30
0.0
 10
36.61591132020268
 20
241.3176688903456
 30
0.0
 10
36.676198483751
 20
241.3359014978664
 30
0.0
 10
36.73688733253078
 20
241.3531463004296
 30
0.0
 10
36.79789199002045
 20
241.3694231044681
 30
0.0
 10
36.85920178508348
 20
241.3847758333595
 30
0.0
 10
36.92125524812369
 20
241.3993380689404
 30
0.0
 10
36.99117593746322
 20
241.4146937493642
 30
0.0
 10
37.06919202233842
 20
241.4305109346976
 30
0.0
 10
37.15554520229343
 20
241.4464462568831
 30
0.0
 10
37.24313610671368
 20
241.4611083092603
 30
0.0
 10
37.3319034643289
 20
241.4745262794468
 30
0.0
 10
37.42177843974923
 20
241.486735632393
 30
0.0
 10
37.50506252040336
 20
241.4968473994094
 30
0.0
 10
37.58147539068235
 20
241.5052103557192
 30
0.0
 10
37.65085657685264
 20
241.5121201086509
 30
0.0
 10
37.72064276087089
 20
241.5184097553448
 30
0.0
 10
37.79637294797175
 20
241.5245454403137
 30
0.0
 10
37.87806690695469
 20
241.5303633543749
 30
0.0
 10
37.96583886877939
 20
241.5357011700331
 30
0.0
 10
38.05403525799667
 20
241.5401829233803
 30
0.0
 10
38.1426765229908
 20
241.5438275726344
 30
0.0
 10
38.23162844471047
 20
241.5466524999352
 30
0.0
 10
38.32091078826765
 20
241.5486499556179
 30
0.0
 10
38.41038736806521
 20
241.5498992231815
 30
0.0
 10
38.47012912162461
 20
241.5500533671051
 30
0.0
 10
38.5000000000096
 20
241.5501304390711
 30
0.0
  0
LINE
  5
C8
330
1F
100
AcDbEntity
  8
0
  6
Continuous
 62
     7
370
    30
100
AcDbLine
 10
27.3721358909
 20
186.0908374948
 30
0.0
 11
49.6278641091
 21
186.0908374948
 31
0.0
  0
LINE
  5
C9
330
1F
100
AcDbEntity
  8
0
  6
Continuous
 62
     7
370
    30
100
AcDbLine
 10
38.5
 20
216.0908374948
 30
0.0
 11
28.6288025576
 21
216.0908374948
 31
0.0
  0
LINE
  5
CA
330
1F
100
AcDbEntity
  8
0
  6
Continuous
 62
     7
370
    30
100
AcDbLine
 10
48.3711974424
 20
216.0908374948
 30
0.0
 11
38.5
 21
216.0908374948
 31
0.0
  0
LINE
  5
CB
330
1F
100
AcDbEntity
  8
0
  6
Continuous
 62
     7
370
    30
100
AcDbLine
 10
38.5
 20
309.9091625052
 30
0.0
 11
49.6278641091
 21
309.9091625052
 31
0.0
  0
LINE
  5
CC
330
1F
100
AcDbEntity
  8
0
  6
Continuous
 62
     7
370
    30
100
AcDbLine
 10
27.3721358909
 20
309.9091625052
 30
0.0
 11
38.5
 21
309.9091625052
 31
0.0
  0
LINE
  5
CD
330
1F
100
AcDbEntity
  8
0
  6
Continuous
 62
     7
370
    30
100
AcDbLine
 10
48.3711974424
 20
279.9091625052
 30
0.0
 11
28.6288025576
 21
279.9091625052
 31
0.0
  0
SPLINE
  5
CE
330
1F
100
AcDbEntity
  8
0
  6
Continuous
 62
     7
370
    30
100
AcDbSpline
210
0.0
220
0.0
230
1.0
 70
     8
 71
     3
 72
   104
 73
   100
 74
     0
 42
0.000000001
 43
0.00000001
 40
0.0
 40
0.0
 40
0.0
 40
0.0
 40
0.0095533737389118
 40
0.0191067481432512
 40
0.028672682955114
 40
0.0382386197480123
 40
0.0510349222599988
 40
0.0638330905878617
 40
0.0766294354926
 40
0.0894918173443618
 40
0.1023560349253747
 40
0.1152184815294354
 40
0.128118463941617
 40
0.1410202116072185
 40
0.1539202713886065
 40
0.16688150632469
 40
0.1798444297847624
 40
0.1928057438072233
 40
0.2033170039458781
 40
0.2138291118910428
 40
0.2243404016812907
 40
0.2348812953042863
 40
0.2454230063319965
 40
0.2559639218280924
 40
0.2666099468846322
 40
0.2772567865220334
 40
0.2879028216478345
 40
0.2985779912890097
 40
0.3092539713398236
 40
0.3199291333484951
 40
0.3307108975819039
 40
0.3414935099430994
 40
0.3522752412510153
 40
0.3630889239871144
 40
0.373903509367974
 40
0.3847171250367853
 40
0.3989148238117098
 40
0.4131218435264332
 40
0.4225986076719684
 40
0.4320761262993148
 40
0.441552797644023
 40
0.4510602043897915
 40
0.46056849831711
 40
0.4700757753973453
 40
0.4795907714733555
 40
0.4891068299047515
 40
0.4986216547963414
 40
0.508181273978435
 40
0.5177422006670933
 40
0.5273016026081891
 40
0.5339801133016561
 40
0.5406586073797118
 40
0.5473463293240755
 40
0.5540340337595155
 40
0.5629977183041862
 40
0.5719629653170937
 40
0.5809264486494001
 40
0.589953864196247
 40
0.5989831405219638
 40
0.6080103703641118
 40
0.6148295591784979
 40
0.621648734411637
 40
0.628482738880371
 40
0.6353167509676367
 40
0.6442183955418995
 40
0.6531220184821427
 40
0.6620239804424818
 40
0.6709862083327935
 40
0.6799500345419941
 40
0.6889125798938085
 40
0.6979218295472258
 40
0.7069322923941899
 40
0.7159418163643406
 40
0.7249855559595945
 40
0.7340301742302316
 40
0.7430741283974358
 40
0.7510188452168698
 40
0.7589635902177839
 40
0.7669140743132875
 40
0.7748645810921526
 40
0.7908008609358234
 40
0.806737388796537
 40
0.8226995215568793
 40
0.838661770095325
 40
0.854652493474677
 40
0.8706432126810653
 40
0.886652989769813
 40
0.9026626347549231
 40
0.9133600566848331
 40
0.924057973635895
 40
0.9347551924318027
 40
0.9454780055423032
 40
0.9562015989421856
 40
0.9669240528784397
 40
0.9749952848298026
 40
0.9830664697244839
 40
0.9911479299805829
 40
0.9992293315777638
 40
1.0
 40
1.0
 40
1.0
 40
1.0
 10
38.50000000000001
 20
254.9242935491786
 30
0.0
 10
38.54012560695782
 20
254.9241957185899
 30
0.0
 10
38.62037682366835
 20
254.9240000574056
 30
0.0
 10
38.74076679931873
 20
254.9224197357632
 30
0.0
 10
38.8611304728428
 20
254.9198984650369
 30
0.0
 10
38.99496906760975
 20
254.9159515557254
 30
0.0
 10
39.14213335788975
 20
254.9101782589941
 30
0.0
 10
39.3024433368571
 20
254.9021164733022
 30
0.0
 10
39.46256435276436
 20
254.8923191429018
 30
0.0
 10
39.62240306699785
 20
254.8808094275103
 30
0.0
 10
39.78187090315434
 20
254.8676386220679
 30
0.0
 10
39.94076456880568
 20
254.8528709294075
 30
0.0
 10
40.09899834794722
 20
254.8365587754003
 30
0.0
 10
40.25649365715269
 20
254.8187791908732
 30
0.0
 10
40.41326997296228
 20
254.7995977382703
 30
0.0
 10
40.56924825980266
 20
254.7790861150498
 30
0.0
 10
40.72435681922209
 20
254.7573391383704
 30
0.0
 10
40.86858746899919
 20
254.7359284313341
 30
0.0
 10
41.0021311019524
 20
254.7151641099605
 30
0.0
 10
41.12520048632881
 20
254.6953000838276
 30
0.0
 10
41.24750781346906
 20
254.6748818663813
 30
0.0
 10
41.36902096633532
 20
254.6539693754865
 30
0.0
 10
41.48971068306007
 20
254.6326312991507
 30
0.0
 10
41.60983489499451
 20
254.6108850713323
 30
0.0
 10
41.72935597869044
 20
254.58879712417
 30
0.0
 10
41.84823811238881
 20
254.5664447132264
 30
0.0
 10
41.9661698042645
 20
254.5439605158318
 30
0.0
 10
42.08312283791861
 20
254.5214244798915
 30
0.0
 10
42.19907104915885
 20
254.4989265993529
 30
0.0
 10
42.31426672828389
 20
254.4765032711117
 30
0.0
 10
42.42867214740721
 20
254.4542474675091
 30
0.0
 10
42.54225017580391
 20
254.4322657668539
 30
0.0
 10
42.65470886125571
 20
254.4107147950736
 30
0.0
 10
42.7660174774106
 20
254.3897009559346
 30
0.0
 10
42.87614625053113
 20
254.3693441822156
 30
0.0
 10
42.99630740707626
 20
254.34774318826
 30
0.0
 10
43.12596587755984
 20
254.3253788305139
 30
0.0
 10
43.2490777010637
 20
254.3054475910964
 30
0.0
 10
43.35524290702032
 20
254.2894203474714
 30
0.0
 10
43.44514016797591
 20
254.2767519267459
 30
0.0
 10
43.533982582324
 20
254.265244272267
 30
0.0
 10
43.62173670817035
 20
254.2550035536793
 30
0.0
 10
43.7083688493157
 20
254.2461454881601
 30
0.0
 10
43.7937753414097
 20
254.2387909142729
 30
0.0
 10
43.87791882083384
 20
254.2330551819366
 30
0.0
 10
43.96076287123624
 20
254.2290602835455
 30
0.0
 10
44.04237368540006
 20
254.2269257296049
 30
0.0
 10
44.12269948533381
 20
254.2267869439636
 30
0.0
 10
44.20169050214857
 20
254.2287822984057
 30
0.0
 10
44.27139166261304
 20
254.2326130432034
 30
0.0
 10
44.3322461533114
 20
254.2376403130189
 30
0.0
 10
44.38469839758596
 20
254.2432495527427
 30
0.0
 10
44.43637841062599
 20
254.2501191065546
 30
0.0
 10
44.49304088172589
 20
254.2592198822203
 30
0.0
 10
44.55428362257199
 20
254.2711810651153
 30
0.0
 10
44.61964875278753
 20
254.2867588198888
 30
0.0
 10
44.68358298326071
 20
254.3049821403341
 30
0.0
 10
44.74602255240237
 20
254.325971312671
 30
0.0
 10
44.80691772518726
 20
254.3498179002642
 30
0.0
 10
44.86125707985536
 20
254.3743651235616
 30
0.0
 10
44.90946202398716
 20
254.398898223047
 30
0.0
 10
44.95197707628871
 20
254.4227559543381
 30
0.0
 10
44.99347825172393
 20
254.4483628820719
 30
0.0
 10
45.03803752984484
 20
254.4784736362553
 30
0.0
 10
45.08521870291026
 20
254.5136951550116
 30
0.0
 10
45.13457831764674
 20
254.5545960715362
 30
0.0
 10
45.18228190997916
 20
254.5981846266919
 30
0.0
 10
45.22833515244015
 20
254.6443457924333
 30
0.0
 10
45.27275945819764
 20
254.692940875171
 30
0.0
 10
45.31556042110485
 20
254.7438065279213
 30
0.0
 10
45.3567655970338
 20
254.7968105175297
 30
0.0
 10
45.39640876176977
 20
254.8518137488371
 30
0.0
 10
45.43451055352524
 20
254.9086528442083
 30
0.0
 10
45.47111002466406
 20
254.9671948012191
 30
0.0
 10
45.50624512288447
 20
255.0273100441923
 30
0.0
 10
45.53855081632733
 20
255.0863023852458
 30
0.0
 10
45.56826602626399
 20
255.1438726332732
 30
0.0
 10
45.59560994156107
 20
255.1997934970987
 30
0.0
 10
45.62192069485769
 20
255.2565237042934
 30
0.0
 10
45.65569409572252
 20
255.3332267685458
 30
0.0
 10
45.69546397046063
 20
255.4307885976809
 30
0.0
 10
45.73943934943574
 20
255.5500000078038
 30
0.0
 10
45.77981267618168
 20
255.6707588777222
 30
0.0
 10
45.81671737589414
 20
255.7926251165319
 30
0.0
 10
45.8502433642113
 20
255.9150304744724
 30
0.0
 10
45.88045683557247
 20
256.0375222452908
 30
0.0
 10
45.90739261867643
 20
256.1595243799511
 30
0.0
 10
45.92843078828586
 20
256.2671271571774
 30
0.0
 10
45.94471183224017
 20
256.3603045850015
 30
0.0
 10
45.95719038449839
 20
256.4393550563487
 30
0.0
 10
45.96816718921041
 20
256.5173914257725
 30
0.0
 10
45.97761704408414
 20
256.5942260667431
 30
0.0
 10
45.98549458782104
 20
256.6696410054736
 30
0.0
 10
45.99123968863061
 20
256.7372873575817
 30
0.0
 10
45.99524077721703
 20
256.7974302596919
 30
0.0
 10
45.99791088976912
 20
256.8505062866981
 30
0.0
 10
45.99946912581306
 20
256.9021168691594
 30
0.0
 10
46.00015124733394
 20
256.9376355917016
 30
0.0
 10
45.99996720489629
 20
256.9554039900947
 30
0.0
 10
45.99995118201183
 20
256.9569509213238
 30
0.0
  0
SPLINE
  5
CF
330
1F
100
AcDbEntity
  8
0
  6
Continuous
 62
     7
370
    30
100
AcDbSpline
210
0.0
220
0.0
230
1.0
 70
     8
 71
     3
 72
   105
 73
   101
 74
     0
 42
0.000000001
 43
0.00000001
 40
0.0
 40
0.0
 40
0.0
 40
0.0
 40
0.0067706275168193
 40
0.0156218030447014
 40
0.0244730558879032
 40
0.0360829102210643
 40
0.0476944030495769
 40
0.0593048099348287
 40
0.0709554394039682
 40
0.082607047439198
 40
0.0942579888546125
 40
0.1059216726946464
 40
0.1175859646891975
 40
0.1292497857237654
 40
0.1467716472487434
 40
0.1642935070709333
 40
0.1759764710902343
 40
0.1876599102199525
 40
0.1993427401305431
 40
0.2110478967076543
 40
0.2227537244848928
 40
0.2344585914988363
 40
0.2432545414630775
 40
0.2520504521898524
 40
0.2608549630640106
 40
0.2696594246375734
 40
0.2772792586998122
 40
0.2848990595348191
 40
0.2925275457938516
 40
0.3001559934144861
 40
0.310376168327111
 40
0.3205980233646831
 40
0.3308176846758774
 40
0.3411171171564277
 40
0.3514189619737127
 40
0.3617178215822133
 40
0.3695117995788457
 40
0.3773057512265676
 40
0.3851219140249567
 40
0.3929381002358181
 40
0.4005686775875157
 40
0.4081992809680555
 40
0.4158487368800908
 40
0.4234982220404898
 40
0.4337790900921062
 40
0.4440625494779409
 40
0.4543437659088143
 40
0.4647066251419679
 40
0.4750716785580604
 40
0.485434868305698
 40
0.4932530542449843
 40
0.5010712668289143
 40
0.5089008717648611
 40
0.5167305004605031
 40
0.5253407386566183
 40
0.5339510069008602
 40
0.5425734956515301
 40
0.5511960098868125
 40
0.562741842705462
 40
0.5742892657461625
 40
0.5858353135359586
 40
0.5974314971921055
 40
0.609029024134555
 40
0.6206253469091467
 40
0.6322622971563638
 40
0.6439004337996227
 40
0.6555374637768057
 40
0.6672147095686198
 40
0.6788930579313184
 40
0.6905703382565042
 40
0.7056570349538793
 40
0.7207437336108747
 40
0.7358672703361949
 40
0.7509907912296205
 40
0.7611350703061037
 40
0.7712800631639238
 40
0.7814243218068334
 40
0.7915951279630018
 40
0.801766681117043
 40
0.8119374604245281
 40
0.8221733591470426
 40
0.8324100552270434
 40
0.8426459231141937
 40
0.8529117233950672
 40
0.8631783683396187
 40
0.8734441371663111
 40
0.8813098854542151
 40
0.8891756308185077
 40
0.8970478427965285
 40
0.9049200520542242
 40
0.9154468927679555
 40
0.9259747277844822
 40
0.9365015431117883
 40
0.9470652072082573
 40
0.9576299079827242
 40
0.968193555415433
 40
0.9761415534546191
 40
0.9840895507043996
 40
0.9920447754855134
 40
1.0
 40
1.0
 40
1.0
 40
1.0
 10
31.00011251797964
 20
256.9568240048833
 30
0.0
 10
31.0001393213381
 20
256.9429864575073
 30
0.0
 10
31.00020116446651
 20
256.9110592189772
 30
0.0
 10
31.00176570074113
 20
256.8589258204727
 30
0.0
 10
31.00479895022893
 20
256.7949655365903
 30
0.0
 10
31.0097922758307
 20
256.7228854102398
 30
0.0
 10
31.01713823196686
 20
256.6424435929317
 30
0.0
 10
31.02638046955956
 20
256.5600037198159
 30
0.0
 10
31.03746425079434
 20
256.4758487974102
 30
0.0
 10
31.05036692171453
 20
256.3902152427567
 30
0.0
 10
31.06505101352581
 20
256.3034093554698
 30
0.0
 10
31.08149088918565
 20
256.2156633021821
 30
0.0
 10
31.0996859268949
 20
256.127185186455
 30
0.0
 10
31.12296698517608
 20
256.0233213544001
 30
0.0
 10
31.15250372547667
 20
255.9040826905165
 30
0.0
 10
31.1856289666181
 20
255.7848056551944
 30
0.0
 10
31.21727758045834
 20
255.6808695459451
 30
0.0
 10
31.24628244972637
 20
255.5922727640587
 30
0.0
 10
31.27723244105621
 20
255.5043198205563
 30
0.0
 10
31.31018146748821
 20
255.4172162612576
 30
0.0
 10
31.34520804580458
 20
255.3311845007352
 30
0.0
 10
31.37928629478336
 20
255.2535198551963
 30
0.0
 10
31.4118957466792
 20
255.1840316169317
 30
0.0
 10
31.44256190741131
 20
255.1224250786338
 30
0.0
 10
31.47456068101364
 20
255.0619106709882
 30
0.0
 10
31.50643814921758
 20
255.005263956083
 30
0.0
 10
31.53801179773372
 20
254.952420460925
 30
0.0
 10
31.56912204779935
 20
254.9032499906351
 30
0.0
 10
31.60135302300204
 20
254.8552332375596
 30
0.0
 10
31.63851381735215
 20
254.803158923164
 30
0.0
 10
31.68112992473148
 20
254.7477160878887
 30
0.0
 10
31.72983280040184
 20
254.6897849594247
 30
0.0
 10
31.78087763838945
 20
254.6345579110629
 30
0.0
 10
31.83434345856068
 20
254.5822975694543
 30
0.0
 10
31.89028781698396
 20
254.5332440708602
 30
0.0
 10
31.9438781531681
 20
254.4914349421036
 30
0.0
 10
31.99450180322872
 20
254.4561139881834
 30
0.0
 10
32.04164407958954
 20
254.4264160203814
 30
0.0
 10
32.09020013430797
 20
254.3989617884045
 30
0.0
 10
32.13975366168622
 20
254.3739106337894
 30
0.0
 10
32.19020278420505
 20
254.3512040891308
 30
0.0
 10
32.24152805916485
 20
254.3307231400461
 30
0.0
 10
32.29411695545677
 20
254.3122526956884
 30
0.0
 10
32.35411592791573
 20
254.2938544383148
 30
0.0
 10
32.42198510354363
 20
254.2763474319454
 30
0.0
 10
32.49822884301673
 20
254.2605547142392
 30
0.0
 10
32.57665844472582
 20
254.2479296748444
 30
0.0
 10
32.65723336377153
 20
254.2383573968206
 30
0.0
 10
32.73989726350552
 20
254.2316959603957
 30
0.0
 10
32.81746065802584
 20
254.2281263854158
 30
0.0
 10
32.88939075130448
 20
254.2267911829241
 30
0.0
 10
32.95528404431923
 20
254.2270010787142
 30
0.0
 10
33.02215977015083
 20
254.2285582623427
 30
0.0
 10
33.09224969604169
 20
254.2314898392776
 30
0.0
 10
33.16560873986684
 20
254.2358715133052
 30
0.0
 10
33.24235662820134
 20
254.2417682010383
 30
0.0
 10
33.32018372156332
 20
254.248957941488
 30
0.0
 10
33.40797975383388
 20
254.2583079664491
 30
0.0
 10
33.506124387025
 20
254.2702180848954
 30
0.0
 10
33.61504506991138
 20
254.2850509579665
 30
0.0
 10
33.72580749046148
 20
254.3015491057928
 30
0.0
 10
33.83837651108515
 20
254.3195377387006
 30
0.0
 10
33.95271607715083
 20
254.3388592259389
 30
0.0
 10
34.0687597196076
 20
254.3593481402862
 30
0.0
 10
34.18647810916297
 20
254.3808466836003
 30
0.0
 10
34.3058406790584
 20
254.4032137139501
 30
0.0
 10
34.42681600952793
 20
254.4263063843868
 30
0.0
 10
34.5493789734041
 20
254.449983621119
 30
0.0
 10
34.67350257519254
 20
254.4741193422934
 30
0.0
 10
34.81122937927494
 20
254.5009362369857
 30
0.0
 10
34.96303075045375
 20
254.5303721314361
 30
0.0
 10
35.12953387631659
 20
254.5622800767005
 30
0.0
 10
35.298313703486
 20
254.5940150382163
 30
0.0
 10
35.4505401331587
 20
254.6219140011393
 30
0.0
 10
35.58530621341053
 20
254.6459515542065
 30
0.0
 10
35.70200134940352
 20
254.6662574845903
 30
0.0
 10
35.81965230036683
 20
254.6861679321362
 30
0.0
 10
35.93823787899831
 20
254.705620205872
 30
0.0
 10
36.05773337274064
 20
254.7245582928543
 30
0.0
 10
36.1782648568167
 20
254.7429495761999
 30
0.0
 10
36.29981043531433
 20
254.7607338408682
 30
0.0
 10
36.42234412372252
 20
254.7778575142546
 30
0.0
 10
36.54569589079426
 20
254.7942496704667
 30
0.0
 10
36.66983582924414
 20
254.8098577336161
 30
0.0
 10
36.7947299344678
 20
254.8246372689211
 30
0.0
 10
36.91044234307319
 20
254.8374479802373
 30
0.0
 10
37.01678820512217
 20
254.8484836076002
 30
0.0
 10
37.11365384259508
 20
254.8579427296184
 30
0.0
 10
37.21083909203013
 20
254.8668268145386
 30
0.0
 10
37.31928310695201
 20
254.8760536308554
 30
0.0
 10
37.43905663573716
 20
254.8853435680122
 30
0.0
 10
37.57023124635187
 20
254.8943718590384
 30
0.0
 10
37.701921304855
 20
254.9022684625604
 30
0.0
 10
37.83407954503072
 20
254.9090001775965
 30
0.0
 10
37.9666555796007
 20
254.9145467507036
 30
0.0
 10
38.08848515672585
 20
254.9185235265676
 30
0.0
 10
38.19946676990453
 20
254.9212488119516
 30
0.0
 10
38.2995761800472
 20
254.9229948326626
 30
0.0
 10
38.39976148531359
 20
254.9240901077012
 30
0.0
 10
38.46658716214446
 20
254.9242257353538
 30
0.0
 10
38.49999999999996
 20
254.9242935491789
 30
0.0
  0
LINE
  5
D0
330
1F
100
AcDbEntity
  8
0
  6
Continuous
 62
     8
370
     0
100
AcDbLine
 10
38.5
 20
186.6124838475
 30
0.0
 11
26.8726046753
 21
186.6124838475
 31
0.0
  0
LINE
  5
D1
330
1F
100
AcDbEntity
  8
0
  6
Continuous
 62
     8
370
     0
100
AcDbLine
 10
50.1273953247
 20
186.6124838475
 30
0.0
 11
38.5
 21
186.6124838475
 31
0.0
  0
LINE
  5
D2
330
1F
100
AcDbEntity
  8
0
  6
Continuous
 62
     8
370
     0
100
AcDbLine
 10
38.5
 20
215.6124838475
 30
0.0
 11
48.8707286581
 21
215.6124838475
 31
0.0
  0
LINE
  5
D3
330
1F
100
AcDbEntity
  8
0
  6
Continuous
 62
     8
370
     0
100
AcDbLine
 10
28.1292713419
 20
215.6124838475
 30
0.0
 11
38.5
 21
215.6124838475
 31
0.0
  0
LINE
  5
D4
330
1F
100
AcDbEntity
  8
0
  6
Continuous
 62
     8
370
     0
100
AcDbLine
 10
50.1273953247
 20
309.3875161525
 30
0.0
 11
26.8726046753
 21
309.3875161525
 31
0.0
  0
LINE
  5
D5
330
1F
100
AcDbEntity
  8
0
  6
Continuous
 62
     8
370
     0
100
AcDbLine
 10
28.1292713419
 20
280.3875161525
 30
0.0
 11
48.8707286581
 21
280.3875161525
 31
0.0
  0
CIRCLE
  5
D6
330
1F
100
AcDbEntity
  8
0
  6
Continuous
 62
     7
370
    30
100
AcDbCircle
 10
145.5
 20
120.5
 30
0.0
 40
11.6278641090603
  0
CIRCLE
  5
D7
330
1F
100
AcDbEntity
  8
0
  6
Continuous
 62
     7
370
    30
100
AcDbCircle
 10
145.5
 20
120.5
 30
0.0
 40
10.75
  0
CIRCLE
  5
D8
330
1F
100
AcDbEntity
  8
0
  6
Continuous
 62
     7
370
    30
100
AcDbCircle
 10
145.5
 20
120.5
 30
0.0
 40
9.5
  0
CIRCLE
  5
D9
330
1F
100
AcDbEntity
  8
0
  6
Continuous
 62
     7
370
    30
100
AcDbCircle
 10
145.5
 20
120.5
 30
0.0
 40
3.75
  0
CIRCLE
  5
DA
330
1F
100
AcDbEntity
  8
0
  6
Continuous
 62
     7
370
    30
100
AcDbCircle
 10
145.5
 20
120.5
 30
0.0
 40
9.0
  0
CIRCLE
  5
DB
330
1F
100
AcDbEntity
  8
0
  6
Continuous
 62
     8
370
     0
100
AcDbCircle
 10
145.5
 20
120.5
 30
0.0
 40
11.12786410906028
  0
LINE
  5
DC
330
1F
100
AcDbEntity
  8
0
  6
Continuous
 62
     7
370
    30
100
AcDbLine
 10
255.0
 20
60.8901686786
 30
0.0
 11
255.0
 21
79.2412950028
 31
0.0
  0
LINE
  5
DD
330
1F
100
AcDbEntity
  8
0
  6
Continuous
 62
     7
370
    30
100
AcDbLine
 10
240.0
 20
81.9059296911
 30
0.0
 11
240.0
 21
60.8901686786
 31
0.0
  0
LINE
  5
DE
330
1F
100
AcDbEntity
  8
0
  6
Continuous
 62
     7
370
    30
100
AcDbLine
 10
259.1219374016
 20
37.0802294596
 30
0.0
 11
257.8658606168
 21
60.7376876382
 31
0.0
  0
LINE
  5
DF
330
1F
100
AcDbEntity
  8
0
  6
Continuous
 62
     7
370
    30
100
AcDbLine
 10
237.1341393832
 20
60.7376876382
 30
0.0
 11
235.8780625984
 21
37.0802294596
 31
0.0
  0
SPLINE
  5
E0
330
1F
100
AcDbEntity
  8
0
  6
Continuous
 62
     7
370
    30
100
AcDbSpline
210
0.0
220
0.0
230
1.0
 70
     8
 71
     3
 72
    72
 73
    68
 74
     0
 42
0.000000001
 43
0.00000001
 40
0.0
 40
0.0
 40
0.0
 40
0.0
 40
0.0032877185140991
 40
0.0185649675199362
 40
0.0338460597945367
 40
0.0491323821075865
 40
0.0644252953556142
 40
0.0797261281889539
 40
0.0950361708450279
 40
0.1103566692273031
 40
0.1256888192681591
 40
0.1410337616136451
 40
0.1563925766665976
 40
0.1717662800230162
 40
0.1871558183350691
 40
0.202562065631675
 40
0.2179858201244908
 40
0.2334278015243128
 40
0.2488886488886147
 40
0.2643689190167648
 40
0.2798690854045974
 40
0.2953895377644353
 40
0.3109305821112301
 40
0.3264924414093971
 40
0.3420752567688365
 40
0.3576790891718524
 40
0.3733039217076356
 40
0.3889496622839308
 40
0.404616146780747
 40
0.4203031426060131
 40
0.4360103526074966
 40
0.4517374192942132
 40
0.4674839293144694
 40
0.4832494181392633
 40
0.4990333748961153
 40
0.5148352472998593
 40
0.530654446628161
 40
0.5464903526899428
 40
0.5623423187393268
 40
0.5782096762894673
 40
0.594091739785995
 40
0.6099878111034007
 40
0.6258971838321897
 40
0.641819147331256
 40
0.6577529905222733
 40
0.6736980054109944
 40
0.6896534903227981
 40
0.7056187528458013
 40
0.7215931124785429
 40
0.7375759029841628
 40
0.7535664744546148
 40
0.7695641950941025
 40
0.7855684527313922
 40
0.8015786560739362
 40
0.8175942357182054
 40
0.8336146449319027
 40
0.8496393602245212
 40
0.865667881723699
 40
0.881699733374508
 40
0.8977344629787066
 40
0.9137716420916455
 40
0.929810865792523
 40
0.9458517523444714
 40
0.9618939427588425
 40
0.9779371002785476
 40
0.9939809097929891
 40
1.0
 40
1.0
 40
1.0
 40
1.0
 10
257.8657427483583
 20
60.73776573068882
 30
0.0
 10
257.8655058156777
 20
60.74288711362876
 30
0.0
 10
257.8641679129649
 20
60.771806349728
 30
0.0
 10
257.8604085071427
 20
60.82449033909248
 30
0.0
 10
257.8544011970716
 20
60.89580616991323
 30
0.0
 10
257.846934793773
 20
60.96707247048784
 30
0.0
 10
257.8381551285881
 20
61.0382857596976
 30
0.0
 10
257.8280234434664
 20
61.10943737970884
 30
0.0
 10
257.816550450279
 20
61.18051997281685
 30
0.0
 10
257.8037335904888
 20
61.25152572538649
 30
0.0
 10
257.7895738751576
 20
61.32244682032121
 30
0.0
 10
257.7740713871336
 20
61.3932752986086
 30
0.0
 10
257.757226507701
 20
61.4640030808306
 30
0.0
 10
257.7390396094864
 20
61.53462194742669
 30
0.0
 10
257.719511162248
 20
61.60512353184085
 30
0.0
 10
257.6986417290937
 20
61.67549931217985
 30
0.0
 10
257.6764319930302
 20
61.74574060536999
 30
0.0
 10
257.6528827760173
 20
61.81583856285306
 30
0.0
 10
257.6279950603807
 20
61.88578416817061
 30
0.0
 10
257.6017700096358
 20
61.95556823640495
 30
0.0
 10
257.5742089892011
 20
62.02518141552469
 30
0.0
 10
257.5453135865644
 20
62.09461418962809
 30
0.0
 10
257.5150856307156
 20
62.16385688406307
 30
0.0
 10
257.4835272106025
 20
62.23289967237498
 30
0.0
 10
257.4506406923969
 20
62.3017325850066
 30
0.0
 10
257.416428735373
 20
62.3703455196525
 30
0.0
 10
257.3808943062182
 20
62.43872825314317
 30
0.0
 10
257.3440406916262
 20
62.50687045471545
 30
0.0
 10
257.3058715090426
 20
62.57476170050496
 30
0.0
 10
257.2663907154698
 20
62.64239148907699
 30
0.0
 10
257.2256026142632
 20
62.70974925780626
 30
0.0
 10
257.1835118598856
 20
62.77682439989632
 30
0.0
 10
257.1401234606182
 20
62.84360628183458
 30
0.0
 10
257.0954427792568
 20
62.91008426106912
 30
0.0
 10
257.0494755318518
 20
62.97624770370061
 30
0.0
 10
257.0022277845786
 20
63.04208600198907
 30
0.0
 10
256.9537059488495
 20
63.10758859148366
 30
0.0
 10
256.9039167747984
 20
63.17274496759931
 30
0.0
 10
256.8528673432893
 20
63.23754470147968
 30
0.0
 10
256.8005650566126
 20
63.30197745500446
 30
0.0
 10
256.7470176280424
 20
63.36603299482019
 30
0.0
 10
256.6922330704351
 20
63.42970120529554
 30
0.0
 10
256.6362196840515
 20
63.49297210032307
 30
0.0
 10
256.5789860437812
 20
63.55583583391239
 30
0.0
 10
256.520540985947
 20
63.61828270954204
 30
0.0
 10
256.4608935948551
 20
63.6803031882548
 30
0.0
 10
256.400053189249
 20
63.74188789550478
 30
0.0
 10
256.3380293088138
 20
63.80302762677742
 30
0.0
 10
256.2748317008604
 20
63.86371335202185
 30
0.0
 10
256.2104703073081
 20
63.92393621894718
 30
0.0
 10
256.144955252066
 20
63.98368755524414
 30
0.0
 10
256.0782968289051
 20
64.04295886980793
 30
0.0
 10
256.0105054898654
 20
64.1017418530235
 30
0.0
 10
255.941591834358
 20
64.16002837625939
 30
0.0
 10
255.8715665986121
 20
64.21781049041655
 30
0.0
 10
255.8004406469623
 20
64.27508042451133
 30
0.0
 10
255.7282249595169
 20
64.33183058104167
 30
0.0
 10
255.6549306366536
 20
64.38805354068045
 30
0.0
 10
255.5805688440331
 20
64.44374202985715
 30
0.0
 10
255.5051509829823
 20
64.49888902497092
 30
0.0
 10
255.4286880228069
 20
64.55348734499941
 30
0.0
 10
255.351192964693
 20
64.60753115266141
 30
0.0
 10
255.272671619158
 20
64.66101033049493
 30
0.0
 10
255.1931570075854
 20
64.7139314516286
 30
0.0
 10
255.1125809393486
 20
64.76623948535581
 30
0.0
 10
255.0481927812524
 20
64.80730605855847
 30
0.0
 10
255.0103296347027
 20
64.83072907999745
 30
0.0
 10
255.0
 20
64.83711923182439
 30
0.0
  0
SPLINE
  5
E1
330
1F
100
AcDbEntity
  8
0
  6
Continuous
 62
     7
370
    30
100
AcDbSpline
210
0.0
220
0.0
230
1.0
 70
     8
 71
     3
 72
    72
 73
    68
 74
     0
 42
0.000000001
 43
0.00000001
 40
0.0
 40
0.0
 40
0.0
 40
0.0
 40
0.0010151973411223
 40
0.017066876797804
 40
0.0331187579057339
 40
0.0491704957158484
 40
0.0652218015638778
 40
0.0812723657284925
 40
0.0973218567396197
 40
0.1133699207477806
 40
0.1294161809557577
 40
0.1454602371270205
 40
0.1615016651832747
 40
0.1775400169075144
 40
0.1935748197674427
 40
0.2096055768767631
 40
0.2256317671106142
 40
0.2416528453939417
 40
0.2576682431797104
 40
0.2736773691359895
 40
0.2896796100581088
 40
0.3056743320237989
 40
0.3216608818063494
 40
0.3376385885606226
 40
0.3536067657929982
 40
0.3695647136261195
 40
0.3855117213643269
 40
0.40144707036345
 40
0.4173700372041062
 40
0.433279897163776
 40
0.4491759279776297
 40
0.4650574138736634
 40
0.4809236498619652
 40
0.496773946253049
 40
0.5126076333744221
 40
0.5284240664497728
 40
0.5442226305998621
 40
0.5600027459202246
 40
0.5757638725863339
 40
0.5915055159343298
 40
0.6072272314621386
 40
0.6229286296956802
 40
0.6386093808624058
 40
0.6542692193173633
 40
0.669907947666261
 40
0.685525440533963
 40
0.7011216479302124
 40
0.7166965981678997
 40
0.7322504002959105
 40
0.7477832460124878
 40
0.7632954110331991
 40
0.7787872558925797
 40
0.7942592261663827
 40
0.8097118521075768
 40
0.8251457476958495
 40
0.840561609107037
 40
0.8559602126142615
 40
0.871342411938595
 40
0.8867091350714419
 40
0.9020613805955685
 40
0.9174002135348407
 40
0.9327267607664549
 40
0.9480422060313299
 40
0.96334778458063
 40
0.9786447774977769
 40
0.9939345057360458
 40
1.0
 40
1.0
 40
1.0
 40
1.0
 10
240.0
 20
64.83722368031556
 30
0.0
 10
239.9982533169831
 20
64.83614867720924
 30
0.0
 10
239.968889150385
 20
64.81807638246472
 30
0.0
 10
239.9128086372862
 20
64.7824561489872
 30
0.0
 10
239.8318470423485
 20
64.73032371678181
 30
0.0
 10
239.7519848826911
 20
64.67754587988192
 30
0.0
 10
239.6730978544924
 20
64.62421212061123
 30
0.0
 10
239.5952340241207
 20
64.5703063286829
 30
0.0
 10
239.5183951572861
 20
64.51584083882256
 30
0.0
 10
239.4425953407352
 20
64.46082054545138
 30
0.0
 10
239.367845271473
 20
64.40525252410639
 30
0.0
 10
239.2941564612433
 20
64.3491434602567
 30
0.0
 10
239.2215401045329
 20
64.29250034477754
 30
0.0
 10
239.150007375507
 20
64.23533029416178
 30
0.0
 10
239.0795693412998
 20
64.17764060506221
 30
0.0
 10
239.010236977212
 20
64.11943874581844
 30
0.0
 10
238.9420211537056
 20
64.06073236453386
 30
0.0
 10
238.8749326300232
 20
64.00152929229091
 30
0.0
 10
238.8089820450851
 20
63.94183754713386
 30
0.0
 10
238.7441799081601
 20
63.88166533720138
 30
0.0
 10
238.6805365886501
 20
63.82102106332626
 30
0.0
 10
238.6180623051834
 20
63.75991332089873
 30
0.0
 10
238.5567671140026
 20
63.69835090092732
 30
0.0
 10
238.4966608967032
 20
63.63634279019545
 30
0.0
 10
238.4377533473824
 20
63.57389817042488
 30
0.0
 10
238.3800539592732
 20
63.51102641635736
 30
0.0
 10
238.3235720109569
 20
63.44773709267637
 30
0.0
 10
238.2683165522623
 20
63.38403994969693
 30
0.0
 10
238.2142963899764
 20
63.31994491776571
 30
0.0
 10
238.1615200735065
 20
63.25546210032568
 30
0.0
 10
238.1099958806475
 20
63.19060176561753
 30
0.0
 10
238.0597318036224
 20
63.12537433700799
 30
0.0
 10
238.0107355355704
 20
63.05979038195492
 30
0.0
 10
237.96301445767
 20
62.99386059964221
 30
0.0
 10
237.916575627084
 20
62.92759580733995
 30
0.0
 10
237.8714257659175
 20
62.8610069255687
 30
0.0
 10
237.8275712513762
 20
62.7941049621713
 30
0.0
 10
237.785018107305
 20
62.72690099541772
 30
0.0
 10
237.7437719972764
 20
62.65940615629162
 30
0.0
 10
237.7038382193828
 20
62.59163161012604
 30
0.0
 10
237.6652217028675
 20
62.52358853777348
 30
0.0
 10
237.6279270067059
 20
62.45528811651197
 30
0.0
 10
237.5919583202239
 20
62.38674150089562
 30
0.0
 10
237.5573194658081
 20
62.31795980377037
 30
0.0
 10
237.5240139037363
 20
62.2489540776733
 30
0.0
 10
237.492044739119
 20
62.17973529683649
 30
0.0
 10
237.4614147309156
 20
62.1103143400084
 30
0.0
 10
237.4321263029503
 20
62.04070197429563
 30
0.0
 10
237.4041815568269
 20
61.97090884021587
 30
0.0
 10
237.3775822866086
 20
61.9009454381328
 30
0.0
 10
237.3523299951039
 20
61.83082211622698
 30
0.0
 10
237.3284259115665
 20
61.76054906013037
 30
0.0
 10
237.3058710106419
 20
61.69013628432988
 30
0.0
 10
237.2846660321964
 20
61.61959362542361
 30
0.0
 10
237.2648115023317
 20
61.54893073726752
 30
0.0
 10
237.2463077533447
 20
61.47815708810121
 30
0.0
 10
237.2291549498339
 20
61.40728195943703
 30
0.0
 10
237.2133530929584
 20
61.33631444750171
 30
0.0
 10
237.1989021060018
 20
61.26526346418829
 30
0.0
 10
237.1858016157123
 20
61.19413774862951
 30
0.0
 10
237.174051865079
 20
61.12294584768173
 30
0.0
 10
237.1636504056281
 20
61.05169622039534
 30
0.0
 10
237.1546045175601
 20
60.98039688796125
 30
0.0
 10
237.1468849907711
 20
60.9090567852701
 30
0.0
 10
237.1405985340479
 20
60.83768077461927
 30
0.0
 10
237.1364007119525
 20
60.78063561143652
 30
0.0
 10
237.1347750591762
 20
60.74737268289469
 30
0.0
 10
237.1343133272701
 20
60.73792505938002
 30
0.0
  0
SPLINE
  5
E2
330
1F
100
AcDbEntity
  8
0
  6
Continuous
 62
     7
370
    30
100
AcDbSpline
210
0.0
220
0.0
230
1.0
 70
     8
 71
     3
 72
   304
 73
   300
 74
     0
 42
0.000000001
 43
0.00000001
 40
0.0
 40
0.0
 40
0.0
 40
0.0
 40
0.0031626869539569
 40
0.0064259543625609
 40
0.0096887289597063
 40
0.012951260802669
 40
0.0162137581869175
 40
0.01947643116521
 40
0.0227395298334713
 40
0.0260033022186514
 40
0.029267993173661
 40
0.0325338432928137
 40
0.035801087854463
 40
0.0390699557973855
 40
0.0423406687372435
 40
0.0456134400293404
 40
0.0488884738835757
 40
0.0521659645374711
 40
0.0554460954924635
 40
0.0587290388186958
 40
0.0620149545328625
 40
0.0653039900532544
 40
0.0685962797356441
 40
0.0718919444929527
 40
0.0751910915010738
 40
0.0784938139924461
 40
0.0818001911381506
 40
0.0851102880185763
 40
0.0884241556818319
 40
0.0917418312881412
 40
0.0950633383377506
 40
0.0983886869788669
 40
0.1017178743914666
 40
0.1050508852420017
 40
0.1083876922032674
 40
0.1117282565333427
 40
0.1150725287064926
 40
0.1184204490891656
 40
0.1217719486533237
 40
0.125126949719511
 40
0.1284853667219008
 40
0.1318471069875751
 40
0.1352120715226025
 40
0.1385801557974954
 40
0.1419512505254207
 40
0.1453252424264825
 40
0.1487020149724342
 40
0.1520814491064235
 40
0.1554634239331728
 40
0.1588478173756028
 40
0.1622345067945665
 40
0.1656233695692604
 40
0.1690142836359988
 40
0.1724071279843675
 40
0.175801783109832
 40
0.1791981314226218
 40
0.1825960576132925
 40
0.1859954489756797
 40
0.1893961956884004
 40
0.1927981910564109
 40
0.1962013317144187
 40
0.1996055177940932
 40
0.2030106530572823
 40
0.2064166449975098
 40
0.2098234049121223
 40
0.2132308479475071
 40
0.216638893119662
 40
0.2200474633127326
 40
0.2234564852575789
 40
0.2268658894927084
 40
0.2302756103098239
 40
0.2336855856858003
 40
0.2370957572031646
 40
0.240506069960859
 40
0.2439164724767848
 40
0.2473269165839212
 40
0.2507373432132338
 40
0.2541477113159483
 40
0.2575579829706747
 40
0.2609681230761127
 40
0.2643780992324345
 40
0.267787881622922
 40
0.271197442896438
 40
0.2746067580514023
 40
0.278015804321664
 40
0.2814245610648147
 40
0.284833009653156
 40
0.2882411333677304
 40
0.2916489172954985
 40
0.2950563482299974
 40
0.2984634145754971
 40
0.301870106254746
 40
0.3052764146204502
 40
0.3086823323704225
 40
0.312087853466426
 40
0.3154929730566829
 40
0.3188976874020523
 40
0.3223019938057025
 40
0.3257058905463676
 40
0.3291093768149028
 40
0.3325124526542394
 40
0.3359151189024884
 40
0.3393173771391882
 40
0.3427192296344992
 40
0.3461206793013293
 40
0.3495217296501649
 40
0.3529223847465829
 40
0.3563226491712669
 40
0.3597225279825008
 40
0.3631220266808639
 40
0.3665211511762465
 40
0.3699199077568409
 40
0.3733183030601736
 40
0.3767163440460169
 40
0.3801140379710699
 40
0.3835113923653329
 40
0.3869084150100638
 40
0.3903051139172765
 40
0.3937014973106289
 40
0.3970975736076566
 40
0.4004933514033134
 40
0.4038888394546515
 40
0.4072840466666449
 40
0.4106789820790779
 40
0.4140736548544039
 40
0.4174680742665521
 40
0.4208622496905869
 40
0.4242561905931988
 40
0.4276499065239495
 40
0.4310434071072308
 40
0.4344367020349158
 40
0.437829801059581
 40
0.4412227139883573
 40
0.4446154506772974
 40
0.4480080210262368
 40
0.4514004349741319
 40
0.4547927024948257
 40
0.4581848335932205
 40
0.4615768383017568
 40
0.4649687266773174
 40
0.4683605087983682
 40
0.4717521947623715
 40
0.4751437946835335
 40
0.4785353186906368
 40
0.4819267769252412
 40
0.4853181795398959
 40
0.4887095366966255
 40
0.4921008585654868
 40
0.4954921553232555
 40
0.4988834371521841
 40
0.5022747142388351
 40
0.5056659961677609
 40
0.5090572903392574
 40
0.5124486069465578
 40
0.5158399561831156
 40
0.5192313482415173
 40
0.5226227933122302
 40
0.5260143015823795
 40
0.5294058832343755
 40
0.5327975484444378
 40
0.5361893073810116
 40
0.5395811702029792
 40
0.5429731470576865
 40
0.5463652480788187
 40
0.5497574833839658
 40
0.5531498630719878
 40
0.5565423972200504
 40
0.5599350958803868
 40
0.5633279690766538
 40
0.566721026799993
 40
0.5701142790045988
 40
0.5735077356029296
 40
0.5769014064603591
 40
0.5802953013893452
 40
0.5836894301431076
 40
0.5870838024085722
 40
0.5904784277988004
 40
0.5938733158446865
 40
0.5972684759858865
 40
0.6006639175610298
 40
0.6040596497970262
 40
0.6074556817975243
 40
0.6108520225303966
 40
0.6142486808142017
 40
0.6176456653035568
 40
0.6210429844733842
 40
0.6244406466019117
 40
0.6278386597524105
 40
0.6312370317534439
 40
0.6346357701778068
 40
0.6380348823198128
 40
0.6414343751709582
 40
0.6448342553938752
 40
0.6482345292944288
 40
0.6516352027919242
 40
0.6550362813872207
 40
0.6584377701287506
 40
0.6618396735762448
 40
0.6652419957621369
 40
0.6686447401504647
 40
0.6720479095931627
 40
0.6754515062836326
 40
0.678855531707564
 40
0.6822599865906808
 40
0.6856648708435003
 40
0.6890701835029143
 40
0.692475922670452
 40
0.6958820854471813
 40
0.6992886678650947
 40
0.7026956648149474
 40
0.7061030699704371
 40
0.7095108757086614
 40
0.7129190730268895
 40
0.7163276514554218
 40
0.7197365989668589
 40
0.7231459018814409
 40
0.7265555447688268
 40
0.7299655103462297
 40
0.733375779373095
 40
0.7367863305425445
 40
0.7401971403697635
 40
0.7436081830776265
 40
0.7470194304800367
 40
0.7504308518632384
 40
0.7538424138657717
 40
0.7572540803575469
 40
0.7606658123188723
 40
0.7640775621499678
 40
0.7674892745088063
 40
0.7709008998891055
 40
0.7743123853928932
 40
0.7777236746243479
 40
0.7811347075914712
 40
0.7845454206162704
 40
0.7879557462552119
 40
0.7913656132316897
 40
0.7947749463826576
 40
0.798183666621279
 40
0.8015916909181124
 40
0.8049989323028518
 40
0.8084052998892127
 40
0.8118106989253542
 40
0.8152150308722529
 40
0.8186181935126075
 40
0.8220200810925866
 40
0.8254205844988789
 40
0.8288195914731802
 40
0.8322169868661603
 40
0.8356126529327709
 40
0.839006469670264
 40
0.8423983152001904
 40
0.8457880661950136
 40
0.8491755983496616
 40
0.8525607868976243
 40
0.8559435071708625
 40
0.8593236352019321
 40
0.862701048366193
 40
0.8660756260612278
 40
0.8694472504199313
 40
0.8728158070529728
 40
0.876181185815653
 40
0.8795432815935821
 40
0.8829019951008122
 40
0.8862572336837481
 40
0.8896089121235348
 40
0.8929569534291908
 40
0.8963012896137417
 40
0.8996418624450528
 40
0.9029786241634867
 40
0.9063115381583116
 40
0.9096405795949929
 40
0.9129657359861448
 40
0.9162870076990891
 40
0.9196044083937261
 40
0.9229179653850882
 40
0.9262277199256549
 40
0.9295337274034371
 40
0.932836057452679
 40
0.9361347939749105
 40
0.939430035069065
 40
0.9427218928703167
 40
0.9460104932980633
 40
0.9492959757145313
 40
0.9525784924961483
 40
0.955858208520566
 40
0.9591353005730684
 40
0.9624099566765254
 40
0.9656823753496446
 40
0.9689527647988645
 40
0.9722213420493886
 40
0.975488332021428
 40
0.9787539665577852
 40
0.9820184834092944
 40
0.9852821251846389
 40
0.9885451382712432
 40
0.9918077717340888
 40
0.9950702761992137
 40
0.9983328221216593
 40
1.0
 40
1.0
 40
1.0
 40
1.0
 10
235.8780488676542
 20
37.07958819767789
 30
0.0
 10
235.876875585146
 20
37.05528300101902
 30
0.0
 10
235.8744917071456
 20
37.00589964857962
 30
0.0
 10
235.8725881887687
 20
36.93140625939348
 30
0.0
 10
235.87190694901
 20
36.85613534937013
 30
0.0
 10
235.8725998244954
 20
36.78086970957548
 30
0.0
 10
235.8746310569194
 20
36.70561810060416
 30
0.0
 10
235.878009781346
 20
36.63038800209654
 30
0.0
 10
235.8827330990495
 20
36.55518689494545
 30
0.0
 10
235.8888013681749
 20
36.48002185962731
 30
0.0
 10
235.8962141029705
 20
36.40490002055236
 30
0.0
 10
235.9049710652569
 20
36.32982852936766
 30
0.0
 10
235.9150719646349
 20
36.25481458690811
 30
0.0
 10
235.9265165296443
 20
36.17986545418377
 30
0.0
 10
235.9393044776256
 20
36.10498846554538
 30
0.0
 10
235.9534355099856
 20
36.03019104035469
 30
0.0
 10
235.9689092990261
 20
35.95548069399756
 30
0.0
 10
235.9857254755524
 20
35.88086504787815
 30
0.0
 10
236.00388361495
 20
35.80635183835932
 30
0.0
 10
236.0233832225257
 20
35.73194892453903
 30
0.0
 10
236.0442237180882
 20
35.65766429478324
 30
0.0
 10
236.0664044199764
 20
35.58350607194081
 30
0.0
 10
236.0899245286919
 20
35.50948251718143
 30
0.0
 10
236.1147831103121
 20
35.43560203240789
 30
0.0
 10
236.1409790798618
 20
35.36187316121114
 30
0.0
 10
236.168511184823
 20
35.28830458835209
 30
0.0
 10
236.1973779889587
 20
35.21490513776939
 30
0.0
 10
236.227577856628
 20
35.14168376913105
 30
0.0
 10
236.259108937758
 20
35.06864957296483
 30
0.0
 10
236.2919691536333
 20
34.99581176441898
 30
0.0
 10
236.3261561836491
 20
34.92317967572297
 30
0.0
 10
236.361667453164
 20
34.85076274743374
 30
0.0
 10
236.3985001225676
 20
34.7785705185665
 30
0.0
 10
236.436651077666
 20
34.70661261572686
 30
0.0
 10
236.4761169214638
 20
34.63489874136592
 30
0.0
 10
236.5168939674043
 20
34.56343866129815
 30
0.0
 10
236.5589782341077
 20
34.4922421916203
 30
0.0
 10
236.6023654416227
 20
34.4213191851833
 30
0.0
 10
236.6470510091931
 20
34.35067951776269
 30
0.0
 10
236.6930300545116
 20
34.28033307408073
 30
0.0
 10
236.7402973944194
 20
34.210289733825
 30
0.0
 10
236.7888475469927
 20
34.14055935780471
 30
0.0
 10
236.8386747349362
 20
34.07115177438132
 30
0.0
 10
236.8897728901948
 20
34.00207676629402
 30
0.0
 10
236.9421356596804
 20
33.93334405799784
 30
0.0
 10
236.995756412002
 20
33.86496330361207
 30
0.0
 10
237.0506282450791
 20
33.79694407556764
 30
0.0
 10
237.1067439945172
 20
33.72929585402704
 30
0.0
 10
237.1640962426189
 20
33.66202801713364
 30
0.0
 10
237.2226773279049
 20
33.59514983213598
 30
0.0
 10
237.2824793550248
 20
33.52867044741504
 30
0.0
 10
237.3434942049357
 20
33.46259888543138
 30
0.0
 10
237.4057135452394
 20
33.39694403659376
 30
0.0
 10
237.4691288405704
 20
33.3317146540417
 30
0.0
 10
237.533731362938
 20
33.26691934932037
 30
0.0
 10
237.5995122019351
 20
33.20256658891957
 30
0.0
 10
237.666462274734
 20
33.13866469163942
 30
0.0
 10
237.734572335801
 20
33.0752218267367
 30
0.0
 10
237.8038329862715
 20
33.01224601280505
 30
0.0
 10
237.8742346829353
 20
32.94974511733189
 30
0.0
 10
237.9457677467945
 20
32.88772685687836
 30
0.0
 10
238.0184223711617
 20
32.82619879782083
 30
0.0
 10
238.0921886292791
 20
32.76516835759787
 30
0.0
 10
238.167056481441
 20
32.70464280640071
 30
0.0
 10
238.2430157816178
 20
32.64462926925179
 30
0.0
 10
238.3200562835756
 20
32.58513472841422
 30
0.0
 10
238.3981676465015
 20
32.52616602607809
 30
0.0
 10
238.4773394401408
 20
32.46772986727375
 30
0.0
 10
238.5575611494636
 20
32.40983282296339
 30
0.0
 10
238.6388221788767
 20
32.35248133326637
 30
0.0
 10
238.7211118560006
 20
32.29568171077894
 30
0.0
 10
238.8044194350373
 20
32.23944014394868
 30
0.0
 10
238.8887340997495
 20
32.18376270047276
 30
0.0
 10
238.9740449660783
 20
32.12865533068818
 30
0.0
 10
239.060341084426
 20
32.07412387092867
 30
0.0
 10
239.1476113212939
 20
32.02017412121417
 30
0.0
 10
239.2358444823897
 20
31.96681176617079
 30
0.0
 10
239.3250293159924
 20
31.91404237754484
 30
0.0
 10
239.4151546406553
 20
31.86187134697251
 30
0.0
 10
239.506209218553
 20
31.81030396784181
 30
0.0
 10
239.59818175457
 20
31.75934543903821
 30
0.0
 10
239.6910608968675
 20
31.70900086756217
 30
0.0
 10
239.7848352373145
 20
31.65927527100337
 30
0.0
 10
239.8794933118033
 20
31.61017357986782
 30
0.0
 10
239.9750236004676
 20
31.56170063975866
 30
0.0
 10
240.0714145278197
 20
31.51386121340909
 30
0.0
 10
240.168654462822
 20
31.46665998257003
 30
0.0
 10
240.2667317189061
 20
31.42010154975495
 30
0.0
 10
240.365634553955
 20
31.37419043984372
 30
0.0
 10
240.465351170256
 20
31.3289311015515
 30
0.0
 10
240.5658697144388
 20
31.28432790876467
 30
0.0
 10
240.6671782774055
 20
31.24038516175092
 30
0.0
 10
240.7692648942627
 20
31.19710708824635
 30
0.0
 10
240.872117544262
 20
31.1544978444275
 30
0.0
 10
240.9757241507562
 20
31.11256151577122
 30
0.0
 10
241.0800725811773
 20
31.07130211781035
 30
0.0
 10
241.1851506470398
 20
31.03072359678973
 30
0.0
 10
241.2909461039769
 20
30.99082983022815
 30
0.0
 10
241.3974466518083
 20
30.95162462739291
 30
0.0
 10
241.5046399346486
 20
30.91311172969125
 30
0.0
 10
241.6125135410532
 20
30.87529481098545
 30
0.0
 10
241.721055004209
 20
30.83817747783591
 30
0.0
 10
241.8302518021671
 20
30.80176326967798
 30
0.0
 10
241.9400913581217
 20
30.76605565893723
 30
0.0
 10
242.0505610407357
 20
30.73105805108837
 30
0.0
 10
242.1616481645121
 20
30.69677378466178
 30
0.0
 10
242.2733399902124
 20
30.66320613120326
 30
0.0
 10
242.3856237253238
 20
30.63035829518983
 30
0.0
 10
242.4984865245713
 20
30.59823341390655
 30
0.0
 10
242.6119154904789
 20
30.56683455728828
 30
0.0
 10
242.7258976739745
 20
30.53616472772908
 30
0.0
 10
242.8404200750426
 20
30.50622685986413
 30
0.0
 10
242.9554696434207
 20
30.47702382032597
 30
0.0
 10
243.0710332793395
 20
30.4485584074792
 30
0.0
 10
243.1870978343069
 20
30.42083335113609
 30
0.0
 10
243.3036501119334
 20
30.3938513122557
 30
0.0
 10
243.4206768687985
 20
30.36761488262981
 30
0.0
 10
243.5381648153568
 20
30.3421265845566
 30
0.0
 10
243.6561006168824
 20
30.31738887050658
 30
0.0
 10
243.7744708944507
 20
30.29340412278008
 30
0.0
 10
243.8932622259568
 20
30.27017465316103
 30
0.0
 10
244.0124611471676
 20
30.24770270256669
 30
0.0
 10
244.1320541528083
 20
30.22599044069684
 30
0.0
 10
244.2520276976807
 20
30.20503996568177
 30
0.0
 10
244.3723681978124
 20
30.18485330373372
 30
0.0
 10
244.4930620316362
 20
30.16543240879992
 30
0.0
 10
244.6140955411969
 20
30.14677916222034
 30
0.0
 10
244.7354550333867
 20
30.12889537239161
 30
0.0
 10
244.857126781205
 20
30.11178277443635
 30
0.0
 10
244.9790970250439
 20
30.09544302988176
 30
0.0
 10
245.1013519739971
 20
30.07987772634475
 30
0.0
 10
245.2238778071907
 20
30.06508837722872
 30
0.0
 10
245.3466606751349
 20
30.05107642142894
 30
0.0
 10
245.4696867010968
 20
30.03784322304994
 30
0.0
 10
245.5929419824904
 20
30.02539007113399
 30
0.0
 10
245.7164125922856
 20
30.0137181794025
 30
0.0
 10
245.8400845804333
 20
30.00282868600961
 30
0.0
 10
245.9639439753059
 20
29.99272265331017
 30
0.0
 10
246.0879767851521
 20
29.9834010676406
 30
0.0
 10
246.2121689995654
 20
29.9748648391149
 30
0.0
 10
246.336506590965
 20
29.96711480143507
 30
0.0
 10
246.4609755160875
 20
29.96015171171675
 30
0.0
 10
246.5855617174891
 20
29.95397625033026
 30
0.0
 10
246.7102511250577
 20
29.94858902075757
 30
0.0
 10
246.8350296575322
 20
29.94399054946468
 30
0.0
 10
246.9598832240301
 20
29.94018128579113
 30
0.0
 10
247.0847977255812
 20
29.93716160185513
 30
0.0
 10
247.2097590566663
 20
29.93493179247596
 30
0.0
 10
247.334753106761
 20
29.93349207511229
 30
0.0
 10
247.4597657618826
 20
29.93284258981829
 30
0.0
 10
247.5847828987029
 20
29.93298339920777
 30
0.0
 10
247.7097903592393
 20
29.93391448798478
 30
0.0
 10
247.834773986751
 20
29.93563576223097
 30
0.0
 10
247.9597196347912
 20
29.93814704964996
 30
0.0
 10
248.084613195611
 20
29.94144810083248
 30
0.0
 10
248.2094405674081
 20
29.94553858906034
 30
0.0
 10
248.3341876558735
 20
29.95041811038258
 30
0.0
 10
248.4588403757334
 20
29.95608618370874
 30
0.0
 10
248.5833846522876
 20
29.96254225091891
 30
0.0
 10
248.7078064229419
 20
29.9697856769908
 30
0.0
 10
248.8320916387342
 20
29.97781575014332
 30
0.0
 10
248.9562262658523
 20
29.9866316819964
 30
0.0
 10
249.0801962871441
 20
29.99623260774743
 30
0.0
 10
249.2039877036177
 20
30.00661758636352
 30
0.0
 10
249.3275865359313
 20
30.01778560078965
 30
0.0
 10
249.4509788258717
 20
30.02973555817217
 30
0.0
 10
249.57415063782
 20
30.0424662900976
 30
0.0
 10
249.6970880602034
 20
30.05597655284604
 30
0.0
 10
249.8197772069332
 20
30.07026502765919
 30
0.0
 10
249.9422042188262
 20
30.08533032102229
 30
0.0
 10
250.0643552650101
 20
30.10117096495906
 30
0.0
 10
250.1862165443102
 20
30.1177854173402
 30
0.0
 10
250.3077742866171
 20
30.13517206220375
 30
0.0
 10
250.4290147542347
 20
30.15332921008714
 30
0.0
 10
250.5499242432063
 20
30.1722550983704
 30
0.0
 10
250.6704890846181
 20
30.19194789162943
 30
0.0
 10
250.7906956458787
 20
30.21240568199842
 30
0.0
 10
250.9105303319741
 20
30.23362648954108
 30
0.0
 10
251.0299795866958
 20
30.25560826262893
 30
0.0
 10
251.149029893841
 20
30.27834887832614
 30
0.0
 10
251.2676677783849
 20
30.30184614277969
 30
0.0
 10
251.3858798076217
 20
30.3260977916131
 30
0.0
 10
251.5036525922745
 20
30.35110149032336
 30
0.0
 10
251.6209727875723
 20
30.37685483467834
 30
0.0
 10
251.7378270942928
 20
30.40335535111432
 30
0.0
 10
251.8542022597691
 20
30.43060049713096
 30
0.0
 10
251.9700850788609
 20
30.45858766168288
 30
0.0
 10
252.0854623948855
 20
30.48731416556497
 30
0.0
 10
252.200321100511
 20
30.51677726178947
 30
0.0
 10
252.3146481386072
 20
30.54697413595375
 30
0.0
 10
252.4284305030559
 20
30.57790190659451
 30
0.0
 10
252.5416552395164
 20
30.60955762552723
 30
0.0
 10
252.6543094461476
 20
30.64193827816792
 30
0.0
 10
252.7663802742838
 20
30.67504078383345
 30
0.0
 10
252.8778549290643
 20
30.70886199601852
 30
0.0
 10
252.9887206700151
 20
30.74339870264508
 30
0.0
 10
253.0989648115823
 20
30.77864762628093
 30
0.0
 10
253.2085747236165
 20
30.81460542432383
 30
0.0
 10
253.3175378318068
 20
30.8512686891476
 30
0.0
 10
253.4258416180661
 20
30.88863394820505
 30
0.0
 10
253.5334736208648
 20
30.92669766408431
 30
0.0
 10
253.6404214355148
 20
30.9654562345134
 30
0.0
 10
253.7466727144033
 20
31.00490599230867
 30
0.0
 10
253.8522151671784
 20
31.04504320526161
 30
0.0
 10
253.9570365608836
 20
31.08586407595844
 30
0.0
 10
254.0611247200485
 20
31.12736474152857
 30
0.0
 10
254.164467526731
 20
31.16954127331396
 30
0.0
 10
254.2670529205183
 20
31.21238967645546
 30
0.0
 10
254.3688688984859
 20
31.25590588938906
 30
0.0
 10
254.4699035151195
 20
31.30008578324543
 30
0.0
 10
254.5701448822028
 20
31.34492516114829
 30
0.0
 10
254.6695811686772
 20
31.3904197574029
 30
0.0
 10
254.7682006004761
 20
31.43656523656954
 30
0.0
 10
254.8659914603421
 20
31.48335719241595
 30
0.0
 10
254.9629420876322
 20
31.53079114674084
 30
0.0
 10
255.0590408781209
 20
31.57886254806354
 30
0.0
 10
255.1542762838072
 20
31.62756677017355
 30
0.0
 10
255.2486368127383
 20
31.67689911053378
 30
0.0
 10
255.3421110288584
 20
31.72685478853268
 30
0.0
 10
255.4346875518968
 20
31.77742894358104
 30
0.0
 10
255.5263550573071
 20
31.82861663304717
 30
0.0
 10
255.6171022762734
 20
31.88041283003053
 30
0.0
 10
255.7069179957986
 20
31.93281242096842
 30
0.0
 10
255.7957910588934
 20
31.98581020307611
 30
0.0
 10
255.8837103648828
 20
32.03940088162056
 30
0.0
 10
255.970664869853
 20
32.09357906702807
 30
0.0
 10
256.0566435404671
 20
32.14833924203047
 30
0.0
 10
256.1416353193984
 20
32.20367573178589
 30
0.0
 10
256.2256292063751
 20
32.25958274703181
 30
0.0
 10
256.308614304259
 20
32.31605441135765
 30
0.0
 10
256.390579854248
 20
32.37308478489371
 30
0.0
 10
256.4715151620705
 20
32.43066781130896
 30
0.0
 10
256.5514096002068
 20
32.48879731401598
 30
0.0
 10
256.6302526104677
 20
32.54746699232496
 30
0.0
 10
256.7080337069534
 20
32.60667041756767
 30
0.0
 10
256.7847424794161
 20
32.66640102922248
 30
0.0
 10
256.8603685970554
 20
32.72665213107551
 30
0.0
 10
256.9349018127696
 20
32.78741688745645
 30
0.0
 10
257.0083319678854
 20
32.8486883195916
 30
0.0
 10
257.0806489973858
 20
32.91045930212147
 30
0.0
 10
257.1518429356523
 20
32.97272255983356
 30
0.0
 10
257.2219039227341
 20
33.03547066466388
 30
0.0
 10
257.2908222111491
 20
33.09869603302558
 30
0.0
 10
257.3585881732211
 20
33.16239092352457
 30
0.0
 10
257.4251923089444
 20
33.22654743512505
 30
0.0
 10
257.4906252543658
 20
33.29115750582839
 30
0.0
 10
257.5548777904612
 20
33.3562129119318
 30
0.0
 10
257.6179408524785
 20
33.42170526792926
 30
0.0
 10
257.6798055397056
 20
33.48762602712031
 30
0.0
 10
257.740463125618
 20
33.55396648298569
 30
0.0
 10
257.7999050683412
 20
33.62071777138725
 30
0.0
 10
257.8581230213643
 20
33.68787087364485
 30
0.0
 10
257.9151088444196
 20
33.75541662053261
 30
0.0
 10
257.9708546144401
 20
33.82334569723524
 30
0.0
 10
258.025352636495
 20
33.89164864928652
 30
0.0
 10
258.0785954545934
 20
33.96031588951135
 30
0.0
 10
258.1305758622415
 20
34.02933770597087
 30
0.0
 10
258.1812869126272
 20
34.09870427090302
 30
0.0
 10
258.2307219283092
 20
34.16840565063432
 30
0.0
 10
258.2788745102759
 20
34.23843181642295
 30
0.0
 10
258.3257385462469
 20
34.30877265617892
 30
0.0
 10
258.3713082180847
 20
34.37941798699046
 30
0.0
 10
258.4155780081946
 20
34.45035756837071
 30
0.0
 10
258.4585427047923
 20
34.52158111612497
 30
0.0
 10
258.5001974059319
 20
34.59307831672309
 30
0.0
 10
258.5405375221972
 20
34.66483884205137
 30
0.0
 10
258.5795587779717
 20
34.73685236440572
 30
0.0
 10
258.6172572112242
 20
34.80910857158045
 30
0.0
 10
258.6536291717587
 20
34.88159718190148
 30
0.0
 10
258.6886713179024
 20
34.95430795904584
 30
0.0
 10
258.722380611624
 20
35.02723072649275
 30
0.0
 10
258.7547543120963
 20
35.10035538144795
 30
0.0
 10
258.7857899677389
 20
35.17367190809264
 30
0.0
 10
258.8154854068019
 20
35.24717039001008
 30
0.0
 10
258.8438387265644
 20
35.32084102165629
 30
0.0
 10
258.8708482812519
 20
35.3946741187497
 30
0.0
 10
258.896512668786
 20
35.46866012747086
 30
0.0
 10
258.9208307165015
 20
35.54278963237554
 30
0.0
 10
258.9438014659781
 20
35.6170533629433
 30
0.0
 10
258.9654241571466
 20
35.69144219869791
 30
0.0
 10
258.9856982118375
 20
35.76594717285767
 30
0.0
 10
259.0046232169481
 20
35.84055947448621
 30
0.0
 10
259.0221989074063
 20
35.91527044913659
 30
0.0
 10
259.0384251491177
 20
35.99007159799525
 30
0.0
 10
259.0533019220467
 20
36.06495457554873
 30
0.0
 10
259.0668293037232
 20
36.1399111858159
 30
0.0
 10
259.0790074529099
 20
36.21493337718479
 30
0.0
 10
259.0898365952201
 20
36.29001323596686
 30
0.0
 10
259.099317004774
 20
36.36514297857019
 30
0.0
 10
259.1074490046559
 20
36.44031494302455
 30
0.0
 10
259.1142329019653
 20
36.51552157755044
 30
0.0
 10
259.1196691721003
 20
36.59075543522263
 30
0.0
 10
259.1237577193324
 20
36.66600914147302
 30
0.0
 10
259.1265005893169
 20
36.74127545898423
 30
0.0
 10
259.1278918106893
 20
36.81654698588293
 30
0.0
 10
259.1279552650772
 20
36.89181721926359
 30
0.0
 10
259.1266033615628
 20
36.9670759020478
 30
0.0
 10
259.1245621000771
 20
37.03005728664533
 30
0.0
 10
259.1224545682011
 20
37.06793419091343
 30
0.0
 10
259.1217418243105
 20
37.08074373957126
 30
0.0
  0
SPLINE
  5
E3
330
1F
100
AcDbEntity
  8
0
  6
Continuous
 62
     7
370
    30
100
AcDbSpline
210
0.0
220
0.0
230
1.0
 70
     8
 71
     3
 72
   304
 73
   300
 74
     0
 42
0.000000001
 43
0.00000001
 40
0.0
 40
0.0
 40
0.0
 40
0.0
 40
0.0031626869547172
 40
0.0064259543633222
 40
0.0096887289604659
 40
0.0129512608034329
 40
0.0162137581876916
 40
0.0194764311659765
 40
0.022739529834242
 40
0.0260033022194258
 40
0.0292679931744342
 40
0.0325338432935865
 40
0.0358010878552395
 40
0.0390699557981613
 40
0.0423406687380253
 40
0.04561344003012
 40
0.0488884738843578
 40
0.0521659645382559
 40
0.0554460954932461
 40
0.0587290388194806
 40
0.0620149545336449
 40
0.0653039900540422
 40
0.0685962797364294
 40
0.0718919444937352
 40
0.0751910915018614
 40
0.0784938139932377
 40
0.0818001911389432
 40
0.0851102880193704
 40
0.0884241556826169
 40
0.0917418312889301
 40
0.0950633383385418
 40
0.0983886869796552
 40
0.1017178743922605
 40
0.1050508852427871
 40
0.1083876922040615
 40
0.1117282565341373
 40
0.1150725287072874
 40
0.1184204490899613
 40
0.1217719486541217
 40
0.1251269497203087
 40
0.1284853667227008
 40
0.1318471069883769
 40
0.1352120715233973
 40
0.1385801557982913
 40
0.1419512505262167
 40
0.1453252424272822
 40
0.148702014973236
 40
0.1520814491072254
 40
0.1554634239339749
 40
0.1588478173763976
 40
0.1622345067953708
 40
0.1656233695700613
 40
0.1690142836367992
 40
0.1724071279851771
 40
0.1758017831106377
 40
0.1791981314234293
 40
0.1825960576141023
 40
0.1859954489764893
 40
0.1893961956892107
 40
0.1927981910572183
 40
0.1962013317152276
 40
0.1996055177948963
 40
0.2030106530580848
 40
0.2064166449983119
 40
0.2098234049129388
 40
0.2132308479483171
 40
0.2166388931204751
 40
0.22004746331355
 40
0.2234564852583878
 40
0.2268658894935227
 40
0.2302756103106386
 40
0.2336855856866155
 40
0.2370957572039828
 40
0.2405060699616756
 40
0.2439164724776049
 40
0.2473269165847395
 40
0.2507373432140534
 40
0.2541477113167739
 40
0.2575579829715035
 40
0.2609681230769351
 40
0.2643780992332549
 40
0.2677878816237452
 40
0.271197442897258
 40
0.2746067580522193
 40
0.2780158043224861
 40
0.2814245610656292
 40
0.2848330096539751
 40
0.2882411333685492
 40
0.2916489172963159
 40
0.2950563482308179
 40
0.2984634145763147
 40
0.301870106255565
 40
0.3052764146212689
 40
0.3086823323712449
 40
0.312087853467247
 40
0.3154929730575107
 40
0.3188976874028729
 40
0.3223019938065289
 40
0.3257058905471986
 40
0.3291093768157328
 40
0.3325124526550662
 40
0.335915118903311
 40
0.3393173771400096
 40
0.3427192296353221
 40
0.3461206793021526
 40
0.3495217296509872
 40
0.3529223847474033
 40
0.3563226491720926
 40
0.3597225279833209
 40
0.3631220266816865
 40
0.3665211511770693
 40
0.3699199077576581
 40
0.373318303060989
 40
0.3767163440468288
 40
0.3801140379718851
 40
0.3835113923661443
 40
0.3869084150108782
 40
0.3903051139180919
 40
0.393701497311444
 40
0.3970975736084741
 40
0.4004933514041314
 40
0.403888839455467
 40
0.4072840466674653
 40
0.410678982079895
 40
0.4140736548552245
 40
0.4174680742673689
 40
0.4208622496914032
 40
0.4242561905940126
 40
0.4276499065247537
 40
0.4310434071080386
 40
0.4344367020357253
 40
0.4378298010603849
 40
0.441222713989164
 40
0.4446154506781069
 40
0.4480080210270359
 40
0.4514004349749335
 40
0.4547927024956306
 40
0.4581848335940246
 40
0.4615768383025611
 40
0.4649687266781292
 40
0.4683605087991723
 40
0.471752194763181
 40
0.4751437946843348
 40
0.4785353186914476
 40
0.4819267769260496
 40
0.4853181795407033
 40
0.4887095366974352
 40
0.4921008585662958
 40
0.4954921553240605
 40
0.4988834371529915
 40
0.5022747142396419
 40
0.5056659961685608
 40
0.5090572903400601
 40
0.5124486069473537
 40
0.5158399561839215
 40
0.5192313482423204
 40
0.5226227933130353
 40
0.52601430158318
 40
0.5294058832351697
 40
0.5327975484452337
 40
0.5361893073818118
 40
0.5395811702037769
 40
0.5429731470584841
 40
0.5463652480796142
 40
0.549757483384763
 40
0.5531498630727841
 40
0.5565423972208486
 40
0.559935095881185
 40
0.5633279690774542
 40
0.566721026800792
 40
0.5701142790054083
 40
0.5735077356037362
 40
0.5769014064611565
 40
0.5802953013901466
 40
0.5836894301439057
 40
0.587083802409374
 40
0.5904784277996084
 40
0.5938733158454929
 40
0.5972684759866949
 40
0.6006639175618372
 40
0.6040596497978347
 40
0.6074556817983398
 40
0.6108520225312164
 40
0.6142486808150174
 40
0.6176456653043668
 40
0.6210429844741955
 40
0.6244406466027305
 40
0.627838659753225
 40
0.6312370317542604
 40
0.634635770178622
 40
0.6380348823206277
 40
0.6414343751717747
 40
0.6448342553946903
 40
0.648234529295244
 40
0.6516352027927411
 40
0.6550362813880353
 40
0.6584377701295647
 40
0.6618396735770553
 40
0.6652419957629498
 40
0.6686447401512765
 40
0.6720479095939695
 40
0.6754515062844493
 40
0.6788555317083821
 40
0.6822599865914921
 40
0.6856648708443105
 40
0.6890701835037242
 40
0.6924759226712669
 40
0.6958820854479976
 40
0.6992886678659087
 40
0.7026956648157641
 40
0.7061030699712486
 40
0.7095108757094809
 40
0.7129190730277088
 40
0.7163276514562466
 40
0.7197365989676844
 40
0.7231459018822678
 40
0.7265555447696554
 40
0.7299655103470557
 40
0.7333757793739193
 40
0.7367863305433717
 40
0.740197140370584
 40
0.7436081830784492
 40
0.747019430480865
 40
0.7504308518640684
 40
0.7538424138665982
 40
0.7572540803583792
 40
0.7606658123197021
 40
0.7640775621507868
 40
0.7674892745096314
 40
0.7709008998899238
 40
0.7743123853937111
 40
0.7777236746251652
 40
0.7811347075922864
 40
0.784545420617089
 40
0.7879557462560322
 40
0.7913656132325112
 40
0.7947749463834748
 40
0.7981836666220972
 40
0.8015916909189293
 40
0.8049989323036655
 40
0.8084052998900272
 40
0.8118106989261644
 40
0.8152150308730718
 40
0.8186181935134212
 40
0.8220200810933994
 40
0.8254205844996897
 40
0.8288195914739925
 40
0.8322169868669714
 40
0.83561265293358
 40
0.8390064696710762
 40
0.8423983152010015
 40
0.8457880661958274
 40
0.8491755983504685
 40
0.8525607868984307
 40
0.8559435071716651
 40
0.8593236352027394
 40
0.8627010483670048
 40
0.866075626062037
 40
0.8694472504207297
 40
0.8728158070537689
 40
0.8761811858164574
 40
0.8795432815943885
 40
0.8829019951016123
 40
0.886257233684547
 40
0.8896089121243312
 40
0.8929569534299945
 40
0.8963012896145438
 40
0.8996418624458447
 40
0.9029786241642898
 40
0.9063115381591123
 40
0.9096405795957907
 40
0.9129657359869463
 40
0.9162870076998932
 40
0.9196044083945308
 40
0.9229179653858939
 40
0.9262277199264553
 40
0.9295337274042388
 40
0.9328360574534823
 40
0.9361347939757074
 40
0.9394300350698669
 40
0.942721892871116
 40
0.9460104932988612
 40
0.9492959757153322
 40
0.9525784924969476
 40
0.9558582085213638
 40
0.9591353005738651
 40
0.9624099566773173
 40
0.9656823753504393
 40
0.9689527647996624
 40
0.9722213420501873
 40
0.975488332022222
 40
0.9787539665585758
 40
0.9820184834100852
 40
0.985282125185427
 40
0.9885451382720318
 40
0.9918077717348808
 40
0.995070276200006
 40
0.9983328221224517
 40
1.0
 40
1.0
 40
1.0
 40
1.0
 10
259.121951132346
 20
136.9204118023223
 30
0.0
 10
259.1231244148543
 20
136.944716998987
 30
0.0
 10
259.1255082928548
 20
136.9941003514323
 30
0.0
 10
259.1274118112316
 20
137.0685937406242
 30
0.0
 10
259.1280930509899
 20
137.1438646506477
 30
0.0
 10
259.1274001755043
 20
137.2191302904423
 30
0.0
 10
259.1253689430799
 20
137.2943818994137
 30
0.0
 10
259.121990218653
 20
137.3696119979214
 30
0.0
 10
259.1172669009492
 20
137.4448131050725
 30
0.0
 10
259.1111986318235
 20
137.5199781403907
 30
0.0
 10
259.1037858970275
 20
137.5950999794656
 30
0.0
 10
259.0950289347408
 20
137.6701714706503
 30
0.0
 10
259.0849280353625
 20
137.7451854131098
 30
0.0
 10
259.0734834703528
 20
137.8201345458342
 30
0.0
 10
259.0606955223711
 20
137.8950115344726
 30
0.0
 10
259.0465644900108
 20
137.9698089596633
 30
0.0
 10
259.03109070097
 20
138.0445193060204
 30
0.0
 10
259.0142745244434
 20
138.1191349521398
 30
0.0
 10
258.9961163850455
 20
138.1936481616586
 30
0.0
 10
258.9766167774694
 20
138.2680510754788
 30
0.0
 10
258.9557762819066
 20
138.3423357052347
 30
0.0
 10
258.933595580018
 20
138.416493928077
 30
0.0
 10
258.9100754713023
 20
138.4905174828364
 30
0.0
 10
258.8852168896818
 20
138.5643979676099
 30
0.0
 10
258.8590209201317
 20
138.6381268388066
 30
0.0
 10
258.8314888151701
 20
138.7116954116656
 30
0.0
 10
258.8026220110341
 20
138.7850948622483
 30
0.0
 10
258.7724221433646
 20
138.8583162308866
 30
0.0
 10
258.7408910622343
 20
138.9313504270527
 30
0.0
 10
258.7080308463587
 20
139.0041882355985
 30
0.0
 10
258.6738438163425
 20
139.0768203242944
 30
0.0
 10
258.6383325468273
 20
139.1492372525836
 30
0.0
 10
258.6014998774234
 20
139.2214294814507
 30
0.0
 10
258.5633489223247
 20
139.2933873842903
 30
0.0
 10
258.5238830785266
 20
139.3651012586512
 30
0.0
 10
258.4831060325857
 20
139.4365613387189
 30
0.0
 10
258.4410217658821
 20
139.5077578083967
 30
0.0
 10
258.3976345583668
 20
139.5786808148337
 30
0.0
 10
258.352948990796
 20
139.6493204822542
 30
0.0
 10
258.3069699454772
 20
139.7196669259361
 30
0.0
 10
258.2597026055691
 20
139.7897102661918
 30
0.0
 10
258.2111524529955
 20
139.8594406422119
 30
0.0
 10
258.1613252650517
 20
139.9288482256352
 30
0.0
 10
258.1102271097929
 20
139.9979232337224
 30
0.0
 10
258.0578643403069
 20
140.0666559420185
 30
0.0
 10
258.004243587985
 20
140.1350366964043
 30
0.0
 10
257.9493717549076
 20
140.2030559244486
 30
0.0
 10
257.8932560054692
 20
140.2707041459891
 30
0.0
 10
257.8359037573673
 20
140.3379719828823
 30
0.0
 10
257.7773226720809
 20
140.4048501678799
 30
0.0
 10
257.7175206449608
 20
140.4713295526007
 30
0.0
 10
257.6565057950496
 20
140.5374011145844
 30
0.0
 10
257.5942864547456
 20
140.6030559634219
 30
0.0
 10
257.5308711594142
 20
140.6682853459739
 30
0.0
 10
257.4662686370464
 20
140.7330806506951
 30
0.0
 10
257.400487798049
 20
140.7974334110957
 30
0.0
 10
257.3335377252498
 20
140.8613353083759
 30
0.0
 10
257.2654276641825
 20
140.9247781732785
 30
0.0
 10
257.1961670137117
 20
140.98775398721
 30
0.0
 10
257.1257653170477
 20
141.050254882683
 30
0.0
 10
257.0542322531883
 20
141.1122731431364
 30
0.0
 10
256.9815776288208
 20
141.1738012021937
 30
0.0
 10
256.9078113707033
 20
141.2348316424166
 30
0.0
 10
256.832943518541
 20
141.2953571936137
 30
0.0
 10
256.7569842183639
 20
141.3553707307625
 30
0.0
 10
256.6799437164057
 20
141.4148652716
 30
0.0
 10
256.6018323534796
 20
141.473833973936
 30
0.0
 10
256.5226605598401
 20
141.5322701327402
 30
0.0
 10
256.4424388505169
 20
141.5901671770505
 30
0.0
 10
256.3611778211037
 20
141.6475186667473
 30
0.0
 10
256.2788881439794
 20
141.7043182892347
 30
0.0
 10
256.1955805649424
 20
141.7605598560648
 30
0.0
 10
256.1112659002301
 20
141.8162372995406
 30
0.0
 10
256.025955033901
 20
141.8713446693251
 30
0.0
 10
255.939658915553
 20
141.9258761290845
 30
0.0
 10
255.8523886786849
 20
141.9798258787988
 30
0.0
 10
255.7641555175888
 20
142.0331882338421
 30
0.0
 10
255.6749706839857
 20
142.0859576224679
 30
0.0
 10
255.5848453593226
 20
142.1381286530401
 30
0.0
 10
255.4937907814248
 20
142.1896960321707
 30
0.0
 10
255.4018182454075
 20
142.2406545609741
 30
0.0
 10
255.3089391031098
 20
142.2909991324499
 30
0.0
 10
255.2151647626627
 20
142.3407247290086
 30
0.0
 10
255.1205066881737
 20
142.389826420144
 30
0.0
 10
255.0249763995092
 20
142.438299360253
 30
0.0
 10
254.9285854721568
 20
142.4861387866024
 30
0.0
 10
254.8313455371544
 20
142.5333400174413
 30
0.0
 10
254.73326828107
 20
142.5798984502562
 30
0.0
 10
254.6343654460209
 20
142.6258095601673
 30
0.0
 10
254.5346488297198
 20
142.6710688984594
 30
0.0
 10
254.4341302855368
 20
142.715672091246
 30
0.0
 10
254.3328217225698
 20
142.7596148382596
 30
0.0
 10
254.2307351057124
 20
142.802892911764
 30
0.0
 10
254.1278824557129
 20
142.8455021555827
 30
0.0
 10
254.0242758492184
 20
142.8874384842389
 30
0.0
 10
253.9199274187972
 20
142.9286978821996
 30
0.0
 10
253.8148493529344
 20
142.9692764032201
 30
0.0
 10
253.7090538959971
 20
143.0091701697815
 30
0.0
 10
253.6025533481655
 20
143.0483753726166
 30
0.0
 10
253.495360065325
 20
143.0868882703181
 30
0.0
 10
253.3874864589203
 20
143.1247051890237
 30
0.0
 10
253.2789449957644
 20
143.161822522173
 30
0.0
 10
253.1697481978063
 20
143.1982367303308
 30
0.0
 10
253.0599086418515
 20
143.2339443410713
 30
0.0
 10
252.9494389592373
 20
143.2689419489201
 30
0.0
 10
252.8383518354608
 20
143.3032262153465
 30
0.0
 10
252.7266600097603
 20
143.3367938688048
 30
0.0
 10
252.6143762746488
 20
143.3696417048181
 30
0.0
 10
252.5015134754011
 20
143.4017665861012
 30
0.0
 10
252.3880845094935
 20
143.4331654427193
 30
0.0
 10
252.2741023259977
 20
143.4638352722783
 30
0.0
 10
252.1595799249295
 20
143.493773140143
 30
0.0
 10
252.0445303565514
 20
143.522976179681
 30
0.0
 10
251.9289667206326
 20
143.5514415925276
 30
0.0
 10
251.8129021656651
 20
143.5791666488705
 30
0.0
 10
251.6963498880385
 20
143.6061486877507
 30
0.0
 10
251.5793231311731
 20
143.6323851173764
 30
0.0
 10
251.4618351846147
 20
143.6578734154494
 30
0.0
 10
251.3438993830891
 20
143.6826111294993
 30
0.0
 10
251.2255291055206
 20
143.7065958772256
 30
0.0
 10
251.1067377740144
 20
143.7298253468445
 30
0.0
 10
250.9875388528035
 20
143.7522972974386
 30
0.0
 10
250.8679458471626
 20
143.7740095593084
 30
0.0
 10
250.7479723022901
 20
143.7949600343232
 30
0.0
 10
250.6276318021583
 20
143.8151466962711
 30
0.0
 10
250.5069379683345
 20
143.8345675912047
 30
0.0
 10
250.3859044587738
 20
143.8532208377841
 30
0.0
 10
250.2645449665841
 20
143.8711046276126
 30
0.0
 10
250.1428732187658
 20
143.8882172255676
 30
0.0
 10
250.0209029749269
 20
143.9045569701221
 30
0.0
 10
249.8986480259736
 20
143.9201222736589
 30
0.0
 10
249.77612219278
 20
143.9349116227747
 30
0.0
 10
249.6533393248357
 20
143.9489235785743
 30
0.0
 10
249.5303132988738
 20
143.9621567769531
 30
0.0
 10
249.4070580174802
 20
143.9746099288689
 30
0.0
 10
249.283587407685
 20
143.9862818206002
 30
0.0
 10
249.1599154195371
 20
143.9971713139929
 30
0.0
 10
249.0360560246645
 20
144.0072773466921
 30
0.0
 10
248.9120232148182
 20
144.0165989323615
 30
0.0
 10
248.7878310004048
 20
144.0251351608871
 30
0.0
 10
248.6634934090052
 20
144.0328851985667
 30
0.0
 10
248.5390244838827
 20
144.0398482882848
 30
0.0
 10
248.414438282481
 20
144.0460237496711
 30
0.0
 10
248.2897488749124
 20
144.0514109792436
 30
0.0
 10
248.1649703424379
 20
144.0560094505363
 30
0.0
 10
248.0401167759399
 20
144.0598187142097
 30
0.0
 10
247.9152022743888
 20
144.0628383981455
 30
0.0
 10
247.7902409433037
 20
144.0650682075245
 30
0.0
 10
247.6652468932091
 20
144.0665079248879
 30
0.0
 10
247.5402342380875
 20
144.0671574101817
 30
0.0
 10
247.4152171012672
 20
144.0670166007921
 30
0.0
 10
247.2902096407309
 20
144.0660855120149
 30
0.0
 10
247.1652260132193
 20
144.0643642377685
 30
0.0
 10
247.0402803651791
 20
144.0618529503493
 30
0.0
 10
246.9153868043593
 20
144.0585518991666
 30
0.0
 10
246.790559432562
 20
144.0544614109386
 30
0.0
 10
246.6658123440968
 20
144.0495818896161
 30
0.0
 10
246.5411596242371
 20
144.0439138162898
 30
0.0
 10
246.416615347683
 20
144.0374577490794
 30
0.0
 10
246.2921935770287
 20
144.0302143230074
 30
0.0
 10
246.1679083612364
 20
144.0221842498547
 30
0.0
 10
246.0437737341182
 20
144.0133683180014
 30
0.0
 10
245.9198037128266
 20
144.0037673922502
 30
0.0
 10
245.7960122963531
 20
143.9933824136339
 30
0.0
 10
245.6724134640396
 20
143.9822143992076
 30
0.0
 10
245.5490211740992
 20
143.9702644418249
 30
0.0
 10
245.4258493621509
 20
143.9575337098993
 30
0.0
 10
245.3029119397675
 20
143.9440234471507
 30
0.0
 10
245.1802227930378
 20
143.9297349723373
 30
0.0
 10
245.0577957811447
 20
143.914669678974
 30
0.0
 10
244.9356447349608
 20
143.898829035037
 30
0.0
 10
244.8137834556608
 20
143.8822145826557
 30
0.0
 10
244.692225713354
 20
143.864827937792
 30
0.0
 10
244.5709852457366
 20
143.8466707899084
 30
0.0
 10
244.450075756765
 20
143.827744901625
 30
0.0
 10
244.3295109153533
 20
143.8080521083658
 30
0.0
 10
244.2093043540927
 20
143.7875943179966
 30
0.0
 10
244.0894696679973
 20
143.7663735104537
 30
0.0
 10
243.9700204132757
 20
143.7443917373657
 30
0.0
 10
243.8509701061305
 20
143.7216511216683
 30
0.0
 10
243.7323322215866
 20
143.6981538572146
 30
0.0
 10
243.6141201923498
 20
143.673902208381
 30
0.0
 10
243.4963474076971
 20
143.6488985096705
 30
0.0
 10
243.3790272123994
 20
143.6231451653153
 30
0.0
 10
243.2621729056792
 20
143.5966446488792
 30
0.0
 10
243.145797740203
 20
143.5693995028624
 30
0.0
 10
243.0299149211112
 20
143.5414123383102
 30
0.0
 10
242.9145376050867
 20
143.512685834428
 30
0.0
 10
242.7996788994614
 20
143.4832227382033
 30
0.0
 10
242.6853518613653
 20
143.4530258640389
 30
0.0
 10
242.5715694969168
 20
143.4220980933979
 30
0.0
 10
242.4583447604564
 20
143.390442374465
 30
0.0
 10
242.3456905538253
 20
143.3580617218242
 30
0.0
 10
242.2336197256892
 20
143.3249592161585
 30
0.0
 10
242.1221450709089
 20
143.2911380039732
 30
0.0
 10
242.0112793299583
 20
143.2566012973465
 30
0.0
 10
241.9010351883912
 20
143.2213523737105
 30
0.0
 10
241.7914252763573
 20
143.1853945756674
 30
0.0
 10
241.6824621681672
 20
143.1487313108435
 30
0.0
 10
241.574158381908
 20
143.1113660517859
 30
0.0
 10
241.4665263791095
 20
143.0733023359065
 30
0.0
 10
241.3595785644597
 20
143.0345437654772
 30
0.0
 10
241.2533272855712
 20
142.9950940076817
 30
0.0
 10
241.1477848327964
 20
142.9549567947287
 30
0.0
 10
241.0429634390914
 20
142.9141359240317
 30
0.0
 10
240.9388752799267
 20
142.8726352584614
 30
0.0
 10
240.8355324732443
 20
142.8304587266758
 30
0.0
 10
240.7329470794571
 20
142.7876103235341
 30
0.0
 10
240.6311311014897
 20
142.7440941106004
 30
0.0
 10
240.5300964848564
 20
142.6999142167438
 30
0.0
 10
240.4298551177733
 20
142.6550748388408
 30
0.0
 10
240.3304188312989
 20
142.6095802425861
 30
0.0
 10
240.2317993995001
 20
142.5634347634192
 30
0.0
 10
240.1340085396343
 20
142.5166428075726
 30
0.0
 10
240.0370579123443
 20
142.4692088532476
 30
0.0
 10
239.9409591218558
 20
142.4211374519246
 30
0.0
 10
239.8457237161697
 20
142.3724332298145
 30
0.0
 10
239.7513631872389
 20
142.3231008894542
 30
0.0
 10
239.657888971119
 20
142.273145211455
 30
0.0
 10
239.5653124480808
 20
142.2225710564066
 30
0.0
 10
239.4736449426708
 20
142.1713833669403
 30
0.0
 10
239.3828977237047
 20
142.1195871699568
 30
0.0
 10
239.2930820041796
 20
142.0671875790188
 30
0.0
 10
239.2042089410851
 20
142.0141897969109
 30
0.0
 10
239.1162896350958
 20
141.9605991183663
 30
0.0
 10
239.0293351301259
 20
141.9064209329586
 30
0.0
 10
238.9433564595121
 20
141.8516607579561
 30
0.0
 10
238.858364680581
 20
141.7963242682006
 30
0.0
 10
238.7743707936048
 20
141.7404172529546
 30
0.0
 10
238.691385695721
 20
141.6839455886286
 30
0.0
 10
238.6094201457324
 20
141.6269152150925
 30
0.0
 10
238.5284848379101
 20
141.5693321886771
 30
0.0
 10
238.4485903997741
 20
141.51120268597
 30
0.0
 10
238.3697473895134
 20
141.4525330076608
 30
0.0
 10
238.291966293028
 20
141.3933295824179
 30
0.0
 10
238.2152575205656
 20
141.333598970763
 30
0.0
 10
238.1396314029265
 20
141.2733478689099
 30
0.0
 10
238.0650981872126
 20
141.2125831125288
 30
0.0
 10
237.9916680320971
 20
141.1513116803936
 30
0.0
 10
237.919351002597
 20
141.0895406978636
 30
0.0
 10
237.8481570643307
 20
141.0272774401514
 30
0.0
 10
237.7780960772492
 20
140.964529335321
 30
0.0
 10
237.7091777888345
 20
140.9013039669591
 30
0.0
 10
237.6414118267628
 20
140.83760907646
 30
0.0
 10
237.5748076910398
 20
140.7734525648595
 30
0.0
 10
237.5093747456187
 20
140.708842494156
 30
0.0
 10
237.4451222095235
 20
140.6437870880526
 30
0.0
 10
237.3820591475066
 20
140.578294732055
 30
0.0
 10
237.3201944602796
 20
140.5123739728638
 30
0.0
 10
237.2595368743676
 20
140.4460335169983
 30
0.0
 10
237.2000949316447
 20
140.3792822285966
 30
0.0
 10
237.1418769786218
 20
140.312129126339
 30
0.0
 10
237.0848911555669
 20
140.2445833794511
 30
0.0
 10
237.0291453855467
 20
140.1766543027485
 30
0.0
 10
236.9746473634922
 20
140.1083513506971
 30
0.0
 10
236.9214045453939
 20
140.0396841104721
 30
0.0
 10
236.8694241377462
 20
139.9706622940124
 30
0.0
 10
236.8187130873608
 20
139.9012957290803
 30
0.0
 10
236.7692780716792
 20
139.831594349349
 30
0.0
 10
236.7211254897127
 20
139.7615681835603
 30
0.0
 10
236.674261453742
 20
139.6912273438041
 30
0.0
 10
236.6286917819045
 20
139.6205820129926
 30
0.0
 10
236.5844219917949
 20
139.5496424316123
 30
0.0
 10
236.5414572951976
 20
139.478418883858
 30
0.0
 10
236.4998025940583
 20
139.4069216832597
 30
0.0
 10
236.4594624777933
 20
139.3351611579313
 30
0.0
 10
236.4204412220191
 20
139.263147635577
 30
0.0
 10
236.3827427887669
 20
139.1908914284021
 30
0.0
 10
236.3463708282328
 20
139.1184028180811
 30
0.0
 10
236.3113286820893
 20
139.0456920409366
 30
0.0
 10
236.277619388368
 20
138.9727692734896
 30
0.0
 10
236.2452456878961
 20
138.8996446185343
 30
0.0
 10
236.2142100322537
 20
138.8263280918895
 30
0.0
 10
236.184514593191
 20
138.7528296099719
 30
0.0
 10
236.1561612734289
 20
138.6791589783257
 30
0.0
 10
236.1291517187417
 20
138.6053258812323
 30
0.0
 10
236.1034873312079
 20
138.5313398725111
 30
0.0
 10
236.0791692834928
 20
138.4572103676063
 30
0.0
 10
236.0561985340165
 20
138.3829466370386
 30
0.0
 10
236.0345758428483
 20
138.3085578012839
 30
0.0
 10
236.0143017881578
 20
138.2340528271241
 30
0.0
 10
235.9953767830474
 20
138.1594405254956
 30
0.0
 10
235.9778010925896
 20
138.0847295508451
 30
0.0
 10
235.9615748508785
 20
138.0099284019865
 30
0.0
 10
235.9466980779499
 20
137.935045424433
 30
0.0
 10
235.9331706962736
 20
137.8600888141658
 30
0.0
 10
235.9209925470872
 20
137.7850666227969
 30
0.0
 10
235.9101634047774
 20
137.7099867640149
 30
0.0
 10
235.9006829952239
 20
137.6348570214114
 30
0.0
 10
235.8925509953422
 20
137.5596850569571
 30
0.0
 10
235.8857670980333
 20
137.4844784224312
 30
0.0
 10
235.8803308278985
 20
137.4092445647591
 30
0.0
 10
235.8762422806668
 20
137.3339908585087
 30
0.0
 10
235.8734994106825
 20
137.2587245409975
 30
0.0
 10
235.8721081893105
 20
137.1834530140988
 30
0.0
 10
235.8720447349229
 20
137.1081827807181
 30
0.0
 10
235.8733966384377
 20
137.0329240979338
 30
0.0
 10
235.8754378999235
 20
136.9699427133424
 30
0.0
 10
235.8775454317992
 20
136.9320658090804
 30
0.0
 10
235.8782581756895
 20
136.9192562604287
 30
0.0
  0
LINE
  5
E4
330
1F
100
AcDbEntity
  8
0
  6
Continuous
 62
     7
370
    30
100
AcDbLine
 10
235.8780625984
 20
136.9197705404
 30
0.0
 11
237.1341393832
 21
113.2623123618
 31
0.0
  0
LINE
  5
E5
330
1F
100
AcDbEntity
  8
0
  6
Continuous
 62
     7
370
    30
100
AcDbLine
 10
257.8658606168
 20
113.2623123618
 30
0.0
 11
259.1219374016
 21
136.9197705404
 31
0.0
  0
SPLINE
  5
E6
330
1F
100
AcDbEntity
  8
0
  6
Continuous
 62
     7
370
    30
100
AcDbSpline
210
0.0
220
0.0
230
1.0
 70
     8
 71
     3
 72
   277
 73
   273
 74
     0
 42
0.000000001
 43
0.00000001
 40
0.0
 40
0.0
 40
0.0
 40
0.0
 40
0.0007711877154901
 40
0.0043547143153596
 40
0.0079391424162671
 40
0.0115247973075387
 40
0.0151119982095401
 40
0.0187010567787569
 40
0.0222922756613068
 40
0.0258859471040655
 40
0.0294823516323701
 40
0.0330817568032562
 40
0.0366844160427357
 40
0.0402905675753298
 40
0.0439004334536654
 40
0.0475142186953989
 40
0.0511321105340209
 40
0.0547542777893814
 40
0.0583808703627763
 40
0.062012018860539
 40
0.0656478343487948
 40
0.0692884082408747
 40
0.0729338123175644
 40
0.0765840988787851
 40
0.0802393010241483
 40
0.0838994330580539
 40
0.0875644910137854
 40
0.0912344532896007
 40
0.0949092813885283
 40
0.0985889207522849
 40
0.102273301679023
 40
0.1059623403134109
 40
0.1096559396971134
 40
0.1133539908673303
 40
0.1170563739906059
 40
0.1207629595195161
 40
0.1244736093596788
 40
0.1281881780352228
 40
0.1319065138413938
 40
0.1356284599737642
 40
0.1393538556244429
 40
0.1430825370367469
 40
0.146814338510898
 40
0.1505490933544695
 40
0.1542866347725121
 40
0.1580267966934979
 40
0.1617694145282623
 40
0.1655143258603487
 40
0.1692613710671126
 40
0.1730103938718831
 40
0.1767612418281807
 40
0.180513766738066
 40
0.1842678250068356
 40
0.1880232779372324
 40
0.191779991966418
 40
0.1955378388494596
 40
0.1992966957931721
 40
0.2030564455443965
 40
0.2068169764366962
 40
0.2105781823996543
 40
0.2143399629346229
 40
0.2181022230608714
 40
0.2218648732358014
 40
0.225627829252831
 40
0.2293910121200979
 40
0.2331543479233044
 40
0.2369177676753169
 40
0.2406811952690836
 40
0.2444445640852936
 40
0.2482078203636332
 40
0.2519709145262408
 40
0.2557338009965833
 40
0.2594964380171678
 40
0.2632587874681447
 40
0.2670208146878493
 40
0.2707824882963248
 40
0.2745437800223906
 40
0.278304664535172
 40
0.2820651192803025
 40
0.2858251243214268
 40
0.2895846621872702
 40
0.2933437177243872
 40
0.2971022779559799
 40
0.3008603319465931
 40
0.3046178706729568
 40
0.3083748869008395
 40
0.3121313750678631
 40
0.3158873311722979
 40
0.319642752667519
 40
0.3233976383622139
 40
0.3271519883260001
 40
0.3309058038004358
 40
0.3346590871150494
 40
0.3384118416084096
 40
0.3421640715538652
 40
0.3459157820898729
 40
0.3496669791546352
 40
0.3534176694248617
 40
0.357167860258541
 40
0.3609175596413799
 40
0.3646667761368335
 40
0.3684155188395148
 40
0.3721637973317653
 40
0.3759116216432496
 40
0.379659002213405
 40
0.3834059498565732
 40
0.3871524757296116
 40
0.3908985913019681
 40
0.3946443083278704
 40
0.3983896388207677
 40
0.4021345950295728
 40
0.4058791894168795
 40
0.409623434638835
 40
0.4133673435266356
 40
0.417110929069573
 40
0.4208542043994397
 40
0.424597182776271
 40
0.4283398775753034
 40
0.4320823022750716
 40
0.4358244704465654
 40
0.4395663957433876
 40
0.4433080918927602
 40
0.4470495726874376
 40
0.4507908519783501
 40
0.4545319436679877
 40
0.4582728617043968
 40
0.4620136200758233
 40
0.465754232805875
 40
0.4694947139491688
 40
0.4732350775874317
 40
0.4769753378260216
 40
0.480715508790743
 40
0.4844556046250436
 40
0.4881956394874306
 40
0.4919356275491301
 40
0.4956755829919174
 40
0.4994155200061505
 40
0.5031554527888268
 40
0.506895393919704
 40
0.5106353544918228
 40
0.514375348712059
 40
0.5181153907873449
 40
0.5218554949227567
 40
0.5255956753195575
 40
0.5293359461731031
 40
0.5330763216705504
 40
0.5368168159883692
 40
0.5405574432896162
 40
0.5442982177208621
 40
0.5480391534088128
 40
0.5517802644565764
 40
0.5555215649394193
 40
0.559263068900125
 40
0.5630047903437886
 40
0.5667467432320082
 40
0.5704889414764851
 40
0.5742313989319026
 40
0.5779741293880565
 40
0.581717146561133
 40
0.5854604640841816
 40
0.5892040954965195
 40
0.5929480542321769
 40
0.5966923536072113
 40
0.6004370068057917
 40
0.6041820268650011
 40
0.6079274266583168
 40
0.6116732188775076
 40
0.6154194160130017
 40
0.619166030332553
 40
0.6229130738580934
 40
0.6266605583406045
 40
0.6304084952329778
 40
0.6341568956606318
 40
0.6379057703898002
 40
0.6416551297933387
 40
0.6454049838138279
 40
0.649155341923947
 40
0.6529062130837748
 40
0.6566576056950141
 40
0.6604095275518173
 40
0.6641619857881191
 40
0.6679149868212478
 40
0.6716685362915943
 40
0.6754226389982063
 40
0.6791772988300077
 40
0.6829325186925614
 40
0.6866883004300086
 40
0.690444644742182
 40
0.6942015510964664
 40
0.6979590176344503
 40
0.701717041072956
 40
0.705475616599486
 40
0.7092347377617298
 40
0.7129943963512136
 40
0.7167545822807669
 40
0.7205152834559417
 40
0.7242764856401254
 40
0.7280381723135597
 40
0.7318003245262023
 40
0.7355629207445727
 40
0.7393259366928204
 40
0.7430893451881652
 40
0.7468531159712863
 40
0.7506172155318764
 40
0.7543816069301429
 40
0.7581462496148227
 40
0.7619110992387127
 40
0.7656761074725172
 40
0.7694412218184958
 40
0.7732063834641978
 40
0.7769715114976755
 40
0.7807365382092543
 40
0.7845013909500785
 40
0.7882659919698535
 40
0.7920302582689205
 40
0.7957941014649825
 40
0.7995574276777421
 40
0.8033201374345359
 40
0.8070821256006767
 40
0.8108432813380477
 40
0.8146034880959846
 40
0.8183626236383889
 40
0.8221205601113453
 40
0.8258771641553388
 40
0.8296322970663406
 40
0.8333858150098212
 40
0.837137569291693
 40
0.8408874066897997
 40
0.8446351698493284
 40
0.8483806977449604
 40
0.852123826212043
 40
0.8558643885483802
 40
0.8596022161873293
 40
0.8633371394421876
 40
0.8670689883205777
 40
0.8707975934066005
 40
0.8745227868073299
 40
0.8782444031589071
 40
0.8819622806863728
 40
0.885676262309999
 40
0.8893861967897505
 40
0.8930919398983054
 40
0.8967933556121062
 40
0.9004903173088289
 40
0.9041827089591065
 40
0.9078704262996523
 40
0.9115533779746079
 40
0.9152314866318926
 40
0.918904689961276
 40
0.922572941661548
 40
0.9262362123244845
 40
0.9298944902242428
 40
0.9335477820019713
 40
0.9371961132363881
 40
0.9408395288926238
 40
0.9444780936430757
 40
0.9481118920554598
 40
0.9517410286449137
 40
0.9553656277886494
 40
0.9589858335029873
 40
0.9626018090843282
 40
0.9662137366168716
 40
0.9698218163511455
 40
0.9734262659586996
 40
0.9770273196691168
 40
0.9806252272965422
 40
0.984220253163573
 40
0.987812674930867
 40
0.9914027823414361
 40
0.9949908758887874
 40
0.9985772654183955
 40
1.0
 40
1.0
 40
1.0
 40
1.0
 10
237.1342572516418
 20
113.2622342693107
 30
0.0
 10
237.1344941843226
 20
113.2571128863657
 30
0.0
 10
237.1358320870357
 20
113.2281936502614
 30
0.0
 10
237.1395914928585
 20
113.1755096608919
 30
0.0
 10
237.1455988029299
 20
113.1041938300711
 30
0.0
 10
237.1530652062288
 20
113.0329275294966
 30
0.0
 10
237.161844871414
 20
112.9617142402868
 30
0.0
 10
237.171976556536
 20
112.8905626202756
 30
0.0
 10
237.1834495497237
 20
112.8194800271675
 30
0.0
 10
237.1962664095142
 20
112.7484742745979
 30
0.0
 10
237.2104261248457
 20
112.6775531796631
 30
0.0
 10
237.2259286128699
 20
112.6067247013758
 30
0.0
 10
237.2427734923028
 20
112.5359969191538
 30
0.0
 10
237.2609603905177
 20
112.4653780525578
 30
0.0
 10
237.2804888377565
 20
112.3948764681436
 30
0.0
 10
237.3013582709111
 20
112.3245006878046
 30
0.0
 10
237.3235680069748
 20
112.2542593946146
 30
0.0
 10
237.3471172239881
 20
112.1841614371315
 30
0.0
 10
237.372004939625
 20
112.1142158318141
 30
0.0
 10
237.3982299903701
 20
112.0444317635797
 30
0.0
 10
237.4257910108052
 20
111.9748185844599
 30
0.0
 10
237.4546864134422
 20
111.9053858103565
 30
0.0
 10
237.4849143692913
 20
111.8361431159216
 30
0.0
 10
237.5164727894046
 20
111.7671003276098
 30
0.0
 10
237.5493593076105
 20
111.6982674149781
 30
0.0
 10
237.5835712646348
 20
111.6296544803322
 30
0.0
 10
237.6191056937898
 20
111.5612717468417
 30
0.0
 10
237.6559593083822
 20
111.4931295452694
 30
0.0
 10
237.6941284909661
 20
111.42523829948
 30
0.0
 10
237.7336092845391
 20
111.357608510908
 30
0.0
 10
237.774397385746
 20
111.2902507421789
 30
0.0
 10
237.8164881401239
 20
111.2231756000889
 30
0.0
 10
237.8598765393915
 20
111.1563937181507
 30
0.0
 10
237.9045572207532
 20
111.0899157389162
 30
0.0
 10
237.9505244681585
 20
111.0237522962848
 30
0.0
 10
237.997772215432
 20
110.9579139979964
 30
0.0
 10
238.0462940511613
 20
110.8924114085019
 30
0.0
 10
238.0960832252128
 20
110.8272550323862
 30
0.0
 10
238.1471326567222
 20
110.7624552985059
 30
0.0
 10
238.1994349433992
 20
110.6980225449812
 30
0.0
 10
238.2529823719696
 20
110.6339670051656
 30
0.0
 10
238.3077669295771
 20
110.5702987946904
 30
0.0
 10
238.363780315961
 20
110.507027899663
 30
0.0
 10
238.4210139562315
 20
110.4441641660738
 30
0.0
 10
238.4794590140659
 20
110.3817172904443
 30
0.0
 10
238.5391064051582
 20
110.3196968117316
 30
0.0
 10
238.5999468107645
 20
110.2581121044817
 30
0.0
 10
238.6619706912
 20
110.1969723732091
 30
0.0
 10
238.7251682991537
 20
110.1362866479648
 30
0.0
 10
238.7895296927063
 20
110.0760637810396
 30
0.0
 10
238.8550447479482
 20
110.0163124447425
 30
0.0
 10
238.9217031711111
 20
109.9570411301799
 30
0.0
 10
238.9894945101444
 20
109.8982581469603
 30
0.0
 10
239.0584081656774
 20
109.8399716237399
 30
0.0
 10
239.1284334013289
 20
109.7821895095252
 30
0.0
 10
239.1995593533321
 20
109.7249195756458
 30
0.0
 10
239.2717750394597
 20
109.668169418312
 30
0.0
 10
239.3450693672441
 20
109.6119464616732
 30
0.0
 10
239.4194311414943
 20
109.5562579612971
 30
0.0
 10
239.4948490711234
 20
109.5011110079916
 30
0.0
 10
239.5713117753047
 20
109.4465125318981
 30
0.0
 10
239.6488077889819
 20
109.392469306789
 30
0.0
 10
239.727325567763
 20
109.3389879545073
 30
0.0
 10
239.8068534922301
 20
109.286074949492
 30
0.0
 10
239.8873798717046
 20
109.2337366233389
 30
0.0
 10
239.9688929474994
 20
109.1819791693527
 30
0.0
 10
240.0513808088631
 20
109.1308087009216
 30
0.0
 10
240.1348314258993
 20
109.0802312305986
 30
0.0
 10
240.2192327115114
 20
109.03025263495
 30
0.0
 10
240.3045726147558
 20
108.980878608291
 30
0.0
 10
240.3908390898274
 20
108.9321146915728
 30
0.0
 10
240.4780200341507
 20
108.8839663142645
 30
0.0
 10
240.5661032890367
 20
108.836438797982
 30
0.0
 10
240.6550766401297
 20
108.7895373599213
 30
0.0
 10
240.7449278176815
 20
108.7432671160867
 30
0.0
 10
240.8356444966795
 20
108.6976330843127
 30
0.0
 10
240.9272142968553
 20
108.6526401870785
 30
0.0
 10
241.0196247825952
 20
108.6082932541166
 30
0.0
 10
241.1128634627771
 20
108.5645970248196
 30
0.0
 10
241.2069177905495
 20
108.5215561504499
 30
0.0
 10
241.3017751630741
 20
108.479175196156
 30
0.0
 10
241.3974229212443
 20
108.4374586428043
 30
0.0
 10
241.4938483493956
 20
108.3964108886323
 30
0.0
 10
241.5910386750203
 20
108.3560362507307
 30
0.0
 10
241.6889810684966
 20
108.3163389663634
 30
0.0
 10
241.7876626428415
 20
108.2773231941333
 30
0.0
 10
241.8870704534976
 20
108.2389930150019
 30
0.0
 10
241.9871914981587
 20
108.2013524331726
 30
0.0
 10
242.0880127166412
 20
108.1644053768439
 30
0.0
 10
242.1895209908067
 20
108.1281556988438
 30
0.0
 10
242.2917031445394
 20
108.0926071771513
 30
0.0
 10
242.3945459437817
 20
108.0577635153138
 30
0.0
 10
242.4980360966309
 20
108.0236283427688
 30
0.0
 10
242.6021602534986
 20
107.9902052150766
 30
0.0
 10
242.7069050073348
 20
107.9574976140715
 30
0.0
 10
242.8122568939171
 20
107.9255089479387
 30
0.0
 10
242.9182023922055
 20
107.8942425512236
 30
0.0
 10
243.0247279247634
 20
107.863701684779
 30
0.0
 10
243.1318198582437
 20
107.833889535657
 30
0.0
 10
243.2394645039403
 20
107.8048092169519
 30
0.0
 10
243.3476481184031
 20
107.7764637675971
 30
0.0
 10
243.4563569041172
 20
107.7488561521241
 30
0.0
 10
243.5655770102426
 20
107.7219892603862
 30
0.0
 10
243.6752945334158
 20
107.6958659072519
 30
0.0
 10
243.7854955186088
 20
107.6704888322734
 30
0.0
 10
243.8961659600475
 20
107.6458606993315
 30
0.0
 10
244.0072918021835
 20
107.6219840962639
 30
0.0
 10
244.1188589407215
 20
107.5988615344776
 30
0.0
 10
244.2308532236976
 20
107.5764954485497
 30
0.0
 10
244.3432604526087
 20
107.5548881958201
 30
0.0
 10
244.4560663835895
 20
107.5340420559778
 30
0.0
 10
244.5692567286363
 20
107.5139592306438
 30
0.0
 10
244.682817156875
 20
107.4946418429534
 30
0.0
 10
244.7967332958717
 20
107.4760919371393
 30
0.0
 10
244.9109907329843
 20
107.4583114781187
 30
0.0
 10
245.0255750167526
 20
107.4413023510845
 30
0.0
 10
245.1404716583256
 20
107.4250663611047
 30
0.0
 10
245.2556661329232
 20
107.409605232729
 30
0.0
 10
245.371143881332
 20
107.3949206096066
 30
0.0
 10
245.4868903114321
 20
107.3810140541145
 30
0.0
 10
245.6028907997539
 20
107.3678870469987
 30
0.0
 10
245.7191306930629
 20
107.3555409870296
 30
0.0
 10
245.8355953099699
 20
107.3439771906713
 30
0.0
 10
245.9522699425674
 20
107.3331968917673
 30
0.0
 10
246.0691398580874
 20
107.3232012412429
 30
0.0
 10
246.1861903005815
 20
107.3139913068246
 30
0.0
 10
246.3034064926204
 20
107.305568072778
 30
0.0
 10
246.4207736370115
 20
107.2979324396642
 30
0.0
 10
246.5382769185336
 20
107.291085224116
 30
0.0
 10
246.6559015056859
 20
107.2850271586336
 30
0.0
 10
246.7736325524515
 20
107.2797588914013
 30
0.0
 10
246.8914552000729
 20
107.2752809861239
 30
0.0
 10
247.0093545788373
 20
107.2715939218857
 30
0.0
 10
247.1273158098726
 20
107.26869809303
 30
0.0
 10
247.2453240069505
 20
107.2665938090605
 30
0.0
 10
247.3633642782956
 20
107.2652812945652
 30
0.0
 10
247.4814217284006
 20
107.2647606891619
 30
0.0
 10
247.5994814427761
 20
107.2650320474275
 30
0.0
 10
247.7175284741064
 20
107.2660953381169
 30
0.0
 10
247.8355478768841
 20
107.2679504434838
 30
0.0
 10
247.9535247263676
 20
107.2705971598721
 30
0.0
 10
248.0714441360601
 20
107.2740351990202
 30
0.0
 10
248.1892912267846
 20
107.2782641878483
 30
0.0
 10
248.3070511284957
 20
107.2832836685635
 30
0.0
 10
248.4247089820861
 20
107.2890930987867
 30
0.0
 10
248.5422499411859
 20
107.2956918517023
 30
0.0
 10
248.6596591739541
 20
107.3030792162297
 30
0.0
 10
248.7769218648588
 20
107.3112543972156
 30
0.0
 10
248.8940232164472
 20
107.3202165156497
 30
0.0
 10
249.0109484511021
 20
107.3299646088994
 30
0.0
 10
249.1276828127839
 20
107.3404976309669
 30
0.0
 10
249.2442115687575
 20
107.3518144527658
 30
0.0
 10
249.360520011301
 20
107.3639138624172
 30
0.0
 10
249.4765934593956
 20
107.3767945655661
 30
0.0
 10
249.5924172603949
 20
107.3904551857157
 30
0.0
 10
249.7079767916726
 20
107.4048942645795
 30
0.0
 10
249.8232574622456
 20
107.420110262451
 30
0.0
 10
249.9382447143716
 20
107.4361015585896
 30
0.0
 10
250.0529240251205
 20
107.4528664516221
 30
0.0
 10
250.1672809079153
 20
107.4704031599579
 30
0.0
 10
250.2813009140438
 20
107.4887098222183
 30
0.0
 10
250.3949696341363
 20
107.5077844976772
 30
0.0
 10
250.5082726996104
 20
107.5276251667132
 30
0.0
 10
250.6211957840776
 20
107.5482297312699
 30
0.0
 10
250.7337246047138
 20
107.5695960153247
 30
0.0
 10
250.8458449235883
 20
107.5917217653635
 30
0.0
 10
250.9575425489509
 20
107.6146046508585
 30
0.0
 10
251.0688033364755
 20
107.6382422647494
 30
0.0
 10
251.1796131904572
 20
107.6626321239232
 30
0.0
 10
251.2899580649611
 20
107.6877716696916
 30
0.0
 10
251.3998239649221
 20
107.7136582682641
 30
0.0
 10
251.5091969471909
 20
107.7402892112115
 30
0.0
 10
251.6180631215276
 20
107.7676617159199
 30
0.0
 10
251.7264086515382
 20
107.7957729260294
 30
0.0
 10
251.8342197555539
 20
107.8246199118556
 30
0.0
 10
251.9414827074499
 20
107.8541996707892
 30
0.0
 10
252.048183837403
 20
107.8845091276702
 30
0.0
 10
252.1543095325858
 20
107.9155451351322
 30
0.0
 10
252.2598462377956
 20
107.9473044739124
 30
0.0
 10
252.3647804560181
 20
107.9797838531216
 30
0.0
 10
252.4690987489217
 20
108.0129799104703
 30
0.0
 10
252.5727877372846
 20
108.0468892124438
 30
0.0
 10
252.6758341013517
 20
108.0815082544215
 30
0.0
 10
252.7782245811213
 20
108.1168334607335
 30
0.0
 10
252.8799459765613
 20
108.1528611846482
 30
0.0
 10
252.9809851477559
 20
108.1895877082837
 30
0.0
 10
253.0813290149816
 20
108.2270092424353
 30
0.0
 10
253.180964558715
 20
108.2651219263121
 30
0.0
 10
253.2798788195739
 20
108.3039218271745
 30
0.0
 10
253.3780588981924
 20
108.3434049398629
 30
0.0
 10
253.4754919550354
 20
108.3835671862111
 30
0.0
 10
253.5721652101533
 20
108.4244044143333
 30
0.0
 10
253.6680659428839
 20
108.4659123977767
 30
0.0
 10
253.7631814915057
 20
108.5080868345297
 30
0.0
 10
253.8574992528492
 20
108.5509233458768
 30
0.0
 10
253.9510066818748
 20
108.5944174750891
 30
0.0
 10
254.0436912912244
 20
108.6385646859426
 30
0.0
 10
254.1355406507595
 20
108.6833603610535
 30
0.0
 10
254.2265423870956
 20
108.728799800021
 30
0.0
 10
254.316684183148
 20
108.7748782173709
 30
0.0
 10
254.4059537777019
 20
108.8215907402878
 30
0.0
 10
254.4943389650272
 20
108.8689324061328
 30
0.0
 10
254.5818275945529
 20
108.9168981597354
 30
0.0
 10
254.6684075706266
 20
108.9654828504584
 30
0.0
 10
254.7540668523774
 20
109.014681229028
 30
0.0
 10
254.8387934537118
 20
109.0644879441286
 30
0.0
 10
254.922575443467
 20
109.1148975387616
 30
0.0
 10
255.005400945753
 20
109.1659044463693
 30
0.0
 10
255.0872581263052
 20
109.2175029777724
 30
0.0
 10
255.1681350684887
 20
109.2696872351454
 30
0.0
 10
255.2480199105649
 20
109.3224511856671
 30
0.0
 10
255.3269008612585
 20
109.3757886656404
 30
0.0
 10
255.4047663199839
 20
109.4296934606762
 30
0.0
 10
255.4816047505447
 20
109.4841592176272
 30
0.0
 10
255.5574046839792
 20
109.5391794394411
 30
0.0
 10
255.6321547219273
 20
109.5947474799568
 30
0.0
 10
255.7058435405457
 20
109.6508565386709
 30
0.0
 10
255.7784598950086
 20
109.707499655526
 30
0.0
 10
255.8499926246361
 20
109.7646697057733
 30
0.0
 10
255.9204306586819
 20
109.8223593949717
 30
0.0
 10
255.9897630228127
 20
109.8805612541892
 30
0.0
 10
256.0579788463073
 20
109.9392676354809
 30
0.0
 10
256.1250673699924
 20
109.9984707077221
 30
0.0
 10
256.1910179549295
 20
110.0581624528797
 30
0.0
 10
256.2558200918545
 20
110.1183346628122
 30
0.0
 10
256.3194634113642
 20
110.1789789366874
 30
0.0
 10
256.3819376948305
 20
110.2400866791151
 30
0.0
 10
256.4432328860111
 20
110.3016490990866
 30
0.0
 10
256.5033391033102
 20
110.3636572098185
 30
0.0
 10
256.5622466526307
 20
110.4261018295891
 30
0.0
 10
256.6199460407396
 20
110.4889735836567
 30
0.0
 10
256.6764279890556
 20
110.5522629073378
 30
0.0
 10
256.7316834477499
 20
110.6159600503173
 30
0.0
 10
256.7857036100355
 20
110.6800550822486
 30
0.0
 10
256.8384799265052
 20
110.7445378996888
 30
0.0
 10
256.8900041193639
 20
110.809398234397
 30
0.0
 10
256.9402681963888
 20
110.8746256630067
 30
0.0
 10
256.9892644644405
 20
110.9402096180599
 30
0.0
 10
257.0369855423406
 20
111.0061394003727
 30
0.0
 10
257.0834243729263
 20
111.072404192675
 30
0.0
 10
257.1285742340925
 20
111.1389930744463
 30
0.0
 10
257.1724287486335
 20
111.2058950378438
 30
0.0
 10
257.2149818927045
 20
111.2730990045974
 30
0.0
 10
257.2562280027328
 20
111.3405938437236
 30
0.0
 10
257.2961617806261
 20
111.4083683898893
 30
0.0
 10
257.3347782971411
 20
111.4764114622419
 30
0.0
 10
257.3720729933023
 20
111.5447118835035
 30
0.0
 10
257.408041679784
 20
111.6132584991198
 30
0.0
 10
257.4426805341995
 20
111.6820401962451
 30
0.0
 10
257.4759860962711
 20
111.7510459223422
 30
0.0
 10
257.507955260888
 20
111.820264703179
 30
0.0
 10
257.5385852690911
 20
111.8896856600071
 30
0.0
 10
257.5678736970562
 20
111.9592980257199
 30
0.0
 10
257.5958184431792
 20
112.0290911597998
 30
0.0
 10
257.6224177133972
 20
112.0990545618829
 30
0.0
 10
257.6476700049016
 20
112.1691778837887
 30
0.0
 10
257.6715740884387
 20
112.2394509398853
 30
0.0
 10
257.6941289893629
 20
112.3098637156858
 30
0.0
 10
257.7153339678082
 20
112.3804063745922
 30
0.0
 10
257.7351884976727
 20
112.4510692627482
 30
0.0
 10
257.7536922466593
 20
112.5218429119147
 30
0.0
 10
257.7708450501698
 20
112.5927180405789
 30
0.0
 10
257.7866469070449
 20
112.6636855525142
 30
0.0
 10
257.8010978940014
 20
112.7347365358277
 30
0.0
 10
257.8141983842905
 20
112.8058622513865
 30
0.0
 10
257.8259481349235
 20
112.8770541523343
 30
0.0
 10
257.836349594374
 20
112.9483037796207
 30
0.0
 10
257.8453954824418
 20
113.0196031120548
 30
0.0
 10
257.8531150092305
 20
113.0909432147459
 30
0.0
 10
257.8594014659533
 20
113.1623192253968
 30
0.0
 10
257.8635992880481
 20
113.2193643885742
 30
0.0
 10
257.8652249408241
 20
113.2526273171108
 30
0.0
 10
257.8656866727299
 20
113.2620749406201
 30
0.0
  0
LINE
  5
E7
330
1F
100
AcDbEntity
  8
0
  6
Continuous
 62
     7
370
    30
100
AcDbLine
 10
240.0
 20
109.1628807682
 30
0.0
 11
240.0
 21
94.7587057052
 31
0.0
  0
LINE
  5
E8
330
1F
100
AcDbEntity
  8
0
  6
Continuous
 62
     7
370
    30
100
AcDbLine
 10
255.0
 20
92.0939141956
 30
0.0
 11
255.0
 21
109.1627763197
 31
0.0
  0
SPLINE
  5
E9
330
1F
100
AcDbEntity
  8
0
  6
Continuous
 62
     7
370
    30
100
AcDbSpline
210
0.0
220
0.0
230
1.0
 70
    11
 71
     3
 72
   295
 73
   291
 74
     0
 42
0.000000001
 43
0.00000001
 40
0.0
 40
0.0
 40
0.0
 40
0.0
 40
0.0039383253557294
 40
0.0078791200917185
 40
0.0118207767068668
 40
0.0157616396369263
 40
0.0197000222236237
 40
0.0236631321309414
 40
0.0276285699791348
 40
0.031594875638444
 40
0.0355604820075882
 40
0.0395237333385635
 40
0.0428431664690751
 40
0.0461630301607777
 40
0.0494824834161058
 40
0.0535568637401256
 40
0.0576312553686487
 40
0.0617228798498266
 40
0.0658159244801734
 40
0.0699090027475297
 40
0.0740006731132087
 40
0.0781162645437758
 40
0.0822332880933001
 40
0.0863502718409005
 40
0.0904658089771347
 40
0.0946005290340653
 40
0.0987352248171958
 40
0.1023847175500809
 40
0.1060354835354888
 40
0.1096860903966249
 40
0.113335366064438
 40
0.1162628600335739
 40
0.1191917748351916
 40
0.1221209814886089
 40
0.1250495438119784
 40
0.127976742013573
 40
0.1304273715234217
 40
0.1328783355128699
 40
0.1353289095183061
 40
0.1380803034026522
 40
0.1408337556302735
 40
0.143587656142701
 40
0.1463406469688336
 40
0.1490916535869747
 40
0.1518816064578117
 40
0.1546743418095565
 40
0.1574678311630097
 40
0.1602602250638141
 40
0.163049891273629
 40
0.1657992240427609
 40
0.168550660944155
 40
0.1713032032317822
 40
0.1740553941665103
 40
0.1768053598485721
 40
0.1795842677975739
 40
0.1823643544808961
 40
0.1851451424203316
 40
0.1879258044981157
 40
0.1907051952487431
 40
0.1947862947051491
 40
0.1988686756095454
 40
0.2029515133334428
 40
0.2070332359084252
 40
0.2111322818846621
 40
0.2152319799672243
 40
0.2193317567555096
 40
0.2234309100744317
 40
0.2275454122418613
 40
0.2316607276034371
 40
0.2357757476753755
 40
0.2398898470902708
 40
0.2432004899974347
 40
0.2465128969712173
 40
0.2498253279481638
 40
0.2531366379833028
 40
0.256446360411638
 40
0.2593780973525172
 40
0.2623124623635906
 40
0.2652480788620591
 40
0.2681836117191862
 40
0.2711177836258551
 40
0.2740493917164707
 40
0.2770296036655128
 40
0.2800125176870111
 40
0.2829968611699646
 40
0.2859812861331186
 40
0.2889643882725926
 40
0.2919447257486405
 40
0.2948699338429653
 40
0.2977973119592863
 40
0.3007259199959128
 40
0.3036546898626354
 40
0.3065824415764116
 40
0.3095078989257573
 40
0.3130635876107648
 40
0.3166216438515531
 40
0.3201807047181743
 40
0.3237391595173953
 40
0.3272951827027948
 40
0.3311916939578792
 40
0.3350882341386235
 40
0.3390047469453813
 40
0.3429228588052988
 40
0.3468410869645753
 40
0.3507577584252591
 40
0.3546997981328769
 40
0.3586432578131857
 40
0.3625867841699024
 40
0.3665289148323654
 40
0.3704889988049155
 40
0.3744490896583087
 40
0.3784110439536587
 40
0.3823730023443651
 40
0.3863505737286235
 40
0.3903294485076111
 40
0.39430832876385
 40
0.3982859076195333
 40
0.4022857346700512
 40
0.4062868895986653
 40
0.410288035239554
 40
0.4142878496207818
 40
0.4183050889305654
 40
0.4223223253995128
 40
0.426618812877405
 40
0.4309152961305768
 40
0.4343828277297152
 40
0.4378517296686459
 40
0.4413210742463972
 40
0.4447899474048249
 40
0.4482574548559538
 40
0.45177780502302
 40
0.4552996301804593
 40
0.4588219344226553
 40
0.4623437335716293
 40
0.4658640619160173
 40
0.4688263665721882
 40
0.4717889676297691
 40
0.4747512700824869
 40
0.4787919606151711
 40
0.4828349450384607
 40
0.4868786869370049
 40
0.4909216533889937
 40
0.4949623288404227
 40
0.4990253851450731
 40
0.5030907805469899
 40
0.507156961355822
 40
0.5112223630571835
 40
0.5152854246482813
 40
0.5186885228213222
 40
0.5220920773021414
 40
0.5254951781979843
 40
0.5295898379406432
 40
0.5336844999747857
 40
0.5377979904480247
 40
0.541913053474029
 40
0.5460281334232361
 40
0.5501416469823743
 40
0.5542817245441048
 40
0.558423364116572
 40
0.5625650243058647
 40
0.5667051299920296
 40
0.5708654319942806
 40
0.5750257377876181
 40
0.5792065362790819
 40
0.5833873382728579
 40
0.5875866390574954
 40
0.5917874839508285
 40
0.5959883415978747
 40
0.6001876597803246
 40
0.6044132260928852
 40
0.6086403524688022
 40
0.61286747339691
 40
0.617093032277895
 40
0.621339043626781
 40
0.6255850496748536
 40
0.6284734579723292
 40
0.6313621228658657
 40
0.6342505241859441
 40
0.6377342389259496
 40
0.6412194367635592
 40
0.6447050665019527
 40
0.648190141632162
 40
0.6516737534127609
 40
0.6551857308801717
 40
0.6586994961786122
 40
0.6622137368418428
 40
0.6657272669363851
 40
0.6692390470366479
 40
0.6721869659662125
 40
0.6751352752280633
 40
0.6780831570837891
 40
0.6816262581778071
 40
0.6851719438168254
 40
0.6887182770025093
 40
0.6922635452718792
 40
0.6958062960618863
 40
0.6987981741071433
 40
0.7017926441374618
 40
0.7047882836845039
 40
0.7077837628458673
 40
0.7107778625978534
 40
0.7137694935821055
 40
0.7167313788688491
 40
0.7196960064847288
 40
0.72266198933966
 40
0.7256279426026495
 40
0.7285925018977689
 40
0.7315543415953425
 40
0.7345657032532384
 40
0.7375795185245813
 40
0.7405948631310793
 40
0.7436105528353056
 40
0.7466251648304228
 40
0.7496370580936152
 40
0.75314593037455
 40
0.7566560947866506
 40
0.7601671965210489
 40
0.7636782958330272
 40
0.7671879525290624
 40
0.7716581281445869
 40
0.7761291836275446
 40
0.7806003847021648
 40
0.7850707588896747
 40
0.7887215901655183
 40
0.7923733808415517
 40
0.7960252354470908
 40
0.7996765193293552
 40
0.8033269254454072
 40
0.8064055481617475
 40
0.8094844631993361
 40
0.8125629496101017
 40
0.8151719471147236
 40
0.8177812330073881
 40
0.8203901285380211
 40
0.8230218106013557
 40
0.8256560548048448
 40
0.8282911543555629
 40
0.83092573219115
 40
0.8335587718895595
 40
0.8361896502287588
 40
0.8388600013709125
 40
0.841531199996741
 40
0.8442015671030836
 40
0.8462935148436163
 40
0.8483858481134612
 40
0.8504778274720403
 40
0.8530119593304545
 40
0.8555476809183965
 40
0.8580841120112817
 40
0.8606201678091095
 40
0.8631545801513939
 40
0.8663580066670252
 40
0.8695630502066712
 40
0.8727683397943968
 40
0.8759721019947976
 40
0.8795255246564049
 40
0.8830810849524838
 40
0.8866376905331655
 40
0.8901938660688696
 40
0.8937478050554781
 40
0.897321324805548
 40
0.9008964254598266
 40
0.9044721913717327
 40
0.9080475450824604
 40
0.9116212771685237
 40
0.91460975512301
 40
0.9175985136236179
 40
0.9205870003270844
 40
0.9243375091363524
 40
0.9280896380135966
 40
0.9318422904566535
 40
0.9355943818188437
 40
0.9393448591503069
 40
0.9430981292242057
 40
0.9468531618708768
 40
0.9506087152733013
 40
0.9543636161848573
 40
0.9581167757196657
 40
0.961251238587099
 40
0.9643860635578825
 40
0.9675205102116297
 40
0.9715654586896518
 40
0.9756121007064937
 40
0.9796586845308727
 40
0.9837035536221046
 40
0.9869619159577092
 40
0.9902216873710202
 40
0.9934819154735421
 40
0.9967416601220161
 40
1.0
 40
1.0
 40
1.0
 40
1.0
 10
242.1966991411144
 20
84.40756214296141
 30
0.0
 10
242.1514646794168
 20
84.38126411037958
 30
0.0
 10
242.0609673934368
 20
84.32865155601388
 30
0.0
 10
241.9297908087886
 20
84.249920660036
 30
0.0
 10
241.8020720808425
 20
84.17136991952279
 30
0.0
 10
241.6782883128344
 20
84.09308161292954
 30
0.0
 10
241.5582145542896
 20
84.01493286187261
 30
0.0
 10
241.4419800487121
 20
83.93694285315553
 30
0.0
 10
241.3296354628322
 20
83.85906930467249
 30
0.0
 10
241.2214978381277
 20
83.78145661457098
 30
0.0
 10
241.1176741861121
 20
83.70410949798105
 30
0.0
 10
241.0236244186311
 20
83.63118345403254
 30
0.0
 10
240.9386024287186
 20
83.56260007242855
 30
0.0
 10
240.8618615822483
 20
83.49826234317152
 30
0.0
 10
240.7826881970462
 20
83.42909186129052
 30
0.0
 10
240.7020042376518
 20
83.35504340208172
 30
0.0
 10
240.6207016810174
 20
83.27589065498641
 30
0.0
 10
240.5441471653442
 20
83.19639350265203
 30
0.0
 10
240.4723898014385
 20
83.11640683941226
 30
0.0
 10
240.4055695676863
 20
83.03589579435032
 30
0.0
 10
240.3436026395578
 20
82.95455638582783
 30
0.0
 10
240.2865503629531
 20
82.87221816322513
 30
0.0
 10
240.234459047172
 20
82.78865217709055
 30
0.0
 10
240.1874721345505
 20
82.70381012535705
 30
0.0
 10
240.1455625022229
 20
82.61735362591325
 30
0.0
 10
240.1087941906191
 20
82.52904823034604
 30
0.0
 10
240.0784516100454
 20
82.44213338789224
 30
0.0
 10
240.0539369360894
 20
82.35678190095797
 30
0.0
 10
240.03460782508
 20
82.27306787229455
 30
0.0
 10
240.0194503191202
 20
82.1871645495725
 30
0.0
 10
240.0092164700669
 20
82.10469292369336
 30
0.0
 10
240.003023190201
 20
82.02600156248083
 30
0.0
 10
240.0000337475661
 20
81.95146558703831
 30
0.0
 10
239.9997821041142
 20
81.8749938426427
 30
0.0
 10
240.0022754823027
 20
81.79649125221295
 30
0.0
 10
240.0072388012855
 20
81.7202223683019
 30
0.0
 10
240.014178313522
 20
81.6464783220458
 30
0.0
 10
240.0226191826958
 20
81.57556184683018
 30
0.0
 10
240.0333985586738
 20
81.49995272753303
 30
0.0
 10
240.0468099076664
 20
81.41929702476028
 30
0.0
 10
240.0631202274049
 20
81.33323728099867
 30
0.0
 10
240.0817757223667
 20
81.24477549468756
 30
0.0
 10
240.1027279705133
 20
81.1538980864552
 30
0.0
 10
240.1260430489221
 20
81.06012881846283
 30
0.0
 10
240.1517338607967
 20
80.96331858228778
 30
0.0
 10
240.1797402543019
 20
80.863411142207
 30
0.0
 10
240.209833697487
 20
80.76091368991493
 30
0.0
 10
240.2418911116546
 20
80.65593579074495
 30
0.0
 10
240.2756455251371
 20
80.54903499315607
 30
0.0
 10
240.3109691980542
 20
80.44031404736975
 30
0.0
 10
240.3477377912533
 20
80.33007359850798
 30
0.0
 10
240.3860310124912
 20
80.21800990666075
 30
0.0
 10
240.425742280035
 20
80.10440092102525
 30
0.0
 10
240.4669338930701
 20
79.98905070573731
 30
0.0
 10
240.5095554667708
 20
79.87211022178082
 30
0.0
 10
240.5535780590694
 20
79.75372112385159
 30
0.0
 10
240.5988067911252
 20
79.63445961689933
 30
0.0
 10
240.6451866305172
 20
79.51451587506139
 30
0.0
 10
240.7000927768884
 20
79.37523530094509
 30
0.0
 10
240.7641768959838
 20
79.21645961701503
 30
0.0
 10
240.8382277513667
 20
79.03822912513667
 30
0.0
 10
240.914629679926
 20
78.85976671972811
 30
0.0
 10
240.9935137628741
 20
78.68113145910252
 30
0.0
 10
241.0749315317703
 20
78.5025813306772
 30
0.0
 10
241.1590355310468
 20
78.32436272498155
 30
0.0
 10
241.2458509189987
 20
78.14699365479943
 30
0.0
 10
241.3356336273537
 20
77.97051626172416
 30
0.0
 10
241.4285453028146
 20
77.7951700027183
 30
0.0
 10
241.5248601412008
 20
77.62126748329827
 30
0.0
 10
241.6247179422805
 20
77.44937722852298
 30
0.0
 10
241.7216169923587
 20
77.29089992651994
 30
0.0
 10
241.8149429839117
 20
77.14560239755758
 30
0.0
 10
241.9041048518761
 20
77.0132016034021
 30
0.0
 10
241.99625702385
 20
76.88313614773767
 30
0.0
 10
242.0915409180799
 20
76.75577635162074
 30
0.0
 10
242.1863427320557
 20
76.63618782999025
 30
0.0
 10
242.2804327971489
 20
76.52432253805964
 30
0.0
 10
242.3734194778458
 20
76.41987682617597
 30
0.0
 10
242.4691283302723
 20
76.31833888249345
 30
0.0
 10
242.5674837448641
 20
76.21987163217123
 30
0.0
 10
242.6684060473871
 20
76.12463343308168
 30
0.0
 10
242.7724306998086
 20
76.03223756310751
 30
0.0
 10
242.8796233067391
 20
75.94284196079175
 30
0.0
 10
242.989978519315
 20
75.8565139932234
 30
0.0
 10
243.1028155205535
 20
75.77378502079729
 30
0.0
 10
243.2179932843737
 20
75.6947377832105
 30
0.0
 10
243.33537011428
 20
75.61945378339578
 30
0.0
 10
243.4541262316432
 20
75.54842562837122
 30
0.0
 10
243.5741801701118
 20
75.48158808636846
 30
0.0
 10
243.6954217716182
 20
75.4187828867893
 30
0.0
 10
243.8184982361785
 20
75.35956501273311
 30
0.0
 10
243.9432655999969
 20
75.30392509777114
 30
0.0
 10
244.0695802601898
 20
75.25185367093115
 30
0.0
 10
244.206524856914
 20
75.19984182812738
 30
0.0
 10
244.3544461029663
 20
75.14876386940864
 30
0.0
 10
244.5136186407776
 20
75.09946813781475
 30
0.0
 10
244.6745902978518
 20
75.0550411942244
 30
0.0
 10
244.837140250985
 20
75.0153744326962
 30
0.0
 10
245.006350785616
 20
74.97923412472487
 30
0.0
 10
245.1822568541833
 20
74.94700168768514
 30
0.0
 10
245.3651890755617
 20
74.91895206361431
 30
0.0
 10
245.549753632051
 20
74.89590310578828
 30
0.0
 10
245.7358057661983
 20
74.87769474613081
 30
0.0
 10
245.9228635029685
 20
74.86418404584045
 30
0.0
 10
246.1111744550473
 20
74.8551733608428
 30
0.0
 10
246.3006408544443
 20
74.85051841306311
 30
0.0
 10
246.491165911693
 20
74.8500776086626
 30
0.0
 10
246.682199550867
 20
74.85369623960246
 30
0.0
 10
246.8738948748635
 20
74.86122295752605
 30
0.0
 10
247.0661411430415
 20
74.87252139135447
 30
0.0
 10
247.2588790987509
 20
74.88746669874732
 30
0.0
 10
247.4517091287609
 20
74.9059002604997
 30
0.0
 10
247.6447748614097
 20
74.9277174410696
 30
0.0
 10
247.8379595241809
 20
74.95280134988111
 30
0.0
 10
248.0311522396111
 20
74.98104374880815
 30
0.0
 10
248.2239692806594
 20
75.0122907115667
 30
0.0
 10
248.4166388075851
 20
75.04648636243992
 30
0.0
 10
248.6090676724704
 20
75.08354097390895
 30
0.0
 10
248.8011587007175
 20
75.12337274986625
 30
0.0
 10
248.9924188246911
 20
75.16580756883025
 30
0.0
 10
249.1829871107552
 20
75.21080691633743
 30
0.0
 10
249.3727403294997
 20
75.25828742353174
 30
0.0
 10
249.5659502330479
 20
75.309331266992
 30
0.0
 10
249.7621116786501
 20
75.36396733763914
 30
0.0
 10
249.9481751649627
 20
75.41853206393691
 30
0.0
 10
250.1200427439005
 20
75.47121630902893
 30
0.0
 10
250.2779966734992
 20
75.5215126548017
 30
0.0
 10
250.4346327717319
 20
75.57325632085745
 30
0.0
 10
250.589828824586
 20
75.62638435594202
 30
0.0
 10
250.7442760721617
 20
75.68112178670619
 30
0.0
 10
250.8978887753412
 20
75.73745456727355
 30
0.0
 10
251.050583411564
 20
75.79536663403543
 30
0.0
 10
251.2014969846269
 20
75.85452394562621
 30
0.0
 10
251.3505024399732
 20
75.91486245771706
 30
0.0
 10
251.4897398419752
 20
75.97308504969685
 30
0.0
 10
251.6194950202179
 20
76.02895533099965
 30
0.0
 10
251.7400787541296
 20
76.08227368690929
 30
0.0
 10
251.8735499949324
 20
76.14287048371862
 30
0.0
 10
252.0191291184184
 20
76.21106029072716
 30
0.0
 10
252.1758463124918
 20
76.28715226781755
 30
0.0
 10
252.3293673655783
 20
76.36441895651986
 30
0.0
 10
252.4795158087739
 20
76.44276583768507
 30
0.0
 10
252.6264328238675
 20
76.52226976858961
 30
0.0
 10
252.7700043119517
 20
76.6028937534749
 30
0.0
 10
252.9101473884401
 20
76.68460063716017
 30
0.0
 10
253.0464881520047
 20
76.76717553668311
 30
0.0
 10
253.178871439491
 20
76.85052604305714
 30
0.0
 10
253.3002351391139
 20
76.93003663618839
 30
0.0
 10
253.4112343642907
 20
77.00553351191023
 30
0.0
 10
253.5125447024182
 20
77.0768865019203
 30
0.0
 10
253.6175093304816
 20
77.1535074853868
 30
0.0
 10
253.7253060201296
 20
77.23545801430606
 30
0.0
 10
253.8352010859367
 20
77.32292522001522
 30
0.0
 10
253.9406631971626
 20
77.41098356045015
 30
0.0
 10
254.0416011783507
 20
77.49959076764607
 30
0.0
 10
254.1377784634743
 20
77.58855995180313
 30
0.0
 10
254.229310513177
 20
77.67803134020457
 30
0.0
 10
254.3160969587347
 20
77.76797786587319
 30
0.0
 10
254.3980713637892
 20
77.85838567091741
 30
0.0
 10
254.474991011748
 20
77.94902575638551
 30
0.0
 10
254.5469102626929
 20
78.04000936426104
 30
0.0
 10
254.613749458203
 20
78.13131622135732
 30
0.0
 10
254.675563923178
 20
78.22310199369645
 30
0.0
 10
254.7321721972668
 20
78.31520999106789
 30
0.0
 10
254.7835958908755
 20
78.4077811154481
 30
0.0
 10
254.8296800145672
 20
78.50067638319244
 30
0.0
 10
254.8703785366309
 20
78.59391521297539
 30
0.0
 10
254.905602165398
 20
78.68737442259973
 30
0.0
 10
254.9353850152336
 20
78.7812619842183
 30
0.0
 10
254.9596599291114
 20
78.87561565751999
 30
0.0
 10
254.9783884085853
 20
78.9705032196735
 30
0.0
 10
254.991508725669
 20
79.06577375721406
 30
0.0
 10
254.9990153457331
 20
79.16162469275234
 30
0.0
 10
255.0008608698946
 20
79.25811967167817
 30
0.0
 10
254.9974277825506
 20
79.34499808394483
 30
0.0
 10
254.990633554642
 20
79.42195653839302
 30
0.0
 10
254.9821204911816
 20
79.48883418573368
 30
0.0
 10
254.9702025270683
 20
79.56070656239785
 30
0.0
 10
254.9541966746218
 20
79.6377152058843
 30
0.0
 10
254.93337665619
 20
79.7200426028711
 30
0.0
 10
254.9087168214287
 20
79.80310555367222
 30
0.0
 10
254.8802269724275
 20
79.88694974979789
 30
0.0
 10
254.8478238197421
 20
79.97186931463983
 30
0.0
 10
254.8114581217077
 20
80.05796009989807
 30
0.0
 10
254.7711096299703
 20
80.14533648173952
 30
0.0
 10
254.7269009699485
 20
80.23384757951479
 30
0.0
 10
254.6788672218412
 20
80.32354910202702
 30
0.0
 10
254.6298020687295
 20
80.40965084379506
 30
0.0
 10
254.5804032771495
 20
80.4919985677211
 30
0.0
 10
254.5313253554356
 20
80.57043366301257
 30
0.0
 10
254.4761585276202
 20
80.65529087513671
 30
0.0
 10
254.4142536757091
 20
80.74692619965082
 30
0.0
 10
254.344984618991
 20
80.84573416583324
 30
0.0
 10
254.2721234653115
 20
80.94634790815478
 30
0.0
 10
254.195794849536
 20
81.04879330940196
 30
0.0
 10
254.1202280740384
 20
81.14772283379098
 30
0.0
 10
254.046058808073
 20
81.24289733810427
 30
0.0
 10
253.973891375955
 20
81.33405690472578
 30
0.0
 10
253.8995439556902
 20
81.42671334297427
 30
0.0
 10
253.823151869686
 20
81.52083955280328
 30
0.0
 10
253.7448512430308
 20
81.61640805717204
 30
0.0
 10
253.6650122463761
 20
81.71310451196806
 30
0.0
 10
253.5837275347537
 20
81.81096931260143
 30
0.0
 10
253.5011300731051
 20
81.90999580482186
 30
0.0
 10
253.4170898658723
 20
82.01047367094935
 30
0.0
 10
253.3317853434042
 20
82.11232218449474
 30
0.0
 10
253.2453979592223
 20
82.21546546456744
 30
0.0
 10
253.1575713786043
 20
82.3204356669151
 30
0.0
 10
253.0684267854029
 20
82.42733206992182
 30
0.0
 10
252.978073850837
 20
82.53615133896938
 30
0.0
 10
252.8871105040532
 20
82.64616437763172
 30
0.0
 10
252.7956887969344
 20
82.75721755204388
 30
0.0
 10
252.7039500133676
 20
82.86914134986296
 30
0.0
 10
252.6069624650508
 20
82.98806146658472
 30
0.0
 10
252.5046679975803
 20
83.11393285952194
 30
0.0
 10
252.3968400403109
 20
83.24651509059456
 30
0.0
 10
252.2885010521608
 20
83.37934485465131
 30
0.0
 10
252.1795846427333
 20
83.51213777837937
 30
0.0
 10
252.0600004046058
 20
83.6567481473884
 30
0.0
 10
251.929351021142
 20
83.81283361442784
 30
0.0
 10
251.787032105661
 20
83.97983579112129
 30
0.0
 10
251.6428197831649
 20
84.14530496774397
 30
0.0
 10
251.5053503881919
 20
84.29884660215663
 30
0.0
 10
251.3748165339624
 20
84.44055763071562
 30
0.0
 10
251.2514621554407
 20
84.57062622637854
 30
0.0
 10
251.1259871054381
 20
84.69863843232017
 30
0.0
 10
250.9982022902981
 20
84.82429260213372
 30
0.0
 10
250.874713979327
 20
84.94087812912952
 30
0.0
 10
250.7557902967321
 20
85.04859871037893
 30
0.0
 10
250.6417238036569
 20
85.14769995266937
 30
0.0
 10
250.5313722477605
 20
85.23931766224663
 30
0.0
 10
250.4250182073202
 20
85.32367497048374
 30
0.0
 10
250.3229582426179
 20
85.40104737575211
 30
0.0
 10
250.2188190801917
 20
85.47625019623447
 30
0.0
 10
250.1124888263093
 20
85.54906614113861
 30
0.0
 10
250.0038965537885
 20
85.61927359328396
 30
0.0
 10
249.8933457989879
 20
85.68645969867123
 30
0.0
 10
249.7808896712644
 20
85.75037391741866
 30
0.0
 10
249.6665811237979
 20
85.8107642460823
 30
0.0
 10
249.5498622888264
 20
85.8676899582308
 30
0.0
 10
249.4306937394603
 20
85.92081102312993
 30
0.0
 10
249.309169694788
 20
85.96998374885784
 30
0.0
 10
249.194921115204
 20
86.01164922037353
 30
0.0
 10
249.0884607520222
 20
86.04678146567942
 30
0.0
 10
248.9901789339995
 20
86.07634855334253
 30
0.0
 10
248.8841970235672
 20
86.10523341069629
 30
0.0
 10
248.7703952272804
 20
86.13278024998536
 30
0.0
 10
248.6487120206387
 20
86.15834153136115
 30
0.0
 10
248.5263062339275
 20
86.18030572115656
 30
0.0
 10
248.4033467976633
 20
86.1987502014964
 30
0.0
 10
248.269098291699
 20
86.2150751917562
 30
0.0
 10
248.1235022622181
 20
86.22826768217665
 30
0.0
 10
247.9665899191824
 20
86.23735556703757
 30
0.0
 10
247.809440545484
 20
86.24157579151179
 30
0.0
 10
247.6465083865916
 20
86.24113379364249
 30
0.0
 10
247.4778928427763
 20
86.23567229500254
 30
0.0
 10
247.3037136149858
 20
86.22489571234284
 30
0.0
 10
247.1298257150868
 20
86.20927832078544
 30
0.0
 10
246.9564138117081
 20
86.1891152043163
 30
0.0
 10
246.7832752638009
 20
86.16464326983989
 30
0.0
 10
246.6104658421164
 20
86.13610886054366
 30
0.0
 10
246.4380213713949
 20
86.1037246898568
 30
0.0
 10
246.2663358247037
 20
86.06777599583368
 30
0.0
 10
246.0955242552178
 20
86.02850348169494
 30
0.0
 10
245.9349256911623
 20
85.98844980035182
 30
0.0
 10
245.7844109313329
 20
85.9483534934674
 30
0.0
 10
245.6438265900687
 20
85.90880274786072
 30
0.0
 10
245.4920968374109
 20
85.8639368562754
 30
0.0
 10
245.329475178328
 20
85.81332227912083
 30
0.0
 10
245.1562893834146
 20
85.75655407949158
 30
0.0
 10
244.9844265406263
 20
85.69749251443388
 30
0.0
 10
244.8140049864623
 20
85.63633659257805
 30
0.0
 10
244.6450611689723
 20
85.57325487335572
 30
0.0
 10
244.4776380782998
 20
85.50841110840982
 30
0.0
 10
244.3117857385279
 20
85.4419392818217
 30
0.0
 10
244.1476387948114
 20
85.37400719198287
 30
0.0
 10
243.9853364662697
 20
85.30478334497218
 30
0.0
 10
243.8337884543737
 20
85.23828634782032
 30
0.0
 10
243.6927131419944
 20
85.1748401409011
 30
0.0
 10
243.5618033311675
 20
85.11467609726436
 30
0.0
 10
243.4198829083429
 20
85.04807314133991
 30
0.0
 10
243.2675754643277
 20
84.9749211499749
 30
0.0
 10
243.1056586364843
 20
84.89516083866354
 30
0.0
 10
242.9466410537268
 20
84.81486845629472
 30
0.0
 10
242.8007901964173
 20
84.73941821201772
 30
0.0
 10
242.667564124097
 20
84.66899584200033
 30
0.0
 10
242.5463584409203
 20
84.60368558899305
 30
0.0
 10
242.4273872149886
 20
84.53829909281674
 30
0.0
 10
242.3105338649989
 20
84.47289749000552
 30
0.0
 10
242.2346385967874
 20
84.4293374626394
 30
0.0
 10
242.1966991411145
 20
84.40756214296118
 30
0.0
  0
SPLINE
  5
EA
330
1F
100
AcDbEntity
  8
0
  6
Continuous
 62
     7
370
    30
100
AcDbSpline
210
0.0
220
0.0
230
1.0
 70
    11
 71
     3
 72
   207
 73
   203
 74
     0
 42
0.000000001
 43
0.00000001
 40
0.0
 40
0.0
 40
0.0
 40
0.0
 40
0.005689813159242
 40
0.0113843724249876
 40
0.0170788885167504
 40
0.0227686427531889
 40
0.0273832260208369
 40
0.0320017729742352
 40
0.0366215687092362
 40
0.0412399644787093
 40
0.0458544208383542
 40
0.0504746141387468
 40
0.0550975907592708
 40
0.0597205056335339
 40
0.0643406146835504
 40
0.0689216721854216
 40
0.0735055426082636
 40
0.0780893969384199
 40
0.0826704324822309
 40
0.0872339584862155
 40
0.0917974934248658
 40
0.0973130698292606
 40
0.1028332596675047
 40
0.1083537339147802
 40
0.1138696984704094
 40
0.1194547456500236
 40
0.1250437591980161
 40
0.1306332316822851
 40
0.1362189051191392
 40
0.1414859546411621
 40
0.1467530690765978
 40
0.1520507531421601
 40
0.1573506298586157
 40
0.1626508008883267
 40
0.1679488864521889
 40
0.173283615418488
 40
0.1786200449198165
 40
0.1839566397594798
 40
0.1892915942577405
 40
0.1946493453836921
 40
0.2000071056409402
 40
0.2047694859667566
 40
0.2095318627413688
 40
0.2158782260235468
 40
0.2222258519595866
 40
0.2285720090781622
 40
0.2348972148014177
 40
0.2412239685415558
 40
0.2475486852635351
 40
0.252289455857112
 40
0.2570323669886281
 40
0.261774914880542
 40
0.2665151899168161
 40
0.271045284819484
 40
0.2755789961027134
 40
0.2801137354689544
 40
0.2846470982197707
 40
0.289176900573372
 40
0.2937710280621667
 40
0.2983692820528749
 40
0.3029688467132839
 40
0.3075669627352882
 40
0.3121609744047358
 40
0.3166950675549822
 40
0.3212331425365643
 40
0.325772593731146
 40
0.3303107467926417
 40
0.3348449054868668
 40
0.3394459829027978
 40
0.3440510038398189
 40
0.3486574464299803
 40
0.353262655547058
 40
0.3578638909272119
 40
0.3634813838680985
 40
0.3691033784072292
 40
0.3747255151208659
 40
0.3803432020905433
 40
0.3860320247209131
 40
0.3917252387801823
 40
0.3974185529166653
 40
0.4031075121208698
 40
0.4070952000812044
 40
0.4110828908432062
 40
0.4164255587572416
 40
0.4217699706692742
 40
0.4271126580785684
 40
0.432492616763453
 40
0.4378743326324193
 40
0.4432542989175708
 40
0.4473097932761418
 40
0.4513652877778332
 40
0.4555081287978482
 40
0.4596509697214406
 40
0.4652031500969027
 40
0.4707572532475923
 40
0.4763094305890206
 40
0.4819032469007462
 40
0.4874990337301039
 40
0.4930928475816103
 40
0.4973113229708329
 40
0.5015297983150883
 40
0.5056853469297936
 40
0.5098408956330547
 40
0.5154103586266338
 40
0.5209817685136809
 40
0.5265512342427953
 40
0.5321627311318498
 40
0.5377762155050206
 40
0.543387715301079
 40
0.5476196118520178
 40
0.5518515084181015
 40
0.5560077276344328
 40
0.560163946554266
 40
0.5657342952007858
 40
0.5713065874580194
 40
0.5768769245959882
 40
0.5824895992020579
 40
0.5881042793678014
 40
0.593716925168937
 40
0.597950183228285
 40
0.6021834370841732
 40
0.6063240052904646
 40
0.6104645686152637
 40
0.6160156384573962
 40
0.6215687548555471
 40
0.6271197522007652
 40
0.6327167224019754
 40
0.6383158901397139
 40
0.643912766823144
 40
0.6481370099436323
 40
0.65236124403285
 40
0.6571823815336091
 40
0.6620066163959001
 40
0.6668307802423239
 40
0.6716518208407882
 40
0.6764354129561884
 40
0.6812221418445166
 40
0.686008851997622
 40
0.6907924185482202
 40
0.6955603134739162
 40
0.7003282156216405
 40
0.70590307201816
 40
0.7114826877783833
 40
0.7170625103678092
 40
0.7226376490430186
 40
0.7282858181505256
 40
0.7339382944319994
 40
0.7395912211583419
 40
0.7452400049683041
 40
0.7493397657699646
 40
0.7534395634814968
 40
0.7589301569450656
 40
0.7644220654198745
 40
0.769912939034785
 40
0.7754393861558452
 40
0.7809668299701663
 40
0.7864934163015335
 40
0.7920525157188671
 40
0.7976124655803551
 40
0.8031715907753688
 40
0.807354880743145
 40
0.8115381662745338
 40
0.8165155607323825
 40
0.8214929370896713
 40
0.8281313697616968
 40
0.8347714314503107
 40
0.8414095075992452
 40
0.8463799818154655
 40
0.8513524078814126
 40
0.8563245723009201
 40
0.8612946895830079
 40
0.8662705147441987
 40
0.8712489127378188
 40
0.876227016756504
 40
0.8812024408311813
 40
0.8856846448328164
 40
0.8901704326033195
 40
0.8946572061977326
 40
0.8991425864795232
 40
0.9036244484456575
 40
0.9081703207936155
 40
0.9127202993734893
 40
0.9172715991813677
 40
0.9218214730335718
 40
0.9263672574662402
 40
0.9308526586106115
 40
0.9353419481071739
 40
0.9398326075714366
 40
0.9443220228140952
 40
0.9488075295145968
 40
0.9533581308614876
 40
0.9579125618357336
 40
0.9624683599529131
 40
0.9670229494314678
 40
0.9715736838297032
 40
0.9751130061932004
 40
0.9786523311372938
 40
0.9833895359902292
 40
0.9881281221679753
 40
0.9928653436638989
 40
0.9964326716402386
 40
0.9999999999999999
 40
0.9999999999999999
 40
0.9999999999999999
 40
0.9999999999999999
 10
244.8483495705572
 20
83.26418348183333
 30
0.0
 10
244.8824133828918
 20
83.28325857329574
 30
0.0
 10
244.9505694215837
 20
83.32142466753666
 30
0.0
 10
245.0575369251037
 20
83.37364109444442
 30
0.0
 10
245.1677140721061
 20
83.42201423518087
 30
0.0
 10
245.2740937437436
 20
83.4632730227942
 30
0.0
 10
245.3757760025137
 20
83.4982814660028
 30
0.0
 10
245.4721026756629
 20
83.52778705106323
 30
0.0
 10
245.5702580253702
 20
83.55422694905998
 30
0.0
 10
245.6700624027283
 20
83.57749185330826
 30
0.0
 10
245.7714235522379
 20
83.59749316847099
 30
0.0
 10
245.8742449695513
 20
83.61412309423139
 30
0.0
 10
245.9783983381417
 20
83.62730642386995
 30
0.0
 10
246.0836680581731
 20
83.63695365419599
 30
0.0
 10
246.1895804753791
 20
83.64296139415298
 30
0.0
 10
246.2959927408026
 20
83.64526726831603
 30
0.0
 10
246.4027512999121
 20
83.64387648723911
 30
0.0
 10
246.5099728678566
 20
83.63876348565115
 30
0.0
 10
246.6173355366544
 20
83.62989656603071
 30
0.0
 10
246.724673497834
 20
83.61725713867477
 30
0.0
 10
246.8393035906645
 20
83.59976117020528
 30
0.0
 10
246.961195519003
 20
83.57638984201319
 30
0.0
 10
247.0900399868944
 20
83.54620459496361
 30
0.0
 10
247.2181338586101
 20
83.51077626902092
 30
0.0
 10
247.3457465614038
 20
83.47005365272811
 30
0.0
 10
247.4726714800046
 20
83.4240617274178
 30
0.0
 10
247.598779428453
 20
83.37297569999753
 30
0.0
 10
247.7233829152088
 20
83.31722614018634
 30
0.0
 10
247.8439928943785
 20
83.25818084443976
 30
0.0
 10
247.9606200932114
 20
83.19633748854974
 30
0.0
 10
248.0735904968484
 20
83.13206088036823
 30
0.0
 10
248.1851728875985
 20
83.064286099238
 30
0.0
 10
248.2953495253492
 20
82.9932003324106
 30
0.0
 10
248.4038942754363
 20
82.91914455765858
 30
0.0
 10
248.5110486043198
 20
82.8421418643041
 30
0.0
 10
248.6168290402723
 20
82.76234881340292
 30
0.0
 10
248.7212735055623
 20
82.67991702319729
 30
0.0
 10
248.8241650212005
 20
82.59520865922734
 30
0.0
 10
248.9256784726799
 20
82.50827542429897
 30
0.0
 10
249.0258497915542
 20
82.41926753939748
 30
0.0
 10
249.1210639264888
 20
82.3316860845017
 30
0.0
 10
249.2113964564146
 20
82.24601555671539
 30
0.0
 10
249.3065368400805
 20
82.15330029103725
 30
0.0
 10
249.4096921000197
 20
82.04972663199023
 30
0.0
 10
249.5203961667626
 20
81.93499336479535
 30
0.0
 10
249.629204623035
 20
81.81885425236077
 30
0.0
 10
249.73614788664
 20
81.70154941786095
 30
0.0
 10
249.8412175909728
 20
81.58332649967862
 30
0.0
 10
249.935871851208
 20
81.47423877370372
 30
0.0
 10
250.0205620971104
 20
81.37472765286965
 30
0.0
 10
250.0956926041091
 20
81.28501978253433
 30
0.0
 10
250.1696563072839
 20
81.19526666851688
 30
0.0
 10
250.2412916094941
 20
81.10694140056583
 30
0.0
 10
250.3105617574512
 20
81.02011484567208
 30
0.0
 10
250.3773994799335
 20
80.93476856152293
 30
0.0
 10
250.4427288232828
 20
80.84964507943036
 30
0.0
 10
250.5063777198396
 20
80.76483786709956
 30
0.0
 10
250.5684956566337
 20
80.68001011449833
 30
0.0
 10
250.6289220384393
 20
80.59519425509603
 30
0.0
 10
250.6875161543524
 20
80.51040870394178
 30
0.0
 10
250.7438600079392
 20
80.42610379841774
 30
0.0
 10
250.7977862157261
 20
80.34237483079559
 30
0.0
 10
250.8489298990959
 20
80.25963939142173
 30
0.0
 10
250.8972037678473
 20
80.17790446254777
 30
0.0
 10
250.9425786148353
 20
80.09715089748825
 30
0.0
 10
250.9851689732184
 20
80.01705519353234
 30
0.0
 10
251.024854279567
 20
79.93768951166045
 30
0.0
 10
251.061712214676
 20
79.85870251636145
 30
0.0
 10
251.0955964948953
 20
79.78010199610522
 30
0.0
 10
251.1264194460242
 20
79.70187754059042
 30
0.0
 10
251.153958575354
 20
79.62442963543049
 30
0.0
 10
251.1781414526436
 20
79.54781014274093
 30
0.0
 10
251.2004321839319
 20
79.46645959825241
 30
0.0
 10
251.2198218722788
 20
79.38057338736874
 30
0.0
 10
251.2352626899741
 20
79.29037372653482
 30
0.0
 10
251.2454723251725
 20
79.20139144731641
 30
0.0
 10
251.2504255045152
 20
79.11327697973806
 30
0.0
 10
251.2499870545831
 20
79.02602097453024
 30
0.0
 10
251.2441100818039
 20
78.93961178015711
 30
0.0
 10
251.232812247724
 20
78.854433939053
 30
0.0
 10
251.2177617024916
 20
78.77886760168052
 30
0.0
 10
251.2006924672404
 20
78.71252552445266
 30
0.0
 10
251.1811210282541
 20
78.6485365402893
 30
0.0
 10
251.1557755563497
 20
78.57889417435895
 30
0.0
 10
251.1234117886745
 20
78.50391643101295
 30
0.0
 10
251.0863265420186
 20
78.42987135171853
 30
0.0
 10
251.0445124321234
 20
78.35678074600227
 30
0.0
 10
250.9980047484323
 20
78.28467463109762
 30
0.0
 10
250.9511467305684
 20
78.21956372306961
 30
0.0
 10
250.9051985668495
 20
78.16116404792352
 30
0.0
 10
250.860935397592
 20
78.1088210055133
 30
0.0
 10
250.8138118303428
 20
78.05683388413127
 30
0.0
 10
250.7581354216757
 20
77.99938824219804
 30
0.0
 10
250.6931627850138
 20
77.93719785802713
 30
0.0
 10
250.6177728645115
 20
77.87070805458188
 30
0.0
 10
250.5378751526807
 20
77.80555669472345
 30
0.0
 10
250.4535252060846
 20
77.7418157140016
 30
0.0
 10
250.3648230680731
 20
77.67956445828978
 30
0.0
 10
250.279697996673
 20
77.62398995727385
 30
0.0
 10
250.1993258078548
 20
77.57469850347654
 30
0.0
 10
250.1250489942237
 20
77.53150538977442
 30
0.0
 10
250.0490824271388
 20
77.48959538604907
 30
0.0
 10
249.9627288886625
 20
77.44437794114606
 30
0.0
 10
249.8648087585688
 20
77.3961594233953
 30
0.0
 10
249.7545518563346
 20
77.34559089046756
 30
0.0
 10
249.6408766994255
 20
77.29709835102204
 30
0.0
 10
249.52390260914
 20
77.25080031611903
 30
0.0
 10
249.4037822879818
 20
77.2068160221451
 30
0.0
 10
249.2910371221591
 20
77.16876171572505
 30
0.0
 10
249.1865261715212
 20
77.13604930751421
 30
0.0
 10
249.0914743605953
 20
77.10825931792874
 30
0.0
 10
248.995739731023
 20
77.08220220008027
 30
0.0
 10
248.8885011526705
 20
77.05513364250757
 30
0.0
 10
248.7687571751624
 20
77.02765500048791
 30
0.0
 10
248.636179421926
 20
77.00069436910375
 30
0.0
 10
248.5016783683337
 20
76.97685040340379
 30
0.0
 10
248.3654227440218
 20
76.95628241376626
 30
0.0
 10
248.2276023045538
 20
76.93914127942911
 30
0.0
 10
248.1001281518649
 20
76.92671756235231
 30
0.0
 10
247.9834437695588
 20
76.91815213501334
 30
0.0
 10
247.8785811769289
 20
76.91265092625432
 30
0.0
 10
247.7742058320788
 20
76.90937773880384
 30
0.0
 10
247.6586251108812
 20
76.90820736960723
 30
0.0
 10
247.5310808253311
 20
76.91015894137506
 30
0.0
 10
247.3917576674445
 20
76.91646534047226
 30
0.0
 10
247.2522858606499
 20
76.92709722764054
 30
0.0
 10
247.1128924637892
 20
76.94223670555021
 30
0.0
 10
246.9738141376633
 20
76.96202413619484
 30
0.0
 10
246.8469580774029
 20
76.98452501620403
 30
0.0
 10
246.73228229425
 20
77.00856464497038
 30
0.0
 10
246.6247472024457
 20
77.03418486797156
 30
0.0
 10
246.5133812474417
 20
77.0642779215902
 30
0.0
 10
246.3985005901513
 20
77.09938257730157
 30
0.0
 10
246.2850738814237
 20
77.13821547516795
 30
0.0
 10
246.1735726400267
 20
77.18068525888644
 30
0.0
 10
246.0641239413745
 20
77.22680462734533
 30
0.0
 10
245.9568211120068
 20
77.27651348635023
 30
0.0
 10
245.8515372953942
 20
77.32989017043629
 30
0.0
 10
245.7485492592477
 20
77.3868406710356
 30
0.0
 10
245.6479873278029
 20
77.44732232628412
 30
0.0
 10
245.5443861759834
 20
77.5148468562448
 30
0.0
 10
245.4382517984538
 20
77.5901868395275
 30
0.0
 10
245.3302771691806
 20
77.67393389130974
 30
0.0
 10
245.2259828719445
 20
77.76206519199194
 30
0.0
 10
245.1250785322262
 20
77.8547936518523
 30
0.0
 10
245.0277314141605
 20
77.95207355759074
 30
0.0
 10
244.9339917500669
 20
78.05372552042947
 30
0.0
 10
244.844307894853
 20
78.15903357545714
 30
0.0
 10
244.766540253619
 20
78.25781393927655
 30
0.0
 10
244.6994634164373
 20
78.34884889551522
 30
0.0
 10
244.6354303042108
 20
78.44049603706073
 30
0.0
 10
244.5677616320437
 20
78.5434320947214
 30
0.0
 10
244.4973464929783
 20
78.6580517667327
 30
0.0
 10
244.4301782490726
 20
78.77487603570552
 30
0.0
 10
244.3661764192001
 20
78.89369024712664
 30
0.0
 10
244.3052902361327
 20
79.01431345173093
 30
0.0
 10
244.2474694543001
 20
79.13654450169061
 30
0.0
 10
244.1926617481909
 20
79.26021499381578
 30
0.0
 10
244.1408524110075
 20
79.38517825004054
 30
0.0
 10
244.096133869947
 20
79.500658368337
 30
0.0
 10
244.0576658065813
 20
79.6062965017193
 30
0.0
 10
244.0226398275483
 20
79.70791157204121
 30
0.0
 10
243.9876579993381
 20
79.81595220140908
 30
0.0
 10
243.9493376033418
 20
79.94312565103984
 30
0.0
 10
243.9107137781569
 20
80.08337672355961
 30
0.0
 10
243.8730868924229
 20
80.23655753374793
 30
0.0
 10
243.8428514180519
 20
80.37683824086712
 30
0.0
 10
243.8188485766017
 20
80.50403157978923
 30
0.0
 10
243.8000076955819
 20
80.6181289802067
 30
0.0
 10
243.7839990698059
 20
80.7317830707443
 30
0.0
 10
243.7709047352006
 20
80.84489006397335
 30
0.0
 10
243.7608235233511
 20
80.95732294718249
 30
0.0
 10
243.7538549182243
 20
81.06895972608108
 30
0.0
 10
243.750102526073
 20
81.17959436740236
 30
0.0
 10
243.7496825454367
 20
81.28543861627644
 30
0.0
 10
243.7523295980268
 20
81.38649208686898
 30
0.0
 10
243.7577373017209
 20
81.48282551365475
 30
0.0
 10
243.7660556591039
 20
81.57790340318932
 30
0.0
 10
243.7773439085951
 20
81.67156796026057
 30
0.0
 10
243.7917319658562
 20
81.7641372355977
 30
0.0
 10
243.809355492508
 20
81.85549720223611
 30
0.0
 10
243.8302919206739
 20
81.94558026638002
 30
0.0
 10
243.8544752608985
 20
82.03387070495312
 30
0.0
 10
243.881915984658
 20
82.1202371851549
 30
0.0
 10
243.9125031674045
 20
82.20421396343066
 30
0.0
 10
243.946232668387
 20
82.28578147111449
 30
0.0
 10
243.9830323180923
 20
82.36498103138933
 30
0.0
 10
244.0230250558434
 20
82.44213481524632
 30
0.0
 10
244.0661672192862
 20
82.51716590846925
 30
0.0
 10
244.1126624891468
 20
82.59038185297169
 30
0.0
 10
244.162571527791
 20
82.66174086025119
 30
0.0
 10
244.2158969054942
 20
82.73123123959338
 30
0.0
 10
244.2723383557608
 20
82.79848911309904
 30
0.0
 10
244.3318098401985
 20
82.863463083031
 30
0.0
 10
244.3896353288221
 20
82.92148897059823
 30
0.0
 10
244.4450485949409
 20
82.97311237171829
 30
0.0
 10
244.5032856013855
 20
83.02401050636757
 30
0.0
 10
244.5698960434572
 20
83.07805809406622
 30
0.0
 10
244.6456061446312
 20
83.13454377337554
 30
0.0
 10
244.7177853498829
 20
83.18397097275898
 30
0.0
 10
244.7854219034448
 20
83.22716125510682
 30
0.0
 10
244.8273736807682
 20
83.25184273914907
 30
0.0
 10
244.8483495705572
 20
83.2641834818334
 30
0.0
  0
LINE
  5
EB
330
1F
100
AcDbEntity
  8
0
  6
Continuous
 62
     7
370
    30
100
AcDbLine
 10
235.8780312907
 20
37.0796389497
 30
0.0
 11
235.8780625984
 21
37.0802294596
 31
0.0
  0
LINE
  5
EC
330
1F
100
AcDbEntity
  8
0
  6
Continuous
 62
     7
370
    30
100
AcDbLine
 10
259.1219119926
 20
37.0807074676
 30
0.0
 11
259.1219374016
 21
37.0802294596
 31
0.0
  0
LINE
  5
ED
330
1F
100
AcDbEntity
  8
0
  6
Continuous
 62
     7
370
    30
100
AcDbLine
 10
259.1219687093
 20
136.9203610503
 30
0.0
 11
259.1219374016
 21
136.9197705404
 31
0.0
  0
LINE
  5
EE
330
1F
100
AcDbEntity
  8
0
  6
Continuous
 62
     7
370
    30
100
AcDbLine
 10
235.8780880074
 20
136.9192925324
 30
0.0
 11
235.8780625984
 21
136.9197705404
 31
0.0
  0
LWPOLYLINE
  5
EF
330
1F
100
AcDbEntity
  8
0
  6
Continuous
 62
     7
370
    30
100
AcDbPolyline
 90
      241
 70
   128
 43
0.0
 10
239.8986021022
 20
141.9395514162
 10
240.1001883113
 20
142.0529172089
 10
240.3068459816
 20
142.1631978577
 10
240.5184334805
 20
142.2703177816
 10
240.7348057962
 20
142.3742035662
 10
240.9558146382
 20
142.4747840131
 10
241.1813085379
 20
142.5719901897
 10
241.4111329531
 20
142.6657554756
 10
241.6451303736
 20
142.7560156088
 10
241.8831404293
 20
142.8427087296
 10
242.125
 20
142.9257754227
 10
242.3705433272
 20
143.0051587585
 10
242.6196021278
 20
143.0808043315
 10
242.8720057093
 20
143.1526602981
 10
243.1275810869
 20
143.2206774118
 10
243.3861531021
 20
143.284809057
 10
243.6475445424
 20
143.3450112811
 10
243.9115762632
 20
143.4012428245
 10
244.1780673105
 20
143.453465149
 10
244.4468350444
 20
143.5016424639
 10
244.7176952651
 20
143.5457417509
 10
244.9904623385
 20
143.5857327866
 10
245.2649493237
 20
143.6215881631
 10
245.540968101
 20
143.653283307
 10
245.8183295008
 20
143.6807964959
 10
246.0968434336
 20
143.7041088737
 10
246.3763190199
 20
143.7232044633
 10
246.6565647209
 20
143.7380701775
 10
246.9373884704
 20
143.7486958281
 10
247.2185978057
 20
143.7550741327
 10
247.5
 20
143.7572007201
 10
247.7814021943
 20
143.7550741327
 10
248.0626115296
 20
143.7486958281
 10
248.3434352791
 20
143.7380701775
 10
248.6236809801
 20
143.7232044633
 10
248.9031565664
 20
143.7041088737
 10
249.1816704992
 20
143.6807964959
 10
249.459031899
 20
143.653283307
 10
249.7350506763
 20
143.6215881631
 10
250.0095376615
 20
143.5857327866
 10
250.2823047349
 20
143.5457417509
 10
250.5531649556
 20
143.5016424639
 10
250.8219326895
 20
143.453465149
 10
251.0884237368
 20
143.4012428245
 10
251.3524554576
 20
143.3450112811
 10
251.6138468979
 20
143.284809057
 10
251.8724189131
 20
143.2206774118
 10
252.1279942907
 20
143.1526602981
 10
252.3803978722
 20
143.0808043315
 10
252.6294566728
 20
143.0051587585
 10
252.875
 20
142.9257754227
 10
253.1168595707
 20
142.8427087296
 10
253.3548696264
 20
142.7560156088
 10
253.5888670469
 20
142.6657554756
 10
253.8186914621
 20
142.5719901897
 10
254.0441853618
 20
142.4747840131
 10
254.2651942038
 20
142.3742035662
 10
254.4815665195
 20
142.2703177816
 10
254.6931540184
 20
142.1631978577
 10
254.8998116887
 20
142.0529172089
 10
255.1013978978
 20
141.9395514162
 10
255.2977744884
 20
141.8231781748
 10
255.4888068739
 20
141.7038772411
 10
255.6743641302
 20
141.581730378
 10
255.8543190857
 20
141.4568212989
 10
256.0285484081
 20
141.3292356102
 10
256.1969326895
 20
141.1990607527
 10
256.3593565277
 20
141.0663859419
 10
256.5157086054
 20
140.9313021064
 10
256.6658817668
 20
140.7939018258
 10
256.8097730907
 20
140.6542792676
 10
256.9472839611
 20
140.512530122
 10
257.078320135
 20
140.3687515369
 10
257.2027918068
 20
140.2230420508
 10
257.3206136697
 20
140.0755015258
 10
257.4317049745
 20
139.9262310787
 10
257.5359895848
 20
139.7753330122
 10
257.6333960292
 20
139.6229107442
 10
257.7238575502
 20
139.4690687372
 10
257.8073121498
 20
139.313912427
 10
257.8837026326
 20
139.1575481499
 10
257.9529766443
 20
139.0000830701
 10
258.0150867079
 20
138.8416251065
 10
258.0699902563
 20
138.6822828581
 10
258.1176496614
 20
138.5221655301
 10
258.1580322598
 20
138.3613828591
 10
258.1911103752
 20
138.2000450373
 10
258.2168613376
 20
138.0382626377
 10
258.2352674986
 20
137.8761465379
 10
258.2463162435
 20
137.7138078441
 10
258.25
 20
137.5513578152
 10
258.2463162435
 20
137.3889077862
 10
258.2352674986
 20
137.2265690924
 10
258.2168613376
 20
137.0644529926
 10
258.1911103752
 20
136.902670593
 10
258.1580322598
 20
136.7413327713
 10
258.1176496614
 20
136.5805501002
 10
258.0699902563
 20
136.4204327723
 10
258.0150867079
 20
136.2610905239
 10
257.9529766443
 20
136.1026325602
 10
257.8837026326
 20
135.9451674805
 10
257.8073121498
 20
135.7888032033
 10
257.7238575502
 20
135.6336468931
 10
257.6333960292
 20
135.4798048862
 10
257.5359895848
 20
135.3273826181
 10
257.4317049745
 20
135.1764845516
 10
257.3206136697
 20
135.0272141046
 10
257.2027918068
 20
134.8796735795
 10
257.078320135
 20
134.7339640935
 10
256.9472839611
 20
134.5901855083
 10
256.8097730907
 20
134.4484363627
 10
256.6658817668
 20
134.3088138045
 10
256.5157086054
 20
134.171413524
 10
256.3593565277
 20
134.0363296884
 10
256.1969326895
 20
133.9036548776
 10
256.0285484081
 20
133.7734800202
 10
255.8543190857
 20
133.6458943314
 10
255.6743641302
 20
133.5209852523
 10
255.4888068739
 20
133.3988383892
 10
255.2977744884
 20
133.2795374555
 10
255.1013978978
 20
133.1631642141
 10
254.8998116887
 20
133.0497984214
 10
254.6931540184
 20
132.9395177726
 10
254.4815665195
 20
132.8323978487
 10
254.2651942038
 20
132.7285120642
 10
254.0441853618
 20
132.6279316172
 10
253.8186914621
 20
132.5307254407
 10
253.5888670469
 20
132.4369601547
 10
253.3548696264
 20
132.3467000215
 10
253.1168595707
 20
132.2600069008
 10
252.875
 20
132.1769402076
 10
252.6294566728
 20
132.0975568718
 10
252.3803978722
 20
132.0219112988
 10
252.1279942907
 20
131.9500553322
 10
251.8724189131
 20
131.8820382185
 10
251.6138468979
 20
131.8179065733
 10
251.3524554576
 20
131.7577043492
 10
251.0884237368
 20
131.7014728058
 10
250.8219326895
 20
131.6492504813
 10
250.5531649556
 20
131.6010731664
 10
250.2823047349
 20
131.5569738794
 10
250.0095376615
 20
131.5169828437
 10
249.7350506763
 20
131.4811274672
 10
249.459031899
 20
131.4494323233
 10
249.1816704992
 20
131.4219191344
 10
248.9031565664
 20
131.3986067566
 10
248.6236809801
 20
131.379511167
 10
248.3434352791
 20
131.3646454528
 10
248.0626115296
 20
131.3540198023
 10
247.7814021943
 20
131.3476414976
 10
247.5
 20
131.3455149102
 10
247.2185978057
 20
131.3476414976
 10
246.9373884704
 20
131.3540198023
 10
246.6565647209
 20
131.3646454528
 10
246.3763190199
 20
131.379511167
 10
246.0968434336
 20
131.3986067566
 10
245.8183295008
 20
131.4219191344
 10
245.540968101
 20
131.4494323233
 10
245.2649493237
 20
131.4811274672
 10
244.9904623385
 20
131.5169828437
 10
244.7176952651
 20
131.5569738794
 10
244.4468350444
 20
131.6010731664
 10
244.1780673105
 20
131.6492504813
 10
243.9115762632
 20
131.7014728058
 10
243.6475445424
 20
131.7577043492
 10
243.3861531021
 20
131.8179065733
 10
243.1275810869
 20
131.8820382185
 10
242.8720057093
 20
131.9500553322
 10
242.6196021278
 20
132.0219112988
 10
242.3705433272
 20
132.0975568718
 10
242.125
 20
132.1769402076
 10
241.8831404293
 20
132.2600069008
 10
241.6451303736
 20
132.3467000215
 10
241.4111329531
 20
132.4369601547
 10
241.1813085379
 20
132.5307254407
 10
240.9558146382
 20
132.6279316172
 10
240.7348057962
 20
132.7285120642
 10
240.5184334805
 20
132.8323978487
 10
240.3068459816
 20
132.9395177726
 10
240.1001883113
 20
133.0497984214
 10
239.8986021022
 20
133.1631642141
 10
239.7022255116
 20
133.2795374555
 10
239.5111931261
 20
133.3988383892
 10
239.3256358698
 20
133.5209852523
 10
239.1456809143
 20
133.6458943314
 10
238.9714515919
 20
133.7734800202
 10
238.8030673105
 20
133.9036548776
 10
238.6406434723
 20
134.0363296884
 10
238.4842913946
 20
134.171413524
 10
238.3341182332
 20
134.3088138045
 10
238.1902269093
 20
134.4484363627
 10
238.0527160389
 20
134.5901855083
 10
237.921679865
 20
134.7339640935
 10
237.7972081932
 20
134.8796735795
 10
237.6793863303
 20
135.0272141046
 10
237.5682950255
 20
135.1764845516
 10
237.4640104152
 20
135.3273826181
 10
237.3666039708
 20
135.4798048862
 10
237.2761424498
 20
135.6336468931
 10
237.1926878502
 20
135.7888032033
 10
237.1162973674
 20
135.9451674805
 10
237.0470233557
 20
136.1026325602
 10
236.9849132921
 20
136.2610905239
 10
236.9300097437
 20
136.4204327723
 10
236.8823503386
 20
136.5805501002
 10
236.8419677402
 20
136.7413327713
 10
236.8088896248
 20
136.902670593
 10
236.7831386624
 20
137.0644529926
 10
236.7647325014
 20
137.2265690924
 10
236.7536837565
 20
137.3889077862
 10
236.75
 20
137.5513578152
 10
236.7536837565
 20
137.7138078441
 10
236.7647325014
 20
137.8761465379
 10
236.7831386624
 20
138.0382626377
 10
236.8088896248
 20
138.2000450373
 10
236.8419677402
 20
138.3613828591
 10
236.8823503386
 20
138.5221655301
 10
236.9300097437
 20
138.6822828581
 10
236.9849132921
 20
138.8416251065
 10
237.0470233557
 20
139.0000830701
 10
237.1162973674
 20
139.1575481499
 10
237.1926878502
 20
139.313912427
 10
237.2761424498
 20
139.4690687372
 10
237.3666039708
 20
139.6229107442
 10
237.4640104152
 20
139.7753330122
 10
237.5682950255
 20
139.9262310787
 10
237.6793863303
 20
140.0755015258
 10
237.7972081932
 20
140.2230420508
 10
237.921679865
 20
140.3687515369
 10
238.0527160389
 20
140.512530122
 10
238.1902269093
 20
140.6542792676
 10
238.3341182332
 20
140.7939018258
 10
238.4842913946
 20
140.9313021064
 10
238.6406434723
 20
141.0663859419
 10
238.8030673105
 20
141.1990607527
 10
238.9714515919
 20
141.3292356102
 10
239.1456809143
 20
141.4568212989
 10
239.3256358698
 20
141.581730378
 10
239.5111931261
 20
141.7038772411
 10
239.7022255116
 20
141.8231781748
 10
239.8986021022
 20
141.9395514162
  0
LWPOLYLINE
  5
F0
330
1F
100
AcDbEntity
  8
0
  6
Continuous
 62
     7
370
    30
100
AcDbPolyline
 90
       88
 70
   128
 43
0.0
 10
239.8986021022
 20
140.7147401984
 10
240.1001883113
 20
140.8281059911
 10
240.3068459816
 20
140.9383866399
 10
240.5184334805
 20
141.0455065638
 10
240.7348057962
 20
141.1493923483
 10
240.9558146382
 20
141.2499727953
 10
241.1813085379
 20
141.3471789718
 10
241.4111329531
 20
141.4409442578
 10
241.6451303736
 20
141.531204391
 10
241.8831404293
 20
141.6178975117
 10
242.125
 20
141.7009642049
 10
242.3705433272
 20
141.7803475407
 10
242.6196021278
 20
141.8559931137
 10
242.8720057093
 20
141.9278490803
 10
243.1275810869
 20
141.995866194
 10
243.3861531021
 20
142.0599978392
 10
243.6475445424
 20
142.1202000633
 10
243.9115762632
 20
142.1764316067
 10
244.1780673105
 20
142.2286539312
 10
244.4468350444
 20
142.2768312461
 10
244.7176952651
 20
142.3209305331
 10
244.9904623385
 20
142.3609215688
 10
245.2649493237
 20
142.3967769453
 10
245.540968101
 20
142.4284720892
 10
245.8183295008
 20
142.4559852781
 10
246.0968434336
 20
142.4792976559
 10
246.3763190199
 20
142.4983932455
 10
246.6565647209
 20
142.5132589597
 10
246.9373884704
 20
142.5238846102
 10
247.2185978057
 20
142.5302629149
 10
247.5
 20
142.5323895023
 10
247.7814021943
 20
142.5302629149
 10
248.0626115296
 20
142.5238846102
 10
248.3434352791
 20
142.5132589597
 10
248.6236809801
 20
142.4983932455
 10
248.9031565664
 20
142.4792976559
 10
249.1816704992
 20
142.4559852781
 10
249.459031899
 20
142.4284720892
 10
249.7350506763
 20
142.3967769453
 10
250.0095376615
 20
142.3609215688
 10
250.2823047349
 20
142.3209305331
 10
250.5531649556
 20
142.2768312461
 10
250.8219326895
 20
142.2286539312
 10
251.0884237368
 20
142.1764316067
 10
251.3524554576
 20
142.1202000633
 10
251.6138468979
 20
142.0599978392
 10
251.8724189131
 20
141.995866194
 10
252.1279942907
 20
141.9278490803
 10
252.3803978722
 20
141.8559931137
 10
252.6294566728
 20
141.7803475407
 10
252.875
 20
141.7009642049
 10
253.1168595707
 20
141.6178975117
 10
253.3548696264
 20
141.531204391
 10
253.5888670469
 20
141.4409442578
 10
253.8186914621
 20
141.3471789718
 10
254.0441853618
 20
141.2499727953
 10
254.2651942038
 20
141.1493923483
 10
254.4815665195
 20
141.0455065638
 10
254.6931540184
 20
140.9383866399
 10
254.8998116887
 20
140.8281059911
 10
255.1013978978
 20
140.7147401984
 10
255.2977744884
 20
140.598366957
 10
255.4888068739
 20
140.4790660233
 10
255.6743641302
 20
140.3569191602
 10
255.8543190857
 20
140.2320100811
 10
256.0285484081
 20
140.1044243923
 10
256.1969326895
 20
139.9742495349
 10
256.3593565277
 20
139.8415747241
 10
256.5157086054
 20
139.7064908885
 10
256.6658817668
 20
139.569090608
 10
256.8097730907
 20
139.4294680498
 10
256.9472839611
 20
139.2877189042
 10
257.078320135
 20
139.143940319
 10
257.2027918068
 20
138.998230833
 10
257.3206136697
 20
138.8506903079
 10
257.4317049745
 20
138.7014198609
 10
257.5359895848
 20
138.5505217944
 10
257.6333960292
 20
138.3980995263
 10
257.7238575502
 20
138.2442575194
 10
257.8073121498
 20
138.0891012092
 10
257.8837026326
 20
137.932736932
 10
257.9529766443
 20
137.7752718523
 10
258.0150867079
 20
137.6168138886
 10
258.0699902563
 20
137.4574716402
 10
258.1176496614
 20
137.2973543123
 10
258.1580322598
 20
137.1365716412
 10
258.1911103752
 20
136.9752338195
 10
258.1975293527
 20
136.9389522063
  0
ARC
  5
F1
330
1F
100
AcDbEntity
  8
0
  6
Continuous
 62
     7
370
    30
100
AcDbCircle
 10
242.4268459695
 20
135.4842882031
 30
0.0
 40
5.809444476683034
100
AcDbArc
 50
115.7977320169
 51
165.4990294663
  0
LWPOLYLINE
  5
F2
330
1F
100
AcDbEntity
  8
0
  6
Continuous
 62
     7
370
    30
100
AcDbPolyline
 90
       97
 70
   128
 43
0.0
 10
240.7824855787
 20
139.1838091136
 10
240.9606315309
 20
139.2839928374
 10
241.1432592396
 20
139.3814501549
 10
241.3302435409
 20
139.4761142738
 10
241.521456285
 20
139.5679203159
 10
241.7167664244
 20
139.6568053621
 10
241.9160401032
 20
139.7427084948
 10
242.1191407492
 20
139.8255708405
 10
242.3259291674
 20
139.9053356094
 10
242.5362636352
 20
139.9819481347
 10
242.75
 20
140.0553559101
 10
242.9669917775
 20
140.1255086254
 10
243.1870902525
 20
140.1923582016
 10
243.4101445803
 20
140.2558588232
 10
243.6360018908
 20
140.3159669702
 10
243.8645073925
 20
140.3726414474
 10
244.0955044793
 20
140.4258434129
 10
244.3288348373
 20
140.4755364047
 10
244.5643385534
 20
140.5216863659
 10
244.8018542253
 20
140.5642616674
 10
245.0412190715
 20
140.6032331304
 10
245.2822690434
 20
140.6385740456
 10
245.5248389372
 20
140.6702601923
 10
245.7687625078
 20
140.6982698543
 10
246.0138725821
 20
140.7225838352
 10
246.2600011739
 20
140.7431854715
 10
246.506979599
 20
140.7600606436
 10
246.7546385906
 20
140.7731977864
 10
247.0028084157
 20
140.7825878962
 10
247.2513189911
 20
140.7882245375
 10
247.5
 20
140.7901038473
 10
247.7486810089
 20
140.7882245375
 10
247.9971915843
 20
140.7825878962
 10
248.2453614094
 20
140.7731977864
 10
248.493020401
 20
140.7600606436
 10
248.7399988261
 20
140.7431854715
 10
248.9861274179
 20
140.7225838352
 10
249.2312374922
 20
140.6982698543
 10
249.4751610628
 20
140.6702601923
 10
249.7177309566
 20
140.6385740456
 10
249.9587809285
 20
140.6032331304
 10
250.1981457747
 20
140.5642616674
 10
250.4356614466
 20
140.5216863659
 10
250.6711651627
 20
140.4755364047
 10
250.9044955207
 20
140.4258434129
 10
251.1354926075
 20
140.3726414474
 10
251.3639981092
 20
140.3159669702
 10
251.5898554197
 20
140.2558588232
 10
251.8129097475
 20
140.1923582016
 10
252.0330082225
 20
140.1255086254
 10
252.25
 20
140.0553559101
 10
252.4637363648
 20
139.9819481347
 10
252.6740708326
 20
139.9053356094
 10
252.8808592508
 20
139.8255708405
 10
253.0839598968
 20
139.7427084948
 10
253.2832335756
 20
139.6568053621
 10
253.478543715
 20
139.5679203159
 10
253.6697564591
 20
139.4761142738
 10
253.8567407604
 20
139.3814501549
 10
254.0393684691
 20
139.2839928374
 10
254.2175144213
 20
139.1838091136
 10
254.3910565246
 20
139.0809676445
 10
254.559875842
 20
138.9755389124
 10
254.7238566732
 20
138.8675951729
 10
254.8828866338
 20
138.7572104053
 10
255.0368567328
 20
138.6444602618
 10
255.1856614466
 20
138.5294220157
 10
255.3291987919
 20
138.4121745084
 10
255.4673703955
 20
138.2927980956
 10
255.6000815614
 20
138.1713745919
 10
255.727241336
 20
138.0479872149
 10
255.8487625703
 20
137.9227205281
 10
255.9645619798
 20
137.7956603831
 10
256.0745602013
 20
137.6668938605
 10
256.1786818476
 20
137.5365092105
 10
256.2768555589
 20
137.4045957921
 10
256.3690140517
 20
137.2712440124
 10
256.4550941654
 20
137.1365452639
 10
256.5350369048
 20
137.0005918624
 10
256.6087874812
 20
136.8634769836
 10
256.6762953497
 20
136.7252945992
 10
256.7375142438
 20
136.5861394125
 10
256.792402207
 20
136.4461067934
 10
256.8409216219
 20
136.3052927134
 10
256.8830392357
 20
136.1637936794
 10
256.9187261831
 20
136.0217066678
 10
256.947958006
 20
135.8791290579
 10
256.9707146705
 20
135.7361585652
 10
256.9869805802
 20
135.5928931747
 10
256.9967445873
 20
135.4494310732
 10
257.0
 20
135.3058705825
 10
256.9967445873
 20
135.1623100918
 10
256.9869805802
 20
135.0188479903
 10
256.9707146705
 20
134.8755825998
 10
256.947958006
 20
134.7326121071
 10
256.9187261831
 20
134.5900344972
 10
256.9093971905
 20
134.5502531165
  0
ARC
  5
F3
330
1F
100
AcDbEntity
  8
0
  6
Continuous
 62
     7
370
    30
100
AcDbCircle
 10
242.4438892571
 20
135.1199020503
 30
0.0
 40
4.390398934267485
100
AcDbArc
 50
112.2356918061
 51
187.4550758936
  0
LWPOLYLINE
  5
F4
330
1F
100
AcDbEntity
  8
0
  6
Continuous
 62
     7
370
    30
100
AcDbPolyline
 90
       95
 70
   128
 43
0.0
 10
255.9099293665
 20
133.6858749856
 10
255.9022238385
 20
133.6975048551
 10
255.8149157926
 20
133.8238381201
 10
255.7219091188
 20
133.9488087269
 10
255.6232675591
 20
134.0723310269
 10
255.5190587177
 20
134.1943203641
 10
255.409354014
 20
134.3146931331
 10
255.2942286341
 20
134.4333668364
 10
255.1737614792
 20
134.5502601409
 10
255.0480351115
 20
134.6652929339
 10
254.9171356976
 20
134.7783863776
 10
254.7811529494
 20
134.8894629634
 10
254.6401800626
 20
134.998446565
 10
254.4943136531
 20
135.1052624904
 10
254.3436536904
 20
135.2098375334
 10
254.1883034293
 20
135.3121000234
 10
254.0283693391
 20
135.4119798749
 10
253.8639610307
 20
135.5094086352
 10
253.6951911812
 20
135.6043195314
 10
253.5221754572
 20
135.6966475164
 10
253.345032435
 20
135.7863293132
 10
253.1638835194
 20
135.8733034584
 10
252.9788528611
 20
135.9575103442
 10
252.7900672706
 20
136.0388922595
 10
252.5976561323
 20
136.1173934291
 10
252.4017513151
 20
136.1929600522
 10
252.2024870824
 20
136.2655403394
 10
252.0
 20
136.3350845476
 10
251.7944288423
 20
136.4015450148
 10
251.5859144977
 20
136.4648761922
 10
251.3745998713
 20
136.5250346758
 10
251.1606297877
 20
136.5819792361
 10
250.9441508913
 20
136.6356708461
 10
250.7253115459
 20
136.6860727081
 10
250.5042617331
 20
136.7331502794
 10
250.2811529494
 20
136.7768712952
 10
250.0561381023
 20
136.8172057914
 10
249.8293714059
 20
136.8541261247
 10
249.6010082747
 20
136.8876069918
 10
249.3712052174
 20
136.9176254466
 10
249.1401197294
 20
136.9441609158
 10
248.9079101854
 20
136.9671952135
 10
248.67473573
 20
136.9867125531
 10
248.4407561694
 20
137.0026995583
 10
248.2061318616
 20
137.0151452725
 10
247.9710236062
 20
137.024041166
 10
247.7355925348
 20
137.029381142
 10
247.5
 20
137.0311615407
 10
247.2644074652
 20
137.029381142
 10
247.0289763938
 20
137.024041166
 10
246.7938681384
 20
137.0151452725
 10
246.5592438306
 20
137.0026995583
 10
246.32526427
 20
136.9867125531
 10
246.0920898146
 20
136.9671952135
 10
245.8598802706
 20
136.9441609158
 10
245.6287947826
 20
136.9176254466
 10
245.3989917253
 20
136.8876069918
 10
245.1706285941
 20
136.8541261247
 10
244.9438618977
 20
136.8172057914
 10
244.7188470506
 20
136.7768712952
 10
244.4957382669
 20
136.7331502794
 10
244.2746884541
 20
136.6860727081
 10
244.0558491087
 20
136.6356708461
 10
243.8393702123
 20
136.5819792361
 10
243.6254001287
 20
136.5250346758
 10
243.4140855023
 20
136.4648761922
 10
243.2055711577
 20
136.4015450148
 10
243.0
 20
136.3350845476
 10
242.7975129176
 20
136.2655403394
 10
242.5982486849
 20
136.1929600522
 10
242.4023438677
 20
136.1173934291
 10
242.2099327294
 20
136.0388922595
 10
242.0211471389
 20
135.9575103442
 10
241.8361164806
 20
135.8733034584
 10
241.654967565
 20
135.7863293132
 10
241.4778245428
 20
135.6966475164
 10
241.3048088188
 20
135.6043195314
 10
241.1360389693
 20
135.5094086352
 10
240.9716306609
 20
135.4119798749
 10
240.8116965707
 20
135.3121000234
 10
240.6563463096
 20
135.2098375334
 10
240.5056863469
 20
135.1052624904
 10
240.3598199374
 20
134.998446565
 10
240.2188470506
 20
134.8894629634
 10
240.0828643024
 20
134.7783863776
 10
239.9519648885
 20
134.6652929339
 10
239.8262385208
 20
134.5502601409
 10
239.7057713659
 20
134.4333668364
 10
239.590645986
 20
134.3146931331
 10
239.4809412823
 20
134.1943203641
 10
239.3767324409
 20
134.0723310269
 10
239.2780908812
 20
133.9488087269
 10
239.1850842074
 20
133.8238381201
 10
239.0977761615
 20
133.6975048551
 10
239.0900706335
 20
133.6858749856
  0
LWPOLYLINE
  5
F5
330
1F
100
AcDbEntity
  8
0
  6
Continuous
 62
     7
370
    30
100
AcDbPolyline
 90
      125
 70
   128
 43
0.0
 10
251.2459079438
 20
131.7344665278
 10
251.2487149687
 20
131.7789035172
 10
251.25
 20
131.835572132
 10
251.2487149687
 20
131.8922407467
 10
251.2448607553
 20
131.9488705236
 10
251.2384400015
 20
132.0054226515
 10
251.2294571076
 20
132.0618583722
 10
251.2179182302
 20
132.1181390077
 10
251.2038312772
 20
132.174225986
 10
251.1872059034
 20
132.2300808679
 10
251.1680535028
 20
132.2856653731
 10
251.1463872015
 20
132.340941407
 10
251.1222218486
 20
132.3958710859
 10
251.0955740058
 20
132.450416764
 10
251.0664619361
 20
132.5045410583
 10
251.0349055916
 20
132.5582068746
 10
251.0009265994
 20
132.6113774333
 10
250.9645482469
 20
132.6640162937
 10
250.9257954662
 20
132.7160873799
 10
250.8846948163
 20
132.7675550049
 10
250.8412744657
 20
132.8183838954
 10
250.7955641725
 20
132.8685392158
 10
250.7475952642
 20
132.9179865921
 10
250.6974006163
 20
132.9666921357
 10
250.6450146298
 20
133.0146224661
 10
250.5904732073
 20
133.0617447343
 10
250.5338137289
 20
133.1080266451
 10
250.4750750261
 20
133.1534364791
 10
250.4142973555
 20
133.1979431147
 10
250.351522371
 20
133.2415160492
 10
250.2867930955
 20
133.2841254201
 10
250.2201538913
 20
133.3257420249
 10
250.1516504294
 20
133.3663373416
 10
250.0813296589
 20
133.4058835484
 10
250.0092397738
 20
133.4443535421
 10
249.9354301812
 20
133.4817209575
 10
249.8599514664
 20
133.5179601846
 10
249.7828553588
 20
133.5530463871
 10
249.7041946961
 20
133.5869555184
 10
249.6240233885
 20
133.6196643391
 10
249.5423963813
 20
133.6511504321
 10
249.4593696177
 20
133.6813922184
 10
249.375
 20
133.7103689718
 10
249.289345351
 20
133.7380608331
 10
249.202464374
 20
133.7644488237
 10
249.114416613
 20
133.7895148586
 10
249.0252624115
 20
133.8132417587
 10
248.9350628714
 20
133.8356132628
 10
248.8438798108
 20
133.8566140387
 10
248.7517757221
 20
133.8762296934
 10
248.6588137289
 20
133.8944467833
 10
248.5650575426
 20
133.9112528234
 10
248.4705714191
 20
133.9266362956
 10
248.3754201145
 20
133.9405866569
 10
248.2796688406
 20
133.9530943464
 10
248.1833832206
 20
133.9641507919
 10
248.0866292439
 20
133.9737484159
 10
247.9894732208
 20
133.9818806408
 10
247.8919817373
 20
133.988541893
 10
247.794221609
 20
133.9937276072
 10
247.6962598359
 20
133.9974342295
 10
247.5981635562
 20
133.9996592195
 10
247.5
 20
134.0004010523
 10
247.4018364438
 20
133.9996592195
 10
247.3037401641
 20
133.9974342295
 10
247.205778391
 20
133.9937276072
 10
247.1080182627
 20
133.988541893
 10
247.0105267792
 20
133.9818806408
 10
246.9133707561
 20
133.9737484159
 10
246.8166167794
 20
133.9641507919
 10
246.7203311594
 20
133.9530943464
 10
246.6245798855
 20
133.9405866569
 10
246.5294285809
 20
133.9266362956
 10
246.4349424574
 20
133.9112528234
 10
246.3411862711
 20
133.8944467833
 10
246.2482242779
 20
133.8762296934
 10
246.1561201892
 20
133.8566140387
 10
246.0649371286
 20
133.8356132628
 10
245.9747375885
 20
133.8132417587
 10
245.885583387
 20
133.7895148586
 10
245.797535626
 20
133.7644488237
 10
245.710654649
 20
133.7380608331
 10
245.625
 20
133.7103689718
 10
245.5406303823
 20
133.6813922184
 10
245.4576036187
 20
133.6511504321
 10
245.3759766115
 20
133.6196643391
 10
245.2958053039
 20
133.5869555184
 10
245.2171446412
 20
133.5530463871
 10
245.1400485336
 20
133.5179601846
 10
245.0645698188
 20
133.4817209575
 10
244.9907602262
 20
133.4443535421
 10
244.9186703411
 20
133.4058835484
 10
244.8483495706
 20
133.3663373416
 10
244.7798461087
 20
133.3257420249
 10
244.7132069045
 20
133.2841254201
 10
244.648477629
 20
133.2415160492
 10
244.5857026445
 20
133.1979431147
 10
244.5249249739
 20
133.1534364791
 10
244.4661862711
 20
133.1080266451
 10
244.4095267927
 20
133.0617447343
 10
244.3549853702
 20
133.0146224661
 10
244.3025993837
 20
132.9666921357
 10
244.2524047358
 20
132.9179865921
 10
244.2044358275
 20
132.8685392158
 10
244.1587255343
 20
132.8183838954
 10
244.1153051837
 20
132.7675550049
 10
244.0742045338
 20
132.7160873799
 10
244.0354517531
 20
132.6640162937
 10
243.9990734006
 20
132.6113774333
 10
243.9650944084
 20
132.5582068746
 10
243.9335380639
 20
132.5045410583
 10
243.9044259942
 20
132.450416764
 10
243.8777781514
 20
132.3958710859
 10
243.8536127985
 20
132.340941407
 10
243.8319464972
 20
132.2856653731
 10
243.8127940966
 20
132.2300808679
 10
243.7961687228
 20
132.174225986
 10
243.7820817698
 20
132.1181390077
 10
243.7705428924
 20
132.0618583722
 10
243.7615599985
 20
132.0054226515
 10
243.7551392447
 20
131.9488705236
 10
243.7512850313
 20
131.8922407467
 10
243.75
 20
131.835572132
 10
243.7512850313
 20
131.7789035172
 10
243.7540920562
 20
131.7344665278
  0
SPLINE
  5
F6
330
1F
100
AcDbEntity
  8
0
  6
Continuous
 62
     7
370
    30
100
AcDbSpline
210
0.0
220
0.0
230
1.0
 70
     8
 71
     3
 72
    42
 73
    38
 74
     0
 42
0.000000001
 43
0.00000001
 40
0.0
 40
0.0
 40
0.0
 40
0.0
 40
0.0270337016115608
 40
0.0540713576761226
 40
0.0811050902969715
 40
0.1082808759233477
 40
0.1354606290610152
 40
0.1626365048706374
 40
0.1899074212090081
 40
0.2171822216912859
 40
0.24445327487765
 40
0.2718600873025709
 40
0.2992706579970266
 40
0.3266776352954797
 40
0.3472984793782708
 40
0.3679193388492497
 40
0.3885638932666957
 40
0.4092084625673472
 40
0.4426603269424692
 40
0.4761361348464236
 40
0.5098152389829419
 40
0.5434944111822033
 40
0.5772662402328428
 40
0.6110380996760788
 40
0.6451456929133479
 40
0.6792532622644246
 40
0.7134562390051942
 40
0.7476591159461926
 40
0.7820723449831058
 40
0.816512135256456
 40
0.8466268812773167
 40
0.8767414324578418
 40
0.9069400661715886
 40
0.9371384139774698
 40
0.9673602076014775
 40
0.9975816056867807
 40
1.0
 40
1.0
 40
1.0
 40
1.0
 10
252.8033008588991
 20
89.59243785704639
 30
0.0
 10
252.8408967090598
 20
89.61426926373362
 30
0.0
 10
252.9160939088509
 20
89.65793527057644
 30
0.0
 10
253.0257426347134
 20
89.72330568542955
 30
0.0
 10
253.1331989912592
 20
89.78865904694314
 30
0.0
 10
253.2381604105331
 20
89.85395715857167
 30
0.0
 10
253.3406184335602
 20
89.91918706080207
 30
0.0
 10
253.4404363332611
 20
89.98429673673763
 30
0.0
 10
253.5375509892537
 20
90.04927239860349
 30
0.0
 10
253.6319082372772
 20
90.1141175785757
 30
0.0
 10
253.7235036886493
 20
90.17886890078402
 30
0.0
 10
253.8122747816832
 20
90.24353076682132
 30
0.0
 10
253.8981728135102
 20
90.3081253748875
 30
0.0
 10
253.9741803311519
 20
90.36725103046464
 30
0.0
 10
254.0410873198529
 20
90.42096347481296
 30
0.0
 10
254.0996456585254
 20
90.46933207722657
 30
0.0
 10
254.1564549262839
 20
90.51768237031283
 30
0.0
 10
254.2228866104271
 20
90.57603284223123
 30
0.0
 10
254.2974052204524
 20
90.64440985607938
 30
0.0
 10
254.3782602823609
 20
90.72307581304243
 30
0.0
 10
254.4544842020898
 20
90.80214685430387
 30
0.0
 10
254.5260623079568
 20
90.88181373090653
 30
0.0
 10
254.5927950389135
 20
90.962058187507
 30
0.0
 10
254.6548487037574
 20
91.04331643052103
 30
0.0
 10
254.7120754537601
 20
91.12569279114393
 30
0.0
 10
254.7644419464349
 20
91.20947644389626
 30
0.0
 10
254.8117116450594
 20
91.29460291104107
 30
0.0
 10
254.8539266955729
 20
91.38148820230435
 30
0.0
 10
254.890980061955
 20
91.47032601208832
 30
0.0
 10
254.9214635481054
 20
91.55758421865882
 30
0.0
 10
254.9460124797851
 20
91.64303503228719
 30
0.0
 10
254.965335893906
 20
91.72662238487197
 30
0.0
 10
254.9804839089836
 20
91.81247800452788
 30
0.0
 10
254.9915248001736
 20
91.90077895112434
 30
0.0
 10
254.9980291156691
 20
91.99194432088385
 30
0.0
 10
255.0003645958087
 20
92.05658169006179
 30
0.0
 10
254.9999310843845
 20
92.09133858287244
 30
0.0
 10
254.9998989640342
 20
92.09391384042594
 30
0.0
  0
SPLINE
  5
F7
330
1F
100
AcDbEntity
  8
0
  6
Continuous
 62
     7
370
    30
100
AcDbSpline
210
0.0
220
0.0
230
1.0
 70
     8
 71
     3
 72
   134
 73
   130
 74
     0
 42
0.000000001
 43
0.00000001
 40
0.0
 40
0.0
 40
0.0
 40
0.0
 40
0.0018783236531265
 40
0.0131501982521842
 40
0.0188197860804789
 40
0.0244893724874294
 40
0.030163481911353
 40
0.0358375895159623
 40
0.0434520040825518
 40
0.0510671201220904
 40
0.0586815062687153
 40
0.0663223498130108
 40
0.0739639407834662
 40
0.0816047429236521
 40
0.0893299136889245
 40
0.097055914144209
 40
0.1047810259043471
 40
0.112538382098599
 40
0.1202966578839569
 40
0.1280539359020466
 40
0.1339168882570451
 40
0.1397798319934883
 40
0.1456501357287318
 40
0.1515204299416605
 40
0.1592827026467174
 40
0.1670461293855327
 40
0.1748082884241683
 40
0.1826164624995353
 40
0.1904259625266711
 40
0.1982340110687693
 40
0.2060947373146519
 40
0.2139569823407381
 40
0.221817584642721
 40
0.2297377764072064
 40
0.2376596832810381
 40
0.2455797735528814
 40
0.2533593735439167
 40
0.261140717424861
 40
0.2689202677595186
 40
0.2767647981778574
 40
0.2846111742575557
 40
0.29245571405064
 40
0.300366782373604
 40
0.3082797215988792
 40
0.3161908646877457
 40
0.3241656864132476
 40
0.3321423531642747
 40
0.3401176872144508
 40
0.3460049377649556
 40
0.3518922266218956
 40
0.3577858596141045
 40
0.3636795221320809
 40
0.3715564722271932
 40
0.3794340832773634
 40
0.3873112439905118
 40
0.399152039363912
 40
0.4109929692830407
 40
0.4228379033033331
 40
0.434682836215559
 40
0.4465447410101445
 40
0.4584065142976286
 40
0.4663220985086026
 40
0.4742381363531678
 40
0.4821535249328475
 40
0.490092695801966
 40
0.4980325954219048
 40
0.505971435439602
 40
0.5128475877730588
 40
0.5197245000846682
 40
0.5266003837059837
 40
0.5335137316383899
 40
0.5404282160763363
 40
0.5473412165876984
 40
0.5543081797172207
 40
0.5612767746518296
 40
0.5682433502667712
 40
0.5752819655769605
 40
0.5823228149435816
 40
0.5893614723135703
 40
0.5962513013637961
 40
0.6031431090901761
 40
0.6100331455437606
 40
0.616987560810908
 40
0.6239437289723943
 40
0.6308983798991612
 40
0.6379082352313291
 40
0.64491957479251
 40
0.6519296536969412
 40
0.6589856640925295
 40
0.6660428991467757
 40
0.6730990980392968
 40
0.6808691433456749
 40
0.6886405050661378
 40
0.6964107577565455
 40
0.7042214931296322
 40
0.7120333044819863
 40
0.7198441853218923
 40
0.727687246792001
 40
0.7355312165449769
 40
0.7433743720720769
 40
0.7512471632102876
 40
0.7591207572156132
 40
0.766993602318472
 40
0.772915582381426
 40
0.7788375651739519
 40
0.7847645059165972
 40
0.7906914481827976
 40
0.8008936158846669
 40
0.811101980871277
 40
0.8213507862473926
 40
0.8315995808266947
 40
0.8418740675168362
 40
0.8521485343518141
 40
0.8624873286360039
 40
0.87282609645543
 40
0.8831934095285973
 40
0.8935606926477071
 40
0.9039731920892125
 40
0.9143935157026047
 40
0.9250390629594795
 40
0.9356845796273561
 40
0.9463658912415072
 40
0.9570471780172781
 40
0.9641928781725343
 40
0.9713392795799246
 40
0.978484968463119
 40
0.9856564061200019
 40
0.9928285663030202
 40
1.0
 40
1.0
 40
1.0
 40
1.0
 10
240.0004005765558
 20
94.75870356852667
 30
0.0
 10
240.0002729078053
 20
94.75329789406726
 30
0.0
 10
239.9993790951882
 20
94.7154526107426
 30
0.0
 10
240.0024918504656
 20
94.6608497570377
 30
0.0
 10
240.007781155132
 20
94.5950390615598
 30
0.0
 10
240.0134079473486
 20
94.54531699174932
 30
0.0
 10
240.0204529023869
 20
94.49538842851368
 30
0.0
 10
240.0299510766808
 20
94.4395164256111
 30
0.0
 10
240.0425276130242
 20
94.37760135046739
 30
0.0
 10
240.0589141288379
 20
94.30949736480368
 30
0.0
 10
240.0779625087521
 20
94.24083488460953
 30
0.0
 10
240.0996851094803
 20
94.17157517999105
 30
0.0
 10
240.1240874349928
 20
94.10167348412571
 30
0.0
 10
240.1512404094801
 20
94.03090802264327
 30
0.0
 10
240.1811767796981
 20
93.95922831292891
 30
0.0
 10
240.2139212091789
 20
93.88657750644985
 30
0.0
 10
240.2494052811249
 20
93.81306741594048
 30
0.0
 10
240.2876359893808
 20
93.73864647450225
 30
0.0
 10
240.3286091921184
 20
93.66325886451965
 30
0.0
 10
240.3687040054512
 20
93.59316712229582
 30
0.0
 10
240.4071974504567
 20
93.52858114003016
 30
0.0
 10
240.4434705820402
 20
93.46967600466834
 30
0.0
 10
240.4812586041716
 20
93.41014956925977
 30
0.0
 10
240.5247708506268
 20
93.34351498873687
 30
0.0
 10
240.5745902300848
 20
93.2695066063745
 30
0.0
 10
240.6313542545214
 20
93.18778548590947
 30
0.0
 10
240.6907317027767
 20
93.10468534387961
 30
0.0
 10
240.7526986021005
 20
93.02015151447202
 30
0.0
 10
240.8172070800154
 20
92.93413612610784
 30
0.0
 10
240.8842212177544
 20
92.84657216154646
 30
0.0
 10
240.9536962249
 20
92.75741143682251
 30
0.0
 10
241.0255589197068
 20
92.66661952360647
 30
0.0
 10
241.0997503907913
 20
92.57414150692068
 30
0.0
 10
241.1761993136373
 20
92.47994212644265
 30
0.0
 10
241.2548037843019
 20
92.3840071670182
 30
0.0
 10
241.3347778385588
 20
92.28714932537584
 30
0.0
 10
241.4159668502082
 20
92.18939942573249
 30
0.0
 10
241.4982011136726
 20
92.09081063921944
 30
0.0
 10
241.5820670885998
 20
91.9905426028014
 30
0.0
 10
241.6674449968498
 20
91.88860272168323
 30
0.0
 10
241.7541964669722
 20
91.78502496051613
 30
0.0
 10
241.8421864512706
 20
91.67983947091068
 30
0.0
 10
241.9312776880809
 20
91.57307652371257
 30
0.0
 10
242.0213218007868
 20
91.46478666098507
 30
0.0
 10
242.1121713397473
 20
91.35505138781964
 30
0.0
 10
242.2036488783854
 20
91.24386779557531
 30
0.0
 10
242.2956745041198
 20
91.13139332897458
 30
0.0
 10
242.3799207951473
 20
91.02801280912878
 30
0.0
 10
242.4562958960826
 20
90.93409757913354
 30
0.0
 10
242.5247875409476
 20
90.84984839161335
 30
0.0
 10
242.5934820364118
 20
90.76540566695517
 30
0.0
 10
242.6701291241283
 20
90.67135214902868
 30
0.0
 10
242.7548228525975
 20
90.5677645583999
 30
0.0
 10
242.847727023761
 20
90.45477270068145
 30
0.0
 10
242.9568200061631
 20
90.32308413521453
 30
0.0
 10
243.0825728018321
 20
90.17305352533607
 30
0.0
 10
243.2257573517142
 20
90.00534537294708
 30
0.0
 10
243.3708825265337
 20
89.83919174261428
 30
0.0
 10
243.5183588157905
 20
89.67492346278269
 30
0.0
 10
243.6685151131231
 20
89.51297350827181
 30
0.0
 10
243.8047504335929
 20
89.37145923683107
 30
0.0
 10
243.9261803846584
 20
89.24976839357498
 30
0.0
 10
244.0319314338201
 20
89.14707774167393
 30
0.0
 10
244.1395328948585
 20
89.04612194399654
 30
0.0
 10
244.2491055010107
 20
88.94709035811391
 30
0.0
 10
244.3607776951346
 20
88.85020685328159
 30
0.0
 10
244.4694775951545
 20
88.76000825865707
 30
0.0
 10
244.5749764624861
 20
88.67632947727702
 30
0.0
 10
244.6770302019464
 20
88.5989603226717
 30
0.0
 10
244.7810518362339
 20
88.52384620453638
 30
0.0
 10
244.8871049700583
 20
88.45119691682221
 30
0.0
 10
244.9952343473332
 20
88.38123341820922
 30
0.0
 10
245.1055564889495
 20
88.3141242677846
 30
0.0
 10
245.2181050100721
 20
88.25012790445504
 30
0.0
 10
245.3328756511774
 20
88.18949414034341
 30
0.0
 10
245.4499380138448
 20
88.13240226269728
 30
0.0
 10
245.5692928167525
 20
88.07919382723885
 30
0.0
 10
245.690823926458
 20
88.03001887151869
 30
0.0
 10
245.8131002151133
 20
87.98542516461329
 30
0.0
 10
245.9359294528938
 20
87.9453535622543
 30
0.0
 10
246.0591045559397
 20
87.90962105218854
 30
0.0
 10
246.1837398096498
 20
87.87780335595463
 30
0.0
 10
246.3097003834746
 20
87.84989858516023
 30
0.0
 10
246.4368483305579
 20
87.82584801910915
 30
0.0
 10
246.5649970616249
 20
87.80559114682734
 30
0.0
 10
246.6940255682446
 20
87.78907034478343
 30
0.0
 10
246.8238188151358
 20
87.77619047459478
 30
0.0
 10
246.9542126529974
 20
87.76685308042046
 30
0.0
 10
247.0851084281182
 20
87.76096391670373
 30
0.0
 10
247.2164169677196
 20
87.75841047800535
 30
0.0
 10
247.3522003951593
 20
87.75909582263199
 30
0.0
 10
247.4923833474584
 20
87.76326408206862
 30
0.0
 10
247.6368719218663
 20
87.77112829196545
 30
0.0
 10
247.7814111871072
 20
87.78240560356451
 30
0.0
 10
247.925929389875
 20
87.79694768860514
 30
0.0
 10
248.0703638132423
 20
87.81461109389751
 30
0.0
 10
248.2146070126783
 20
87.83524093206428
 30
0.0
 10
248.3586068706382
 20
87.85869533862561
 30
0.0
 10
248.5023164023933
 20
87.8848426642359
 30
0.0
 10
248.6456774985763
 20
87.91354523239636
 30
0.0
 10
248.7886495447962
 20
87.94467444102938
 30
0.0
 10
248.9311937168001
 20
87.97811301220676
 30
0.0
 10
249.0613762344311
 20
88.01075716330067
 30
0.0
 10
249.1793390243944
 20
88.04193959868051
 30
0.0
 10
249.2852644778558
 20
88.07114105262104
 30
0.0
 10
249.3908102767568
 20
88.10139953429028
 30
0.0
 10
249.5212442992074
 20
88.14018885661702
 30
0.0
 10
249.6761216277834
 20
88.18844110247315
 30
0.0
 10
249.8550439513657
 20
88.24723733299739
 30
0.0
 10
250.0327925361335
 20
88.30854869034665
 30
0.0
 10
250.2093942576096
 20
88.37222828444433
 30
0.0
 10
250.3845296283079
 20
88.43800586321304
 30
0.0
 10
250.5584705580052
 20
88.50584636847333
 30
0.0
 10
250.7309670035371
 20
88.5755262207327
 30
0.0
 10
250.9020665647018
 20
88.6469528089632
 30
0.0
 10
251.0713011128066
 20
88.71981552986755
 30
0.0
 10
251.2388003488072
 20
88.79406800837172
 30
0.0
 10
251.4043252829647
 20
88.8695101633744
 30
0.0
 10
251.5689220072886
 20
88.94655027838722
 30
0.0
 10
251.7321612989564
 20
89.02495377200172
 30
0.0
 10
251.8939866908673
 20
89.10466733446503
 30
0.0
 10
252.0530871185213
 20
89.18499337291998
 30
0.0
 10
252.1920795187349
 20
89.25689193720606
 30
0.0
 10
252.3117568712884
 20
89.32004979254879
 30
0.0
 10
252.4130199363674
 20
89.37435588994192
 30
0.0
 10
252.5129004966728
 20
89.42878486702998
 30
0.0
 10
252.6113084482928
 20
89.48330344062033
 30
0.0
 10
252.7083518410805
 20
89.53789064631943
 30
0.0
 10
252.7716522549899
 20
89.57425606742605
 30
0.0
 10
252.8033008588991
 20
89.59243785704662
 30
0.0
  0
LWPOLYLINE
  5
F8
330
1F
100
AcDbEntity
  8
0
  6
Continuous
 62
     8
370
     0
100
AcDbPolyline
 90
       93
 70
   128
 43
0.0
 10
255.7218100816
 20
32.1282377899
 10
255.5037707751
 20
32.0056192887
 10
255.280246084
 20
31.8863377352
 10
255.0513892008
 20
31.7704748791
 10
254.8173569726
 20
31.658110127
 10
254.5783097935
 20
31.5493204881
 10
254.3344114944
 20
31.4441805213
 10
254.0858292311
 20
31.3427622844
 10
253.8327333694
 20
31.2451352843
 10
253.5752973685
 20
31.1513664297
 10
253.3136976623
 20
31.061519985
 10
253.0481135382
 20
30.9756575267
 10
252.7787270141
 20
30.8938379004
 10
252.5057227142
 20
30.8161171814
 10
252.2292877421
 20
30.7425486354
 10
251.9496115523
 20
30.6731826827
 10
251.666885821
 20
30.6080668632
 10
251.3813043144
 20
30.5472458041
 10
251.0930627556
 20
30.4907611891
 10
250.8023586911
 20
30.43865173
 10
250.5093913549
 20
30.3909531398
 10
250.2143615322
 20
30.347698109
 10
249.9174714217
 20
30.3089162823
 10
249.6189244971
 20
30.2746342388
 10
249.3189253674
 20
30.2448754737
 10
249.0176796371
 20
30.2196603823
 10
248.7153937651
 20
30.1990062457
 10
248.4122749228
 20
30.1829272191
 10
248.1085308529
 20
30.1714343224
 10
247.8043697263
 20
30.1645354322
 10
247.5
 20
30.1622352766
 10
247.1956302736
 20
30.1645354322
 10
246.891469147
 20
30.1714343224
 10
246.5877250771
 20
30.1829272191
 10
246.2846062349
 20
30.1990062457
 10
245.9823203628
 20
30.2196603823
 10
245.6810746325
 20
30.2448754738
 10
245.3810755029
 20
30.2746342388
 10
245.0825285782
 20
30.3089162823
 10
244.7856384677
 20
30.347698109
 10
244.490608645
 20
30.3909531399
 10
244.1976413088
 20
30.43865173
 10
243.9069372443
 20
30.4907611891
 10
243.6186956856
 20
30.5472458041
 10
243.3331141789
 20
30.6080668632
 10
243.0503884476
 20
30.6731826827
 10
242.7707122579
 20
30.7425486354
 10
242.4942772857
 20
30.8161171814
 10
242.2212729858
 20
30.8938379005
 10
241.9518864618
 20
30.9756575267
 10
241.6863023376
 20
31.0615199851
 10
241.4247026314
 20
31.1513664297
 10
241.1672666306
 20
31.2451352843
 10
240.9141707689
 20
31.3427622844
 10
240.6655885055
 20
31.4441805213
 10
240.4216902065
 20
31.5493204881
 10
240.1826430273
 20
31.658110127
 10
239.9486107992
 20
31.7704748792
 10
239.719753916
 20
31.8863377353
 10
239.4962292248
 20
32.0056192887
 10
239.2781899183
 20
32.1282377899
 10
239.0657854298
 20
32.2541092023
 10
238.8591613306
 20
32.3831472599
 10
238.6584592307
 20
32.5152635264
 10
238.4638166811
 20
32.6503674559
 10
238.2753670802
 20
32.788366455
 10
238.093239582
 20
32.9291659461
 10
237.9175590074
 20
33.0726694322
 10
237.7484457593
 20
33.2187785631
 10
237.5860157393
 20
33.3673932031
 10
237.4303802689
 20
33.5184114989
 10
237.2816460129
 20
33.6717299503
 10
237.1399149063
 20
33.8272434805
 10
237.0052840846
 20
33.9848455081
 10
236.8778458169
 20
34.1444280208
 10
236.7576874431
 20
34.3058816485
 10
236.6448913137
 20
34.469095739
 10
236.5395347336
 20
34.6339584336
 10
236.4416899089
 20
34.8003567436
 10
236.3514238975
 20
34.9681766279
 10
236.2687985634
 20
35.1373030711
 10
236.1938705337
 20
35.3076201624
 10
236.1266911603
 20
35.4790111751
 10
236.0673064848
 20
35.6513586462
 10
236.0157572063
 20
35.8245444574
 10
235.9720786541
 20
35.9984499158
 10
235.9363007635
 20
36.1729558352
 10
235.9084480546
 20
36.3479426182
 10
235.8885396165
 20
36.5232903374
 10
235.8765890933
 20
36.6988788182
 10
235.8726046753
 20
36.8745877212
 10
235.8765890933
 20
37.0502966241
 10
235.8780312907
 20
37.0796389497
  0
ARC
  5
F9
330
1F
100
AcDbEntity
  8
0
  6
Continuous
 62
     8
370
     0
100
AcDbCircle
 10
253.4205749814
 20
37.3515979455
 30
0.0
 40
5.707816947133027
100
AcDbArc
 50
293.7766601645
 51
357.2749419766
  0
ARC
  5
FA
330
1F
100
AcDbEntity
  8
0
  6
Continuous
 62
     8
370
     0
100
AcDbCircle
 10
252.7806905516
 20
60.9797271367
 30
0.0
 40
5.09092699916185
100
AcDbArc
 50
293.7766601645
 51
357.2749419766
  0
LWPOLYLINE
  5
FB
330
1F
100
AcDbEntity
  8
0
  6
Continuous
 62
     8
370
     0
100
AcDbPolyline
 90
       93
 70
   128
 43
0.0
 10
237.1341393832
 20
60.7376876382
 10
237.1328251316
 20
60.7109898864
 10
237.1292713419
 20
60.5542712659
 10
237.1328251316
 20
60.3975526454
 10
237.1434840651
 20
60.240941432
 10
237.1612408373
 20
60.0845449592
 10
237.1860832786
 20
59.9284704133
 10
237.2179943633
 20
59.7728247602
 10
237.256952221
 20
59.6177146714
 10
237.302930152
 20
59.4632464517
 10
237.3558966453
 20
59.3095259659
 10
237.4158154003
 20
59.1566585664
 10
237.4826453517
 20
59.0047490208
 10
237.5563406977
 20
58.8539014404
 10
237.636850931
 20
58.7042192085
 10
237.7241208741
 20
58.5558049098
 10
237.8180907163
 20
58.4087602602
 10
237.9186960556
 20
58.2631860367
 10
238.025867942
 20
58.1191820085
 10
238.1395329252
 20
57.9768468689
 10
238.2596131051
 20
57.8362781672
 10
238.3860261845
 20
57.6975722422
 10
238.5186855264
 20
57.560824156
 10
238.6575002125
 20
57.426127629
 10
238.8023751063
 20
57.2935749753
 10
238.9532109178
 20
57.16325704
 10
239.1099042716
 20
57.0352631365
 10
239.2723477779
 20
56.9096809854
 10
239.440430106
 20
56.7865966544
 10
239.6140360608
 20
56.6660944993
 10
239.7930466613
 20
56.5482571065
 10
239.9773392227
 20
56.4331652356
 10
240.16678744
 20
56.3208977649
 10
240.3612614749
 20
56.211531637
 10
240.5606280446
 20
56.1051418058
 10
240.7647505132
 20
56.0018011858
 10
240.9734889854
 20
55.9015806014
 10
241.1867004022
 20
55.8045487387
 10
241.4042386392
 20
55.7107720986
 10
241.6259546066
 20
55.6203149509
 10
241.8516963513
 20
55.5332392904
 10
242.0813091611
 20
55.4496047944
 10
242.314635671
 20
55.3694687819
 10
242.5515159705
 20
55.2928861739
 10
242.7917877138
 20
55.2199094565
 10
243.0352862307
 20
55.1505886442
 10
243.2818446394
 20
55.0849712461
 10
243.531293961
 20
55.023102233
 10
243.7834632355
 20
54.9650240069
 10
244.0381796387
 20
54.9107763716
 10
244.2952686006
 20
54.8603965059
 10
244.5545539253
 20
54.8139189375
 10
244.8158579117
 20
54.7713755198
 10
245.0790014749
 20
54.7327954101
 10
245.3438042697
 20
54.698205049
 10
245.6100848132
 20
54.6676281433
 10
245.8776606103
 20
54.6410856487
 10
246.1463482777
 20
54.6185957562
 10
246.4159636704
 20
54.6001738791
 10
246.6863220074
 20
54.585832643
 10
246.9572379987
 20
54.5755818766
 10
247.228525972
 20
54.5694286053
 10
247.5
 20
54.5673770462
 10
247.771474028
 20
54.5694286053
 10
248.0427620012
 20
54.5755818766
 10
248.3136779925
 20
54.585832643
 10
248.5840363296
 20
54.6001738791
 10
248.8536517223
 20
54.6185957562
 10
249.1223393897
 20
54.6410856487
 10
249.3899151867
 20
54.6676281433
 10
249.6561957303
 20
54.698205049
 10
249.920998525
 20
54.73279541
 10
250.1841420883
 20
54.7713755198
 10
250.4454460746
 20
54.8139189375
 10
250.7047313994
 20
54.8603965059
 10
250.9618203613
 20
54.9107763716
 10
251.2165367645
 20
54.9650240069
 10
251.468706039
 20
55.023102233
 10
251.7181553606
 20
55.0849712461
 10
251.9647137693
 20
55.1505886442
 10
252.2082122861
 20
55.2199094565
 10
252.4484840294
 20
55.2928861739
 10
252.685364329
 20
55.3694687818
 10
252.9186908389
 20
55.4496047944
 10
253.1483036487
 20
55.5332392904
 10
253.3740453934
 20
55.6203149509
 10
253.5957613607
 20
55.7107720986
 10
253.8132995977
 20
55.8045487387
 10
254.0265110145
 20
55.9015806014
 10
254.2352494867
 20
56.0018011858
 10
254.4393719553
 20
56.1051418058
 10
254.638738525
 20
56.2115316369
 10
254.8332125599
 20
56.3208977649
  0
LWPOLYLINE
  5
FC
330
1F
100
AcDbEntity
  8
0
  6
Continuous
 62
     8
370
     0
100
AcDbPolyline
 90
      119
 70
   128
 43
0.0
 10
254.4799906499
 20
56.9154037087
 10
254.294883927
 20
56.8113054647
 10
254.1051203301
 20
56.710040157
 10
253.9108299136
 20
56.6116771877
 10
253.7121458346
 20
56.51628397
 10
253.509204261
 20
56.4239258816
 10
253.3021442791
 20
56.3346662201
 10
253.0911077973
 20
56.2485661595
 10
252.8762394494
 20
56.1656847087
 10
252.6576864957
 20
56.0860786704
 10
252.4355987212
 20
56.0098026026
 10
252.2101283339
 20
55.9369087811
 10
251.9814298599
 20
55.8674471637
 10
251.7496600377
 20
55.8014653559
 10
251.5149777108
 20
55.7390085784
 10
251.2775437188
 20
55.6801196359
 10
251.037520787
 20
55.6248388879
 10
250.7950734151
 20
55.5732042211
 10
250.5503677645
 20
55.5252510234
 10
250.3035715442
 20
55.4810121594
 10
250.054853896
 20
55.4405179483
 10
249.8043852786
 20
55.4037961428
 10
249.5523373506
 20
55.3708719102
 10
249.2988828531
 20
55.341767815
 10
249.0441954912
 20
55.3165038038
 10
248.7884498148
 20
55.2950971913
 10
248.5318210992
 20
55.2775626486
 10
248.2744852251
 20
55.2639121928
 10
248.0166185574
 20
55.2541551793
 10
247.7583978252
 20
55.2482982952
 10
247.5
 20
55.2463455543
 10
247.2416021748
 20
55.2482982952
 10
246.9833814426
 20
55.2541551793
 10
246.7255147749
 20
55.2639121928
 10
246.4681789007
 20
55.2775626486
 10
246.2115501852
 20
55.2950971914
 10
245.9558045088
 20
55.3165038038
 10
245.7011171468
 20
55.341767815
 10
245.4476626493
 20
55.3708719102
 10
245.1956147213
 20
55.4037961428
 10
244.9451461039
 20
55.4405179484
 10
244.6964284557
 20
55.4810121595
 10
244.4496322354
 20
55.5252510234
 10
244.2049265849
 20
55.5732042211
 10
243.962479213
 20
55.6248388879
 10
243.7224562812
 20
55.6801196359
 10
243.4850222891
 20
55.7390085784
 10
243.2503399622
 20
55.8014653559
 10
243.0185701401
 20
55.8674471637
 10
242.7898716661
 20
55.9369087811
 10
242.5644012788
 20
56.0098026026
 10
242.3423135043
 20
56.0860786704
 10
242.1237605505
 20
56.1656847087
 10
241.9088922027
 20
56.2485661596
 10
241.6978557209
 20
56.3346662201
 10
241.4907957389
 20
56.4239258816
 10
241.2878541654
 20
56.51628397
 10
241.0891700863
 20
56.6116771878
 10
240.8948796699
 20
56.710040157
 10
240.7051160729
 20
56.8113054647
 10
240.52000935
 20
56.9154037087
 10
240.3396863641
 20
57.0222635453
 10
240.1642706994
 20
57.131811738
 10
239.9938825772
 20
57.243973208
 10
239.8286387729
 20
57.3586710854
 10
239.6686525364
 20
57.4758267621
 10
239.5140335143
 20
57.5953599453
 10
239.3648876747
 20
57.7171887131
 10
239.2213172347
 20
57.84122957
 10
239.0834205903
 20
57.9673975047
 10
238.9512922491
 20
58.0956060479
 10
238.8250227651
 20
58.2257673319
 10
238.7046986773
 20
58.3577921507
 10
238.5904024496
 20
58.4915900211
 10
238.482212415
 20
58.6270692446
 10
238.3802027216
 20
58.7641369707
 10
238.2844432817
 20
58.9026992598
 10
238.194999724
 20
59.0426611485
 10
238.1119333488
 20
59.1839267136
 10
238.0353010854
 20
59.326399139
 10
237.965155454
 20
59.4699807811
 10
237.9015445287
 20
59.6145732362
 10
237.8445119053
 20
59.7600774078
 10
237.7940966712
 20
59.9063935748
 10
237.7503333784
 20
60.0534214593
 10
237.7132520201
 20
60.2010602957
 10
237.68287801
 20
60.3492088997
 10
237.659232165
 20
60.4977657378
 10
237.6423306906
 20
60.6466289964
 10
237.6321851704
 20
60.7956966521
 10
237.6288025576
 20
60.9448665414
 10
237.6321851704
 20
61.0940364307
 10
237.6423306906
 20
61.2431040864
 10
237.659232165
 20
61.3919673451
 10
237.68287801
 20
61.5405241831
 10
237.7132520201
 20
61.6886727871
 10
237.7503333784
 20
61.8363116236
 10
237.7940966712
 20
61.983339508
 10
237.8445119054
 20
62.129655675
 10
237.9015445287
 20
62.2751598467
 10
237.965155454
 20
62.4197523018
 10
238.0353010855
 20
62.5633339439
 10
238.1119333488
 20
62.7058063692
 10
238.194999724
 20
62.8470719344
 10
238.2844432817
 20
62.987033823
 10
238.3802027216
 20
63.1255961122
 10
238.482212415
 20
63.2626638382
 10
238.5904024496
 20
63.3981430617
 10
238.7046986773
 20
63.5319409321
 10
238.8250227652
 20
63.6639657509
 10
238.9512922491
 20
63.794127035
 10
239.0834205904
 20
63.9223355782
 10
239.2213172347
 20
64.0485035128
 10
239.3648876747
 20
64.1725443697
 10
239.5140335143
 20
64.2943731375
 10
239.6686525364
 20
64.4139063207
 10
239.8286387729
 20
64.5310619974
 10
239.9938825772
 20
64.6457598748
 10
240.0
 20
64.649890755
  0
LWPOLYLINE
  5
FD
330
1F
100
AcDbEntity
  8
0
  6
Continuous
 62
     8
370
     0
100
AcDbPolyline
 90
       59
 70
   128
 43
0.0
 10
255.0
 20
64.649890755
 10
255.0061174228
 20
64.6457598748
 10
255.1713612271
 20
64.5310619974
 10
255.3313474636
 20
64.4139063207
 10
255.4859664857
 20
64.2943731375
 10
255.6351123253
 20
64.1725443697
 10
255.7786827653
 20
64.0485035128
 10
255.9165794097
 20
63.9223355781
 10
256.0487077509
 20
63.7941270349
 10
256.1749772349
 20
63.6639657509
 10
256.2953013227
 20
63.5319409321
 10
256.4095975504
 20
63.3981430617
 10
256.517787585
 20
63.2626638382
 10
256.6197972784
 20
63.1255961121
 10
256.7155567183
 20
62.987033823
 10
256.805000276
 20
62.8470719344
 10
256.8880666512
 20
62.7058063692
 10
256.9646989146
 20
62.5633339438
 10
257.034844546
 20
62.4197523018
 10
257.0984554713
 20
62.2751598467
 10
257.1554880947
 20
62.129655675
 10
257.2059033288
 20
61.983339508
 10
257.2496666216
 20
61.8363116235
 10
257.2867479799
 20
61.6886727871
 10
257.31712199
 20
61.5405241831
 10
257.340767835
 20
61.391967345
 10
257.3576693094
 20
61.2431040864
 10
257.3678148296
 20
61.0940364307
 10
257.3711974424
 20
60.9448665414
 10
257.3678148296
 20
60.7956966521
 10
257.3576693094
 20
60.6466289964
 10
257.340767835
 20
60.4977657378
 10
257.31712199
 20
60.3492088997
 10
257.2867479799
 20
60.2010602957
 10
257.2496666216
 20
60.0534214593
 10
257.2059033288
 20
59.9063935748
 10
257.1554880946
 20
59.7600774078
 10
257.0984554713
 20
59.6145732361
 10
257.034844546
 20
59.469980781
 10
256.9646989145
 20
59.3263991389
 10
256.8880666512
 20
59.1839267136
 10
256.805000276
 20
59.0426611484
 10
256.7155567183
 20
58.9026992598
 10
256.6197972784
 20
58.7641369707
 10
256.517787585
 20
58.6270692446
 10
256.4095975504
 20
58.4915900211
 10
256.2953013227
 20
58.3577921507
 10
256.1749772348
 20
58.2257673319
 10
256.0487077509
 20
58.0956060479
 10
255.9165794096
 20
57.9673975046
 10
255.7786827653
 20
57.84122957
 10
255.6351123253
 20
57.7171887131
 10
255.4859664857
 20
57.5953599453
 10
255.3313474636
 20
57.4758267621
 10
255.1713612271
 20
57.3586710854
 10
255.0061174228
 20
57.243973208
 10
254.8357293006
 20
57.131811738
 10
254.6603136359
 20
57.0222635453
 10
254.4799906499
 20
56.9154037087
  0
ARC
  5
FE
330
1F
100
AcDbEntity
  8
0
  6
Continuous
 62
     8
370
     0
100
AcDbCircle
 10
251.7693496091
 20
60.9720819556
 30
0.0
 40
3.412776974670595
100
AcDbArc
 50
290.7789369092
 51
18.8027299885
  0
LWPOLYLINE
  5
FF
330
1F
100
AcDbEntity
  8
0
  6
Continuous
 62
     8
370
     0
100
AcDbPolyline
 90
      101
 70
   128
 43
0.0
 10
240.0
 20
62.072056833
 10
239.9641331169
 20
61.9892963764
 10
239.9193560943
 20
61.8750592398
 10
239.8797744664
 20
61.7601845956
 10
239.8454153604
 20
61.6447511731
 10
239.8163023244
 20
61.5288380847
 10
239.7924553109
 20
61.4125247713
 10
239.7738906636
 20
61.2958909484
 10
239.7606211057
 20
61.1790165508
 10
239.7526557314
 20
61.0619816786
 10
239.75
 20
60.9448665414
 10
239.7526557314
 20
60.8277514043
 10
239.7606211057
 20
60.710716532
 10
239.7738906636
 20
60.5938421345
 10
239.7924553109
 20
60.4772083115
 10
239.8163023244
 20
60.3608949981
 10
239.8454153604
 20
60.2449819097
 10
239.8797744664
 20
60.1295484872
 10
239.9193560943
 20
60.014673843
 10
239.9641331169
 20
59.9004367064
 10
240.0140748463
 20
59.7869153699
 10
240.0691470548
 20
59.6741876352
 10
240.1293119987
 20
59.5623307604
 10
240.194528444
 20
59.4514214066
 10
240.2647516946
 20
59.3415355854
 10
240.339933623
 20
59.2327486072
 10
240.4200227033
 20
59.1251350291
 10
240.5049640463
 20
59.0187686041
 10
240.5946994375
 20
58.9137222304
 10
240.6891673769
 20
58.8100679016
 10
240.7883031207
 20
58.7078766571
 10
240.8920387262
 20
58.6072185337
 10
241.0003030984
 20
58.5081625175
 10
241.1130220382
 20
58.4107764966
 10
241.2301182936
 20
58.3151272143
 10
241.3515116127
 20
58.2212802241
 10
241.4771187987
 20
58.1292998439
 10
241.6068537666
 20
58.0392491124
 10
241.7406276025
 20
57.951189746
 10
241.8783486246
 20
57.8651820961
 10
242.0199224458
 20
57.7812851081
 10
242.1652520384
 20
57.6995562808
 10
242.3142378007
 20
57.620051627
 10
242.4667776254
 20
57.5428256353
 10
242.6227669693
 20
57.4679312326
 10
242.7820989252
 20
57.3954197475
 10
242.9446642947
 20
57.3253408761
 10
243.1103516638
 20
57.2577426467
 10
243.2790474786
 20
57.1926713879
 10
243.4506361234
 20
57.1301716961
 10
243.625
 20
57.0702864057
 10
243.802019608
 20
57.013056559
 10
243.981573627
 20
56.9585213784
 10
244.1635389997
 20
56.9067182397
 10
244.3477910161
 20
56.8576826462
 10
244.5342033992
 20
56.8114482043
 10
244.722648391
 20
56.7680466008
 10
244.9129968409
 20
56.7275075812
 10
245.1051182936
 20
56.6898589287
 10
245.2988810785
 20
56.6551264458
 10
245.4941524004
 20
56.6233339366
 10
245.6907984301
 20
56.5945031899
 10
245.8886843961
 20
56.568653965
 10
246.0876746774
 20
56.5458039775
 10
246.2876328959
 20
56.5259688878
 10
246.4884220103
 20
56.5091622899
 10
246.6899044097
 20
56.495395702
 10
246.8919420081
 20
56.4846785593
 10
247.0943963391
 20
56.4770182065
 10
247.2971286506
 20
56.4724198939
 10
247.5
 20
56.4708867727
 10
247.7028713494
 20
56.4724198939
 10
247.9056036609
 20
56.4770182065
 10
248.1080579919
 20
56.4846785593
 10
248.3100955903
 20
56.495395702
 10
248.5115779897
 20
56.5091622899
 10
248.712367104
 20
56.5259688878
 10
248.9123253225
 20
56.5458039775
 10
249.1113156038
 20
56.568653965
 10
249.3092015699
 20
56.5945031899
 10
249.5058475995
 20
56.6233339366
 10
249.7011189214
 20
56.6551264458
 10
249.8948817064
 20
56.6898589286
 10
250.087003159
 20
56.7275075812
 10
250.277351609
 20
56.7680466008
 10
250.4657966008
 20
56.8114482043
 10
250.6522089838
 20
56.8576826462
 10
250.8364610002
 20
56.9067182397
 10
251.018426373
 20
56.9585213784
 10
251.197980392
 20
57.013056559
 10
251.375
 20
57.0702864057
 10
251.5493638765
 20
57.1301716961
 10
251.7209525213
 20
57.1926713878
 10
251.8896483362
 20
57.2577426467
 10
252.0553357053
 20
57.3253408761
 10
252.2179010748
 20
57.3954197475
 10
252.3772330306
 20
57.4679312325
 10
252.5332223745
 20
57.5428256353
 10
252.6857621993
 20
57.620051627
 10
252.8347479616
 20
57.6995562808
 10
252.9800775542
 20
57.7812851081
  0
LWPOLYLINE
  5
100
330
1F
100
AcDbEntity
  8
0
  6
Continuous
 62
     8
370
     0
100
AcDbPolyline
 90
      119
 70
   128
 43
0.0
 10
259.1219374016
 20
136.9197705404
 10
259.1114603835
 20
136.774114895
 10
259.0915519454
 20
136.5987671758
 10
259.0636992365
 20
136.4237803929
 10
259.0279213459
 20
136.2492744734
 10
258.9842427937
 20
136.075369015
 10
258.9326935152
 20
135.9021832038
 10
258.8733088397
 20
135.7298357327
 10
258.8061294663
 20
135.5584447201
 10
258.7312014366
 20
135.3881276288
 10
258.6485761025
 20
135.2190011855
 10
258.5583100911
 20
135.0511813012
 10
258.4604652664
 20
134.8847829913
 10
258.3551086863
 20
134.7199202967
 10
258.2423125569
 20
134.5567062061
 10
258.1221541831
 20
134.3952525784
 10
257.9947159154
 20
134.2356700658
 10
257.8600850936
 20
134.0780680381
 10
257.718353987
 20
133.922554508
 10
257.569619731
 20
133.7692360566
 10
257.4139842607
 20
133.6182177607
 10
257.2515542407
 20
133.4696031208
 10
257.0824409926
 20
133.3234939898
 10
256.906760418
 20
133.1799905038
 10
256.7246329198
 20
133.0391910127
 10
256.5361833189
 20
132.9011920136
 10
256.3415407693
 20
132.766088084
 10
256.1408386693
 20
132.6339718175
 10
255.9342145702
 20
132.50493376
 10
255.7218100816
 20
132.3790623476
 10
255.5037707752
 20
132.2564438464
 10
255.280246084
 20
132.1371622929
 10
255.0513892008
 20
132.0212994368
 10
254.8173569726
 20
131.9089346847
 10
254.5783097935
 20
131.8001450458
 10
254.3344114944
 20
131.695005079
 10
254.0858292311
 20
131.593586842
 10
253.8327333694
 20
131.4959598419
 10
253.5752973685
 20
131.4021909873
 10
253.3136976624
 20
131.3123445427
 10
253.0481135382
 20
131.2264820844
 10
252.7787270141
 20
131.1446624581
 10
252.5057227143
 20
131.066941739
 10
252.2292877421
 20
130.993373193
 10
251.9496115523
 20
130.9240072403
 10
251.6668858211
 20
130.8588914209
 10
251.3813043144
 20
130.7980703618
 10
251.0930627557
 20
130.7415857468
 10
250.8023586912
 20
130.6894762876
 10
250.509391355
 20
130.6417776975
 10
250.2143615323
 20
130.5985226667
 10
249.9174714218
 20
130.5597408399
 10
249.6189244971
 20
130.5254587965
 10
249.3189253674
 20
130.4957000314
 10
249.0176796372
 20
130.47048494
 10
248.7153937651
 20
130.4498308033
 10
248.4122749228
 20
130.4337517768
 10
248.1085308529
 20
130.4222588801
 10
247.8043697264
 20
130.4153599899
 10
247.5
 20
130.4130598343
 10
247.1956302736
 20
130.4153599899
 10
246.8914691471
 20
130.4222588801
 10
246.5877250772
 20
130.4337517768
 10
246.2846062349
 20
130.4498308033
 10
245.9823203628
 20
130.47048494
 10
245.6810746326
 20
130.4957000314
 10
245.3810755029
 20
130.5254587965
 10
245.0825285782
 20
130.5597408399
 10
244.7856384677
 20
130.5985226667
 10
244.490608645
 20
130.6417776975
 10
244.1976413088
 20
130.6894762876
 10
243.9069372443
 20
130.7415857468
 10
243.6186956856
 20
130.7980703618
 10
243.3331141789
 20
130.8588914209
 10
243.0503884477
 20
130.9240072403
 10
242.7707122579
 20
130.993373193
 10
242.4942772857
 20
131.066941739
 10
242.2212729859
 20
131.1446624581
 10
241.9518864618
 20
131.2264820844
 10
241.6863023376
 20
131.3123445427
 10
241.4247026315
 20
131.4021909873
 10
241.1672666306
 20
131.4959598419
 10
240.9141707689
 20
131.593586842
 10
240.6655885056
 20
131.695005079
 10
240.4216902065
 20
131.8001450458
 10
240.1826430274
 20
131.9089346847
 10
239.9486107992
 20
132.0212994368
 10
239.719753916
 20
132.1371622929
 10
239.4962292248
 20
132.2564438464
 10
239.2781899184
 20
132.3790623476
 10
239.0657854298
 20
132.50493376
 10
238.8591613307
 20
132.6339718175
 10
238.6584592307
 20
132.766088084
 10
238.4638166811
 20
132.9011920136
 10
238.2753670802
 20
133.0391910127
 10
238.093239582
 20
133.1799905038
 10
237.9175590074
 20
133.3234939898
 10
237.7484457593
 20
133.4696031208
 10
237.5860157393
 20
133.6182177607
 10
237.430380269
 20
133.7692360566
 10
237.281646013
 20
133.922554508
 10
237.1399149064
 20
134.0780680381
 10
237.0052840846
 20
134.2356700658
 10
236.8778458169
 20
134.3952525784
 10
236.7576874431
 20
134.5567062061
 10
236.6448913137
 20
134.7199202967
 10
236.5395347336
 20
134.8847829913
 10
236.4416899089
 20
135.0511813012
 10
236.3514238975
 20
135.2190011855
 10
236.2687985634
 20
135.3881276288
 10
236.1938705337
 20
135.5584447201
 10
236.1266911603
 20
135.7298357327
 10
236.0673064848
 20
135.9021832038
 10
236.0157572063
 20
136.075369015
 10
235.9720786541
 20
136.2492744734
 10
235.9363007635
 20
136.4237803929
 10
235.9084480546
 20
136.5987671758
 10
235.8885396165
 20
136.774114895
 10
235.8780880074
 20
136.9192925324
  0
LWPOLYLINE
  5
101
330
1F
100
AcDbEntity
  8
0
  6
Continuous
 62
     8
370
     0
100
AcDbPolyline
 90
      241
 70
   128
 43
0.0
 10
255.3685881716
 20
133.0089185522
 10
255.5718674288
 20
133.1293823305
 10
255.7696146313
 20
133.2528767099
 10
255.9616942529
 20
133.3793170535
 10
256.147974652
 20
133.5086167054
 10
256.3283281612
 20
133.6406870502
 10
256.5026311753
 20
133.7754375734
 10
256.6707642357
 20
133.9127759237
 10
256.8326121124
 20
134.0526079762
 10
256.9880638829
 20
134.1948378972
 10
257.1370130083
 20
134.3393682092
 10
257.2793574064
 20
134.4860998585
 10
257.4149995215
 20
134.6349322824
 10
257.5438463911
 20
134.7857634788
 10
257.6658097101
 20
134.9384900753
 10
257.7808058909
 20
135.0930074009
 10
257.8887561209
 20
135.2492095571
 10
257.9895864164
 20
135.4069894907
 10
258.0832276734
 20
135.5662390672
 10
258.1696157147
 20
135.7268491449
 10
258.2486913344
 20
135.8887096498
 10
258.3204003379
 20
136.0517096506
 10
258.3846935796
 20
136.2157374354
 10
258.4415269959
 20
136.3806805877
 10
258.4908616362
 20
136.5464260637
 10
258.532663689
 20
136.7128602697
 10
258.5669045051
 20
136.8798691401
 10
258.5935606177
 20
137.0473382152
 10
258.612613758
 20
137.2151527202
 10
258.624050868
 20
137.3831976434
 10
258.6278641091
 20
137.5513578152
 10
258.624050868
 20
137.7195179869
 10
258.612613758
 20
137.8875629101
 10
258.5935606177
 20
138.0553774151
 10
258.5669045051
 20
138.2228464903
 10
258.532663689
 20
138.3898553606
 10
258.4908616362
 20
138.5562895666
 10
258.4415269959
 20
138.7220350426
 10
258.3846935796
 20
138.8869781949
 10
258.3204003379
 20
139.0510059797
 10
258.2486913344
 20
139.2140059806
 10
258.1696157147
 20
139.3758664854
 10
258.0832276734
 20
139.5364765632
 10
257.9895864164
 20
139.6957261397
 10
257.8887561209
 20
139.8535060733
 10
257.7808058909
 20
140.0097082294
 10
257.6658097101
 20
140.164225555
 10
257.5438463911
 20
140.3169521516
 10
257.4149995215
 20
140.4677833479
 10
257.2793574064
 20
140.6166157719
 10
257.1370130083
 20
140.7633474211
 10
256.9880638829
 20
140.9078777332
 10
256.8326121124
 20
141.0501076541
 10
256.6707642357
 20
141.1899397067
 10
256.5026311753
 20
141.327278057
 10
256.3283281612
 20
141.4620285801
 10
256.147974652
 20
141.5940989249
 10
255.9616942529
 20
141.7233985769
 10
255.7696146313
 20
141.8498389205
 10
255.5718674288
 20
141.9733332999
 10
255.3685881716
 20
142.0937970781
 10
255.1599161772
 20
142.2111476954
 10
254.9459944588
 20
142.3253047255
 10
254.7269696277
 20
142.4361899308
 10
254.5029917927
 20
142.5437273162
 10
254.2742144568
 20
142.6478431809
 10
254.0407944128
 20
142.7484661691
 10
253.802891635
 20
142.8455273189
 10
253.5606691701
 20
142.9389601093
 10
253.3142930253
 20
143.0287005062
 10
253.0639320545
 20
143.1146870061
 10
252.8097578426
 20
143.196860678
 10
252.5519445879
 20
143.2751652042
 10
252.2906689827
 20
143.3495469188
 10
252.0261100923
 20
143.4199548442
 10
251.7584492321
 20
143.4863407263
 10
251.4878698436
 20
143.5486590676
 10
251.2145573682
 20
143.6068671582
 10
250.9386991208
 20
143.6609251052
 10
250.6604841608
 20
143.7107958599
 10
250.3801031627
 20
143.7564452435
 10
250.0977482859
 20
143.7978419701
 10
249.8136130421
 20
143.8349576685
 10
249.5278921635
 20
143.8677669014
 10
249.2407814689
 20
143.896247183
 10
248.9524777297
 20
143.9203789944
 10
248.6631785348
 20
143.9401457968
 10
248.3730821554
 20
143.9555340431
 10
248.0823874091
 20
143.9665331868
 10
247.7912935236
 20
143.9731356899
 10
247.5
 20
143.9753370271
 10
247.2087064764
 20
143.9731356899
 10
246.9176125909
 20
143.9665331868
 10
246.6269178446
 20
143.9555340431
 10
246.3368214652
 20
143.9401457968
 10
246.0475222703
 20
143.9203789944
 10
245.7592185311
 20
143.896247183
 10
245.4721078365
 20
143.8677669014
 10
245.1863869579
 20
143.8349576685
 10
244.9022517141
 20
143.7978419701
 10
244.6198968373
 20
143.7564452435
 10
244.3395158392
 20
143.7107958599
 10
244.0613008792
 20
143.6609251052
 10
243.7854426318
 20
143.6068671582
 10
243.5121301564
 20
143.5486590676
 10
243.2415507679
 20
143.4863407263
 10
242.9738899077
 20
143.4199548442
 10
242.7093310173
 20
143.3495469188
 10
242.4480554121
 20
143.2751652042
 10
242.1902421574
 20
143.196860678
 10
241.9360679455
 20
143.1146870061
 10
241.6857069747
 20
143.0287005062
 10
241.4393308299
 20
142.9389601093
 10
241.197108365
 20
142.8455273189
 10
240.9592055872
 20
142.7484661691
 10
240.7257855432
 20
142.6478431809
 10
240.4970082073
 20
142.5437273162
 10
240.2730303723
 20
142.4361899308
 10
240.0540055412
 20
142.3253047255
 10
239.8400838228
 20
142.2111476954
 10
239.6314118284
 20
142.0937970781
 10
239.4281325712
 20
141.9733332999
 10
239.2303853687
 20
141.8498389205
 10
239.0383057471
 20
141.7233985769
 10
238.852025348
 20
141.5940989249
 10
238.6716718388
 20
141.4620285801
 10
238.4973688247
 20
141.327278057
 10
238.3292357643
 20
141.1899397067
 10
238.1673878876
 20
141.0501076541
 10
238.0119361171
 20
140.9078777332
 10
237.8629869917
 20
140.7633474211
 10
237.7206425936
 20
140.6166157719
 10
237.5850004785
 20
140.4677833479
 10
237.4561536089
 20
140.3169521516
 10
237.3341902899
 20
140.164225555
 10
237.2191941091
 20
140.0097082294
 10
237.1112438791
 20
139.8535060733
 10
237.0104135836
 20
139.6957261397
 10
236.9167723266
 20
139.5364765632
 10
236.8303842853
 20
139.3758664854
 10
236.7513086656
 20
139.2140059806
 10
236.6795996621
 20
139.0510059797
 10
236.6153064204
 20
138.8869781949
 10
236.5584730041
 20
138.7220350426
 10
236.5091383638
 20
138.5562895666
 10
236.467336311
 20
138.3898553606
 10
236.4330954949
 20
138.2228464903
 10
236.4064393823
 20
138.0553774151
 10
236.387386242
 20
137.8875629101
 10
236.375949132
 20
137.7195179869
 10
236.3721358909
 20
137.5513578152
 10
236.375949132
 20
137.3831976434
 10
236.387386242
 20
137.2151527202
 10
236.4064393823
 20
137.0473382152
 10
236.4330954949
 20
136.8798691401
 10
236.467336311
 20
136.7128602697
 10
236.5091383638
 20
136.5464260637
 10
236.5584730041
 20
136.3806805877
 10
236.6153064204
 20
136.2157374354
 10
236.6795996621
 20
136.0517096506
 10
236.7513086656
 20
135.8887096498
 10
236.8303842853
 20
135.7268491449
 10
236.9167723266
 20
135.5662390672
 10
237.0104135836
 20
135.4069894907
 10
237.1112438791
 20
135.2492095571
 10
237.2191941091
 20
135.0930074009
 10
237.3341902899
 20
134.9384900753
 10
237.4561536089
 20
134.7857634788
 10
237.5850004785
 20
134.6349322824
 10
237.7206425936
 20
134.4860998585
 10
237.8629869917
 20
134.3393682092
 10
238.0119361171
 20
134.1948378972
 10
238.1673878876
 20
134.0526079762
 10
238.3292357643
 20
133.9127759237
 10
238.4973688247
 20
133.7754375734
 10
238.6716718388
 20
133.6406870502
 10
238.852025348
 20
133.5086167054
 10
239.0383057471
 20
133.3793170535
 10
239.2303853687
 20
133.2528767099
 10
239.4281325712
 20
133.1293823305
 10
239.6314118284
 20
133.0089185522
 10
239.8400838228
 20
132.8915679349
 10
240.0540055412
 20
132.7774109049
 10
240.2730303723
 20
132.6665256995
 10
240.4970082073
 20
132.5589883141
 10
240.7257855432
 20
132.4548724494
 10
240.9592055872
 20
132.3542494612
 10
241.197108365
 20
132.2571883115
 10
241.4393308299
 20
132.163755521
 10
241.6857069747
 20
132.0740151241
 10
241.9360679455
 20
131.9880286243
 10
242.1902421574
 20
131.9058549523
 10
242.4480554121
 20
131.8275504261
 10
242.7093310173
 20
131.7531687115
 10
242.9738899077
 20
131.6827607861
 10
243.2415507679
 20
131.616374904
 10
243.5121301564
 20
131.5540565627
 10
243.7854426318
 20
131.4958484721
 10
244.0613008792
 20
131.4417905251
 10
244.3395158392
 20
131.3919197704
 10
244.6198968373
 20
131.3462703868
 10
244.9022517141
 20
131.3048736602
 10
245.1863869579
 20
131.2677579619
 10
245.4721078365
 20
131.234948729
 10
245.7592185311
 20
131.2064684473
 10
246.0475222703
 20
131.1823366359
 10
246.3368214652
 20
131.1625698335
 10
246.6269178446
 20
131.1471815873
 10
246.9176125909
 20
131.1361824435
 10
247.2087064764
 20
131.1295799405
 10
247.5
 20
131.1273786032
 10
247.7912935236
 20
131.1295799405
 10
248.0823874091
 20
131.1361824435
 10
248.3730821554
 20
131.1471815873
 10
248.6631785348
 20
131.1625698335
 10
248.9524777297
 20
131.1823366359
 10
249.2407814689
 20
131.2064684473
 10
249.5278921635
 20
131.234948729
 10
249.8136130421
 20
131.2677579619
 10
250.0977482859
 20
131.3048736602
 10
250.3801031627
 20
131.3462703868
 10
250.6604841608
 20
131.3919197704
 10
250.9386991208
 20
131.4417905251
 10
251.2145573682
 20
131.4958484721
 10
251.4878698436
 20
131.5540565627
 10
251.7584492321
 20
131.616374904
 10
252.0261100923
 20
131.6827607861
 10
252.2906689827
 20
131.7531687115
 10
252.5519445879
 20
131.8275504261
 10
252.8097578426
 20
131.9058549523
 10
253.0639320545
 20
131.9880286243
 10
253.3142930253
 20
132.0740151241
 10
253.5606691701
 20
132.163755521
 10
253.802891635
 20
132.2571883115
 10
254.0407944128
 20
132.3542494612
 10
254.2742144568
 20
132.4548724494
 10
254.5029917927
 20
132.5589883141
 10
254.7269696277
 20
132.6665256995
 10
254.9459944588
 20
132.7774109049
 10
255.1599161772
 20
132.8915679349
 10
255.3685881716
 20
133.0089185522
  0
LWPOLYLINE
  5
102
330
1F
100
AcDbEntity
  8
0
  6
Continuous
 62
     8
370
     0
100
AcDbPolyline
 90
      119
 70
   128
 43
0.0
 10
237.1341393832
 20
113.2623123618
 10
237.1434840651
 20
113.1323989002
 10
237.1612408373
 20
112.9760024275
 10
237.1860832786
 20
112.8199278816
 10
237.2179943633
 20
112.6642822284
 10
237.256952221
 20
112.5091721396
 10
237.302930152
 20
112.35470392
 10
237.3558966453
 20
112.2009834342
 10
237.4158154003
 20
112.0481160347
 10
237.4826453518
 20
111.8962064891
 10
237.5563406977
 20
111.7453589086
 10
237.636850931
 20
111.5956766767
 10
237.7241208741
 20
111.4472623781
 10
237.8180907163
 20
111.3002177285
 10
237.9186960556
 20
111.154643505
 10
238.025867942
 20
111.0106394768
 10
238.1395329253
 20
110.8683043372
 10
238.2596131051
 20
110.7277356355
 10
238.3860261845
 20
110.5890297105
 10
238.5186855264
 20
110.4522816243
 10
238.6575002125
 20
110.3175850973
 10
238.8023751063
 20
110.1850324436
 10
238.9532109178
 20
110.0547145083
 10
239.1099042716
 20
109.9267206048
 10
239.2723477779
 20
109.8011384537
 10
239.440430106
 20
109.6780541227
 10
239.6140360608
 20
109.5575519676
 10
239.7930466613
 20
109.4397145747
 10
239.9773392227
 20
109.3246227038
 10
240.16678744
 20
109.2123552332
 10
240.361261475
 20
109.1029891052
 10
240.5606280447
 20
108.9965992741
 10
240.7647505133
 20
108.8932586541
 10
240.9734889854
 20
108.7930380697
 10
241.1867004023
 20
108.696006207
 10
241.4042386393
 20
108.6022295669
 10
241.6259546066
 20
108.5117724192
 10
241.8516963513
 20
108.4246967587
 10
242.0813091611
 20
108.3410622627
 10
242.314635671
 20
108.2609262501
 10
242.5515159705
 20
108.1843436422
 10
242.7917877139
 20
108.1113669248
 10
243.0352862307
 20
108.0420461125
 10
243.2818446394
 20
107.9764287144
 10
243.531293961
 20
107.9145597013
 10
243.7834632355
 20
107.8564814752
 10
244.0381796387
 20
107.8022338399
 10
244.2952686006
 20
107.7518539742
 10
244.5545539254
 20
107.7053764058
 10
244.8158579117
 20
107.6628329881
 10
245.079001475
 20
107.6242528783
 10
245.3438042697
 20
107.5896625173
 10
245.6100848133
 20
107.5590856116
 10
245.8776606103
 20
107.532543117
 10
246.1463482777
 20
107.5100532245
 10
246.4159636704
 20
107.4916313474
 10
246.6863220075
 20
107.4772901113
 10
246.9572379987
 20
107.4670393449
 10
247.228525972
 20
107.4608860736
 10
247.5
 20
107.4588345145
 10
247.771474028
 20
107.4608860736
 10
248.0427620013
 20
107.4670393449
 10
248.3136779925
 20
107.4772901113
 10
248.5840363296
 20
107.4916313474
 10
248.8536517223
 20
107.5100532245
 10
249.1223393897
 20
107.532543117
 10
249.3899151867
 20
107.5590856116
 10
249.6561957303
 20
107.5896625173
 10
249.920998525
 20
107.6242528783
 10
250.1841420883
 20
107.6628329881
 10
250.4454460746
 20
107.7053764058
 10
250.7047313994
 20
107.7518539742
 10
250.9618203613
 20
107.8022338399
 10
251.2165367645
 20
107.8564814752
 10
251.468706039
 20
107.9145597013
 10
251.7181553606
 20
107.9764287144
 10
251.9647137693
 20
108.0420461125
 10
252.2082122861
 20
108.1113669248
 10
252.4484840295
 20
108.1843436422
 10
252.685364329
 20
108.2609262501
 10
252.9186908389
 20
108.3410622627
 10
253.1483036487
 20
108.4246967587
 10
253.3740453934
 20
108.5117724192
 10
253.5957613607
 20
108.6022295669
 10
253.8132995977
 20
108.696006207
 10
254.0265110146
 20
108.7930380697
 10
254.2352494867
 20
108.8932586541
 10
254.4393719553
 20
108.9965992741
 10
254.638738525
 20
109.1029891052
 10
254.83321256
 20
109.2123552332
 10
255.0226607773
 20
109.3246227038
 10
255.2069533387
 20
109.4397145747
 10
255.3859639392
 20
109.5575519676
 10
255.559569894
 20
109.6780541227
 10
255.7276522221
 20
109.8011384537
 10
255.8900957284
 20
109.9267206048
 10
256.0467890822
 20
110.0547145083
 10
256.1976248937
 20
110.1850324436
 10
256.3424997875
 20
110.3175850973
 10
256.4813144736
 20
110.4522816243
 10
256.6139738155
 20
110.5890297105
 10
256.7403868949
 20
110.7277356355
 10
256.8604670747
 20
110.8683043372
 10
256.974132058
 20
111.0106394768
 10
257.0813039444
 20
111.154643505
 10
257.1819092837
 20
111.3002177285
 10
257.2758791259
 20
111.4472623781
 10
257.363149069
 20
111.5956766767
 10
257.4436593023
 20
111.7453589086
 10
257.5173546482
 20
111.8962064891
 10
257.5841845997
 20
112.0481160347
 10
257.6441033547
 20
112.2009834342
 10
257.697069848
 20
112.35470392
 10
257.743047779
 20
112.5091721396
 10
257.7820056367
 20
112.6642822284
 10
257.8139167214
 20
112.8199278816
 10
257.8387591627
 20
112.9760024275
 10
257.8565159349
 20
113.1323989002
 10
257.8658606168
 20
113.2623123618
  0
ENDSEC
  0
SECTION
  2
OBJECTS
  0
DICTIONARY
  5
C
330
0
100
AcDbDictionary
281
     1
  3
ACAD_GROUP
350
D
  3
ACAD_LAYOUT
350
1A
  3
ACAD_MLINESTYLE
350
17
  3
ACAD_PLOTSETTINGS
350
19
  3
ACAD_PLOTSTYLENAME
350
E
  3
ACAD_SCALELIST
350
47
  0
DICTIONARY
  5
D
102
{ACAD_REACTORS
330
C
102
}
330
C
100
AcDbDictionary
281
     1
  0
DICTIONARY
  5
1A
102
{ACAD_REACTORS
330
C
102
}
330
C
100
AcDbDictionary
281
     1
  3
Layout1
350
1E
  3
Layout2
350
26
  3
Model
350
22
  0
DICTIONARY
  5
17
102
{ACAD_REACTORS
330
C
102
}
330
C
100
AcDbDictionary
281
     1
  3
Standard
350
18
  0
DICTIONARY
  5
19
102
{ACAD_REACTORS
330
C
102
}
330
C
100
AcDbDictionary
281
     1
  0
ACDBDICTIONARYWDFLT
  5
E
102
{ACAD_REACTORS
330
C
102
}
330
C
100
AcDbDictionary
281
     1
  3
Normal
350
F
100
AcDbDictionaryWithDefault
340
F
  0
DICTIONARY
  5
47
102
{ACAD_REACTORS
330
C
102
}
330
C
100
AcDbDictionary
281
     1
  3
A0
350
48
  3
A1
350
49
  3
A2
350
4A
  3
A3
350
4B
  3
A4
350
4C
  3
A5
350
4D
  3
A6
350
4E
  3
A7
350
4F
  3
A8
350
50
  3
A9
350
51
  3
B0
350
52
  3
B1
350
53
  3
B2
350
54
  3
B3
350
55
  3
B4
350
56
  3
B5
350
57
  3
B6
350
58
  3
B7
350
59
  3
B8
350
5A
  3
B9
350
5B
  3
C0
350
5C
  3
C1
350
5D
  3
C2
350
5E
  3
C3
350
5F
  3
C4
350
60
  3
C5
350
61
  3
C6
350
62
  3
C7
350
63
  3
C8
350
64
  3
C9
350
65
  3
D0
350
66
  3
D1
350
67
  3
D2
350
68
  0
LAYOUT
  5
1E
102
{ACAD_REACTORS
330
1A
102
}
330
1A
100
AcDbPlotSettings
  1

  2
none_device
  4

  6

 40
0.0
 41
0.0
 42
0.0
 43
0.0
 44
0.0
 45
0.0
 46
0.0
 47
0.0
 48
0.0
 49
0.0
140
0.0
141
0.0
142
1.0
143
1.0
 70
   688
 72
     1
 73
     0
 74
     5
  7

 75
    16
147
1.0
148
0.0
149
0.0
100
AcDbLayout
  1
Layout1
 70
     1
 71
     1
 10
0.0
 20
0.0
 11
420.0
 21
297.0
 12
0.0
 22
0.0
 32
0.0
 14
1.0000000000E+20
 24
1.0000000000E+20
 34
1.0000000000E+20
 15
-1.0000000000E+20
 25
-1.0000000000E+20
 35
-1.0000000000E+20
146
0.0
 13
0.0
 23
0.0
 33
0.0
 16
1.0
 26
0.0
 36
0.0
 17
0.0
 27
1.0
 37
0.0
 76
     0
330
1B
  0
LAYOUT
  5
26
102
{ACAD_REACTORS
330
1A
102
}
330
1A
100
AcDbPlotSettings
  1

  2
none_device
  4

  6

 40
0.0
 41
0.0
 42
0.0
 43
0.0
 44
0.0
 45
0.0
 46
0.0
 47
0.0
 48
0.0
 49
0.0
140
0.0
141
0.0
142
1.0
143
1.0
 70
   688
 72
     1
 73
     0
 74
     5
  7

 75
    16
147
1.0
148
0.0
149
0.0
100
AcDbLayout
  1
Layout2
 70
     1
 71
     2
 10
0.0
 20
0.0
 11
0.0
 21
0.0
 12
0.0
 22
0.0
 32
0.0
 14
0.0
 24
0.0
 34
0.0
 15
0.0
 25
0.0
 35
0.0
146
0.0
 13
0.0
 23
0.0
 33
0.0
 16
1.0
 26
0.0
 36
0.0
 17
0.0
 27
1.0
 37
0.0
 76
     0
330
23
  0
LAYOUT
  5
22
102
{ACAD_REACTORS
330
1A
102
}
330
1A
100
AcDbPlotSettings
  1

  2
none_device
  4
Letter_(8.50_x_11.00_Inches)
  6

 40
6.35
 41
6.35
 42
6.35000508
 43
6.35000508
 44
215.9
 45
279.4
 46
0.0
 47
0.0
 48
0.0
 49
0.0
140
0.0
141
0.0
142
1.0
143
1.0
 70
  1712
 72
     1
 73
     0
 74
     0
  7

 75
     0
147
1.0
148
0.0
149
0.0
100
AcDbLayout
  1
Model
 70
     1
 71
     0
 10
0.0
 20
0.0
 11
291.0
 21
337.0
 12
0.0
 22
0.0
 32
0.0
 14
0.0
 24
0.0
 34
0.0
 15
291.0
 25
337.0
 35
0.0
146
0.0
 13
0.0
 23
0.0
 33
0.0
 16
1.0
 26
0.0
 36
0.0
 17
0.0
 27
1.0
 37
0.0
 76
     0
330
1F
331
29
  0
MLINESTYLE
  5
18
102
{ACAD_REACTORS
330
17
102
}
330
17
100
AcDbMlineStyle
  2
Standard
 70
     0
  3

 62
   256
 51
90.0
 52
90.0
 71
     2
 49
0.5
 62
   256
  6
BYLAYER
 49
-0.5
 62
   256
  6
BYLAYER
  0
ACDBPLACEHOLDER
  5
F
102
{ACAD_REACTORS
330
E
102
}
330
E
  0
SCALE
  5
48
102
{ACAD_REACTORS
330
47
102
}
330
47
100
AcDbScale
 70
     0
300
1:1
140
1.0
141
1.0
290
     1
  0
SCALE
  5
49
102
{ACAD_REACTORS
330
47
102
}
330
47
100
AcDbScale
 70
     0
300
1:2
140
1.0
141
2.0
290
     0
  0
SCALE
  5
4A
102
{ACAD_REACTORS
330
47
102
}
330
47
100
AcDbScale
 70
     0
300
1:4
140
1.0
141
4.0
290
     0
  0
SCALE
  5
4B
102
{ACAD_REACTORS
330
47
102
}
330
47
100
AcDbScale
 70
     0
300
1:5
140
1.0
141
5.0
290
     0
  0
SCALE
  5
4C
102
{ACAD_REACTORS
330
47
102
}
330
47
100
AcDbScale
 70
     0
300
1:8
140
1.0
141
8.0
290
     0
  0
SCALE
  5
4D
102
{ACAD_REACTORS
330
47
102
}
330
47
100
AcDbScale
 70
     0
300
1:10
140
1.0
141
10.0
290
     0
  0
SCALE
  5
4E
102
{ACAD_REACTORS
330
47
102
}
330
47
100
AcDbScale
 70
     0
300
1:16
140
1.0
141
16.0
290
     0
  0
SCALE
  5
4F
102
{ACAD_REACTORS
330
47
102
}
330
47
100
AcDbScale
 70
     0
300
1:20
140
1.0
141
20.0
290
     0
  0
SCALE
  5
50
102
{ACAD_REACTORS
330
47
102
}
330
47
100
AcDbScale
 70
     0
300
1:30
140
1.0
141
30.0
290
     0
  0
SCALE
  5
51
102
{ACAD_REACTORS
330
47
102
}
330
47
100
AcDbScale
 70
     0
300
1:40
140
1.0
141
40.0
290
     0
  0
SCALE
  5
52
102
{ACAD_REACTORS
330
47
102
}
330
47
100
AcDbScale
 70
     0
300
1:50
140
1.0
141
50.0
290
     0
  0
SCALE
  5
53
102
{ACAD_REACTORS
330
47
102
}
330
47
100
AcDbScale
 70
     0
300
1:100
140
1.0
141
100.0
290
     0
  0
SCALE
  5
54
102
{ACAD_REACTORS
330
47
102
}
330
47
100
AcDbScale
 70
     0
300
2:1
140
2.0
141
1.0
290
     0
  0
SCALE
  5
55
102
{ACAD_REACTORS
330
47
102
}
330
47
100
AcDbScale
 70
     0
300
4:1
140
4.0
141
1.0
290
     0
  0
SCALE
  5
56
102
{ACAD_REACTORS
330
47
102
}
330
47
100
AcDbScale
 70
     0
300
8:1
140
8.0
141
1.0
290
     0
  0
SCALE
  5
57
102
{ACAD_REACTORS
330
47
102
}
330
47
100
AcDbScale
 70
     0
300
10:1
140
10.0
141
1.0
290
     0
  0
SCALE
  5
58
102
{ACAD_REACTORS
330
47
102
}
330
47
100
AcDbScale
 70
     0
300
100:1
140
100.0
141
1.0
290
     0
  0
SCALE
  5
59
102
{ACAD_REACTORS
330
47
102
}
330
47
100
AcDbScale
 70
     0
300
1/128" = 1'-0"
140
0.0078125
141
12.0
290
     0
  0
SCALE
  5
5A
102
{ACAD_REACTORS
330
47
102
}
330
47
100
AcDbScale
 70
     0
300
1/64" = 1'-0"
140
0.015625
141
12.0
290
     0
  0
SCALE
  5
5B
102
{ACAD_REACTORS
330
47
102
}
330
47
100
AcDbScale
 70
     0
300
1/32" = 1'-0"
140
0.03125
141
12.0
290
     0
  0
SCALE
  5
5C
102
{ACAD_REACTORS
330
47
102
}
330
47
100
AcDbScale
 70
     0
300
1/16" = 1'-0"
140
0.0625
141
12.0
290
     0
  0
SCALE
  5
5D
102
{ACAD_REACTORS
330
47
102
}
330
47
100
AcDbScale
 70
     0
300
3/32" = 1'-0"
140
0.09375
141
12.0
290
     0
  0
SCALE
  5
5E
102
{ACAD_REACTORS
330
47
102
}
330
47
100
AcDbScale
 70
     0
300
1/8" = 1'-0"
140
0.125
141
12.0
290
     0
  0
SCALE
  5
5F
102
{ACAD_REACTORS
330
47
102
}
330
47
100
AcDbScale
 70
     0
300
3/16" = 1'-0"
140
0.1875
141
12.0
290
     0
  0
SCALE
  5
60
102
{ACAD_REACTORS
330
47
102
}
330
47
100
AcDbScale
 70
     0
300
1/4" = 1'-0"
140
0.25
141
12.0
290
     0
  0
SCALE
  5
61
102
{ACAD_REACTORS
330
47
102
}
330
47
100
AcDbScale
 70
     0
300
3/8" = 1'-0"
140
0.375
141
12.0
290
     0
  0
SCALE
  5
62
102
{ACAD_REACTORS
330
47
102
}
330
47
100
AcDbScale
 70
     0
300
1/2" = 1'-0"
140
0.5
141
12.0
290
     0
  0
SCALE
  5
63
102
{ACAD_REACTORS
330
47
102
}
330
47
100
AcDbScale
 70
     0
300
3/4" = 1'-0"
140
0.75
141
12.0
290
     0
  0
SCALE
  5
64
102
{ACAD_REACTORS
330
47
102
}
330
47
100
AcDbScale
 70
     0
300
1" = 1'-0"
140
1.0
141
12.0
290
     0
  0
SCALE
  5
65
102
{ACAD_REACTORS
330
47
102
}
330
47
100
AcDbScale
 70
     0
300
1-1/2" = 1'-0"
140
1.5
141
12.0
290
     0
  0
SCALE
  5
66
102
{ACAD_REACTORS
330
47
102
}
330
47
100
AcDbScale
 70
     0
300
3" = 1'-0"
140
3.0
141
12.0
290
     0
  0
SCALE
  5
67
102
{ACAD_REACTORS
330
47
102
}
330
47
100
AcDbScale
 70
     0
300
6" = 1'-0"
140
6.0
141
12.0
290
     0
  0
SCALE
  5
68
102
{ACAD_REACTORS
330
47
102
}
330
47
100
AcDbScale
 70
     0
300
1'-0" = 1'-0"
140
12.0
141
12.0
290
     0
  0
ENDSEC
  0
EOF
