  0
SECTION
  2
HEADER
  9
$ACADVER
  1
AC1015
  9
$ACADMAINTVER
 70
     6
  9
$DWGCODEPAGE
  3
ANSI_1252
  9
$INSBASE
 10
0.0
 20
0.0
 30
0.0
  9
$EXTMIN
 10
0.0
 20
0.0
 30
0.0
  9
$EXTMAX
 10
291.0
 20
337.0
 30
0.0
  9
$LIMMIN
 10
0.0
 20
0.0
  9
$LIMMAX
 10
291.0
 20
337.0
  9
$ORTHOMODE
 70
     0
  9
$REGENMODE
 70
     1
  9
$FILLMODE
 70
     1
  9
$QTEXTMODE
 70
     0
  9
$MIRRTEXT
 70
     1
  9
$LTSCALE
 40
1.0
  9
$ATTMODE
 70
     1
  9
$TEXTSIZE
 40
3.5
  9
$TRACEWID
 40
1.0
  9
$TEXTSTYLE
  7
Standard
  9
$CLAYER
  8
0
  9
$CELTYPE
  6
ByLayer
  9
$CECOLOR
 62
   256
  9
$CELTSCALE
 40
1.0
  9
$DISPSILH
 70
     0
  9
$DIMSCALE
 40
1.0
  9
$DIMASZ
 40
3.302
  9
$DIMEXO
 40
1.0
  9
$DIMDLI
 40
3.75
  9
$DIMRND
 40
0.0
  9
$DIMDLE
 40
0.0
  9
$DIMEXE
 40
1.0
  9
$DIMTP
 40
0.0
  9
$DIMTM
 40
0.0
  9
$DIMTXT
 40
2.8
  9
$DIMCEN
 40
2.5
  9
$DIMTSZ
 40
0.0
  9
$DIMTOL
 70
     0
  9
$DIMLIM
 70
     0
  9
$DIMTIH
 70
     1
  9
$DIMTOH
 70
     1
  9
$DIMSE1
 70
     0
  9
$DIMSE2
 70
     0
  9
$DIMTAD
 70
     1
  9
$DIMZIN
 70
     0
  9
$DIMBLK
  1

  9
$DIMASO
 70
     1
  9
$DIMSHO
 70
     1
  9
$DIMPOST
  1

  9
$DIMAPOST
  1

  9
$DIMALT
 70
     0
  9
$DIMALTD
 70
     3
  9
$DIMALTF
 40
0.0393700787
  9
$DIMLFAC
 40
1.0
  9
$DIMTOFL
 70
     1
  9
$DIMTVP
 40
0.0
  9
$DIMTIX
 70
     0
  9
$DIMSOXD
 70
     0
  9
$DIMSAH
 70
     0
  9
$DIMBLK1
  1

  9
$DIMBLK2
  1

  9
$DIMSTYLE
  2
ISO-25
  9
$DIMCLRD
 70
     0
  9
$DIMCLRE
 70
     0
  9
$DIMCLRT
 70
     0
  9
$DIMTFAC
 40
1.0
  9
$DIMGAP
 40
1.524
  9
$DIMJUST
 70
     0
  9
$DIMSD1
 70
     0
  9
$DIMSD2
 70
     0
  9
$DIMTOLJ
 70
     0
  9
$DIMTZIN
 70
     0
  9
$DIMALTZ
 70
     0
  9
$DIMALTTZ
 70
     0
  9
$DIMUPT
 70
     0
  9
$DIMDEC
 70
     2
  9
$DIMTDEC
 70
     2
  9
$DIMALTU
 70
     2
  9
$DIMALTTD
 70
     3
  9
$DIMTXSTY
  7
Standard
  9
$DIMAUNIT
 70
     0
  9
$DIMADEC
 70
     2
  9
$DIMALTRND
 40
0.0
  9
$DIMAZIN
 70
     0
  9
$DIMDSEP
 70
    44
  9
$DIMATFIT
 70
     3
  9
$DIMFRAC
 70
     0
  9
$DIMLDRBLK
  1

  9
$DIMLUNIT
 70
     2
  9
$DIMLWD
 70
    -2
  9
$DIMLWE
 70
    -2
  9
$DIMTMOVE
 70
     0
  9
$LUNITS
 70
     2
  9
$LUPREC
 70
     2
  9
$SKETCHINC
 40
1.0
  9
$FILLETRAD
 40
10.0
  9
$AUNITS
 70
     0
  9
$AUPREC
 70
     2
  9
$MENU
  1
.
  9
$ELEVATION
 40
0.0
  9
$PELEVATION
 40
0.0
  9
$THICKNESS
 40
0.0
  9
$LIMCHECK
 70
     0
  9
$CHAMFERA
 40
0.0
  9
$CHAMFERB
 40
0.0
  9
$CHAMFERC
 40
0.0
  9
$CHAMFERD
 40
0.0
  9
$SKPOLY
 70
     0
  9
$TDCREATE
 40
2458200.306797986
  9
$TDUCREATE
 40
2458200.223464653
  9
$TDUPDATE
 40
2458200.306798576
  9
$TDUUPDATE
 40
2458200.223465243
  9
$TDINDWG
 40
0.0000000116
  9
$TDUSRTIMER
 40
0.0000000116
  9
$USRTIMER
 70
     1
  9
$ANGBASE
 50
0.0
  9
$ANGDIR
 70
     0
  9
$PDMODE
 70
     0
  9
$PDSIZE
 40
-1.0
  9
$PLINEWID
 40
0.0
  9
$SPLFRAME
 70
     0
  9
$SPLINETYPE
 70
     6
  9
$SPLINESEGS
 70
     8
  9
$HANDSEED
  5
103
  9
$SURFTAB1
 70
     6
  9
$SURFTAB2
 70
     6
  9
$SURFTYPE
 70
     6
  9
$SURFU
 70
     6
  9
$SURFV
 70
     6
  9
$UCSBASE
  2

  9
$UCSNAME
  2

  9
$UCSORG
 10
0.0
 20
0.0
 30
0.0
  9
$UCSXDIR
 10
1.0
 20
0.0
 30
0.0
  9
$UCSYDIR
 10
0.0
 20
1.0
 30
0.0
  9
$UCSORTHOREF
  2

  9
$UCSORTHOVIEW
 70
     0
  9
$UCSORGTOP
 10
0.0
 20
0.0
 30
0.0
  9
$UCSORGBOTTOM
 10
0.0
 20
0.0
 30
0.0
  9
$UCSORGLEFT
 10
0.0
 20
0.0
 30
0.0
  9
$UCSORGRIGHT
 10
0.0
 20
0.0
 30
0.0
  9
$UCSORGFRONT
 10
0.0
 20
0.0
 30
0.0
  9
$UCSORGBACK
 10
0.0
 20
0.0
 30
0.0
  9
$PUCSBASE
  2

  9
$PUCSNAME
  2

  9
$PUCSORG
 10
0.0
 20
0.0
 30
0.0
  9
$PUCSXDIR
 10
1.0
 20
0.0
 30
0.0
  9
$PUCSYDIR
 10
0.0
 20
1.0
 30
0.0
  9
$PUCSORTHOREF
  2

  9
$PUCSORTHOVIEW
 70
     0
  9
$PUCSORGTOP
 10
0.0
 20
0.0
 30
0.0
  9
$PUCSORGBOTTOM
 10
0.0
 20
0.0
 30
0.0
  9
$PUCSORGLEFT
 10
0.0
 20
0.0
 30
0.0
  9
$PUCSORGRIGHT
 10
0.0
 20
0.0
 30
0.0
  9
$PUCSORGFRONT
 10
0.0
 20
0.0
 30
0.0
  9
$PUCSORGBACK
 10
0.0
 20
0.0
 30
0.0
  9
$USERI1
 70
     0
  9
$USERI2
 70
     0
  9
$USERI3
 70
     0
  9
$USERI4
 70
     0
  9
$USERI5
 70
     0
  9
$USERR1
 40
0.0
  9
$USERR2
 40
0.0
  9
$USERR3
 40
0.0
  9
$USERR4
 40
0.0
  9
$USERR5
 40
0.0
  9
$WORLDVIEW
 70
     1
  9
$SHADEDGE
 70
     3
  9
$SHADEDIF
 70
    70
  9
$TILEMODE
 70
     1
  9
$MAXACTVP
 70
    64
  9
$PINSBASE
 10
0.0
 20
0.0
 30
0.0
  9
$PLIMCHECK
 70
     0
  9
$PEXTMIN
 10
1.0000000000E+20
 20
1.0000000000E+20
 30
1.0000000000E+20
  9
$PEXTMAX
 10
-1.0000000000E+20
 20
-1.0000000000E+20
 30
-1.0000000000E+20
  9
$PLIMMIN
 10
0.0
 20
0.0
  9
$PLIMMAX
 10
420.0
 20
297.0
  9
$UNITMODE
 70
     0
  9
$VISRETAIN
 70
     1
  9
$PLINEGEN
 70
     0
  9
$PSLTSCALE
 70
     1
  9
$TREEDEPTH
 70
  3020
  9
$CMLSTYLE
  2
Standard
  9
$CMLJUST
 70
     0
  9
$CMLSCALE
 40
20.0
  9
$PROXYGRAPHICS
 70
     1
  9
$MEASUREMENT
 70
     1
  9
$CELWEIGHT
370
    -1
  9
$ENDCAPS
280
     0
  9
$JOINSTYLE
280
     0
  9
$LWDISPLAY
290
     1
  9
$INSUNITS
 70
     4
  9
$HYPERLINKBASE
  1

  9
$STYLESHEET
  1

  9
$XEDIT
290
     1
  9
$CEPSNTYPE
380
     0
  9
$PSTYLEMODE
290
     1
  9
$FINGERPRINTGUID
  2
{880BF216-9A7F-4BC0-AEBF-388E19A817B5}
  9
$VERSIONGUID
  2
{FAEB1C32-E019-11D5-929B-00C0DF256EC4}
  9
$EXTNAMES
290
     1
  9
$PSVPSCALE
 40
0.0
  9
$OLESTARTUP
290
     0
  0
ENDSEC
  0
SECTION
  2
CLASSES
  0
CLASS
  1
ACDBDICTIONARYWDFLT
  2
AcDbDictionaryWithDefault
  3
ObjectDBX Classes
 90
        0
280
     0
281
     0
  0
CLASS
  1
VISUALSTYLE
  2
AcDbVisualStyle
  3
ObjectDBX Classes
 90
     4095
280
     0
281
     0
  0
CLASS
  1
MATERIAL
  2
AcDbMaterial
  3
ObjectDBX Classes
 90
     1153
280
     0
281
     0
  0
CLASS
  1
SCALE
  2
AcDbScale
  3
ObjectDBX Classes
 90
     1153
280
     0
281
     0
  0
CLASS
  1
TABLESTYLE
  2
AcDbTableStyle
  3
ObjectDBX Classes
 90
     4095
280
     0
281
     0
  0
CLASS
  1
MLEADERSTYLE
  2
AcDbMLeaderStyle
  3
ACDB_MLEADERSTYLE_CLASS
 90
     4095
280
     0
281
     0
  0
CLASS
  1
SUN
  2
AcDbSun
  3
SCENEOE
 90
     1153
280
     0
281
     0
  0
CLASS
  1
ACDBPLACEHOLDER
  2
AcDbPlaceHolder
  3
ObjectDBX Classes
 90
        0
280
     0
281
     0
  0
CLASS
  1
LAYOUT
  2
AcDbLayout
  3
ObjectDBX Classes
 90
        0
280
     0
281
     0
  0
ENDSEC
  0
SECTION
  2
TABLES
  0
TABLE
  2
VPORT
  5
8
330
0
100
AcDbSymbolTable
 70
     1
  0
VPORT
  5
29
330
8
100
AcDbSymbolTableRecord
100
AcDbViewportTableRecord
  2
*Active
 70
     0
 10
0.0
 20
0.0
 11
1.0
 21
1.0
 12
145.5
 22
168.5
 13
0.0
 23
0.0
 14
10.0
 24
10.0
 15
10.0
 25
10.0
 16
0.0
 26
0.0
 36
1.0
 17
0.0
 27
0.0
 37
0.0
 40
337.0
 41
0.8635014837
 42
50.0
 43
0.0
 44
0.0
 50
0.0
 51
0.0
 71
     0
 72
  2000
 73
     1
 74
     3
 75
     0
 76
     0
 77
     0
 78
     0
281
     0
 65
     1
110
0.0
120
0.0
130
0.0
111
1.0
121
0.0
131
0.0
112
0.0
122
1.0
132
0.0
 79
     0
146
0.0
  0
ENDTAB
  0
TABLE
  2
LTYPE
  5
5
330
0
100
AcDbSymbolTable
 70
     6
  0
LTYPE
  5
14
330
5
100
AcDbSymbolTableRecord
100
AcDbLinetypeTableRecord
  2
ByBlock
 70
     0
  3

 72
    65
 73
     0
 40
0.0
  0
LTYPE
  5
15
330
5
100
AcDbSymbolTableRecord
100
AcDbLinetypeTableRecord
  2
ByLayer
 70
     0
  3

 72
    65
 73
     0
 40
0.0
  0
LTYPE
  5
16
330
5
100
AcDbSymbolTableRecord
100
AcDbLinetypeTableRecord
  2
Continuous
 70
     0
  3
Solid line
 72
    65
 73
     0
 40
0.0
  0
LTYPE
  5
6E
330
5
100
AcDbSymbolTableRecord
100
AcDbLinetypeTableRecord
  2
HIDDEN
 70
     0
  3
Hidden __ __ __ __ __ __ __ __ __ __ __ __ __ __
 72
    65
 73
     2
 40
1.905
 49
1.27
 74
     0
 49
-0.635
 74
     0
  0
LTYPE
  5
6F
330
5
100
AcDbSymbolTableRecord
100
AcDbLinetypeTableRecord
  2
PHANTOM
 70
     0
  3
Phantom ______  __  __  ______  __  __  ______
 72
    65
 73
     6
 40
12.7
 49
6.35
 74
     0
 49
-1.27
 74
     0
 49
1.27
 74
     0
 49
-1.27
 74
     0
 49
1.27
 74
     0
 49
-1.27
 74
     0
  0
LTYPE
  5
70
330
5
100
AcDbSymbolTableRecord
100
AcDbLinetypeTableRecord
  2
CENTER
 70
     0
  3
Center ____ _ ____ _ ____ _ ____ _ ____ _ ____
 72
    65
 73
     4
 40
10.16
 49
6.35
 74
     0
 49
-1.27
 74
     0
 49
1.27
 74
     0
 49
-1.27
 74
     0
  0
LTYPE
  5
71
330
5
100
AcDbSymbolTableRecord
100
AcDbLinetypeTableRecord
  2
CENTERX2
 70
     0
  3
Center (2x) ________  __  ________  __  _____
 72
    65
 73
     4
 40
20.32
 49
12.7
 74
     0
 49
-2.54
 74
     0
 49
2.54
 74
     0
 49
-2.54
 74
     0
  0
LTYPE
  5
72
330
5
100
AcDbSymbolTableRecord
100
AcDbLinetypeTableRecord
  2
DOT2
 70
     0
  3
Dot (.5x) ........................................
 72
    65
 73
     2
 40
0.635
 49
0.0
 74
     0
 49
-0.635
 74
     0
  0
ENDTAB
  0
TABLE
  2
LAYER
  5
2
330
0
100
AcDbSymbolTable
 70
     2
  0
LAYER
  5
10
330
2
100
AcDbSymbolTableRecord
100
AcDbLayerTableRecord
  2
0
 70
     0
 62
     7
  6
Continuous
370
    -3
390
F
  0
LAYER
  5
73
330
2
100
AcDbSymbolTableRecord
100
AcDbLayerTableRecord
  2
FORMAT
 70
     0
 62
     7
  6
Continuous
370
    -3
390
F
  0
ENDTAB
  0
TABLE
  2
STYLE
  5
3
330
0
100
AcDbSymbolTable
 70
     2
  0
STYLE
  5
11
330
3
100
AcDbSymbolTableRecord
100
AcDbTextStyleTableRecord
  2
Standard
 70
     0
 40
0.0
 41
1.0
 50
0.0
 71
     0
 42
3.5
  3
txt
  4

  0
STYLE
  5
74
330
3
100
AcDbSymbolTableRecord
100
AcDbTextStyleTableRecord
  2
SLDTEXTSTYLE0
 70
     0
 40
0.0
 41
0.605
 50
0.0
 71
     0
 42
3.5
  3
TXT
  4

  0
ENDTAB
  0
TABLE
  2
VIEW
  5
6
330
0
100
AcDbSymbolTable
 70
     0
  0
ENDTAB
  0
TABLE
  2
UCS
  5
7
330
0
100
AcDbSymbolTable
 70
     0
  0
ENDTAB
  0
TABLE
  2
APPID
  5
9
330
0
100
AcDbSymbolTable
 70
     1
  0
APPID
  5
12
330
9
100
AcDbSymbolTableRecord
100
AcDbRegAppTableRecord
  2
ACAD
 70
     0
  0
ENDTAB
  0
TABLE
  2
DIMSTYLE
  5
A
330
0
100
AcDbSymbolTable
 70
     1
100
AcDbDimStyleTable
  0
DIMSTYLE
105
27
330
A
100
AcDbSymbolTableRecord
100
AcDbDimStyleTableRecord
  2
ISO-25
 70
     0
 41
2.5
 42
0.625
 43
3.75
 44
1.25
 73
     0
 74
     0
 77
     1
 78
     8
140
2.5
141
2.5
143
0.0393700787
147
0.625
171
     3
172
     1
178
     0
271
     2
272
     2
274
     3
278
    44
283
     0
284
     8
340
11
  0
ENDTAB
  0
TABLE
  2
BLOCK_RECORD
  5
1
330
0
100
AcDbSymbolTable
 70
     1
  0
BLOCK_RECORD
  5
1F
330
1
100
AcDbSymbolTableRecord
100
AcDbBlockTableRecord
  2
*Model_Space
340
22
  0
BLOCK_RECORD
  5
1B
330
1
100
AcDbSymbolTableRecord
100
AcDbBlockTableRecord
  2
*Paper_Space
340
1E
  0
BLOCK_RECORD
  5
23
330
1
100
AcDbSymbolTableRecord
100
AcDbBlockTableRecord
  2
*Paper_Space0
340
26
  0
ENDTAB
  0
ENDSEC
  0
SECTION
  2
BLOCKS
  0
BLOCK
  5
20
330
1F
100
AcDbEntity
  8
0
100
AcDbBlockBegin
  2
*Model_Space
 70
     0
 10
0.0
 20
0.0
 30
0.0
  3
*Model_Space
  1

  0
ENDBLK
  5
21
330
1F
100
AcDbEntity
  8
0
100
AcDbBlockEnd
  0
BLOCK
  5
1C
330
1B
100
AcDbEntity
 67
     1
  8
0
100
AcDbBlockBegin
  2
*Paper_Space
 70
     0
 10
0.0
 20
0.0
 30
0.0
  3
*Paper_Space
  1

  0
ENDBLK
  5
1D
330
1B
100
AcDbEntity
 67
     1
  8
0
100
AcDbBlockEnd
  0
BLOCK
  5
24
330
23
100
AcDbEntity
  8
0
100
AcDbBlockBegin
  2
*Paper_Space0
 70
     0
 10
0.0
 20
0.0
 30
0.0
  3
*Paper_Space0
  1

  0
ENDBLK
  5
25
330
23
100
AcDbEntity
  8
0
100
AcDbBlockEnd
  0
ENDSEC
  0
SECTION
  2
ENTITIES
  0
MTEXT
  5
75
330
1F
100
AcDbEntity
  8
0
  6
Continuous
 62
     7
370
     0
100
AcDbMText
 10
7.2782978723
 20
22.1884790273
 30
0.0
 40
10.0
 41
0.0
 71
     1
 72
     1
  1
1:1
  7
SLDTEXTSTYLE0
 73
     1
 44
1.0
  0
LINE
  5
76
330
1F
100
AcDbEntity
  8
0
  6
Continuous
 62
     7
370
    30
100
AcDbLine
 10
153.0
 20
216.0908374948
 30
0.0
 11
153.0
 21
239.0401966251
 31
0.0
  0
LINE
  5
77
330
1F
100
AcDbEntity
  8
0
  6
Continuous
 62
     7
370
    30
100
AcDbLine
 10
138.0
 20
241.0757064508
 30
0.0
 11
138.0
 21
216.0908374948
 31
0.0
  0
ARC
  5
78
330
1F
100
AcDbEntity
  8
0
  6
Continuous
 62
     7
370
    30
100
AcDbCircle
 10
156.6278641091
 20
186.5908374948
 30
0.0
 40
0.5000000000000259
100
AcDbArc
 50
270.0
 51
2.4812648012
  0
ARC
  5
79
330
1F
100
AcDbEntity
  8
0
  6
Continuous
 62
     7
370
    30
100
AcDbCircle
 10
134.3721358909
 20
186.5908374948
 30
0.0
 40
0.5
100
AcDbArc
 50
177.5187351988
 51
270.0
  0
LINE
  5
7A
330
1F
100
AcDbEntity
  8
0
  6
Continuous
 62
     7
370
    30
100
AcDbLine
 10
157.1273953247
 20
186.6124838475
 30
0.0
 11
155.8707286581
 21
215.6124838475
 31
0.0
  0
LINE
  5
7B
330
1F
100
AcDbEntity
  8
0
  6
Continuous
 62
     7
370
    30
100
AcDbLine
 10
135.1292713419
 20
215.6124838475
 30
0.0
 11
133.8726046753
 21
186.6124838475
 31
0.0
  0
ARC
  5
7C
330
1F
100
AcDbEntity
  8
0
  6
Continuous
 62
     7
370
    30
100
AcDbCircle
 10
135.6288025576
 20
215.5908374948
 30
0.0
 40
0.5000000000000012
100
AcDbArc
 50
90.0
 51
177.5187351988
  0
ARC
  5
7D
330
1F
100
AcDbEntity
  8
0
  6
Continuous
 62
     7
370
    30
100
AcDbCircle
 10
155.3711974424
 20
215.5908374948
 30
0.0
 40
0.5
100
AcDbArc
 50
2.4812648012
 51
90.0
  0
ARC
  5
7E
330
1F
100
AcDbEntity
  8
0
  6
Continuous
 62
     7
370
    30
100
AcDbCircle
 10
134.3721358909
 20
309.4091625052
 30
0.0
 40
0.5
100
AcDbArc
 50
90.0
 51
182.4812648012
  0
ARC
  5
7F
330
1F
100
AcDbEntity
  8
0
  6
Continuous
 62
     7
370
    30
100
AcDbCircle
 10
156.6278641091
 20
309.4091625052
 30
0.0
 40
0.5000000000000259
100
AcDbArc
 50
357.5187351988
 51
90.0
  0
LINE
  5
80
330
1F
100
AcDbEntity
  8
0
  6
Continuous
 62
     7
370
    30
100
AcDbLine
 10
133.8726046753
 20
309.3875161525
 30
0.0
 11
135.1292713419
 21
280.3875161525
 31
0.0
  0
LINE
  5
81
330
1F
100
AcDbEntity
  8
0
  6
Continuous
 62
     7
370
    30
100
AcDbLine
 10
155.8707286581
 20
280.3875161525
 30
0.0
 11
157.1273953247
 21
309.3875161525
 31
0.0
  0
ARC
  5
82
330
1F
100
AcDbEntity
  8
0
  6
Continuous
 62
     7
370
    30
100
AcDbCircle
 10
155.3711974424
 20
280.4091625052
 30
0.0
 40
0.5
100
AcDbArc
 50
270.0
 51
357.5187351988
  0
ARC
  5
83
330
1F
100
AcDbEntity
  8
0
  6
Continuous
 62
     7
370
    30
100
AcDbCircle
 10
135.6288025576
 20
280.4091625052
 30
0.0
 40
0.5
100
AcDbArc
 50
182.4812648012
 51
270.0
  0
LINE
  5
84
330
1F
100
AcDbEntity
  8
0
  6
Continuous
 62
     7
370
    30
100
AcDbLine
 10
138.0
 20
279.9091625052
 30
0.0
 11
138.0
 21
256.9596775708
 31
0.0
  0
LINE
  5
85
330
1F
100
AcDbEntity
  8
0
  6
Continuous
 62
     7
370
    30
100
AcDbLine
 10
153.0
 20
254.9242935492
 30
0.0
 11
153.0
 21
279.9091625052
 31
0.0
  0
SPLINE
  5
86
330
1F
100
AcDbEntity
  8
0
  6
Continuous
 62
     7
370
    30
100
AcDbSpline
210
0.0
220
0.0
230
1.0
 70
     8
 71
     3
 72
   195
 73
   191
 74
     0
 42
0.000000001
 43
0.00000001
 40
0.0
 40
0.0
 40
0.0
 40
0.0
 40
0.0049039693092032
 40
0.00980793896008
 40
0.0147183570497044
 40
0.0196287761565194
 40
0.0261971076224537
 40
0.032766396850688
 40
0.0393347500792355
 40
0.0459370014075889
 40
0.0525401950526975
 40
0.0591424796214493
 40
0.0657635161959011
 40
0.0723854586970767
 40
0.0790065349756525
 40
0.0856590063368618
 40
0.0923123442482339
 40
0.0989648561943302
 40
0.104398010821226
 40
0.1098316098240095
 40
0.1152647800904569
 40
0.1207134647096756
 40
0.1261625777004437
 40
0.1316112738105504
 40
0.1370760659592671
 40
0.1425412761510044
 40
0.148006073361528
 40
0.1534858263440718
 40
0.1589659953717953
 40
0.1644457442876428
 40
0.1699417296740063
 40
0.1754381416425499
 40
0.1809341104408012
 40
0.1864461492504
 40
0.1919586420204482
 40
0.1974706472842098
 40
0.2047512631447559
 40
0.2120366495422473
 40
0.2168995089013668
 40
0.221762755129116
 40
0.2266255669294084
 40
0.2315041376108091
 40
0.2363831631652787
 40
0.2412616673984761
 40
0.2461493321453818
 40
0.251037543287937
 40
0.2559251199245181
 40
0.2608357380957656
 40
0.2657470288553636
 40
0.2706575351836338
 40
0.2740855669842299
 40
0.2775135902560052
 40
0.2809463502206813
 40
0.2843791011978868
 40
0.2889800524950086
 40
0.2935818057896941
 40
0.2981826538069258
 40
0.3028163175120482
 40
0.3074509363340409
 40
0.3120845047193421
 40
0.3155846781425668
 40
0.3190848445949938
 40
0.3225926224974123
 40
0.3261004043103244
 40
0.3295244471100341
 40
0.3329485042972219
 40
0.3363789420676764
 40
0.3398093948284778
 40
0.3444096284353901
 40
0.3490106824517051
 40
0.3536110790116571
 40
0.3582353889601349
 40
0.3628603216093441
 40
0.3674847723570257
 40
0.3709650254837494
 40
0.374445289302832
 40
0.3814111065456544
 40
0.3854875602242268
 40
0.3895640283476563
 40
0.3936434392862808
 40
0.3977228618526298
 40
0.4059011298361612
 40
0.4140795250566006
 40
0.4222710576413016
 40
0.4304626496478109
 40
0.4386711490537268
 40
0.4468796463613682
 40
0.4550979273242015
 40
0.4633161405036054
 40
0.4688080797626883
 40
0.4743002732009001
 40
0.4797921081442058
 40
0.4852970855790175
 40
0.4908024636909147
 40
0.4963072566479962
 40
0.5004509480828627
 40
0.5045946153464697
 40
0.5087435597093876
 40
0.5128924739399446
 40
0.5172715560306551
 40
0.5216506312599515
 40
0.5260381599582459
 40
0.5304256836306591
 40
0.5363162453266637
 40
0.5422081414845475
 40
0.5480986791851553
 40
0.5540384225858688
 40
0.5599795589779931
 40
0.5659193248946719
 40
0.5704072379722785
 40
0.5748951560625977
 40
0.5793922809470778
 40
0.583889412449232
 40
0.5882609751336075
 40
0.5926325447697521
 40
0.5970120076509671
 40
0.6013914782306891
 40
0.6072658322793427
 40
0.6131413070400262
 40
0.6190157532387209
 40
0.6249275530379487
 40
0.6308403737085412
 40
0.6367522647528602
 40
0.6412088276389586
 40
0.6456653982430571
 40
0.650127936028316
 40
0.65459048095989
 40
0.6597865336890824
 40
0.6649831320216012
 40
0.6701792247720088
 40
0.6753936489338569
 40
0.680608573532923
 40
0.6858230305111026
 40
0.6910555301974064
 40
0.6962884939451759
 40
0.7015210195141519
 40
0.7067694236872548
 40
0.7120182635451437
 40
0.7172666872993366
 40
0.7225312853261403
 40
0.7277962985212213
 40
0.7330609106705834
 40
0.7383400452215767
 40
0.7436195808044906
 40
0.7488987248631738
 40
0.7541819347493901
 40
0.7594655349448665
 40
0.7647487504966454
 40
0.7700458854887245
 40
0.7753434070282523
 40
0.7806405446450922
 40
0.7859525103605896
 40
0.7912648628644791
 40
0.7965768288030818
 40
0.8019027778355798
 40
0.8072291167327249
 40
0.8125550641426158
 40
0.8178961162292825
 40
0.8232375638391558
 40
0.8285786129402497
 40
0.8339340739450427
 40
0.8392899377161486
 40
0.8446453947949932
 40
0.8503950138027018
 40
0.8561451376640442
 40
0.8618947507427714
 40
0.8676628470415089
 40
0.8734314608541839
 40
0.8791995508840997
 40
0.8850140049661653
 40
0.8908289974204862
 40
0.8966434451793639
 40
0.90247760529735
 40
0.908312317456165
 40
0.9141464716645694
 40
0.9200285159080052
 40
0.9259111336059271
 40
0.9317931725461549
 40
0.9376961602120094
 40
0.9435997342479183
 40
0.9495027175727018
 40
0.9545355714130288
 40
0.9595684247378987
 40
0.9646071720456723
 40
0.9696459189446966
 40
0.9763828511819236
 40
0.983120669669697
 40
0.9898575992570129
 40
0.9966267626543152
 40
1.0
 40
1.0
 40
1.0
 40
1.0
 10
138.0
 20
241.0757064508214
 30
0.0
 10
138.0001860079032
 20
241.0758042949159
 30
0.0
 10
138.0005580237226
 20
241.0759999831118
 30
0.0
 10
138.0035665709764
 20
241.0775805226243
 30
0.0
 10
138.0083716077407
 20
241.0801021407119
 30
0.0
 10
138.0159100843532
 20
241.0840495181029
 30
0.0
 10
138.0269646606567
 20
241.0898233689573
 30
0.0
 10
138.0424778701717
 20
241.0978857485918
 30
0.0
 10
138.061446855197
 20
241.1076837401412
 30
0.0
 10
138.0838829682891
 20
241.1191941806726
 30
0.0
 10
138.1097800737438
 20
241.132365769668
 30
0.0
 10
138.1391055453897
 20
241.1471339134819
 30
0.0
 10
138.1718518896532
 20
241.1634460404873
 30
0.0
 10
138.2079987714133
 20
241.1812249924128
 30
0.0
 10
138.247550526804
 20
241.2004056366454
 30
0.0
 10
138.2905016868101
 20
241.2209162847485
 30
0.0
 10
138.3368366633663
 20
241.2426621371474
 30
0.0
 10
138.3834269855856
 20
241.2641153439724
 30
0.0
 10
138.429583604885
 20
241.2849718663935
 30
0.0
 10
138.4746842430223
 20
241.304981383447
 30
0.0
 10
138.5219706232075
 20
241.3255521274838
 30
0.0
 10
138.5714354555698
 20
241.3466228950197
 30
0.0
 10
138.6230693811697
 20
241.3681234542005
 30
0.0
 10
138.6768635652546
 20
241.3899838492476
 30
0.0
 10
138.7328117646708
 20
241.4121338552222
 30
0.0
 10
138.790906384947
 20
241.4344938859734
 30
0.0
 10
138.8511340169756
 20
241.4569822989583
 30
0.0
 10
138.9134891209801
 20
241.4795189978772
 30
0.0
 10
138.9779651843459
 20
241.5020138234837
 30
0.0
 10
139.0445592516224
 20
241.5243779058156
 30
0.0
 10
139.1132675113285
 20
241.54652002047
 30
0.0
 10
139.1840850413536
 20
241.5683375591111
 30
0.0
 10
139.2570039896297
 20
241.5897272423294
 30
0.0
 10
139.3320208690623
 20
241.6105847281112
 30
0.0
 10
139.4091303402269
 20
241.6307925132356
 30
0.0
 10
139.4967088529534
 20
241.6522914872597
 30
0.0
 10
139.5955828043219
 20
241.6745984325353
 30
0.0
 10
139.6943288194401
 20
241.6945165397467
 30
0.0
 10
139.7830027171948
 20
241.7105381028568
 30
0.0
 10
139.8605569389216
 20
241.7232064226641
 30
0.0
 10
139.939688645807
 20
241.734715016487
 30
0.0
 10
140.0203879211682
 20
241.7449578261275
 30
0.0
 10
140.1026380733265
 20
241.7538192565573
 30
0.0
 10
140.1863807836677
 20
241.7611812054006
 30
0.0
 10
140.2715944438719
 20
241.7669264315451
 30
0.0
 10
140.3582474640713
 20
241.7709306632358
 30
0.0
 10
140.4463877735348
 20
241.7730720962776
 30
0.0
 10
140.5359839682052
 20
241.7732149986242
 30
0.0
 10
140.6269893045674
 20
241.7712206751299
 30
0.0
 10
140.7099282340888
 20
241.7673885632371
 30
0.0
 10
140.7843612761827
 20
241.7623596427207
 30
0.0
 10
140.8499821994724
 20
241.7567503311564
 30
0.0
 10
140.9161436578043
 20
241.7498806802667
 30
0.0
 10
140.9903798446274
 20
241.740779801975
 30
0.0
 10
141.0728349917955
 20
241.728818521773
 30
0.0
 10
141.16364080124
 20
241.7132406914047
 30
0.0
 10
141.2553035568527
 20
241.6950172920966
 30
0.0
 10
141.3477356961046
 20
241.6740280372814
 30
0.0
 10
141.4408323508096
 20
241.6501813653591
 30
0.0
 10
141.5266471995085
 20
241.6256341236221
 30
0.0
 10
141.604995345222
 20
241.6011011113217
 30
0.0
 10
141.6758339188198
 20
241.5772435355635
 30
0.0
 10
141.7467387173735
 20
241.551636954091
 30
0.0
 10
141.8170947322416
 20
241.5245021297407
 30
0.0
 10
141.886809782637
 20
241.4959358439414
 30
0.0
 10
141.9559019460781
 20
241.4660331061748
 30
0.0
 10
142.024906753338
 20
241.4346119023519
 30
0.0
 10
142.1016317909611
 20
241.3979946615596
 30
0.0
 10
142.1859449041992
 20
241.3556510740515
 30
0.0
 10
142.2777164333106
 20
241.3070553882694
 30
0.0
 10
142.3692705756556
 20
241.2561894862853
 30
0.0
 10
142.4605841944554
 20
241.2031854338536
 30
0.0
 10
142.5516500047561
 20
241.1481824384879
 30
0.0
 10
142.6348340199247
 20
241.0960970421616
 30
0.0
 10
142.7102457036918
 20
241.0475072714425
 30
0.0
 10
142.8006058723845
 20
240.9879484853341
 30
0.0
 10
142.8943978124873
 20
240.9241564068912
 30
0.0
 10
142.9915991016262
 20
240.8561473877226
 30
0.0
 10
143.070004446938
 20
240.8002470959746
 30
0.0
 10
143.1482123926211
 20
240.7435381214468
 30
0.0
 10
143.2523836188657
 20
240.6668577270222
 30
0.0
 10
143.3822838549955
 20
240.569320120961
 30
0.0
 10
143.5378985176625
 20
240.4501343136679
 30
0.0
 10
143.6934348780968
 20
240.3294010775237
 30
0.0
 10
143.8492752431383
 20
240.2075488606897
 30
0.0
 10
144.0056240850303
 20
240.0851454444197
 30
0.0
 10
144.1628497107454
 20
239.9626434936262
 30
0.0
 10
144.3211504861311
 20
239.8406305627814
 30
0.0
 10
144.4631955992902
 20
239.7330145671054
 30
0.0
 10
144.5886562339332
 20
239.6398218517384
 30
0.0
 10
144.6971450757313
 20
239.5607543502538
 30
0.0
 10
144.8066593438296
 20
239.482700992081
 30
0.0
 10
144.9172950619258
 20
239.4058499616913
 30
0.0
 10
145.0291542902332
 20
239.3304176184497
 30
0.0
 10
145.1329218531772
 20
239.2627603820709
 30
0.0
 10
145.2283253135022
 20
239.2025940917805
 30
0.0
 10
145.3151319414745
 20
239.1495436405488
 30
0.0
 10
145.4027893785742
 20
239.0977845035881
 30
0.0
 10
145.4929650961062
 20
239.0465045024618
 30
0.0
 10
145.5857076666449
 20
238.9959584966121
 30
0.0
 10
145.6810980449193
 20
238.946255214578
 30
0.0
 10
145.7774406137999
 20
238.8983281034175
 30
0.0
 10
145.8857910841367
 20
238.8469340814041
 30
0.0
 10
146.0064022387967
 20
238.7929401824186
 30
0.0
 10
146.1395177841224
 20
238.7373015339086
 30
0.0
 10
146.2741633372707
 20
238.6849133817802
 30
0.0
 10
146.4102107016138
 20
238.635840105169
 30
0.0
 10
146.5475098022073
 20
238.590091609163
 30
0.0
 10
146.6742862647715
 20
238.5512338997721
 30
0.0
 10
146.7902199732423
 20
238.5183442882964
 30
0.0
 10
146.8951952832003
 20
238.4905663200714
 30
0.0
 10
147.0004298943392
 20
238.4646844917698
 30
0.0
 10
147.1048760626911
 20
238.4408965415634
 30
0.0
 10
147.2083943277576
 20
238.4191317681727
 30
0.0
 10
147.3109856988156
 20
238.3992849838493
 30
0.0
 10
147.4135743316671
 20
238.3811210255256
 30
0.0
 10
147.5277690831956
 20
238.3627247992421
 30
0.0
 10
147.653388864368
 20
238.3447782969186
 30
0.0
 10
147.7902099450374
 20
238.3279801091233
 30
0.0
 10
147.9267615495521
 20
238.3138573411009
 30
0.0
 10
148.0629233079225
 20
238.3023255217822
 30
0.0
 10
148.1985862725831
 20
238.2932825511803
 30
0.0
 10
148.3223054571013
 20
238.2871816271745
 30
0.0
 10
148.4342374624268
 20
238.2832981849963
 30
0.0
 10
148.5346331673067
 20
238.2810386794445
 30
0.0
 10
148.6344432857131
 20
238.2799735845435
 30
0.0
 10
148.7390685514614
 20
238.2800582012877
 30
0.0
 10
148.848297403653
 20
238.2814628651217
 30
0.0
 10
148.9619300046786
 20
238.2843439520459
 30
0.0
 10
149.0746621423884
 20
238.2885600162742
 30
0.0
 10
149.1864467160247
 20
238.2940399034809
 30
0.0
 10
149.2972421891264
 20
238.300714371719
 30
0.0
 10
149.4070074922822
 20
238.3085128359809
 30
0.0
 10
149.5157021857584
 20
238.3173669759233
 30
0.0
 10
149.6232902005258
 20
238.3272117743253
 30
0.0
 10
149.7297231532011
 20
238.3379796408094
 30
0.0
 10
149.8349659664949
 20
238.3496058340808
 30
0.0
 10
149.9389870760917
 20
238.3620297247408
 30
0.0
 10
150.0417587912232
 20
238.3751901527668
 30
0.0
 10
150.1432492581212
 20
238.3890270352994
 30
0.0
 10
150.2434294096032
 20
238.4034846944775
 30
0.0
 10
150.342261717317
 20
238.4185051813462
 30
0.0
 10
150.4397169296207
 20
238.4340328935427
 30
0.0
 10
150.5357681071021
 20
238.4500167376502
 30
0.0
 10
150.6303274525834
 20
238.4663943197339
 30
0.0
 10
150.7233704360277
 20
238.4831138759728
 30
0.0
 10
150.8148747107249
 20
238.5001283453798
 30
0.0
 10
150.9048738101382
 20
238.5174014249856
 30
0.0
 10
150.9933405410641
 20
238.5348867357164
 30
0.0
 10
151.080249585868
 20
238.5525421483331
 30
0.0
 10
151.1655818575645
 20
238.5703262783728
 30
0.0
 10
151.2493099353241
 20
238.5881968141215
 30
0.0
 10
151.3314082861951
 20
238.6061155121397
 30
0.0
 10
151.4118485901221
 20
238.6240429889157
 30
0.0
 10
151.49060361033
 20
238.6419406610073
 30
0.0
 10
151.5676481639939
 20
238.6597738854165
 30
0.0
 10
151.6429636849807
 20
238.6775091724018
 30
0.0
 10
151.7165223176397
 20
238.6951114032242
 30
0.0
 10
151.7882984951698
 20
238.7125492531323
 30
0.0
 10
151.8582651608657
 20
238.7297906541542
 30
0.0
 10
151.9263946154082
 20
238.7468037606917
 30
0.0
 10
151.9926618053686
 20
238.7635604330028
 30
0.0
 10
152.0585633986584
 20
238.7804215992458
 30
0.0
 10
152.1239061769438
 20
238.797330913831
 30
0.0
 10
152.1884893187456
 20
238.8142291210689
 30
0.0
 10
152.2508276497867
 20
238.8307087516509
 30
0.0
 10
152.3108866262438
 20
238.8467379980777
 30
0.0
 10
152.3686362914939
 20
238.8622897275404
 30
0.0
 10
152.4241379830034
 20
238.8773613222379
 30
0.0
 10
152.4773443569285
 20
238.8919215197591
 30
0.0
 10
152.5282128479668
 20
238.9059433211313
 30
0.0
 10
152.5766349650464
 20
238.9193808367625
 30
0.0
 10
152.6225773716231
 20
238.9322089042082
 30
0.0
 10
152.6660126786147
 20
238.9444069976189
 30
0.0
 10
152.706981733522
 20
238.9559736719277
 30
0.0
 10
152.7454384228619
 20
238.9668833490878
 30
0.0
 10
152.7813428900366
 20
238.977114821093
 30
0.0
 10
152.8146132977226
 20
238.9866345339344
 30
0.0
 10
152.8452196550604
 20
238.9954237050291
 30
0.0
 10
152.873139352894
 20
239.0034682619191
 30
0.0
 10
152.8970852199233
 20
239.0103884923271
 30
0.0
 10
152.9174948481197
 20
239.0163006660252
 30
0.0
 10
152.9347945139077
 20
239.0213220754965
 30
0.0
 10
152.9500853078845
 20
239.0257680516194
 30
0.0
 10
152.9648549973336
 20
239.030069233131
 30
0.0
 10
152.9782020938413
 20
239.0339617604206
 30
0.0
 10
152.9891943142109
 20
239.0371720796811
 30
0.0
 10
152.9963673723287
 20
239.0392694007711
 30
0.0
 10
152.9998956602247
 20
239.0403010254371
 30
0.0
 10
152.999627714971
 20
239.0402226813881
 30
0.0
 10
152.9995385996857
 20
239.0401966251241
 30
0.0
  0
LINE
  5
87
330
1F
100
AcDbEntity
  8
0
  6
Continuous
 62
     7
370
    30
100
AcDbLine
 10
134.3721358909
 20
186.0908374948
 30
0.0
 11
156.6278641091
 21
186.0908374948
 31
0.0
  0
LINE
  5
88
330
1F
100
AcDbEntity
  8
0
  6
Continuous
 62
     7
370
    30
100
AcDbLine
 10
155.3711974424
 20
216.0908374948
 30
0.0
 11
135.6288025576
 21
216.0908374948
 31
0.0
  0
LINE
  5
89
330
1F
100
AcDbEntity
  8
0
  6
Continuous
 62
     7
370
    30
100
AcDbLine
 10
134.3721358909
 20
309.9091625052
 30
0.0
 11
156.6278641091
 21
309.9091625052
 31
0.0
  0
LINE
  5
8A
330
1F
100
AcDbEntity
  8
0
  6
Continuous
 62
     7
370
    30
100
AcDbLine
 10
155.3711974424
 20
279.9091625052
 30
0.0
 11
135.6288025576
 21
279.9091625052
 31
0.0
  0
LWPOLYLINE
  5
8B
330
1F
100
AcDbEntity
  8
0
  6
Continuous
 62
     7
370
    30
100
AcDbPolyline
 90
      188
 70
   128
 43
0.0
 10
138.0000320045
 20
256.9596775708
 10
138.0012167533
 20
256.9600242005
 10
138.0049941937
 20
256.9611287948
 10
138.011330733
 20
256.9629806439
 10
138.0203013808
 20
256.9656004644
 10
138.0318638845
 20
256.9689734506
 10
138.0460107355
 20
256.9730946329
 10
138.0627990383
 20
256.9779775023
 10
138.0821778607
 20
256.9836027471
 10
138.1041346692
 20
256.9899619062
 10
138.1274736476
 20
256.9967047658
 10
138.1531431819
 20
257.004100588
 10
138.1811284049
 20
257.0121390442
 10
138.2115174068
 20
257.0208389265
 10
138.2442174721
 20
257.0301658182
 10
138.279209934
 20
257.0401062658
 10
138.316718775
 20
257.0507149549
 10
138.3565251493
 20
257.0619194487
 10
138.3986066383
 20
257.0737028444
 10
138.4430896616
 20
257.0860891879
 10
138.4898352864
 20
257.0990266833
 10
138.5388178237
 20
257.1124949051
 10
138.5903412013
 20
257.1265626828
 10
138.6440991973
 20
257.1411295847
 10
138.7000629447
 20
257.1561712206
 10
138.7583959658
 20
257.1717137639
 10
138.8189161466
 20
257.1876886505
 10
138.8815920506
 20
257.2040674575
 10
138.9463800523
 20
257.2208181118
 10
139.0132886502
 20
257.2379197593
 10
139.0822845486
 20
257.2553399963
 10
139.153563518
 20
257.2731025563
 10
139.2269077509
 20
257.2911246641
 10
139.3022820844
 20
257.3093693218
 10
139.3801379816
 20
257.3279138664
 10
139.4600131153
 20
257.3466129015
 10
139.5418703231
 20
257.3654240464
 10
139.6259418376
 20
257.3843643113
 10
139.7119716052
 20
257.4033361304
 10
139.7999208304
 20
257.4222915858
 10
139.8903171487
 20
257.4412996061
 10
139.9826200837
 20
257.4601975562
 10
140.076788649
 20
257.478930903
 10
140.1730972597
 20
257.4975041477
 10
140.271246265
 20
257.5158050338
 10
140.3711923241
 20
257.5337721668
 10
140.4744708074
 20
257.5516102913
 10
140.5795621889
 20
257.5689792864
 10
140.6864180969
 20
257.5858075961
 10
140.7953784679
 20
257.6020790623
 10
140.9060727419
 20
257.6176631588
 10
141.0184474514
 20
257.6324795752
 10
141.133232355
 20
257.6465391879
 10
141.2496714724
 20
257.6596576737
 10
141.3677032702
 20
257.6717445163
 10
141.4877548695
 20
257.6827503241
 10
141.6093531228
 20
257.6925325307
 10
141.7324255408
 20
257.7009909698
 10
141.8578428216
 20
257.7080719519
 10
141.9846819167
 20
257.7136033702
 10
142.112854167
 20
257.7174751601
 10
142.2429222027
 20
257.7195825866
 10
142.3742398377
 20
257.7197886625
 10
142.5066975737
 20
257.7179767638
 10
142.6063431374
 20
257.7152363926
 10
142.7065565182
 20
257.7112551781
 10
142.8074417389
 20
257.7059752917
 10
142.9088198823
 20
257.6993521341
 10
143.0453909578
 20
257.6882820161
 10
143.1826900334
 20
257.67459271
 10
143.3205550623
 20
257.658175576
 10
143.4598266609
 20
257.6387747059
 10
143.5994724868
 20
257.6163851687
 10
143.7392995667
 20
257.5909162995
 10
143.8449195149
 20
257.5695856647
 10
143.9505139815
 20
257.5464080957
 10
144.0562286176
 20
257.5212980191
 10
144.1617851627
 20
257.4942716307
 10
144.2650405501
 20
257.4658930422
 10
144.3680141347
 20
257.4356288331
 10
144.470850311
 20
257.403394474
 10
144.5732732671
 20
257.3692392442
 10
144.7100620755
 20
257.3203299508
 10
144.8458675758
 20
257.2679281942
 10
144.9804766044
 20
257.2120678869
 10
145.1148979475
 20
257.1522325824
 10
145.2478807862
 20
257.0889146536
 10
145.3792334128
 20
257.0221949745
 10
145.4773197186
 20
256.9695580631
 10
145.5743874431
 20
256.9150575456
 10
145.6706121207
 20
256.8586967382
 10
145.7658545302
 20
256.8007345701
 10
145.889286521
 20
256.7225789644
 10
146.011223384
 20
256.64222659
 10
146.1317499956
 20
256.5599869207
 10
146.251410899
 20
256.4758346708
 10
146.3699168302
 20
256.3902949967
 10
146.4873764198
 20
256.3036195736
 10
146.6041071276
 20
256.2158952814
 10
146.7200533501
 20
256.1274658783
 10
146.8353290503
 20
256.0385474142
 10
147.0075231131
 20
255.9044868325
 10
147.1788995689
 20
255.7704361597
 10
147.2929763489
 20
255.6813357686
 10
147.4069830506
 20
255.5927291141
 10
147.5210185673
 20
255.5048265972
 10
147.6354126101
 20
255.4176646898
 10
147.750054633
 20
255.3316256092
 10
147.865023308
 20
255.2469474869
 10
147.9517166225
 20
255.1843300034
 10
148.0386827601
 20
255.1227165005
 10
148.1260383085
 20
255.0621574173
 10
148.213724675
 20
255.0028284883
 10
148.2898438725
 20
254.9526017229
 10
148.3662389916
 20
254.9034637539
 10
148.4430064093
 20
254.8554427847
 10
148.5200636328
 20
254.8086807021
 10
148.6237585871
 20
254.7481575884
 10
148.7279825798
 20
254.6902552921
 10
148.8326705862
 20
254.6352148527
 10
148.9386268711
 20
254.5828583766
 10
149.0449959979
 20
254.5338320283
 10
149.1516400632
 20
254.4883797168
 10
149.2324881906
 20
254.4564861584
 10
149.3133972645
 20
254.426821586
 10
149.3945268685
 20
254.3993333506
 10
149.4755640693
 20
254.3740783356
 10
149.5545111964
 20
254.351547481
 10
149.6332235738
 20
254.3310770301
 10
149.7118259748
 20
254.3125828662
 10
149.7900589542
 20
254.2960694542
 10
149.8945149908
 20
254.2769069463
 10
149.9980807442
 20
254.2610873506
 10
150.1005821394
 20
254.2484726719
 10
150.2027261647
 20
254.2388474081
 10
150.3036158715
 20
254.2321579844
 10
150.4031213177
 20
254.228243447
 10
150.4772355255
 20
254.2270269041
 10
150.5504969557
 20
254.2272251214
 10
150.6229830747
 20
254.2287714779
 10
150.6945628601
 20
254.2315973696
 10
150.7721931849
 20
254.2360998721
 10
150.8486768029
 20
254.2419778009
 10
150.9240971886
 20
254.2491550753
 10
150.9983260912
 20
254.2575394498
 10
151.0958375622
 20
254.2705135116
 10
151.1911599957
 20
254.2853151751
 10
151.2842396003
 20
254.3017565483
 10
151.3754512969
 20
254.3197409073
 10
151.4643756135
 20
254.3390345482
 10
151.5509741139
 20
254.3594698846
 10
151.6355461404
 20
254.3809708577
 10
151.7177599763
 20
254.403317962
 10
151.7975845766
 20
254.426362409
 10
151.8752764706
 20
254.4500479163
 10
151.9505485808
 20
254.4741670813
 10
152.0233722549
 20
254.4985872549
 10
152.1139924482
 20
254.5304471051
 10
152.2004618223
 20
254.5623546856
 10
152.2829402247
 20
254.594143576
 10
152.3611722956
 20
254.6255062926
 10
152.4111438183
 20
254.6461498188
 10
152.4591851074
 20
254.6664420495
 10
152.5052761075
 20
254.6863191918
 10
152.549519199
 20
254.7057728335
 10
152.5917808492
 20
254.7246959921
 10
152.6320405792
 20
254.7430309716
 10
152.6704464504
 20
254.7607996706
 10
152.7068102743
 20
254.7778736554
 10
152.7411117627
 20
254.7942013917
 10
152.7734294232
 20
254.8097803142
 10
152.8036493364
 20
254.8245199816
 10
152.8317524618
 20
254.8383759389
 10
152.8518865646
 20
254.8483902265
 10
152.8707602174
 20
254.8578439634
 10
152.8883815296
 20
254.8667281474
 10
152.9047291157
 20
254.8750200447
 10
152.9245894015
 20
254.8851575729
 10
152.9421530939
 20
254.8941819874
 10
152.9574063127
 20
254.9020643849
 10
152.9703811535
 20
254.9088011482
 10
152.9810145101
 20
254.9143449062
 10
152.9892974765
 20
254.9186776877
 10
152.9939766474
 20
254.9211304155
 10
152.9973209342
 20
254.9228858735
 10
152.9993301243
 20
254.9239414136
 10
153.0
 20
254.9242935492
 10
153.0
 20
254.9242935492
  0
LINE
  5
8C
330
1F
100
AcDbEntity
  8
0
  6
Continuous
 62
     8
370
     0
100
AcDbLine
 10
157.1273953247
 20
186.6124838475
 30
0.0
 11
133.8726046753
 21
186.6124838475
 31
0.0
  0
LINE
  5
8D
330
1F
100
AcDbEntity
  8
0
  6
Continuous
 62
     8
370
     0
100
AcDbLine
 10
135.1292713419
 20
215.6124838475
 30
0.0
 11
155.8707286581
 21
215.6124838475
 31
0.0
  0
LINE
  5
8E
330
1F
100
AcDbEntity
  8
0
  6
Continuous
 62
     8
370
     0
100
AcDbLine
 10
157.1273953247
 20
309.3875161525
 30
0.0
 11
133.8726046753
 21
309.3875161525
 31
0.0
  0
LINE
  5
8F
330
1F
100
AcDbEntity
  8
0
  6
Continuous
 62
     8
370
     0
100
AcDbLine
 10
135.1292713419
 20
280.3875161525
 30
0.0
 11
155.8707286581
 21
280.3875161525
 31
0.0
  0
LINE
  5
90
330
1F
100
AcDbEntity
  8
0
  6
Continuous
 62
     7
370
    30
100
AcDbLine
 10
260.0
 20
216.0908374948
 30
0.0
 11
260.0
 21
239.0430838775
 31
0.0
  0
LINE
  5
91
330
1F
100
AcDbEntity
  8
0
  6
Continuous
 62
     7
370
    30
100
AcDbLine
 10
245.0
 20
239.0431427822
 30
0.0
 11
245.0
 21
216.0908374948
 31
0.0
  0
LINE
  5
92
330
1F
100
AcDbEntity
  8
0
  6
Continuous
 62
     7
370
    30
100
AcDbLine
 10
258.087057947
 20
241.7730610909
 30
0.0
 11
246.9130514687
 21
241.7730610909
 31
0.0
  0
ARC
  5
93
330
1F
100
AcDbEntity
  8
0
  6
Continuous
 62
     7
370
    30
100
AcDbCircle
 10
263.6278641091
 20
186.5908374948
 30
0.0
 40
0.5
100
AcDbArc
 50
270.0
 51
2.4812648012
  0
ARC
  5
94
330
1F
100
AcDbEntity
  8
0
  6
Continuous
 62
     7
370
    30
100
AcDbCircle
 10
241.3721358909
 20
186.5908374948
 30
0.0
 40
0.5
100
AcDbArc
 50
177.5187351988
 51
270.0
  0
LINE
  5
95
330
1F
100
AcDbEntity
  8
0
  6
Continuous
 62
     7
370
    30
100
AcDbLine
 10
264.1273953247
 20
186.6124838475
 30
0.0
 11
262.8707286581
 21
215.6124838475
 31
0.0
  0
LINE
  5
96
330
1F
100
AcDbEntity
  8
0
  6
Continuous
 62
     7
370
    30
100
AcDbLine
 10
242.1292713419
 20
215.6124838475
 30
0.0
 11
240.8726046753
 21
186.6124838475
 31
0.0
  0
ARC
  5
97
330
1F
100
AcDbEntity
  8
0
  6
Continuous
 62
     7
370
    30
100
AcDbCircle
 10
242.6288025576
 20
215.5908374948
 30
0.0
 40
0.5000000000000012
100
AcDbArc
 50
90.0
 51
177.5187351988
  0
ARC
  5
98
330
1F
100
AcDbEntity
  8
0
  6
Continuous
 62
     7
370
    30
100
AcDbCircle
 10
262.3711974424
 20
215.5908374948
 30
0.0
 40
0.5000000000000295
100
AcDbArc
 50
2.4812648012
 51
90.0
  0
ARC
  5
99
330
1F
100
AcDbEntity
  8
0
  6
Continuous
 62
     7
370
    30
100
AcDbCircle
 10
241.3721358909
 20
309.4091625052
 30
0.0
 40
0.5
100
AcDbArc
 50
90.0
 51
182.4812648012
  0
ARC
  5
9A
330
1F
100
AcDbEntity
  8
0
  6
Continuous
 62
     7
370
    30
100
AcDbCircle
 10
263.6278641091
 20
309.4091625052
 30
0.0
 40
0.5
100
AcDbArc
 50
357.5187351988
 51
90.0
  0
LINE
  5
9B
330
1F
100
AcDbEntity
  8
0
  6
Continuous
 62
     7
370
    30
100
AcDbLine
 10
240.8726046753
 20
309.3875161525
 30
0.0
 11
242.1292713419
 21
280.3875161525
 31
0.0
  0
LINE
  5
9C
330
1F
100
AcDbEntity
  8
0
  6
Continuous
 62
     7
370
    30
100
AcDbLine
 10
262.8707286581
 20
280.3875161525
 30
0.0
 11
264.1273953247
 21
309.3875161525
 31
0.0
  0
ARC
  5
9D
330
1F
100
AcDbEntity
  8
0
  6
Continuous
 62
     7
370
    30
100
AcDbCircle
 10
262.3711974424
 20
280.4091625052
 30
0.0
 40
0.5000000000000283
100
AcDbArc
 50
270.0
 51
357.5187351988
  0
ARC
  5
9E
330
1F
100
AcDbEntity
  8
0
  6
Continuous
 62
     7
370
    30
100
AcDbCircle
 10
242.6288025576
 20
280.4091625052
 30
0.0
 40
0.5
100
AcDbArc
 50
182.4812648012
 51
270.0
  0
LINE
  5
9F
330
1F
100
AcDbEntity
  8
0
  6
Continuous
 62
     7
370
    30
100
AcDbLine
 10
246.9129413015
 20
254.2269389091
 30
0.0
 11
258.0871704455
 21
254.2269389091
 31
0.0
  0
LINE
  5
A0
330
1F
100
AcDbEntity
  8
0
  6
Continuous
 62
     7
370
    30
100
AcDbLine
 10
245.0
 20
279.9091625052
 30
0.0
 11
245.0
 21
256.9569161224
 31
0.0
  0
LINE
  5
A1
330
1F
100
AcDbEntity
  8
0
  6
Continuous
 62
     7
370
    30
100
AcDbLine
 10
260.0
 20
256.9568572163
 30
0.0
 11
260.0
 21
279.9091625052
 31
0.0
  0
SPLINE
  5
A2
330
1F
100
AcDbEntity
  8
0
  6
Continuous
 62
     7
370
    30
100
AcDbSpline
210
0.0
220
0.0
230
1.0
 70
     8
 71
     3
 72
   103
 73
    99
 74
     0
 42
0.000000001
 43
0.00000001
 40
0.0
 40
0.0
 40
0.0
 40
0.0
 40
0.0127380011053494
 40
0.0254778656767902
 40
0.0382158813960254
 40
0.0510208370711903
 40
0.0638276623664891
 40
0.076632660542594
 40
0.089481639304976
 40
0.1023324480548247
 40
0.1151814912927413
 40
0.1280944965229642
 40
0.1410092724343088
 40
0.1539223553428934
 40
0.1636376996808415
 40
0.1733530512675792
 40
0.1830795652602863
 40
0.1928060862639004
 40
0.2007422470294326
 40
0.2086784106836706
 40
0.2166203273501395
 40
0.224562246624988
 40
0.235178503777478
 40
0.245795595725281
 40
0.2564118752723806
 40
0.2670575625927337
 40
0.2777040641309113
 40
0.2883497613085285
 40
0.2990265547432014
 40
0.3097041589528204
 40
0.3203809444607492
 40
0.3310873953156432
 40
0.3417946770234455
 40
0.3525010955715192
 40
0.3605523157902468
 40
0.368603530934982
 40
0.3766608915844158
 40
0.3847182454487986
 40
0.3988985627002996
 40
0.413078788388248
 40
0.4225585336156721
 40
0.4320390338756861
 40
0.4415186862308458
 40
0.4510138036865949
 40
0.4605098046832851
 40
0.4700047932161526
 40
0.4795365320334519
 40
0.4890693383488221
 40
0.4986009048460416
 40
0.5057718026221543
 40
0.5129426816700053
 40
0.520123014481518
 40
0.5273033266171743
 40
0.5362137088218658
 40
0.5451253794667024
 40
0.55403557281472
 40
0.5629993399996852
 40
0.571964669690647
 40
0.5809282356570906
 40
0.5899556055616616
 40
0.5989848362115489
 40
0.6080120204165338
 40
0.6171132691783698
 40
0.6262166790263085
 40
0.6353178561683159
 40
0.6442196391694944
 40
0.6531234006203853
 40
0.6620255010255521
 40
0.6709878697613587
 40
0.6799518368785575
 40
0.688914523093174
 40
0.6979236703036658
 40
0.7069340306516769
 40
0.7159434521635434
 40
0.7249870878092732
 40
0.7340316020928682
 40
0.7430754522989435
 40
0.7536698388651457
 40
0.7642652008604799
 40
0.7748598680270317
 40
0.7907902155755746
 40
0.8067208108244613
 40
0.8226865504929864
 40
0.8386524060991066
 40
0.8546376730552989
 40
0.8706229359051476
 40
0.8866408186372003
 40
0.9026585690573665
 40
0.9133535906832746
 40
0.9240491069579572
 40
0.9347439256702759
 40
0.9454707699138474
 40
0.9561983951860514
 40
0.9669248797549194
 40
0.9776932378336227
 40
0.9884628814099938
 40
0.9992306563829721
 40
1.0
 40
1.0
 40
1.0
 40
1.0
 10
252.4999999999808
 20
241.0757064508214
 30
0.0
 10
252.5535019758777
 20
241.0758809140307
 30
0.0
 10
252.6605137545758
 20
241.076229865972
 30
0.0
 10
252.8209337291597
 20
241.079038279367
 30
0.0
 10
252.9814475788952
 20
241.0835115615818
 30
0.0
 10
253.1419605049025
 20
241.0898156487717
 30
0.0
 10
253.3023791051175
 20
241.0978790094004
 30
0.0
 10
253.4625160689151
 20
241.1076778998033
 30
0.0
 10
253.6222792455975
 20
241.119181539309
 30
0.0
 10
253.7815814325658
 20
241.1323365370691
 30
0.0
 10
253.9404198108409
 20
241.147095256635
 30
0.0
 10
254.0987071045091
 20
241.1634092708613
 30
0.0
 10
254.2563622401369
 20
241.1812047660293
 30
0.0
 10
254.4001165009234
 20
241.1987929070103
 30
0.0
 10
254.5301668328916
 20
241.2157438050419
 30
0.0
 10
254.6467872043938
 20
241.2317147548356
 30
0.0
 10
254.7628055953012
 20
241.2483429043062
 30
0.0
 10
254.8711153083091
 20
241.2645267473766
 30
0.0
 10
254.9717873899171
 20
241.2801011410193
 30
0.0
 10
255.0649624663858
 20
241.2949387184358
 30
0.0
 10
255.1576678144448
 20
241.3101033437457
 30
0.0
 10
255.2602421000385
 20
241.3273032768763
 30
0.0
 10
255.3724321810912
 20
241.3466248191533
 30
0.0
 10
255.4939541739619
 20
241.3681274351205
 30
0.0
 10
255.6146094103957
 20
241.3899885631269
 30
0.0
 10
255.7343677711152
 20
241.4121379440157
 30
0.0
 10
255.8532019704227
 20
241.4344959440718
 30
0.0
 10
255.9710919777271
 20
241.4569836778807
 30
0.0
 10
256.088009373432
 20
241.479521076394
 30
0.0
 10
256.2039277517316
 20
241.5020179632509
 30
0.0
 10
256.3188164150887
 20
241.524382683169
 30
0.0
 10
256.4326473174704
 20
241.5465240675228
 30
0.0
 10
256.5453936564154
 20
241.5683394749497
 30
0.0
 10
256.6477065600624
 20
241.5879402990993
 30
0.0
 10
256.7398894621339
 20
241.6053704303086
 30
0.0
 10
256.8222521145616
 20
241.6207177452009
 30
0.0
 10
256.903912209217
 20
241.6356608097136
 30
0.0
 10
257.0053612003645
 20
241.6538181932571
 30
0.0
 10
257.1257623043165
 20
241.67458723351
 30
0.0
 10
257.2487449143676
 20
241.6944994902985
 30
0.0
 10
257.354849016905
 20
241.7105222095198
 30
0.0
 10
257.4447791657921
 20
241.7231992643464
 30
0.0
 10
257.5336061825209
 20
241.7347091156428
 30
0.0
 10
257.6212988227554
 20
241.7449478385088
 30
0.0
 10
257.7078257562284
 20
241.7538025847538
 30
0.0
 10
257.7932173901185
 20
241.7611659492808
 30
0.0
 10
257.8774320038079
 20
241.7669172790639
 30
0.0
 10
257.9604283169086
 20
241.7709282333089
 30
0.0
 10
258.0353202525266
 20
241.772892562507
 30
0.0
 10
258.1024377696532
 20
241.7732212119084
 30
0.0
 10
258.1621297313973
 20
241.772334248294
 30
0.0
 10
258.2210111136786
 20
241.7702076720291
 30
0.0
 10
258.2837236796192
 20
241.766510573622
 30
0.0
 10
258.3499593018934
 20
241.7607812441532
 30
0.0
 10
258.4193850511686
 20
241.7524731769406
 30
0.0
 10
258.4875127984109
 20
241.7418599989635
 30
0.0
 10
258.5542844793276
 20
241.7288187003221
 30
0.0
 10
258.6196502031534
 20
241.7132408374734
 30
0.0
 10
258.6835844994695
 20
241.6950173343162
 30
0.0
 10
258.74602391681
 20
241.6740283772787
 30
0.0
 10
258.806918524728
 20
241.6501810326186
 30
0.0
 10
258.8662429241424
 20
241.6233852621481
 30
0.0
 10
258.9239317242129
 20
241.5935225257309
 30
0.0
 10
258.9799434329626
 20
241.56054348217
 30
0.0
 10
259.0336977609398
 20
241.5247708173418
 30
0.0
 10
259.0852190458863
 20
241.4863033246788
 30
0.0
 10
259.1345797289405
 20
241.4454030651791
 30
0.0
 10
259.1822837923773
 20
241.4018134930396
 30
0.0
 10
259.2283376118542
 20
241.3556516756243
 30
0.0
 10
259.2727624126746
 20
241.30705576528
 30
0.0
 10
259.3155634503808
 20
241.2561897257634
 30
0.0
 10
259.3567683220263
 20
241.2031858215809
 30
0.0
 10
259.3964108561226
 20
241.148183216753
 30
0.0
 10
259.4345120670981
 20
241.0913448055924
 30
0.0
 10
259.4711109713887
 20
241.0328035850717
 30
0.0
 10
259.5062456453637
 20
240.9726891285531
 30
0.0
 10
259.5418387542181
 20
240.9076931299437
 30
0.0
 10
259.5776401636755
 20
240.8376827438465
 30
0.0
 10
259.6133950473633
 20
240.7625727578287
 30
0.0
 10
259.6530286257077
 20
240.6733081252499
 30
0.0
 10
259.6954293822658
 20
240.569299462328
 30
0.0
 10
259.7394004708793
 20
240.4501103945694
 30
0.0
 10
259.7797784005126
 20
240.3293497824211
 30
0.0
 10
259.8166870660987
 20
240.2074798396545
 30
0.0
 10
259.8502107154079
 20
240.0850936127106
 30
0.0
 10
259.8804262827458
 20
239.9626089628804
 30
0.0
 10
259.9073716719491
 20
239.8405787935985
 30
0.0
 10
259.9284183396855
 20
239.7329406883264
 30
0.0
 10
259.9447018987736
 20
239.6397546049327
 30
0.0
 10
259.9571788287803
 20
239.5607213186537
 30
0.0
 10
259.9681572904507
 20
239.4826852832323
 30
0.0
 10
259.9776092621594
 20
239.4058375052915
 30
0.0
 10
259.9854948809218
 20
239.3303871994742
 30
0.0
 10
259.9917515472717
 20
239.2565638398069
 30
0.0
 10
259.9964029241248
 20
239.1844922626476
 30
0.0
 10
259.9991004843333
 20
239.1148564552684
 30
0.0
 10
260.0002866812442
 20
239.0676423204183
 30
0.0
 10
259.9999551379801
 20
239.044619158783
 30
0.0
 10
259.9999330292801
 20
239.0430838774812
 30
0.0
  0
SPLINE
  5
A3
330
1F
100
AcDbEntity
  8
0
  6
Continuous
 62
     7
370
    30
100
AcDbSpline
210
0.0
220
0.0
230
1.0
 70
     8
 71
     3
 72
   105
 73
   101
 74
     0
 42
0.000000001
 43
0.00000001
 40
0.0
 40
0.0
 40
0.0
 40
0.0
 40
0.0008917884767658
 40
0.0126838768749711
 40
0.0244739951102687
 40
0.0359254912342886
 40
0.047378561235457
 40
0.0588305822234737
 40
0.0703214300893107
 40
0.0818132243888173
 40
0.0933043714083292
 40
0.1049276328775035
 40
0.1165515032638389
 40
0.1281749043825497
 40
0.1456360405239216
 40
0.1630971810599343
 40
0.1748900459599079
 40
0.1866833959764854
 40
0.1984761258837105
 40
0.210291590479048
 40
0.2221077383695223
 40
0.2339229058831446
 40
0.2428527435962449
 40
0.2517825398549174
 40
0.2607212992769421
 40
0.2696600064055334
 40
0.2772799342374327
 40
0.2848998288402774
 40
0.2925284092355803
 40
0.3001569509902959
 40
0.3103771118642883
 40
0.3205989528698886
 40
0.3308186001417301
 40
0.3411180188491866
 40
0.3514198499012848
 40
0.3617186957374121
 40
0.36951255441711
 40
0.3773063867513167
 40
0.3851224292902748
 40
0.3929384952404155
 40
0.3990525794911091
 40
0.4051666743171215
 40
0.411290575969116
 40
0.4174144893544849
 40
0.4256263209102358
 40
0.4338395223409098
 40
0.4420514952806901
 40
0.4503080061855277
 40
0.4585657235286422
 40
0.4668223758949563
 40
0.4751236014574107
 40
0.4834258693790695
 40
0.4917272245627085
 40
0.5000617034220521
 40
0.5083970709685538
 40
0.5167316606884182
 40
0.5282284205208277
 40
0.5397271315405859
 40
0.5512241989899551
 40
0.5627812626607968
 40
0.5743399209076021
 40
0.5858972002750163
 40
0.597487976981099
 40
0.6090800947351719
 40
0.6206710101947894
 40
0.6323056854935729
 40
0.6439415463324576
 40
0.6555763012361405
 40
0.6643213391495815
 40
0.6730663810774529
 40
0.6818187282498407
 40
0.6905710776637844
 40
0.7026970706927823
 40
0.7148242547195996
 40
0.7269502476643883
 40
0.7391194419530164
 40
0.7512898450820111
 40
0.7634590095991441
 40
0.7756381857220048
 40
0.7878186155561373
 40
0.7999977419957783
 40
0.8122240790368408
 40
0.8244517513258129
 40
0.8366780269675217
 40
0.8458648196892163
 40
0.8550516065918109
 40
0.8642481950664452
 40
0.8734447778040989
 40
0.8839363587737737
 40
0.8944288845142098
 40
0.9049204342200475
 40
0.9154472567537876
 40
0.9259750735881842
 40
0.9365018707355582
 40
0.9470655210629627
 40
0.957630208067449
 40
0.9681938417311037
 40
0.9787955403964314
 40
0.9893983071886889
 40
1.0
 40
1.0
 40
1.0
 40
1.0
 10
245.0000791970307
 20
239.0431427821923
 30
0.0
 10
245.0000530263736
 20
239.0449224302546
 30
0.0
 10
244.999680802017
 20
239.0702343035192
 30
0.0
 10
245.0010782972297
 20
239.1221551008231
 30
0.0
 10
245.0042963746695
 20
239.198037425683
 30
0.0
 10
245.0097219263232
 20
239.2760542926955
 30
0.0
 10
245.0169190420042
 20
239.3553406616919
 30
0.0
 10
245.0259749742861
 20
239.4365980324073
 30
0.0
 10
245.0368207658155
 20
239.5195282018337
 30
0.0
 10
245.0494384109602
 20
239.6039104719199
 30
0.0
 10
245.0638401148097
 20
239.6897451076769
 30
0.0
 10
245.080021717141
 20
239.7768200303435
 30
0.0
 10
245.0980024479885
 20
239.8649392774078
 30
0.0
 10
245.1210189602739
 20
239.9684012589137
 30
0.0
 10
245.1502313904977
 20
240.0872074384185
 30
0.0
 10
245.1831085891658
 20
240.2064736662724
 30
0.0
 10
245.2146685422777
 20
240.3108592914152
 30
0.0
 10
245.2437772478828
 20
240.4003425764728
 30
0.0
 10
245.274863234826
 20
240.4891872483227
 30
0.0
 10
245.3079812005316
 20
240.5771824401772
 30
0.0
 10
245.3432114249588
 20
240.6641000626458
 30
0.0
 10
245.3775633075401
 20
240.7426886785555
 30
0.0
 10
245.4105176082162
 20
240.8131310028908
 30
0.0
 10
245.441600325009
 20
240.8757171582338
 30
0.0
 10
245.4740554140774
 20
240.9371814161916
 30
0.0
 10
245.5062619836738
 20
240.9944412129172
 30
0.0
 10
245.5380122138974
 20
241.0475802302162
 30
0.0
 10
245.5691229183448
 20
241.0967513587049
 30
0.0
 10
245.6013543780747
 20
241.1447687345381
 30
0.0
 10
245.6385155448997
 20
241.1968434142923
 30
0.0
 10
245.6811318974843
 20
241.2522863684767
 30
0.0
 10
245.7298348706997
 20
241.3102173914311
 30
0.0
 10
245.780879809956
 20
241.3654443246828
 30
0.0
 10
245.8343457352957
 20
241.4177045411322
 30
0.0
 10
245.8902902015926
 20
241.4667579043083
 30
0.0
 10
245.9438804354002
 20
241.5085667394902
 30
0.0
 10
245.9945037373692
 20
241.5438872826174
 30
0.0
 10
246.0416454274119
 20
241.5735847641234
 30
0.0
 10
246.0902007721582
 20
241.6010385578376
 30
0.0
 10
246.1365237357207
 20
241.6244564485785
 30
0.0
 10
246.1802315075673
 20
241.6443614092418
 30
0.0
 10
246.2210490431282
 20
241.6612577119697
 30
0.0
 10
246.2626777397885
 20
241.6768519730513
 30
0.0
 10
246.3099264258767
 20
241.6927936074783
 30
0.0
 10
246.3630997419556
 20
241.708545694625
 30
0.0
 10
246.4225350732668
 20
241.7235509392146
 30
0.0
 10
246.4833852426038
 20
241.7364444261613
 30
0.0
 10
246.5456280177582
 20
241.7472818515164
 30
0.0
 10
246.6092334723444
 20
241.7561333478644
 30
0.0
 10
246.6741724975574
 20
241.7630718037452
 30
0.0
 10
246.7404219652969
 20
241.7681651886357
 30
0.0
 10
246.8079538965122
 20
241.7714886789714
 30
0.0
 10
246.8767093162674
 20
241.7731195420252
 30
0.0
 10
246.9466645788016
 20
241.7731340425924
 30
0.0
 10
247.0177935762074
 20
241.7716101643718
 30
0.0
 10
247.0991031640735
 20
241.7682545005509
 30
0.0
 10
247.1910782870709
 20
241.762477328721
 30
0.0
 10
247.2942213900725
 20
241.7537162442744
 30
0.0
 10
247.3993717822645
 20
241.7427391067575
 30
0.0
 10
247.5064862285145
 20
241.7297357539287
 30
0.0
 10
247.6155196745216
 20
241.7148816706135
 30
0.0
 10
247.7263447346282
 20
241.6983678764857
 30
0.0
 10
247.8389234764587
 20
241.6803720167682
 30
0.0
 10
247.9532171655259
 20
241.661053935824
 30
0.0
 10
248.0692237419652
 20
241.6405683323087
 30
0.0
 10
248.1869144668677
 20
241.6190724637555
 30
0.0
 10
248.3062591031965
 20
241.5967069814915
 30
0.0
 10
248.4170749579586
 20
241.5755527893984
 30
0.0
 10
248.5189371501036
 20
241.5559024129
 30
0.0
 10
248.6115192904286
 20
241.5379367450925
 30
0.0
 10
248.7049158319105
 20
241.519761786227
 30
0.0
 10
248.8112170031067
 20
241.4990738479844
 30
0.0
 10
248.9307719065571
 20
241.4758806809273
 30
0.0
 10
249.0639767528567
 20
241.4502549180131
 30
0.0
 10
249.1987370416018
 20
241.4246628969717
 30
0.0
 10
249.335024597134
 20
241.3992321554214
 30
0.0
 10
249.4728064398866
 20
241.3740761340046
 30
0.0
 10
249.6119210290674
 20
241.3493312333555
 30
0.0
 10
249.7523315386927
 20
241.3251115396216
 30
0.0
 10
249.8939953216083
 20
241.3015166671977
 30
0.0
 10
250.0370143783203
 20
241.2786233458953
 30
0.0
 10
250.1813495560001
 20
241.2565360575842
 30
0.0
 10
250.3269539583746
 20
241.2353448985575
 30
0.0
 10
250.4614394458318
 20
241.2168379568294
 30
0.0
 10
250.58448081696
 20
241.2008068498074
 30
0.0
 10
250.6958672066666
 20
241.1870143964404
 30
0.0
 10
250.8077955546014
 20
241.1739022246434
 30
0.0
 10
250.9255175047635
 20
241.1609177643099
 30
0.0
 10
251.0490480304443
 20
241.1482230463407
 30
0.0
 10
251.1784208460335
 20
241.135990168591
 30
0.0
 10
251.3084377690652
 20
241.1247873990148
 30
0.0
 10
251.4390565532541
 20
241.1146564884017
 30
0.0
 10
251.5702312226468
 20
241.1056281045437
 30
0.0
 10
251.7019212559997
 20
241.0977316414826
 30
0.0
 10
251.8340794815165
 20
241.0909994569492
 30
0.0
 10
251.9666556555507
 20
241.0854546170522
 30
0.0
 10
252.0996038733571
 20
241.0811084146981
 30
0.0
 10
252.2328728829535
 20
241.0780144219729
 30
0.0
 10
252.3664094029855
 20
241.0760685561642
 30
0.0
 10
252.4554713046092
 20
241.0758271485264
 30
0.0
 10
252.4999999999808
 20
241.0757064508211
 30
0.0
  0
LINE
  5
A4
330
1F
100
AcDbEntity
  8
0
  6
Continuous
 62
     7
370
    30
100
AcDbLine
 10
252.5
 20
186.0908374948
 30
0.0
 11
263.6278641091
 21
186.0908374948
 31
0.0
  0
LINE
  5
A5
330
1F
100
AcDbEntity
  8
0
  6
Continuous
 62
     7
370
    30
100
AcDbLine
 10
241.3721358909
 20
186.0908374948
 30
0.0
 11
252.5
 21
186.0908374948
 31
0.0
  0
LINE
  5
A6
330
1F
100
AcDbEntity
  8
0
  6
Continuous
 62
     7
370
    30
100
AcDbLine
 10
262.3711974424
 20
216.0908374948
 30
0.0
 11
242.6288025576
 21
216.0908374948
 31
0.0
  0
LINE
  5
A7
330
1F
100
AcDbEntity
  8
0
  6
Continuous
 62
     7
370
    30
100
AcDbLine
 10
241.3721358909
 20
309.9091625052
 30
0.0
 11
263.6278641091
 21
309.9091625052
 31
0.0
  0
LINE
  5
A8
330
1F
100
AcDbEntity
  8
0
  6
Continuous
 62
     7
370
    30
100
AcDbLine
 10
252.5
 20
279.9091625052
 30
0.0
 11
242.6288025576
 21
279.9091625052
 31
0.0
  0
LINE
  5
A9
330
1F
100
AcDbEntity
  8
0
  6
Continuous
 62
     7
370
    30
100
AcDbLine
 10
262.3711974424
 20
279.9091625052
 30
0.0
 11
252.5
 21
279.9091625052
 31
0.0
  0
SPLINE
  5
AA
330
1F
100
AcDbEntity
  8
0
  6
Continuous
 62
     7
370
    30
100
AcDbSpline
210
0.0
220
0.0
230
1.0
 70
     8
 71
     3
 72
   284
 73
   280
 74
     0
 42
0.000000001
 43
0.00000001
 40
0.0
 40
0.0
 40
0.0
 40
0.0
 40
0.0006196232776542
 40
0.0031042039111614
 40
0.005592065184828
 40
0.0080799192772656
 40
0.01116465954151
 40
0.0142498458526296
 40
0.0173345207367784
 40
0.0204377424030078
 40
0.0235415049945896
 40
0.0266446570011733
 40
0.0297699404717874
 40
0.0328958681416415
 40
0.0360210873214566
 40
0.0391719480449745
 40
0.0423235569483166
 40
0.045474392876124
 40
0.0477837854624889
 40
0.0500931877522448
 40
0.0524068933907924
 40
0.0547206091393268
 40
0.0578233458683953
 40
0.0609266359441084
 40
0.0640294825808552
 40
0.0671484582392595
 40
0.0702678538948564
 40
0.0733869245189096
 40
0.0757342993873607
 40
0.0780816814679841
 40
0.0827800135010079
 40
0.0864497564309586
 40
0.0901198375903281
 40
0.093789677862421
 40
0.0993077328128767
 40
0.1048258736623504
 40
0.1103544029670833
 40
0.1158829723934906
 40
0.1214182649828623
 40
0.1269535560907931
 40
0.132497683645
 40
0.1380417653664951
 40
0.1417435384214968
 40
0.1454454826958287
 40
0.1491471855131863
 40
0.1528588421760272
 40
0.156570768933642
 40
0.1602823012905807
 40
0.1640083111911434
 40
0.1677347655258377
 40
0.1714605739618138
 40
0.1754021504706746
 40
0.179344552815151
 40
0.1832860852535906
 40
0.1872591148047564
 40
0.1912330444154918
 40
0.1952060577824218
 40
0.1992122593976729
 40
0.2032194005492949
 40
0.2072256173510071
 40
0.2112653351616934
 40
0.2153059915919432
 40
0.219345752908683
 40
0.2232803033433474
 40
0.2272156661485927
 40
0.2311502713430166
 40
0.2351123692486891
 40
0.2390752230451637
 40
0.2430373831036205
 40
0.2470247374650111
 40
0.2510127803774384
 40
0.2550001962812606
 40
0.2590103942139993
 40
0.263021212678311
 40
0.2670314660590582
 40
0.271234767676135
 40
0.275438702714324
 40
0.2796420591003497
 40
0.2838664574580317
 40
0.2880914290551173
 40
0.2923158703190333
 40
0.2965567698068213
 40
0.3007981951633638
 40
0.3050391263018177
 40
0.3092980115705264
 40
0.3135573897283973
 40
0.3178162969628635
 40
0.3210205552145227
 40
0.3242248148939511
 40
0.3274322112119284
 40
0.3306396086286028
 40
0.3333077347322984
 40
0.3359758612325071
 40
0.338645745840727
 40
0.3413156307418747
 40
0.3448862859105727
 40
0.3484572013353099
 40
0.3520278582731566
 40
0.3556078670284913
 40
0.3591881360590219
 40
0.3627681449676666
 40
0.36636307598289
 40
0.3699582705466937
 40
0.3735532004666843
 40
0.3771577020378296
 40
0.3807624708421334
 40
0.3843669703961298
 40
0.3870788908027362
 40
0.3897908109802273
 40
0.3925045797156591
 40
0.3952183481996348
 40
0.3981275615346275
 40
0.4010367745156886
 40
0.4039483014995623
 40
0.40685982811341
 40
0.4107606677399537
 40
0.4146618592311099
 40
0.4185626945840324
 40
0.4224764177034649
 40
0.4263905017467369
 40
0.4303042206364081
 40
0.4342473133588734
 40
0.4381907807322158
 40
0.4421338694368972
 40
0.4460906631156992
 40
0.4500478405277593
 40
0.4540046306685492
 40
0.4569876442919757
 40
0.4599706576348093
 40
0.4629563440348173
 40
0.4659420301875989
 40
0.4687579771971384
 40
0.4715739240391433
 40
0.4743921375474577
 40
0.4772103509163457
 40
0.4809862426719562
 40
0.4847624769977527
 40
0.4885383676883067
 40
0.4923266912258165
 40
0.4961153620137618
 40
0.4999036851837079
 40
0.5037202180679751
 40
0.5075371063978668
 40
0.5113536396507707
 40
0.5151830214826134
 40
0.5190127617749819
 40
0.5228421447315516
 40
0.5257286911852437
 40
0.5286152377930573
 40
0.5315042276115726
 40
0.5343932176171178
 40
0.5371465932314571
 40
0.5398999690250396
 40
0.5426554487998091
 40
0.545410928777423
 40
0.5491001927363955
 40
0.5527897707823831
 40
0.5564790373764713
 40
0.5601795700096724
 40
0.5638804161297326
 40
0.5675809518275742
 40
0.5713039957127142
 40
0.575027354772634
 40
0.578750402080614
 40
0.5824847272163032
 40
0.5862193659239812
 40
0.5899536946486613
 40
0.5927661642146046
 40
0.5955786341073158
 40
0.5983932073960169
 40
0.6012077810034047
 40
0.6040190842476775
 40
0.6068303877941169
 40
0.6096437621844252
 40
0.6124571368560736
 40
0.61622353606424
 40
0.6199902434758884
 40
0.6237566453180853
 40
0.6275341043091482
 40
0.6313118709274208
 40
0.6350893315339652
 40
0.638889373333885
 40
0.6426897263799587
 40
0.6464897682818347
 40
0.6503010729227569
 40
0.6541126917184681
 40
0.6579239943088265
 40
0.6607944173799729
 40
0.6636648400735182
 40
0.666537446100427
 40
0.6694100515989068
 40
0.6723238669200642
 40
0.6752376815011089
 40
0.6781538403367843
 40
0.6810699982242459
 40
0.6849752417382368
 40
0.6888808466141167
 40
0.6927860754292253
 40
0.6967049362593154
 40
0.7006241822229605
 40
0.7045430216291683
 40
0.7084886514053336
 40
0.7124347034990876
 40
0.716380303259399
 40
0.7203423144731665
 40
0.7243047937155882
 40
0.7282667651967331
 40
0.7312549408467013
 40
0.7342431121556783
 40
0.7372350045465421
 40
0.7402268921435782
 40
0.7441995654233271
 40
0.7481728293291614
 40
0.7521454444352516
 40
0.7561416097029878
 40
0.7601384535832163
 40
0.7641345546039262
 40
0.7681576142309299
 40
0.7721814511577886
 40
0.7762044473512872
 40
0.7802579409659799
 40
0.7843123123602234
 40
0.7883657540317872
 40
0.792347295646099
 40
0.796329729770826
 40
0.8003112459713548
 40
0.8043260185153981
 40
0.8083417356557736
 40
0.8123565129977595
 40
0.8164053369580162
 40
0.8204551184311677
 40
0.8245039806560209
 40
0.8285854330991452
 40
0.8326678298115974
 40
0.8367495444583959
 40
0.8397606996709325
 40
0.8427718744406779
 40
0.8457862904258788
 40
0.8488007214880116
 40
0.8528304865815974
 40
0.8568605896643189
 40
0.8608904624381144
 40
0.8649288527055
 40
0.8689674537182622
 40
0.8730058915808192
 40
0.8790688679259357
 40
0.8851318437921727
 40
0.8891795968499698
 40
0.8932275147046211
 40
0.8972752212637842
 40
0.9013286630348356
 40
0.9053823372587996
 40
0.9094356787300634
 40
0.9135012090521993
 40
0.917567112888699
 40
0.9216324735176277
 40
0.9251516368309827
 40
0.928671189095575
 40
0.9321902148840098
 40
0.9357284146325047
 40
0.9392671960362192
 40
0.9428052179771457
 40
0.9463708566411313
 40
0.9499373304503781
 40
0.9535027707874314
 40
0.9571050804833218
 40
0.9607085335519925
 40
0.9643108647737918
 40
0.9678370223649303
 40
0.9713641926233803
 40
0.9748904563613883
 40
0.9784496685583431
 40
0.9820097778698194
 40
0.9855691106749106
 40
0.9891567066182034
 40
0.992745062182225
 40
0.9963327725487751
 40
0.9999439904107879
 40
1.0
 40
1.0
 40
1.0
 40
1.0
 10
246.9129413015007
 20
254.2270476861839
 30
0.0
 10
246.9079035600058
 20
254.2270149220445
 30
0.0
 10
246.8826653589639
 20
254.2268507794545
 30
0.0
 10
246.8380079538771
 20
254.2277212321624
 30
0.0
 10
246.7790258581524
 20
254.2297741916572
 30
0.0
 10
246.7162957739739
 20
254.2334933458302
 30
0.0
 10
246.65004010934
 20
254.2392171705296
 30
0.0
 10
246.5806161814551
 20
254.247527111673
 30
0.0
 10
246.5124885135028
 20
254.2581396525932
 30
0.0
 10
246.4457173563526
 20
254.2711809435956
 30
0.0
 10
246.3803520118682
 20
254.2867585815186
 30
0.0
 10
246.3164178125845
 20
254.3049819516413
 30
0.0
 10
246.2539781929913
 20
254.3259708481578
 30
0.0
 10
246.1930831201679
 20
254.3498182665206
 30
0.0
 10
246.1337582808593
 20
254.376614147815
 30
0.0
 10
246.0760690364694
 20
254.406477036781
 30
0.0
 10
246.0200569988896
 20
254.4394562733337
 30
0.0
 10
245.9707265662814
 20
254.4722847285695
 30
0.0
 10
245.9275638425497
 20
254.5040643795655
 30
0.0
 10
245.8900527947483
 20
254.5339658060882
 30
0.0
 10
245.8535179943883
 20
254.5653867037319
 30
0.0
 10
245.8139088673116
 20
254.6020034661069
 30
0.0
 10
245.7716636634891
 20
254.6443468001584
 30
0.0
 10
245.727239277509
 20
254.6929423714834
 30
0.0
 10
245.6844382365755
 20
254.7438081736477
 30
0.0
 10
245.6432331977939
 20
254.7968121305785
 30
0.0
 10
245.6035903816456
 20
254.8518150370803
 30
0.0
 10
245.5686750171419
 20
254.9039005738463
 30
0.0
 10
245.5380293336663
 20
254.9524907263518
 30
0.0
 10
245.5023308948675
 20
255.012050378875
 30
0.0
 10
245.4635146916837
 20
255.0818365344529
 30
0.0
 10
245.4223397906295
 20
255.1623570522493
 30
0.0
 10
245.3865669461323
 20
255.2375089538913
 30
0.0
 10
245.3469147907755
 20
255.3268238307517
 30
0.0
 10
245.3044956986026
 20
255.4308917026474
 30
0.0
 10
245.2605125345225
 20
255.5501359536569
 30
0.0
 10
245.2201294936791
 20
255.6709388640485
 30
0.0
 10
245.1832213171985
 20
255.7928373792494
 30
0.0
 10
245.1496994101552
 20
255.9152511081535
 30
0.0
 10
245.119491354689
 20
256.0377437428693
 30
0.0
 10
245.0925576048733
 20
256.15976227022
 30
0.0
 10
245.0715235141326
 20
256.2673730939105
 30
0.0
 10
245.0552500914428
 20
256.3605347790474
 30
0.0
 10
245.0427811697966
 20
256.4395470142073
 30
0.0
 10
245.0318115450087
 20
256.5175534430983
 30
0.0
 10
245.0223672741824
 20
256.5943656964511
 30
0.0
 10
245.0144929654118
 20
256.6697674406112
 30
0.0
 10
245.0082302706969
 20
256.7435666227512
 30
0.0
 10
245.003630111287
 20
256.815528683569
 30
0.0
 10
245.0007617947485
 20
256.8853815688682
 30
0.0
 10
244.9996724836327
 20
256.9540668004074
 30
0.0
 10
245.0005615407438
 20
257.021091101581
 30
0.0
 10
245.0036438178893
 20
257.0861816719378
 30
0.0
 10
245.0089958695717
 20
257.1482043047019
 30
0.0
 10
245.016725349293
 20
257.2070596743478
 30
0.0
 10
245.0269160528502
 20
257.2626987027924
 30
0.0
 10
245.039647305382
 20
257.3150867301675
 30
0.0
 10
245.055014178565
 20
257.364160067709
 30
0.0
 10
245.0730810981951
 20
257.4099083939895
 30
0.0
 10
245.0939064291324
 20
257.4523311199521
 30
0.0
 10
245.1175654716457
 20
257.4914077991675
 30
0.0
 10
245.1440993027805
 20
257.5271700609546
 30
0.0
 10
245.173207088926
 20
257.5592869862062
 30
0.0
 10
245.2048266418069
 20
257.5879144721458
 30
0.0
 10
245.2388653785729
 20
257.6132418858649
 30
0.0
 10
245.2756864599301
 20
257.6356579004926
 30
0.0
 10
245.3153144405883
 20
257.655221581511
 30
0.0
 10
245.3577483086605
 20
257.6720199681831
 30
0.0
 10
245.402974896202
 20
257.6861426747042
 30
0.0
 10
245.4510013693443
 20
257.697674505644
 30
0.0
 10
245.5018141872997
 20
257.7067174592064
 30
0.0
 10
245.5553864328673
 20
257.7133764072414
 30
0.0
 10
245.6117123074394
 20
257.717751768663
 30
0.0
 10
245.6707702565966
 20
257.7199518003803
 30
0.0
 10
245.7334090193251
 20
257.7200899821016
 30
0.0
 10
245.7997456472427
 20
257.7181742246024
 30
0.0
 10
245.8698813899809
 20
257.7142269830174
 30
0.0
 10
245.9428653863865
 20
257.7084003303646
 30
0.0
 10
246.0186763441305
 20
257.7008148968868
 30
0.0
 10
246.097282848239
 20
257.6915869670617
 30
0.0
 10
246.178622322939
 20
257.6808391030999
 30
0.0
 10
246.2626682648051
 20
257.6686877576285
 30
0.0
 10
246.3493865619063
 20
257.6552417454814
 30
0.0
 10
246.4387526792118
 20
257.6406095123049
 30
0.0
 10
246.5307406468386
 20
257.6248981780151
 30
0.0
 10
246.625317893791
 20
257.6082060287973
 30
0.0
 10
246.7143083883213
 20
257.5921061510429
 30
0.0
 10
246.7970289468794
 20
257.5769029045941
 30
0.0
 10
246.8729249342771
 20
257.5628096326163
 30
0.0
 10
246.9501591278677
 20
257.5483627574271
 30
0.0
 10
247.0243127933956
 20
257.534426775181
 30
0.0
 10
247.0951043229276
 20
257.5210950656638
 30
0.0
 10
247.1623178149443
 20
257.5084324466063
 30
0.0
 10
247.2304124373886
 20
257.495617663145
 30
0.0
 10
247.3071343284429
 20
257.4812137614428
 30
0.0
 10
247.3928275939326
 20
257.4651948454415
 30
0.0
 10
247.4878776541089
 20
257.4475506211815
 30
0.0
 10
247.5844772470909
 20
257.4297786317332
 30
0.0
 10
247.6826071752736
 20
257.4119211848833
 30
0.0
 10
247.7822455730079
 20
257.3940164452584
 30
0.0
 10
247.8834218541604
 20
257.3760934894966
 30
0.0
 10
247.9861180518914
 20
257.3581908989065
 30
0.0
 10
248.0903131776399
 20
257.3403434904057
 30
0.0
 10
248.1959316741671
 20
257.3225949794482
 30
0.0
 10
248.3029513737947
 20
257.3049805464444
 30
0.0
 10
248.4113469542651
 20
257.28753153257
 30
0.0
 10
248.5119450146925
 20
257.271717357437
 30
0.0
 10
248.6043845490648
 20
257.257504162151
 30
0.0
 10
248.6883843256052
 20
257.2448423982067
 30
0.0
 10
248.7730710574641
 20
257.2323392054398
 30
0.0
 10
248.8604812976287
 20
257.2197098817222
 30
0.0
 10
248.9506380442251
 20
257.2069843994832
 30
0.0
 10
249.0436056960288
 20
257.1941886359915
 30
0.0
 10
249.137303309353
 20
257.1816273842156
 30
0.0
 10
249.2424071236492
 20
257.1679180733059
 30
0.0
 10
249.3591729594705
 20
257.1531901417975
 30
0.0
 10
249.4878827114743
 20
257.1375998014679
 30
0.0
 10
249.6178540890606
 20
257.1225161974106
 30
0.0
 10
249.7490482479065
 20
257.1079678420686
 30
0.0
 10
249.8814224886137
 20
257.0939785274251
 30
0.0
 10
250.015119957579
 20
257.0805528536374
 30
0.0
 10
250.1501030668536
 20
257.0677188058582
 30
0.0
 10
250.2863296433117
 20
257.0555000172014
 30
0.0
 10
250.4235726355571
 20
257.0439336953292
 30
0.0
 10
250.5617857874821
 20
257.0330417713394
 30
0.0
 10
250.7009190361676
 20
257.0228415012575
 30
0.0
 10
250.8292892948514
 20
257.0141383410718
 30
0.0
 10
250.9466623450045
 20
257.0067516947528
 30
0.0
 10
251.0528978579282
 20
257.0005102198671
 30
0.0
 10
251.159491054183
 20
256.9946949706025
 30
0.0
 10
251.2643924237326
 20
256.9894128004929
 30
0.0
 10
251.367528052382
 20
256.9846415258551
 30
0.0
 10
251.4688874581128
 20
256.9803552233047
 30
0.0
 10
251.5704822274768
 20
256.9764635625361
 30
0.0
 10
251.6838240410333
 20
256.9725735475619
 30
0.0
 10
251.8089441014176
 20
256.9688636650365
 30
0.0
 10
251.945869413094
 20
256.9655360054153
 30
0.0
 10
252.0831469520177
 20
256.9629343198457
 30
0.0
 10
252.2207276033509
 20
256.9610661073374
 30
0.0
 10
252.3585612876767
 20
256.9599350826902
 30
0.0
 10
252.4967890984226
 20
256.9595437275575
 30
0.0
 10
252.6353606181209
 20
256.9599004314778
 30
0.0
 10
252.7742239630819
 20
256.9610097675156
 30
0.0
 10
252.9131409974805
 20
256.9628715349114
 30
0.0
 10
253.0520594442802
 20
256.9654878253319
 30
0.0
 10
253.1909267097398
 20
256.9688567159882
 30
0.0
 10
253.3181608091729
 20
256.9726334487725
 30
0.0
 10
253.4337866253679
 20
256.9766156281822
 30
0.0
 10
253.5378912024688
 20
256.980625868375
 30
0.0
 10
253.6418049594687
 20
256.985052951069
 30
0.0
 10
253.7438834959378
 20
256.9898179827812
 30
0.0
 10
253.8440898343526
 20
256.9948942384422
 30
0.0
 10
253.9424446112746
 20
257.0002578039682
 30
0.0
 10
254.0405476455868
 20
257.005987553356
 30
0.0
 10
254.1494313675057
 20
257.0127676804655
 30
0.0
 10
254.2689214753256
 20
257.0207481755655
 30
0.0
 10
254.3988155967432
 20
257.030092106759
 30
0.0
 10
254.528193159111
 20
257.0400622723822
 30
0.0
 10
254.6570084536791
 20
257.0506493370941
 30
0.0
 10
254.78521763575
 20
257.0618401246915
 30
0.0
 10
254.9129066877383
 20
257.0736327931646
 30
0.0
 10
255.0400280241296
 20
257.0860168172829
 30
0.0
 10
255.1665355830495
 20
257.0989775063398
 30
0.0
 10
255.2922591837511
 20
257.1124851307472
 30
0.0
 10
255.4171548154026
 20
257.1265235686555
 30
0.0
 10
255.5411806679328
 20
257.1410724062692
 30
0.0
 10
255.6540523739718
 20
257.1548596310964
 30
0.0
 10
255.7560136232248
 20
257.1677415086087
 30
0.0
 10
255.84733099549
 20
257.1796033683729
 30
0.0
 10
255.9380305939374
 20
257.1917038835063
 30
0.0
 10
256.0280617744445
 20
257.2040271376892
 30
0.0
 10
256.1173873853828
 20
257.2165585989933
 30
0.0
 10
256.2060153132704
 20
257.2292889907541
 30
0.0
 10
256.2939646938391
 20
257.2422113565913
 30
0.0
 10
256.3910729415676
 20
257.256792104031
 30
0.0
 10
256.496991743809
 20
257.2730870478917
 30
0.0
 10
256.6113253384544
 20
257.291141770851
 30
0.0
 10
256.7243954492238
 20
257.3094389249433
 30
0.0
 10
256.8361633048456
 20
257.3279451401388
 30
0.0
 10
256.9465932188538
 20
257.3466218071047
 30
0.0
 10
257.0557615419705
 20
257.3654491252889
 30
0.0
 10
257.1636253717127
 20
257.3843885804347
 30
0.0
 10
257.2701442980608
 20
257.4033956551089
 30
0.0
 10
257.3751772926942
 20
257.4224064834571
 30
0.0
 10
257.4786871443023
 20
257.4413758699146
 30
0.0
 10
257.5806394081379
 20
257.4602524774522
 30
0.0
 10
257.6726522460913
 20
257.477426745225
 30
0.0
 10
257.7551516173329
 20
257.4929034389723
 30
0.0
 10
257.8285561086464
 20
257.5067133775748
 30
0.0
 10
257.9009778892535
 20
257.5203570307505
 30
0.0
 10
257.9727454877813
 20
257.5338732566454
 30
0.0
 10
258.0438105786611
 20
257.5472295174014
 30
0.0
 10
258.1141619297975
 20
257.5603976423734
 30
0.0
 10
258.1834486617398
 20
257.5732860621829
 30
0.0
 10
258.2593684183799
 20
257.5872867813505
 30
0.0
 10
258.341410606981
 20
257.6022190480059
 30
0.0
 10
258.4289950220116
 20
257.6178372628189
 30
0.0
 10
258.5146254278517
 20
257.6327040534622
 30
0.0
 10
258.5982591954962
 20
257.646737536695
 30
0.0
 10
258.6798574138052
 20
257.659847570227
 30
0.0
 10
258.7594713403512
 20
257.671957991638
 30
0.0
 10
258.8370478560375
 20
257.6829713535215
 30
0.0
 10
258.9125378072551
 20
257.6927812519653
 30
0.0
 10
258.9858326307233
 20
257.7012761317874
 30
0.0
 10
259.0568832772411
 20
257.7083490185047
 30
0.0
 10
259.1256466842862
 20
257.7138859577441
 30
0.0
 10
259.1865547124089
 20
257.7174510213449
 30
0.0
 10
259.240221165354
 20
257.7194041272876
 30
0.0
 10
259.2872375669727
 20
257.7201142967643
 30
0.0
 10
259.3328442595791
 20
257.7197223212805
 30
0.0
 10
259.3818538107163
 20
257.7180085580392
 30
0.0
 10
259.4336237202848
 20
257.7144186422395
 30
0.0
 10
259.487433114729
 20
257.7082688840599
 30
0.0
 10
259.5387120396784
 20
257.6997478777095
 30
0.0
 10
259.5874062258551
 20
257.6887174676167
 30
0.0
 10
259.6334790711213
 20
257.6750485843858
 30
0.0
 10
259.6769101318039
 20
257.658613326137
 30
0.0
 10
259.7176491473418
 20
257.6392707641106
 30
0.0
 10
259.7556698144735
 20
257.6169006968701
 30
0.0
 10
259.7909612751003
 20
257.5913833579385
 30
0.0
 10
259.82348327633
 20
257.5625848926047
 30
0.0
 10
259.8532264924005
 20
257.5304065224186
 30
0.0
 10
259.8799613572283
 20
257.49505833121
 30
0.0
 10
259.9037517471558
 20
257.456532614945
 30
0.0
 10
259.9246945044384
 20
257.414871336864
 30
0.0
 10
259.9430162483806
 20
257.3696865362521
 30
0.0
 10
259.9587202684875
 20
257.3209058888428
 30
0.0
 10
259.9718442253111
 20
257.2685108173164
 30
0.0
 10
259.9824328865954
 20
257.2124875426863
 30
0.0
 10
259.9905164231571
 20
257.1528062606271
 30
0.0
 10
259.9961568384867
 20
257.08948596192
 30
0.0
 10
259.9994201727974
 20
257.0225882358062
 30
0.0
 10
260.0003675396587
 20
256.9520451849264
 30
0.0
 10
259.9990755431534
 20
256.8780697218504
 30
0.0
 10
259.9959321556402
 20
256.8078917675027
 30
0.0
 10
259.9916085285172
 20
256.742572440581
 30
0.0
 10
259.9866438875708
 20
256.6828880650106
 30
0.0
 10
259.9806065288896
 20
256.622037541741
 30
0.0
 10
259.9727206360232
 20
256.5531890518716
 30
0.0
 10
259.9625685367279
 20
256.47608510079
 30
0.0
 10
259.949683522091
 20
256.3905335761527
 30
0.0
 10
259.9350150218347
 20
256.3037810929973
 30
0.0
 10
259.9185868358844
 20
256.2160586501362
 30
0.0
 10
259.9003974855299
 20
256.1275732618807
 30
0.0
 10
259.8771287639819
 20
256.0237271514901
 30
0.0
 10
259.8476132299964
 20
255.9045310856011
 30
0.0
 10
259.8145069922982
 20
255.7852748624761
 30
0.0
 10
259.7828627775763
 20
255.6813125074535
 30
0.0
 10
259.7538441295221
 20
255.5926441788324
 30
0.0
 10
259.7228826852667
 20
255.5046343474434
 30
0.0
 10
259.6899255595289
 20
255.4174885459595
 30
0.0
 10
259.6548954289591
 20
255.3314286313427
 30
0.0
 10
259.6176971333826
 20
255.2466368886778
 30
0.0
 10
259.5782499194298
 20
255.1633504205972
 30
0.0
 10
259.5364510049476
 20
255.0818320228847
 30
0.0
 10
259.4942265562238
 20
255.0059853591792
 30
0.0
 10
259.4518616212312
 20
254.93572870573
 30
0.0
 10
259.4096410100695
 20
254.8709137753459
 30
0.0
 10
259.3653365136343
 20
254.8081682795947
 30
0.0
 10
259.3188701031403
 20
254.7477161010464
 30
0.0
 10
259.2701671520548
 20
254.6897848622523
 30
0.0
 10
259.2191222801427
 20
254.6345580106427
 30
0.0
 10
259.16565666276
 20
254.5822970030692
 30
0.0
 10
259.1097115116051
 20
254.533245987082
 30
0.0
 10
259.0511955803864
 20
254.4875825082861
 30
0.0
 10
258.9900342893852
 20
254.4456508026335
 30
0.0
 10
258.9262279477776
 20
254.4075528227268
 30
0.0
 10
258.8604903172125
 20
254.373661241926
 30
0.0
 10
258.7929137592627
 20
254.3438600766005
 30
0.0
 10
258.723628179663
 20
254.3179086051879
 30
0.0
 10
258.6519856834597
 20
254.2954274655861
 30
0.0
 10
258.578015701079
 20
254.2763475984673
 30
0.0
 10
258.5017711806534
 20
254.2605556838369
 30
0.0
 10
258.4233446265645
 20
254.2479263474893
 30
0.0
 10
258.3427582983593
 20
254.2383704143273
 30
0.0
 10
258.2601371868154
 20
254.2316476709107
 30
0.0
 10
258.175314436201
 20
254.2279805335577
 30
0.0
 10
258.1175916122221
 20
254.2265485894462
 30
0.0
 10
258.0876280787412
 20
254.2269513361623
 30
0.0
 10
258.0871704454954
 20
254.2269574873156
 30
0.0
  0
SPLINE
  5
AB
330
1F
100
AcDbEntity
  8
0
  6
Continuous
 62
     7
370
    30
100
AcDbSpline
210
0.0
220
0.0
230
1.0
 70
     8
 71
     3
 72
    78
 73
    74
 74
     0
 42
0.000000001
 43
0.00000001
 40
0.0
 40
0.0
 40
0.0
 40
0.0
 40
0.009926617702999
 40
0.0198532349806246
 40
0.0297962426555979
 40
0.0397392490436338
 40
0.0530734027208202
 40
0.0664100453361423
 40
0.0797441698350551
 40
0.093170075888397
 40
0.1065985641296348
 40
0.1200244208510094
 40
0.1301573343573997
 40
0.1402902421514059
 40
0.1504415982300753
 40
0.1605929480423976
 40
0.1765439585425158
 40
0.1925134588797951
 40
0.208531411131149
 40
0.2245493283061927
 40
0.2406451539294835
 40
0.2567409576076382
 40
0.2728879232972484
 40
0.2890348902533578
 40
0.3052628428098181
 40
0.3214908283693697
 40
0.3311135195898812
 40
0.340736218342005
 40
0.3503753239479285
 40
0.3600144396792654
 40
0.3729407315406186
 40
0.3858694086090471
 40
0.3987958531088831
 40
0.4118031972589027
 40
0.4248127644379673
 40
0.4378203010482154
 40
0.447625357440216
 40
0.4574304327079595
 40
0.4672484329868941
 40
0.4770664522915501
 40
0.4955297825895195
 40
0.5139933410779526
 40
0.5325270132895251
 40
0.5510608904084293
 40
0.5696593987570473
 40
0.5882580771174315
 40
0.6069098220700446
 40
0.625561695012811
 40
0.6442644672512187
 40
0.6629673213074777
 40
0.6817134462121017
 40
0.7004596029536895
 40
0.7170325912194885
 40
0.7336055674592251
 40
0.7502077688393857
 40
0.7668099249753004
 40
0.7834105565736338
 40
0.8000111048947796
 40
0.816646862614796
 40
0.8332824912461093
 40
0.8499181593948155
 40
0.86655364530733
 40
0.8832391165380661
 40
0.8999243415868895
 40
0.9166439666623966
 40
0.933380688677676
 40
0.9432614572810027
 40
0.9531422119599431
 40
0.9630385377483219
 40
0.9729348507744369
 40
0.9862052860511799
 40
0.9994782003584021
 40
1.0
 40
1.0
 40
1.0
 40
1.0
 10
252.5
 20
254.449869560929
 30
0.0
 10
252.5237340785837
 20
254.4499182430125
 30
0.0
 10
252.571202234734
 20
254.4500156071776
 30
0.0
 10
252.6424143497342
 20
254.4508049725585
 30
0.0
 10
252.7136070440658
 20
254.4520685490166
 30
0.0
 10
252.7928382740861
 20
254.4540615733125
 30
0.0
 10
252.8799961102827
 20
254.4570021540378
 30
0.0
 10
252.9749422835816
 20
254.4611718047388
 30
0.0
 10
253.0697503757969
 20
254.4663314751568
 30
0.0
 10
253.1643437930021
 20
254.4725140751717
 30
0.0
 10
253.2586448947585
 20
254.4797623884694
 30
0.0
 10
253.3447019963041
 20
254.4874163966883
 30
0.0
 10
253.4226054294478
 20
254.4952138635231
 30
0.0
 10
253.4925296591942
 20
254.5029131604622
 30
0.0
 10
253.5620543357342
 20
254.5112962539903
 30
0.0
 10
253.6443025248329
 20
254.5221142990665
 30
0.0
 10
253.738850742384
 20
254.535946307114
 30
0.0
 10
253.8451924669159
 20
254.5535630713175
 30
0.0
 10
253.9501583872624
 20
254.5731453177249
 30
0.0
 10
254.0537427665352
 20
254.5947985040287
 30
0.0
 10
254.1556985545971
 20
254.6185887637325
 30
0.0
 10
254.2560012458129
 20
254.6446114597516
 30
0.0
 10
254.3543523023779
 20
254.6728971408697
 30
0.0
 10
254.4507959842989
 20
254.7035387959066
 30
0.0
 10
254.5451002664157
 20
254.7365585894578
 30
0.0
 10
254.6246703813093
 20
254.7671710712066
 30
0.0
 10
254.690296821999
 20
254.7943410485017
 30
0.0
 10
254.7428409903575
 20
254.8172865302928
 30
0.0
 10
254.7945040089708
 20
254.8410653898158
 30
0.0
 10
254.8510428161775
 20
254.8684677143926
 30
0.0
 10
254.912009978429
 20
254.8998307509945
 30
0.0
 10
254.9769153209484
 20
254.9355203257379
 30
0.0
 10
255.0402268843123
 20
254.9726782487316
 30
0.0
 10
255.1019128933351
 20
255.0112863149548
 30
0.0
 10
255.1619578317341
 20
255.0513052868863
 30
0.0
 10
255.2154481907005
 20
255.0892208511363
 30
0.0
 10
255.2628517378549
 20
255.1246536434958
 30
0.0
 10
255.3046151790743
 20
255.1573022517399
 30
0.0
 10
255.3453936368508
 20
255.1906246764918
 30
0.0
 10
255.3968715753663
 20
255.2345675176615
 30
0.0
 10
255.4577612866835
 20
255.2898828476585
 30
0.0
 10
255.5265302271406
 20
255.3574996877112
 30
0.0
 10
255.5919562488239
 20
255.4270301919518
 30
0.0
 10
255.6541590342254
 20
255.4983799492936
 30
0.0
 10
255.7131067078302
 20
255.5712930015577
 30
0.0
 10
255.7689046847247
 20
255.6456600886505
 30
0.0
 10
255.8215398514345
 20
255.7212233660262
 30
0.0
 10
255.8711066742519
 20
255.7978717276652
 30
0.0
 10
255.9176044531353
 20
255.8753580252486
 30
0.0
 10
255.9611043205357
 20
255.9535609688096
 30
0.0
 10
256.0016014377035
 20
256.032231468738
 30
0.0
 10
256.0376676368971
 20
256.1081334771374
 30
0.0
 10
256.0696881119955
 20
256.1810157949917
 30
0.0
 10
256.098055732855
 20
256.250782707216
 30
0.0
 10
256.1241101160027
 20
256.3203524335534
 30
0.0
 10
256.1478358395754
 20
256.3895816919377
 30
0.0
 10
256.1692051102859
 20
256.4582867833903
 30
0.0
 10
256.1882044738383
 20
256.5263642894162
 30
0.0
 10
256.2047980443135
 20
256.5936586221171
 30
0.0
 10
256.2189339932513
 20
256.6600004231874
 30
0.0
 10
256.2305505763843
 20
256.7251684103135
 30
0.0
 10
256.2395918657781
 20
256.7890409765648
 30
0.0
 10
256.2459786564884
 20
256.8514173688042
 30
0.0
 10
256.2496201292213
 20
256.912127885324
 30
0.0
 10
256.250413465364
 20
256.970897930426
 30
0.0
 10
256.2485441833016
 20
257.0197878724265
 30
0.0
 10
256.2451994060713
 20
257.0596543204587
 30
0.0
 10
256.2413979900194
 20
257.0912506955315
 30
0.0
 10
256.2364756384086
 20
257.122041618981
 30
0.0
 10
256.2297843329034
 20
257.1554660427093
 30
0.0
 10
256.220536553597
 20
257.1909409126116
 30
0.0
 10
256.2128806615846
 20
257.2167148136661
 30
0.0
 10
256.2079720412453
 20
257.2291282729876
 30
0.0
 10
256.2077863674906
 20
257.2295978252123
 30
0.0
  0
SPLINE
  5
AC
330
1F
100
AcDbEntity
  8
0
  6
Continuous
 62
     7
370
    30
100
AcDbSpline
210
0.0
220
0.0
230
1.0
 70
     8
 71
     3
 72
    83
 73
    79
 74
     0
 42
0.000000001
 43
0.00000001
 40
0.0
 40
0.0
 40
0.0
 40
0.0
 40
0.0025330120373892
 40
0.0156011621018782
 40
0.0286669527555496
 40
0.0418183166570295
 40
0.0549720482092471
 40
0.0681235594439402
 40
0.0780409792092914
 40
0.0879584142118201
 40
0.0978901245380746
 40
0.1078218704725663
 40
0.1222170431856805
 40
0.1366123464858021
 40
0.1510407418850449
 40
0.1654692395018059
 40
0.179940015638854
 40
0.1944108686034794
 40
0.2089063269047459
 40
0.22340183926237
 40
0.2379393230496767
 40
0.252476841047557
 40
0.2670347762275391
 40
0.2815927276846459
 40
0.2961844820330347
 40
0.3107762363294983
 40
0.3253876543717455
 40
0.339999057020409
 40
0.357327474050709
 40
0.3746558292663643
 40
0.3920210383268731
 40
0.4093861522091293
 40
0.4267606926054342
 40
0.4441351065509318
 40
0.4615570310292118
 40
0.4789787997034672
 40
0.4964154151110324
 40
0.5138518526003718
 40
0.5313521916867563
 40
0.5488523391296027
 40
0.5663981013541285
 40
0.5839636075651607
 40
0.5937396116487783
 40
0.6035155989424611
 40
0.6133068766157187
 40
0.6230981391271275
 40
0.636227700934918
 40
0.6493597232415572
 40
0.6624891529572833
 40
0.6757125048761924
 40
0.6889385357443082
 40
0.7021618161823328
 40
0.7121453901753234
 40
0.722128961997139
 40
0.7321316240786689
 40
0.7421342866118334
 40
0.7519134208978331
 40
0.7616925575715592
 40
0.7714895252044774
 40
0.7812864967391057
 40
0.7944314391376206
 40
0.807579045976029
 40
0.8207240475053627
 40
0.8339638171764003
 40
0.8472062294358069
 40
0.8604460636287884
 40
0.870438420905125
 40
0.8804307835668119
 40
0.8904406283881658
 40
0.9004504779539314
 40
0.912845372643318
 40
0.9252402763706126
 40
0.93766772661565
 40
0.9500951834361911
 40
0.9625551223661254
 40
0.9750150652857054
 40
0.9875075319715529
 40
1.0
 40
1.0
 40
1.0
 40
1.0
 10
248.7923657590569
 20
257.2295963697711
 30
0.0
 10
248.7914785029336
 20
257.2273068038083
 30
0.0
 10
248.7860137730385
 20
257.2132050588498
 30
0.0
 10
248.7779867537498
 20
257.1858443444357
 30
0.0
 10
248.7683303237545
 20
257.1473705366992
 30
0.0
 10
248.7608457734879
 20
257.1072132265861
 30
0.0
 10
248.7552682859972
 20
257.0655582337296
 30
0.0
 10
248.7519319604199
 20
257.0260038671378
 30
0.0
 10
248.7502743901551
 20
256.9889627299166
 30
0.0
 10
248.7498305500229
 20
256.9547576468224
 30
0.0
 10
248.7504185651216
 20
256.9197710915915
 30
0.0
 10
248.7522592137063
 20
256.878701334511
 30
0.0
 10
248.7559194458034
 20
256.8312143650589
 30
0.0
 10
248.7620357792252
 20
256.7769449499625
 30
0.0
 10
248.770139301727
 20
256.7214950241469
 30
0.0
 10
248.7802001363207
 20
256.6649326998068
 30
0.0
 10
248.792176329556
 20
256.6074184329904
 30
0.0
 10
248.8060481697071
 20
256.5490314673823
 30
0.0
 10
248.8217759791617
 20
256.489938101806
 30
0.0
 10
248.8393572866688
 20
256.4301851908575
 30
0.0
 10
248.858768292371
 20
256.369907756159
 30
0.0
 10
248.8800124509166
 20
256.3091743908398
 30
0.0
 10
248.9030631974858
 20
256.248139614171
 30
0.0
 10
248.9279400372323
 20
256.1868484704183
 30
0.0
 10
248.9546358851038
 20
256.125421357071
 30
0.0
 10
248.9831748724629
 20
256.0639197554698
 30
0.0
 10
249.0135469345009
 20
256.002480561267
 30
0.0
 10
249.0477667987294
 20
255.9373922583978
 30
0.0
 10
249.0862599101017
 20
255.8688302228474
 30
0.0
 10
249.1295482441415
 20
255.7969527984803
 30
0.0
 10
249.1755541508295
 20
255.7256885479071
 30
0.0
 10
249.2243405273466
 20
255.6551701829682
 30
0.0
 10
249.2759248407745
 20
255.5855973244227
 30
0.0
 10
249.3304118731474
 20
255.517052718792
 30
0.0
 10
249.3878551168499
 20
255.4497040006393
 30
0.0
 10
249.4483348193529
 20
255.3836818042256
 30
0.0
 10
249.5118551016882
 20
255.3192023972297
 30
0.0
 10
249.5785469584631
 20
255.2563327967602
 30
0.0
 10
249.6484512094306
 20
255.1952505632978
 30
0.0
 10
249.7216765559546
 20
255.1360473573025
 30
0.0
 10
249.7982035948669
 20
255.0789241261394
 30
0.0
 10
249.8662510891631
 20
255.0321338912757
 30
0.0
 10
249.9242891507111
 20
254.9947640617333
 30
0.0
 10
249.9711704210285
 20
254.9659840033961
 30
0.0
 10
250.0190728713937
 20
254.9379714293907
 30
0.0
 10
250.0735504620823
 20
254.9076467883601
 30
0.0
 10
250.1350093759988
 20
254.8753943341585
 30
0.0
 10
250.2039033957574
 20
254.841642099915
 30
0.0
 10
250.2746811200334
 20
254.8093204693385
 30
0.0
 10
250.3473289048328
 20
254.7784674641612
 30
0.0
 10
250.421812385304
 20
254.7490953931805
 30
0.0
 10
250.491699679822
 20
254.7235516681984
 30
0.0
 10
250.5565186368408
 20
254.7014264770231
 30
0.0
 10
250.6159177893026
 20
254.6823291127342
 30
0.0
 10
250.6762017735075
 20
254.6640975575527
 30
0.0
 10
250.7368895555234
 20
254.646853087203
 30
0.0
 10
250.7978953701055
 20
254.6305760032171
 30
0.0
 10
250.8592086455498
 20
254.6152224853167
 30
0.0
 10
250.9212656710656
 20
254.600659547082
 30
0.0
 10
250.9911888621879
 20
254.5853035185902
 30
0.0
 10
251.0692063384759
 20
254.5694862950408
 30
0.0
 10
251.1555597484852
 20
254.5535511855523
 30
0.0
 10
251.2431508725892
 20
254.5388893410144
 30
0.0
 10
251.3319184392125
 20
254.525471573367
 30
0.0
 10
251.4217936127278
 20
254.5132624176431
 30
0.0
 10
251.505076580062
 20
254.5031509823666
 30
0.0
 10
251.5814869962575
 20
254.4947884446889
 30
0.0
 10
251.6508643650708
 20
254.4878791652945
 30
0.0
 10
251.7206466807306
 20
254.4815899213144
 30
0.0
 10
251.7963748471743
 20
254.4754544186938
 30
0.0
 10
251.8780686734748
 20
254.4696365229859
 30
0.0
 10
251.965842424733
 20
254.4642986257711
 30
0.0
 10
252.0540406198079
 20
254.4598168245868
 30
0.0
 10
252.1426825083933
 20
254.4561722096277
 30
0.0
 10
252.2316338518711
 20
254.453347359234
 30
0.0
 10
252.3209144036479
 20
254.4513499844981
 30
0.0
 10
252.4103891798715
 20
254.4501007674819
 30
0.0
 10
252.4701297255538
 20
254.4499466297827
 30
0.0
 10
252.5
 20
254.4498695609289
 30
0.0
  0
LINE
  5
AD
330
1F
100
AcDbEntity
  8
0
  6
Continuous
 62
     8
370
     0
100
AcDbLine
 10
264.1273953247
 20
186.6124838475
 30
0.0
 11
240.8726046753
 21
186.6124838475
 31
0.0
  0
LINE
  5
AE
330
1F
100
AcDbEntity
  8
0
  6
Continuous
 62
     8
370
     0
100
AcDbLine
 10
242.1292713419
 20
215.6124838475
 30
0.0
 11
262.8707286581
 21
215.6124838475
 31
0.0
  0
LINE
  5
AF
330
1F
100
AcDbEntity
  8
0
  6
Continuous
 62
     8
370
     0
100
AcDbLine
 10
252.5
 20
309.3875161525
 30
0.0
 11
240.8726046753
 21
309.3875161525
 31
0.0
  0
LINE
  5
B0
330
1F
100
AcDbEntity
  8
0
  6
Continuous
 62
     8
370
     0
100
AcDbLine
 10
264.1273953247
 20
309.3875161525
 30
0.0
 11
252.5
 21
309.3875161525
 31
0.0
  0
LINE
  5
B1
330
1F
100
AcDbEntity
  8
0
  6
Continuous
 62
     8
370
     0
100
AcDbLine
 10
252.5
 20
280.3875161525
 30
0.0
 11
262.8707286581
 21
280.3875161525
 31
0.0
  0
LINE
  5
B2
330
1F
100
AcDbEntity
  8
0
  6
Continuous
 62
     8
370
     0
100
AcDbLine
 10
242.1292713419
 20
280.3875161525
 30
0.0
 11
252.5
 21
280.3875161525
 31
0.0
  0
LINE
  5
B3
330
1F
100
AcDbEntity
  8
0
  6
Continuous
 62
     7
370
    30
100
AcDbLine
 10
46.0
 20
216.0908374948
 30
0.0
 11
46.0
 21
239.0431759949
 31
0.0
  0
LINE
  5
B4
330
1F
100
AcDbEntity
  8
0
  6
Continuous
 62
     7
370
    30
100
AcDbLine
 10
31.0
 20
239.0430490787
 30
0.0
 11
31.0
 21
216.0908374948
 31
0.0
  0
LINE
  5
B5
330
1F
100
AcDbEntity
  8
0
  6
Continuous
 62
     7
370
    30
100
AcDbLine
 10
44.0870762485
 20
241.7730610909
 30
0.0
 11
32.9131256705
 21
241.7730610909
 31
0.0
  0
ARC
  5
B6
330
1F
100
AcDbEntity
  8
0
  6
Continuous
 62
     7
370
    30
100
AcDbCircle
 10
49.6278641091
 20
186.5908374948
 30
0.0
 40
0.5
100
AcDbArc
 50
270.0
 51
2.4812648012
  0
ARC
  5
B7
330
1F
100
AcDbEntity
  8
0
  6
Continuous
 62
     7
370
    30
100
AcDbCircle
 10
27.3721358909
 20
186.5908374948
 30
0.0
 40
0.500000000000001
100
AcDbArc
 50
177.5187351988
 51
270.0
  0
LINE
  5
B8
330
1F
100
AcDbEntity
  8
0
  6
Continuous
 62
     7
370
    30
100
AcDbLine
 10
50.1273953247
 20
186.6124838475
 30
0.0
 11
48.8707286581
 21
215.6124838475
 31
0.0
  0
LINE
  5
B9
330
1F
100
AcDbEntity
  8
0
  6
Continuous
 62
     7
370
    30
100
AcDbLine
 10
28.1292713419
 20
215.6124838475
 30
0.0
 11
26.8726046753
 21
186.6124838475
 31
0.0
  0
ARC
  5
BA
330
1F
100
AcDbEntity
  8
0
  6
Continuous
 62
     7
370
    30
100
AcDbCircle
 10
28.6288025576
 20
215.5908374948
 30
0.0
 40
0.5
100
AcDbArc
 50
90.0
 51
177.5187351988
  0
ARC
  5
BB
330
1F
100
AcDbEntity
  8
0
  6
Continuous
 62
     7
370
    30
100
AcDbCircle
 10
48.3711974424
 20
215.5908374948
 30
0.0
 40
0.5000000000000012
100
AcDbArc
 50
2.4812648012
 51
90.0
  0
ARC
  5
BC
330
1F
100
AcDbEntity
  8
0
  6
Continuous
 62
     7
370
    30
100
AcDbCircle
 10
27.3721358909
 20
309.4091625052
 30
0.0
 40
0.5
100
AcDbArc
 50
90.0
 51
182.4812648012
  0
ARC
  5
BD
330
1F
100
AcDbEntity
  8
0
  6
Continuous
 62
     7
370
    30
100
AcDbCircle
 10
49.6278641091
 20
309.4091625052
 30
0.0
 40
0.5
100
AcDbArc
 50
357.5187351988
 51
90.0
  0
LINE
  5
BE
330
1F
100
AcDbEntity
  8
0
  6
Continuous
 62
     7
370
    30
100
AcDbLine
 10
26.8726046753
 20
309.3875161525
 30
0.0
 11
28.1292713419
 21
280.3875161525
 31
0.0
  0
LINE
  5
BF
330
1F
100
AcDbEntity
  8
0
  6
Continuous
 62
     7
370
    30
100
AcDbLine
 10
48.8707286581
 20
280.3875161525
 30
0.0
 11
50.1273953247
 21
309.3875161525
 31
0.0
  0
ARC
  5
C0
330
1F
100
AcDbEntity
  8
0
  6
Continuous
 62
     7
370
    30
100
AcDbCircle
 10
48.3711974424
 20
280.4091625052
 30
0.0
 40
0.5
100
AcDbArc
 50
270.0
 51
357.5187351988
  0
ARC
  5
C1
330
1F
100
AcDbEntity
  8
0
  6
Continuous
 62
     7
370
    30
100
AcDbCircle
 10
28.6288025576
 20
280.4091625052
 30
0.0
 40
0.5
100
AcDbArc
 50
182.4812648012
 51
270.0
  0
LINE
  5
C2
330
1F
100
AcDbEntity
  8
0
  6
Continuous
 62
     7
370
    30
100
AcDbLine
 10
32.913003498
 20
254.2269389091
 30
0.0
 11
44.086874199
 21
254.2269389091
 31
0.0
  0
LINE
  5
C3
330
1F
100
AcDbEntity
  8
0
  6
Continuous
 62
     7
370
    30
100
AcDbLine
 10
31.0
 20
279.9091625052
 30
0.0
 11
31.0
 21
256.9568240062
 31
0.0
  0
LINE
  5
C4
330
1F
100
AcDbEntity
  8
0
  6
Continuous
 62
     7
370
    30
100
AcDbLine
 10
46.0
 20
256.9569509213
 30
0.0
 11
46.0
 21
279.9091625052
 31
0.0
  0
SPLINE
  5
C5
330
1F
100
AcDbEntity
  8
0
  6
Continuous
 62
     7
370
    30
100
AcDbSpline
210
0.0
220
0.0
230
1.0
 70
     8
 71
     3
 72
   285
 73
   281
 74
     0
 42
0.000000001
 43
0.00000001
 40
0.0
 40
0.0
 40
0.0
 40
0.0
 40
0.0014553600479617
 40
0.0047695229579595
 40
0.0080831560094901
 40
0.0103952422083358
 40
0.0127073226549177
 40
0.0150225977859079
 40
0.0173378668552995
 40
0.0204410676620058
 40
0.0235448093908003
 40
0.026647940538386
 40
0.0297732048368202
 40
0.0328991133316017
 40
0.0360243133396528
 40
0.0383850901457333
 40
0.0407458622500783
 40
0.0431117681531492
 40
0.0454776766937319
 40
0.047787072500123
 40
0.0500964780101507
 40
0.0524101869397148
 40
0.0547239059795208
 40
0.0578266227552242
 40
0.0609298928729331
 40
0.0640327195555377
 40
0.0671516751196307
 40
0.0702710506772119
 40
0.0733901012061933
 40
0.0757374422684276
 40
0.0780847905425472
 40
0.0827830548489
 40
0.0855329800072432
 40
0.0882829149148549
 40
0.0910348356397101
 40
0.0937867642121347
 40
0.0993034433912688
 40
0.1048202084186765
 40
0.1103458366024176
 40
0.1158715048689132
 40
0.1214078920119591
 40
0.1269442777221311
 40
0.1324872625940143
 40
0.1380302017274609
 40
0.1417338911551421
 40
0.1454377519841769
 40
0.1491413710726456
 40
0.1528538523765323
 40
0.156566603862462
 40
0.1602789607881821
 40
0.1630732637643679
 40
0.1658675504482478
 40
0.1686653946639824
 40
0.1714632185702827
 40
0.1744167770769445
 40
0.1773703309557836
 40
0.1803295864497484
 40
0.183288838553904
 40
0.1872618424046628
 40
0.1912357463092078
 40
0.1952087339758201
 40
0.1992149093839591
 40
0.2032220243222453
 40
0.2072282149167304
 40
0.2102551736059809
 40
0.2132821356761466
 40
0.2163153074381442
 40
0.2193484836635517
 40
0.222296970245892
 40
0.2252454615169956
 40
0.2281992765468786
 40
0.2311530967691778
 40
0.2351151690482595
 40
0.2390779972133301
 40
0.2430401316447997
 40
0.2470274599373072
 40
0.2510154767763239
 40
0.2550028666108554
 40
0.2580086808821716
 40
0.2610145003590346
 40
0.2640243445123319
 40
0.2670341934855925
 40
0.2705389544989161
 40
0.2740440835622024
 40
0.2775488715740911
 40
0.2810660254464634
 40
0.2845835168996657
 40
0.288100692909885
 40
0.2916298557287837
 40
0.2951593315408287
 40
0.2986885118163412
 40
0.3022284016640968
 40
0.3057685853663467
 40
0.3093084884205425
 40
0.3128591147784888
 40
0.3164100211098194
 40
0.3199606569907492
 40
0.3235210862362049
 40
0.3270817859226778
 40
0.330642221579366
 40
0.3342057421041825
 40
0.3377695259154169
 40
0.3413330502621048
 40
0.3449059640850659
 40
0.3484791386569378
 40
0.3520520542504121
 40
0.3556348139981332
 40
0.3592178346229901
 40
0.3628005945210638
 40
0.3663927855997622
 40
0.369985239630597
 40
0.3735774296148012
 40
0.3771796478615182
 40
0.3807821328415973
 40
0.3843843490749404
 40
0.3879962844178482
 40
0.3916084913784751
 40
0.3952204240739072
 40
0.3991029430399156
 40
0.4029858037221807
 40
0.4068683186701814
 40
0.4107633445398486
 40
0.4146587207095771
 40
0.4185537423309493
 40
0.4224754603438868
 40
0.4263975414984875
 40
0.4303192552469564
 40
0.4342542653114282
 40
0.4381896477365774
 40
0.4421246538160563
 40
0.4460872917256397
 40
0.4500503150731657
 40
0.4540129494236186
 40
0.4579896637406241
 40
0.4619667721600126
 40
0.4659434835632512
 40
0.4693357636863637
 40
0.4727280434627036
 40
0.4761242907159452
 40
0.4795205376941481
 40
0.4840634461560849
 40
0.4886069519911876
 40
0.4931498586659941
 40
0.4977144923627831
 40
0.5022797341253584
 40
0.5068443678214438
 40
0.5114246199369192
 40
0.516005486116955
 40
0.5205857400850962
 40
0.5251881975298529
 40
0.5297912753273167
 40
0.5343937364810027
 40
0.5380767169847146
 40
0.5417600127952816
 40
0.5454429954378717
 40
0.5491373060934012
 40
0.5528319321215032
 40
0.5565262454282203
 40
0.5602324395723357
 40
0.5639389486321402
 40
0.5676451458614614
 40
0.5713626232601309
 40
0.5750804144019748
 40
0.5787978952041722
 40
0.5825271764653424
 40
0.5862567700147445
 40
0.5899860548457404
 40
0.5937265080680455
 40
0.5974672717527604
 40
0.6012077285076306
 40
0.6049681623561717
 40
0.6087289070765701
 40
0.6124893441939538
 40
0.6162609110661232
 40
0.6200327874048188
 40
0.6238043569225478
 40
0.6275875901087217
 40
0.6313711323272229
 40
0.6351543671324037
 40
0.6389487274953574
 40
0.6427433977088342
 40
0.6465377581641106
 40
0.6503438970641423
 40
0.6541503488531724
 40
0.6579564857049367
 40
0.6617740249788719
 40
0.6655918829816574
 40
0.669409417315759
 40
0.67330687051901
 40
0.6772046701754436
 40
0.6811021139542193
 40
0.6850124532457306
 40
0.6889231553677528
 40
0.6928334798629718
 40
0.6967583930839635
 40
0.7006836933338766
 40
0.7046085849627082
 40
0.7085482955718555
 40
0.712488426793395
 40
0.7164281075241123
 40
0.7203850434071104
 40
0.724342445712167
 40
0.7282993420319244
 40
0.7322746024435646
 40
0.7362503889034226
 40
0.7402255993666524
 40
0.7432031815432439
 40
0.7461807586341642
 40
0.7491624854834933
 40
0.7521442069027126
 40
0.7561403462860945
 40
0.7601371642775735
 40
0.7641332394143415
 40
0.7681562727739849
 40
0.7721800834283324
 40
0.7762030533548879
 40
0.7792403806886953
 40
0.7822777029208987
 40
0.7853210979018697
 40
0.7883644886220315
 40
0.7913478456115826
 40
0.7943311997081657
 40
0.7973206513218808
 40
0.8003101012555246
 40
0.8043248478373747
 40
0.8083405390095064
 40
0.8123552903892539
 40
0.8164040878542499
 40
0.8204538428258046
 40
0.8245026785551277
 40
0.8275612729681351
 40
0.8306198814194251
 40
0.833684116700443
 40
0.836748378747651
 40
0.8397203496287993
 40
0.842692339099495
 40
0.8456674540436809
 40
0.848642583371116
 40
0.8526393422020858
 40
0.8566364332098816
 40
0.8606332974085118
 40
0.8646385465466386
 40
0.8686440032239214
 40
0.8726492996966317
 40
0.8787294184004032
 40
0.8848095384694498
 40
0.8888687489921221
 40
0.8929281247821798
 40
0.8969872894950534
 40
0.9010882544638272
 40
0.9051894578312094
 40
0.9092903188095899
 40
0.9134037272760398
 40
0.9175175205948125
 40
0.9216307516940635
 40
0.9251499160451531
 40
0.9286694693529839
 40
0.932188496176175
 40
0.9357266972715996
 40
0.9392654800320712
 40
0.9428035033158896
 40
0.9463690950195583
 40
0.9499355218496148
 40
0.9535009152329809
 40
0.9571031770542314
 40
0.9607065822185551
 40
0.9643088655666632
 40
0.9671337569165668
 40
0.9699591699817878
 40
0.9727841041688879
 40
0.9756263853892391
 40
0.9784691405317975
 40
0.9813114706562213
 40
0.9841708615542468
 40
0.9870306705614511
 40
0.9898901105021786
 40
0.9927629392781739
 40
0.9956361285109157
 40
0.9985090020963819
 40
1.0
 40
1.0
 40
1.0
 40
1.0
 10
32.91312567052634
 20
241.7728050310183
 30
0.0
 10
32.90130541330276
 20
241.7728643082916
 30
0.0
 10
32.86256792818642
 20
241.7730585724645
 30
0.0
 10
32.79846119581062
 20
241.7711461475251
 30
0.0
 10
32.72863095192061
 20
241.767403336281
 30
0.0
 10
32.66775587178775
 20
241.7623565677904
 30
0.0
 10
32.61530076123356
 20
241.7567512503864
 30
0.0
 10
32.56362135566103
 20
241.749880616606
 30
0.0
 10
32.50695859583236
 20
241.7407801175679
 30
0.0
 10
32.44571589654188
 20
241.7288188025495
 30
0.0
 10
32.38035075475914
 20
241.7132410593104
 30
0.0
 10
32.31641654062691
 20
241.6950177099724
 30
0.0
 10
32.2539769807945
 20
241.6740285182082
 30
0.0
 10
32.1930818197518
 20
241.6501819087345
 30
0.0
 10
32.13874251333585
 20
241.6256346783481
 30
0.0
 10
32.09053765196475
 20
241.6011016085612
 30
0.0
 10
32.04802271141025
 20
241.5772438933641
 30
0.0
 10
32.00652165074514
 20
241.551637147584
 30
0.0
 10
31.96636686120034
 20
241.5245022621992
 30
0.0
 10
31.92756331993425
 20
241.4959360471967
 30
0.0
 10
31.89005226667913
 20
241.4660335385272
 30
0.0
 10
31.85351712213368
 20
241.4346125847272
 30
0.0
 10
31.81390785801861
 20
241.3979955403726
 30
0.0
 10
31.77166259142854
 20
241.35565208357
 30
0.0
 10
31.7272382452876
 20
241.3070564488991
 30
0.0
 10
31.68443724081059
 20
241.2561905950288
 30
0.0
 10
31.64323223926494
 20
241.20318658765
 30
0.0
 10
31.60358945737131
 20
241.1481836343096
 30
0.0
 10
31.56867420691616
 20
241.0960981718923
 30
0.0
 10
31.53802867806908
 20
241.0475082190053
 30
0.0
 10
31.5023306216354
 20
240.9879490285125
 30
0.0
 10
31.46684606206892
 20
240.9241534928185
 30
0.0
 10
31.43173929265327
 20
240.8561377206884
 30
0.0
 10
31.40440009176151
 20
240.8002274070407
 30
0.0
 10
31.37809378374648
 20
240.7435081525159
 30
0.0
 10
31.34432391315401
 20
240.6668156932512
 30
0.0
 10
31.3045565832222
 20
240.5692641386541
 30
0.0
 10
31.2605827018248
 20
240.4500625141448
 30
0.0
 10
31.22021041045197
 20
240.3293133883337
 30
0.0
 10
31.18330437447685
 20
240.2074504192977
 30
0.0
 10
31.14977530112879
 20
240.0850416554091
 30
0.0
 10
31.11955757697203
 20
239.9625398291722
 30
0.0
 10
31.09261808252424
 20
239.8405274546948
 30
0.0
 10
31.07157712114662
 20
239.7329156992007
 30
0.0
 10
31.05529399099932
 20
239.6397306435338
 30
0.0
 10
31.04281392055358
 20
239.5606739415924
 30
0.0
 10
31.03183574473566
 20
239.4826313235865
 30
0.0
 10
31.02238498212881
 20
239.4057909161584
 30
0.0
 10
31.01450583173493
 20
239.3303690098066
 30
0.0
 10
31.00876271338861
 20
239.2627220659539
 30
0.0
 10
31.00475421496807
 20
239.2025658652626
 30
0.0
 10
31.00210890014691
 20
239.1495252836878
 30
0.0
 10
31.00045723740372
 20
239.0977756066606
 30
0.0
 10
30.99981748459821
 20
239.0465016372642
 30
0.0
 10
31.00028988235093
 20
238.9959584710275
 30
0.0
 10
31.0019822021331
 20
238.9462551654261
 30
0.0
 10
31.00492484517506
 20
238.898328032502
 30
0.0
 10
31.00963475851828
 20
238.8469339985111
 30
0.0
 10
31.01672525619669
 20
238.7929400965262
 30
0.0
 10
31.02691606256612
 20
238.7373014527681
 30
0.0
 10
31.03964726836915
 20
238.6849133054709
 30
0.0
 10
31.05501420634963
 20
238.6358400337508
 30
0.0
 10
31.07308089102743
 20
238.5900915426748
 30
0.0
 10
31.0921571884237
 20
238.5512338432136
 30
0.0
 10
31.1115565354942
 20
238.5183442453343
 30
0.0
 10
31.13065486013823
 20
238.4905662934396
 30
0.0
 10
31.15135656723324
 20
238.4646844795512
 30
0.0
 10
31.17346238186596
 20
238.4408965347813
 30
0.0
 10
31.1969129324484
 20
238.4191317597846
 30
0.0
 10
31.22167196414025
 20
238.3992849686375
 30
0.0
 10
31.247967160577
 20
238.3811210047888
 30
0.0
 10
31.2789638381191
 20
238.3627247766441
 30
0.0
 10
31.31531432199908
 20
238.3447782754328
 30
0.0
 10
31.3577482868451
 20
238.3279800908392
 30
0.0
 10
31.40297483590639
 20
238.3138573259194
 30
0.0
 10
31.45100135231887
 20
238.3023255095956
 30
0.0
 10
31.50181401510453
 20
238.2932825418766
 30
0.0
 10
31.55089756362471
 20
238.2871816210695
 30
0.0
 10
31.59751979469413
 20
238.2832981817502
 30
0.0
 10
31.64106442759388
 20
238.2810386782932
 30
0.0
 10
31.6860978558671
 20
238.2799735845024
 30
0.0
 10
31.73515562898432
 20
238.2800582030756
 30
0.0
 10
31.7884966139894
 20
238.2814629546547
 30
0.0
 10
31.84640179628187
 20
238.2843442991769
 30
0.0
 10
31.90628282783768
 20
238.2885607523671
 30
0.0
 10
31.96812571451147
 20
238.294041149136
 30
0.0
 10
32.03191134542859
 20
238.3007162372199
 30
0.0
 10
32.09761737496557
 20
238.3085152849534
 30
0.0
 10
32.16522860829756
 20
238.3173698979458
 30
0.0
 10
32.23472585744152
 20
238.327214996345
 30
0.0
 10
32.30608033314381
 20
238.3379831428726
 30
0.0
 10
32.3792757272824
 20
238.3496095966528
 30
0.0
 10
32.45429245772365
 20
238.362033728759
 30
0.0
 10
32.53111017218498
 20
238.3751941497781
 30
0.0
 10
32.60971245776106
 20
238.389030736781
 30
0.0
 10
32.69008002071973
 20
238.4034877809219
 30
0.0
 10
32.77218536465942
 20
238.4185075818589
 30
0.0
 10
32.85601140743156
 20
238.4340345462012
 30
0.0
 10
32.9415383896398
 20
238.4500175885728
 30
0.0
 10
33.02869087892865
 20
238.4663948507069
 30
0.0
 10
33.11744795296816
 20
238.4831146150046
 30
0.0
 10
33.20778623211419
 20
238.5001298518874
 30
0.0
 10
33.29973695558943
 20
238.5174037184007
 30
0.0
 10
33.39328195677299
 20
238.5348898294517
 30
0.0
 10
33.48840040926193
 20
238.5525460505299
 30
0.0
 10
33.58507452786689
 20
238.5703307296272
 30
0.0
 10
33.68328536851229
 20
238.5882015460506
 30
0.0
 10
33.78301121793934
 20
238.6061202532665
 30
0.0
 10
33.88422528046313
 20
238.624047729259
 30
0.0
 10
33.98690704897049
 20
238.6419453908997
 30
0.0
 10
34.09103314528928
 20
238.6597785954854
 30
0.0
 10
34.19658490085415
 20
238.677513591512
 30
0.0
 10
34.30354036029777
 20
238.6951152682237
 30
0.0
 10
34.41187457494652
 20
238.7125523130695
 30
0.0
 10
34.52155822631286
 20
238.7297929201699
 30
0.0
 10
34.63256718614416
 20
238.7468052484135
 30
0.0
 10
34.74487431701005
 20
238.7635611618255
 30
0.0
 10
34.86118294188678
 20
238.7804287870209
 30
0.0
 10
34.98156594100996
 20
238.7973512630761
 30
0.0
 10
35.10608616797317
 20
238.8142686752421
 30
0.0
 10
35.23197557839965
 20
238.8307664747181
 30
0.0
 10
35.35919899311999
 20
238.846812740667
 30
0.0
 10
35.48771717906276
 20
238.8623802489655
 30
0.0
 10
35.61764681255218
 20
238.8774603383773
 30
0.0
 10
35.74895388401264
 20
238.892022405664
 30
0.0
 10
35.88159976225594
 20
238.9060402166174
 30
0.0
 10
36.01539026750127
 20
238.9194735712163
 30
0.0
 10
36.15028290077176
 20
238.9322973149652
 30
0.0
 10
36.28623133207049
 20
238.9444909297465
 30
0.0
 10
36.42335410216106
 20
238.956048409783
 30
0.0
 10
36.56160861833519
 20
238.966945132167
 30
0.0
 10
36.70094804628393
 20
238.9771609035025
 30
0.0
 10
36.84116327950311
 20
238.9866664870085
 30
0.0
 10
36.98220438662209
 20
238.9954431760439
 30
0.0
 10
37.12401811181163
 20
239.0034769538748
 30
0.0
 10
37.25940896972994
 20
239.010389696931
 30
0.0
 10
37.38823397618319
 20
239.0162970703485
 30
0.0
 10
37.51043534389038
 20
239.021315708164
 30
0.0
 10
37.63297454765792
 20
239.0257598592789
 30
0.0
 10
37.7696403903248
 20
239.0300598691138
 30
0.0
 10
37.92045432408589
 20
239.033956133892
 30
0.0
 10
38.08542631290952
 20
239.0371562581034
 30
0.0
 10
38.25088033605069
 20
239.0393002746131
 30
0.0
 10
38.41673025240949
 20
239.0403753465206
 30
0.0
 10
38.58288798000159
 20
239.0403765835191
 30
0.0
 10
38.74919108905109
 20
239.039301050893
 30
0.0
 10
38.91555046110952
 20
239.0371433553976
 30
0.0
 10
39.08187649741456
 20
239.0339061671199
 30
0.0
 10
39.24815945792646
 20
239.0295909032473
 30
0.0
 10
39.41430812265605
 20
239.0241963107362
 30
0.0
 10
39.58023139272619
 20
239.0177295836092
 30
0.0
 10
39.73456397467212
 20
239.0107120224593
 30
0.0
 10
39.87735809872765
 20
239.0033840182381
 30
0.0
 10
40.00870992939919
 20
238.9959630271003
 30
0.0
 10
40.13967892456406
 20
238.987886899077
 30
0.0
 10
40.27021898265676
 20
238.979162080853
 30
0.0
 10
40.40028507325803
 20
238.9697986728512
 30
0.0
 10
40.52983938494873
 20
238.9598069013754
 30
0.0
 10
40.65883605650647
 20
238.9491960570794
 30
0.0
 10
40.78723087418293
 20
238.9379792770893
 30
0.0
 10
40.91497363328551
 20
238.9261709755594
 30
0.0
 10
41.0420194117759
 20
238.913783765988
 30
0.0
 10
41.16832531046892
 20
238.9008342762454
 30
0.0
 10
41.29385526221187
 20
238.8873390623769
 30
0.0
 10
41.41856527077824
 20
238.8733141152401
 30
0.0
 10
41.54241363995276
 20
238.8587796393349
 30
0.0
 10
41.66535289734054
 20
238.8437572446898
 30
0.0
 10
41.78734047956003
 20
238.8282667861235
 30
0.0
 10
41.90833638885717
 20
238.8123325288939
 30
0.0
 10
42.02839587793397
 20
238.7959663830582
 30
0.0
 10
42.14747451932338
 20
238.7791912362357
 30
0.0
 10
42.26553028879549
 20
238.7620348407798
 30
0.0
 10
42.38243219174405
 20
238.7445395861535
 30
0.0
 10
42.49814015456363
 20
238.7267340794535
 30
0.0
 10
42.61261697037626
 20
238.7086518741474
 30
0.0
 10
42.72583206311369
 20
238.6903260216041
 30
0.0
 10
42.83774641034415
 20
238.6717900282099
 30
0.0
 10
42.9483238739262
 20
238.6530826697341
 30
0.0
 10
43.05752455764706
 20
238.6342439366365
 30
0.0
 10
43.16531072101838
 20
238.6153128256938
 30
0.0
 10
43.27164751325499
 20
238.5963339442084
 30
0.0
 10
43.37650739781797
 20
238.5773510525109
 30
0.0
 10
43.47985304568243
 20
238.5584092009681
 30
0.0
 10
43.58164995151095
 20
238.5395594887131
 30
0.0
 10
43.68186171657301
 20
238.5208538051696
 30
0.0
 10
43.78045147223018
 20
238.5023439759075
 30
0.0
 10
43.87738515263759
 20
238.4840883158354
 30
0.0
 10
43.97319914801867
 20
238.4660380132327
 30
0.0
 10
44.06781833337939
 20
238.4482605707821
 30
0.0
 10
44.16116799974134
 20
238.4308342517686
 30
0.0
 10
44.25266677544433
 20
238.4139318142302
 30
0.0
 10
44.34227400149553
 20
238.3976251128282
 30
0.0
 10
44.42995217199048
 20
238.3819939927165
 30
0.0
 10
44.51567742987101
 20
238.3671159701209
 30
0.0
 10
44.59940654618498
 20
238.3530735478975
 30
0.0
 10
44.68109981101119
 20
238.3399575604192
 30
0.0
 10
44.76072063445702
 20
238.3278580753129
 30
0.0
 10
44.83822353235341
 20
238.3168690378755
 30
0.0
 10
44.91356742338942
 20
238.3070924680365
 30
0.0
 10
44.98672773670641
 20
238.2986277592206
 30
0.0
 10
45.05765502984137
 20
238.2915818304629
 30
0.0
 10
45.12630577624252
 20
238.2860686211651
 30
0.0
 10
45.19264462791924
 20
238.2821999976962
 30
0.0
 10
45.2566193195095
 20
238.2800955666614
 30
0.0
 10
45.31818614875586
 20
238.2798790593802
 30
0.0
 10
45.37227496109824
 20
238.2815194735656
 30
0.0
 10
45.41954543479891
 20
238.2845568267109
 30
0.0
 10
45.46062884326524
 20
238.2885315493324
 30
0.0
 10
45.50025692124522
 20
238.29380090148
 30
0.0
 10
45.54274392983793
 20
238.3011655968693
 30
0.0
 10
45.58740630178723
 20
238.3112825008346
 30
0.0
 10
45.63347898728119
 20
238.3249514082516
 30
0.0
 10
45.67691010336963
 20
238.3413866379132
 30
0.0
 10
45.71764907595799
 20
238.3607292731149
 30
0.0
 10
45.75566987422615
 20
238.3830990558075
 30
0.0
 10
45.78799724090228
 20
238.4064744870452
 30
0.0
 10
45.81536904809649
 20
238.4301065826434
 30
0.0
 10
45.83847729968857
 20
238.4532936488018
 30
0.0
 10
45.8599903949665
 20
238.4783826151827
 30
0.0
 10
45.87978187987402
 20
238.5052266583271
 30
0.0
 10
45.89788010715373
 20
238.5337927213941
 30
0.0
 10
45.91434513886126
 20
238.5640743430628
 30
0.0
 10
45.92930452670031
 20
238.5962855883574
 30
0.0
 10
45.94431262411968
 20
238.6343425177296
 30
0.0
 10
45.9587204178348
 20
238.6790939019945
 30
0.0
 10
45.97184416535153
 20
238.7314891907424
 30
0.0
 10
45.98243288228874
 20
238.7875121990926
 30
0.0
 10
45.9905164266979
 20
238.8471943100454
 30
0.0
 10
45.99615677341637
 20
238.9105115212916
 30
0.0
 10
45.99914632711513
 20
238.9718019694359
 30
0.0
 10
46.00017764037611
 20
239.030130122163
 30
0.0
 10
45.99983636428792
 20
239.0846811929048
 30
0.0
 10
45.99825933965412
 20
239.1410376091591
 30
0.0
 10
45.99550875634876
 20
239.1984413229865
 30
0.0
 10
45.99166114430579
 20
239.2566643311836
 30
0.0
 10
45.986782123276
 20
239.3155491853236
 30
0.0
 10
45.98085745968458
 20
239.375571777709
 30
0.0
 10
45.97311116558555
 20
239.4436077903414
 30
0.0
 10
45.96312657528045
 20
239.5199197103412
 30
0.0
 10
45.95043770559061
 20
239.604706549555
 30
0.0
 10
45.935993159572
 20
239.6906873985525
 30
0.0
 10
45.91981663235122
 20
239.7776362058173
 30
0.0
 10
45.90190735130945
 20
239.8653504213549
 30
0.0
 10
45.878889771613
 20
239.9687969679607
 30
0.0
 10
45.84957366855123
 20
240.0879855044763
 30
0.0
 10
45.81656989368394
 20
240.2075958644445
 30
0.0
 10
45.78500455750309
 20
240.3118886239299
 30
0.0
 10
45.75604633304916
 20
240.4008529936742
 30
0.0
 10
45.72504686569109
 20
240.4894314773251
 30
0.0
 10
45.69193285410689
 20
240.5774080705831
 30
0.0
 10
45.65660410834445
 20
240.6645442750543
 30
0.0
 10
45.61905956644033
 20
240.7503940635875
 30
0.0
 10
45.57921596795845
 20
240.8347124483054
 30
0.0
 10
45.53696690443876
 20
240.9172275741671
 30
0.0
 10
45.49440919396241
 20
240.9937117470547
 30
0.0
 10
45.45186134938033
 20
241.0642717458705
 30
0.0
 10
45.40964042629231
 20
241.1290870961477
 30
0.0
 10
45.36533559434574
 20
241.1918329814456
 30
0.0
 10
45.31886881487351
 20
241.2522855148865
 30
0.0
 10
45.27016546211535
 20
241.3102170688052
 30
0.0
 10
45.21912038636624
 20
241.3654439390169
 30
0.0
 10
45.16565480010826
 20
241.4177047117228
 30
0.0
 10
45.10970994614082
 20
241.4667552959755
 30
0.0
 10
45.05119436418499
 20
241.5124183735249
 30
0.0
 10
44.9900333921486
 20
241.554349752007
 30
0.0
 10
44.9262276564683
 20
241.5924473479579
 30
0.0
 10
44.86478507159408
 20
241.6241245038499
 30
0.0
 10
44.80630522031206
 20
241.6503297659922
 30
0.0
 10
44.75132387388569
 20
241.6719869642007
 30
0.0
 10
44.69484125778471
 20
241.6913822900242
 30
0.0
 10
44.63687449403889
 20
241.7085524634948
 30
0.0
 10
44.57745169807552
 20
241.7235538434108
 30
0.0
 10
44.51660300146291
 20
241.7364467871489
 30
0.0
 10
44.45434951790001
 20
241.7472854493631
 30
0.0
 10
44.3907211912413
 20
241.7561397926869
 30
0.0
 10
44.32577143350323
 20
241.7630745816747
 30
0.0
 10
44.25953603064882
 20
241.7681762473496
 30
0.0
 10
44.19200042565696
 20
241.7714584351657
 30
0.0
 10
44.13445037469923
 20
241.7729481123019
 30
0.0
 10
44.09914051811383
 20
241.772961103711
 30
0.0
 10
44.08707624851342
 20
241.7729655424676
 30
0.0
  0
SPLINE
  5
C6
330
1F
100
AcDbEntity
  8
0
  6
Continuous
 62
     7
370
    30
100
AcDbSpline
210
0.0
220
0.0
230
1.0
 70
     8
 71
     3
 72
    78
 73
    74
 74
     0
 42
0.000000001
 43
0.00000001
 40
0.0
 40
0.0
 40
0.0
 40
0.0
 40
0.0099262760468219
 40
0.0198525516683067
 40
0.0297952167062913
 40
0.0397378804574485
 40
0.053071742284109
 40
0.0664080929934326
 40
0.0797419256427157
 40
0.0931675377919151
 40
0.1065957320711084
 40
0.1200212948896697
 40
0.1301541161801465
 40
0.140286931758086
 40
0.1504381959172588
 40
0.1605894538099049
 40
0.1766528340836648
 40
0.1927351004630236
 40
0.2087886639443763
 40
0.2248421921092464
 40
0.2409741687355104
 40
0.2571061234139407
 40
0.2731607432383514
 40
0.2892153645337247
 40
0.3053495837570759
 40
0.3214838353255389
 40
0.3311062055693071
 40
0.3407285833441602
 40
0.3503673670484485
 40
0.3600061608774157
 40
0.3729321700434045
 40
0.3858605643657751
 40
0.3987867261663325
 40
0.4117937859215475
 40
0.4248030686594522
 40
0.4378103208703395
 40
0.4476152776898442
 40
0.4574202533855509
 40
0.467238154273561
 40
0.477056074187764
 40
0.4955109077941527
 40
0.5139659691906906
 40
0.5324910542968294
 40
0.5510163439660625
 40
0.5696144084098754
 40
0.5882126428964879
 40
0.6068639490046394
 40
0.6255153831393363
 40
0.6442258950447589
 40
0.6629364889409555
 40
0.6816904110904185
 40
0.7004443651433617
 40
0.7170731970796863
 40
0.7337020167725754
 40
0.7503603642549193
 40
0.7670186656921212
 40
0.7836340339105542
 40
0.8002493182511526
 40
0.8168999447372675
 40
0.8335504412631549
 40
0.8501467742186904
 40
0.8667429262223977
 40
0.8833887744002716
 40
0.9000343783844371
 40
0.9166889332360837
 40
0.9333603929720462
 40
0.9432408206551429
 40
0.953121234414859
 40
0.9630172183416837
 40
0.9729131895071476
 40
0.9861833342995445
 40
0.9994559580653339
 40
1.0
 40
1.0
 40
1.0
 40
1.0
 10
38.5000000000096
 20
241.550130439071
 30
0.0
 10
38.52373377810596
 20
241.5500817582191
 30
0.0
 10
38.57120133328172
 20
241.5499843965173
 30
0.0
 10
38.64241254643986
 20
241.5491950511534
 30
0.0
 10
38.71360433967219
 20
241.5479315068267
 30
0.0
 10
38.79283496807991
 20
241.5459385233703
 30
0.0
 10
38.87999250402768
 20
241.5429979857976
 30
0.0
 10
38.97493867718759
 20
241.5388283723047
 30
0.0
 10
39.06974677200883
 20
241.5336687403882
 30
0.0
 10
39.16434019462304
 20
241.527486180379
 30
0.0
 10
39.25864130470632
 20
241.5202379087491
 30
0.0
 10
39.3446987181096
 20
241.5125839135672
 30
0.0
 10
39.4226027599443
 20
241.5047864198235
 30
0.0
 10
39.49252788876822
 20
241.497087046727
 30
0.0
 10
39.56205345906096
 20
241.4887038596125
 30
0.0
 10
39.64455794944569
 20
241.4778521096136
 30
0.0
 10
39.73961014376188
 20
241.4639402524051
 30
0.0
 10
39.84651741220508
 20
241.4462071919868
 30
0.0
 10
39.9518636712086
 20
241.4265192281634
 30
0.0
 10
40.05565130362258
 20
241.4047812839036
 30
0.0
 10
40.15780095230386
 20
241.3808952095207
 30
0.0
 10
40.25802076446826
 20
241.3548345676618
 30
0.0
 10
40.35602934270914
 20
241.3265898029258
 30
0.0
 10
40.45188943427495
 20
241.2960902764991
 30
0.0
 10
40.54563246271179
 20
241.263239835419
 30
0.0
 10
40.62484292058799
 20
241.2327574843524
 30
0.0
 10
40.69029620633633
 20
241.2056592098133
 30
0.0
 10
40.74283977757366
 20
241.1827140084135
 30
0.0
 10
40.794502222897
 20
241.1589354491122
 30
0.0
 10
40.8510406755515
 20
241.1315333533101
 30
0.0
 10
40.91200769416049
 20
241.100170464013
 30
0.0
 10
40.97691308924048
 20
241.064480942296
 30
0.0
 10
41.0402247063676
 20
241.027323071518
 30
0.0
 10
41.10191077012256
 20
240.9887150564845
 30
0.0
 10
41.16195576406462
 20
240.9486961345424
 30
0.0
 10
41.21544634581852
 20
240.9107804933907
 30
0.0
 10
41.26285026708898
 20
240.87534748651
 30
0.0
 10
41.30461422258846
 20
240.8426985184823
 30
0.0
 10
41.34539317182546
 20
240.8093757176885
 30
0.0
 10
41.39686048903925
 20
240.765441953794
 30
0.0
 10
41.45772990693794
 20
240.7101460524181
 30
0.0
 10
41.52647089344735
 20
240.6425602018792
 30
0.0
 10
41.59187182325384
 20
240.5730622544496
 30
0.0
 10
41.65406142442453
 20
240.5017359498671
 30
0.0
 10
41.71300613942223
 20
240.4288361412028
 30
0.0
 10
41.76880968997884
 20
240.3544713276046
 30
0.0
 10
41.82145034237102
 20
240.2789100033979
 30
0.0
 10
41.8710298134377
 20
240.2022520831266
 30
0.0
 10
41.91754581383634
 20
240.1247443231356
 30
0.0
 10
41.96106799956583
 20
240.0465077834351
 30
0.0
 10
42.00158479931383
 20
239.9678030872864
 30
0.0
 10
42.03770006575888
 20
239.8917991438566
 30
0.0
 10
42.06979083793689
 20
239.8187473566429
 30
0.0
 10
42.09824289889651
 20
239.7487443039193
 30
0.0
 10
42.12436601584911
 20
239.6789405615117
 30
0.0
 10
42.1481248202474
 20
239.6095384556032
 30
0.0
 10
42.16949801226627
 20
239.5407221206354
 30
0.0
 10
42.18847882687341
 20
239.4725937665826
 30
0.0
 10
42.20504886730694
 20
239.4052524191332
 30
0.0
 10
42.21914069152634
 20
239.33894007162
 30
0.0
 10
42.23070180626577
 20
239.2738743692699
 30
0.0
 10
42.2396860688449
 20
239.2101716723807
 30
0.0
 10
42.24602727077992
 20
239.1479607439297
 30
0.0
 10
42.2496333083678
 20
239.0874407162073
 30
0.0
 10
42.25040703704541
 20
239.0288811625482
 30
0.0
 10
42.24853824064761
 20
238.9801413855593
 30
0.0
 10
42.24519944442298
 20
238.9403460886142
 30
0.0
 10
42.24139809066035
 20
238.9087501075348
 30
0.0
 10
42.23647586427271
 20
238.8779595317426
 30
0.0
 10
42.22978455510778
 20
238.8445354046974
 30
0.0
 10
42.22053743787495
 20
238.8090602088011
 30
0.0
 10
42.21287381561297
 20
238.7832661501899
 30
0.0
 10
42.20795678814201
 20
238.7708330179487
 30
0.0
 10
42.20776317636939
 20
238.7703434537177
 30
0.0
  0
SPLINE
  5
C7
330
1F
100
AcDbEntity
  8
0
  6
Continuous
 62
     7
370
    30
100
AcDbSpline
210
0.0
220
0.0
230
1.0
 70
     8
 71
     3
 72
    83
 73
    79
 74
     0
 42
0.000000001
 43
0.00000001
 40
0.0
 40
0.0
 40
0.0
 40
0.0
 40
0.0025446149210992
 40
0.0156126050528746
 40
0.0286782358013092
 40
0.0418294388009286
 40
0.0549830094238911
 40
0.0681343597545457
 40
0.0780517791009077
 40
0.0879692136849281
 40
0.0979009239511138
 40
0.1078326698268609
 40
0.1222065652474509
 40
0.1365805905117503
 40
0.1509875689760016
 40
0.1653946491170426
 40
0.1798563490788923
 40
0.194318125758619
 40
0.2088044732460707
 40
0.2232908747391016
 40
0.237836889584345
 40
0.2523829387955437
 40
0.2669494465112416
 40
0.2815159705985887
 40
0.296128868148075
 40
0.3107417656802959
 40
0.3253744128477369
 40
0.3400070445423904
 40
0.3573899159488139
 40
0.3747727247047662
 40
0.3921927484513469
 40
0.4096126756553923
 40
0.4270018551748246
 40
0.44439090761129
 40
0.4618276396434695
 40
0.4792642151431063
 40
0.496662715150445
 40
0.5140610386660663
 40
0.5315228990722237
 40
0.5489845694866987
 40
0.5664668416088542
 40
0.5839686492013011
 40
0.5937444096998189
 40
0.6035201534094552
 40
0.6133111867167115
 40
0.6231022048630419
 40
0.6362316058253803
 40
0.6493634672532356
 40
0.6624927361244349
 40
0.6757159259571217
 40
0.6889417947038291
 40
0.7021649130556884
 40
0.7121484937998707
 40
0.7221320723727377
 40
0.7321347417071069
 40
0.7421374114931123
 40
0.7519162975777879
 40
0.7616951860500238
 40
0.7714919045564559
 40
0.7812886269643188
 40
0.7944334081796764
 40
0.8075808538024074
 40
0.8207256941476673
 40
0.8339653014834428
 40
0.8472075513755589
 40
0.8604472232325185
 40
0.8704395919547957
 40
0.8804319660626546
 40
0.8904418228190778
 40
0.9004516843201126
 40
0.9128463691410624
 40
0.9252410629996429
 40
0.9376683025116864
 40
0.9500955485990454
 40
0.9625553962005169
 40
0.9750152477916811
 40
0.9875076232245328
 40
1.0
 40
1.0
 40
1.0
 40
1.0
 10
34.79237831962413
 20
238.7703706866588
 30
0.0
 10
34.79148694731789
 20
238.7726707386373
 30
0.0
 10
34.7860178904256
 20
238.7867828162029
 30
0.0
 10
34.77798696171647
 20
238.8141541614391
 30
0.0
 10
34.76833067921358
 20
238.8526280692894
 30
0.0
 10
34.76084599850883
 20
238.8927852793281
 30
0.0
 10
34.75526845663645
 20
238.9344402266387
 30
0.0
 10
34.75193205238722
 20
238.9739946706143
 30
0.0
 10
34.7502744211798
 20
239.0110360388165
 30
0.0
 10
34.74983054398012
 20
239.0452415118607
 30
0.0
 10
34.75041854777447
 20
239.0802284769734
 30
0.0
 10
34.7522580683805
 20
239.1212732197984
 30
0.0
 10
34.7559129541449
 20
239.1687076488154
 30
0.0
 10
34.76201588696022
 20
239.222894700969
 30
0.0
 10
34.77010030849426
 20
239.2782591211574
 30
0.0
 10
34.78013934210926
 20
239.3347494201799
 30
0.0
 10
34.79209311346232
 20
239.3922067226368
 30
0.0
 10
34.80594381097935
 20
239.450552802865
 30
0.0
 10
34.82164837950363
 20
239.5096051748733
 30
0.0
 10
34.83921144825452
 20
239.5693413559272
 30
0.0
 10
34.85861180050325
 20
239.6296272011947
 30
0.0
 10
34.87985541202048
 20
239.6903946297207
 30
0.0
 10
34.90290782905527
 20
239.7514645258313
 30
0.0
 10
34.92779567131787
 20
239.8128092895117
 30
0.0
 10
34.95451362116951
 20
239.8743083801695
 30
0.0
 10
34.98308768799972
 20
239.9359001254192
 30
0.0
 10
35.01350017827396
 20
239.9974295792207
 30
0.0
 10
35.04779025694796
 20
240.0626543850243
 30
0.0
 10
35.08638941903477
 20
240.131397803361
 30
0.0
 10
35.1298271310699
 20
240.2034996399185
 30
0.0
 10
35.17600001600222
 20
240.2749836654975
 30
0.0
 10
35.2249339179318
 20
240.3456614144329
 30
0.0
 10
35.27663891553334
 20
240.4153339201166
 30
0.0
 10
35.33121264345884
 20
240.4839208855456
 30
0.0
 10
35.3887485735064
 20
240.551307865989
 30
0.0
 10
35.44926586433151
 20
240.6172970303932
 30
0.0
 10
35.51275777247995
 20
240.6816770316061
 30
0.0
 10
35.57934381684284
 20
240.7443869148552
 30
0.0
 10
35.64912864369141
 20
240.8053154309646
 30
0.0
 10
35.72218570429602
 20
240.8643437306572
 30
0.0
 10
35.79849010122944
 20
240.9212756488376
 30
0.0
 10
35.86635016614886
 20
240.9679298938562
 30
0.0
 10
35.92428856220696
 20
241.0052355624598
 30
0.0
 10
35.97116921198024
 20
241.0340152661558
 30
0.0
 10
36.01907101630543
 20
241.0620275062772
 30
0.0
 10
36.07354813595458
 20
241.0923519526828
 30
0.0
 10
36.13500676803201
 20
241.1246043430257
 30
0.0
 10
36.20390071208752
 20
241.1583566304285
 30
0.0
 10
36.27467836110493
 20
241.190678315352
 30
0.0
 10
36.34732607129327
 20
241.2215313758314
 30
0.0
 10
36.42180947803902
 20
241.2509035028286
 30
0.0
 10
36.49169695384776
 20
241.2764473701371
 30
0.0
 10
36.55651636241332
 20
241.2985727743949
 30
0.0
 10
36.6159162483636
 20
241.3176704115988
 30
0.0
 10
36.67620098989133
 20
241.3359022174476
 30
0.0
 10
36.73688902615775
 20
241.3531467669723
 30
0.0
 10
36.7978945654191
 20
241.3694237843507
 30
0.0
 10
36.85920701229257
 20
241.3847771144134
 30
0.0
 10
36.92126318969324
 20
241.3993398853692
 30
0.0
 10
36.9911857852184
 20
241.4146958309978
 30
0.0
 10
37.06920293025404
 20
241.4305130454497
 30
0.0
 10
37.15555628549483
 20
241.4464482055746
 30
0.0
 10
37.24314735729919
 20
241.4611100995925
 30
0.0
 10
37.3319148741644
 20
241.474527915458
 30
0.0
 10
37.42179000051966
 20
241.4867371181343
 30
0.0
 10
37.50507323290125
 20
241.4968486323872
 30
0.0
 10
37.58148423333817
 20
241.5052112697272
 30
0.0
 10
37.65086251094574
 20
241.5121206618552
 30
0.0
 10
37.72064574754145
 20
241.5184100017084
 30
0.0
 10
37.79637439502663
 20
241.5245455477392
 30
0.0
 10
37.87806825288664
 20
241.5303634478147
 30
0.0
 10
37.96584157809392
 20
241.5357013256115
 30
0.0
 10
38.05403934320743
 20
241.5401831154063
 30
0.0
 10
38.14268108332041
 20
241.5438277385308
 30
0.0
 10
38.23163256447338
 20
241.5466526072354
 30
0.0
 10
38.32091354285993
 20
241.548650001244
 30
0.0
 10
38.41038874850116
 20
241.5498992302952
 30
0.0
 10
38.47012958177001
 20
241.5500533694764
 30
0.0
 10
38.5000000000096
 20
241.5501304390711
 30
0.0
  0
LINE
  5
C8
330
1F
100
AcDbEntity
  8
0
  6
Continuous
 62
     7
370
    30
100
AcDbLine
 10
27.3721358909
 20
186.0908374948
 30
0.0
 11
49.6278641091
 21
186.0908374948
 31
0.0
  0
LINE
  5
C9
330
1F
100
AcDbEntity
  8
0
  6
Continuous
 62
     7
370
    30
100
AcDbLine
 10
38.5
 20
216.0908374948
 30
0.0
 11
28.6288025576
 21
216.0908374948
 31
0.0
  0
LINE
  5
CA
330
1F
100
AcDbEntity
  8
0
  6
Continuous
 62
     7
370
    30
100
AcDbLine
 10
48.3711974424
 20
216.0908374948
 30
0.0
 11
38.5
 21
216.0908374948
 31
0.0
  0
LINE
  5
CB
330
1F
100
AcDbEntity
  8
0
  6
Continuous
 62
     7
370
    30
100
AcDbLine
 10
38.5
 20
309.9091625052
 30
0.0
 11
49.6278641091
 21
309.9091625052
 31
0.0
  0
LINE
  5
CC
330
1F
100
AcDbEntity
  8
0
  6
Continuous
 62
     7
370
    30
100
AcDbLine
 10
27.3721358909
 20
309.9091625052
 30
0.0
 11
38.5
 21
309.9091625052
 31
0.0
  0
LINE
  5
CD
330
1F
100
AcDbEntity
  8
0
  6
Continuous
 62
     7
370
    30
100
AcDbLine
 10
48.3711974424
 20
279.9091625052
 30
0.0
 11
28.6288025576
 21
279.9091625052
 31
0.0
  0
SPLINE
  5
CE
330
1F
100
AcDbEntity
  8
0
  6
Continuous
 62
     7
370
    30
100
AcDbSpline
210
0.0
220
0.0
230
1.0
 70
     8
 71
     3
 72
   104
 73
   100
 74
     0
 42
0.000000001
 43
0.00000001
 40
0.0
 40
0.0
 40
0.0
 40
0.0
 40
0.0095391459299358
 40
0.0190782925203638
 40
0.0286299434940953
 40
0.0381815964342141
 40
0.0509718326877552
 40
0.063763932167242
 40
0.076554210690526
 40
0.0894104364195169
 40
0.102268495390541
 40
0.115124785710961
 40
0.1280402679715433
 40
0.140957522079716
 40
0.1538730820700549
 40
0.1668500440756011
 40
0.1798287008736935
 40
0.1928057423532266
 40
0.2033687411522808
 40
0.2139326003165213
 40
0.2244956293392006
 40
0.2350886974165508
 40
0.2456825949126761
 40
0.2562756852228626
 40
0.26692214251079
 40
0.2775694142815238
 40
0.2882158814930817
 40
0.2988914850865027
 40
0.3095678991870875
 40
0.3202434949444462
 40
0.3309730952581085
 40
0.341703531713373
 40
0.3524330995285399
 40
0.3631941664398129
 40
0.3739561231817064
 40
0.3847171242304337
 40
0.3988833710716174
 40
0.4130588760025334
 40
0.4225290266280475
 40
0.4319999299209574
 40
0.441469988086348
 40
0.4509707030679345
 40
0.4604723029208462
 40
0.4699728887273037
 40
0.4795049193710539
 40
0.4890380174013068
 40
0.4985698757481895
 40
0.5081467529852133
 40
0.5177249444032092
 40
0.5273016028643329
 40
0.5339800846265434
 40
0.5406585497736328
 40
0.5473462426638016
 40
0.5540339180453551
 40
0.5629976022028688
 40
0.5719628488272904
 40
0.580926331772455
 40
0.5899537468835918
 40
0.5989830227722117
 40
0.6080102521785142
 40
0.6148294705105625
 40
0.6216486752611083
 40
0.628482709437487
 40
0.6353167512324032
 40
0.6442184493491353
 40
0.6531221258673097
 40
0.6620241413777996
 40
0.6709864238317822
 40
0.679950304631016
 40
0.6889129045539139
 40
0.6979221005016395
 40
0.7069325096168928
 40
0.715941979874272
 40
0.7249856650624774
 40
0.7340302289085829
 40
0.7430741286633824
 40
0.7510216557687545
 40
0.7589692110944729
 40
0.7669225112264785
 40
0.7748758340711904
 40
0.7908169830445166
 40
0.8067583802646422
 40
0.8227254001421587
 40
0.8386925358393312
 40
0.8546845133307145
 40
0.8706764865272881
 40
0.8866875247047029
 40
0.9026984305868078
 40
0.913392624416497
 40
0.9240873130369074
 40
0.9347813038544116
 40
0.9455008757940551
 40
0.9562212276100135
 40
0.9669404406899786
 40
0.9750075827245175
 40
0.9830746777896436
 40
0.9911520339561904
 40
0.9992293315798443
 40
0.9999999999999999
 40
0.9999999999999999
 40
0.9999999999999999
 40
0.9999999999999999
 10
38.50000000000001
 20
254.9242935491786
 30
0.0
 10
38.54006584639302
 20
254.9241960100654
 30
0.0
 10
38.6201975419532
 20
254.9240009318324
 30
0.0
 10
38.74040817710543
 20
254.9224253121848
 30
0.0
 10
38.86059262813905
 20
254.9199115380957
 30
0.0
 10
38.99428682007706
 20
254.9159747320399
 30
0.0
 10
39.14134193263533
 20
254.9102133977086
 30
0.0
 10
39.30157806035351
 20
254.9021644361532
 30
0.0
 10
39.46162577808096
 20
254.8923813813043
 30
0.0
 10
39.62139187138451
 20
254.8808873235054
 30
0.0
 10
39.78078787835062
 20
254.8677334373147
 30
0.0
 10
39.93970005870803
 20
254.8529754914566
 30
0.0
 10
40.09804126197474
 20
254.8366627625373
 30
0.0
 10
40.25573094468143
 20
254.818869526771
 30
0.0
 10
40.41270059178073
 20
254.7996706204815
 30
0.0
 10
40.56887085514678
 20
254.7791379507539
 30
0.0
 10
40.72416976361718
 20
254.7573666600933
 30
0.0
 10
40.86873047304712
 20
254.7359076417627
 30
0.0
 10
41.00274041521578
 20
254.7150687114238
 30
0.0
 10
41.12640925833133
 20
254.6951026177738
 30
0.0
 10
41.24930878468109
 20
254.6745773997261
 30
0.0
 10
41.37140639309179
 20
254.6535538755717
 30
0.0
 10
41.49267239263048
 20
254.632101813846
 30
0.0
 10
41.61316675512269
 20
254.6102754882151
 30
0.0
 10
41.73285707287209
 20
254.5881439921521
 30
0.0
 10
41.85171332098108
 20
254.5657862207
 30
0.0
 10
41.96961831081102
 20
254.5432990505423
 30
0.0
 10
42.08654383818017
 20
254.5207625336653
 30
0.0
 10
42.20246373894503
 20
254.4982667799513
 30
0.0
 10
42.31744171563291
 20
254.4758850044866
 30
0.0
 10
42.43144665038589
 20
254.4537089594226
 30
0.0
 10
42.54444854725274
 20
254.4318424401538
 30
0.0
 10
42.65634089846706
 20
254.4104046380689
 30
0.0
 10
42.76709343314353
 20
254.3895005077537
 30
0.0
 10
42.87667681253532
 20
254.3692482742389
 30
0.0
 10
42.99637586202599
 20
254.3477321427809
 30
0.0
 10
43.12565456312122
 20
254.3254320955087
 30
0.0
 10
43.24854736414355
 20
254.3055316299224
 30
0.0
 10
43.35457837960342
 20
254.289517701484
 30
0.0
 10
43.44442163605814
 20
254.276849522362
 30
0.0
 10
43.53321163456366
 20
254.2653396734196
 30
0.0
 10
43.62091502557125
 20
254.2550940635144
 30
0.0
 10
43.70749820732462
 20
254.2462281237781
 30
0.0
 10
43.79292886882358
 20
254.2388562751776
 30
0.0
 10
43.87716604377491
 20
254.2330982960825
 30
0.0
 10
43.96016936057668
 20
254.2290815200208
 30
0.0
 10
44.04193551435151
 20
254.2269308393241
 30
0.0
 10
44.12241244996058
 20
254.2267824005579
 30
0.0
 10
44.20155013175114
 20
254.2287753338303
 30
0.0
 10
44.27134576161745
 20
254.2326092531355
 30
0.0
 10
44.33224592295319
 20
254.2376402931648
 30
0.0
 10
44.38469794539028
 20
254.2432495005548
 30
0.0
 10
44.43637774267424
 20
254.2501190107508
 30
0.0
 10
44.49304007931641
 20
254.2592197402913
 30
0.0
 10
44.5542827639488
 20
254.2711808794541
 30
0.0
 10
44.61964791165313
 20
254.2867586002615
 30
0.0
 10
44.68358216025068
 20
254.3049818852338
 30
0.0
 10
44.74602174817505
 20
254.3259710206189
 30
0.0
 10
44.80691694039072
 20
254.3498175698807
 30
0.0
 10
44.86125637872376
 20
254.3743647863724
 30
0.0
 10
44.90946146467407
 20
254.3988979207832
 30
0.0
 10
44.95197671254142
 20
254.4227557368399
 30
0.0
 10
44.99347807498577
 20
254.4483627644534
 30
0.0
 10
45.03803757867245
 20
254.4784736651963
 30
0.0
 10
45.08521900876094
 20
254.5136953876035
 30
0.0
 10
45.13457890441123
 20
254.5545965744232
 30
0.0
 10
45.1822827584525
 20
254.5981854310468
 30
0.0
 10
45.22833624354189
 20
254.644346927393
 30
0.0
 10
45.27276077329232
 20
254.6929423673593
 30
0.0
 10
45.31556176851011
 20
254.7438081950942
 30
0.0
 10
45.35676680916644
 20
254.796812145916
 30
0.0
 10
45.39640969397669
 20
254.8518150987282
 30
0.0
 10
45.43451122481751
 20
254.9086538897366
 30
0.0
 10
45.47111045342675
 20
254.9671955188885
 30
0.0
 10
45.50624532691775
 20
255.0273104129211
 30
0.0
 10
45.53855436847923
 20
255.0863088789926
 30
0.0
 10
45.56827600968683
 20
255.1438921566216
 30
0.0
 10
45.59562903989439
 20
255.1998332606369
 30
0.0
 10
45.62194819803049
 20
255.2565842295184
 30
0.0
 10
45.65573107961389
 20
255.3333137302741
 30
0.0
 10
45.6955107102568
 20
255.4309079984645
 30
0.0
 10
45.73949520589841
 20
255.5501579353434
 30
0.0
 10
45.77987564324079
 20
255.6709555904375
 30
0.0
 10
45.81678270376197
 20
255.792851187794
 30
0.0
 10
45.85030724978016
 20
255.9152758617367
 30
0.0
 10
45.88051633227398
 20
256.0377766784201
 30
0.0
 10
45.90744727488607
 20
256.159786728708
 30
0.0
 10
45.9284786729872
 20
256.2673851338258
 30
0.0
 10
45.94475193906361
 20
256.360546605123
 30
0.0
 10
45.95722239264904
 20
256.4395703680726
 30
0.0
 10
45.96819193912966
 20
256.5175801339727
 30
0.0
 10
45.97763537866161
 20
256.5943884152268
 30
0.0
 10
45.98550737529945
 20
256.6697774038305
 30
0.0
 10
45.99124788776116
 20
256.7373967234689
 30
0.0
 10
45.99524538814468
 20
256.7975117844743
 30
0.0
 10
45.9979128970776
 20
256.8505592869275
 30
0.0
 10
45.99946957473702
 20
256.9021426252339
 30
0.0
 10
46.00015116687197
 20
256.9376438366145
 30
0.0
 10
45.99996720525887
 20
256.9554039906212
 30
0.0
 10
45.99995118198244
 20
256.9569509212674
 30
0.0
  0
SPLINE
  5
CF
330
1F
100
AcDbEntity
  8
0
  6
Continuous
 62
     7
370
    30
100
AcDbSpline
210
0.0
220
0.0
230
1.0
 70
     8
 71
     3
 72
   105
 73
   101
 74
     0
 42
0.000000001
 43
0.00000001
 40
0.0
 40
0.0
 40
0.0
 40
0.0
 40
0.0067706378850735
 40
0.015621808313758
 40
0.0244730560575774
 40
0.0360740183942593
 40
0.0476766155528217
 40
0.0592781288597454
 40
0.0709197856529569
 40
0.0825624191936973
 40
0.0942043872073781
 40
0.1058657882282724
 40
0.1175277974428414
 40
0.1291893357974558
 40
0.1467077676611259
 40
0.164226198169039
 40
0.1759153382452379
 40
0.187604953987512
 40
0.1992939599015201
 40
0.2110053152951247
 40
0.2227173425659502
 40
0.234428407975909
 40
0.2432318944061127
 40
0.2520353414763017
 40
0.2608474088876463
 40
0.2696594268333818
 40
0.2772792630893589
 40
0.2848990661180653
 40
0.2925275545786529
 40
0.3001560044007962
 40
0.3103761793929155
 40
0.3205980345101789
 40
0.3308176959008343
 40
0.3411171284691624
 40
0.3514189733744734
 40
0.361717833070746
 40
0.369511808903954
 40
0.3773057583883206
 40
0.3851219190047822
 40
0.392938103033691
 40
0.4005686577507107
 40
0.4081992384962578
 40
0.4158486716085134
 40
0.4234981339687743
 40
0.4337790016830734
 40
0.4440624607326378
 40
0.4543436768261544
 40
0.4647065357611768
 40
0.4750715888802623
 40
0.4854347783298719
 40
0.4932529875607045
 40
0.5010712234365112
 40
0.5089008517703103
 40
0.5167305038640929
 40
0.5253390254709359
 40
0.5339475771024342
 40
0.5425683421581943
 40
0.5511891326795587
 40
0.5627342356016424
 40
0.5742809285107153
 40
0.5858262463699149
 40
0.5974216927113467
 40
0.6090184821406006
 40
0.6206140675854067
 40
0.6322528881731418
 40
0.6438928957681984
 40
0.6555317961500804
 40
0.6672109323582411
 40
0.6788911716818375
 40
0.6905703424490075
 40
0.7056945370117461
 40
0.7208187335286401
 40
0.735980044946073
 40
0.7511413403156937
 40
0.7612858146812839
 40
0.7714310029801591
 40
0.7815754568727225
 40
0.7917464651583342
 40
0.8019182206454613
 40
0.8120892020570023
 40
0.8222999206377428
 40
0.8325114308841502
 40
0.8427221189250466
 40
0.8529625223478072
 40
0.8632037642684987
 40
0.8734441365484491
 40
0.8813098867152641
 40
0.8891756339584652
 40
0.8970478478199979
 40
0.9049200589612031
 40
0.9154468997390361
 40
0.9259747348196816
 40
0.936501550211091
 40
0.9470652143722197
 40
0.9576299152113615
 40
0.9681935627087321
 40
0.9761415589271097
 40
0.9840895543560825
 40
0.9920447773113547
 40
1.0
 40
1.0
 40
1.0
 40
1.0
 10
31.000112517306
 20
256.9568240061733
 30
0.0
 10
31.00013932109572
 20
256.9429864370941
 30
0.0
 10
31.00020116514531
 20
256.9110591866116
 30
0.0
 10
31.00176570296754
 20
256.8589257859574
 30
0.0
 10
31.00479802739866
 20
256.7949849324494
 30
0.0
 10
31.00978787673212
 20
256.722945676159
 30
0.0
 10
31.01712600691329
 20
256.6425678690737
 30
0.0
 10
31.02635758697092
 20
256.5601946833855
 30
0.0
 10
31.03742798264298
 20
256.4761085162266
 30
0.0
 10
31.05031455856251
 20
256.3905452871702
 30
0.0
 10
31.06498271903693
 20
256.3037939857703
 30
0.0
 10
31.08140802392318
 20
256.2160856797689
 30
0.0
 10
31.09959097438481
 20
256.127627791145
 30
0.0
 10
31.12285710648588
 20
256.0237866083489
 30
0.0
 10
31.15237554159343
 20
255.9045723168828
 30
0.0
 10
31.18548679632671
 20
255.7852959176428
 30
0.0
 10
31.21713043560503
 20
255.6813345493489
 30
0.0
 10
31.24614120411089
 20
255.5926879395365
 30
0.0
 10
31.27709889525063
 20
255.5046848867235
 30
0.0
 10
31.31005746645614
 20
255.4175312331867
 30
0.0
 10
31.34509553317751
 20
255.3314497099586
 30
0.0
 10
31.37918921511249
 20
255.2537331380702
 30
0.0
 10
31.41181811282618
 20
255.1841912562008
 30
0.0
 10
31.44250775738394
 20
255.1225296110745
 30
0.0
 10
31.4745322379849
 20
255.0619617642919
 30
0.0
 10
31.5064282295585
 20
255.0052805581391
 30
0.0
 10
31.53801180621507
 20
254.9524204468056
 30
0.0
 10
31.56912206563671
 20
254.9032499629955
 30
0.0
 10
31.60135305074732
 20
254.855233197179
 30
0.0
 10
31.6385138527286
 20
254.8031588752986
 30
0.0
 10
31.68112996512768
 20
254.7477160375896
 30
0.0
 10
31.72983284279572
 20
254.6897849112857
 30
0.0
 10
31.78087768285766
 20
254.6345578652811
 30
0.0
 10
31.83434350517968
 20
254.5822975262358
 30
0.0
 10
31.89028786582231
 20
254.5332440304129
 30
0.0
 10
31.9438781998744
 20
254.4914349076742
 30
0.0
 10
31.99450184290979
 20
254.4561139621476
 30
0.0
 10
32.0416441069056
 20
254.4264160043672
 30
0.0
 10
32.09020014843228
 20
254.3989617811264
 30
0.0
 10
32.13975361824782
 20
254.3739106560198
 30
0.0
 10
32.19020263487872
 20
254.3512041550139
 30
0.0
 10
32.24152775159375
 20
254.330723257751
 30
0.0
 10
32.29411648213152
 20
254.3122528535312
 30
0.0
 10
32.35411533279299
 20
254.293854606555
 30
0.0
 10
32.42198443474345
 20
254.2763475870787
 30
0.0
 10
32.49822815339809
 20
254.260554840752
 30
0.0
 10
32.57665773478488
 20
254.2479297737359
 30
0.0
 10
32.6572326340233
 20
254.238357469208
 30
0.0
 10
32.73989651446152
 20
254.2316960074481
 30
0.0
 10
32.81745995556351
 20
254.2281264074472
 30
0.0
 10
32.88939016517596
 20
254.2267911858703
 30
0.0
 10
32.95528364724162
 20
254.2270010720345
 30
0.0
 10
33.0221595681745
 20
254.2285582544813
 30
0.0
 10
33.09224467015201
 20
254.231489627828
 30
0.0
 10
33.16559362146355
 20
254.2358705638893
 30
0.0
 10
33.24232587782745
 20
254.2417656721266
 30
0.0
 10
33.32013691168398
 20
254.2489533505166
 30
0.0
 10
33.40791942159375
 20
254.2583011088242
 30
0.0
 10
33.50605319211301
 20
254.2702089270328
 30
0.0
 10
33.61496580911065
 20
254.2850396642343
 30
0.0
 10
33.7257199597671
 20
254.3015355933981
 30
0.0
 10
33.83828051044567
 20
254.3195219531254
 30
0.0
 10
33.9526114110113
 20
254.3388411365783
 30
0.0
 10
34.06865490879261
 20
254.359329279633
 30
0.0
 10
34.18638208680658
 20
254.3808288667746
 30
0.0
 10
34.30576275819307
 20
254.4031989382475
 30
0.0
 10
34.4267567535866
 20
254.4262949793903
 30
0.0
 10
34.54933893373253
 20
254.4499758446085
 30
0.0
 10
34.67348229248027
 20
254.4741153899067
 30
0.0
 10
34.81135686110166
 20
254.5009610659766
 30
0.0
 10
34.96343975517014
 20
254.5304513746075
 30
0.0
 10
35.1303655711869
 20
254.5624386312489
 30
0.0
 10
35.29957946537109
 20
254.5942509148424
 30
0.0
 10
35.45210725744013
 20
254.622198155009
 30
0.0
 10
35.58703395535064
 20
254.6462560418289
 30
0.0
 10
35.70374421207624
 20
254.6665566538778
 30
0.0
 10
35.82140998987416
 20
254.6864608752785
 30
0.0
 10
35.94001008620677
 20
254.7059060405705
 30
0.0
 10
36.05951976739929
 20
254.7248361633834
 30
0.0
 10
36.17996502157202
 20
254.7432033789726
 30
0.0
 10
36.30132169239698
 20
254.7609493708353
 30
0.0
 10
36.4235618429356
 20
254.7780228400937
 30
0.0
 10
36.54661545640041
 20
254.7943678659595
 30
0.0
 10
36.67045282522523
 20
254.8099322927199
 30
0.0
 10
36.79504018530996
 20
254.8246720279337
 30
0.0
 10
36.91054623786439
 20
254.8374587606828
 30
0.0
 10
37.01678822806737
 20
254.8484836101686
 30
0.0
 10
37.11365388788803
 20
254.857942733891
 30
0.0
 10
37.21083916037325
 20
254.8668268206343
 30
0.0
 10
37.31928319078973
 20
254.8760536376822
 30
0.0
 10
37.43905672760991
 20
254.8853435747418
 30
0.0
 10
37.57023133865091
 20
254.8943718649835
 30
0.0
 10
37.70192139755321
 20
254.9022684677027
 30
0.0
 10
37.83407963809438
 20
254.9090001819158
 30
0.0
 10
37.9666556729965
 20
254.9145467541831
 30
0.0
 10
38.08848524256054
 20
254.9185235290086
 30
0.0
 10
38.1994668402646
 20
254.9212488133767
 30
0.0
 10
38.29957622700192
 20
254.9229948332711
 30
0.0
 10
38.39976150880963
 20
254.9240901077967
 30
0.0
 10
38.46658716997646
 20
254.9242257353856
 30
0.0
 10
38.49999999999996
 20
254.9242935491789
 30
0.0
  0
LINE
  5
D0
330
1F
100
AcDbEntity
  8
0
  6
Continuous
 62
     8
370
     0
100
AcDbLine
 10
38.5
 20
186.6124838475
 30
0.0
 11
26.8726046753
 21
186.6124838475
 31
0.0
  0
LINE
  5
D1
330
1F
100
AcDbEntity
  8
0
  6
Continuous
 62
     8
370
     0
100
AcDbLine
 10
50.1273953247
 20
186.6124838475
 30
0.0
 11
38.5
 21
186.6124838475
 31
0.0
  0
LINE
  5
D2
330
1F
100
AcDbEntity
  8
0
  6
Continuous
 62
     8
370
     0
100
AcDbLine
 10
38.5
 20
215.6124838475
 30
0.0
 11
48.8707286581
 21
215.6124838475
 31
0.0
  0
LINE
  5
D3
330
1F
100
AcDbEntity
  8
0
  6
Continuous
 62
     8
370
     0
100
AcDbLine
 10
28.1292713419
 20
215.6124838475
 30
0.0
 11
38.5
 21
215.6124838475
 31
0.0
  0
LINE
  5
D4
330
1F
100
AcDbEntity
  8
0
  6
Continuous
 62
     8
370
     0
100
AcDbLine
 10
50.1273953247
 20
309.3875161525
 30
0.0
 11
26.8726046753
 21
309.3875161525
 31
0.0
  0
LINE
  5
D5
330
1F
100
AcDbEntity
  8
0
  6
Continuous
 62
     8
370
     0
100
AcDbLine
 10
28.1292713419
 20
280.3875161525
 30
0.0
 11
48.8707286581
 21
280.3875161525
 31
0.0
  0
CIRCLE
  5
D6
330
1F
100
AcDbEntity
  8
0
  6
Continuous
 62
     7
370
    30
100
AcDbCircle
 10
145.5
 20
120.5
 30
0.0
 40
11.6278641090603
  0
CIRCLE
  5
D7
330
1F
100
AcDbEntity
  8
0
  6
Continuous
 62
     7
370
    30
100
AcDbCircle
 10
145.5
 20
120.5
 30
0.0
 40
10.75
  0
CIRCLE
  5
D8
330
1F
100
AcDbEntity
  8
0
  6
Continuous
 62
     7
370
    30
100
AcDbCircle
 10
145.5
 20
120.5
 30
0.0
 40
9.5
  0
CIRCLE
  5
D9
330
1F
100
AcDbEntity
  8
0
  6
Continuous
 62
     7
370
    30
100
AcDbCircle
 10
145.5
 20
120.5
 30
0.0
 40
3.75
  0
CIRCLE
  5
DA
330
1F
100
AcDbEntity
  8
0
  6
Continuous
 62
     7
370
    30
100
AcDbCircle
 10
145.5
 20
120.5
 30
0.0
 40
9.0
  0
CIRCLE
  5
DB
330
1F
100
AcDbEntity
  8
0
  6
Continuous
 62
     8
370
     0
100
AcDbCircle
 10
145.5
 20
120.5
 30
0.0
 40
11.12786410906028
  0
LINE
  5
DC
330
1F
100
AcDbEntity
  8
0
  6
Continuous
 62
     7
370
    30
100
AcDbLine
 10
255.0
 20
60.8901686786
 30
0.0
 11
255.0
 21
79.2412950295
 31
0.0
  0
LINE
  5
DD
330
1F
100
AcDbEntity
  8
0
  6
Continuous
 62
     7
370
    30
100
AcDbLine
 10
240.0
 20
81.9059309059
 30
0.0
 11
240.0
 21
60.8901686786
 31
0.0
  0
LINE
  5
DE
330
1F
100
AcDbEntity
  8
0
  6
Continuous
 62
     7
370
    30
100
AcDbLine
 10
259.1219374016
 20
37.0802294596
 30
0.0
 11
257.8658606168
 21
60.7376876382
 31
0.0
  0
LINE
  5
DF
330
1F
100
AcDbEntity
  8
0
  6
Continuous
 62
     7
370
    30
100
AcDbLine
 10
237.1341393832
 20
60.7376876382
 30
0.0
 11
235.8780625984
 21
37.0802294596
 31
0.0
  0
SPLINE
  5
E0
330
1F
100
AcDbEntity
  8
0
  6
Continuous
 62
     7
370
    30
100
AcDbSpline
210
0.0
220
0.0
230
1.0
 70
     8
 71
     3
 72
    72
 73
    68
 74
     0
 42
0.000000001
 43
0.00000001
 40
0.0
 40
0.0
 40
0.0
 40
0.0
 40
0.0032877185140991
 40
0.0185649675199362
 40
0.0338460597945367
 40
0.0491323821075865
 40
0.0644252953556142
 40
0.0797261281889539
 40
0.0950361708450279
 40
0.1103566692273031
 40
0.1256888192681591
 40
0.1410337616136451
 40
0.1563925766665976
 40
0.1717662800230162
 40
0.1871558183350691
 40
0.202562065631675
 40
0.2179858201244908
 40
0.2334278015243128
 40
0.2488886488886147
 40
0.2643689190167648
 40
0.2798690854045974
 40
0.2953895377644353
 40
0.3109305821112301
 40
0.3264924414093971
 40
0.3420752567688365
 40
0.3576790891718524
 40
0.3733039217076356
 40
0.3889496622839308
 40
0.404616146780747
 40
0.4203031426060131
 40
0.4360103526074966
 40
0.4517374192942132
 40
0.4674839293144694
 40
0.4832494181392633
 40
0.4990333748961153
 40
0.5148352472998593
 40
0.530654446628161
 40
0.5464903526899428
 40
0.5623423187393268
 40
0.5782096762894673
 40
0.594091739785995
 40
0.6099878111034007
 40
0.6258971838321897
 40
0.641819147331256
 40
0.6577529905222733
 40
0.6736980054109944
 40
0.6896534903227981
 40
0.7056187528458013
 40
0.7215931124785429
 40
0.7375759029841628
 40
0.7535664744546148
 40
0.7695641950941025
 40
0.7855684527313922
 40
0.8015786560739362
 40
0.8175942357182054
 40
0.8336146449319027
 40
0.8496393602245212
 40
0.865667881723699
 40
0.881699733374508
 40
0.8977344629787066
 40
0.9137716420916455
 40
0.929810865792523
 40
0.9458517523444714
 40
0.9618939427588425
 40
0.9779371002785476
 40
0.9939809097929891
 40
1.0
 40
1.0
 40
1.0
 40
1.0
 10
257.8657427483583
 20
60.73776573068882
 30
0.0
 10
257.8655058156777
 20
60.74288711362876
 30
0.0
 10
257.8641679129649
 20
60.771806349728
 30
0.0
 10
257.8604085071427
 20
60.82449033909248
 30
0.0
 10
257.8544011970716
 20
60.89580616991323
 30
0.0
 10
257.846934793773
 20
60.96707247048784
 30
0.0
 10
257.8381551285881
 20
61.0382857596976
 30
0.0
 10
257.8280234434664
 20
61.10943737970884
 30
0.0
 10
257.816550450279
 20
61.18051997281685
 30
0.0
 10
257.8037335904888
 20
61.25152572538649
 30
0.0
 10
257.7895738751576
 20
61.32244682032121
 30
0.0
 10
257.7740713871336
 20
61.3932752986086
 30
0.0
 10
257.757226507701
 20
61.4640030808306
 30
0.0
 10
257.7390396094864
 20
61.53462194742669
 30
0.0
 10
257.719511162248
 20
61.60512353184085
 30
0.0
 10
257.6986417290937
 20
61.67549931217985
 30
0.0
 10
257.6764319930302
 20
61.74574060536999
 30
0.0
 10
257.6528827760173
 20
61.81583856285306
 30
0.0
 10
257.6279950603807
 20
61.88578416817061
 30
0.0
 10
257.6017700096358
 20
61.95556823640495
 30
0.0
 10
257.5742089892011
 20
62.02518141552469
 30
0.0
 10
257.5453135865644
 20
62.09461418962809
 30
0.0
 10
257.5150856307156
 20
62.16385688406307
 30
0.0
 10
257.4835272106025
 20
62.23289967237498
 30
0.0
 10
257.4506406923969
 20
62.3017325850066
 30
0.0
 10
257.416428735373
 20
62.3703455196525
 30
0.0
 10
257.3808943062182
 20
62.43872825314317
 30
0.0
 10
257.3440406916262
 20
62.50687045471545
 30
0.0
 10
257.3058715090426
 20
62.57476170050496
 30
0.0
 10
257.2663907154698
 20
62.64239148907699
 30
0.0
 10
257.2256026142632
 20
62.70974925780626
 30
0.0
 10
257.1835118598856
 20
62.77682439989632
 30
0.0
 10
257.1401234606182
 20
62.84360628183458
 30
0.0
 10
257.0954427792568
 20
62.91008426106912
 30
0.0
 10
257.0494755318518
 20
62.97624770370061
 30
0.0
 10
257.0022277845786
 20
63.04208600198907
 30
0.0
 10
256.9537059488495
 20
63.10758859148366
 30
0.0
 10
256.9039167747984
 20
63.17274496759931
 30
0.0
 10
256.8528673432893
 20
63.23754470147968
 30
0.0
 10
256.8005650566126
 20
63.30197745500446
 30
0.0
 10
256.7470176280424
 20
63.36603299482019
 30
0.0
 10
256.6922330704351
 20
63.42970120529554
 30
0.0
 10
256.6362196840515
 20
63.49297210032307
 30
0.0
 10
256.5789860437812
 20
63.55583583391239
 30
0.0
 10
256.520540985947
 20
63.61828270954204
 30
0.0
 10
256.4608935948551
 20
63.6803031882548
 30
0.0
 10
256.400053189249
 20
63.74188789550478
 30
0.0
 10
256.3380293088138
 20
63.80302762677742
 30
0.0
 10
256.2748317008604
 20
63.86371335202185
 30
0.0
 10
256.2104703073081
 20
63.92393621894718
 30
0.0
 10
256.144955252066
 20
63.98368755524414
 30
0.0
 10
256.0782968289051
 20
64.04295886980793
 30
0.0
 10
256.0105054898654
 20
64.1017418530235
 30
0.0
 10
255.941591834358
 20
64.16002837625939
 30
0.0
 10
255.8715665986121
 20
64.21781049041655
 30
0.0
 10
255.8004406469623
 20
64.27508042451133
 30
0.0
 10
255.7282249595169
 20
64.33183058104167
 30
0.0
 10
255.6549306366536
 20
64.38805354068045
 30
0.0
 10
255.5805688440331
 20
64.44374202985715
 30
0.0
 10
255.5051509829823
 20
64.49888902497092
 30
0.0
 10
255.4286880228069
 20
64.55348734499941
 30
0.0
 10
255.351192964693
 20
64.60753115266141
 30
0.0
 10
255.272671619158
 20
64.66101033049493
 30
0.0
 10
255.1931570075854
 20
64.7139314516286
 30
0.0
 10
255.1125809393486
 20
64.76623948535581
 30
0.0
 10
255.0481927812524
 20
64.80730605855847
 30
0.0
 10
255.0103296347027
 20
64.83072907999745
 30
0.0
 10
255.0
 20
64.83711923182439
 30
0.0
  0
SPLINE
  5
E1
330
1F
100
AcDbEntity
  8
0
  6
Continuous
 62
     7
370
    30
100
AcDbSpline
210
0.0
220
0.0
230
1.0
 70
     8
 71
     3
 72
    72
 73
    68
 74
     0
 42
0.000000001
 43
0.00000001
 40
0.0
 40
0.0
 40
0.0
 40
0.0
 40
0.0010151973411223
 40
0.017066876797804
 40
0.0331187579057339
 40
0.0491704957158484
 40
0.0652218015638778
 40
0.0812723657284925
 40
0.0973218567396197
 40
0.1133699207477806
 40
0.1294161809557577
 40
0.1454602371270205
 40
0.1615016651832747
 40
0.1775400169075144
 40
0.1935748197674427
 40
0.2096055768767631
 40
0.2256317671106142
 40
0.2416528453939417
 40
0.2576682431797104
 40
0.2736773691359895
 40
0.2896796100581088
 40
0.3056743320237989
 40
0.3216608818063494
 40
0.3376385885606226
 40
0.3536067657929982
 40
0.3695647136261195
 40
0.3855117213643269
 40
0.40144707036345
 40
0.4173700372041062
 40
0.433279897163776
 40
0.4491759279776297
 40
0.4650574138736634
 40
0.4809236498619652
 40
0.496773946253049
 40
0.5126076333744221
 40
0.5284240664497728
 40
0.5442226305998621
 40
0.5600027459202246
 40
0.5757638725863339
 40
0.5915055159343298
 40
0.6072272314621386
 40
0.6229286296956802
 40
0.6386093808624058
 40
0.6542692193173633
 40
0.669907947666261
 40
0.685525440533963
 40
0.7011216479302124
 40
0.7166965981678997
 40
0.7322504002959105
 40
0.7477832460124878
 40
0.7632954110331991
 40
0.7787872558925797
 40
0.7942592261663827
 40
0.8097118521075768
 40
0.8251457476958495
 40
0.840561609107037
 40
0.8559602126142615
 40
0.871342411938595
 40
0.8867091350714419
 40
0.9020613805955685
 40
0.9174002135348407
 40
0.9327267607664549
 40
0.9480422060313299
 40
0.96334778458063
 40
0.9786447774977769
 40
0.9939345057360458
 40
1.0
 40
1.0
 40
1.0
 40
1.0
 10
240.0
 20
64.83722368031556
 30
0.0
 10
239.9982533169831
 20
64.83614867720924
 30
0.0
 10
239.968889150385
 20
64.81807638246472
 30
0.0
 10
239.9128086372862
 20
64.7824561489872
 30
0.0
 10
239.8318470423485
 20
64.73032371678181
 30
0.0
 10
239.7519848826911
 20
64.67754587988192
 30
0.0
 10
239.6730978544924
 20
64.62421212061123
 30
0.0
 10
239.5952340241207
 20
64.5703063286829
 30
0.0
 10
239.5183951572861
 20
64.51584083882256
 30
0.0
 10
239.4425953407352
 20
64.46082054545138
 30
0.0
 10
239.367845271473
 20
64.40525252410639
 30
0.0
 10
239.2941564612433
 20
64.3491434602567
 30
0.0
 10
239.2215401045329
 20
64.29250034477754
 30
0.0
 10
239.150007375507
 20
64.23533029416178
 30
0.0
 10
239.0795693412998
 20
64.17764060506221
 30
0.0
 10
239.010236977212
 20
64.11943874581844
 30
0.0
 10
238.9420211537056
 20
64.06073236453386
 30
0.0
 10
238.8749326300232
 20
64.00152929229091
 30
0.0
 10
238.8089820450851
 20
63.94183754713386
 30
0.0
 10
238.7441799081601
 20
63.88166533720138
 30
0.0
 10
238.6805365886501
 20
63.82102106332626
 30
0.0
 10
238.6180623051834
 20
63.75991332089873
 30
0.0
 10
238.5567671140026
 20
63.69835090092732
 30
0.0
 10
238.4966608967032
 20
63.63634279019545
 30
0.0
 10
238.4377533473824
 20
63.57389817042488
 30
0.0
 10
238.3800539592732
 20
63.51102641635736
 30
0.0
 10
238.3235720109569
 20
63.44773709267637
 30
0.0
 10
238.2683165522623
 20
63.38403994969693
 30
0.0
 10
238.2142963899764
 20
63.31994491776571
 30
0.0
 10
238.1615200735065
 20
63.25546210032568
 30
0.0
 10
238.1099958806475
 20
63.19060176561753
 30
0.0
 10
238.0597318036224
 20
63.12537433700799
 30
0.0
 10
238.0107355355704
 20
63.05979038195492
 30
0.0
 10
237.96301445767
 20
62.99386059964221
 30
0.0
 10
237.916575627084
 20
62.92759580733995
 30
0.0
 10
237.8714257659175
 20
62.8610069255687
 30
0.0
 10
237.8275712513762
 20
62.7941049621713
 30
0.0
 10
237.785018107305
 20
62.72690099541772
 30
0.0
 10
237.7437719972764
 20
62.65940615629162
 30
0.0
 10
237.7038382193828
 20
62.59163161012604
 30
0.0
 10
237.6652217028675
 20
62.52358853777348
 30
0.0
 10
237.6279270067059
 20
62.45528811651197
 30
0.0
 10
237.5919583202239
 20
62.38674150089562
 30
0.0
 10
237.5573194658081
 20
62.31795980377037
 30
0.0
 10
237.5240139037363
 20
62.2489540776733
 30
0.0
 10
237.492044739119
 20
62.17973529683649
 30
0.0
 10
237.4614147309156
 20
62.1103143400084
 30
0.0
 10
237.4321263029503
 20
62.04070197429563
 30
0.0
 10
237.4041815568269
 20
61.97090884021587
 30
0.0
 10
237.3775822866086
 20
61.9009454381328
 30
0.0
 10
237.3523299951039
 20
61.83082211622698
 30
0.0
 10
237.3284259115665
 20
61.76054906013037
 30
0.0
 10
237.3058710106419
 20
61.69013628432988
 30
0.0
 10
237.2846660321964
 20
61.61959362542361
 30
0.0
 10
237.2648115023317
 20
61.54893073726752
 30
0.0
 10
237.2463077533447
 20
61.47815708810121
 30
0.0
 10
237.2291549498339
 20
61.40728195943703
 30
0.0
 10
237.2133530929584
 20
61.33631444750171
 30
0.0
 10
237.1989021060018
 20
61.26526346418829
 30
0.0
 10
237.1858016157123
 20
61.19413774862951
 30
0.0
 10
237.174051865079
 20
61.12294584768173
 30
0.0
 10
237.1636504056281
 20
61.05169622039534
 30
0.0
 10
237.1546045175601
 20
60.98039688796125
 30
0.0
 10
237.1468849907711
 20
60.9090567852701
 30
0.0
 10
237.1405985340479
 20
60.83768077461927
 30
0.0
 10
237.1364007119525
 20
60.78063561143652
 30
0.0
 10
237.1347750591762
 20
60.74737268289469
 30
0.0
 10
237.1343133272701
 20
60.73792505938002
 30
0.0
  0
SPLINE
  5
E2
330
1F
100
AcDbEntity
  8
0
  6
Continuous
 62
     7
370
    30
100
AcDbSpline
210
0.0
220
0.0
230
1.0
 70
     8
 71
     3
 72
   304
 73
   300
 74
     0
 42
0.000000001
 43
0.00000001
 40
0.0
 40
0.0
 40
0.0
 40
0.0
 40
0.0031626869539569
 40
0.0064259543625609
 40
0.0096887289597063
 40
0.012951260802669
 40
0.0162137581869175
 40
0.01947643116521
 40
0.0227395298334713
 40
0.0260033022186514
 40
0.029267993173661
 40
0.0325338432928137
 40
0.035801087854463
 40
0.0390699557973855
 40
0.0423406687372435
 40
0.0456134400293404
 40
0.0488884738835757
 40
0.0521659645374711
 40
0.0554460954924635
 40
0.0587290388186958
 40
0.0620149545328625
 40
0.0653039900532544
 40
0.0685962797356441
 40
0.0718919444929527
 40
0.0751910915010738
 40
0.0784938139924461
 40
0.0818001911381506
 40
0.0851102880185763
 40
0.0884241556818319
 40
0.0917418312881412
 40
0.0950633383377506
 40
0.0983886869788669
 40
0.1017178743914666
 40
0.1050508852420017
 40
0.1083876922032674
 40
0.1117282565333427
 40
0.1150725287064926
 40
0.1184204490891656
 40
0.1217719486533237
 40
0.125126949719511
 40
0.1284853667219008
 40
0.1318471069875751
 40
0.1352120715226025
 40
0.1385801557974954
 40
0.1419512505254207
 40
0.1453252424264825
 40
0.1487020149724342
 40
0.1520814491064235
 40
0.1554634239331728
 40
0.1588478173756028
 40
0.1622345067945665
 40
0.1656233695692604
 40
0.1690142836359988
 40
0.1724071279843675
 40
0.175801783109832
 40
0.1791981314226218
 40
0.1825960576132925
 40
0.1859954489756797
 40
0.1893961956884004
 40
0.1927981910564109
 40
0.1962013317144187
 40
0.1996055177940932
 40
0.2030106530572823
 40
0.2064166449975098
 40
0.2098234049121223
 40
0.2132308479475071
 40
0.216638893119662
 40
0.2200474633127326
 40
0.2234564852575789
 40
0.2268658894927084
 40
0.2302756103098239
 40
0.2336855856858003
 40
0.2370957572031646
 40
0.240506069960859
 40
0.2439164724767848
 40
0.2473269165839212
 40
0.2507373432132338
 40
0.2541477113159483
 40
0.2575579829706747
 40
0.2609681230761127
 40
0.2643780992324345
 40
0.267787881622922
 40
0.271197442896438
 40
0.2746067580514023
 40
0.278015804321664
 40
0.2814245610648147
 40
0.284833009653156
 40
0.2882411333677304
 40
0.2916489172954985
 40
0.2950563482299974
 40
0.2984634145754971
 40
0.301870106254746
 40
0.3052764146204502
 40
0.3086823323704225
 40
0.312087853466426
 40
0.3154929730566829
 40
0.3188976874020523
 40
0.3223019938057025
 40
0.3257058905463676
 40
0.3291093768149028
 40
0.3325124526542394
 40
0.3359151189024884
 40
0.3393173771391882
 40
0.3427192296344992
 40
0.3461206793013293
 40
0.3495217296501649
 40
0.3529223847465829
 40
0.3563226491712669
 40
0.3597225279825008
 40
0.3631220266808639
 40
0.3665211511762465
 40
0.3699199077568409
 40
0.3733183030601736
 40
0.3767163440460169
 40
0.3801140379710699
 40
0.3835113923653329
 40
0.3869084150100638
 40
0.3903051139172765
 40
0.3937014973106289
 40
0.3970975736076566
 40
0.4004933514033134
 40
0.4038888394546515
 40
0.4072840466666449
 40
0.4106789820790779
 40
0.4140736548544039
 40
0.4174680742665521
 40
0.4208622496905869
 40
0.4242561905931988
 40
0.4276499065239495
 40
0.4310434071072308
 40
0.4344367020349158
 40
0.437829801059581
 40
0.4412227139883573
 40
0.4446154506772974
 40
0.4480080210262368
 40
0.4514004349741319
 40
0.4547927024948257
 40
0.4581848335932205
 40
0.4615768383017568
 40
0.4649687266773174
 40
0.4683605087983682
 40
0.4717521947623715
 40
0.4751437946835335
 40
0.4785353186906368
 40
0.4819267769252412
 40
0.4853181795398959
 40
0.4887095366966255
 40
0.4921008585654868
 40
0.4954921553232555
 40
0.4988834371521841
 40
0.5022747142388351
 40
0.5056659961677609
 40
0.5090572903392574
 40
0.5124486069465578
 40
0.5158399561831156
 40
0.5192313482415173
 40
0.5226227933122302
 40
0.5260143015823795
 40
0.5294058832343755
 40
0.5327975484444378
 40
0.5361893073810116
 40
0.5395811702029792
 40
0.5429731470576865
 40
0.5463652480788187
 40
0.5497574833839658
 40
0.5531498630719878
 40
0.5565423972200504
 40
0.5599350958803868
 40
0.5633279690766538
 40
0.566721026799993
 40
0.5701142790045988
 40
0.5735077356029296
 40
0.5769014064603591
 40
0.5802953013893452
 40
0.5836894301431076
 40
0.5870838024085722
 40
0.5904784277988004
 40
0.5938733158446865
 40
0.5972684759858865
 40
0.6006639175610298
 40
0.6040596497970262
 40
0.6074556817975243
 40
0.6108520225303966
 40
0.6142486808142017
 40
0.6176456653035568
 40
0.6210429844733842
 40
0.6244406466019117
 40
0.6278386597524105
 40
0.6312370317534439
 40
0.6346357701778068
 40
0.6380348823198128
 40
0.6414343751709582
 40
0.6448342553938752
 40
0.6482345292944288
 40
0.6516352027919242
 40
0.6550362813872207
 40
0.6584377701287506
 40
0.6618396735762448
 40
0.6652419957621369
 40
0.6686447401504647
 40
0.6720479095931627
 40
0.6754515062836326
 40
0.678855531707564
 40
0.6822599865906808
 40
0.6856648708435003
 40
0.6890701835029143
 40
0.692475922670452
 40
0.6958820854471813
 40
0.6992886678650947
 40
0.7026956648149474
 40
0.7061030699704371
 40
0.7095108757086614
 40
0.7129190730268895
 40
0.7163276514554218
 40
0.7197365989668589
 40
0.7231459018814409
 40
0.7265555447688268
 40
0.7299655103462297
 40
0.733375779373095
 40
0.7367863305425445
 40
0.7401971403697635
 40
0.7436081830776265
 40
0.7470194304800367
 40
0.7504308518632384
 40
0.7538424138657717
 40
0.7572540803575469
 40
0.7606658123188723
 40
0.7640775621499678
 40
0.7674892745088063
 40
0.7709008998891055
 40
0.7743123853928932
 40
0.7777236746243479
 40
0.7811347075914712
 40
0.7845454206162704
 40
0.7879557462552119
 40
0.7913656132316897
 40
0.7947749463826576
 40
0.798183666621279
 40
0.8015916909181124
 40
0.8049989323028518
 40
0.8084052998892127
 40
0.8118106989253542
 40
0.8152150308722529
 40
0.8186181935126075
 40
0.8220200810925866
 40
0.8254205844988789
 40
0.8288195914731802
 40
0.8322169868661603
 40
0.8356126529327709
 40
0.839006469670264
 40
0.8423983152001904
 40
0.8457880661950136
 40
0.8491755983496616
 40
0.8525607868976243
 40
0.8559435071708625
 40
0.8593236352019321
 40
0.862701048366193
 40
0.8660756260612278
 40
0.8694472504199313
 40
0.8728158070529728
 40
0.876181185815653
 40
0.8795432815935821
 40
0.8829019951008122
 40
0.8862572336837481
 40
0.8896089121235348
 40
0.8929569534291908
 40
0.8963012896137417
 40
0.8996418624450528
 40
0.9029786241634867
 40
0.9063115381583116
 40
0.9096405795949929
 40
0.9129657359861448
 40
0.9162870076990891
 40
0.9196044083937261
 40
0.9229179653850882
 40
0.9262277199256549
 40
0.9295337274034371
 40
0.932836057452679
 40
0.9361347939749105
 40
0.939430035069065
 40
0.9427218928703167
 40
0.9460104932980633
 40
0.9492959757145313
 40
0.9525784924961483
 40
0.955858208520566
 40
0.9591353005730684
 40
0.9624099566765254
 40
0.9656823753496446
 40
0.9689527647988645
 40
0.9722213420493886
 40
0.975488332021428
 40
0.9787539665577852
 40
0.9820184834092944
 40
0.9852821251846389
 40
0.9885451382712432
 40
0.9918077717340888
 40
0.9950702761992137
 40
0.9983328221216593
 40
1.0
 40
1.0
 40
1.0
 40
1.0
 10
235.8780488676542
 20
37.07958819767789
 30
0.0
 10
235.876875585146
 20
37.05528300101902
 30
0.0
 10
235.8744917071456
 20
37.00589964857962
 30
0.0
 10
235.8725881887687
 20
36.93140625939348
 30
0.0
 10
235.87190694901
 20
36.85613534937013
 30
0.0
 10
235.8725998244954
 20
36.78086970957548
 30
0.0
 10
235.8746310569194
 20
36.70561810060416
 30
0.0
 10
235.878009781346
 20
36.63038800209654
 30
0.0
 10
235.8827330990495
 20
36.55518689494545
 30
0.0
 10
235.8888013681749
 20
36.48002185962731
 30
0.0
 10
235.8962141029705
 20
36.40490002055236
 30
0.0
 10
235.9049710652569
 20
36.32982852936766
 30
0.0
 10
235.9150719646349
 20
36.25481458690811
 30
0.0
 10
235.9265165296443
 20
36.17986545418377
 30
0.0
 10
235.9393044776256
 20
36.10498846554538
 30
0.0
 10
235.9534355099856
 20
36.03019104035469
 30
0.0
 10
235.9689092990261
 20
35.95548069399756
 30
0.0
 10
235.9857254755524
 20
35.88086504787815
 30
0.0
 10
236.00388361495
 20
35.80635183835932
 30
0.0
 10
236.0233832225257
 20
35.73194892453903
 30
0.0
 10
236.0442237180882
 20
35.65766429478324
 30
0.0
 10
236.0664044199764
 20
35.58350607194081
 30
0.0
 10
236.0899245286919
 20
35.50948251718143
 30
0.0
 10
236.1147831103121
 20
35.43560203240789
 30
0.0
 10
236.1409790798618
 20
35.36187316121114
 30
0.0
 10
236.168511184823
 20
35.28830458835209
 30
0.0
 10
236.1973779889587
 20
35.21490513776939
 30
0.0
 10
236.227577856628
 20
35.14168376913105
 30
0.0
 10
236.259108937758
 20
35.06864957296483
 30
0.0
 10
236.2919691536333
 20
34.99581176441898
 30
0.0
 10
236.3261561836491
 20
34.92317967572297
 30
0.0
 10
236.361667453164
 20
34.85076274743374
 30
0.0
 10
236.3985001225676
 20
34.7785705185665
 30
0.0
 10
236.436651077666
 20
34.70661261572686
 30
0.0
 10
236.4761169214638
 20
34.63489874136592
 30
0.0
 10
236.5168939674043
 20
34.56343866129815
 30
0.0
 10
236.5589782341077
 20
34.4922421916203
 30
0.0
 10
236.6023654416227
 20
34.4213191851833
 30
0.0
 10
236.6470510091931
 20
34.35067951776269
 30
0.0
 10
236.6930300545116
 20
34.28033307408073
 30
0.0
 10
236.7402973944194
 20
34.210289733825
 30
0.0
 10
236.7888475469927
 20
34.14055935780471
 30
0.0
 10
236.8386747349362
 20
34.07115177438132
 30
0.0
 10
236.8897728901948
 20
34.00207676629402
 30
0.0
 10
236.9421356596804
 20
33.93334405799784
 30
0.0
 10
236.995756412002
 20
33.86496330361207
 30
0.0
 10
237.0506282450791
 20
33.79694407556764
 30
0.0
 10
237.1067439945172
 20
33.72929585402704
 30
0.0
 10
237.1640962426189
 20
33.66202801713364
 30
0.0
 10
237.2226773279049
 20
33.59514983213598
 30
0.0
 10
237.2824793550248
 20
33.52867044741504
 30
0.0
 10
237.3434942049357
 20
33.46259888543138
 30
0.0
 10
237.4057135452394
 20
33.39694403659376
 30
0.0
 10
237.4691288405704
 20
33.3317146540417
 30
0.0
 10
237.533731362938
 20
33.26691934932037
 30
0.0
 10
237.5995122019351
 20
33.20256658891957
 30
0.0
 10
237.666462274734
 20
33.13866469163942
 30
0.0
 10
237.734572335801
 20
33.0752218267367
 30
0.0
 10
237.8038329862715
 20
33.01224601280505
 30
0.0
 10
237.8742346829353
 20
32.94974511733189
 30
0.0
 10
237.9457677467945
 20
32.88772685687836
 30
0.0
 10
238.0184223711617
 20
32.82619879782083
 30
0.0
 10
238.0921886292791
 20
32.76516835759787
 30
0.0
 10
238.167056481441
 20
32.70464280640071
 30
0.0
 10
238.2430157816178
 20
32.64462926925179
 30
0.0
 10
238.3200562835756
 20
32.58513472841422
 30
0.0
 10
238.3981676465015
 20
32.52616602607809
 30
0.0
 10
238.4773394401408
 20
32.46772986727375
 30
0.0
 10
238.5575611494636
 20
32.40983282296339
 30
0.0
 10
238.6388221788767
 20
32.35248133326637
 30
0.0
 10
238.7211118560006
 20
32.29568171077894
 30
0.0
 10
238.8044194350373
 20
32.23944014394868
 30
0.0
 10
238.8887340997495
 20
32.18376270047276
 30
0.0
 10
238.9740449660783
 20
32.12865533068818
 30
0.0
 10
239.060341084426
 20
32.07412387092867
 30
0.0
 10
239.1476113212939
 20
32.02017412121417
 30
0.0
 10
239.2358444823897
 20
31.96681176617079
 30
0.0
 10
239.3250293159924
 20
31.91404237754484
 30
0.0
 10
239.4151546406553
 20
31.86187134697251
 30
0.0
 10
239.506209218553
 20
31.81030396784181
 30
0.0
 10
239.59818175457
 20
31.75934543903821
 30
0.0
 10
239.6910608968675
 20
31.70900086756217
 30
0.0
 10
239.7848352373145
 20
31.65927527100337
 30
0.0
 10
239.8794933118033
 20
31.61017357986782
 30
0.0
 10
239.9750236004676
 20
31.56170063975866
 30
0.0
 10
240.0714145278197
 20
31.51386121340909
 30
0.0
 10
240.168654462822
 20
31.46665998257003
 30
0.0
 10
240.2667317189061
 20
31.42010154975495
 30
0.0
 10
240.365634553955
 20
31.37419043984372
 30
0.0
 10
240.465351170256
 20
31.3289311015515
 30
0.0
 10
240.5658697144388
 20
31.28432790876467
 30
0.0
 10
240.6671782774055
 20
31.24038516175092
 30
0.0
 10
240.7692648942627
 20
31.19710708824635
 30
0.0
 10
240.872117544262
 20
31.1544978444275
 30
0.0
 10
240.9757241507562
 20
31.11256151577122
 30
0.0
 10
241.0800725811773
 20
31.07130211781035
 30
0.0
 10
241.1851506470398
 20
31.03072359678973
 30
0.0
 10
241.2909461039769
 20
30.99082983022815
 30
0.0
 10
241.3974466518083
 20
30.95162462739291
 30
0.0
 10
241.5046399346486
 20
30.91311172969125
 30
0.0
 10
241.6125135410532
 20
30.87529481098545
 30
0.0
 10
241.721055004209
 20
30.83817747783591
 30
0.0
 10
241.8302518021671
 20
30.80176326967798
 30
0.0
 10
241.9400913581217
 20
30.76605565893723
 30
0.0
 10
242.0505610407357
 20
30.73105805108837
 30
0.0
 10
242.1616481645121
 20
30.69677378466178
 30
0.0
 10
242.2733399902124
 20
30.66320613120326
 30
0.0
 10
242.3856237253238
 20
30.63035829518983
 30
0.0
 10
242.4984865245713
 20
30.59823341390655
 30
0.0
 10
242.6119154904789
 20
30.56683455728828
 30
0.0
 10
242.7258976739745
 20
30.53616472772908
 30
0.0
 10
242.8404200750426
 20
30.50622685986413
 30
0.0
 10
242.9554696434207
 20
30.47702382032597
 30
0.0
 10
243.0710332793395
 20
30.4485584074792
 30
0.0
 10
243.1870978343069
 20
30.42083335113609
 30
0.0
 10
243.3036501119334
 20
30.3938513122557
 30
0.0
 10
243.4206768687985
 20
30.36761488262981
 30
0.0
 10
243.5381648153568
 20
30.3421265845566
 30
0.0
 10
243.6561006168824
 20
30.31738887050658
 30
0.0
 10
243.7744708944507
 20
30.29340412278008
 30
0.0
 10
243.8932622259568
 20
30.27017465316103
 30
0.0
 10
244.0124611471676
 20
30.24770270256669
 30
0.0
 10
244.1320541528083
 20
30.22599044069684
 30
0.0
 10
244.2520276976807
 20
30.20503996568177
 30
0.0
 10
244.3723681978124
 20
30.18485330373372
 30
0.0
 10
244.4930620316362
 20
30.16543240879992
 30
0.0
 10
244.6140955411969
 20
30.14677916222034
 30
0.0
 10
244.7354550333867
 20
30.12889537239161
 30
0.0
 10
244.857126781205
 20
30.11178277443635
 30
0.0
 10
244.9790970250439
 20
30.09544302988176
 30
0.0
 10
245.1013519739971
 20
30.07987772634475
 30
0.0
 10
245.2238778071907
 20
30.06508837722872
 30
0.0
 10
245.3466606751349
 20
30.05107642142894
 30
0.0
 10
245.4696867010968
 20
30.03784322304994
 30
0.0
 10
245.5929419824904
 20
30.02539007113399
 30
0.0
 10
245.7164125922856
 20
30.0137181794025
 30
0.0
 10
245.8400845804333
 20
30.00282868600961
 30
0.0
 10
245.9639439753059
 20
29.99272265331017
 30
0.0
 10
246.0879767851521
 20
29.9834010676406
 30
0.0
 10
246.2121689995654
 20
29.9748648391149
 30
0.0
 10
246.336506590965
 20
29.96711480143507
 30
0.0
 10
246.4609755160875
 20
29.96015171171675
 30
0.0
 10
246.5855617174891
 20
29.95397625033026
 30
0.0
 10
246.7102511250577
 20
29.94858902075757
 30
0.0
 10
246.8350296575322
 20
29.94399054946468
 30
0.0
 10
246.9598832240301
 20
29.94018128579113
 30
0.0
 10
247.0847977255812
 20
29.93716160185513
 30
0.0
 10
247.2097590566663
 20
29.93493179247596
 30
0.0
 10
247.334753106761
 20
29.93349207511229
 30
0.0
 10
247.4597657618826
 20
29.93284258981829
 30
0.0
 10
247.5847828987029
 20
29.93298339920777
 30
0.0
 10
247.7097903592393
 20
29.93391448798478
 30
0.0
 10
247.834773986751
 20
29.93563576223097
 30
0.0
 10
247.9597196347912
 20
29.93814704964996
 30
0.0
 10
248.084613195611
 20
29.94144810083248
 30
0.0
 10
248.2094405674081
 20
29.94553858906034
 30
0.0
 10
248.3341876558735
 20
29.95041811038258
 30
0.0
 10
248.4588403757334
 20
29.95608618370874
 30
0.0
 10
248.5833846522876
 20
29.96254225091891
 30
0.0
 10
248.7078064229419
 20
29.9697856769908
 30
0.0
 10
248.8320916387342
 20
29.97781575014332
 30
0.0
 10
248.9562262658523
 20
29.9866316819964
 30
0.0
 10
249.0801962871441
 20
29.99623260774743
 30
0.0
 10
249.2039877036177
 20
30.00661758636352
 30
0.0
 10
249.3275865359313
 20
30.01778560078965
 30
0.0
 10
249.4509788258717
 20
30.02973555817217
 30
0.0
 10
249.57415063782
 20
30.0424662900976
 30
0.0
 10
249.6970880602034
 20
30.05597655284604
 30
0.0
 10
249.8197772069332
 20
30.07026502765919
 30
0.0
 10
249.9422042188262
 20
30.08533032102229
 30
0.0
 10
250.0643552650101
 20
30.10117096495906
 30
0.0
 10
250.1862165443102
 20
30.1177854173402
 30
0.0
 10
250.3077742866171
 20
30.13517206220375
 30
0.0
 10
250.4290147542347
 20
30.15332921008714
 30
0.0
 10
250.5499242432063
 20
30.1722550983704
 30
0.0
 10
250.6704890846181
 20
30.19194789162943
 30
0.0
 10
250.7906956458787
 20
30.21240568199842
 30
0.0
 10
250.9105303319741
 20
30.23362648954108
 30
0.0
 10
251.0299795866958
 20
30.25560826262893
 30
0.0
 10
251.149029893841
 20
30.27834887832614
 30
0.0
 10
251.2676677783849
 20
30.30184614277969
 30
0.0
 10
251.3858798076217
 20
30.3260977916131
 30
0.0
 10
251.5036525922745
 20
30.35110149032336
 30
0.0
 10
251.6209727875723
 20
30.37685483467834
 30
0.0
 10
251.7378270942928
 20
30.40335535111432
 30
0.0
 10
251.8542022597691
 20
30.43060049713096
 30
0.0
 10
251.9700850788609
 20
30.45858766168288
 30
0.0
 10
252.0854623948855
 20
30.48731416556497
 30
0.0
 10
252.200321100511
 20
30.51677726178947
 30
0.0
 10
252.3146481386072
 20
30.54697413595375
 30
0.0
 10
252.4284305030559
 20
30.57790190659451
 30
0.0
 10
252.5416552395164
 20
30.60955762552723
 30
0.0
 10
252.6543094461476
 20
30.64193827816792
 30
0.0
 10
252.7663802742838
 20
30.67504078383345
 30
0.0
 10
252.8778549290643
 20
30.70886199601852
 30
0.0
 10
252.9887206700151
 20
30.74339870264508
 30
0.0
 10
253.0989648115823
 20
30.77864762628093
 30
0.0
 10
253.2085747236165
 20
30.81460542432383
 30
0.0
 10
253.3175378318068
 20
30.8512686891476
 30
0.0
 10
253.4258416180661
 20
30.88863394820505
 30
0.0
 10
253.5334736208648
 20
30.92669766408431
 30
0.0
 10
253.6404214355148
 20
30.9654562345134
 30
0.0
 10
253.7466727144033
 20
31.00490599230867
 30
0.0
 10
253.8522151671784
 20
31.04504320526161
 30
0.0
 10
253.9570365608836
 20
31.08586407595844
 30
0.0
 10
254.0611247200485
 20
31.12736474152857
 30
0.0
 10
254.164467526731
 20
31.16954127331396
 30
0.0
 10
254.2670529205183
 20
31.21238967645546
 30
0.0
 10
254.3688688984859
 20
31.25590588938906
 30
0.0
 10
254.4699035151195
 20
31.30008578324543
 30
0.0
 10
254.5701448822028
 20
31.34492516114829
 30
0.0
 10
254.6695811686772
 20
31.3904197574029
 30
0.0
 10
254.7682006004761
 20
31.43656523656954
 30
0.0
 10
254.8659914603421
 20
31.48335719241595
 30
0.0
 10
254.9629420876322
 20
31.53079114674084
 30
0.0
 10
255.0590408781209
 20
31.57886254806354
 30
0.0
 10
255.1542762838072
 20
31.62756677017355
 30
0.0
 10
255.2486368127383
 20
31.67689911053378
 30
0.0
 10
255.3421110288584
 20
31.72685478853268
 30
0.0
 10
255.4346875518968
 20
31.77742894358104
 30
0.0
 10
255.5263550573071
 20
31.82861663304717
 30
0.0
 10
255.6171022762734
 20
31.88041283003053
 30
0.0
 10
255.7069179957986
 20
31.93281242096842
 30
0.0
 10
255.7957910588934
 20
31.98581020307611
 30
0.0
 10
255.8837103648828
 20
32.03940088162056
 30
0.0
 10
255.970664869853
 20
32.09357906702807
 30
0.0
 10
256.0566435404671
 20
32.14833924203047
 30
0.0
 10
256.1416353193984
 20
32.20367573178589
 30
0.0
 10
256.2256292063751
 20
32.25958274703181
 30
0.0
 10
256.308614304259
 20
32.31605441135765
 30
0.0
 10
256.390579854248
 20
32.37308478489371
 30
0.0
 10
256.4715151620705
 20
32.43066781130896
 30
0.0
 10
256.5514096002068
 20
32.48879731401598
 30
0.0
 10
256.6302526104677
 20
32.54746699232496
 30
0.0
 10
256.7080337069534
 20
32.60667041756767
 30
0.0
 10
256.7847424794161
 20
32.66640102922248
 30
0.0
 10
256.8603685970554
 20
32.72665213107551
 30
0.0
 10
256.9349018127696
 20
32.78741688745645
 30
0.0
 10
257.0083319678854
 20
32.8486883195916
 30
0.0
 10
257.0806489973858
 20
32.91045930212147
 30
0.0
 10
257.1518429356523
 20
32.97272255983356
 30
0.0
 10
257.2219039227341
 20
33.03547066466388
 30
0.0
 10
257.2908222111491
 20
33.09869603302558
 30
0.0
 10
257.3585881732211
 20
33.16239092352457
 30
0.0
 10
257.4251923089444
 20
33.22654743512505
 30
0.0
 10
257.4906252543658
 20
33.29115750582839
 30
0.0
 10
257.5548777904612
 20
33.3562129119318
 30
0.0
 10
257.6179408524785
 20
33.42170526792926
 30
0.0
 10
257.6798055397056
 20
33.48762602712031
 30
0.0
 10
257.740463125618
 20
33.55396648298569
 30
0.0
 10
257.7999050683412
 20
33.62071777138725
 30
0.0
 10
257.8581230213643
 20
33.68787087364485
 30
0.0
 10
257.9151088444196
 20
33.75541662053261
 30
0.0
 10
257.9708546144401
 20
33.82334569723524
 30
0.0
 10
258.025352636495
 20
33.89164864928652
 30
0.0
 10
258.0785954545934
 20
33.96031588951135
 30
0.0
 10
258.1305758622415
 20
34.02933770597087
 30
0.0
 10
258.1812869126272
 20
34.09870427090302
 30
0.0
 10
258.2307219283092
 20
34.16840565063432
 30
0.0
 10
258.2788745102759
 20
34.23843181642295
 30
0.0
 10
258.3257385462469
 20
34.30877265617892
 30
0.0
 10
258.3713082180847
 20
34.37941798699046
 30
0.0
 10
258.4155780081946
 20
34.45035756837071
 30
0.0
 10
258.4585427047923
 20
34.52158111612497
 30
0.0
 10
258.5001974059319
 20
34.59307831672309
 30
0.0
 10
258.5405375221972
 20
34.66483884205137
 30
0.0
 10
258.5795587779717
 20
34.73685236440572
 30
0.0
 10
258.6172572112242
 20
34.80910857158045
 30
0.0
 10
258.6536291717587
 20
34.88159718190148
 30
0.0
 10
258.6886713179024
 20
34.95430795904584
 30
0.0
 10
258.722380611624
 20
35.02723072649275
 30
0.0
 10
258.7547543120963
 20
35.10035538144795
 30
0.0
 10
258.7857899677389
 20
35.17367190809264
 30
0.0
 10
258.8154854068019
 20
35.24717039001008
 30
0.0
 10
258.8438387265644
 20
35.32084102165629
 30
0.0
 10
258.8708482812519
 20
35.3946741187497
 30
0.0
 10
258.896512668786
 20
35.46866012747086
 30
0.0
 10
258.9208307165015
 20
35.54278963237554
 30
0.0
 10
258.9438014659781
 20
35.6170533629433
 30
0.0
 10
258.9654241571466
 20
35.69144219869791
 30
0.0
 10
258.9856982118375
 20
35.76594717285767
 30
0.0
 10
259.0046232169481
 20
35.84055947448621
 30
0.0
 10
259.0221989074063
 20
35.91527044913659
 30
0.0
 10
259.0384251491177
 20
35.99007159799525
 30
0.0
 10
259.0533019220467
 20
36.06495457554873
 30
0.0
 10
259.0668293037232
 20
36.1399111858159
 30
0.0
 10
259.0790074529099
 20
36.21493337718479
 30
0.0
 10
259.0898365952201
 20
36.29001323596686
 30
0.0
 10
259.099317004774
 20
36.36514297857019
 30
0.0
 10
259.1074490046559
 20
36.44031494302455
 30
0.0
 10
259.1142329019653
 20
36.51552157755044
 30
0.0
 10
259.1196691721003
 20
36.59075543522263
 30
0.0
 10
259.1237577193324
 20
36.66600914147302
 30
0.0
 10
259.1265005893169
 20
36.74127545898423
 30
0.0
 10
259.1278918106893
 20
36.81654698588293
 30
0.0
 10
259.1279552650772
 20
36.89181721926359
 30
0.0
 10
259.1266033615628
 20
36.9670759020478
 30
0.0
 10
259.1245621000771
 20
37.03005728664533
 30
0.0
 10
259.1224545682011
 20
37.06793419091343
 30
0.0
 10
259.1217418243105
 20
37.08074373957126
 30
0.0
  0
SPLINE
  5
E3
330
1F
100
AcDbEntity
  8
0
  6
Continuous
 62
     7
370
    30
100
AcDbSpline
210
0.0
220
0.0
230
1.0
 70
     8
 71
     3
 72
   304
 73
   300
 74
     0
 42
0.000000001
 43
0.00000001
 40
0.0
 40
0.0
 40
0.0
 40
0.0
 40
0.0031626869547172
 40
0.0064259543633222
 40
0.0096887289604659
 40
0.0129512608034329
 40
0.0162137581876916
 40
0.0194764311659765
 40
0.022739529834242
 40
0.0260033022194258
 40
0.0292679931744342
 40
0.0325338432935865
 40
0.0358010878552395
 40
0.0390699557981613
 40
0.0423406687380253
 40
0.04561344003012
 40
0.0488884738843578
 40
0.0521659645382559
 40
0.0554460954932461
 40
0.0587290388194806
 40
0.0620149545336449
 40
0.0653039900540422
 40
0.0685962797364294
 40
0.0718919444937352
 40
0.0751910915018614
 40
0.0784938139932377
 40
0.0818001911389432
 40
0.0851102880193704
 40
0.0884241556826169
 40
0.0917418312889301
 40
0.0950633383385418
 40
0.0983886869796552
 40
0.1017178743922605
 40
0.1050508852427871
 40
0.1083876922040615
 40
0.1117282565341373
 40
0.1150725287072874
 40
0.1184204490899613
 40
0.1217719486541217
 40
0.1251269497203087
 40
0.1284853667227008
 40
0.1318471069883769
 40
0.1352120715233973
 40
0.1385801557982913
 40
0.1419512505262167
 40
0.1453252424272822
 40
0.148702014973236
 40
0.1520814491072254
 40
0.1554634239339749
 40
0.1588478173763976
 40
0.1622345067953708
 40
0.1656233695700613
 40
0.1690142836367992
 40
0.1724071279851771
 40
0.1758017831106377
 40
0.1791981314234293
 40
0.1825960576141023
 40
0.1859954489764893
 40
0.1893961956892107
 40
0.1927981910572183
 40
0.1962013317152276
 40
0.1996055177948963
 40
0.2030106530580848
 40
0.2064166449983119
 40
0.2098234049129388
 40
0.2132308479483171
 40
0.2166388931204751
 40
0.22004746331355
 40
0.2234564852583878
 40
0.2268658894935227
 40
0.2302756103106386
 40
0.2336855856866155
 40
0.2370957572039828
 40
0.2405060699616756
 40
0.2439164724776049
 40
0.2473269165847395
 40
0.2507373432140534
 40
0.2541477113167739
 40
0.2575579829715035
 40
0.2609681230769351
 40
0.2643780992332549
 40
0.2677878816237452
 40
0.271197442897258
 40
0.2746067580522193
 40
0.2780158043224861
 40
0.2814245610656292
 40
0.2848330096539751
 40
0.2882411333685492
 40
0.2916489172963159
 40
0.2950563482308179
 40
0.2984634145763147
 40
0.301870106255565
 40
0.3052764146212689
 40
0.3086823323712449
 40
0.312087853467247
 40
0.3154929730575107
 40
0.3188976874028729
 40
0.3223019938065289
 40
0.3257058905471986
 40
0.3291093768157328
 40
0.3325124526550662
 40
0.335915118903311
 40
0.3393173771400096
 40
0.3427192296353221
 40
0.3461206793021526
 40
0.3495217296509872
 40
0.3529223847474033
 40
0.3563226491720926
 40
0.3597225279833209
 40
0.3631220266816865
 40
0.3665211511770693
 40
0.3699199077576581
 40
0.373318303060989
 40
0.3767163440468288
 40
0.3801140379718851
 40
0.3835113923661443
 40
0.3869084150108782
 40
0.3903051139180919
 40
0.393701497311444
 40
0.3970975736084741
 40
0.4004933514041314
 40
0.403888839455467
 40
0.4072840466674653
 40
0.410678982079895
 40
0.4140736548552245
 40
0.4174680742673689
 40
0.4208622496914032
 40
0.4242561905940126
 40
0.4276499065247537
 40
0.4310434071080386
 40
0.4344367020357253
 40
0.4378298010603849
 40
0.441222713989164
 40
0.4446154506781069
 40
0.4480080210270359
 40
0.4514004349749335
 40
0.4547927024956306
 40
0.4581848335940246
 40
0.4615768383025611
 40
0.4649687266781292
 40
0.4683605087991723
 40
0.471752194763181
 40
0.4751437946843348
 40
0.4785353186914476
 40
0.4819267769260496
 40
0.4853181795407033
 40
0.4887095366974352
 40
0.4921008585662958
 40
0.4954921553240605
 40
0.4988834371529915
 40
0.5022747142396419
 40
0.5056659961685608
 40
0.5090572903400601
 40
0.5124486069473537
 40
0.5158399561839215
 40
0.5192313482423204
 40
0.5226227933130353
 40
0.52601430158318
 40
0.5294058832351697
 40
0.5327975484452337
 40
0.5361893073818118
 40
0.5395811702037769
 40
0.5429731470584841
 40
0.5463652480796142
 40
0.549757483384763
 40
0.5531498630727841
 40
0.5565423972208486
 40
0.559935095881185
 40
0.5633279690774542
 40
0.566721026800792
 40
0.5701142790054083
 40
0.5735077356037362
 40
0.5769014064611565
 40
0.5802953013901466
 40
0.5836894301439057
 40
0.587083802409374
 40
0.5904784277996084
 40
0.5938733158454929
 40
0.5972684759866949
 40
0.6006639175618372
 40
0.6040596497978347
 40
0.6074556817983398
 40
0.6108520225312164
 40
0.6142486808150174
 40
0.6176456653043668
 40
0.6210429844741955
 40
0.6244406466027305
 40
0.627838659753225
 40
0.6312370317542604
 40
0.634635770178622
 40
0.6380348823206277
 40
0.6414343751717747
 40
0.6448342553946903
 40
0.648234529295244
 40
0.6516352027927411
 40
0.6550362813880353
 40
0.6584377701295647
 40
0.6618396735770553
 40
0.6652419957629498
 40
0.6686447401512765
 40
0.6720479095939695
 40
0.6754515062844493
 40
0.6788555317083821
 40
0.6822599865914921
 40
0.6856648708443105
 40
0.6890701835037242
 40
0.6924759226712669
 40
0.6958820854479976
 40
0.6992886678659087
 40
0.7026956648157641
 40
0.7061030699712486
 40
0.7095108757094809
 40
0.7129190730277088
 40
0.7163276514562466
 40
0.7197365989676844
 40
0.7231459018822678
 40
0.7265555447696554
 40
0.7299655103470557
 40
0.7333757793739193
 40
0.7367863305433717
 40
0.740197140370584
 40
0.7436081830784492
 40
0.747019430480865
 40
0.7504308518640684
 40
0.7538424138665982
 40
0.7572540803583792
 40
0.7606658123197021
 40
0.7640775621507868
 40
0.7674892745096314
 40
0.7709008998899238
 40
0.7743123853937111
 40
0.7777236746251652
 40
0.7811347075922864
 40
0.784545420617089
 40
0.7879557462560322
 40
0.7913656132325112
 40
0.7947749463834748
 40
0.7981836666220972
 40
0.8015916909189293
 40
0.8049989323036655
 40
0.8084052998900272
 40
0.8118106989261644
 40
0.8152150308730718
 40
0.8186181935134212
 40
0.8220200810933994
 40
0.8254205844996897
 40
0.8288195914739925
 40
0.8322169868669714
 40
0.83561265293358
 40
0.8390064696710762
 40
0.8423983152010015
 40
0.8457880661958274
 40
0.8491755983504685
 40
0.8525607868984307
 40
0.8559435071716651
 40
0.8593236352027394
 40
0.8627010483670048
 40
0.866075626062037
 40
0.8694472504207297
 40
0.8728158070537689
 40
0.8761811858164574
 40
0.8795432815943885
 40
0.8829019951016123
 40
0.886257233684547
 40
0.8896089121243312
 40
0.8929569534299945
 40
0.8963012896145438
 40
0.8996418624458447
 40
0.9029786241642898
 40
0.9063115381591123
 40
0.9096405795957907
 40
0.9129657359869463
 40
0.9162870076998932
 40
0.9196044083945308
 40
0.9229179653858939
 40
0.9262277199264553
 40
0.9295337274042388
 40
0.9328360574534823
 40
0.9361347939757074
 40
0.9394300350698669
 40
0.942721892871116
 40
0.9460104932988612
 40
0.9492959757153322
 40
0.9525784924969476
 40
0.9558582085213638
 40
0.9591353005738651
 40
0.9624099566773173
 40
0.9656823753504393
 40
0.9689527647996624
 40
0.9722213420501873
 40
0.975488332022222
 40
0.9787539665585758
 40
0.9820184834100852
 40
0.985282125185427
 40
0.9885451382720318
 40
0.9918077717348808
 40
0.995070276200006
 40
0.9983328221224517
 40
1.0
 40
1.0
 40
1.0
 40
1.0
 10
259.121951132346
 20
136.9204118023223
 30
0.0
 10
259.1231244148543
 20
136.944716998987
 30
0.0
 10
259.1255082928548
 20
136.9941003514323
 30
0.0
 10
259.1274118112316
 20
137.0685937406242
 30
0.0
 10
259.1280930509899
 20
137.1438646506477
 30
0.0
 10
259.1274001755043
 20
137.2191302904423
 30
0.0
 10
259.1253689430799
 20
137.2943818994137
 30
0.0
 10
259.121990218653
 20
137.3696119979214
 30
0.0
 10
259.1172669009492
 20
137.4448131050725
 30
0.0
 10
259.1111986318235
 20
137.5199781403907
 30
0.0
 10
259.1037858970275
 20
137.5950999794656
 30
0.0
 10
259.0950289347408
 20
137.6701714706503
 30
0.0
 10
259.0849280353625
 20
137.7451854131098
 30
0.0
 10
259.0734834703528
 20
137.8201345458342
 30
0.0
 10
259.0606955223711
 20
137.8950115344726
 30
0.0
 10
259.0465644900108
 20
137.9698089596633
 30
0.0
 10
259.03109070097
 20
138.0445193060204
 30
0.0
 10
259.0142745244434
 20
138.1191349521398
 30
0.0
 10
258.9961163850455
 20
138.1936481616586
 30
0.0
 10
258.9766167774694
 20
138.2680510754788
 30
0.0
 10
258.9557762819066
 20
138.3423357052347
 30
0.0
 10
258.933595580018
 20
138.416493928077
 30
0.0
 10
258.9100754713023
 20
138.4905174828364
 30
0.0
 10
258.8852168896818
 20
138.5643979676099
 30
0.0
 10
258.8590209201317
 20
138.6381268388066
 30
0.0
 10
258.8314888151701
 20
138.7116954116656
 30
0.0
 10
258.8026220110341
 20
138.7850948622483
 30
0.0
 10
258.7724221433646
 20
138.8583162308866
 30
0.0
 10
258.7408910622343
 20
138.9313504270527
 30
0.0
 10
258.7080308463587
 20
139.0041882355985
 30
0.0
 10
258.6738438163425
 20
139.0768203242944
 30
0.0
 10
258.6383325468273
 20
139.1492372525836
 30
0.0
 10
258.6014998774234
 20
139.2214294814507
 30
0.0
 10
258.5633489223247
 20
139.2933873842903
 30
0.0
 10
258.5238830785266
 20
139.3651012586512
 30
0.0
 10
258.4831060325857
 20
139.4365613387189
 30
0.0
 10
258.4410217658821
 20
139.5077578083967
 30
0.0
 10
258.3976345583668
 20
139.5786808148337
 30
0.0
 10
258.352948990796
 20
139.6493204822542
 30
0.0
 10
258.3069699454772
 20
139.7196669259361
 30
0.0
 10
258.2597026055691
 20
139.7897102661918
 30
0.0
 10
258.2111524529955
 20
139.8594406422119
 30
0.0
 10
258.1613252650517
 20
139.9288482256352
 30
0.0
 10
258.1102271097929
 20
139.9979232337224
 30
0.0
 10
258.0578643403069
 20
140.0666559420185
 30
0.0
 10
258.004243587985
 20
140.1350366964043
 30
0.0
 10
257.9493717549076
 20
140.2030559244486
 30
0.0
 10
257.8932560054692
 20
140.2707041459891
 30
0.0
 10
257.8359037573673
 20
140.3379719828823
 30
0.0
 10
257.7773226720809
 20
140.4048501678799
 30
0.0
 10
257.7175206449608
 20
140.4713295526007
 30
0.0
 10
257.6565057950496
 20
140.5374011145844
 30
0.0
 10
257.5942864547456
 20
140.6030559634219
 30
0.0
 10
257.5308711594142
 20
140.6682853459739
 30
0.0
 10
257.4662686370464
 20
140.7330806506951
 30
0.0
 10
257.400487798049
 20
140.7974334110957
 30
0.0
 10
257.3335377252498
 20
140.8613353083759
 30
0.0
 10
257.2654276641825
 20
140.9247781732785
 30
0.0
 10
257.1961670137117
 20
140.98775398721
 30
0.0
 10
257.1257653170477
 20
141.050254882683
 30
0.0
 10
257.0542322531883
 20
141.1122731431364
 30
0.0
 10
256.9815776288208
 20
141.1738012021937
 30
0.0
 10
256.9078113707033
 20
141.2348316424166
 30
0.0
 10
256.832943518541
 20
141.2953571936137
 30
0.0
 10
256.7569842183639
 20
141.3553707307625
 30
0.0
 10
256.6799437164057
 20
141.4148652716
 30
0.0
 10
256.6018323534796
 20
141.473833973936
 30
0.0
 10
256.5226605598401
 20
141.5322701327402
 30
0.0
 10
256.4424388505169
 20
141.5901671770505
 30
0.0
 10
256.3611778211037
 20
141.6475186667473
 30
0.0
 10
256.2788881439794
 20
141.7043182892347
 30
0.0
 10
256.1955805649424
 20
141.7605598560648
 30
0.0
 10
256.1112659002301
 20
141.8162372995406
 30
0.0
 10
256.025955033901
 20
141.8713446693251
 30
0.0
 10
255.939658915553
 20
141.9258761290845
 30
0.0
 10
255.8523886786849
 20
141.9798258787988
 30
0.0
 10
255.7641555175888
 20
142.0331882338421
 30
0.0
 10
255.6749706839857
 20
142.0859576224679
 30
0.0
 10
255.5848453593226
 20
142.1381286530401
 30
0.0
 10
255.4937907814248
 20
142.1896960321707
 30
0.0
 10
255.4018182454075
 20
142.2406545609741
 30
0.0
 10
255.3089391031098
 20
142.2909991324499
 30
0.0
 10
255.2151647626627
 20
142.3407247290086
 30
0.0
 10
255.1205066881737
 20
142.389826420144
 30
0.0
 10
255.0249763995092
 20
142.438299360253
 30
0.0
 10
254.9285854721568
 20
142.4861387866024
 30
0.0
 10
254.8313455371544
 20
142.5333400174413
 30
0.0
 10
254.73326828107
 20
142.5798984502562
 30
0.0
 10
254.6343654460209
 20
142.6258095601673
 30
0.0
 10
254.5346488297198
 20
142.6710688984594
 30
0.0
 10
254.4341302855368
 20
142.715672091246
 30
0.0
 10
254.3328217225698
 20
142.7596148382596
 30
0.0
 10
254.2307351057124
 20
142.802892911764
 30
0.0
 10
254.1278824557129
 20
142.8455021555827
 30
0.0
 10
254.0242758492184
 20
142.8874384842389
 30
0.0
 10
253.9199274187972
 20
142.9286978821996
 30
0.0
 10
253.8148493529344
 20
142.9692764032201
 30
0.0
 10
253.7090538959971
 20
143.0091701697815
 30
0.0
 10
253.6025533481655
 20
143.0483753726166
 30
0.0
 10
253.495360065325
 20
143.0868882703181
 30
0.0
 10
253.3874864589203
 20
143.1247051890237
 30
0.0
 10
253.2789449957644
 20
143.161822522173
 30
0.0
 10
253.1697481978063
 20
143.1982367303308
 30
0.0
 10
253.0599086418515
 20
143.2339443410713
 30
0.0
 10
252.9494389592373
 20
143.2689419489201
 30
0.0
 10
252.8383518354608
 20
143.3032262153465
 30
0.0
 10
252.7266600097603
 20
143.3367938688048
 30
0.0
 10
252.6143762746488
 20
143.3696417048181
 30
0.0
 10
252.5015134754011
 20
143.4017665861012
 30
0.0
 10
252.3880845094935
 20
143.4331654427193
 30
0.0
 10
252.2741023259977
 20
143.4638352722783
 30
0.0
 10
252.1595799249295
 20
143.493773140143
 30
0.0
 10
252.0445303565514
 20
143.522976179681
 30
0.0
 10
251.9289667206326
 20
143.5514415925276
 30
0.0
 10
251.8129021656651
 20
143.5791666488705
 30
0.0
 10
251.6963498880385
 20
143.6061486877507
 30
0.0
 10
251.5793231311731
 20
143.6323851173764
 30
0.0
 10
251.4618351846147
 20
143.6578734154494
 30
0.0
 10
251.3438993830891
 20
143.6826111294993
 30
0.0
 10
251.2255291055206
 20
143.7065958772256
 30
0.0
 10
251.1067377740144
 20
143.7298253468445
 30
0.0
 10
250.9875388528035
 20
143.7522972974386
 30
0.0
 10
250.8679458471626
 20
143.7740095593084
 30
0.0
 10
250.7479723022901
 20
143.7949600343232
 30
0.0
 10
250.6276318021583
 20
143.8151466962711
 30
0.0
 10
250.5069379683345
 20
143.8345675912047
 30
0.0
 10
250.3859044587738
 20
143.8532208377841
 30
0.0
 10
250.2645449665841
 20
143.8711046276126
 30
0.0
 10
250.1428732187658
 20
143.8882172255676
 30
0.0
 10
250.0209029749269
 20
143.9045569701221
 30
0.0
 10
249.8986480259736
 20
143.9201222736589
 30
0.0
 10
249.77612219278
 20
143.9349116227747
 30
0.0
 10
249.6533393248357
 20
143.9489235785743
 30
0.0
 10
249.5303132988738
 20
143.9621567769531
 30
0.0
 10
249.4070580174802
 20
143.9746099288689
 30
0.0
 10
249.283587407685
 20
143.9862818206002
 30
0.0
 10
249.1599154195371
 20
143.9971713139929
 30
0.0
 10
249.0360560246645
 20
144.0072773466921
 30
0.0
 10
248.9120232148182
 20
144.0165989323615
 30
0.0
 10
248.7878310004048
 20
144.0251351608871
 30
0.0
 10
248.6634934090052
 20
144.0328851985667
 30
0.0
 10
248.5390244838827
 20
144.0398482882848
 30
0.0
 10
248.414438282481
 20
144.0460237496711
 30
0.0
 10
248.2897488749124
 20
144.0514109792436
 30
0.0
 10
248.1649703424379
 20
144.0560094505363
 30
0.0
 10
248.0401167759399
 20
144.0598187142097
 30
0.0
 10
247.9152022743888
 20
144.0628383981455
 30
0.0
 10
247.7902409433037
 20
144.0650682075245
 30
0.0
 10
247.6652468932091
 20
144.0665079248879
 30
0.0
 10
247.5402342380875
 20
144.0671574101817
 30
0.0
 10
247.4152171012672
 20
144.0670166007921
 30
0.0
 10
247.2902096407309
 20
144.0660855120149
 30
0.0
 10
247.1652260132193
 20
144.0643642377685
 30
0.0
 10
247.0402803651791
 20
144.0618529503493
 30
0.0
 10
246.9153868043593
 20
144.0585518991666
 30
0.0
 10
246.790559432562
 20
144.0544614109386
 30
0.0
 10
246.6658123440968
 20
144.0495818896161
 30
0.0
 10
246.5411596242371
 20
144.0439138162898
 30
0.0
 10
246.416615347683
 20
144.0374577490794
 30
0.0
 10
246.2921935770287
 20
144.0302143230074
 30
0.0
 10
246.1679083612364
 20
144.0221842498547
 30
0.0
 10
246.0437737341182
 20
144.0133683180014
 30
0.0
 10
245.9198037128266
 20
144.0037673922502
 30
0.0
 10
245.7960122963531
 20
143.9933824136339
 30
0.0
 10
245.6724134640396
 20
143.9822143992076
 30
0.0
 10
245.5490211740992
 20
143.9702644418249
 30
0.0
 10
245.4258493621509
 20
143.9575337098993
 30
0.0
 10
245.3029119397675
 20
143.9440234471507
 30
0.0
 10
245.1802227930378
 20
143.9297349723373
 30
0.0
 10
245.0577957811447
 20
143.914669678974
 30
0.0
 10
244.9356447349608
 20
143.898829035037
 30
0.0
 10
244.8137834556608
 20
143.8822145826557
 30
0.0
 10
244.692225713354
 20
143.864827937792
 30
0.0
 10
244.5709852457366
 20
143.8466707899084
 30
0.0
 10
244.450075756765
 20
143.827744901625
 30
0.0
 10
244.3295109153533
 20
143.8080521083658
 30
0.0
 10
244.2093043540927
 20
143.7875943179966
 30
0.0
 10
244.0894696679973
 20
143.7663735104537
 30
0.0
 10
243.9700204132757
 20
143.7443917373657
 30
0.0
 10
243.8509701061305
 20
143.7216511216683
 30
0.0
 10
243.7323322215866
 20
143.6981538572146
 30
0.0
 10
243.6141201923498
 20
143.673902208381
 30
0.0
 10
243.4963474076971
 20
143.6488985096705
 30
0.0
 10
243.3790272123994
 20
143.6231451653153
 30
0.0
 10
243.2621729056792
 20
143.5966446488792
 30
0.0
 10
243.145797740203
 20
143.5693995028624
 30
0.0
 10
243.0299149211112
 20
143.5414123383102
 30
0.0
 10
242.9145376050867
 20
143.512685834428
 30
0.0
 10
242.7996788994614
 20
143.4832227382033
 30
0.0
 10
242.6853518613653
 20
143.4530258640389
 30
0.0
 10
242.5715694969168
 20
143.4220980933979
 30
0.0
 10
242.4583447604564
 20
143.390442374465
 30
0.0
 10
242.3456905538253
 20
143.3580617218242
 30
0.0
 10
242.2336197256892
 20
143.3249592161585
 30
0.0
 10
242.1221450709089
 20
143.2911380039732
 30
0.0
 10
242.0112793299583
 20
143.2566012973465
 30
0.0
 10
241.9010351883912
 20
143.2213523737105
 30
0.0
 10
241.7914252763573
 20
143.1853945756674
 30
0.0
 10
241.6824621681672
 20
143.1487313108435
 30
0.0
 10
241.574158381908
 20
143.1113660517859
 30
0.0
 10
241.4665263791095
 20
143.0733023359065
 30
0.0
 10
241.3595785644597
 20
143.0345437654772
 30
0.0
 10
241.2533272855712
 20
142.9950940076817
 30
0.0
 10
241.1477848327964
 20
142.9549567947287
 30
0.0
 10
241.0429634390914
 20
142.9141359240317
 30
0.0
 10
240.9388752799267
 20
142.8726352584614
 30
0.0
 10
240.8355324732443
 20
142.8304587266758
 30
0.0
 10
240.7329470794571
 20
142.7876103235341
 30
0.0
 10
240.6311311014897
 20
142.7440941106004
 30
0.0
 10
240.5300964848564
 20
142.6999142167438
 30
0.0
 10
240.4298551177733
 20
142.6550748388408
 30
0.0
 10
240.3304188312989
 20
142.6095802425861
 30
0.0
 10
240.2317993995001
 20
142.5634347634192
 30
0.0
 10
240.1340085396343
 20
142.5166428075726
 30
0.0
 10
240.0370579123443
 20
142.4692088532476
 30
0.0
 10
239.9409591218558
 20
142.4211374519246
 30
0.0
 10
239.8457237161697
 20
142.3724332298145
 30
0.0
 10
239.7513631872389
 20
142.3231008894542
 30
0.0
 10
239.657888971119
 20
142.273145211455
 30
0.0
 10
239.5653124480808
 20
142.2225710564066
 30
0.0
 10
239.4736449426708
 20
142.1713833669403
 30
0.0
 10
239.3828977237047
 20
142.1195871699568
 30
0.0
 10
239.2930820041796
 20
142.0671875790188
 30
0.0
 10
239.2042089410851
 20
142.0141897969109
 30
0.0
 10
239.1162896350958
 20
141.9605991183663
 30
0.0
 10
239.0293351301259
 20
141.9064209329586
 30
0.0
 10
238.9433564595121
 20
141.8516607579561
 30
0.0
 10
238.858364680581
 20
141.7963242682006
 30
0.0
 10
238.7743707936048
 20
141.7404172529546
 30
0.0
 10
238.691385695721
 20
141.6839455886286
 30
0.0
 10
238.6094201457324
 20
141.6269152150925
 30
0.0
 10
238.5284848379101
 20
141.5693321886771
 30
0.0
 10
238.4485903997741
 20
141.51120268597
 30
0.0
 10
238.3697473895134
 20
141.4525330076608
 30
0.0
 10
238.291966293028
 20
141.3933295824179
 30
0.0
 10
238.2152575205656
 20
141.333598970763
 30
0.0
 10
238.1396314029265
 20
141.2733478689099
 30
0.0
 10
238.0650981872126
 20
141.2125831125288
 30
0.0
 10
237.9916680320971
 20
141.1513116803936
 30
0.0
 10
237.919351002597
 20
141.0895406978636
 30
0.0
 10
237.8481570643307
 20
141.0272774401514
 30
0.0
 10
237.7780960772492
 20
140.964529335321
 30
0.0
 10
237.7091777888345
 20
140.9013039669591
 30
0.0
 10
237.6414118267628
 20
140.83760907646
 30
0.0
 10
237.5748076910398
 20
140.7734525648595
 30
0.0
 10
237.5093747456187
 20
140.708842494156
 30
0.0
 10
237.4451222095235
 20
140.6437870880526
 30
0.0
 10
237.3820591475066
 20
140.578294732055
 30
0.0
 10
237.3201944602796
 20
140.5123739728638
 30
0.0
 10
237.2595368743676
 20
140.4460335169983
 30
0.0
 10
237.2000949316447
 20
140.3792822285966
 30
0.0
 10
237.1418769786218
 20
140.312129126339
 30
0.0
 10
237.0848911555669
 20
140.2445833794511
 30
0.0
 10
237.0291453855467
 20
140.1766543027485
 30
0.0
 10
236.9746473634922
 20
140.1083513506971
 30
0.0
 10
236.9214045453939
 20
140.0396841104721
 30
0.0
 10
236.8694241377462
 20
139.9706622940124
 30
0.0
 10
236.8187130873608
 20
139.9012957290803
 30
0.0
 10
236.7692780716792
 20
139.831594349349
 30
0.0
 10
236.7211254897127
 20
139.7615681835603
 30
0.0
 10
236.674261453742
 20
139.6912273438041
 30
0.0
 10
236.6286917819045
 20
139.6205820129926
 30
0.0
 10
236.5844219917949
 20
139.5496424316123
 30
0.0
 10
236.5414572951976
 20
139.478418883858
 30
0.0
 10
236.4998025940583
 20
139.4069216832597
 30
0.0
 10
236.4594624777933
 20
139.3351611579313
 30
0.0
 10
236.4204412220191
 20
139.263147635577
 30
0.0
 10
236.3827427887669
 20
139.1908914284021
 30
0.0
 10
236.3463708282328
 20
139.1184028180811
 30
0.0
 10
236.3113286820893
 20
139.0456920409366
 30
0.0
 10
236.277619388368
 20
138.9727692734896
 30
0.0
 10
236.2452456878961
 20
138.8996446185343
 30
0.0
 10
236.2142100322537
 20
138.8263280918895
 30
0.0
 10
236.184514593191
 20
138.7528296099719
 30
0.0
 10
236.1561612734289
 20
138.6791589783257
 30
0.0
 10
236.1291517187417
 20
138.6053258812323
 30
0.0
 10
236.1034873312079
 20
138.5313398725111
 30
0.0
 10
236.0791692834928
 20
138.4572103676063
 30
0.0
 10
236.0561985340165
 20
138.3829466370386
 30
0.0
 10
236.0345758428483
 20
138.3085578012839
 30
0.0
 10
236.0143017881578
 20
138.2340528271241
 30
0.0
 10
235.9953767830474
 20
138.1594405254956
 30
0.0
 10
235.9778010925896
 20
138.0847295508451
 30
0.0
 10
235.9615748508785
 20
138.0099284019865
 30
0.0
 10
235.9466980779499
 20
137.935045424433
 30
0.0
 10
235.9331706962736
 20
137.8600888141658
 30
0.0
 10
235.9209925470872
 20
137.7850666227969
 30
0.0
 10
235.9101634047774
 20
137.7099867640149
 30
0.0
 10
235.9006829952239
 20
137.6348570214114
 30
0.0
 10
235.8925509953422
 20
137.5596850569571
 30
0.0
 10
235.8857670980333
 20
137.4844784224312
 30
0.0
 10
235.8803308278985
 20
137.4092445647591
 30
0.0
 10
235.8762422806668
 20
137.3339908585087
 30
0.0
 10
235.8734994106825
 20
137.2587245409975
 30
0.0
 10
235.8721081893105
 20
137.1834530140988
 30
0.0
 10
235.8720447349229
 20
137.1081827807181
 30
0.0
 10
235.8733966384377
 20
137.0329240979338
 30
0.0
 10
235.8754378999235
 20
136.9699427133424
 30
0.0
 10
235.8775454317992
 20
136.9320658090804
 30
0.0
 10
235.8782581756895
 20
136.9192562604287
 30
0.0
  0
LINE
  5
E4
330
1F
100
AcDbEntity
  8
0
  6
Continuous
 62
     7
370
    30
100
AcDbLine
 10
235.8780625984
 20
136.9197705404
 30
0.0
 11
237.1341393832
 21
113.2623123618
 31
0.0
  0
LINE
  5
E5
330
1F
100
AcDbEntity
  8
0
  6
Continuous
 62
     7
370
    30
100
AcDbLine
 10
257.8658606168
 20
113.2623123618
 30
0.0
 11
259.1219374016
 21
136.9197705404
 31
0.0
  0
SPLINE
  5
E6
330
1F
100
AcDbEntity
  8
0
  6
Continuous
 62
     7
370
    30
100
AcDbSpline
210
0.0
220
0.0
230
1.0
 70
     8
 71
     3
 72
   277
 73
   273
 74
     0
 42
0.000000001
 43
0.00000001
 40
0.0
 40
0.0
 40
0.0
 40
0.0
 40
0.0007711877154901
 40
0.0043547143153596
 40
0.0079391424162671
 40
0.0115247973075387
 40
0.0151119982095401
 40
0.0187010567787569
 40
0.0222922756613068
 40
0.0258859471040655
 40
0.0294823516323701
 40
0.0330817568032562
 40
0.0366844160427357
 40
0.0402905675753298
 40
0.0439004334536654
 40
0.0475142186953989
 40
0.0511321105340209
 40
0.0547542777893814
 40
0.0583808703627763
 40
0.062012018860539
 40
0.0656478343487948
 40
0.0692884082408747
 40
0.0729338123175644
 40
0.0765840988787851
 40
0.0802393010241483
 40
0.0838994330580539
 40
0.0875644910137854
 40
0.0912344532896007
 40
0.0949092813885283
 40
0.0985889207522849
 40
0.102273301679023
 40
0.1059623403134109
 40
0.1096559396971134
 40
0.1133539908673303
 40
0.1170563739906059
 40
0.1207629595195161
 40
0.1244736093596788
 40
0.1281881780352228
 40
0.1319065138413938
 40
0.1356284599737642
 40
0.1393538556244429
 40
0.1430825370367469
 40
0.146814338510898
 40
0.1505490933544695
 40
0.1542866347725121
 40
0.1580267966934979
 40
0.1617694145282623
 40
0.1655143258603487
 40
0.1692613710671126
 40
0.1730103938718831
 40
0.1767612418281807
 40
0.180513766738066
 40
0.1842678250068356
 40
0.1880232779372324
 40
0.191779991966418
 40
0.1955378388494596
 40
0.1992966957931721
 40
0.2030564455443965
 40
0.2068169764366962
 40
0.2105781823996543
 40
0.2143399629346229
 40
0.2181022230608714
 40
0.2218648732358014
 40
0.225627829252831
 40
0.2293910121200979
 40
0.2331543479233044
 40
0.2369177676753169
 40
0.2406811952690836
 40
0.2444445640852936
 40
0.2482078203636332
 40
0.2519709145262408
 40
0.2557338009965833
 40
0.2594964380171678
 40
0.2632587874681447
 40
0.2670208146878493
 40
0.2707824882963248
 40
0.2745437800223906
 40
0.278304664535172
 40
0.2820651192803025
 40
0.2858251243214268
 40
0.2895846621872702
 40
0.2933437177243872
 40
0.2971022779559799
 40
0.3008603319465931
 40
0.3046178706729568
 40
0.3083748869008395
 40
0.3121313750678631
 40
0.3158873311722979
 40
0.319642752667519
 40
0.3233976383622139
 40
0.3271519883260001
 40
0.3309058038004358
 40
0.3346590871150494
 40
0.3384118416084096
 40
0.3421640715538652
 40
0.3459157820898729
 40
0.3496669791546352
 40
0.3534176694248617
 40
0.357167860258541
 40
0.3609175596413799
 40
0.3646667761368335
 40
0.3684155188395148
 40
0.3721637973317653
 40
0.3759116216432496
 40
0.379659002213405
 40
0.3834059498565732
 40
0.3871524757296116
 40
0.3908985913019681
 40
0.3946443083278704
 40
0.3983896388207677
 40
0.4021345950295728
 40
0.4058791894168795
 40
0.409623434638835
 40
0.4133673435266356
 40
0.417110929069573
 40
0.4208542043994397
 40
0.424597182776271
 40
0.4283398775753034
 40
0.4320823022750716
 40
0.4358244704465654
 40
0.4395663957433876
 40
0.4433080918927602
 40
0.4470495726874376
 40
0.4507908519783501
 40
0.4545319436679877
 40
0.4582728617043968
 40
0.4620136200758233
 40
0.465754232805875
 40
0.4694947139491688
 40
0.4732350775874317
 40
0.4769753378260216
 40
0.480715508790743
 40
0.4844556046250436
 40
0.4881956394874306
 40
0.4919356275491301
 40
0.4956755829919174
 40
0.4994155200061505
 40
0.5031554527888268
 40
0.506895393919704
 40
0.5106353544918228
 40
0.514375348712059
 40
0.5181153907873449
 40
0.5218554949227567
 40
0.5255956753195575
 40
0.5293359461731031
 40
0.5330763216705504
 40
0.5368168159883692
 40
0.5405574432896162
 40
0.5442982177208621
 40
0.5480391534088128
 40
0.5517802644565764
 40
0.5555215649394193
 40
0.559263068900125
 40
0.5630047903437886
 40
0.5667467432320082
 40
0.5704889414764851
 40
0.5742313989319026
 40
0.5779741293880565
 40
0.581717146561133
 40
0.5854604640841816
 40
0.5892040954965195
 40
0.5929480542321769
 40
0.5966923536072113
 40
0.6004370068057917
 40
0.6041820268650011
 40
0.6079274266583168
 40
0.6116732188775076
 40
0.6154194160130017
 40
0.619166030332553
 40
0.6229130738580934
 40
0.6266605583406045
 40
0.6304084952329778
 40
0.6341568956606318
 40
0.6379057703898002
 40
0.6416551297933387
 40
0.6454049838138279
 40
0.649155341923947
 40
0.6529062130837748
 40
0.6566576056950141
 40
0.6604095275518173
 40
0.6641619857881191
 40
0.6679149868212478
 40
0.6716685362915943
 40
0.6754226389982063
 40
0.6791772988300077
 40
0.6829325186925614
 40
0.6866883004300086
 40
0.690444644742182
 40
0.6942015510964664
 40
0.6979590176344503
 40
0.701717041072956
 40
0.705475616599486
 40
0.7092347377617298
 40
0.7129943963512136
 40
0.7167545822807669
 40
0.7205152834559417
 40
0.7242764856401254
 40
0.7280381723135597
 40
0.7318003245262023
 40
0.7355629207445727
 40
0.7393259366928204
 40
0.7430893451881652
 40
0.7468531159712863
 40
0.7506172155318764
 40
0.7543816069301429
 40
0.7581462496148227
 40
0.7619110992387127
 40
0.7656761074725172
 40
0.7694412218184958
 40
0.7732063834641978
 40
0.7769715114976755
 40
0.7807365382092543
 40
0.7845013909500785
 40
0.7882659919698535
 40
0.7920302582689205
 40
0.7957941014649825
 40
0.7995574276777421
 40
0.8033201374345359
 40
0.8070821256006767
 40
0.8108432813380477
 40
0.8146034880959846
 40
0.8183626236383889
 40
0.8221205601113453
 40
0.8258771641553388
 40
0.8296322970663406
 40
0.8333858150098212
 40
0.837137569291693
 40
0.8408874066897997
 40
0.8446351698493284
 40
0.8483806977449604
 40
0.852123826212043
 40
0.8558643885483802
 40
0.8596022161873293
 40
0.8633371394421876
 40
0.8670689883205777
 40
0.8707975934066005
 40
0.8745227868073299
 40
0.8782444031589071
 40
0.8819622806863728
 40
0.885676262309999
 40
0.8893861967897505
 40
0.8930919398983054
 40
0.8967933556121062
 40
0.9004903173088289
 40
0.9041827089591065
 40
0.9078704262996523
 40
0.9115533779746079
 40
0.9152314866318926
 40
0.918904689961276
 40
0.922572941661548
 40
0.9262362123244845
 40
0.9298944902242428
 40
0.9335477820019713
 40
0.9371961132363881
 40
0.9408395288926238
 40
0.9444780936430757
 40
0.9481118920554598
 40
0.9517410286449137
 40
0.9553656277886494
 40
0.9589858335029873
 40
0.9626018090843282
 40
0.9662137366168716
 40
0.9698218163511455
 40
0.9734262659586996
 40
0.9770273196691168
 40
0.9806252272965422
 40
0.984220253163573
 40
0.987812674930867
 40
0.9914027823414361
 40
0.9949908758887874
 40
0.9985772654183955
 40
1.0
 40
1.0
 40
1.0
 40
1.0
 10
237.1342572516418
 20
113.2622342693107
 30
0.0
 10
237.1344941843226
 20
113.2571128863657
 30
0.0
 10
237.1358320870357
 20
113.2281936502614
 30
0.0
 10
237.1395914928585
 20
113.1755096608919
 30
0.0
 10
237.1455988029299
 20
113.1041938300711
 30
0.0
 10
237.1530652062288
 20
113.0329275294966
 30
0.0
 10
237.161844871414
 20
112.9617142402868
 30
0.0
 10
237.171976556536
 20
112.8905626202756
 30
0.0
 10
237.1834495497237
 20
112.8194800271675
 30
0.0
 10
237.1962664095142
 20
112.7484742745979
 30
0.0
 10
237.2104261248457
 20
112.6775531796631
 30
0.0
 10
237.2259286128699
 20
112.6067247013758
 30
0.0
 10
237.2427734923028
 20
112.5359969191538
 30
0.0
 10
237.2609603905177
 20
112.4653780525578
 30
0.0
 10
237.2804888377565
 20
112.3948764681436
 30
0.0
 10
237.3013582709111
 20
112.3245006878046
 30
0.0
 10
237.3235680069748
 20
112.2542593946146
 30
0.0
 10
237.3471172239881
 20
112.1841614371315
 30
0.0
 10
237.372004939625
 20
112.1142158318141
 30
0.0
 10
237.3982299903701
 20
112.0444317635797
 30
0.0
 10
237.4257910108052
 20
111.9748185844599
 30
0.0
 10
237.4546864134422
 20
111.9053858103565
 30
0.0
 10
237.4849143692913
 20
111.8361431159216
 30
0.0
 10
237.5164727894046
 20
111.7671003276098
 30
0.0
 10
237.5493593076105
 20
111.6982674149781
 30
0.0
 10
237.5835712646348
 20
111.6296544803322
 30
0.0
 10
237.6191056937898
 20
111.5612717468417
 30
0.0
 10
237.6559593083822
 20
111.4931295452694
 30
0.0
 10
237.6941284909661
 20
111.42523829948
 30
0.0
 10
237.7336092845391
 20
111.357608510908
 30
0.0
 10
237.774397385746
 20
111.2902507421789
 30
0.0
 10
237.8164881401239
 20
111.2231756000889
 30
0.0
 10
237.8598765393915
 20
111.1563937181507
 30
0.0
 10
237.9045572207532
 20
111.0899157389162
 30
0.0
 10
237.9505244681585
 20
111.0237522962848
 30
0.0
 10
237.997772215432
 20
110.9579139979964
 30
0.0
 10
238.0462940511613
 20
110.8924114085019
 30
0.0
 10
238.0960832252128
 20
110.8272550323862
 30
0.0
 10
238.1471326567222
 20
110.7624552985059
 30
0.0
 10
238.1994349433992
 20
110.6980225449812
 30
0.0
 10
238.2529823719696
 20
110.6339670051656
 30
0.0
 10
238.3077669295771
 20
110.5702987946904
 30
0.0
 10
238.363780315961
 20
110.507027899663
 30
0.0
 10
238.4210139562315
 20
110.4441641660738
 30
0.0
 10
238.4794590140659
 20
110.3817172904443
 30
0.0
 10
238.5391064051582
 20
110.3196968117316
 30
0.0
 10
238.5999468107645
 20
110.2581121044817
 30
0.0
 10
238.6619706912
 20
110.1969723732091
 30
0.0
 10
238.7251682991537
 20
110.1362866479648
 30
0.0
 10
238.7895296927063
 20
110.0760637810396
 30
0.0
 10
238.8550447479482
 20
110.0163124447425
 30
0.0
 10
238.9217031711111
 20
109.9570411301799
 30
0.0
 10
238.9894945101444
 20
109.8982581469603
 30
0.0
 10
239.0584081656774
 20
109.8399716237399
 30
0.0
 10
239.1284334013289
 20
109.7821895095252
 30
0.0
 10
239.1995593533321
 20
109.7249195756458
 30
0.0
 10
239.2717750394597
 20
109.668169418312
 30
0.0
 10
239.3450693672441
 20
109.6119464616732
 30
0.0
 10
239.4194311414943
 20
109.5562579612971
 30
0.0
 10
239.4948490711234
 20
109.5011110079916
 30
0.0
 10
239.5713117753047
 20
109.4465125318981
 30
0.0
 10
239.6488077889819
 20
109.392469306789
 30
0.0
 10
239.727325567763
 20
109.3389879545073
 30
0.0
 10
239.8068534922301
 20
109.286074949492
 30
0.0
 10
239.8873798717046
 20
109.2337366233389
 30
0.0
 10
239.9688929474994
 20
109.1819791693527
 30
0.0
 10
240.0513808088631
 20
109.1308087009216
 30
0.0
 10
240.1348314258993
 20
109.0802312305986
 30
0.0
 10
240.2192327115114
 20
109.03025263495
 30
0.0
 10
240.3045726147558
 20
108.980878608291
 30
0.0
 10
240.3908390898274
 20
108.9321146915728
 30
0.0
 10
240.4780200341507
 20
108.8839663142645
 30
0.0
 10
240.5661032890367
 20
108.836438797982
 30
0.0
 10
240.6550766401297
 20
108.7895373599213
 30
0.0
 10
240.7449278176815
 20
108.7432671160867
 30
0.0
 10
240.8356444966795
 20
108.6976330843127
 30
0.0
 10
240.9272142968553
 20
108.6526401870785
 30
0.0
 10
241.0196247825952
 20
108.6082932541166
 30
0.0
 10
241.1128634627771
 20
108.5645970248196
 30
0.0
 10
241.2069177905495
 20
108.5215561504499
 30
0.0
 10
241.3017751630741
 20
108.479175196156
 30
0.0
 10
241.3974229212443
 20
108.4374586428043
 30
0.0
 10
241.4938483493956
 20
108.3964108886323
 30
0.0
 10
241.5910386750203
 20
108.3560362507307
 30
0.0
 10
241.6889810684966
 20
108.3163389663634
 30
0.0
 10
241.7876626428415
 20
108.2773231941333
 30
0.0
 10
241.8870704534976
 20
108.2389930150019
 30
0.0
 10
241.9871914981587
 20
108.2013524331726
 30
0.0
 10
242.0880127166412
 20
108.1644053768439
 30
0.0
 10
242.1895209908067
 20
108.1281556988438
 30
0.0
 10
242.2917031445394
 20
108.0926071771513
 30
0.0
 10
242.3945459437817
 20
108.0577635153138
 30
0.0
 10
242.4980360966309
 20
108.0236283427688
 30
0.0
 10
242.6021602534986
 20
107.9902052150766
 30
0.0
 10
242.7069050073348
 20
107.9574976140715
 30
0.0
 10
242.8122568939171
 20
107.9255089479387
 30
0.0
 10
242.9182023922055
 20
107.8942425512236
 30
0.0
 10
243.0247279247634
 20
107.863701684779
 30
0.0
 10
243.1318198582437
 20
107.833889535657
 30
0.0
 10
243.2394645039403
 20
107.8048092169519
 30
0.0
 10
243.3476481184031
 20
107.7764637675971
 30
0.0
 10
243.4563569041172
 20
107.7488561521241
 30
0.0
 10
243.5655770102426
 20
107.7219892603862
 30
0.0
 10
243.6752945334158
 20
107.6958659072519
 30
0.0
 10
243.7854955186088
 20
107.6704888322734
 30
0.0
 10
243.8961659600475
 20
107.6458606993315
 30
0.0
 10
244.0072918021835
 20
107.6219840962639
 30
0.0
 10
244.1188589407215
 20
107.5988615344776
 30
0.0
 10
244.2308532236976
 20
107.5764954485497
 30
0.0
 10
244.3432604526087
 20
107.5548881958201
 30
0.0
 10
244.4560663835895
 20
107.5340420559778
 30
0.0
 10
244.5692567286363
 20
107.5139592306438
 30
0.0
 10
244.682817156875
 20
107.4946418429534
 30
0.0
 10
244.7967332958717
 20
107.4760919371393
 30
0.0
 10
244.9109907329843
 20
107.4583114781187
 30
0.0
 10
245.0255750167526
 20
107.4413023510845
 30
0.0
 10
245.1404716583256
 20
107.4250663611047
 30
0.0
 10
245.2556661329232
 20
107.409605232729
 30
0.0
 10
245.371143881332
 20
107.3949206096066
 30
0.0
 10
245.4868903114321
 20
107.3810140541145
 30
0.0
 10
245.6028907997539
 20
107.3678870469987
 30
0.0
 10
245.7191306930629
 20
107.3555409870296
 30
0.0
 10
245.8355953099699
 20
107.3439771906713
 30
0.0
 10
245.9522699425674
 20
107.3331968917673
 30
0.0
 10
246.0691398580874
 20
107.3232012412429
 30
0.0
 10
246.1861903005815
 20
107.3139913068246
 30
0.0
 10
246.3034064926204
 20
107.305568072778
 30
0.0
 10
246.4207736370115
 20
107.2979324396642
 30
0.0
 10
246.5382769185336
 20
107.291085224116
 30
0.0
 10
246.6559015056859
 20
107.2850271586336
 30
0.0
 10
246.7736325524515
 20
107.2797588914013
 30
0.0
 10
246.8914552000729
 20
107.2752809861239
 30
0.0
 10
247.0093545788373
 20
107.2715939218857
 30
0.0
 10
247.1273158098726
 20
107.26869809303
 30
0.0
 10
247.2453240069505
 20
107.2665938090605
 30
0.0
 10
247.3633642782956
 20
107.2652812945652
 30
0.0
 10
247.4814217284006
 20
107.2647606891619
 30
0.0
 10
247.5994814427761
 20
107.2650320474275
 30
0.0
 10
247.7175284741064
 20
107.2660953381169
 30
0.0
 10
247.8355478768841
 20
107.2679504434838
 30
0.0
 10
247.9535247263676
 20
107.2705971598721
 30
0.0
 10
248.0714441360601
 20
107.2740351990202
 30
0.0
 10
248.1892912267846
 20
107.2782641878483
 30
0.0
 10
248.3070511284957
 20
107.2832836685635
 30
0.0
 10
248.4247089820861
 20
107.2890930987867
 30
0.0
 10
248.5422499411859
 20
107.2956918517023
 30
0.0
 10
248.6596591739541
 20
107.3030792162297
 30
0.0
 10
248.7769218648588
 20
107.3112543972156
 30
0.0
 10
248.8940232164472
 20
107.3202165156497
 30
0.0
 10
249.0109484511021
 20
107.3299646088994
 30
0.0
 10
249.1276828127839
 20
107.3404976309669
 30
0.0
 10
249.2442115687575
 20
107.3518144527658
 30
0.0
 10
249.360520011301
 20
107.3639138624172
 30
0.0
 10
249.4765934593956
 20
107.3767945655661
 30
0.0
 10
249.5924172603949
 20
107.3904551857157
 30
0.0
 10
249.7079767916726
 20
107.4048942645795
 30
0.0
 10
249.8232574622456
 20
107.420110262451
 30
0.0
 10
249.9382447143716
 20
107.4361015585896
 30
0.0
 10
250.0529240251205
 20
107.4528664516221
 30
0.0
 10
250.1672809079153
 20
107.4704031599579
 30
0.0
 10
250.2813009140438
 20
107.4887098222183
 30
0.0
 10
250.3949696341363
 20
107.5077844976772
 30
0.0
 10
250.5082726996104
 20
107.5276251667132
 30
0.0
 10
250.6211957840776
 20
107.5482297312699
 30
0.0
 10
250.7337246047138
 20
107.5695960153247
 30
0.0
 10
250.8458449235883
 20
107.5917217653635
 30
0.0
 10
250.9575425489509
 20
107.6146046508585
 30
0.0
 10
251.0688033364755
 20
107.6382422647494
 30
0.0
 10
251.1796131904572
 20
107.6626321239232
 30
0.0
 10
251.2899580649611
 20
107.6877716696916
 30
0.0
 10
251.3998239649221
 20
107.7136582682641
 30
0.0
 10
251.5091969471909
 20
107.7402892112115
 30
0.0
 10
251.6180631215276
 20
107.7676617159199
 30
0.0
 10
251.7264086515382
 20
107.7957729260294
 30
0.0
 10
251.8342197555539
 20
107.8246199118556
 30
0.0
 10
251.9414827074499
 20
107.8541996707892
 30
0.0
 10
252.048183837403
 20
107.8845091276702
 30
0.0
 10
252.1543095325858
 20
107.9155451351322
 30
0.0
 10
252.2598462377956
 20
107.9473044739124
 30
0.0
 10
252.3647804560181
 20
107.9797838531216
 30
0.0
 10
252.4690987489217
 20
108.0129799104703
 30
0.0
 10
252.5727877372846
 20
108.0468892124438
 30
0.0
 10
252.6758341013517
 20
108.0815082544215
 30
0.0
 10
252.7782245811213
 20
108.1168334607335
 30
0.0
 10
252.8799459765613
 20
108.1528611846482
 30
0.0
 10
252.9809851477559
 20
108.1895877082837
 30
0.0
 10
253.0813290149816
 20
108.2270092424353
 30
0.0
 10
253.180964558715
 20
108.2651219263121
 30
0.0
 10
253.2798788195739
 20
108.3039218271745
 30
0.0
 10
253.3780588981924
 20
108.3434049398629
 30
0.0
 10
253.4754919550354
 20
108.3835671862111
 30
0.0
 10
253.5721652101533
 20
108.4244044143333
 30
0.0
 10
253.6680659428839
 20
108.4659123977767
 30
0.0
 10
253.7631814915057
 20
108.5080868345297
 30
0.0
 10
253.8574992528492
 20
108.5509233458768
 30
0.0
 10
253.9510066818748
 20
108.5944174750891
 30
0.0
 10
254.0436912912244
 20
108.6385646859426
 30
0.0
 10
254.1355406507595
 20
108.6833603610535
 30
0.0
 10
254.2265423870956
 20
108.728799800021
 30
0.0
 10
254.316684183148
 20
108.7748782173709
 30
0.0
 10
254.4059537777019
 20
108.8215907402878
 30
0.0
 10
254.4943389650272
 20
108.8689324061328
 30
0.0
 10
254.5818275945529
 20
108.9168981597354
 30
0.0
 10
254.6684075706266
 20
108.9654828504584
 30
0.0
 10
254.7540668523774
 20
109.014681229028
 30
0.0
 10
254.8387934537118
 20
109.0644879441286
 30
0.0
 10
254.922575443467
 20
109.1148975387616
 30
0.0
 10
255.005400945753
 20
109.1659044463693
 30
0.0
 10
255.0872581263052
 20
109.2175029777724
 30
0.0
 10
255.1681350684887
 20
109.2696872351454
 30
0.0
 10
255.2480199105649
 20
109.3224511856671
 30
0.0
 10
255.3269008612585
 20
109.3757886656404
 30
0.0
 10
255.4047663199839
 20
109.4296934606762
 30
0.0
 10
255.4816047505447
 20
109.4841592176272
 30
0.0
 10
255.5574046839792
 20
109.5391794394411
 30
0.0
 10
255.6321547219273
 20
109.5947474799568
 30
0.0
 10
255.7058435405457
 20
109.6508565386709
 30
0.0
 10
255.7784598950086
 20
109.707499655526
 30
0.0
 10
255.8499926246361
 20
109.7646697057733
 30
0.0
 10
255.9204306586819
 20
109.8223593949717
 30
0.0
 10
255.9897630228127
 20
109.8805612541892
 30
0.0
 10
256.0579788463073
 20
109.9392676354809
 30
0.0
 10
256.1250673699924
 20
109.9984707077221
 30
0.0
 10
256.1910179549295
 20
110.0581624528797
 30
0.0
 10
256.2558200918545
 20
110.1183346628122
 30
0.0
 10
256.3194634113642
 20
110.1789789366874
 30
0.0
 10
256.3819376948305
 20
110.2400866791151
 30
0.0
 10
256.4432328860111
 20
110.3016490990866
 30
0.0
 10
256.5033391033102
 20
110.3636572098185
 30
0.0
 10
256.5622466526307
 20
110.4261018295891
 30
0.0
 10
256.6199460407396
 20
110.4889735836567
 30
0.0
 10
256.6764279890556
 20
110.5522629073378
 30
0.0
 10
256.7316834477499
 20
110.6159600503173
 30
0.0
 10
256.7857036100355
 20
110.6800550822486
 30
0.0
 10
256.8384799265052
 20
110.7445378996888
 30
0.0
 10
256.8900041193639
 20
110.809398234397
 30
0.0
 10
256.9402681963888
 20
110.8746256630067
 30
0.0
 10
256.9892644644405
 20
110.9402096180599
 30
0.0
 10
257.0369855423406
 20
111.0061394003727
 30
0.0
 10
257.0834243729263
 20
111.072404192675
 30
0.0
 10
257.1285742340925
 20
111.1389930744463
 30
0.0
 10
257.1724287486335
 20
111.2058950378438
 30
0.0
 10
257.2149818927045
 20
111.2730990045974
 30
0.0
 10
257.2562280027328
 20
111.3405938437236
 30
0.0
 10
257.2961617806261
 20
111.4083683898893
 30
0.0
 10
257.3347782971411
 20
111.4764114622419
 30
0.0
 10
257.3720729933023
 20
111.5447118835035
 30
0.0
 10
257.408041679784
 20
111.6132584991198
 30
0.0
 10
257.4426805341995
 20
111.6820401962451
 30
0.0
 10
257.4759860962711
 20
111.7510459223422
 30
0.0
 10
257.507955260888
 20
111.820264703179
 30
0.0
 10
257.5385852690911
 20
111.8896856600071
 30
0.0
 10
257.5678736970562
 20
111.9592980257199
 30
0.0
 10
257.5958184431792
 20
112.0290911597998
 30
0.0
 10
257.6224177133972
 20
112.0990545618829
 30
0.0
 10
257.6476700049016
 20
112.1691778837887
 30
0.0
 10
257.6715740884387
 20
112.2394509398853
 30
0.0
 10
257.6941289893629
 20
112.3098637156858
 30
0.0
 10
257.7153339678082
 20
112.3804063745922
 30
0.0
 10
257.7351884976727
 20
112.4510692627482
 30
0.0
 10
257.7536922466593
 20
112.5218429119147
 30
0.0
 10
257.7708450501698
 20
112.5927180405789
 30
0.0
 10
257.7866469070449
 20
112.6636855525142
 30
0.0
 10
257.8010978940014
 20
112.7347365358277
 30
0.0
 10
257.8141983842905
 20
112.8058622513865
 30
0.0
 10
257.8259481349235
 20
112.8770541523343
 30
0.0
 10
257.836349594374
 20
112.9483037796207
 30
0.0
 10
257.8453954824418
 20
113.0196031120548
 30
0.0
 10
257.8531150092305
 20
113.0909432147459
 30
0.0
 10
257.8594014659533
 20
113.1623192253968
 30
0.0
 10
257.8635992880481
 20
113.2193643885742
 30
0.0
 10
257.8652249408241
 20
113.2526273171108
 30
0.0
 10
257.8656866727299
 20
113.2620749406201
 30
0.0
  0
LINE
  5
E7
330
1F
100
AcDbEntity
  8
0
  6
Continuous
 62
     7
370
    30
100
AcDbLine
 10
240.0
 20
109.1628807682
 30
0.0
 11
240.0
 21
94.7587050445
 31
0.0
  0
LINE
  5
E8
330
1F
100
AcDbEntity
  8
0
  6
Continuous
 62
     7
370
    30
100
AcDbLine
 10
255.0
 20
92.0939178635
 30
0.0
 11
255.0
 21
109.1627763197
 31
0.0
  0
SPLINE
  5
E9
330
1F
100
AcDbEntity
  8
0
  6
Continuous
 62
     7
370
    30
100
AcDbSpline
210
0.0
220
0.0
230
1.0
 70
    11
 71
     3
 72
   296
 73
   292
 74
     0
 42
0.000000001
 43
0.00000001
 40
0.0
 40
0.0
 40
0.0
 40
0.0
 40
0.0039300894315515
 40
0.0078626329301118
 40
0.0117960328058152
 40
0.0157286437995074
 40
0.0196587898753053
 40
0.0236249683278902
 40
0.0275934805399988
 40
0.0315628627385314
 40
0.0355315438974204
 40
0.0394978641311656
 40
0.0428259169008921
 40
0.0461544036574622
 40
0.04948247676354
 40
0.0535576253065151
 40
0.0576327851622941
 40
0.061724799456056
 40
0.0658182342956101
 40
0.0699117027775498
 40
0.0740037629631494
 40
0.0781189695179152
 40
0.0822356077994008
 40
0.086352206280026
 40
0.090467358541913
 40
0.0946012964978131
 40
0.0987352101969675
 40
0.1023775877858729
 40
0.1060212308868999
 40
0.1096647162170424
 40
0.1133068785873845
 40
0.1162365046428529
 40
0.1191675538351699
 40
0.122098895277765
 40
0.1250295912686081
 40
0.1279589209495458
 40
0.1304154836277974
 40
0.1328723830769468
 40
0.1353288897243506
 40
0.1380802140726806
 40
0.1408335965994852
 40
0.1435874273800265
 40
0.1463403485519248
 40
0.1490912856731632
 40
0.151881307150857
 40
0.1546741113094914
 40
0.1574676695169531
 40
0.1602601321860216
 40
0.1630498669702526
 40
0.1657991304469287
 40
0.1685504979123324
 40
0.1713029706759998
 40
0.1740550921001384
 40
0.1768049884271065
 40
0.1795839648143711
 40
0.1823641200331784
 40
0.185144976573093
 40
0.1879257072469468
 40
0.1907051664866845
 40
0.1947884335950818
 40
0.1988729839943259
 40
0.2029579920670037
 40
0.2070418834589341
 40
0.2111418417272272
 40
0.2152424524041736
 40
0.2193431416393265
 40
0.2234432070491193
 40
0.2275568180078999
 40
0.2316712419963543
 40
0.235785370663108
 40
0.23989857882562
 40
0.2432074681656756
 40
0.2465181191169269
 40
0.2498287943044891
 40
0.253138350378122
 40
0.2564463209692155
 40
0.2593780626127354
 40
0.2623124323400901
 40
0.265248053561364
 40
0.2681835911408624
 40
0.2711177677628099
 40
0.2740493805553969
 40
0.2770295868455818
 40
0.2800124951935726
 40
0.282996832995236
 40
0.2859812522766577
 40
0.2889643487416028
 40
0.2919446805581113
 40
0.2948698922464428
 40
0.2977972739650573
 40
0.3007258856089266
 40
0.3036546590837815
 40
0.3065824144019049
 40
0.3095078753466278
 40
0.3130635585726677
 40
0.3166216093439819
 40
0.3201806647363678
 40
0.3237391140637998
 40
0.3272951317882883
 40
0.3311924759312113
 40
0.3350898490239437
 40
0.3390067857260904
 40
0.3429253219622544
 40
0.3468439745388396
 40
0.3507610699509414
 40
0.3547026920558805
 40
0.358645733655405
 40
0.3625888418958653
 40
0.3665305549072537
 40
0.370489789548467
 40
0.3744490310642886
 40
0.3784117023391398
 40
0.3823743777120914
 40
0.3863523125337963
 40
0.3903315511063933
 40
0.3943107951556643
 40
0.3982887374480069
 40
0.4022882052734892
 40
0.4062890006219763
 40
0.4102897866846015
 40
0.4142892418433365
 40
0.4183057518704626
 40
0.4223222590587652
 40
0.425200499799473
 40
0.4280789938658337
 40
0.4309572316278584
 40
0.4344332910457803
 40
0.4379107311009283
 40
0.4413886170932719
 40
0.444866028089326
 40
0.4483420631254409
 40
0.4518540559866673
 40
0.4553675134846861
 40
0.4588814467462572
 40
0.4623948785075512
 40
0.4659068497741481
 40
0.4688549206687324
 40
0.4718032837245515
 40
0.4747513524590632
 40
0.4787835751167372
 40
0.4828180772434528
 40
0.486853332080303
 40
0.490887816361414
 40
0.4949200240433508
 40
0.4989862377783419
 40
0.5030547960882862
 40
0.5071241416283365
 40
0.511192706214914
 40
0.5152589252172142
 40
0.5186708803527461
 40
0.5220832953764205
 40
0.5254952532615054
 40
0.5295907713461663
 40
0.5336862917242914
 40
0.5378002184575363
 40
0.541915718239323
 40
0.5460312349522245
 40
0.5501451847821642
 40
0.5542848324046813
 40
0.5584260415441618
 40
0.5625672712921597
 40
0.5667069470277757
 40
0.570866374033802
 40
0.5750258048277085
 40
0.5792074503609589
 40
0.5833890993993065
 40
0.5875888304101806
 40
0.591790106001135
 40
0.5959913943491109
 40
0.6001911427623119
 40
0.6044162848142483
 40
0.6086429864607897
 40
0.6128696826579367
 40
0.617094817276136
 40
0.6213399655529396
 40
0.6255851085328858
 40
0.6284744205215229
 40
0.6313639893474541
 40
0.6342532943494135
 40
0.6377375622222671
 40
0.6412233139469972
 40
0.6447094977737252
 40
0.6481951266920964
 40
0.6516792915224956
 40
0.6551907274772565
 40
0.6587039505145517
 40
0.6622176487259344
 40
0.6657306366752344
 40
0.6692418753601311
 40
0.6721888684261993
 40
0.6751362514693485
 40
0.678083207506995
 40
0.6816263130067346
 40
0.6851720030624388
 40
0.6887183406672878
 40
0.6922636133510329
 40
0.6958063685448215
 40
0.6987982419584221
 40
0.7017927073461168
 40
0.704788342245797
 40
0.7077838167607559
 40
0.7107779118723289
 40
0.7137695382264
 40
0.7167314283452317
 40
0.7196960608074753
 40
0.7226620485159425
 40
0.7256280066324138
 40
0.7285925707737727
 40
0.7315544153033511
 40
0.734565771163223
 40
0.7375795806226163
 40
0.7405949194086242
 40
0.7436106032905926
 40
0.7466252094696776
 40
0.74963709693212
 40
0.7531770661033818
 40
0.7567183564914813
 40
0.7602606097501087
 40
0.7638028640054619
 40
0.7673436419009151
 40
0.7718237653551842
 40
0.7763047706703918
 40
0.7807859173813949
 40
0.7852662336849576
 40
0.7888955103896684
 40
0.7925257350929634
 40
0.7961560228281489
 40
0.7997857468129073
 40
0.8034146034551
 40
0.8064640102796289
 40
0.8095137024080143
 40
0.8125629777443256
 40
0.8151718515958721
 40
0.8177810137940175
 40
0.8203897856915481
 40
0.8230214659206849
 40
0.8256557082507832
 40
0.8282908059109264
 40
0.8309253818589549
 40
0.8335584196909452
 40
0.8361892962006096
 40
0.8388597729769997
 40
0.8415310973517254
 40
0.8442015900866926
 40
0.8462957762175397
 40
0.8483903491133439
 40
0.850484567000833
 40
0.8530195634843766
 40
0.8555561509796547
 40
0.8580934486470039
 40
0.8606303707969352
 40
0.8631656481377022
 40
0.8663663149953812
 40
0.8695685944086807
 40
0.8727711189889095
 40
0.8759721203288908
 40
0.879519308375442
 40
0.8830686235765072
 40
0.8866189784378471
 40
0.8901689049679966
 40
0.8937166060567164
 40
0.8972924618505106
 40
0.9008699021574721
 40
0.9044480095095406
 40
0.90802570394421
 40
0.911601772973033
 40
0.9145967557503197
 40
0.9175920209405792
 40
0.9205870125544876
 40
0.9243245476548919
 40
0.9280636858979743
 40
0.9318033424025575
 40
0.935542443875784
 40
0.9392799481237507
 40
0.9430380792584816
 40
0.9467979793008685
 40
0.9505584019461195
 40
0.9543181697165489
 40
0.9580761898616051
 40
0.9612241816528837
 40
0.9643725401765573
 40
0.9675205154714726
 40
0.9715654663016856
 40
0.9756121106742611
 40
0.9796586968542204
 40
0.9837035682974337
 40
0.9869619277001479
 40
0.9902216961772343
 40
0.9934819213424696
 40
0.9967416630548209
 40
1.0
 40
1.0
 40
1.0
 40
1.0
 10
242.1966991411144
 20
84.40756214296141
 30
0.0
 10
242.1515585534528
 20
84.38131907036009
 30
0.0
 10
242.0612491909777
 20
84.32881653818717
 30
0.0
 10
241.9303351758867
 20
84.25024977163409
 30
0.0
 10
241.8028642199415
 20
84.17186230711835
 30
0.0
 10
241.6793111530378
 20
84.09373599315892
 30
0.0
 10
241.5593359729984
 20
84.01567313426166
 30
0.0
 10
241.4430807297319
 20
83.93769385835179
 30
0.0
 10
241.3306102080873
 20
83.85975722944136
 30
0.0
 10
241.2223524996821
 20
83.78208198669584
 30
0.0
 10
241.1184149579135
 20
83.70467297991591
 30
0.0
 10
241.0242129662402
 20
83.63164986987681
 30
0.0
 10
240.939006535795
 20
83.56293439936641
 30
0.0
 10
240.8620541126477
 20
83.49842934341196
 30
0.0
 10
240.782743157923
 20
83.42914255265322
 30
0.0
 10
240.7019881604839
 20
83.35502850931533
 30
0.0
 10
240.620674159563
 20
83.27586324644312
 30
0.0
 10
240.544112035955
 20
83.1963559204598
 30
0.0
 10
240.4723503785158
 20
83.11636139739461
 30
0.0
 10
240.4055268087264
 20
83.03584230310481
 30
0.0
 10
240.3435614209978
 20
82.95449972842641
 30
0.0
 10
240.2865144684915
 20
82.8721633538021
 30
0.0
 10
240.2344311412162
 20
82.78860445658346
 30
0.0
 10
240.1874512809693
 20
82.70376961146114
 30
0.0
 10
240.1455491044988
 20
82.61732326074562
 30
0.0
 10
240.1087880544979
 20
82.52903120456216
 30
0.0
 10
240.0784680505338
 20
82.44217943956897
 30
0.0
 10
240.0539813610516
 20
82.35694183075098
 30
0.0
 10
240.0346777924285
 20
82.27339701554612
 30
0.0
 10
240.0195294922297
 20
82.18767228727877
 30
0.0
 10
240.0092809416733
 20
82.10531415576145
 30
0.0
 10
240.0030619004689
 20
82.02666403613523
 30
0.0
 10
240.0000466275752
 20
81.95208986869545
 30
0.0
 10
239.9997730666241
 20
81.87557808567087
 30
0.0
 10
240.0022484888569
 20
81.79703338374108
 30
0.0
 10
240.0072010846534
 20
81.72068439741298
 30
0.0
 10
240.014140572763
 20
81.64681901212363
 30
0.0
 10
240.0225948843128
 20
81.57573701391802
 30
0.0
 10
240.0333884603357
 20
81.50001355732401
 30
0.0
 10
240.0468095470278
 20
81.41929913917501
 30
0.0
 10
240.0631193663515
 20
81.33324164702827
 30
0.0
 10
240.0817742449129
 20
81.2447822382397
 30
0.0
 10
240.1027257656932
 20
81.15390733049946
 30
0.0
 10
240.126040395956
 20
81.06013912935614
 30
0.0
 10
240.1517311757966
 20
80.96332837491855
 30
0.0
 10
240.1797380796035
 20
80.86341868145225
 30
0.0
 10
240.2098321431458
 20
80.7609188458763
 30
0.0
 10
240.2418902795612
 20
80.65593843979683
 30
0.0
 10
240.2756449520131
 20
80.5490367818409
 30
0.0
 10
240.3109683102285
 20
80.44031676777897
 30
0.0
 10
240.3477359223524
 20
80.33007915669285
 30
0.0
 10
240.3860280902675
 20
80.21801838337369
 30
0.0
 10
240.4257382395825
 20
80.10441237734503
 30
0.0
 10
240.4669293599511
 20
79.98906326944497
 30
0.0
 10
240.5095511460984
 20
79.87212193648892
 30
0.0
 10
240.5535747250744
 20
79.75372998059213
 30
0.0
 10
240.5988045077252
 20
79.63446555956413
 30
0.0
 10
240.64518545616
 20
79.51451886256002
 30
0.0
 10
240.7001047231543
 20
79.37520497737172
 30
0.0
 10
240.7642152012382
 20
79.21636512169084
 30
0.0
 10
240.8383072620701
 20
79.0380395437944
 30
0.0
 10
240.9147529344996
 20
78.859482126787
 30
0.0
 10
240.9936752920234
 20
78.68077068903207
 30
0.0
 10
241.0751251118989
 20
78.50216348620512
 30
0.0
 10
241.1592542589059
 20
78.32390692889147
 30
0.0
 10
241.2460963845814
 20
78.1465009426025
 30
0.0
 10
241.3358944430294
 20
77.97001370273743
 30
0.0
 10
241.4288087212888
 20
77.79468419241931
 30
0.0
 10
241.5251118022548
 20
77.62082420514088
 30
0.0
 10
241.624956960019
 20
77.44897649443891
 30
0.0
 10
241.7218345595722
 20
77.29055309466611
 30
0.0
 10
241.8151293662374
 20
77.14532009170382
 30
0.0
 10
241.9042493890438
 20
77.01299355196487
 30
0.0
 10
241.9963568014139
 20
76.88300034361431
 30
0.0
 10
242.0915927935275
 20
76.75571026218692
 30
0.0
 10
242.1863607365781
 20
76.63616641140122
 30
0.0
 10
242.2804329586929
 20
76.52432235017415
 30
0.0
 10
242.3734198096122
 20
76.41987646036411
 30
0.0
 10
242.4691288438328
 20
76.31833835061927
 30
0.0
 10
242.5674844487878
 20
76.21987094529992
 30
0.0
 10
242.6684069504254
 20
76.12463260347843
 30
0.0
 10
242.772431688747
 20
76.03223671188789
 30
0.0
 10
242.8796242573608
 20
75.94284119548479
 30
0.0
 10
242.989979297233
 20
75.85651340633153
 30
0.0
 10
243.1028161165156
 20
75.7737846003794
 30
0.0
 10
243.217993689815
 20
75.69473751678385
 30
0.0
 10
243.3353703213502
 20
75.61945365798286
 30
0.0
 10
243.4541263563497
 20
75.54842555671092
 30
0.0
 10
243.574180336582
 20
75.48158799483099
 30
0.0
 10
243.6954221108235
 20
75.41878271549375
 30
0.0
 10
243.8184987530029
 20
75.35956477153968
 30
0.0
 10
243.9432662987396
 20
75.30392479647315
 30
0.0
 10
244.0695811445529
 20
75.2518533192256
 30
0.0
 10
244.2065258007658
 20
75.19984148699052
 30
0.0
 10
244.3544469742464
 20
75.1487635867375
 30
0.0
 10
244.513619301977
 20
75.09946794665191
 30
0.0
 10
244.6745907432747
 20
75.05504108077919
 30
0.0
 10
244.8371404762264
 20
75.01537438341498
 30
0.0
 10
245.0063636697103
 20
74.97923137538224
 30
0.0
 10
245.1822956725294
 20
74.94699477731689
 30
0.0
 10
245.3652610179754
 20
74.91894179499755
 30
0.0
 10
245.5498526443464
 20
74.89589191953108
 30
0.0
 10
245.7359255938665
 20
74.87768440848473
 30
0.0
 10
245.9230042748951
 20
74.86417545848475
 30
0.0
 10
246.1113228011447
 20
74.85516802084655
 30
0.0
 10
246.300783166678
 20
74.85051667495065
 30
0.0
 10
246.4912884504937
 20
74.85007879061878
 30
0.0
 10
246.6823021327272
 20
74.85369937726213
 30
0.0
 10
246.87397037757
 20
74.86122687020344
 30
0.0
 10
247.0661824428962
 20
74.8725244697228
 30
0.0
 10
247.2589045089532
 20
74.88746891772236
 30
0.0
 10
247.4517440652589
 20
74.90590370528206
 30
0.0
 10
247.6448389656046
 20
74.92772508451847
 30
0.0
 10
247.8380469862596
 20
74.95281333272955
 30
0.0
 10
248.0312572368669
 20
74.98105984602721
 30
0.0
 10
248.2240916841634
 20
75.0123114098383
 30
0.0
 10
248.4167668083555
 20
75.04651005543869
 30
0.0
 10
248.6091895432838
 20
75.08356543618444
 30
0.0
 10
248.8012628916357
 20
75.1233952000733
 30
0.0
 10
248.9925053899132
 20
75.16582747664945
 30
0.0
 10
249.1830504235032
 20
75.21082243931781
 30
0.0
 10
249.3727743442729
 20
75.25829632745248
 30
0.0
 10
249.5437404459736
 20
75.30346384337223
 30
0.0
 10
249.6959557404947
 20
75.34548522503411
 30
0.0
 10
249.8297232416041
 20
75.38373617563276
 30
0.0
 10
249.9719326717776
 20
75.42580324488809
 30
0.0
 10
250.1223473936948
 20
75.47193513286629
 30
0.0
 10
250.2806693214786
 20
75.52237835628597
 30
0.0
 10
250.4376659253739
 20
75.57427530945725
 30
0.0
 10
250.593213662728
 20
75.62756244117244
 30
0.0
 10
250.7477537134272
 20
75.68237618044654
 30
0.0
 10
250.901208521272
 20
75.7386946887185
 30
0.0
 10
251.0535044682973
 20
75.79649487190146
 30
0.0
 10
251.2040261018637
 20
75.8555334575456
 30
0.0
 10
251.3526472858076
 20
75.9157468617779
 30
0.0
 10
251.4914284133265
 20
75.97380333496137
 30
0.0
 10
251.6206587449598
 20
76.02946542363976
 30
0.0
 10
251.7406519953822
 20
76.08253281115998
 30
0.0
 10
251.8736241715433
 20
76.14290685995871
 30
0.0
 10
252.0187951966541
 20
76.2109029282918
 30
0.0
 10
252.1751936218627
 20
76.2868315203366
 30
0.0
 10
252.328409712545
 20
76.36393014792695
 30
0.0
 10
252.4782680833542
 20
76.442104882807
 30
0.0
 10
252.6250514236528
 20
76.52150906861156
 30
0.0
 10
252.7686344298145
 20
76.60210938551721
 30
0.0
 10
252.9089216019751
 20
76.68387166470195
 30
0.0
 10
253.0454015254278
 20
76.76650386958283
 30
0.0
 10
253.1779186233667
 20
76.8499133653292
 30
0.0
 10
253.2994689323761
 20
76.9295240232647
 30
0.0
 10
253.4107016976829
 20
77.00516276879678
 30
0.0
 10
253.5122874579471
 20
77.07669986264072
 30
0.0
 10
253.6174352428278
 20
77.15345090941409
 30
0.0
 10
253.7253298279645
 20
77.23547625119522
 30
0.0
 10
253.8352427195774
 20
77.32295893060673
 30
0.0
 10
253.940717472879
 20
77.41102985801788
 30
0.0
 10
254.0416634497946
 20
77.4996467028783
 30
0.0
 10
254.1378476782209
 20
77.58862557588598
 30
0.0
 10
254.2293791780369
 20
77.67810042534178
 30
0.0
 10
254.3161587612542
 20
77.76804409945609
 30
0.0
 10
254.3981212280417
 20
77.85844268975895
 30
0.0
 10
254.4750299535353
 20
77.9490734958319
 30
0.0
 10
254.546936745211
 20
78.04004452028985
 30
0.0
 10
254.6137626138302
 20
78.13133547486018
 30
0.0
 10
254.6755720669359
 20
78.22311464836545
 30
0.0
 10
254.7321835144913
 20
78.3152287047749
 30
0.0
 10
254.7836142797408
 20
78.40781555486667
 30
0.0
 10
254.829702191101
 20
78.50072353300364
 30
0.0
 10
254.8704018393134
 20
78.59397204790508
 30
0.0
 10
254.9056254589768
 20
78.68744100348049
 30
0.0
 10
254.9354051329363
 20
78.78133202659582
 30
0.0
 10
254.959675009799
 20
78.87568282179106
 30
0.0
 10
254.9783979166901
 20
78.97056109962283
 30
0.0
 10
254.9915137771727
 20
79.06582230870914
 30
0.0
 10
254.9990168007437
 20
79.16166055251873
 30
0.0
 10
255.0008602827438
 20
79.2581394009443
 30
0.0
 10
254.9974269252683
 20
79.34501160730208
 30
0.0
 10
254.990631577657
 20
79.42197738373942
 30
0.0
 10
254.9821146088843
 20
79.48887613287326
 30
0.0
 10
254.9701913964941
 20
79.56076716793596
 30
0.0
 10
254.9541791638229
 20
79.63779203234498
 30
0.0
 10
254.933351921734
 20
79.72013321770609
 30
0.0
 10
254.9086836453268
 20
79.80321026829797
 30
0.0
 10
254.8801841455287
 20
79.88706890068856
 30
0.0
 10
254.8477735045496
 20
79.97199440728552
 30
0.0
 10
254.8114038957385
 20
80.05808233235526
 30
0.0
 10
254.7710564820371
 20
80.14544668217206
 30
0.0
 10
254.7268501099231
 20
80.23394550097171
 30
0.0
 10
254.6788198517395
 20
80.32363447234897
 30
0.0
 10
254.6297614558714
 20
80.40971997555395
 30
0.0
 10
254.5803730132386
 20
80.49204759761768
 30
0.0
 10
254.5313092636489
 20
80.57045856534425
 30
0.0
 10
254.4761527915368
 20
80.65529936771635
 30
0.0
 10
254.4142535824631
 20
80.74692633671698
 30
0.0
 10
254.3449844206526
 20
80.84573444539961
 30
0.0
 10
254.2721231518477
 20
80.94634833581519
 30
0.0
 10
254.1957944117425
 20
81.04879389046383
 30
0.0
 10
254.1202275725761
 20
81.14772348371278
 30
0.0
 10
254.0460583140096
 20
81.24289796635055
 30
0.0
 10
253.9738909683846
 20
81.33405741549379
 30
0.0
 10
253.8995436411964
 20
81.42671373218546
 30
0.0
 10
253.8231516543411
 20
81.52083981645325
 30
0.0
 10
253.7448511323757
 20
81.616408191345
 30
0.0
 10
253.6650121611992
 20
81.71310461485054
 30
0.0
 10
253.5837273888397
 20
81.81096948812436
 30
0.0
 10
253.501129774727
 20
81.90999616217745
 30
0.0
 10
253.4170894102909
 20
82.01047421530355
 30
0.0
 10
253.3317847268577
 20
82.11232292055101
 30
0.0
 10
253.2453971789352
 20
82.21546639654329
 30
0.0
 10
253.1575705368768
 20
82.32043667419025
 30
0.0
 10
253.068425988875
 20
82.42733302584632
 30
0.0
 10
252.9780732092037
 20
82.53615211240897
 30
0.0
 10
252.8871100190956
 20
82.64616496203803
 30
0.0
 10
252.7956884764395
 20
82.75721794987838
 30
0.0
 10
252.7039498383499
 20
82.86914153326832
 30
0.0
 10
252.6066461589129
 20
82.98844942519942
 30
0.0
 10
252.5037156343567
 20
83.11510492485993
 30
0.0
 10
252.3949255684198
 20
83.24886787943159
 30
0.0
 10
252.2856136982415
 20
83.3828784428483
 30
0.0
 10
252.175711450406
 20
83.51684536142376
 30
0.0
 10
252.0553430893118
 20
83.66234949377849
 30
0.0
 10
251.9241102855156
 20
83.81904313530569
 30
0.0
 10
251.7814087440053
 20
83.98636603650367
 30
0.0
 10
251.636792878727
 20
84.15213345001577
 30
0.0
 10
251.4992464876584
 20
84.30556972571208
 30
0.0
 10
251.3689823065665
 20
84.44678997690825
 30
0.0
 10
251.2462668500561
 20
84.5760045271113
 30
0.0
 10
251.1214472699037
 20
84.70317597311474
 30
0.0
 10
250.9943377640196
 20
84.82800692864716
 30
0.0
 10
250.8716428963553
 20
84.94370881302021
 30
0.0
 10
250.7536384322455
 20
85.05049468965183
 30
0.0
 10
250.6406240518697
 20
85.14862031421644
 30
0.0
 10
250.5309993728312
 20
85.23961337292926
 30
0.0
 10
250.4250229560419
 20
85.32367122705884
 30
0.0
 10
250.3229679410733
 20
85.40104013833165
 30
0.0
 10
250.2188322795105
 20
85.47624087556643
 30
0.0
 10
250.1125039927813
 20
85.54905603879254
 30
0.0
 10
250.003912050822
 20
85.61926386989893
 30
0.0
 10
249.8933616314226
 20
85.68645038773815
 30
0.0
 10
249.7809058403182
 20
85.75036505354545
 30
0.0
 10
249.666597626777
 20
85.81075586436324
 30
0.0
 10
249.5498772474398
 20
85.867683013373
 30
0.0
 10
249.4307051610663
 20
85.92080623771434
 30
0.0
 10
249.3091754963496
 20
85.96998159117969
 30
0.0
 10
249.1948886679108
 20
86.0116611221947
 30
0.0
 10
249.0883562559711
 20
86.04681542471243
 30
0.0
 10
248.9899679882436
 20
86.07640997742443
 30
0.0
 10
248.8838997824079
 20
86.10531043560447
 30
0.0
 10
248.770032534193
 20
86.13286262874304
 30
0.0
 10
248.6483053548092
 20
86.15842106425976
 30
0.0
 10
248.5258555011663
 20
86.18038022454108
 30
0.0
 10
248.4028520399723
 20
86.1988176125316
 30
0.0
 10
248.2686182936737
 20
86.21512517076034
 30
0.0
 10
248.1230967859883
 20
86.22829623266415
 30
0.0
 10
247.9663190810617
 20
86.23736560296791
 30
0.0
 10
247.8093050294675
 20
86.24157606977424
 30
0.0
 10
247.6465652069996
 20
86.2411326091704
 30
0.0
 10
247.4781988073618
 20
86.23568377830719
 30
0.0
 10
247.3043247997374
 20
86.22493931953905
 30
0.0
 10
247.1307407419903
 20
86.20937003953527
 30
0.0
 10
246.9576304214203
 20
86.18926951650917
 30
0.0
 10
246.7846517313905
 20
86.16485366837517
 30
0.0
 10
246.6118617720998
 20
86.13635625902413
 30
0.0
 10
246.4392985810711
 20
86.10397933886377
 30
0.0
 10
246.2674947770547
 20
86.0680314594212
 30
0.0
 10
246.096565696997
 20
86.02875388171594
 30
0.0
 10
245.9357848054516
 20
85.98867238935344
 30
0.0
 10
245.7850240941979
 20
85.94852299911481
 30
0.0
 10
245.6441313166638
 20
85.90889215556058
 30
0.0
 10
245.492400017294
 20
85.86402807604523
 30
0.0
 10
245.330078061827
 20
85.81351162929582
 30
0.0
 10
245.1574850163309
 20
85.75695230134392
 30
0.0
 10
244.9862053996198
 20
85.69811424986433
 30
0.0
 10
244.8163562882627
 20
85.63719448781806
 30
0.0
 10
244.6477055834044
 20
85.57425983414862
 30
0.0
 10
244.4803039754494
 20
85.50946262134408
 30
0.0
 10
244.3142107115414
 20
85.44292800251702
 30
0.0
 10
244.1498259679103
 20
85.37492708193712
 30
0.0
 10
243.9872894403819
 20
85.30562909633005
 30
0.0
 10
243.8353889519968
 20
85.23899849923062
 30
0.0
 10
243.6938477021216
 20
85.17535785220278
 30
0.0
 10
243.5623630432886
 20
85.11493788249072
 30
0.0
 10
243.4200664116602
 20
85.04816127622078
 30
0.0
 10
243.2675753451198
 20
84.97492109267009
 30
0.0
 10
243.1056583962652
 20
84.89516071931156
 30
0.0
 10
242.9466407017051
 20
84.81486827687446
 30
0.0
 10
242.8007898052448
 20
84.73941800759422
 30
0.0
 10
242.6675637633235
 20
84.66899564913179
 30
0.0
 10
242.5463581752963
 20
84.60368544412682
 30
0.0
 10
242.4273870414069
 20
84.53829899620516
 30
0.0
 10
242.3105337804217
 20
84.47289744173925
 30
0.0
 10
242.234638568607
 20
84.42933744655751
 30
0.0
 10
242.1966991411145
 20
84.40756214296118
 30
0.0
  0
SPLINE
  5
EA
330
1F
100
AcDbEntity
  8
0
  6
Continuous
 62
     7
370
    30
100
AcDbSpline
210
0.0
220
0.0
230
1.0
 70
    11
 71
     3
 72
   207
 73
   203
 74
     0
 42
0.000000001
 43
0.00000001
 40
0.0
 40
0.0
 40
0.0
 40
0.0
 40
0.0056899292726358
 40
0.0113846049437192
 40
0.0170792374364343
 40
0.0227691077802793
 40
0.0273835981984698
 40
0.0320020520648225
 40
0.0366217546388021
 40
0.0412400573324779
 40
0.0458544208521117
 40
0.0504399060020598
 40
0.0550281117544054
 40
0.0596162575151614
 40
0.0642016608096645
 40
0.0687956571698751
 40
0.0733924900429449
 40
0.0779893062006385
 40
0.0825832797530656
 40
0.0871903822443648
 40
0.091797493971763
 40
0.0973131735117133
 40
0.1028334667394473
 40
0.1083540443995517
 40
0.1138701121226008
 40
0.1194550561682761
 40
0.125043966351874
 40
0.1306333354385844
 40
0.1362189056962277
 40
0.1414886562002651
 40
0.1467584717494435
 40
0.1520574567098041
 40
0.1573586357054336
 40
0.1626601092586434
 40
0.1679594960506699
 40
0.1732928717359689
 40
0.1786279465037024
 40
0.183963186387298
 40
0.1892967873010505
 40
0.1946519420972226
 40
0.2000071060033865
 40
0.2047554444250163
 40
0.2095037793505511
 40
0.2158374942974719
 40
0.2221724641520556
 40
0.2285059751809048
 40
0.2348345448550863
 40
0.2411646634056431
 40
0.2474927441105478
 40
0.2522474935731429
 40
0.2570044011708678
 40
0.2617609411678476
 40
0.266515189122105
 40
0.2710453770619465
 40
0.2755791816104577
 40
0.2801140143046106
 40
0.2846474702940228
 40
0.2891773656623886
 40
0.2937714001442314
 40
0.2983695608794129
 40
0.3029690322078812
 40
0.3075670549880786
 40
0.3121609736620961
 40
0.3166951652111856
 40
0.3212333388491547
 40
0.325772888791248
 40
0.3303111405175448
 40
0.3348453976176793
 40
0.3394463766451743
 40
0.3440512989380685
 40
0.3486576427898295
 40
0.3532627532472511
 40
0.3578638902259276
 40
0.3634814881918821
 40
0.3691035880065363
 40
0.3747258300059534
 40
0.3803436220147023
 40
0.3860323396266962
 40
0.3917254484214091
 40
0.3974186572854493
 40
0.4031075114605113
 40
0.4070971805784855
 40
0.4110868525035039
 40
0.4164307872981389
 40
0.4217764673235073
 40
0.4271204216265997
 40
0.4324990595392746
 40
0.4378794533345132
 40
0.4432580988364213
 40
0.4473116929403541
 40
0.4513652871870713
 40
0.4555103333971606
 40
0.4596553795105711
 40
0.4652089773430381
 40
0.4707644994259607
 40
0.4763180942209217
 40
0.4819104406512212
 40
0.4875047560467723
 40
0.4930971000202121
 40
0.4973134489388462
 40
0.5015297978126388
 40
0.5056875732313612
 40
0.5098453487388626
 40
0.5154162438354013
 40
0.5209890873282113
 40
0.5265599851637254
 40
0.5321699977222945
 40
0.5377819961846609
 40
0.5433920116464773
 40
0.5476217598162313
 40
0.5518515080010333
 40
0.5560099648238882
 40
0.5601684213495033
 40
0.5657402094724703
 40
0.571313942716963
 40
0.5768857193141935
 40
0.5824969025794926
 40
0.5881100898185859
 40
0.5937212443017249
 40
0.5979523426328102
 40
0.6021834367687231
 40
0.6063264099804614
 40
0.6104693782990562
 40
0.6160220036045752
 40
0.6215766772147989
 40
0.6271292299327414
 40
0.6327245979478853
 40
0.6383221616717416
 40
0.6439174362706747
 40
0.6481393445782094
 40
0.6523612438744615
 40
0.6571462188794202
 40
0.6619342215455584
 40
0.6667221551738638
 40
0.6715070359765071
 40
0.6763040862901198
 40
0.6811042995835076
 40
0.6859044935065831
 40
0.6907015173886977
 40
0.6955148630269886
 40
0.7003282161283083
 40
0.7059031810427463
 40
0.7114829055952381
 40
0.7170628369946956
 40
0.7226380842120758
 40
0.7282861448107726
 40
0.7339385123259894
 40
0.7395913302554654
 40
0.745240005514827
 40
0.7493445579070732
 40
0.7534491473769726
 40
0.7589442970777088
 40
0.7644407647560192
 40
0.769936195374824
 40
0.7754626698678533
 40
0.7809901407252947
 40
0.7865167542506499
 40
0.7920713081741039
 40
0.7976267103506373
 40
0.803181289863755
 40
0.807359730375433
 40
0.8115381664687633
 40
0.8165019500728334
 40
0.8214657157866841
 40
0.8280917943156326
 40
0.8347194922412807
 40
0.8413452173442912
 40
0.8463180748562082
 40
0.8512928853387179
 40
0.8562674338738177
 40
0.8612399340410073
 40
0.8662294398525338
 40
0.8712215387496703
 40
0.8762133404224054
 40
0.8812024407128826
 40
0.885684737152056
 40
0.8901706175878399
 40
0.8946574839078529
 40
0.8991429568241439
 40
0.903624911201969
 40
0.9081706911456694
 40
0.912720577072637
 40
0.9172717841502603
 40
0.9218215653615116
 40
0.9263672573999603
 40
0.9308527544868831
 40
0.9353421401731908
 40
0.939832895916616
 40
0.9443224073608131
 40
0.9488080100137701
 40
0.9533585154252008
 40
0.9579128502193379
 40
0.9624685520668408
 40
0.967023045351515
 40
0.9715736838027255
 40
0.9751130606900856
 40
0.9786524401581955
 40
0.9833896453018676
 40
0.9881282317703725
 40
0.9928654535569088
 40
0.9964327265867584
 40
1.0
 40
1.0
 40
1.0
 40
1.0
 10
244.8483495705572
 20
83.26418348183333
 30
0.0
 10
244.8824140858357
 20
83.2832589549777
 30
0.0
 10
244.9505715321699
 20
83.32142581355492
 30
0.0
 10
245.0575413373412
 20
83.37364317922322
 30
0.0
 10
245.1677209087304
 20
83.42201709638874
 30
0.0
 10
245.2741017253941
 20
83.4632759546752
 30
0.0
 10
245.3757837013525
 20
83.49828394597331
 30
0.0
 10
245.4721085636276
 20
83.52778872305204
 30
0.0
 10
245.5702620247826
 20
83.55422792794177
 30
0.0
 10
245.6700644292279
 20
83.57749227383222
 30
0.0
 10
245.7711703169201
 20
83.5974431431656
 30
0.0
 10
245.873470038419
 20
83.61400232614407
 30
0.0
 10
245.9768265499569
 20
83.62712573222132
 30
0.0
 10
246.0812850394779
 20
83.63676705223632
 30
0.0
 10
246.1867407667588
 20
83.64284559928915
 30
0.0
 10
246.2930646676393
 20
83.64525622633168
 30
0.0
 10
246.4001108050457
 20
83.64395876422584
 30
0.0
 10
246.5076266348394
 20
83.63891903881394
 30
0.0
 10
246.6155282644164
 20
83.63008487051046
 30
0.0
 10
246.723649673758
 20
83.61740727763889
 30
0.0
 10
246.8389639274739
 20
83.59982632418003
 30
0.0
 10
246.9611979275916
 20
83.57638936318773
 30
0.0
 10
247.0900448033184
 20
83.54620339540917
 30
0.0
 10
247.2181410301309
 20
83.51077416356522
 30
0.0
 10
247.345754458481
 20
83.47005096066744
 30
0.0
 10
247.472678506276
 20
83.4240589996357
 30
0.0
 10
247.5987840554933
 20
83.37297369687303
 30
0.0
 10
247.7233851939093
 20
83.31722504123933
 30
0.0
 10
247.8440134518286
 20
83.25817074933659
 30
0.0
 10
247.960678593102
 20
83.19630607821861
 30
0.0
 10
248.0736956081875
 20
83.13199957899852
 30
0.0
 10
248.1853134422528
 20
83.06419839158255
 30
0.0
 10
248.2955148709109
 20
82.99309088460976
 30
0.0
 10
248.4040836211556
 20
82.91901220645873
 30
0.0
 10
248.5112433195427
 20
82.84199840065244
 30
0.0
 10
248.6170114488279
 20
82.76220768315879
 30
0.0
 10
248.7214268764395
 20
82.67979303509301
 30
0.0
 10
248.8242901989001
 20
82.5951032194917
 30
0.0
 10
248.9257684140194
 20
82.50819653099414
 30
0.0
 10
249.0258978204094
 20
82.41922359818949
 30
0.0
 10
249.1209933084925
 20
82.33175059280808
 30
0.0
 10
249.2111412923985
 20
82.24625870355061
 30
0.0
 10
249.3060427125887
 20
82.15378720692505
 30
0.0
 10
249.4089745486431
 20
82.05045641925791
 30
0.0
 10
249.5194711959577
 20
81.93596416699013
 30
0.0
 10
249.628170667049
 20
81.81997249086538
 30
0.0
 10
249.7350983870249
 20
81.7027161105531
 30
0.0
 10
249.8402410050567
 20
81.5844392212983
 30
0.0
 10
249.935023144894
 20
81.47522711006697
 30
0.0
 10
250.0198936004661
 20
81.3755212396426
 30
0.0
 10
250.0952540876291
 20
81.28554936720829
 30
0.0
 10
250.1694412789945
 20
81.1955312038624
 30
0.0
 10
250.2412219581015
 20
81.10702867732184
 30
0.0
 10
250.3105631572812
 20
81.02011309577084
 30
0.0
 10
250.3774022062784
 20
80.93476505485707
 30
0.0
 10
250.4427328131232
 20
80.84963983738355
 30
0.0
 10
250.5063828943952
 20
80.7648309033496
 30
0.0
 10
250.5685010825445
 20
80.68000260574902
 30
0.0
 10
250.6289268654533
 20
80.5951873627091
 30
0.0
 10
250.6875196366409
 20
80.51040356499585
 30
0.0
 10
250.7438622277196
 20
80.42610039701661
 30
0.0
 10
250.7977872656474
 20
80.34237314504628
 30
0.0
 10
250.8489305941868
 20
80.25963824226207
 30
0.0
 10
250.8972048017404
 20
80.17790269771226
 30
0.0
 10
250.9425805445614
 20
80.09714739966226
 30
0.0
 10
250.9851716742416
 20
80.01704999178429
 30
0.0
 10
251.0248576200247
 20
79.93768263962546
 30
0.0
 10
251.0617155241659
 20
79.85869514677651
 30
0.0
 10
251.095599254077
 20
79.78009526615809
 30
0.0
 10
251.1264213003299
 20
79.70187254547184
 30
0.0
 10
251.1539596605784
 20
79.6244263432687
 30
0.0
 10
251.1781419098394
 20
79.54780851797828
 30
0.0
 10
251.2004324622094
 20
79.46645848854253
 30
0.0
 10
251.219822241765
 20
79.38057168134183
 30
0.0
 10
251.2352632011608
 20
79.29037036652814
 30
0.0
 10
251.2454727817507
 20
79.2013864786886
 30
0.0
 10
251.2504256445495
 20
79.11327154243408
 30
0.0
 10
251.2499868474796
 20
79.02601615760052
 30
0.0
 10
251.2441097324628
 20
78.93960861738988
 30
0.0
 10
251.2328119560875
 20
78.85443238438094
 30
0.0
 10
251.2177596311292
 20
78.77885735235927
 30
0.0
 10
251.2006848223863
 20
78.71249671597533
 30
0.0
 10
251.1811035114024
 20
78.64848310677357
 30
0.0
 10
251.1557465294268
 20
78.57882016425174
 30
0.0
 10
251.1233699642758
 20
78.50382584136779
 30
0.0
 10
251.0862757347917
 20
78.42977664829742
 30
0.0
 10
251.0444591055114
 20
78.35669379764818
 30
0.0
 10
250.9979579324161
 20
78.2846066418049
 30
0.0
 10
250.9511108515065
 20
78.21951660497564
 30
0.0
 10
250.9051781671687
 20
78.16113963949853
 30
0.0
 10
250.8609201768319
 20
78.1088035820654
 30
0.0
 10
250.8137863370698
 20
78.05680607994451
 30
0.0
 10
250.7580842219877
 20
77.9993369239563
 30
0.0
 10
250.6930863210656
 20
77.93712717407037
 30
0.0
 10
250.6176719980765
 20
77.8706221220487
 30
0.0
 10
250.5377616205913
 20
77.80546762121466
 30
0.0
 10
250.4534134165934
 20
77.74173473309817
 30
0.0
 10
250.3647298849826
 20
77.67950178615152
 30
0.0
 10
250.2796295783849
 20
77.62394700486213
 30
0.0
 10
250.1992883524553
 20
77.57467652880321
 30
0.0
 10
250.1250229680518
 20
77.53149063976419
 30
0.0
 10
250.0490417385955
 20
77.48957313343763
 30
0.0
 10
249.9626498325164
 20
77.4443374982528
 30
0.0
 10
249.8646942273075
 20
77.39610467376038
 30
0.0
 10
249.7544051439156
 20
77.34552567966068
 30
0.0
 10
249.6407161756414
 20
77.2970323810687
 30
0.0
 10
249.5237486309682
 20
77.2507419821058
 30
0.0
 10
249.4036568813066
 20
77.2067722183406
 30
0.0
 10
249.290946918561
 20
77.1687326554838
 30
0.0
 10
249.1864777324038
 20
77.13603497855298
 30
0.0
 10
249.0914411133294
 20
77.10824992856075
 30
0.0
 10
248.9956883859712
 20
77.082188393885
 30
0.0
 10
248.8884030957043
 20
77.05510974634183
 30
0.0
 10
248.7686174546901
 20
77.02762446662
 30
0.0
 10
248.6360034196107
 20
77.00066057370219
 30
0.0
 10
248.5014890285632
 20
76.97681933053907
 30
0.0
 10
248.3652440658435
 20
76.95625812781331
 30
0.0
 10
248.2274589571686
 20
76.93912569950936
 30
0.0
 10
248.1000264661481
 20
76.9267091716764
 30
0.0
 10
247.9833898978741
 20
76.91814911666451
 30
0.0
 10
247.8785431619106
 20
76.91264931206818
 30
0.0
 10
247.7741456242213
 20
76.90937606010303
 30
0.0
 10
247.658511550046
 20
76.90820730319736
 30
0.0
 10
247.5309210025441
 20
76.91016336952922
 30
0.0
 10
247.3915589401278
 20
76.91647698655657
 30
0.0
 10
247.2520750387812
 20
76.92711668183689
 30
0.0
 10
247.1126963051799
 20
76.94226171438595
 30
0.0
 10
246.9736588516687
 20
76.9620493845248
 30
0.0
 10
246.8468493394673
 20
76.98454647775519
 30
0.0
 10
246.7322254483501
 20
77.00857790003668
 30
0.0
 10
246.6250215008935
 20
77.03412015093335
 30
0.0
 10
246.5142515409528
 20
77.06403767051509
 30
0.0
 10
246.4002181944808
 20
77.09883696447508
 30
0.0
 10
246.2876148237139
 20
77.13730860350812
 30
0.0
 10
246.1765254390718
 20
77.17950679903704
 30
0.0
 10
246.067094292042
 20
77.22548949023073
 30
0.0
 10
245.9594381580944
 20
77.27524188558672
 30
0.0
 10
245.8538089380226
 20
77.32868335261827
 30
0.0
 10
245.7502551736382
 20
77.38584697281696
 30
0.0
 10
245.6489263563075
 20
77.4467185453138
 30
0.0
 10
245.5446883624344
 20
77.51463230632577
 30
0.0
 10
245.4382496475461
 20
77.59018839012471
 30
0.0
 10
245.3302730082355
 20
77.67393721649998
 30
0.0
 10
245.2259768634782
 20
77.76207044298594
 30
0.0
 10
245.1250721317753
 20
77.85479978770576
 30
0.0
 10
245.027725911323
 20
77.95207933417569
 30
0.0
 10
244.9339882465109
 20
78.0537295232036
 30
0.0
 10
244.8443062333301
 20
78.1590356540649
 30
0.0
 10
244.7665155394621
 20
78.25784538746177
 30
0.0
 10
244.6993941889736
 20
78.3489437083923
 30
0.0
 10
244.6352989199563
 20
78.44068834324666
 30
0.0
 10
244.5675748794632
 20
78.54372396161565
 30
0.0
 10
244.49711160855
 20
78.65844499976201
 30
0.0
 10
244.4299189805507
 20
78.77534105862422
 30
0.0
 10
244.3659131427729
 20
78.89419530794348
 30
0.0
 10
244.3050401928502
 20
79.01482523995251
 30
0.0
 10
244.2472483214029
 20
79.13702864981539
 30
0.0
 10
244.1924822719877
 20
79.26063601138026
 30
0.0
 10
244.1407244467349
 20
79.38549992615648
 30
0.0
 10
244.0960526729747
 20
79.50087641518225
 30
0.0
 10
244.0576272868207
 20
79.6064072325465
 30
0.0
 10
244.0226635521755
 20
79.70784498429121
 30
0.0
 10
243.9877579323597
 20
79.81563995896835
 30
0.0
 10
243.9495177125624
 20
79.94250870815603
 30
0.0
 10
243.9109545340368
 20
80.08246384663467
 30
0.0
 10
243.8733663754072
 20
80.23535909688577
 30
0.0
 10
243.8431303657699
 20
80.37546968614477
 30
0.0
 10
243.819100242908
 20
80.5026085040471
 30
0.0
 10
243.800216238001
 20
80.61676526455123
 30
0.0
 10
243.7841662076227
 20
80.73047982796861
 30
0.0
 10
243.7710222664277
 20
80.84373394055672
 30
0.0
 10
243.7608913152991
 20
80.95639871603593
 30
0.0
 10
243.753881636673
 20
81.06834912447877
 30
0.0
 10
243.750105308075
 20
81.17929272533964
 30
0.0
 10
243.7496799455643
 20
81.28534018797728
 30
0.0
 10
243.7523296608751
 20
81.38649409162278
 30
0.0
 10
243.7577375657731
 20
81.48282947288715
 30
0.0
 10
243.7660562471866
 20
81.57790925696101
 30
0.0
 10
243.7773449463203
 20
81.67157564470209
 30
0.0
 10
243.7917333875753
 20
81.76414541109855
 30
0.0
 10
243.8093570851538
 20
81.85550459940488
 30
0.0
 10
243.8302933170955
 20
81.9455857026381
 30
0.0
 10
243.8544763312456
 20
82.03387424701576
 30
0.0
 10
243.8819165979058
 20
82.12023890833855
 30
0.0
 10
243.9125036139398
 20
82.20421511391609
 30
0.0
 10
243.9462333990581
 20
82.2857832018119
 30
0.0
 10
243.9830339409463
 20
82.36498439199563
 30
0.0
 10
244.0230277066227
 20
82.44213971747213
 30
0.0
 10
244.066171030425
 20
82.51717225935806
 30
0.0
 10
244.1126669337635
 20
82.59038851740019
 30
0.0
 10
244.1625759189777
 20
82.66174680858373
 30
0.0
 10
244.2159004014474
 20
82.7312355548997
 30
0.0
 10
244.2723408219283
 20
82.79849188794009
 30
0.0
 10
244.3318111470653
 20
82.86346441352197
 30
0.0
 10
244.3896360354051
 20
82.92148964664125
 30
0.0
 10
244.4450493788844
 20
82.97311309427647
 30
0.0
 10
244.5032869687788
 20
83.02401166390283
 30
0.0
 10
244.5698977566298
 20
83.07805942694976
 30
0.0
 10
244.6456079304826
 20
83.13454505036258
 30
0.0
 10
244.71778689531
 20
83.18397198870504
 30
0.0
 10
244.7854228660891
 20
83.22716183218427
 30
0.0
 10
244.8273740016498
 20
83.25184293150826
 30
0.0
 10
244.8483495705572
 20
83.2641834818334
 30
0.0
  0
LINE
  5
EB
330
1F
100
AcDbEntity
  8
0
  6
Continuous
 62
     7
370
    30
100
AcDbLine
 10
235.8780312907
 20
37.0796389497
 30
0.0
 11
235.8780625984
 21
37.0802294596
 31
0.0
  0
LINE
  5
EC
330
1F
100
AcDbEntity
  8
0
  6
Continuous
 62
     7
370
    30
100
AcDbLine
 10
259.1219119926
 20
37.0807074676
 30
0.0
 11
259.1219374016
 21
37.0802294596
 31
0.0
  0
LINE
  5
ED
330
1F
100
AcDbEntity
  8
0
  6
Continuous
 62
     7
370
    30
100
AcDbLine
 10
259.1219687093
 20
136.9203610503
 30
0.0
 11
259.1219374016
 21
136.9197705404
 31
0.0
  0
LINE
  5
EE
330
1F
100
AcDbEntity
  8
0
  6
Continuous
 62
     7
370
    30
100
AcDbLine
 10
235.8780880074
 20
136.9192925324
 30
0.0
 11
235.8780625984
 21
136.9197705404
 31
0.0
  0
LWPOLYLINE
  5
EF
330
1F
100
AcDbEntity
  8
0
  6
Continuous
 62
     7
370
    30
100
AcDbPolyline
 90
      241
 70
   128
 43
0.0
 10
239.8986021022
 20
141.9395514162
 10
240.1001883113
 20
142.0529172089
 10
240.3068459816
 20
142.1631978577
 10
240.5184334805
 20
142.2703177816
 10
240.7348057962
 20
142.3742035662
 10
240.9558146382
 20
142.4747840131
 10
241.1813085379
 20
142.5719901897
 10
241.4111329531
 20
142.6657554756
 10
241.6451303736
 20
142.7560156088
 10
241.8831404293
 20
142.8427087296
 10
242.125
 20
142.9257754227
 10
242.3705433272
 20
143.0051587585
 10
242.6196021278
 20
143.0808043315
 10
242.8720057093
 20
143.1526602981
 10
243.1275810869
 20
143.2206774118
 10
243.3861531021
 20
143.284809057
 10
243.6475445424
 20
143.3450112811
 10
243.9115762632
 20
143.4012428245
 10
244.1780673105
 20
143.453465149
 10
244.4468350444
 20
143.5016424639
 10
244.7176952651
 20
143.5457417509
 10
244.9904623385
 20
143.5857327866
 10
245.2649493237
 20
143.6215881631
 10
245.540968101
 20
143.653283307
 10
245.8183295008
 20
143.6807964959
 10
246.0968434336
 20
143.7041088737
 10
246.3763190199
 20
143.7232044633
 10
246.6565647209
 20
143.7380701775
 10
246.9373884704
 20
143.7486958281
 10
247.2185978057
 20
143.7550741327
 10
247.5
 20
143.7572007201
 10
247.7814021943
 20
143.7550741327
 10
248.0626115296
 20
143.7486958281
 10
248.3434352791
 20
143.7380701775
 10
248.6236809801
 20
143.7232044633
 10
248.9031565664
 20
143.7041088737
 10
249.1816704992
 20
143.6807964959
 10
249.459031899
 20
143.653283307
 10
249.7350506763
 20
143.6215881631
 10
250.0095376615
 20
143.5857327866
 10
250.2823047349
 20
143.5457417509
 10
250.5531649556
 20
143.5016424639
 10
250.8219326895
 20
143.453465149
 10
251.0884237368
 20
143.4012428245
 10
251.3524554576
 20
143.3450112811
 10
251.6138468979
 20
143.284809057
 10
251.8724189131
 20
143.2206774118
 10
252.1279942907
 20
143.1526602981
 10
252.3803978722
 20
143.0808043315
 10
252.6294566728
 20
143.0051587585
 10
252.875
 20
142.9257754227
 10
253.1168595707
 20
142.8427087296
 10
253.3548696264
 20
142.7560156088
 10
253.5888670469
 20
142.6657554756
 10
253.8186914621
 20
142.5719901897
 10
254.0441853618
 20
142.4747840131
 10
254.2651942038
 20
142.3742035662
 10
254.4815665195
 20
142.2703177816
 10
254.6931540184
 20
142.1631978577
 10
254.8998116887
 20
142.0529172089
 10
255.1013978978
 20
141.9395514162
 10
255.2977744884
 20
141.8231781748
 10
255.4888068739
 20
141.7038772411
 10
255.6743641302
 20
141.581730378
 10
255.8543190857
 20
141.4568212989
 10
256.0285484081
 20
141.3292356102
 10
256.1969326895
 20
141.1990607527
 10
256.3593565277
 20
141.0663859419
 10
256.5157086054
 20
140.9313021064
 10
256.6658817668
 20
140.7939018258
 10
256.8097730907
 20
140.6542792676
 10
256.9472839611
 20
140.512530122
 10
257.078320135
 20
140.3687515369
 10
257.2027918068
 20
140.2230420508
 10
257.3206136697
 20
140.0755015258
 10
257.4317049745
 20
139.9262310787
 10
257.5359895848
 20
139.7753330122
 10
257.6333960292
 20
139.6229107442
 10
257.7238575502
 20
139.4690687372
 10
257.8073121498
 20
139.313912427
 10
257.8837026326
 20
139.1575481499
 10
257.9529766443
 20
139.0000830701
 10
258.0150867079
 20
138.8416251065
 10
258.0699902563
 20
138.6822828581
 10
258.1176496614
 20
138.5221655301
 10
258.1580322598
 20
138.3613828591
 10
258.1911103752
 20
138.2000450373
 10
258.2168613376
 20
138.0382626377
 10
258.2352674986
 20
137.8761465379
 10
258.2463162435
 20
137.7138078441
 10
258.25
 20
137.5513578152
 10
258.2463162435
 20
137.3889077862
 10
258.2352674986
 20
137.2265690924
 10
258.2168613376
 20
137.0644529926
 10
258.1911103752
 20
136.902670593
 10
258.1580322598
 20
136.7413327713
 10
258.1176496614
 20
136.5805501002
 10
258.0699902563
 20
136.4204327723
 10
258.0150867079
 20
136.2610905239
 10
257.9529766443
 20
136.1026325602
 10
257.8837026326
 20
135.9451674805
 10
257.8073121498
 20
135.7888032033
 10
257.7238575502
 20
135.6336468931
 10
257.6333960292
 20
135.4798048862
 10
257.5359895848
 20
135.3273826181
 10
257.4317049745
 20
135.1764845516
 10
257.3206136697
 20
135.0272141046
 10
257.2027918068
 20
134.8796735795
 10
257.078320135
 20
134.7339640935
 10
256.9472839611
 20
134.5901855083
 10
256.8097730907
 20
134.4484363627
 10
256.6658817668
 20
134.3088138045
 10
256.5157086054
 20
134.171413524
 10
256.3593565277
 20
134.0363296884
 10
256.1969326895
 20
133.9036548776
 10
256.0285484081
 20
133.7734800202
 10
255.8543190857
 20
133.6458943314
 10
255.6743641302
 20
133.5209852523
 10
255.4888068739
 20
133.3988383892
 10
255.2977744884
 20
133.2795374555
 10
255.1013978978
 20
133.1631642141
 10
254.8998116887
 20
133.0497984214
 10
254.6931540184
 20
132.9395177726
 10
254.4815665195
 20
132.8323978487
 10
254.2651942038
 20
132.7285120642
 10
254.0441853618
 20
132.6279316172
 10
253.8186914621
 20
132.5307254407
 10
253.5888670469
 20
132.4369601547
 10
253.3548696264
 20
132.3467000215
 10
253.1168595707
 20
132.2600069008
 10
252.875
 20
132.1769402076
 10
252.6294566728
 20
132.0975568718
 10
252.3803978722
 20
132.0219112988
 10
252.1279942907
 20
131.9500553322
 10
251.8724189131
 20
131.8820382185
 10
251.6138468979
 20
131.8179065733
 10
251.3524554576
 20
131.7577043492
 10
251.0884237368
 20
131.7014728058
 10
250.8219326895
 20
131.6492504813
 10
250.5531649556
 20
131.6010731664
 10
250.2823047349
 20
131.5569738794
 10
250.0095376615
 20
131.5169828437
 10
249.7350506763
 20
131.4811274672
 10
249.459031899
 20
131.4494323233
 10
249.1816704992
 20
131.4219191344
 10
248.9031565664
 20
131.3986067566
 10
248.6236809801
 20
131.379511167
 10
248.3434352791
 20
131.3646454528
 10
248.0626115296
 20
131.3540198023
 10
247.7814021943
 20
131.3476414976
 10
247.5
 20
131.3455149102
 10
247.2185978057
 20
131.3476414976
 10
246.9373884704
 20
131.3540198023
 10
246.6565647209
 20
131.3646454528
 10
246.3763190199
 20
131.379511167
 10
246.0968434336
 20
131.3986067566
 10
245.8183295008
 20
131.4219191344
 10
245.540968101
 20
131.4494323233
 10
245.2649493237
 20
131.4811274672
 10
244.9904623385
 20
131.5169828437
 10
244.7176952651
 20
131.5569738794
 10
244.4468350444
 20
131.6010731664
 10
244.1780673105
 20
131.6492504813
 10
243.9115762632
 20
131.7014728058
 10
243.6475445424
 20
131.7577043492
 10
243.3861531021
 20
131.8179065733
 10
243.1275810869
 20
131.8820382185
 10
242.8720057093
 20
131.9500553322
 10
242.6196021278
 20
132.0219112988
 10
242.3705433272
 20
132.0975568718
 10
242.125
 20
132.1769402076
 10
241.8831404293
 20
132.2600069008
 10
241.6451303736
 20
132.3467000215
 10
241.4111329531
 20
132.4369601547
 10
241.1813085379
 20
132.5307254407
 10
240.9558146382
 20
132.6279316172
 10
240.7348057962
 20
132.7285120642
 10
240.5184334805
 20
132.8323978487
 10
240.3068459816
 20
132.9395177726
 10
240.1001883113
 20
133.0497984214
 10
239.8986021022
 20
133.1631642141
 10
239.7022255116
 20
133.2795374555
 10
239.5111931261
 20
133.3988383892
 10
239.3256358698
 20
133.5209852523
 10
239.1456809143
 20
133.6458943314
 10
238.9714515919
 20
133.7734800202
 10
238.8030673105
 20
133.9036548776
 10
238.6406434723
 20
134.0363296884
 10
238.4842913946
 20
134.171413524
 10
238.3341182332
 20
134.3088138045
 10
238.1902269093
 20
134.4484363627
 10
238.0527160389
 20
134.5901855083
 10
237.921679865
 20
134.7339640935
 10
237.7972081932
 20
134.8796735795
 10
237.6793863303
 20
135.0272141046
 10
237.5682950255
 20
135.1764845516
 10
237.4640104152
 20
135.3273826181
 10
237.3666039708
 20
135.4798048862
 10
237.2761424498
 20
135.6336468931
 10
237.1926878502
 20
135.7888032033
 10
237.1162973674
 20
135.9451674805
 10
237.0470233557
 20
136.1026325602
 10
236.9849132921
 20
136.2610905239
 10
236.9300097437
 20
136.4204327723
 10
236.8823503386
 20
136.5805501002
 10
236.8419677402
 20
136.7413327713
 10
236.8088896248
 20
136.902670593
 10
236.7831386624
 20
137.0644529926
 10
236.7647325014
 20
137.2265690924
 10
236.7536837565
 20
137.3889077862
 10
236.75
 20
137.5513578152
 10
236.7536837565
 20
137.7138078441
 10
236.7647325014
 20
137.8761465379
 10
236.7831386624
 20
138.0382626377
 10
236.8088896248
 20
138.2000450373
 10
236.8419677402
 20
138.3613828591
 10
236.8823503386
 20
138.5221655301
 10
236.9300097437
 20
138.6822828581
 10
236.9849132921
 20
138.8416251065
 10
237.0470233557
 20
139.0000830701
 10
237.1162973674
 20
139.1575481499
 10
237.1926878502
 20
139.313912427
 10
237.2761424498
 20
139.4690687372
 10
237.3666039708
 20
139.6229107442
 10
237.4640104152
 20
139.7753330122
 10
237.5682950255
 20
139.9262310787
 10
237.6793863303
 20
140.0755015258
 10
237.7972081932
 20
140.2230420508
 10
237.921679865
 20
140.3687515369
 10
238.0527160389
 20
140.512530122
 10
238.1902269093
 20
140.6542792676
 10
238.3341182332
 20
140.7939018258
 10
238.4842913946
 20
140.9313021064
 10
238.6406434723
 20
141.0663859419
 10
238.8030673105
 20
141.1990607527
 10
238.9714515919
 20
141.3292356102
 10
239.1456809143
 20
141.4568212989
 10
239.3256358698
 20
141.581730378
 10
239.5111931261
 20
141.7038772411
 10
239.7022255116
 20
141.8231781748
 10
239.8986021022
 20
141.9395514162
  0
LWPOLYLINE
  5
F0
330
1F
100
AcDbEntity
  8
0
  6
Continuous
 62
     7
370
    30
100
AcDbPolyline
 90
       88
 70
   128
 43
0.0
 10
239.8986021022
 20
140.7147401984
 10
240.1001883113
 20
140.8281059911
 10
240.3068459816
 20
140.9383866399
 10
240.5184334805
 20
141.0455065638
 10
240.7348057962
 20
141.1493923483
 10
240.9558146382
 20
141.2499727953
 10
241.1813085379
 20
141.3471789718
 10
241.4111329531
 20
141.4409442578
 10
241.6451303736
 20
141.531204391
 10
241.8831404293
 20
141.6178975117
 10
242.125
 20
141.7009642049
 10
242.3705433272
 20
141.7803475407
 10
242.6196021278
 20
141.8559931137
 10
242.8720057093
 20
141.9278490803
 10
243.1275810869
 20
141.995866194
 10
243.3861531021
 20
142.0599978392
 10
243.6475445424
 20
142.1202000633
 10
243.9115762632
 20
142.1764316067
 10
244.1780673105
 20
142.2286539312
 10
244.4468350444
 20
142.2768312461
 10
244.7176952651
 20
142.3209305331
 10
244.9904623385
 20
142.3609215688
 10
245.2649493237
 20
142.3967769453
 10
245.540968101
 20
142.4284720892
 10
245.8183295008
 20
142.4559852781
 10
246.0968434336
 20
142.4792976559
 10
246.3763190199
 20
142.4983932455
 10
246.6565647209
 20
142.5132589597
 10
246.9373884704
 20
142.5238846102
 10
247.2185978057
 20
142.5302629149
 10
247.5
 20
142.5323895023
 10
247.7814021943
 20
142.5302629149
 10
248.0626115296
 20
142.5238846102
 10
248.3434352791
 20
142.5132589597
 10
248.6236809801
 20
142.4983932455
 10
248.9031565664
 20
142.4792976559
 10
249.1816704992
 20
142.4559852781
 10
249.459031899
 20
142.4284720892
 10
249.7350506763
 20
142.3967769453
 10
250.0095376615
 20
142.3609215688
 10
250.2823047349
 20
142.3209305331
 10
250.5531649556
 20
142.2768312461
 10
250.8219326895
 20
142.2286539312
 10
251.0884237368
 20
142.1764316067
 10
251.3524554576
 20
142.1202000633
 10
251.6138468979
 20
142.0599978392
 10
251.8724189131
 20
141.995866194
 10
252.1279942907
 20
141.9278490803
 10
252.3803978722
 20
141.8559931137
 10
252.6294566728
 20
141.7803475407
 10
252.875
 20
141.7009642049
 10
253.1168595707
 20
141.6178975117
 10
253.3548696264
 20
141.531204391
 10
253.5888670469
 20
141.4409442578
 10
253.8186914621
 20
141.3471789718
 10
254.0441853618
 20
141.2499727953
 10
254.2651942038
 20
141.1493923483
 10
254.4815665195
 20
141.0455065638
 10
254.6931540184
 20
140.9383866399
 10
254.8998116887
 20
140.8281059911
 10
255.1013978978
 20
140.7147401984
 10
255.2977744884
 20
140.598366957
 10
255.4888068739
 20
140.4790660233
 10
255.6743641302
 20
140.3569191602
 10
255.8543190857
 20
140.2320100811
 10
256.0285484081
 20
140.1044243923
 10
256.1969326895
 20
139.9742495349
 10
256.3593565277
 20
139.8415747241
 10
256.5157086054
 20
139.7064908885
 10
256.6658817668
 20
139.569090608
 10
256.8097730907
 20
139.4294680498
 10
256.9472839611
 20
139.2877189042
 10
257.078320135
 20
139.143940319
 10
257.2027918068
 20
138.998230833
 10
257.3206136697
 20
138.8506903079
 10
257.4317049745
 20
138.7014198609
 10
257.5359895848
 20
138.5505217944
 10
257.6333960292
 20
138.3980995263
 10
257.7238575502
 20
138.2442575194
 10
257.8073121498
 20
138.0891012092
 10
257.8837026326
 20
137.932736932
 10
257.9529766443
 20
137.7752718523
 10
258.0150867079
 20
137.6168138886
 10
258.0699902563
 20
137.4574716402
 10
258.1176496614
 20
137.2973543123
 10
258.1580322598
 20
137.1365716412
 10
258.1911103752
 20
136.9752338195
 10
258.1975293527
 20
136.9389522063
  0
ARC
  5
F1
330
1F
100
AcDbEntity
  8
0
  6
Continuous
 62
     7
370
    30
100
AcDbCircle
 10
242.4268459695
 20
135.4842882031
 30
0.0
 40
5.809444476683034
100
AcDbArc
 50
115.7977320169
 51
165.4990294663
  0
LWPOLYLINE
  5
F2
330
1F
100
AcDbEntity
  8
0
  6
Continuous
 62
     7
370
    30
100
AcDbPolyline
 90
       97
 70
   128
 43
0.0
 10
240.7824855787
 20
139.1838091136
 10
240.9606315309
 20
139.2839928374
 10
241.1432592396
 20
139.3814501549
 10
241.3302435409
 20
139.4761142738
 10
241.521456285
 20
139.5679203159
 10
241.7167664244
 20
139.6568053621
 10
241.9160401032
 20
139.7427084948
 10
242.1191407492
 20
139.8255708405
 10
242.3259291674
 20
139.9053356094
 10
242.5362636352
 20
139.9819481347
 10
242.75
 20
140.0553559101
 10
242.9669917775
 20
140.1255086254
 10
243.1870902525
 20
140.1923582016
 10
243.4101445803
 20
140.2558588232
 10
243.6360018908
 20
140.3159669702
 10
243.8645073925
 20
140.3726414474
 10
244.0955044793
 20
140.4258434129
 10
244.3288348373
 20
140.4755364047
 10
244.5643385534
 20
140.5216863659
 10
244.8018542253
 20
140.5642616674
 10
245.0412190715
 20
140.6032331304
 10
245.2822690434
 20
140.6385740456
 10
245.5248389372
 20
140.6702601923
 10
245.7687625078
 20
140.6982698543
 10
246.0138725821
 20
140.7225838352
 10
246.2600011739
 20
140.7431854715
 10
246.506979599
 20
140.7600606436
 10
246.7546385906
 20
140.7731977864
 10
247.0028084157
 20
140.7825878962
 10
247.2513189911
 20
140.7882245375
 10
247.5
 20
140.7901038473
 10
247.7486810089
 20
140.7882245375
 10
247.9971915843
 20
140.7825878962
 10
248.2453614094
 20
140.7731977864
 10
248.493020401
 20
140.7600606436
 10
248.7399988261
 20
140.7431854715
 10
248.9861274179
 20
140.7225838352
 10
249.2312374922
 20
140.6982698543
 10
249.4751610628
 20
140.6702601923
 10
249.7177309566
 20
140.6385740456
 10
249.9587809285
 20
140.6032331304
 10
250.1981457747
 20
140.5642616674
 10
250.4356614466
 20
140.5216863659
 10
250.6711651627
 20
140.4755364047
 10
250.9044955207
 20
140.4258434129
 10
251.1354926075
 20
140.3726414474
 10
251.3639981092
 20
140.3159669702
 10
251.5898554197
 20
140.2558588232
 10
251.8129097475
 20
140.1923582016
 10
252.0330082225
 20
140.1255086254
 10
252.25
 20
140.0553559101
 10
252.4637363648
 20
139.9819481347
 10
252.6740708326
 20
139.9053356094
 10
252.8808592508
 20
139.8255708405
 10
253.0839598968
 20
139.7427084948
 10
253.2832335756
 20
139.6568053621
 10
253.478543715
 20
139.5679203159
 10
253.6697564591
 20
139.4761142738
 10
253.8567407604
 20
139.3814501549
 10
254.0393684691
 20
139.2839928374
 10
254.2175144213
 20
139.1838091136
 10
254.3910565246
 20
139.0809676445
 10
254.559875842
 20
138.9755389124
 10
254.7238566732
 20
138.8675951729
 10
254.8828866338
 20
138.7572104053
 10
255.0368567328
 20
138.6444602618
 10
255.1856614466
 20
138.5294220157
 10
255.3291987919
 20
138.4121745084
 10
255.4673703955
 20
138.2927980956
 10
255.6000815614
 20
138.1713745919
 10
255.727241336
 20
138.0479872149
 10
255.8487625703
 20
137.9227205281
 10
255.9645619798
 20
137.7956603831
 10
256.0745602013
 20
137.6668938605
 10
256.1786818476
 20
137.5365092105
 10
256.2768555589
 20
137.4045957921
 10
256.3690140517
 20
137.2712440124
 10
256.4550941654
 20
137.1365452639
 10
256.5350369048
 20
137.0005918624
 10
256.6087874812
 20
136.8634769836
 10
256.6762953497
 20
136.7252945992
 10
256.7375142438
 20
136.5861394125
 10
256.792402207
 20
136.4461067934
 10
256.8409216219
 20
136.3052927134
 10
256.8830392357
 20
136.1637936794
 10
256.9187261831
 20
136.0217066678
 10
256.947958006
 20
135.8791290579
 10
256.9707146705
 20
135.7361585652
 10
256.9869805802
 20
135.5928931747
 10
256.9967445873
 20
135.4494310732
 10
257.0
 20
135.3058705825
 10
256.9967445873
 20
135.1623100918
 10
256.9869805802
 20
135.0188479903
 10
256.9707146705
 20
134.8755825998
 10
256.947958006
 20
134.7326121071
 10
256.9187261831
 20
134.5900344972
 10
256.9093971905
 20
134.5502531165
  0
ARC
  5
F3
330
1F
100
AcDbEntity
  8
0
  6
Continuous
 62
     7
370
    30
100
AcDbCircle
 10
242.4438892571
 20
135.1199020503
 30
0.0
 40
4.390398934267485
100
AcDbArc
 50
112.2356918061
 51
187.4550758936
  0
LWPOLYLINE
  5
F4
330
1F
100
AcDbEntity
  8
0
  6
Continuous
 62
     7
370
    30
100
AcDbPolyline
 90
       95
 70
   128
 43
0.0
 10
255.9099293665
 20
133.6858749856
 10
255.9022238385
 20
133.6975048551
 10
255.8149157926
 20
133.8238381201
 10
255.7219091188
 20
133.9488087269
 10
255.6232675591
 20
134.0723310269
 10
255.5190587177
 20
134.1943203641
 10
255.409354014
 20
134.3146931331
 10
255.2942286341
 20
134.4333668364
 10
255.1737614792
 20
134.5502601409
 10
255.0480351115
 20
134.6652929339
 10
254.9171356976
 20
134.7783863776
 10
254.7811529494
 20
134.8894629634
 10
254.6401800626
 20
134.998446565
 10
254.4943136531
 20
135.1052624904
 10
254.3436536904
 20
135.2098375334
 10
254.1883034293
 20
135.3121000234
 10
254.0283693391
 20
135.4119798749
 10
253.8639610307
 20
135.5094086352
 10
253.6951911812
 20
135.6043195314
 10
253.5221754572
 20
135.6966475164
 10
253.345032435
 20
135.7863293132
 10
253.1638835194
 20
135.8733034584
 10
252.9788528611
 20
135.9575103442
 10
252.7900672706
 20
136.0388922595
 10
252.5976561323
 20
136.1173934291
 10
252.4017513151
 20
136.1929600522
 10
252.2024870824
 20
136.2655403394
 10
252.0
 20
136.3350845476
 10
251.7944288423
 20
136.4015450148
 10
251.5859144977
 20
136.4648761922
 10
251.3745998713
 20
136.5250346758
 10
251.1606297877
 20
136.5819792361
 10
250.9441508913
 20
136.6356708461
 10
250.7253115459
 20
136.6860727081
 10
250.5042617331
 20
136.7331502794
 10
250.2811529494
 20
136.7768712952
 10
250.0561381023
 20
136.8172057914
 10
249.8293714059
 20
136.8541261247
 10
249.6010082747
 20
136.8876069918
 10
249.3712052174
 20
136.9176254466
 10
249.1401197294
 20
136.9441609158
 10
248.9079101854
 20
136.9671952135
 10
248.67473573
 20
136.9867125531
 10
248.4407561694
 20
137.0026995583
 10
248.2061318616
 20
137.0151452725
 10
247.9710236062
 20
137.024041166
 10
247.7355925348
 20
137.029381142
 10
247.5
 20
137.0311615407
 10
247.2644074652
 20
137.029381142
 10
247.0289763938
 20
137.024041166
 10
246.7938681384
 20
137.0151452725
 10
246.5592438306
 20
137.0026995583
 10
246.32526427
 20
136.9867125531
 10
246.0920898146
 20
136.9671952135
 10
245.8598802706
 20
136.9441609158
 10
245.6287947826
 20
136.9176254466
 10
245.3989917253
 20
136.8876069918
 10
245.1706285941
 20
136.8541261247
 10
244.9438618977
 20
136.8172057914
 10
244.7188470506
 20
136.7768712952
 10
244.4957382669
 20
136.7331502794
 10
244.2746884541
 20
136.6860727081
 10
244.0558491087
 20
136.6356708461
 10
243.8393702123
 20
136.5819792361
 10
243.6254001287
 20
136.5250346758
 10
243.4140855023
 20
136.4648761922
 10
243.2055711577
 20
136.4015450148
 10
243.0
 20
136.3350845476
 10
242.7975129176
 20
136.2655403394
 10
242.5982486849
 20
136.1929600522
 10
242.4023438677
 20
136.1173934291
 10
242.2099327294
 20
136.0388922595
 10
242.0211471389
 20
135.9575103442
 10
241.8361164806
 20
135.8733034584
 10
241.654967565
 20
135.7863293132
 10
241.4778245428
 20
135.6966475164
 10
241.3048088188
 20
135.6043195314
 10
241.1360389693
 20
135.5094086352
 10
240.9716306609
 20
135.4119798749
 10
240.8116965707
 20
135.3121000234
 10
240.6563463096
 20
135.2098375334
 10
240.5056863469
 20
135.1052624904
 10
240.3598199374
 20
134.998446565
 10
240.2188470506
 20
134.8894629634
 10
240.0828643024
 20
134.7783863776
 10
239.9519648885
 20
134.6652929339
 10
239.8262385208
 20
134.5502601409
 10
239.7057713659
 20
134.4333668364
 10
239.590645986
 20
134.3146931331
 10
239.4809412823
 20
134.1943203641
 10
239.3767324409
 20
134.0723310269
 10
239.2780908812
 20
133.9488087269
 10
239.1850842074
 20
133.8238381201
 10
239.0977761615
 20
133.6975048551
 10
239.0900706335
 20
133.6858749856
  0
LWPOLYLINE
  5
F5
330
1F
100
AcDbEntity
  8
0
  6
Continuous
 62
     7
370
    30
100
AcDbPolyline
 90
      125
 70
   128
 43
0.0
 10
251.2459079438
 20
131.7344665278
 10
251.2487149687
 20
131.7789035172
 10
251.25
 20
131.835572132
 10
251.2487149687
 20
131.8922407467
 10
251.2448607553
 20
131.9488705236
 10
251.2384400015
 20
132.0054226515
 10
251.2294571076
 20
132.0618583722
 10
251.2179182302
 20
132.1181390077
 10
251.2038312772
 20
132.174225986
 10
251.1872059034
 20
132.2300808679
 10
251.1680535028
 20
132.2856653731
 10
251.1463872015
 20
132.340941407
 10
251.1222218486
 20
132.3958710859
 10
251.0955740058
 20
132.450416764
 10
251.0664619361
 20
132.5045410583
 10
251.0349055916
 20
132.5582068746
 10
251.0009265994
 20
132.6113774333
 10
250.9645482469
 20
132.6640162937
 10
250.9257954662
 20
132.7160873799
 10
250.8846948163
 20
132.7675550049
 10
250.8412744657
 20
132.8183838954
 10
250.7955641725
 20
132.8685392158
 10
250.7475952642
 20
132.9179865921
 10
250.6974006163
 20
132.9666921357
 10
250.6450146298
 20
133.0146224661
 10
250.5904732073
 20
133.0617447343
 10
250.5338137289
 20
133.1080266451
 10
250.4750750261
 20
133.1534364791
 10
250.4142973555
 20
133.1979431147
 10
250.351522371
 20
133.2415160492
 10
250.2867930955
 20
133.2841254201
 10
250.2201538913
 20
133.3257420249
 10
250.1516504294
 20
133.3663373416
 10
250.0813296589
 20
133.4058835484
 10
250.0092397738
 20
133.4443535421
 10
249.9354301812
 20
133.4817209575
 10
249.8599514664
 20
133.5179601846
 10
249.7828553588
 20
133.5530463871
 10
249.7041946961
 20
133.5869555184
 10
249.6240233885
 20
133.6196643391
 10
249.5423963813
 20
133.6511504321
 10
249.4593696177
 20
133.6813922184
 10
249.375
 20
133.7103689718
 10
249.289345351
 20
133.7380608331
 10
249.202464374
 20
133.7644488237
 10
249.114416613
 20
133.7895148586
 10
249.0252624115
 20
133.8132417587
 10
248.9350628714
 20
133.8356132628
 10
248.8438798108
 20
133.8566140387
 10
248.7517757221
 20
133.8762296934
 10
248.6588137289
 20
133.8944467833
 10
248.5650575426
 20
133.9112528234
 10
248.4705714191
 20
133.9266362956
 10
248.3754201145
 20
133.9405866569
 10
248.2796688406
 20
133.9530943464
 10
248.1833832206
 20
133.9641507919
 10
248.0866292439
 20
133.9737484159
 10
247.9894732208
 20
133.9818806408
 10
247.8919817373
 20
133.988541893
 10
247.794221609
 20
133.9937276072
 10
247.6962598359
 20
133.9974342295
 10
247.5981635562
 20
133.9996592195
 10
247.5
 20
134.0004010523
 10
247.4018364438
 20
133.9996592195
 10
247.3037401641
 20
133.9974342295
 10
247.205778391
 20
133.9937276072
 10
247.1080182627
 20
133.988541893
 10
247.0105267792
 20
133.9818806408
 10
246.9133707561
 20
133.9737484159
 10
246.8166167794
 20
133.9641507919
 10
246.7203311594
 20
133.9530943464
 10
246.6245798855
 20
133.9405866569
 10
246.5294285809
 20
133.9266362956
 10
246.4349424574
 20
133.9112528234
 10
246.3411862711
 20
133.8944467833
 10
246.2482242779
 20
133.8762296934
 10
246.1561201892
 20
133.8566140387
 10
246.0649371286
 20
133.8356132628
 10
245.9747375885
 20
133.8132417587
 10
245.885583387
 20
133.7895148586
 10
245.797535626
 20
133.7644488237
 10
245.710654649
 20
133.7380608331
 10
245.625
 20
133.7103689718
 10
245.5406303823
 20
133.6813922184
 10
245.4576036187
 20
133.6511504321
 10
245.3759766115
 20
133.6196643391
 10
245.2958053039
 20
133.5869555184
 10
245.2171446412
 20
133.5530463871
 10
245.1400485336
 20
133.5179601846
 10
245.0645698188
 20
133.4817209575
 10
244.9907602262
 20
133.4443535421
 10
244.9186703411
 20
133.4058835484
 10
244.8483495706
 20
133.3663373416
 10
244.7798461087
 20
133.3257420249
 10
244.7132069045
 20
133.2841254201
 10
244.648477629
 20
133.2415160492
 10
244.5857026445
 20
133.1979431147
 10
244.5249249739
 20
133.1534364791
 10
244.4661862711
 20
133.1080266451
 10
244.4095267927
 20
133.0617447343
 10
244.3549853702
 20
133.0146224661
 10
244.3025993837
 20
132.9666921357
 10
244.2524047358
 20
132.9179865921
 10
244.2044358275
 20
132.8685392158
 10
244.1587255343
 20
132.8183838954
 10
244.1153051837
 20
132.7675550049
 10
244.0742045338
 20
132.7160873799
 10
244.0354517531
 20
132.6640162937
 10
243.9990734006
 20
132.6113774333
 10
243.9650944084
 20
132.5582068746
 10
243.9335380639
 20
132.5045410583
 10
243.9044259942
 20
132.450416764
 10
243.8777781514
 20
132.3958710859
 10
243.8536127985
 20
132.340941407
 10
243.8319464972
 20
132.2856653731
 10
243.8127940966
 20
132.2300808679
 10
243.7961687228
 20
132.174225986
 10
243.7820817698
 20
132.1181390077
 10
243.7705428924
 20
132.0618583722
 10
243.7615599985
 20
132.0054226515
 10
243.7551392447
 20
131.9488705236
 10
243.7512850313
 20
131.8922407467
 10
243.75
 20
131.835572132
 10
243.7512850313
 20
131.7789035172
 10
243.7540920562
 20
131.7344665278
  0
SPLINE
  5
F6
330
1F
100
AcDbEntity
  8
0
  6
Continuous
 62
     7
370
    30
100
AcDbSpline
210
0.0
220
0.0
230
1.0
 70
     8
 71
     3
 72
    42
 73
    38
 74
     0
 42
0.000000001
 43
0.00000001
 40
0.0
 40
0.0
 40
0.0
 40
0.0
 40
0.0270073052661235
 40
0.0540185534043513
 40
0.0810258895292603
 40
0.1081748632175077
 40
0.1353277927726138
 40
0.1624768562119406
 40
0.1897576090381184
 40
0.2170422505164013
 40
0.2443231403240428
 40
0.2717399483891625
 40
0.2991605191551846
 40
0.3265774923154496
 40
0.3472233315530956
 40
0.3678691862541426
 40
0.388538823270111
 40
0.409208475242255
 40
0.442824883932206
 40
0.4764655891836462
 40
0.5102280982775896
 40
0.5439906759149087
 40
0.5778465840689112
 40
0.6117025225241037
 40
0.6457281063227637
 40
0.6797536659195345
 40
0.7138739622855057
 40
0.7479941592881715
 40
0.7822400685606511
 40
0.816512159681584
 40
0.8465831585080781
 40
0.8766539636812121
 40
0.9068084697533274
 40
0.9369626917994808
 40
0.9672008810392071
 40
0.9974386741928585
 40
1.0
 40
1.0
 40
1.0
 40
1.0
 10
252.8033008588991
 20
89.59243785704639
 30
0.0
 10
252.8408602259821
 20
89.6142479534055
 30
0.0
 10
252.9159844435453
 20
89.65787133024071
 30
0.0
 10
253.025529903761
 20
89.72317808435382
 30
0.0
 10
253.1328872182283
 20
89.78846775829727
 30
0.0
 10
253.2377545041262
 20
89.85370225443742
 30
0.0
 10
253.3401233869493
 20
89.91886862941156
 30
0.0
 10
253.4399026735847
 20
89.98394444717606
 30
0.0
 10
253.5370250007191
 20
90.04891561764711
 30
0.0
 10
253.6314316727022
 20
90.113785286067
 30
0.0
 10
253.7230748641178
 20
90.17856103972183
 30
0.0
 10
253.8118919167783
 20
90.24324724949386
 30
0.0
 10
253.897834055151
 20
90.30786611090407
 30
0.0
 10
253.9738977215058
 20
90.36702751351172
 30
0.0
 10
254.0408714512224
 20
90.42078717766728
 30
0.0
 10
254.099506197534
 20
90.46921458874809
 30
0.0
 10
254.1563876798785
 20
90.51762362433527
 30
0.0
 10
254.2230115183429
 20
90.57614171596181
 30
0.0
 10
254.2978216947471
 20
90.64479558868202
 30
0.0
 10
254.3789732530898
 20
90.7237854812675
 30
0.0
 10
254.4553943941293
 20
90.80311979414002
 30
0.0
 10
254.5270840089194
 20
90.88299009512613
 30
0.0
 10
254.5939038336409
 20
90.963443256157
 30
0.0
 10
254.655918333003
 20
91.04478425830442
 30
0.0
 10
254.7130076217336
 20
91.12711356552627
 30
0.0
 10
254.7651669035146
 20
91.21071387311159
 30
0.0
 10
254.8122533422721
 20
91.2956535707125
 30
0.0
 10
254.8542745908229
 20
91.38227565493554
 30
0.0
 10
254.8911392248011
 20
91.47076743005861
 30
0.0
 10
254.9214935613489
 20
91.55769701049216
 30
0.0
 10
254.9459794473508
 20
91.64291613477404
 30
0.0
 10
254.9652836952276
 20
91.72637741735818
 30
0.0
 10
254.9804249665716
 20
91.8120994847172
 30
0.0
 10
254.9914778912263
 20
91.90031820472808
 30
0.0
 10
254.9980071300957
 20
91.99145533087828
 30
0.0
 10
255.0003582066893
 20
92.05626738298703
 30
0.0
 10
254.9999274258138
 20
92.09119031937611
 30
0.0
 10
254.9998937855756
 20
92.09391749684518
 30
0.0
  0
SPLINE
  5
F7
330
1F
100
AcDbEntity
  8
0
  6
Continuous
 62
     7
370
    30
100
AcDbSpline
210
0.0
220
0.0
230
1.0
 70
     8
 71
     3
 72
   134
 73
   130
 74
     0
 42
0.000000001
 43
0.00000001
 40
0.0
 40
0.0
 40
0.0
 40
0.0
 40
0.001933289071763
 40
0.0131502082582765
 40
0.018847898844895
 40
0.0245455879808379
 40
0.0302478681351798
 40
0.0359501464306405
 40
0.0435836079517772
 40
0.0512177763855145
 40
0.0588512091311442
 40
0.0665113103605644
 40
0.0741721650411968
 40
0.0818322243263888
 40
0.0895387853091561
 40
0.097246170642796
 40
0.1049526730420562
 40
0.1126912096717116
 40
0.1204306598612511
 40
0.1281691189553081
 40
0.1340033306128791
 40
0.139837533813275
 40
0.1456789914760941
 40
0.1515204398003574
 40
0.1592827139073737
 40
0.1670461420488062
 40
0.1748083024893136
 40
0.1826164779937585
 40
0.1904259794507684
 40
0.1982340294218471
 40
0.2060947540712425
 40
0.2139569975000143
 40
0.2218175982056101
 40
0.2297377883398785
 40
0.2376596935825018
 40
0.2455797822242113
 40
0.2533593843714077
 40
0.2611407304100123
 40
0.2689202829007821
 40
0.2767648155315695
 40
0.2846111938253338
 40
0.2924557358309058
 40
0.3003668017996527
 40
0.3082797386690494
 40
0.3161908794036393
 40
0.3241656987171838
 40
0.3321423630545438
 40
0.3401176946922826
 40
0.3460004398023651
 40
0.3518832231054222
 40
0.3577723370777007
 40
0.3636614804946157
 40
0.3715346313523055
 40
0.3794084424933021
 40
0.3872818037016555
 40
0.399116876766591
 40
0.4109520843371411
 40
0.4227989890394664
 40
0.4346458928434405
 40
0.4465097732144526
 40
0.4583735221918712
 40
0.4662945855307185
 40
0.4742161031844673
 40
0.4821369704709299
 40
0.4900816610565166
 40
0.4980270816887126
 40
0.5059714405530417
 40
0.5128475937750174
 40
0.5197245069754637
 40
0.5266003914851434
 40
0.5335137403232576
 40
0.5404282256674533
 40
0.5473412270843162
 40
0.5543081891556744
 40
0.5612767830315497
 40
0.56824335758855
 40
0.5752819718120971
 40
0.5823228200911392
 40
0.5893614763745294
 40
0.5962512950875952
 40
0.603143092467988
 40
0.6100331185831466
 40
0.6169875232352532
 40
0.623943680774211
 40
0.6308983210845162
 40
0.6379081866070191
 40
0.6449195363658972
 40
0.6519296254620441
 40
0.658985646268732
 40
0.6660428917398782
 40
0.6730991010446518
 40
0.6808681313484028
 40
0.6886384775553376
 40
0.6964077151393872
 40
0.7042174204104809
 40
0.7120282012671602
 40
0.7198380519400324
 40
0.7276814938980439
 40
0.7355258443080875
 40
0.7433693803524861
 40
0.7512425571368296
 40
0.7591165369242893
 40
0.7669897676905608
 40
0.7729127056165155
 40
0.7788356462741272
 40
0.7847635473106584
 40
0.7906914498718244
 40
0.8009189593496668
 40
0.8111527124152136
 40
0.8214143432169612
 40
0.8316759631353835
 40
0.8419633745653405
 40
0.8522507660078118
 40
0.862576937328808
 40
0.8729030822939721
 40
0.8832576729780907
 40
0.8936122338494927
 40
0.9039989919283838
 40
0.9143935167836905
 40
0.9250390651526887
 40
0.9356845829326751
 40
0.9463658956712411
 40
0.9570471835714165
 40
0.9641928828057044
 40
0.9713392832918768
 40
0.9784849712541094
 40
0.9856564079807488
 40
0.9928285672332613
 40
0.9999999999999999
 40
0.9999999999999999
 40
0.9999999999999999
 40
0.9999999999999999
 10
240.0004074775027
 20
94.75870291871308
 30
0.0
 10
240.0002779891988
 20
94.75313888049716
 30
0.0
 10
239.9993972113633
 20
94.71529236164758
 30
0.0
 10
240.0025068627519
 20
94.66060851055242
 30
0.0
 10
240.0078029255916
 20
94.59479344838908
 30
0.0
 10
240.0134682309221
 20
94.54482339310788
 30
0.0
 10
240.020566488822
 20
94.49464453101237
 30
0.0
 10
240.0301308672079
 20
94.43854617064504
 30
0.0
 10
240.0427861710853
 20
94.37642858841863
 30
0.0
 10
240.0592627576164
 20
94.30814570603478
 30
0.0
 10
240.0784146508625
 20
94.2393005291209
 30
0.0
 10
240.1002543182695
 20
94.16985399452147
 30
0.0
 10
240.1247873036164
 20
94.09976094462291
 30
0.0
 10
240.1520396713252
 20
94.02891632506666
 30
0.0
 10
240.182028740058
 20
93.95727308588597
 30
0.0
 10
240.2147637507174
 20
93.88477838595983
 30
0.0
 10
240.250225001011
 20
93.81142750025067
 30
0.0
 10
240.2884193553834
 20
93.7371692021834
 30
0.0
 10
240.329342627195
 20
93.66194807454714
 30
0.0
 10
240.3693521458634
 20
93.59206013263112
 30
0.0
 10
240.4077235175635
 20
93.52771637907547
 30
0.0
 10
240.4438370636363
 20
93.46909305563604
 30
0.0
 10
240.4814504847013
 20
93.40985441020011
 30
0.0
 10
240.52483801736
 20
93.3434152102609
 30
0.0
 10
240.5745902413927
 20
93.26950658962156
 30
0.0
 10
240.6313542765892
 20
93.18778545447546
 30
0.0
 10
240.6907317378204
 20
93.1046852953306
 30
0.0
 10
240.7526986508068
 20
93.02015144868354
 30
0.0
 10
240.8172071434465
 20
92.9341360422997
 30
0.0
 10
240.8842212881154
 20
92.84657207046831
 30
0.0
 10
240.9536962933324
 20
92.75741134980196
 30
0.0
 10
241.0255589763511
 20
92.66661945262409
 30
0.0
 10
241.0997504346593
 20
92.57414145264136
 30
0.0
 10
241.1761993437692
 20
92.4799420895602
 30
0.0
 10
241.2548037997921
 20
92.3840071482384
 30
0.0
 10
241.3347778514811
 20
92.28714930976334
 30
0.0
 10
241.4159668736813
 20
92.18939939749818
 30
0.0
 10
241.4982011616286
 20
92.09081058179228
 30
0.0
 10
241.5820671619779
 20
91.99054251513815
 30
0.0
 10
241.6674450964857
 20
91.8886026027458
 30
0.0
 10
241.7541965935765
 20
91.78502480930366
 30
0.0
 10
241.8421865881974
 20
91.67983930706072
 30
0.0
 10
241.9312778179504
 20
91.57307636779879
 30
0.0
 10
242.0213219058128
 20
91.46478653438417
 30
0.0
 10
242.11217141917
 20
91.35505129150788
 30
0.0
 10
242.2036489318283
 20
91.24386773058825
 30
0.0
 10
242.2956745304585
 20
91.13139329610831
 30
0.0
 10
242.3799034257443
 20
91.02803412544017
 30
0.0
 10
242.4562436053253
 20
90.9341618923401
 30
0.0
 10
242.5246826069566
 20
90.8499774626658
 30
0.0
 10
242.5933241085457
 20
90.765599702116
 30
0.0
 10
242.66992054533
 20
90.67160778350205
 30
0.0
 10
242.7545658995147
 20
90.56807815372439
 30
0.0
 10
242.8474238114279
 20
90.45514034907573
 30
0.0
 10
242.9564618752748
 20
90.32351422136792
 30
0.0
 10
243.0821503883347
 20
90.17355374873215
 30
0.0
 10
243.2252911091727
 20
90.00588593722108
 30
0.0
 10
243.3704019626996
 20
89.83973463435022
 30
0.0
 10
243.5178949912027
 20
89.67543199798686
 30
0.0
 10
243.6680677833794
 20
89.51344710568672
 30
0.0
 10
243.8043355876393
 20
89.37188274541064
 30
0.0
 10
243.9258152570248
 20
89.25012800525538
 30
0.0
 10
244.0316342199904
 20
89.14736077933169
 30
0.0
 10
244.1393058606497
 20
89.04633026442171
 30
0.0
 10
244.2489511619079
 20
88.94722616919147
 30
0.0
 10
244.3606988440453
 20
88.85027280669675
 30
0.0
 10
244.4694507595161
 20
88.76002954472199
 30
0.0
 10
244.5749764764628
 20
88.67632946603143
 30
0.0
 10
244.6770302311455
 20
88.59896030093952
 30
0.0
 10
244.7810518807908
 20
88.52384617297812
 30
0.0
 10
244.8871050307381
 20
88.45119687620564
 30
0.0
 10
244.9952344247522
 20
88.3812333694014
 30
0.0
 10
245.1055565732661
 20
88.31412421815004
 30
0.0
 10
245.2181050907753
 20
88.25012786038916
 30
0.0
 10
245.3328757171212
 20
88.1894941070558
 30
0.0
 10
245.4499380643262
 20
88.13240223935989
 30
0.0
 10
245.5692928510502
 20
88.07919381286905
 30
0.0
 10
245.6908239438801
 20
88.03001886503847
 30
0.0
 10
245.8131001612345
 20
87.98542518449412
 30
0.0
 10
245.9359292710626
 20
87.94535362042957
 30
0.0
 10
246.0591041881804
 20
87.90962115449169
 30
0.0
 10
246.1837392515494
 20
87.87780349100134
 30
0.0
 10
246.3096996311906
 20
87.8498987415551
 30
0.0
 10
246.4368473808297
 20
87.82584818576774
 30
0.0
 10
246.5649960408527
 20
87.8055912926247
 30
0.0
 10
246.694024605352
 20
87.78907045221668
 30
0.0
 10
246.8238180401889
 20
87.77619053889512
 30
0.0
 10
246.9542120689
 20
87.7668531126387
 30
0.0
 10
247.0851080373265
 20
87.76096392756966
 30
0.0
 10
247.216416772131
 20
87.75841047778977
 30
0.0
 10
247.3521940329505
 20
87.75909578890071
 30
0.0
 10
247.4923644562859
 20
87.7632634389513
 30
0.0
 10
247.6368341841051
 20
87.77112593435658
 30
0.0
 10
247.7813545812045
 20
87.78240067993792
 30
0.0
 10
247.9258539202072
 20
87.79693940256617
 30
0.0
 10
248.0702695060829
 20
87.81459870106767
 30
0.0
 10
248.2145026759448
 20
87.83522499613692
 30
0.0
 10
248.35850124117
 20
87.85867706761987
 30
0.0
 10
248.5022181093066
 20
87.88482382770364
 30
0.0
 10
248.6455865494871
 20
87.91352617424606
 30
0.0
 10
248.7885659392026
 20
87.94465548344651
 30
0.0
 10
248.9311174472704
 20
87.97809445790683
 30
0.0
 10
249.0613106656879
 20
88.01074023821955
 30
0.0
 10
249.179287471589
 20
88.04192561103052
 30
0.0
 10
249.2852302329209
 20
88.07113135883505
 30
0.0
 10
249.3907932270081
 20
88.10139449325537
 30
0.0
 10
249.5213885149922
 20
88.140231664529
 30
0.0
 10
249.6765684515335
 20
88.18858165975811
 30
0.0
 10
249.8558564993327
 20
88.2475093223503
 30
0.0
 10
250.0338922614591
 20
88.30893565904915
 30
0.0
 10
250.2107046807229
 20
88.37270975376263
 30
0.0
 10
250.3860466309758
 20
88.43858577151408
 30
0.0
 10
250.5600457642237
 20
88.50647197359179
 30
0.0
 10
250.7324562448362
 20
88.57613901993133
 30
0.0
 10
250.9033306950421
 20
88.64748987091248
 30
0.0
 10
251.0723437337854
 20
88.72027206561084
 30
0.0
 10
251.2395554357315
 20
88.79440880347231
 30
0.0
 10
251.4047307336572
 20
88.86969913691075
 30
0.0
 10
251.5690548090594
 20
88.94661406265394
 30
0.0
 10
251.7321613201009
 20
89.02495378221617
 30
0.0
 10
251.8939867280449
 20
89.10466735293483
 30
0.0
 10
252.0530871742134
 20
89.18499340130293
 30
0.0
 10
252.1920795813556
 20
89.25689196989032
 30
0.0
 10
252.311756930922
 20
89.32004982430739
 30
0.0
 10
252.4130199834339
 20
89.37435591542025
 30
0.0
 10
252.512900531468
 20
89.42878488618145
 30
0.0
 10
252.61130847113
 20
89.4833034534056
 30
0.0
 10
252.7083518522563
 20
89.53789065270884
 30
0.0
 10
252.7716522587147
 20
89.57425606955566
 30
0.0
 10
252.8033008588991
 20
89.59243785704662
 30
0.0
  0
LWPOLYLINE
  5
F8
330
1F
100
AcDbEntity
  8
0
  6
Continuous
 62
     8
370
     0
100
AcDbPolyline
 90
       93
 70
   128
 43
0.0
 10
255.7218100816
 20
32.1282377899
 10
255.5037707751
 20
32.0056192887
 10
255.280246084
 20
31.8863377352
 10
255.0513892008
 20
31.7704748791
 10
254.8173569726
 20
31.658110127
 10
254.5783097935
 20
31.5493204881
 10
254.3344114944
 20
31.4441805213
 10
254.0858292311
 20
31.3427622844
 10
253.8327333694
 20
31.2451352843
 10
253.5752973685
 20
31.1513664297
 10
253.3136976623
 20
31.061519985
 10
253.0481135382
 20
30.9756575267
 10
252.7787270141
 20
30.8938379004
 10
252.5057227142
 20
30.8161171814
 10
252.2292877421
 20
30.7425486354
 10
251.9496115523
 20
30.6731826827
 10
251.666885821
 20
30.6080668632
 10
251.3813043144
 20
30.5472458041
 10
251.0930627556
 20
30.4907611891
 10
250.8023586911
 20
30.43865173
 10
250.5093913549
 20
30.3909531398
 10
250.2143615322
 20
30.347698109
 10
249.9174714217
 20
30.3089162823
 10
249.6189244971
 20
30.2746342388
 10
249.3189253674
 20
30.2448754737
 10
249.0176796371
 20
30.2196603823
 10
248.7153937651
 20
30.1990062457
 10
248.4122749228
 20
30.1829272191
 10
248.1085308529
 20
30.1714343224
 10
247.8043697263
 20
30.1645354322
 10
247.5
 20
30.1622352766
 10
247.1956302736
 20
30.1645354322
 10
246.891469147
 20
30.1714343224
 10
246.5877250771
 20
30.1829272191
 10
246.2846062349
 20
30.1990062457
 10
245.9823203628
 20
30.2196603823
 10
245.6810746325
 20
30.2448754738
 10
245.3810755029
 20
30.2746342388
 10
245.0825285782
 20
30.3089162823
 10
244.7856384677
 20
30.347698109
 10
244.490608645
 20
30.3909531399
 10
244.1976413088
 20
30.43865173
 10
243.9069372443
 20
30.4907611891
 10
243.6186956856
 20
30.5472458041
 10
243.3331141789
 20
30.6080668632
 10
243.0503884476
 20
30.6731826827
 10
242.7707122579
 20
30.7425486354
 10
242.4942772857
 20
30.8161171814
 10
242.2212729858
 20
30.8938379005
 10
241.9518864618
 20
30.9756575267
 10
241.6863023376
 20
31.0615199851
 10
241.4247026314
 20
31.1513664297
 10
241.1672666306
 20
31.2451352843
 10
240.9141707689
 20
31.3427622844
 10
240.6655885055
 20
31.4441805213
 10
240.4216902065
 20
31.5493204881
 10
240.1826430273
 20
31.658110127
 10
239.9486107992
 20
31.7704748792
 10
239.719753916
 20
31.8863377353
 10
239.4962292248
 20
32.0056192887
 10
239.2781899183
 20
32.1282377899
 10
239.0657854298
 20
32.2541092023
 10
238.8591613306
 20
32.3831472599
 10
238.6584592307
 20
32.5152635264
 10
238.4638166811
 20
32.6503674559
 10
238.2753670802
 20
32.788366455
 10
238.093239582
 20
32.9291659461
 10
237.9175590074
 20
33.0726694322
 10
237.7484457593
 20
33.2187785631
 10
237.5860157393
 20
33.3673932031
 10
237.4303802689
 20
33.5184114989
 10
237.2816460129
 20
33.6717299503
 10
237.1399149063
 20
33.8272434805
 10
237.0052840846
 20
33.9848455081
 10
236.8778458169
 20
34.1444280208
 10
236.7576874431
 20
34.3058816485
 10
236.6448913137
 20
34.469095739
 10
236.5395347336
 20
34.6339584336
 10
236.4416899089
 20
34.8003567436
 10
236.3514238975
 20
34.9681766279
 10
236.2687985634
 20
35.1373030711
 10
236.1938705337
 20
35.3076201624
 10
236.1266911603
 20
35.4790111751
 10
236.0673064848
 20
35.6513586462
 10
236.0157572063
 20
35.8245444574
 10
235.9720786541
 20
35.9984499158
 10
235.9363007635
 20
36.1729558352
 10
235.9084480546
 20
36.3479426182
 10
235.8885396165
 20
36.5232903374
 10
235.8765890933
 20
36.6988788182
 10
235.8726046753
 20
36.8745877212
 10
235.8765890933
 20
37.0502966241
 10
235.8780312907
 20
37.0796389497
  0
ARC
  5
F9
330
1F
100
AcDbEntity
  8
0
  6
Continuous
 62
     8
370
     0
100
AcDbCircle
 10
253.4205749814
 20
37.3515979455
 30
0.0
 40
5.707816947133027
100
AcDbArc
 50
293.7766601645
 51
357.2749419766
  0
ARC
  5
FA
330
1F
100
AcDbEntity
  8
0
  6
Continuous
 62
     8
370
     0
100
AcDbCircle
 10
252.7806905516
 20
60.9797271367
 30
0.0
 40
5.09092699916185
100
AcDbArc
 50
293.7766601645
 51
357.2749419766
  0
LWPOLYLINE
  5
FB
330
1F
100
AcDbEntity
  8
0
  6
Continuous
 62
     8
370
     0
100
AcDbPolyline
 90
       93
 70
   128
 43
0.0
 10
237.1341393832
 20
60.7376876382
 10
237.1328251316
 20
60.7109898864
 10
237.1292713419
 20
60.5542712659
 10
237.1328251316
 20
60.3975526454
 10
237.1434840651
 20
60.240941432
 10
237.1612408373
 20
60.0845449592
 10
237.1860832786
 20
59.9284704133
 10
237.2179943633
 20
59.7728247602
 10
237.256952221
 20
59.6177146714
 10
237.302930152
 20
59.4632464517
 10
237.3558966453
 20
59.3095259659
 10
237.4158154003
 20
59.1566585664
 10
237.4826453517
 20
59.0047490208
 10
237.5563406977
 20
58.8539014404
 10
237.636850931
 20
58.7042192085
 10
237.7241208741
 20
58.5558049098
 10
237.8180907163
 20
58.4087602602
 10
237.9186960556
 20
58.2631860367
 10
238.025867942
 20
58.1191820085
 10
238.1395329252
 20
57.9768468689
 10
238.2596131051
 20
57.8362781672
 10
238.3860261845
 20
57.6975722422
 10
238.5186855264
 20
57.560824156
 10
238.6575002125
 20
57.426127629
 10
238.8023751063
 20
57.2935749753
 10
238.9532109178
 20
57.16325704
 10
239.1099042716
 20
57.0352631365
 10
239.2723477779
 20
56.9096809854
 10
239.440430106
 20
56.7865966544
 10
239.6140360608
 20
56.6660944993
 10
239.7930466613
 20
56.5482571065
 10
239.9773392227
 20
56.4331652356
 10
240.16678744
 20
56.3208977649
 10
240.3612614749
 20
56.211531637
 10
240.5606280446
 20
56.1051418058
 10
240.7647505132
 20
56.0018011858
 10
240.9734889854
 20
55.9015806014
 10
241.1867004022
 20
55.8045487387
 10
241.4042386392
 20
55.7107720986
 10
241.6259546066
 20
55.6203149509
 10
241.8516963513
 20
55.5332392904
 10
242.0813091611
 20
55.4496047944
 10
242.314635671
 20
55.3694687819
 10
242.5515159705
 20
55.2928861739
 10
242.7917877138
 20
55.2199094565
 10
243.0352862307
 20
55.1505886442
 10
243.2818446394
 20
55.0849712461
 10
243.531293961
 20
55.023102233
 10
243.7834632355
 20
54.9650240069
 10
244.0381796387
 20
54.9107763716
 10
244.2952686006
 20
54.8603965059
 10
244.5545539253
 20
54.8139189375
 10
244.8158579117
 20
54.7713755198
 10
245.0790014749
 20
54.7327954101
 10
245.3438042697
 20
54.698205049
 10
245.6100848132
 20
54.6676281433
 10
245.8776606103
 20
54.6410856487
 10
246.1463482777
 20
54.6185957562
 10
246.4159636704
 20
54.6001738791
 10
246.6863220074
 20
54.585832643
 10
246.9572379987
 20
54.5755818766
 10
247.228525972
 20
54.5694286053
 10
247.5
 20
54.5673770462
 10
247.771474028
 20
54.5694286053
 10
248.0427620012
 20
54.5755818766
 10
248.3136779925
 20
54.585832643
 10
248.5840363296
 20
54.6001738791
 10
248.8536517223
 20
54.6185957562
 10
249.1223393897
 20
54.6410856487
 10
249.3899151867
 20
54.6676281433
 10
249.6561957303
 20
54.698205049
 10
249.920998525
 20
54.73279541
 10
250.1841420883
 20
54.7713755198
 10
250.4454460746
 20
54.8139189375
 10
250.7047313994
 20
54.8603965059
 10
250.9618203613
 20
54.9107763716
 10
251.2165367645
 20
54.9650240069
 10
251.468706039
 20
55.023102233
 10
251.7181553606
 20
55.0849712461
 10
251.9647137693
 20
55.1505886442
 10
252.2082122861
 20
55.2199094565
 10
252.4484840294
 20
55.2928861739
 10
252.685364329
 20
55.3694687818
 10
252.9186908389
 20
55.4496047944
 10
253.1483036487
 20
55.5332392904
 10
253.3740453934
 20
55.6203149509
 10
253.5957613607
 20
55.7107720986
 10
253.8132995977
 20
55.8045487387
 10
254.0265110145
 20
55.9015806014
 10
254.2352494867
 20
56.0018011858
 10
254.4393719553
 20
56.1051418058
 10
254.638738525
 20
56.2115316369
 10
254.8332125599
 20
56.3208977649
  0
LWPOLYLINE
  5
FC
330
1F
100
AcDbEntity
  8
0
  6
Continuous
 62
     8
370
     0
100
AcDbPolyline
 90
      119
 70
   128
 43
0.0
 10
254.4799906499
 20
56.9154037087
 10
254.294883927
 20
56.8113054647
 10
254.1051203301
 20
56.710040157
 10
253.9108299136
 20
56.6116771877
 10
253.7121458346
 20
56.51628397
 10
253.509204261
 20
56.4239258816
 10
253.3021442791
 20
56.3346662201
 10
253.0911077973
 20
56.2485661595
 10
252.8762394494
 20
56.1656847087
 10
252.6576864957
 20
56.0860786704
 10
252.4355987212
 20
56.0098026026
 10
252.2101283339
 20
55.9369087811
 10
251.9814298599
 20
55.8674471637
 10
251.7496600377
 20
55.8014653559
 10
251.5149777108
 20
55.7390085784
 10
251.2775437188
 20
55.6801196359
 10
251.037520787
 20
55.6248388879
 10
250.7950734151
 20
55.5732042211
 10
250.5503677645
 20
55.5252510234
 10
250.3035715442
 20
55.4810121594
 10
250.054853896
 20
55.4405179483
 10
249.8043852786
 20
55.4037961428
 10
249.5523373506
 20
55.3708719102
 10
249.2988828531
 20
55.341767815
 10
249.0441954912
 20
55.3165038038
 10
248.7884498148
 20
55.2950971913
 10
248.5318210992
 20
55.2775626486
 10
248.2744852251
 20
55.2639121928
 10
248.0166185574
 20
55.2541551793
 10
247.7583978252
 20
55.2482982952
 10
247.5
 20
55.2463455543
 10
247.2416021748
 20
55.2482982952
 10
246.9833814426
 20
55.2541551793
 10
246.7255147749
 20
55.2639121928
 10
246.4681789007
 20
55.2775626486
 10
246.2115501852
 20
55.2950971914
 10
245.9558045088
 20
55.3165038038
 10
245.7011171468
 20
55.341767815
 10
245.4476626493
 20
55.3708719102
 10
245.1956147213
 20
55.4037961428
 10
244.9451461039
 20
55.4405179484
 10
244.6964284557
 20
55.4810121595
 10
244.4496322354
 20
55.5252510234
 10
244.2049265849
 20
55.5732042211
 10
243.962479213
 20
55.6248388879
 10
243.7224562812
 20
55.6801196359
 10
243.4850222891
 20
55.7390085784
 10
243.2503399622
 20
55.8014653559
 10
243.0185701401
 20
55.8674471637
 10
242.7898716661
 20
55.9369087811
 10
242.5644012788
 20
56.0098026026
 10
242.3423135043
 20
56.0860786704
 10
242.1237605505
 20
56.1656847087
 10
241.9088922027
 20
56.2485661596
 10
241.6978557209
 20
56.3346662201
 10
241.4907957389
 20
56.4239258816
 10
241.2878541654
 20
56.51628397
 10
241.0891700863
 20
56.6116771878
 10
240.8948796699
 20
56.710040157
 10
240.7051160729
 20
56.8113054647
 10
240.52000935
 20
56.9154037087
 10
240.3396863641
 20
57.0222635453
 10
240.1642706994
 20
57.131811738
 10
239.9938825772
 20
57.243973208
 10
239.8286387729
 20
57.3586710854
 10
239.6686525364
 20
57.4758267621
 10
239.5140335143
 20
57.5953599453
 10
239.3648876747
 20
57.7171887131
 10
239.2213172347
 20
57.84122957
 10
239.0834205903
 20
57.9673975047
 10
238.9512922491
 20
58.0956060479
 10
238.8250227651
 20
58.2257673319
 10
238.7046986773
 20
58.3577921507
 10
238.5904024496
 20
58.4915900211
 10
238.482212415
 20
58.6270692446
 10
238.3802027216
 20
58.7641369707
 10
238.2844432817
 20
58.9026992598
 10
238.194999724
 20
59.0426611485
 10
238.1119333488
 20
59.1839267136
 10
238.0353010854
 20
59.326399139
 10
237.965155454
 20
59.4699807811
 10
237.9015445287
 20
59.6145732362
 10
237.8445119053
 20
59.7600774078
 10
237.7940966712
 20
59.9063935748
 10
237.7503333784
 20
60.0534214593
 10
237.7132520201
 20
60.2010602957
 10
237.68287801
 20
60.3492088997
 10
237.659232165
 20
60.4977657378
 10
237.6423306906
 20
60.6466289964
 10
237.6321851704
 20
60.7956966521
 10
237.6288025576
 20
60.9448665414
 10
237.6321851704
 20
61.0940364307
 10
237.6423306906
 20
61.2431040864
 10
237.659232165
 20
61.3919673451
 10
237.68287801
 20
61.5405241831
 10
237.7132520201
 20
61.6886727871
 10
237.7503333784
 20
61.8363116236
 10
237.7940966712
 20
61.983339508
 10
237.8445119054
 20
62.129655675
 10
237.9015445287
 20
62.2751598467
 10
237.965155454
 20
62.4197523018
 10
238.0353010855
 20
62.5633339439
 10
238.1119333488
 20
62.7058063692
 10
238.194999724
 20
62.8470719344
 10
238.2844432817
 20
62.987033823
 10
238.3802027216
 20
63.1255961122
 10
238.482212415
 20
63.2626638382
 10
238.5904024496
 20
63.3981430617
 10
238.7046986773
 20
63.5319409321
 10
238.8250227652
 20
63.6639657509
 10
238.9512922491
 20
63.794127035
 10
239.0834205904
 20
63.9223355782
 10
239.2213172347
 20
64.0485035128
 10
239.3648876747
 20
64.1725443697
 10
239.5140335143
 20
64.2943731375
 10
239.6686525364
 20
64.4139063207
 10
239.8286387729
 20
64.5310619974
 10
239.9938825772
 20
64.6457598748
 10
240.0
 20
64.649890755
  0
LWPOLYLINE
  5
FD
330
1F
100
AcDbEntity
  8
0
  6
Continuous
 62
     8
370
     0
100
AcDbPolyline
 90
       59
 70
   128
 43
0.0
 10
255.0
 20
64.649890755
 10
255.0061174228
 20
64.6457598748
 10
255.1713612271
 20
64.5310619974
 10
255.3313474636
 20
64.4139063207
 10
255.4859664857
 20
64.2943731375
 10
255.6351123253
 20
64.1725443697
 10
255.7786827653
 20
64.0485035128
 10
255.9165794097
 20
63.9223355781
 10
256.0487077509
 20
63.7941270349
 10
256.1749772349
 20
63.6639657509
 10
256.2953013227
 20
63.5319409321
 10
256.4095975504
 20
63.3981430617
 10
256.517787585
 20
63.2626638382
 10
256.6197972784
 20
63.1255961121
 10
256.7155567183
 20
62.987033823
 10
256.805000276
 20
62.8470719344
 10
256.8880666512
 20
62.7058063692
 10
256.9646989146
 20
62.5633339438
 10
257.034844546
 20
62.4197523018
 10
257.0984554713
 20
62.2751598467
 10
257.1554880947
 20
62.129655675
 10
257.2059033288
 20
61.983339508
 10
257.2496666216
 20
61.8363116235
 10
257.2867479799
 20
61.6886727871
 10
257.31712199
 20
61.5405241831
 10
257.340767835
 20
61.391967345
 10
257.3576693094
 20
61.2431040864
 10
257.3678148296
 20
61.0940364307
 10
257.3711974424
 20
60.9448665414
 10
257.3678148296
 20
60.7956966521
 10
257.3576693094
 20
60.6466289964
 10
257.340767835
 20
60.4977657378
 10
257.31712199
 20
60.3492088997
 10
257.2867479799
 20
60.2010602957
 10
257.2496666216
 20
60.0534214593
 10
257.2059033288
 20
59.9063935748
 10
257.1554880946
 20
59.7600774078
 10
257.0984554713
 20
59.6145732361
 10
257.034844546
 20
59.469980781
 10
256.9646989145
 20
59.3263991389
 10
256.8880666512
 20
59.1839267136
 10
256.805000276
 20
59.0426611484
 10
256.7155567183
 20
58.9026992598
 10
256.6197972784
 20
58.7641369707
 10
256.517787585
 20
58.6270692446
 10
256.4095975504
 20
58.4915900211
 10
256.2953013227
 20
58.3577921507
 10
256.1749772348
 20
58.2257673319
 10
256.0487077509
 20
58.0956060479
 10
255.9165794096
 20
57.9673975046
 10
255.7786827653
 20
57.84122957
 10
255.6351123253
 20
57.7171887131
 10
255.4859664857
 20
57.5953599453
 10
255.3313474636
 20
57.4758267621
 10
255.1713612271
 20
57.3586710854
 10
255.0061174228
 20
57.243973208
 10
254.8357293006
 20
57.131811738
 10
254.6603136359
 20
57.0222635453
 10
254.4799906499
 20
56.9154037087
  0
ARC
  5
FE
330
1F
100
AcDbEntity
  8
0
  6
Continuous
 62
     8
370
     0
100
AcDbCircle
 10
251.7693496091
 20
60.9720819556
 30
0.0
 40
3.412776974670595
100
AcDbArc
 50
290.7789369092
 51
18.8027299885
  0
LWPOLYLINE
  5
FF
330
1F
100
AcDbEntity
  8
0
  6
Continuous
 62
     8
370
     0
100
AcDbPolyline
 90
      101
 70
   128
 43
0.0
 10
240.0
 20
62.072056833
 10
239.9641331169
 20
61.9892963764
 10
239.9193560943
 20
61.8750592398
 10
239.8797744664
 20
61.7601845956
 10
239.8454153604
 20
61.6447511731
 10
239.8163023244
 20
61.5288380847
 10
239.7924553109
 20
61.4125247713
 10
239.7738906636
 20
61.2958909484
 10
239.7606211057
 20
61.1790165508
 10
239.7526557314
 20
61.0619816786
 10
239.75
 20
60.9448665414
 10
239.7526557314
 20
60.8277514043
 10
239.7606211057
 20
60.710716532
 10
239.7738906636
 20
60.5938421345
 10
239.7924553109
 20
60.4772083115
 10
239.8163023244
 20
60.3608949981
 10
239.8454153604
 20
60.2449819097
 10
239.8797744664
 20
60.1295484872
 10
239.9193560943
 20
60.014673843
 10
239.9641331169
 20
59.9004367064
 10
240.0140748463
 20
59.7869153699
 10
240.0691470548
 20
59.6741876352
 10
240.1293119987
 20
59.5623307604
 10
240.194528444
 20
59.4514214066
 10
240.2647516946
 20
59.3415355854
 10
240.339933623
 20
59.2327486072
 10
240.4200227033
 20
59.1251350291
 10
240.5049640463
 20
59.0187686041
 10
240.5946994375
 20
58.9137222304
 10
240.6891673769
 20
58.8100679016
 10
240.7883031207
 20
58.7078766571
 10
240.8920387262
 20
58.6072185337
 10
241.0003030984
 20
58.5081625175
 10
241.1130220382
 20
58.4107764966
 10
241.2301182936
 20
58.3151272143
 10
241.3515116127
 20
58.2212802241
 10
241.4771187987
 20
58.1292998439
 10
241.6068537666
 20
58.0392491124
 10
241.7406276025
 20
57.951189746
 10
241.8783486246
 20
57.8651820961
 10
242.0199224458
 20
57.7812851081
 10
242.1652520384
 20
57.6995562808
 10
242.3142378007
 20
57.620051627
 10
242.4667776254
 20
57.5428256353
 10
242.6227669693
 20
57.4679312326
 10
242.7820989252
 20
57.3954197475
 10
242.9446642947
 20
57.3253408761
 10
243.1103516638
 20
57.2577426467
 10
243.2790474786
 20
57.1926713879
 10
243.4506361234
 20
57.1301716961
 10
243.625
 20
57.0702864057
 10
243.802019608
 20
57.013056559
 10
243.981573627
 20
56.9585213784
 10
244.1635389997
 20
56.9067182397
 10
244.3477910161
 20
56.8576826462
 10
244.5342033992
 20
56.8114482043
 10
244.722648391
 20
56.7680466008
 10
244.9129968409
 20
56.7275075812
 10
245.1051182936
 20
56.6898589287
 10
245.2988810785
 20
56.6551264458
 10
245.4941524004
 20
56.6233339366
 10
245.6907984301
 20
56.5945031899
 10
245.8886843961
 20
56.568653965
 10
246.0876746774
 20
56.5458039775
 10
246.2876328959
 20
56.5259688878
 10
246.4884220103
 20
56.5091622899
 10
246.6899044097
 20
56.495395702
 10
246.8919420081
 20
56.4846785593
 10
247.0943963391
 20
56.4770182065
 10
247.2971286506
 20
56.4724198939
 10
247.5
 20
56.4708867727
 10
247.7028713494
 20
56.4724198939
 10
247.9056036609
 20
56.4770182065
 10
248.1080579919
 20
56.4846785593
 10
248.3100955903
 20
56.495395702
 10
248.5115779897
 20
56.5091622899
 10
248.712367104
 20
56.5259688878
 10
248.9123253225
 20
56.5458039775
 10
249.1113156038
 20
56.568653965
 10
249.3092015699
 20
56.5945031899
 10
249.5058475995
 20
56.6233339366
 10
249.7011189214
 20
56.6551264458
 10
249.8948817064
 20
56.6898589286
 10
250.087003159
 20
56.7275075812
 10
250.277351609
 20
56.7680466008
 10
250.4657966008
 20
56.8114482043
 10
250.6522089838
 20
56.8576826462
 10
250.8364610002
 20
56.9067182397
 10
251.018426373
 20
56.9585213784
 10
251.197980392
 20
57.013056559
 10
251.375
 20
57.0702864057
 10
251.5493638765
 20
57.1301716961
 10
251.7209525213
 20
57.1926713878
 10
251.8896483362
 20
57.2577426467
 10
252.0553357053
 20
57.3253408761
 10
252.2179010748
 20
57.3954197475
 10
252.3772330306
 20
57.4679312325
 10
252.5332223745
 20
57.5428256353
 10
252.6857621993
 20
57.620051627
 10
252.8347479616
 20
57.6995562808
 10
252.9800775542
 20
57.7812851081
  0
LWPOLYLINE
  5
100
330
1F
100
AcDbEntity
  8
0
  6
Continuous
 62
     8
370
     0
100
AcDbPolyline
 90
      119
 70
   128
 43
0.0
 10
259.1219374016
 20
136.9197705404
 10
259.1114603835
 20
136.774114895
 10
259.0915519454
 20
136.5987671758
 10
259.0636992365
 20
136.4237803929
 10
259.0279213459
 20
136.2492744734
 10
258.9842427937
 20
136.075369015
 10
258.9326935152
 20
135.9021832038
 10
258.8733088397
 20
135.7298357327
 10
258.8061294663
 20
135.5584447201
 10
258.7312014366
 20
135.3881276288
 10
258.6485761025
 20
135.2190011855
 10
258.5583100911
 20
135.0511813012
 10
258.4604652664
 20
134.8847829913
 10
258.3551086863
 20
134.7199202967
 10
258.2423125569
 20
134.5567062061
 10
258.1221541831
 20
134.3952525784
 10
257.9947159154
 20
134.2356700658
 10
257.8600850936
 20
134.0780680381
 10
257.718353987
 20
133.922554508
 10
257.569619731
 20
133.7692360566
 10
257.4139842607
 20
133.6182177607
 10
257.2515542407
 20
133.4696031208
 10
257.0824409926
 20
133.3234939898
 10
256.906760418
 20
133.1799905038
 10
256.7246329198
 20
133.0391910127
 10
256.5361833189
 20
132.9011920136
 10
256.3415407693
 20
132.766088084
 10
256.1408386693
 20
132.6339718175
 10
255.9342145702
 20
132.50493376
 10
255.7218100816
 20
132.3790623476
 10
255.5037707752
 20
132.2564438464
 10
255.280246084
 20
132.1371622929
 10
255.0513892008
 20
132.0212994368
 10
254.8173569726
 20
131.9089346847
 10
254.5783097935
 20
131.8001450458
 10
254.3344114944
 20
131.695005079
 10
254.0858292311
 20
131.593586842
 10
253.8327333694
 20
131.4959598419
 10
253.5752973685
 20
131.4021909873
 10
253.3136976624
 20
131.3123445427
 10
253.0481135382
 20
131.2264820844
 10
252.7787270141
 20
131.1446624581
 10
252.5057227143
 20
131.066941739
 10
252.2292877421
 20
130.993373193
 10
251.9496115523
 20
130.9240072403
 10
251.6668858211
 20
130.8588914209
 10
251.3813043144
 20
130.7980703618
 10
251.0930627557
 20
130.7415857468
 10
250.8023586912
 20
130.6894762876
 10
250.509391355
 20
130.6417776975
 10
250.2143615323
 20
130.5985226667
 10
249.9174714218
 20
130.5597408399
 10
249.6189244971
 20
130.5254587965
 10
249.3189253674
 20
130.4957000314
 10
249.0176796372
 20
130.47048494
 10
248.7153937651
 20
130.4498308033
 10
248.4122749228
 20
130.4337517768
 10
248.1085308529
 20
130.4222588801
 10
247.8043697264
 20
130.4153599899
 10
247.5
 20
130.4130598343
 10
247.1956302736
 20
130.4153599899
 10
246.8914691471
 20
130.4222588801
 10
246.5877250772
 20
130.4337517768
 10
246.2846062349
 20
130.4498308033
 10
245.9823203628
 20
130.47048494
 10
245.6810746326
 20
130.4957000314
 10
245.3810755029
 20
130.5254587965
 10
245.0825285782
 20
130.5597408399
 10
244.7856384677
 20
130.5985226667
 10
244.490608645
 20
130.6417776975
 10
244.1976413088
 20
130.6894762876
 10
243.9069372443
 20
130.7415857468
 10
243.6186956856
 20
130.7980703618
 10
243.3331141789
 20
130.8588914209
 10
243.0503884477
 20
130.9240072403
 10
242.7707122579
 20
130.993373193
 10
242.4942772857
 20
131.066941739
 10
242.2212729859
 20
131.1446624581
 10
241.9518864618
 20
131.2264820844
 10
241.6863023376
 20
131.3123445427
 10
241.4247026315
 20
131.4021909873
 10
241.1672666306
 20
131.4959598419
 10
240.9141707689
 20
131.593586842
 10
240.6655885056
 20
131.695005079
 10
240.4216902065
 20
131.8001450458
 10
240.1826430274
 20
131.9089346847
 10
239.9486107992
 20
132.0212994368
 10
239.719753916
 20
132.1371622929
 10
239.4962292248
 20
132.2564438464
 10
239.2781899184
 20
132.3790623476
 10
239.0657854298
 20
132.50493376
 10
238.8591613307
 20
132.6339718175
 10
238.6584592307
 20
132.766088084
 10
238.4638166811
 20
132.9011920136
 10
238.2753670802
 20
133.0391910127
 10
238.093239582
 20
133.1799905038
 10
237.9175590074
 20
133.3234939898
 10
237.7484457593
 20
133.4696031208
 10
237.5860157393
 20
133.6182177607
 10
237.430380269
 20
133.7692360566
 10
237.281646013
 20
133.922554508
 10
237.1399149064
 20
134.0780680381
 10
237.0052840846
 20
134.2356700658
 10
236.8778458169
 20
134.3952525784
 10
236.7576874431
 20
134.5567062061
 10
236.6448913137
 20
134.7199202967
 10
236.5395347336
 20
134.8847829913
 10
236.4416899089
 20
135.0511813012
 10
236.3514238975
 20
135.2190011855
 10
236.2687985634
 20
135.3881276288
 10
236.1938705337
 20
135.5584447201
 10
236.1266911603
 20
135.7298357327
 10
236.0673064848
 20
135.9021832038
 10
236.0157572063
 20
136.075369015
 10
235.9720786541
 20
136.2492744734
 10
235.9363007635
 20
136.4237803929
 10
235.9084480546
 20
136.5987671758
 10
235.8885396165
 20
136.774114895
 10
235.8780880074
 20
136.9192925324
  0
LWPOLYLINE
  5
101
330
1F
100
AcDbEntity
  8
0
  6
Continuous
 62
     8
370
     0
100
AcDbPolyline
 90
      241
 70
   128
 43
0.0
 10
255.3685881716
 20
133.0089185522
 10
255.5718674288
 20
133.1293823305
 10
255.7696146313
 20
133.2528767099
 10
255.9616942529
 20
133.3793170535
 10
256.147974652
 20
133.5086167054
 10
256.3283281612
 20
133.6406870502
 10
256.5026311753
 20
133.7754375734
 10
256.6707642357
 20
133.9127759237
 10
256.8326121124
 20
134.0526079762
 10
256.9880638829
 20
134.1948378972
 10
257.1370130083
 20
134.3393682092
 10
257.2793574064
 20
134.4860998585
 10
257.4149995215
 20
134.6349322824
 10
257.5438463911
 20
134.7857634788
 10
257.6658097101
 20
134.9384900753
 10
257.7808058909
 20
135.0930074009
 10
257.8887561209
 20
135.2492095571
 10
257.9895864164
 20
135.4069894907
 10
258.0832276734
 20
135.5662390672
 10
258.1696157147
 20
135.7268491449
 10
258.2486913344
 20
135.8887096498
 10
258.3204003379
 20
136.0517096506
 10
258.3846935796
 20
136.2157374354
 10
258.4415269959
 20
136.3806805877
 10
258.4908616362
 20
136.5464260637
 10
258.532663689
 20
136.7128602697
 10
258.5669045051
 20
136.8798691401
 10
258.5935606177
 20
137.0473382152
 10
258.612613758
 20
137.2151527202
 10
258.624050868
 20
137.3831976434
 10
258.6278641091
 20
137.5513578152
 10
258.624050868
 20
137.7195179869
 10
258.612613758
 20
137.8875629101
 10
258.5935606177
 20
138.0553774151
 10
258.5669045051
 20
138.2228464903
 10
258.532663689
 20
138.3898553606
 10
258.4908616362
 20
138.5562895666
 10
258.4415269959
 20
138.7220350426
 10
258.3846935796
 20
138.8869781949
 10
258.3204003379
 20
139.0510059797
 10
258.2486913344
 20
139.2140059806
 10
258.1696157147
 20
139.3758664854
 10
258.0832276734
 20
139.5364765632
 10
257.9895864164
 20
139.6957261397
 10
257.8887561209
 20
139.8535060733
 10
257.7808058909
 20
140.0097082294
 10
257.6658097101
 20
140.164225555
 10
257.5438463911
 20
140.3169521516
 10
257.4149995215
 20
140.4677833479
 10
257.2793574064
 20
140.6166157719
 10
257.1370130083
 20
140.7633474211
 10
256.9880638829
 20
140.9078777332
 10
256.8326121124
 20
141.0501076541
 10
256.6707642357
 20
141.1899397067
 10
256.5026311753
 20
141.327278057
 10
256.3283281612
 20
141.4620285801
 10
256.147974652
 20
141.5940989249
 10
255.9616942529
 20
141.7233985769
 10
255.7696146313
 20
141.8498389205
 10
255.5718674288
 20
141.9733332999
 10
255.3685881716
 20
142.0937970781
 10
255.1599161772
 20
142.2111476954
 10
254.9459944588
 20
142.3253047255
 10
254.7269696277
 20
142.4361899308
 10
254.5029917927
 20
142.5437273162
 10
254.2742144568
 20
142.6478431809
 10
254.0407944128
 20
142.7484661691
 10
253.802891635
 20
142.8455273189
 10
253.5606691701
 20
142.9389601093
 10
253.3142930253
 20
143.0287005062
 10
253.0639320545
 20
143.1146870061
 10
252.8097578426
 20
143.196860678
 10
252.5519445879
 20
143.2751652042
 10
252.2906689827
 20
143.3495469188
 10
252.0261100923
 20
143.4199548442
 10
251.7584492321
 20
143.4863407263
 10
251.4878698436
 20
143.5486590676
 10
251.2145573682
 20
143.6068671582
 10
250.9386991208
 20
143.6609251052
 10
250.6604841608
 20
143.7107958599
 10
250.3801031627
 20
143.7564452435
 10
250.0977482859
 20
143.7978419701
 10
249.8136130421
 20
143.8349576685
 10
249.5278921635
 20
143.8677669014
 10
249.2407814689
 20
143.896247183
 10
248.9524777297
 20
143.9203789944
 10
248.6631785348
 20
143.9401457968
 10
248.3730821554
 20
143.9555340431
 10
248.0823874091
 20
143.9665331868
 10
247.7912935236
 20
143.9731356899
 10
247.5
 20
143.9753370271
 10
247.2087064764
 20
143.9731356899
 10
246.9176125909
 20
143.9665331868
 10
246.6269178446
 20
143.9555340431
 10
246.3368214652
 20
143.9401457968
 10
246.0475222703
 20
143.9203789944
 10
245.7592185311
 20
143.896247183
 10
245.4721078365
 20
143.8677669014
 10
245.1863869579
 20
143.8349576685
 10
244.9022517141
 20
143.7978419701
 10
244.6198968373
 20
143.7564452435
 10
244.3395158392
 20
143.7107958599
 10
244.0613008792
 20
143.6609251052
 10
243.7854426318
 20
143.6068671582
 10
243.5121301564
 20
143.5486590676
 10
243.2415507679
 20
143.4863407263
 10
242.9738899077
 20
143.4199548442
 10
242.7093310173
 20
143.3495469188
 10
242.4480554121
 20
143.2751652042
 10
242.1902421574
 20
143.196860678
 10
241.9360679455
 20
143.1146870061
 10
241.6857069747
 20
143.0287005062
 10
241.4393308299
 20
142.9389601093
 10
241.197108365
 20
142.8455273189
 10
240.9592055872
 20
142.7484661691
 10
240.7257855432
 20
142.6478431809
 10
240.4970082073
 20
142.5437273162
 10
240.2730303723
 20
142.4361899308
 10
240.0540055412
 20
142.3253047255
 10
239.8400838228
 20
142.2111476954
 10
239.6314118284
 20
142.0937970781
 10
239.4281325712
 20
141.9733332999
 10
239.2303853687
 20
141.8498389205
 10
239.0383057471
 20
141.7233985769
 10
238.852025348
 20
141.5940989249
 10
238.6716718388
 20
141.4620285801
 10
238.4973688247
 20
141.327278057
 10
238.3292357643
 20
141.1899397067
 10
238.1673878876
 20
141.0501076541
 10
238.0119361171
 20
140.9078777332
 10
237.8629869917
 20
140.7633474211
 10
237.7206425936
 20
140.6166157719
 10
237.5850004785
 20
140.4677833479
 10
237.4561536089
 20
140.3169521516
 10
237.3341902899
 20
140.164225555
 10
237.2191941091
 20
140.0097082294
 10
237.1112438791
 20
139.8535060733
 10
237.0104135836
 20
139.6957261397
 10
236.9167723266
 20
139.5364765632
 10
236.8303842853
 20
139.3758664854
 10
236.7513086656
 20
139.2140059806
 10
236.6795996621
 20
139.0510059797
 10
236.6153064204
 20
138.8869781949
 10
236.5584730041
 20
138.7220350426
 10
236.5091383638
 20
138.5562895666
 10
236.467336311
 20
138.3898553606
 10
236.4330954949
 20
138.2228464903
 10
236.4064393823
 20
138.0553774151
 10
236.387386242
 20
137.8875629101
 10
236.375949132
 20
137.7195179869
 10
236.3721358909
 20
137.5513578152
 10
236.375949132
 20
137.3831976434
 10
236.387386242
 20
137.2151527202
 10
236.4064393823
 20
137.0473382152
 10
236.4330954949
 20
136.8798691401
 10
236.467336311
 20
136.7128602697
 10
236.5091383638
 20
136.5464260637
 10
236.5584730041
 20
136.3806805877
 10
236.6153064204
 20
136.2157374354
 10
236.6795996621
 20
136.0517096506
 10
236.7513086656
 20
135.8887096498
 10
236.8303842853
 20
135.7268491449
 10
236.9167723266
 20
135.5662390672
 10
237.0104135836
 20
135.4069894907
 10
237.1112438791
 20
135.2492095571
 10
237.2191941091
 20
135.0930074009
 10
237.3341902899
 20
134.9384900753
 10
237.4561536089
 20
134.7857634788
 10
237.5850004785
 20
134.6349322824
 10
237.7206425936
 20
134.4860998585
 10
237.8629869917
 20
134.3393682092
 10
238.0119361171
 20
134.1948378972
 10
238.1673878876
 20
134.0526079762
 10
238.3292357643
 20
133.9127759237
 10
238.4973688247
 20
133.7754375734
 10
238.6716718388
 20
133.6406870502
 10
238.852025348
 20
133.5086167054
 10
239.0383057471
 20
133.3793170535
 10
239.2303853687
 20
133.2528767099
 10
239.4281325712
 20
133.1293823305
 10
239.6314118284
 20
133.0089185522
 10
239.8400838228
 20
132.8915679349
 10
240.0540055412
 20
132.7774109049
 10
240.2730303723
 20
132.6665256995
 10
240.4970082073
 20
132.5589883141
 10
240.7257855432
 20
132.4548724494
 10
240.9592055872
 20
132.3542494612
 10
241.197108365
 20
132.2571883115
 10
241.4393308299
 20
132.163755521
 10
241.6857069747
 20
132.0740151241
 10
241.9360679455
 20
131.9880286243
 10
242.1902421574
 20
131.9058549523
 10
242.4480554121
 20
131.8275504261
 10
242.7093310173
 20
131.7531687115
 10
242.9738899077
 20
131.6827607861
 10
243.2415507679
 20
131.616374904
 10
243.5121301564
 20
131.5540565627
 10
243.7854426318
 20
131.4958484721
 10
244.0613008792
 20
131.4417905251
 10
244.3395158392
 20
131.3919197704
 10
244.6198968373
 20
131.3462703868
 10
244.9022517141
 20
131.3048736602
 10
245.1863869579
 20
131.2677579619
 10
245.4721078365
 20
131.234948729
 10
245.7592185311
 20
131.2064684473
 10
246.0475222703
 20
131.1823366359
 10
246.3368214652
 20
131.1625698335
 10
246.6269178446
 20
131.1471815873
 10
246.9176125909
 20
131.1361824435
 10
247.2087064764
 20
131.1295799405
 10
247.5
 20
131.1273786032
 10
247.7912935236
 20
131.1295799405
 10
248.0823874091
 20
131.1361824435
 10
248.3730821554
 20
131.1471815873
 10
248.6631785348
 20
131.1625698335
 10
248.9524777297
 20
131.1823366359
 10
249.2407814689
 20
131.2064684473
 10
249.5278921635
 20
131.234948729
 10
249.8136130421
 20
131.2677579619
 10
250.0977482859
 20
131.3048736602
 10
250.3801031627
 20
131.3462703868
 10
250.6604841608
 20
131.3919197704
 10
250.9386991208
 20
131.4417905251
 10
251.2145573682
 20
131.4958484721
 10
251.4878698436
 20
131.5540565627
 10
251.7584492321
 20
131.616374904
 10
252.0261100923
 20
131.6827607861
 10
252.2906689827
 20
131.7531687115
 10
252.5519445879
 20
131.8275504261
 10
252.8097578426
 20
131.9058549523
 10
253.0639320545
 20
131.9880286243
 10
253.3142930253
 20
132.0740151241
 10
253.5606691701
 20
132.163755521
 10
253.802891635
 20
132.2571883115
 10
254.0407944128
 20
132.3542494612
 10
254.2742144568
 20
132.4548724494
 10
254.5029917927
 20
132.5589883141
 10
254.7269696277
 20
132.6665256995
 10
254.9459944588
 20
132.7774109049
 10
255.1599161772
 20
132.8915679349
 10
255.3685881716
 20
133.0089185522
  0
LWPOLYLINE
  5
102
330
1F
100
AcDbEntity
  8
0
  6
Continuous
 62
     8
370
     0
100
AcDbPolyline
 90
      119
 70
   128
 43
0.0
 10
237.1341393832
 20
113.2623123618
 10
237.1434840651
 20
113.1323989002
 10
237.1612408373
 20
112.9760024275
 10
237.1860832786
 20
112.8199278816
 10
237.2179943633
 20
112.6642822284
 10
237.256952221
 20
112.5091721396
 10
237.302930152
 20
112.35470392
 10
237.3558966453
 20
112.2009834342
 10
237.4158154003
 20
112.0481160347
 10
237.4826453518
 20
111.8962064891
 10
237.5563406977
 20
111.7453589086
 10
237.636850931
 20
111.5956766767
 10
237.7241208741
 20
111.4472623781
 10
237.8180907163
 20
111.3002177285
 10
237.9186960556
 20
111.154643505
 10
238.025867942
 20
111.0106394768
 10
238.1395329253
 20
110.8683043372
 10
238.2596131051
 20
110.7277356355
 10
238.3860261845
 20
110.5890297105
 10
238.5186855264
 20
110.4522816243
 10
238.6575002125
 20
110.3175850973
 10
238.8023751063
 20
110.1850324436
 10
238.9532109178
 20
110.0547145083
 10
239.1099042716
 20
109.9267206048
 10
239.2723477779
 20
109.8011384537
 10
239.440430106
 20
109.6780541227
 10
239.6140360608
 20
109.5575519676
 10
239.7930466613
 20
109.4397145747
 10
239.9773392227
 20
109.3246227038
 10
240.16678744
 20
109.2123552332
 10
240.361261475
 20
109.1029891052
 10
240.5606280447
 20
108.9965992741
 10
240.7647505133
 20
108.8932586541
 10
240.9734889854
 20
108.7930380697
 10
241.1867004023
 20
108.696006207
 10
241.4042386393
 20
108.6022295669
 10
241.6259546066
 20
108.5117724192
 10
241.8516963513
 20
108.4246967587
 10
242.0813091611
 20
108.3410622627
 10
242.314635671
 20
108.2609262501
 10
242.5515159705
 20
108.1843436422
 10
242.7917877139
 20
108.1113669248
 10
243.0352862307
 20
108.0420461125
 10
243.2818446394
 20
107.9764287144
 10
243.531293961
 20
107.9145597013
 10
243.7834632355
 20
107.8564814752
 10
244.0381796387
 20
107.8022338399
 10
244.2952686006
 20
107.7518539742
 10
244.5545539254
 20
107.7053764058
 10
244.8158579117
 20
107.6628329881
 10
245.079001475
 20
107.6242528783
 10
245.3438042697
 20
107.5896625173
 10
245.6100848133
 20
107.5590856116
 10
245.8776606103
 20
107.532543117
 10
246.1463482777
 20
107.5100532245
 10
246.4159636704
 20
107.4916313474
 10
246.6863220075
 20
107.4772901113
 10
246.9572379987
 20
107.4670393449
 10
247.228525972
 20
107.4608860736
 10
247.5
 20
107.4588345145
 10
247.771474028
 20
107.4608860736
 10
248.0427620013
 20
107.4670393449
 10
248.3136779925
 20
107.4772901113
 10
248.5840363296
 20
107.4916313474
 10
248.8536517223
 20
107.5100532245
 10
249.1223393897
 20
107.532543117
 10
249.3899151867
 20
107.5590856116
 10
249.6561957303
 20
107.5896625173
 10
249.920998525
 20
107.6242528783
 10
250.1841420883
 20
107.6628329881
 10
250.4454460746
 20
107.7053764058
 10
250.7047313994
 20
107.7518539742
 10
250.9618203613
 20
107.8022338399
 10
251.2165367645
 20
107.8564814752
 10
251.468706039
 20
107.9145597013
 10
251.7181553606
 20
107.9764287144
 10
251.9647137693
 20
108.0420461125
 10
252.2082122861
 20
108.1113669248
 10
252.4484840295
 20
108.1843436422
 10
252.685364329
 20
108.2609262501
 10
252.9186908389
 20
108.3410622627
 10
253.1483036487
 20
108.4246967587
 10
253.3740453934
 20
108.5117724192
 10
253.5957613607
 20
108.6022295669
 10
253.8132995977
 20
108.696006207
 10
254.0265110146
 20
108.7930380697
 10
254.2352494867
 20
108.8932586541
 10
254.4393719553
 20
108.9965992741
 10
254.638738525
 20
109.1029891052
 10
254.83321256
 20
109.2123552332
 10
255.0226607773
 20
109.3246227038
 10
255.2069533387
 20
109.4397145747
 10
255.3859639392
 20
109.5575519676
 10
255.559569894
 20
109.6780541227
 10
255.7276522221
 20
109.8011384537
 10
255.8900957284
 20
109.9267206048
 10
256.0467890822
 20
110.0547145083
 10
256.1976248937
 20
110.1850324436
 10
256.3424997875
 20
110.3175850973
 10
256.4813144736
 20
110.4522816243
 10
256.6139738155
 20
110.5890297105
 10
256.7403868949
 20
110.7277356355
 10
256.8604670747
 20
110.8683043372
 10
256.974132058
 20
111.0106394768
 10
257.0813039444
 20
111.154643505
 10
257.1819092837
 20
111.3002177285
 10
257.2758791259
 20
111.4472623781
 10
257.363149069
 20
111.5956766767
 10
257.4436593023
 20
111.7453589086
 10
257.5173546482
 20
111.8962064891
 10
257.5841845997
 20
112.0481160347
 10
257.6441033547
 20
112.2009834342
 10
257.697069848
 20
112.35470392
 10
257.743047779
 20
112.5091721396
 10
257.7820056367
 20
112.6642822284
 10
257.8139167214
 20
112.8199278816
 10
257.8387591627
 20
112.9760024275
 10
257.8565159349
 20
113.1323989002
 10
257.8658606168
 20
113.2623123618
  0
ENDSEC
  0
SECTION
  2
OBJECTS
  0
DICTIONARY
  5
C
330
0
100
AcDbDictionary
281
     1
  3
ACAD_GROUP
350
D
  3
ACAD_LAYOUT
350
1A
  3
ACAD_MLINESTYLE
350
17
  3
ACAD_PLOTSETTINGS
350
19
  3
ACAD_PLOTSTYLENAME
350
E
  3
ACAD_SCALELIST
350
47
  0
DICTIONARY
  5
D
102
{ACAD_REACTORS
330
C
102
}
330
C
100
AcDbDictionary
281
     1
  0
DICTIONARY
  5
1A
102
{ACAD_REACTORS
330
C
102
}
330
C
100
AcDbDictionary
281
     1
  3
Layout1
350
1E
  3
Layout2
350
26
  3
Model
350
22
  0
DICTIONARY
  5
17
102
{ACAD_REACTORS
330
C
102
}
330
C
100
AcDbDictionary
281
     1
  3
Standard
350
18
  0
DICTIONARY
  5
19
102
{ACAD_REACTORS
330
C
102
}
330
C
100
AcDbDictionary
281
     1
  0
ACDBDICTIONARYWDFLT
  5
E
102
{ACAD_REACTORS
330
C
102
}
330
C
100
AcDbDictionary
281
     1
  3
Normal
350
F
100
AcDbDictionaryWithDefault
340
F
  0
DICTIONARY
  5
47
102
{ACAD_REACTORS
330
C
102
}
330
C
100
AcDbDictionary
281
     1
  3
A0
350
48
  3
A1
350
49
  3
A2
350
4A
  3
A3
350
4B
  3
A4
350
4C
  3
A5
350
4D
  3
A6
350
4E
  3
A7
350
4F
  3
A8
350
50
  3
A9
350
51
  3
B0
350
52
  3
B1
350
53
  3
B2
350
54
  3
B3
350
55
  3
B4
350
56
  3
B5
350
57
  3
B6
350
58
  3
B7
350
59
  3
B8
350
5A
  3
B9
350
5B
  3
C0
350
5C
  3
C1
350
5D
  3
C2
350
5E
  3
C3
350
5F
  3
C4
350
60
  3
C5
350
61
  3
C6
350
62
  3
C7
350
63
  3
C8
350
64
  3
C9
350
65
  3
D0
350
66
  3
D1
350
67
  3
D2
350
68
  0
LAYOUT
  5
1E
102
{ACAD_REACTORS
330
1A
102
}
330
1A
100
AcDbPlotSettings
  1

  2
none_device
  4

  6

 40
0.0
 41
0.0
 42
0.0
 43
0.0
 44
0.0
 45
0.0
 46
0.0
 47
0.0
 48
0.0
 49
0.0
140
0.0
141
0.0
142
1.0
143
1.0
 70
   688
 72
     1
 73
     0
 74
     5
  7

 75
    16
147
1.0
148
0.0
149
0.0
100
AcDbLayout
  1
Layout1
 70
     1
 71
     1
 10
0.0
 20
0.0
 11
420.0
 21
297.0
 12
0.0
 22
0.0
 32
0.0
 14
1.0000000000E+20
 24
1.0000000000E+20
 34
1.0000000000E+20
 15
-1.0000000000E+20
 25
-1.0000000000E+20
 35
-1.0000000000E+20
146
0.0
 13
0.0
 23
0.0
 33
0.0
 16
1.0
 26
0.0
 36
0.0
 17
0.0
 27
1.0
 37
0.0
 76
     0
330
1B
  0
LAYOUT
  5
26
102
{ACAD_REACTORS
330
1A
102
}
330
1A
100
AcDbPlotSettings
  1

  2
none_device
  4

  6

 40
0.0
 41
0.0
 42
0.0
 43
0.0
 44
0.0
 45
0.0
 46
0.0
 47
0.0
 48
0.0
 49
0.0
140
0.0
141
0.0
142
1.0
143
1.0
 70
   688
 72
     1
 73
     0
 74
     5
  7

 75
    16
147
1.0
148
0.0
149
0.0
100
AcDbLayout
  1
Layout2
 70
     1
 71
     2
 10
0.0
 20
0.0
 11
0.0
 21
0.0
 12
0.0
 22
0.0
 32
0.0
 14
0.0
 24
0.0
 34
0.0
 15
0.0
 25
0.0
 35
0.0
146
0.0
 13
0.0
 23
0.0
 33
0.0
 16
1.0
 26
0.0
 36
0.0
 17
0.0
 27
1.0
 37
0.0
 76
     0
330
23
  0
LAYOUT
  5
22
102
{ACAD_REACTORS
330
1A
102
}
330
1A
100
AcDbPlotSettings
  1

  2
none_device
  4
Letter_(8.50_x_11.00_Inches)
  6

 40
6.35
 41
6.35
 42
6.35000508
 43
6.35000508
 44
215.9
 45
279.4
 46
0.0
 47
0.0
 48
0.0
 49
0.0
140
0.0
141
0.0
142
1.0
143
1.0
 70
  1712
 72
     1
 73
     0
 74
     0
  7

 75
     0
147
1.0
148
0.0
149
0.0
100
AcDbLayout
  1
Model
 70
     1
 71
     0
 10
0.0
 20
0.0
 11
291.0
 21
337.0
 12
0.0
 22
0.0
 32
0.0
 14
0.0
 24
0.0
 34
0.0
 15
291.0
 25
337.0
 35
0.0
146
0.0
 13
0.0
 23
0.0
 33
0.0
 16
1.0
 26
0.0
 36
0.0
 17
0.0
 27
1.0
 37
0.0
 76
     0
330
1F
331
29
  0
MLINESTYLE
  5
18
102
{ACAD_REACTORS
330
17
102
}
330
17
100
AcDbMlineStyle
  2
Standard
 70
     0
  3

 62
   256
 51
90.0
 52
90.0
 71
     2
 49
0.5
 62
   256
  6
BYLAYER
 49
-0.5
 62
   256
  6
BYLAYER
  0
ACDBPLACEHOLDER
  5
F
102
{ACAD_REACTORS
330
E
102
}
330
E
  0
SCALE
  5
48
102
{ACAD_REACTORS
330
47
102
}
330
47
100
AcDbScale
 70
     0
300
1:1
140
1.0
141
1.0
290
     1
  0
SCALE
  5
49
102
{ACAD_REACTORS
330
47
102
}
330
47
100
AcDbScale
 70
     0
300
1:2
140
1.0
141
2.0
290
     0
  0
SCALE
  5
4A
102
{ACAD_REACTORS
330
47
102
}
330
47
100
AcDbScale
 70
     0
300
1:4
140
1.0
141
4.0
290
     0
  0
SCALE
  5
4B
102
{ACAD_REACTORS
330
47
102
}
330
47
100
AcDbScale
 70
     0
300
1:5
140
1.0
141
5.0
290
     0
  0
SCALE
  5
4C
102
{ACAD_REACTORS
330
47
102
}
330
47
100
AcDbScale
 70
     0
300
1:8
140
1.0
141
8.0
290
     0
  0
SCALE
  5
4D
102
{ACAD_REACTORS
330
47
102
}
330
47
100
AcDbScale
 70
     0
300
1:10
140
1.0
141
10.0
290
     0
  0
SCALE
  5
4E
102
{ACAD_REACTORS
330
47
102
}
330
47
100
AcDbScale
 70
     0
300
1:16
140
1.0
141
16.0
290
     0
  0
SCALE
  5
4F
102
{ACAD_REACTORS
330
47
102
}
330
47
100
AcDbScale
 70
     0
300
1:20
140
1.0
141
20.0
290
     0
  0
SCALE
  5
50
102
{ACAD_REACTORS
330
47
102
}
330
47
100
AcDbScale
 70
     0
300
1:30
140
1.0
141
30.0
290
     0
  0
SCALE
  5
51
102
{ACAD_REACTORS
330
47
102
}
330
47
100
AcDbScale
 70
     0
300
1:40
140
1.0
141
40.0
290
     0
  0
SCALE
  5
52
102
{ACAD_REACTORS
330
47
102
}
330
47
100
AcDbScale
 70
     0
300
1:50
140
1.0
141
50.0
290
     0
  0
SCALE
  5
53
102
{ACAD_REACTORS
330
47
102
}
330
47
100
AcDbScale
 70
     0
300
1:100
140
1.0
141
100.0
290
     0
  0
SCALE
  5
54
102
{ACAD_REACTORS
330
47
102
}
330
47
100
AcDbScale
 70
     0
300
2:1
140
2.0
141
1.0
290
     0
  0
SCALE
  5
55
102
{ACAD_REACTORS
330
47
102
}
330
47
100
AcDbScale
 70
     0
300
4:1
140
4.0
141
1.0
290
     0
  0
SCALE
  5
56
102
{ACAD_REACTORS
330
47
102
}
330
47
100
AcDbScale
 70
     0
300
8:1
140
8.0
141
1.0
290
     0
  0
SCALE
  5
57
102
{ACAD_REACTORS
330
47
102
}
330
47
100
AcDbScale
 70
     0
300
10:1
140
10.0
141
1.0
290
     0
  0
SCALE
  5
58
102
{ACAD_REACTORS
330
47
102
}
330
47
100
AcDbScale
 70
     0
300
100:1
140
100.0
141
1.0
290
     0
  0
SCALE
  5
59
102
{ACAD_REACTORS
330
47
102
}
330
47
100
AcDbScale
 70
     0
300
1/128" = 1'-0"
140
0.0078125
141
12.0
290
     0
  0
SCALE
  5
5A
102
{ACAD_REACTORS
330
47
102
}
330
47
100
AcDbScale
 70
     0
300
1/64" = 1'-0"
140
0.015625
141
12.0
290
     0
  0
SCALE
  5
5B
102
{ACAD_REACTORS
330
47
102
}
330
47
100
AcDbScale
 70
     0
300
1/32" = 1'-0"
140
0.03125
141
12.0
290
     0
  0
SCALE
  5
5C
102
{ACAD_REACTORS
330
47
102
}
330
47
100
AcDbScale
 70
     0
300
1/16" = 1'-0"
140
0.0625
141
12.0
290
     0
  0
SCALE
  5
5D
102
{ACAD_REACTORS
330
47
102
}
330
47
100
AcDbScale
 70
     0
300
3/32" = 1'-0"
140
0.09375
141
12.0
290
     0
  0
SCALE
  5
5E
102
{ACAD_REACTORS
330
47
102
}
330
47
100
AcDbScale
 70
     0
300
1/8" = 1'-0"
140
0.125
141
12.0
290
     0
  0
SCALE
  5
5F
102
{ACAD_REACTORS
330
47
102
}
330
47
100
AcDbScale
 70
     0
300
3/16" = 1'-0"
140
0.1875
141
12.0
290
     0
  0
SCALE
  5
60
102
{ACAD_REACTORS
330
47
102
}
330
47
100
AcDbScale
 70
     0
300
1/4" = 1'-0"
140
0.25
141
12.0
290
     0
  0
SCALE
  5
61
102
{ACAD_REACTORS
330
47
102
}
330
47
100
AcDbScale
 70
     0
300
3/8" = 1'-0"
140
0.375
141
12.0
290
     0
  0
SCALE
  5
62
102
{ACAD_REACTORS
330
47
102
}
330
47
100
AcDbScale
 70
     0
300
1/2" = 1'-0"
140
0.5
141
12.0
290
     0
  0
SCALE
  5
63
102
{ACAD_REACTORS
330
47
102
}
330
47
100
AcDbScale
 70
     0
300
3/4" = 1'-0"
140
0.75
141
12.0
290
     0
  0
SCALE
  5
64
102
{ACAD_REACTORS
330
47
102
}
330
47
100
AcDbScale
 70
     0
300
1" = 1'-0"
140
1.0
141
12.0
290
     0
  0
SCALE
  5
65
102
{ACAD_REACTORS
330
47
102
}
330
47
100
AcDbScale
 70
     0
300
1-1/2" = 1'-0"
140
1.5
141
12.0
290
     0
  0
SCALE
  5
66
102
{ACAD_REACTORS
330
47
102
}
330
47
100
AcDbScale
 70
     0
300
3" = 1'-0"
140
3.0
141
12.0
290
     0
  0
SCALE
  5
67
102
{ACAD_REACTORS
330
47
102
}
330
47
100
AcDbScale
 70
     0
300
6" = 1'-0"
140
6.0
141
12.0
290
     0
  0
SCALE
  5
68
102
{ACAD_REACTORS
330
47
102
}
330
47
100
AcDbScale
 70
     0
300
1'-0" = 1'-0"
140
12.0
141
12.0
290
     0
  0
ENDSEC
  0
EOF
