  0
SECTION
  2
HEADER
  9
$ACADVER
  1
AC1015
  9
$ACADMAINTVER
 70
     6
  9
$DWGCODEPAGE
  3
ANSI_1252
  9
$INSBASE
 10
0.0
 20
0.0
 30
0.0
  9
$EXTMIN
 10
0.0
 20
0.0
 30
0.0
  9
$EXTMAX
 10
824.0
 20
431.0
 30
0.0
  9
$LIMMIN
 10
0.0
 20
0.0
  9
$LIMMAX
 10
824.0
 20
431.0
  9
$ORTHOMODE
 70
     0
  9
$REGENMODE
 70
     1
  9
$FILLMODE
 70
     1
  9
$QTEXTMODE
 70
     0
  9
$MIRRTEXT
 70
     1
  9
$LTSCALE
 40
1.0
  9
$ATTMODE
 70
     1
  9
$TEXTSIZE
 40
3.5
  9
$TRACEWID
 40
1.0
  9
$TEXTSTYLE
  7
Standard
  9
$CLAYER
  8
0
  9
$CELTYPE
  6
ByLayer
  9
$CECOLOR
 62
   256
  9
$CELTSCALE
 40
1.0
  9
$DISPSILH
 70
     0
  9
$DIMSCALE
 40
1.0
  9
$DIMASZ
 40
3.302
  9
$DIMEXO
 40
1.0
  9
$DIMDLI
 40
3.75
  9
$DIMRND
 40
0.0
  9
$DIMDLE
 40
0.0
  9
$DIMEXE
 40
1.0
  9
$DIMTP
 40
0.0
  9
$DIMTM
 40
0.0
  9
$DIMTXT
 40
2.8
  9
$DIMCEN
 40
2.5
  9
$DIMTSZ
 40
0.0
  9
$DIMTOL
 70
     0
  9
$DIMLIM
 70
     0
  9
$DIMTIH
 70
     1
  9
$DIMTOH
 70
     1
  9
$DIMSE1
 70
     0
  9
$DIMSE2
 70
     0
  9
$DIMTAD
 70
     1
  9
$DIMZIN
 70
     0
  9
$DIMBLK
  1

  9
$DIMASO
 70
     1
  9
$DIMSHO
 70
     1
  9
$DIMPOST
  1

  9
$DIMAPOST
  1

  9
$DIMALT
 70
     0
  9
$DIMALTD
 70
     3
  9
$DIMALTF
 40
0.0393700787
  9
$DIMLFAC
 40
1.0
  9
$DIMTOFL
 70
     1
  9
$DIMTVP
 40
0.0
  9
$DIMTIX
 70
     0
  9
$DIMSOXD
 70
     0
  9
$DIMSAH
 70
     0
  9
$DIMBLK1
  1

  9
$DIMBLK2
  1

  9
$DIMSTYLE
  2
ISO-25
  9
$DIMCLRD
 70
     0
  9
$DIMCLRE
 70
     0
  9
$DIMCLRT
 70
     0
  9
$DIMTFAC
 40
1.0
  9
$DIMGAP
 40
1.524
  9
$DIMJUST
 70
     0
  9
$DIMSD1
 70
     0
  9
$DIMSD2
 70
     0
  9
$DIMTOLJ
 70
     0
  9
$DIMTZIN
 70
     0
  9
$DIMALTZ
 70
     0
  9
$DIMALTTZ
 70
     0
  9
$DIMUPT
 70
     0
  9
$DIMDEC
 70
     2
  9
$DIMTDEC
 70
     2
  9
$DIMALTU
 70
     2
  9
$DIMALTTD
 70
     3
  9
$DIMTXSTY
  7
Standard
  9
$DIMAUNIT
 70
     0
  9
$DIMADEC
 70
     2
  9
$DIMALTRND
 40
0.0
  9
$DIMAZIN
 70
     0
  9
$DIMDSEP
 70
    44
  9
$DIMATFIT
 70
     3
  9
$DIMFRAC
 70
     0
  9
$DIMLDRBLK
  1

  9
$DIMLUNIT
 70
     2
  9
$DIMLWD
 70
    -2
  9
$DIMLWE
 70
    -2
  9
$DIMTMOVE
 70
     0
  9
$LUNITS
 70
     2
  9
$LUPREC
 70
     2
  9
$SKETCHINC
 40
1.0
  9
$FILLETRAD
 40
10.0
  9
$AUNITS
 70
     0
  9
$AUPREC
 70
     2
  9
$MENU
  1
.
  9
$ELEVATION
 40
0.0
  9
$PELEVATION
 40
0.0
  9
$THICKNESS
 40
0.0
  9
$LIMCHECK
 70
     0
  9
$CHAMFERA
 40
0.0
  9
$CHAMFERB
 40
0.0
  9
$CHAMFERC
 40
0.0
  9
$CHAMFERD
 40
0.0
  9
$SKPOLY
 70
     0
  9
$TDCREATE
 40
2459234.392565174
  9
$TDUCREATE
 40
2459234.30923184
  9
$TDUPDATE
 40
2459234.39256581
  9
$TDUUPDATE
 40
2459234.309232477
  9
$TDINDWG
 40
0.0000000116
  9
$TDUSRTIMER
 40
0.0000000116
  9
$USRTIMER
 70
     1
  9
$ANGBASE
 50
0.0
  9
$ANGDIR
 70
     0
  9
$PDMODE
 70
     0
  9
$PDSIZE
 40
-1.0
  9
$PLINEWID
 40
0.0
  9
$SPLFRAME
 70
     0
  9
$SPLINETYPE
 70
     6
  9
$SPLINESEGS
 70
     8
  9
$HANDSEED
  5
F5
  9
$SURFTAB1
 70
     6
  9
$SURFTAB2
 70
     6
  9
$SURFTYPE
 70
     6
  9
$SURFU
 70
     6
  9
$SURFV
 70
     6
  9
$UCSBASE
  2

  9
$UCSNAME
  2

  9
$UCSORG
 10
0.0
 20
0.0
 30
0.0
  9
$UCSXDIR
 10
1.0
 20
0.0
 30
0.0
  9
$UCSYDIR
 10
0.0
 20
1.0
 30
0.0
  9
$UCSORTHOREF
  2

  9
$UCSORTHOVIEW
 70
     0
  9
$UCSORGTOP
 10
0.0
 20
0.0
 30
0.0
  9
$UCSORGBOTTOM
 10
0.0
 20
0.0
 30
0.0
  9
$UCSORGLEFT
 10
0.0
 20
0.0
 30
0.0
  9
$UCSORGRIGHT
 10
0.0
 20
0.0
 30
0.0
  9
$UCSORGFRONT
 10
0.0
 20
0.0
 30
0.0
  9
$UCSORGBACK
 10
0.0
 20
0.0
 30
0.0
  9
$PUCSBASE
  2

  9
$PUCSNAME
  2

  9
$PUCSORG
 10
0.0
 20
0.0
 30
0.0
  9
$PUCSXDIR
 10
1.0
 20
0.0
 30
0.0
  9
$PUCSYDIR
 10
0.0
 20
1.0
 30
0.0
  9
$PUCSORTHOREF
  2

  9
$PUCSORTHOVIEW
 70
     0
  9
$PUCSORGTOP
 10
0.0
 20
0.0
 30
0.0
  9
$PUCSORGBOTTOM
 10
0.0
 20
0.0
 30
0.0
  9
$PUCSORGLEFT
 10
0.0
 20
0.0
 30
0.0
  9
$PUCSORGRIGHT
 10
0.0
 20
0.0
 30
0.0
  9
$PUCSORGFRONT
 10
0.0
 20
0.0
 30
0.0
  9
$PUCSORGBACK
 10
0.0
 20
0.0
 30
0.0
  9
$USERI1
 70
     0
  9
$USERI2
 70
     0
  9
$USERI3
 70
     0
  9
$USERI4
 70
     0
  9
$USERI5
 70
     0
  9
$USERR1
 40
0.0
  9
$USERR2
 40
0.0
  9
$USERR3
 40
0.0
  9
$USERR4
 40
0.0
  9
$USERR5
 40
0.0
  9
$WORLDVIEW
 70
     1
  9
$SHADEDGE
 70
     3
  9
$SHADEDIF
 70
    70
  9
$TILEMODE
 70
     1
  9
$MAXACTVP
 70
    64
  9
$PINSBASE
 10
0.0
 20
0.0
 30
0.0
  9
$PLIMCHECK
 70
     0
  9
$PEXTMIN
 10
1.0000000000E+20
 20
1.0000000000E+20
 30
1.0000000000E+20
  9
$PEXTMAX
 10
-1.0000000000E+20
 20
-1.0000000000E+20
 30
-1.0000000000E+20
  9
$PLIMMIN
 10
0.0
 20
0.0
  9
$PLIMMAX
 10
420.0
 20
297.0
  9
$UNITMODE
 70
     0
  9
$VISRETAIN
 70
     1
  9
$PLINEGEN
 70
     0
  9
$PSLTSCALE
 70
     1
  9
$TREEDEPTH
 70
  3020
  9
$CMLSTYLE
  2
Standard
  9
$CMLJUST
 70
     0
  9
$CMLSCALE
 40
20.0
  9
$PROXYGRAPHICS
 70
     1
  9
$MEASUREMENT
 70
     1
  9
$CELWEIGHT
370
    -1
  9
$ENDCAPS
280
     0
  9
$JOINSTYLE
280
     0
  9
$LWDISPLAY
290
     1
  9
$INSUNITS
 70
     4
  9
$HYPERLINKBASE
  1

  9
$STYLESHEET
  1

  9
$XEDIT
290
     1
  9
$CEPSNTYPE
380
     0
  9
$PSTYLEMODE
290
     1
  9
$FINGERPRINTGUID
  2
{D1329EAA-5799-42EE-9916-EFF7D825AA0B}
  9
$VERSIONGUID
  2
{FAEB1C32-E019-11D5-929B-00C0DF256EC4}
  9
$EXTNAMES
290
     1
  9
$PSVPSCALE
 40
0.0
  9
$OLESTARTUP
290
     0
  0
ENDSEC
  0
SECTION
  2
CLASSES
  0
CLASS
  1
ACDBDICTIONARYWDFLT
  2
AcDbDictionaryWithDefault
  3
ObjectDBX Classes
 90
        0
280
     0
281
     0
  0
CLASS
  1
VISUALSTYLE
  2
AcDbVisualStyle
  3
ObjectDBX Classes
 90
     4095
280
     0
281
     0
  0
CLASS
  1
MATERIAL
  2
AcDbMaterial
  3
ObjectDBX Classes
 90
     1153
280
     0
281
     0
  0
CLASS
  1
SCALE
  2
AcDbScale
  3
ObjectDBX Classes
 90
     1153
280
     0
281
     0
  0
CLASS
  1
TABLESTYLE
  2
AcDbTableStyle
  3
ObjectDBX Classes
 90
     4095
280
     0
281
     0
  0
CLASS
  1
MLEADERSTYLE
  2
AcDbMLeaderStyle
  3
ACDB_MLEADERSTYLE_CLASS
 90
     4095
280
     0
281
     0
  0
CLASS
  1
SUN
  2
AcDbSun
  3
SCENEOE
 90
     1153
280
     0
281
     0
  0
CLASS
  1
ACDBPLACEHOLDER
  2
AcDbPlaceHolder
  3
ObjectDBX Classes
 90
        0
280
     0
281
     0
  0
CLASS
  1
LAYOUT
  2
AcDbLayout
  3
ObjectDBX Classes
 90
        0
280
     0
281
     0
  0
ENDSEC
  0
SECTION
  2
TABLES
  0
TABLE
  2
VPORT
  5
8
330
0
100
AcDbSymbolTable
 70
     1
  0
VPORT
  5
29
330
8
100
AcDbSymbolTableRecord
100
AcDbViewportTableRecord
  2
*Active
 70
     0
 10
0.0
 20
0.0
 11
1.0
 21
1.0
 12
412.0
 22
215.5
 13
0.0
 23
0.0
 14
10.0
 24
10.0
 15
10.0
 25
10.0
 16
0.0
 26
0.0
 36
1.0
 17
0.0
 27
0.0
 37
0.0
 40
431.0
 41
1.9118329466
 42
50.0
 43
0.0
 44
0.0
 50
0.0
 51
0.0
 71
     0
 72
  2000
 73
     1
 74
     3
 75
     0
 76
     0
 77
     0
 78
     0
281
     0
 65
     1
110
0.0
120
0.0
130
0.0
111
1.0
121
0.0
131
0.0
112
0.0
122
1.0
132
0.0
 79
     0
146
0.0
  0
ENDTAB
  0
TABLE
  2
LTYPE
  5
5
330
0
100
AcDbSymbolTable
 70
     6
  0
LTYPE
  5
14
330
5
100
AcDbSymbolTableRecord
100
AcDbLinetypeTableRecord
  2
ByBlock
 70
     0
  3

 72
    65
 73
     0
 40
0.0
  0
LTYPE
  5
15
330
5
100
AcDbSymbolTableRecord
100
AcDbLinetypeTableRecord
  2
ByLayer
 70
     0
  3

 72
    65
 73
     0
 40
0.0
  0
LTYPE
  5
16
330
5
100
AcDbSymbolTableRecord
100
AcDbLinetypeTableRecord
  2
Continuous
 70
     0
  3
Solid line
 72
    65
 73
     0
 40
0.0
  0
LTYPE
  5
6E
330
5
100
AcDbSymbolTableRecord
100
AcDbLinetypeTableRecord
  2
HIDDEN
 70
     0
  3
Hidden __ __ __ __ __ __ __ __ __ __ __ __ __ __
 72
    65
 73
     2
 40
1.905
 49
1.27
 74
     0
 49
-0.635
 74
     0
  0
LTYPE
  5
6F
330
5
100
AcDbSymbolTableRecord
100
AcDbLinetypeTableRecord
  2
PHANTOM
 70
     0
  3
Phantom ______  __  __  ______  __  __  ______
 72
    65
 73
     6
 40
12.7
 49
6.35
 74
     0
 49
-1.27
 74
     0
 49
1.27
 74
     0
 49
-1.27
 74
     0
 49
1.27
 74
     0
 49
-1.27
 74
     0
  0
LTYPE
  5
70
330
5
100
AcDbSymbolTableRecord
100
AcDbLinetypeTableRecord
  2
CENTER
 70
     0
  3
Center ____ _ ____ _ ____ _ ____ _ ____ _ ____
 72
    65
 73
     4
 40
10.16
 49
6.35
 74
     0
 49
-1.27
 74
     0
 49
1.27
 74
     0
 49
-1.27
 74
     0
  0
LTYPE
  5
71
330
5
100
AcDbSymbolTableRecord
100
AcDbLinetypeTableRecord
  2
CENTERX2
 70
     0
  3
Center (2x) ________  __  ________  __  _____
 72
    65
 73
     4
 40
20.32
 49
12.7
 74
     0
 49
-2.54
 74
     0
 49
2.54
 74
     0
 49
-2.54
 74
     0
  0
LTYPE
  5
72
330
5
100
AcDbSymbolTableRecord
100
AcDbLinetypeTableRecord
  2
DOT2
 70
     0
  3
Dot (.5x) ........................................
 72
    65
 73
     2
 40
0.635
 49
0.0
 74
     0
 49
-0.635
 74
     0
  0
ENDTAB
  0
TABLE
  2
LAYER
  5
2
330
0
100
AcDbSymbolTable
 70
     2
  0
LAYER
  5
10
330
2
100
AcDbSymbolTableRecord
100
AcDbLayerTableRecord
  2
0
 70
     0
 62
     7
  6
Continuous
370
    -3
390
F
  0
LAYER
  5
73
330
2
100
AcDbSymbolTableRecord
100
AcDbLayerTableRecord
  2
FORMAT
 70
     0
 62
     7
  6
Continuous
370
    -3
390
F
  0
ENDTAB
  0
TABLE
  2
STYLE
  5
3
330
0
100
AcDbSymbolTable
 70
     2
  0
STYLE
  5
11
330
3
100
AcDbSymbolTableRecord
100
AcDbTextStyleTableRecord
  2
Standard
 70
     0
 40
0.0
 41
1.0
 50
0.0
 71
     0
 42
3.5
  3
txt
  4

  0
STYLE
  5
74
330
3
100
AcDbSymbolTableRecord
100
AcDbTextStyleTableRecord
  2
SLDTEXTSTYLE0
 70
     0
 40
0.0
 41
0.605
 50
0.0
 71
     0
 42
3.5
  3
TXT
  4

  0
ENDTAB
  0
TABLE
  2
VIEW
  5
6
330
0
100
AcDbSymbolTable
 70
     0
  0
ENDTAB
  0
TABLE
  2
UCS
  5
7
330
0
100
AcDbSymbolTable
 70
     0
  0
ENDTAB
  0
TABLE
  2
APPID
  5
9
330
0
100
AcDbSymbolTable
 70
     1
  0
APPID
  5
12
330
9
100
AcDbSymbolTableRecord
100
AcDbRegAppTableRecord
  2
ACAD
 70
     0
  0
ENDTAB
  0
TABLE
  2
DIMSTYLE
  5
A
330
0
100
AcDbSymbolTable
 70
     1
100
AcDbDimStyleTable
  0
DIMSTYLE
105
27
330
A
100
AcDbSymbolTableRecord
100
AcDbDimStyleTableRecord
  2
ISO-25
 70
     0
 41
2.5
 42
0.625
 43
3.75
 44
1.25
 73
     0
 74
     0
 77
     1
 78
     8
140
2.5
141
2.5
143
0.0393700787
147
0.625
171
     3
172
     1
178
     0
271
     2
272
     2
274
     3
278
    44
283
     0
284
     8
340
11
  0
ENDTAB
  0
TABLE
  2
BLOCK_RECORD
  5
1
330
0
100
AcDbSymbolTable
 70
     1
  0
BLOCK_RECORD
  5
1F
330
1
100
AcDbSymbolTableRecord
100
AcDbBlockTableRecord
  2
*Model_Space
340
22
  0
BLOCK_RECORD
  5
1B
330
1
100
AcDbSymbolTableRecord
100
AcDbBlockTableRecord
  2
*Paper_Space
340
1E
  0
BLOCK_RECORD
  5
23
330
1
100
AcDbSymbolTableRecord
100
AcDbBlockTableRecord
  2
*Paper_Space0
340
26
  0
ENDTAB
  0
ENDSEC
  0
SECTION
  2
BLOCKS
  0
BLOCK
  5
20
330
1F
100
AcDbEntity
  8
0
100
AcDbBlockBegin
  2
*Model_Space
 70
     0
 10
0.0
 20
0.0
 30
0.0
  3
*Model_Space
  1

  0
ENDBLK
  5
21
330
1F
100
AcDbEntity
  8
0
100
AcDbBlockEnd
  0
BLOCK
  5
1C
330
1B
100
AcDbEntity
 67
     1
  8
0
100
AcDbBlockBegin
  2
*Paper_Space
 70
     0
 10
0.0
 20
0.0
 30
0.0
  3
*Paper_Space
  1

  0
ENDBLK
  5
1D
330
1B
100
AcDbEntity
 67
     1
  8
0
100
AcDbBlockEnd
  0
BLOCK
  5
24
330
23
100
AcDbEntity
  8
0
100
AcDbBlockBegin
  2
*Paper_Space0
 70
     0
 10
0.0
 20
0.0
 30
0.0
  3
*Paper_Space0
  1

  0
ENDBLK
  5
25
330
23
100
AcDbEntity
  8
0
100
AcDbBlockEnd
  0
ENDSEC
  0
SECTION
  2
ENTITIES
  0
MTEXT
  5
75
330
1F
100
AcDbEntity
  8
0
  6
Continuous
 62
     7
370
     0
100
AcDbMText
 10
7.2782978723
 20
22.1884790273
 30
0.0
 40
10.0
 41
0.0
 71
     1
 72
     1
  1
1:1
  7
SLDTEXTSTYLE0
 73
     1
 44
1.0
  0
LINE
  5
76
330
1F
100
AcDbEntity
  8
0
  6
Continuous
 62
     7
370
    30
100
AcDbLine
 10
398.25
 20
351.8543288491
 30
0.0
 11
398.25
 21
345.4544863125
 31
0.0
  0
LINE
  5
77
330
1F
100
AcDbEntity
  8
0
  6
Continuous
 62
     7
370
    30
100
AcDbLine
 10
425.75
 20
345.4544863125
 30
0.0
 11
425.75
 21
351.8543288491
 31
0.0
  0
LINE
  5
78
330
1F
100
AcDbEntity
  8
0
  6
Continuous
 62
     7
370
    30
100
AcDbLine
 10
415.3261650482
 20
345.7003213227
 30
0.0
 11
415.3800797506
 21
345.7109622804
 31
0.0
  0
LINE
  5
79
330
1F
100
AcDbEntity
  8
0
  6
Continuous
 62
     7
370
    30
100
AcDbLine
 10
408.6196074873
 20
345.7109670168
 30
0.0
 11
408.6744489701
 21
345.7003165956
 31
0.0
  0
SPLINE
  5
7A
330
1F
100
AcDbEntity
  8
0
  6
Continuous
 62
     7
370
    30
100
AcDbSpline
210
0.0
220
0.0
230
1.0
 70
     8
 71
     3
 72
    23
 73
    19
 74
     0
 42
0.000000001
 43
0.00000001
 40
0.0
 40
0.0
 40
0.0
 40
0.0
 40
0.0789447814387328
 40
0.1112986361726471
 40
0.1649857202052422
 40
0.2208218245359242
 40
0.2807929577445945
 40
0.3434504069155306
 40
0.4082099669305307
 40
0.4746055737343499
 40
0.5423059467708358
 40
0.6110658316053111
 40
0.680700275143666
 40
0.7510670700098475
 40
0.8220549611731206
 40
0.8935755346765922
 40
0.9655575302770294
 40
1.0
 40
1.0
 40
1.0
 40
1.0
 10
411.9999999999986
 20
344.8828607115372
 30
0.0
 10
412.0693550573975
 20
344.8830853440614
 30
0.0
 10
412.1671338232576
 20
344.883402037491
 30
0.0
 10
412.3120624791295
 20
344.8855302263273
 30
0.0
 10
412.4366787158189
 20
344.8881073368027
 30
0.0
 10
412.5855216199234
 20
344.8924379060147
 30
0.0
 10
412.7421966129158
 20
344.8983572232629
 30
0.0
 10
412.9066413073603
 20
344.9060933664682
 30
0.0
 10
413.0766394612693
 20
344.915725671142
 30
0.0
 10
413.2509549174159
 20
344.9273309289334
 30
0.0
 10
413.4286485645296
 20
344.9409644294624
 30
0.0
 10
413.6090274591534
 20
344.9566704848388
 30
0.0
 10
413.7915647523136
 20
344.9744809186519
 30
0.0
 10
413.9758490364134
 20
344.9944330787634
 30
0.0
 10
414.1615605039913
 20
345.0165122045152
 30
0.0
 10
414.3484145436063
 20
345.0408762902965
 30
0.0
 10
414.5032575317028
 20
345.0624191738615
 30
0.0
 10
414.5956704531569
 20
345.0766124412444
 30
0.0
 10
414.6255783248058
 20
345.0812058510456
 30
0.0
  0
SPLINE
  5
7B
330
1F
100
AcDbEntity
  8
0
  6
Continuous
 62
     7
370
    30
100
AcDbSpline
210
0.0
220
0.0
230
1.0
 70
     8
 71
     3
 72
    22
 73
    18
 74
     0
 42
0.000000001
 43
0.00000001
 40
0.0
 40
0.0
 40
0.0
 40
0.0
 40
0.057414951071793
 40
0.1308020969864912
 40
0.2041166856427719
 40
0.2773373766548626
 40
0.3504331205600199
 40
0.4233568191600392
 40
0.4960332350554423
 40
0.568333973919106
 40
0.6400199555935169
 40
0.7105887842328819
 40
0.7787756933782469
 40
0.8435743610461922
 40
0.889391686865711
 40
0.936235490241695
 40
0.9999999999999999
 40
0.9999999999999999
 40
0.9999999999999999
 40
0.9999999999999999
 10
409.3739130640515
 20
345.0812055260786
 30
0.0
 10
409.4237998672245
 20
345.0736870137353
 30
0.0
 10
409.5374514221796
 20
345.0565584233182
 30
0.0
 10
409.7151696280351
 20
345.0323403453131
 30
0.0
 10
409.9068909456556
 20
345.0081170225905
 30
0.0
 10
410.0986229201746
 20
344.9861064590597
 30
0.0
 10
410.2902416361815
 20
344.9662278234998
 30
0.0
 10
410.4815918126947
 20
344.948506536144
 30
0.0
 10
410.6724283457915
 20
344.932940177956
 30
0.0
 10
410.8623385931605
 20
344.9195353456409
 30
0.0
 10
411.0505343066094
 20
344.9083012060763
 30
0.0
 10
411.2352289768651
 20
344.8992601137935
 30
0.0
 10
411.4139603408565
 20
344.8923847195926
 30
0.0
 10
411.5710110926717
 20
344.8879105848788
 30
0.0
 10
411.7093419444916
 20
344.885144035403
 30
0.0
 10
411.8467802864313
 20
344.8832763272271
 30
0.0
 10
411.9439707417756
 20
344.8830126935392
 30
0.0
 10
411.9999999999986
 20
344.8828607115372
 30
0.0
  0
ARC
  5
7C
330
1F
100
AcDbEntity
  8
0
  6
Continuous
 62
     7
370
    30
100
AcDbCircle
 10
412.0
 20
367.0
 30
0.0
 40
25.17676603415333
100
AcDbArc
 50
0.0
 51
236.89750424
  0
LWPOLYLINE
  5
7D
330
1F
100
AcDbEntity
  8
0
  6
Continuous
 62
     7
370
    30
100
AcDbPolyline
 90
        3
 70
   128
 43
0.0
 10
398.840974803
 20
345.5358530614
 10
398.845175883
 20
345.5332780707
 10
399.0011324575
 20
345.4384835749
  0
ARC
  5
7E
330
1F
100
AcDbEntity
  8
0
  6
Continuous
 62
     7
370
    30
100
AcDbCircle
 10
412.0
 20
367.0
 30
0.0
 40
25.17676603415335
100
AcDbArc
 50
239.7500302287
 51
300.246157832
  0
LWPOLYLINE
  5
7F
330
1F
100
AcDbEntity
  8
0
  6
Continuous
 62
     7
370
    30
100
AcDbPolyline
 90
        3
 70
   128
 43
0.0
 10
425.0002747843
 20
345.4393320263
 10
425.154824117
 20
345.5332780707
 10
425.159025197
 20
345.5358530614
  0
ARC
  5
80
330
1F
100
AcDbEntity
  8
0
  6
Continuous
 62
     7
370
    30
100
AcDbCircle
 10
412.0
 20
367.0
 30
0.0
 40
25.17676603415333
100
AcDbArc
 50
303.10249576
 51
0.0
  0
ARC
  5
81
330
1F
100
AcDbEntity
  8
0
  6
Continuous
 62
     7
370
    30
100
AcDbCircle
 10
408.5639310991
 20
177.0520519034
 30
0.0
 40
168.7179809315448
100
AcDbArc
 50
88.8330475694
 51
93.5047444352
  0
ARC
  5
82
330
1F
100
AcDbEntity
  8
0
  6
Continuous
 62
     7
370
    30
100
AcDbCircle
 10
415.4360689009
 20
177.0520519034
 30
0.0
 40
168.7179809315537
100
AcDbArc
 50
86.4952555648
 51
91.1669524306
  0
SPLINE
  5
83
330
1F
100
AcDbEntity
  8
0
  6
Continuous
 62
     7
370
    30
100
AcDbSpline
210
0.0
220
0.0
230
1.0
 70
    11
 71
     3
 72
   315
 73
   311
 74
     0
 42
0.000000001
 43
0.00000001
 40
0.0
 40
0.0
 40
0.0
 40
0.0
 40
0.0036591333004852
 40
0.0073127052799811
 40
0.0109626389745482
 40
0.0146108631736426
 40
0.0182593093779495
 40
0.0211273836689438
 40
0.0239977225953522
 40
0.0268712593047641
 40
0.0297861381860655
 40
0.032833737309019
 40
0.0366376237171123
 40
0.0404373371125088
 40
0.0442350560028007
 40
0.04803296232777
 40
0.0497388176850597
 40
0.0514453478690311
 40
0.0531527498853848
 40
0.0548612204382259
 40
0.0565709558628553
 40
0.0582821520591966
 40
0.0599950044259653
 40
0.0636041855251575
 40
0.0672072684348479
 40
0.0708060961341866
 40
0.074402518144051
 40
0.077998387697391
 40
0.0808245572571342
 40
0.0836524289739452
 40
0.0864828998064756
 40
0.0893168642454931
 40
0.0921552134787921
 40
0.0962690353877271
 40
0.100375031288806
 40
0.1044759322817718
 40
0.1085744796514786
 40
0.1126734194049442
 40
0.1167754967611799
 40
0.1208834506489115
 40
0.1250000082671294
 40
0.1286864241458097
 40
0.1323663296346367
 40
0.1360416878629214
 40
0.1397144692516164
 40
0.1433866483697255
 40
0.1462728211400597
 40
0.1491607991323252
 40
0.1520515379691914
 40
0.1549459905387958
 40
0.1578451060673627
 40
0.1614542875147369
 40
0.1650573706194028
 40
0.1686561984044294
 40
0.172252620434937
 40
0.175848489988307
 40
0.1778670612257444
 40
0.1798863700174749
 40
0.181906743555151
 40
0.1839285085134856
 40
0.1859519908932925
 40
0.1879775158661468
 40
0.1900054076210372
 40
0.1938846512097591
 40
0.1977574169798299
 40
0.2016259973300714
 40
0.2054926921033846
 40
0.2093598045068329
 40
0.2124000717512201
 40
0.2154431331692563
 40
0.2184901005794837
 40
0.2215034606679683
 40
0.224377650337508
 40
0.2286486966214079
 40
0.2329153649863872
 40
0.2371807415216596
 40
0.2414479151192549
 40
0.2457199707731313
 40
0.2499999829204327
 40
0.2536584423152448
 40
0.2573115319269334
 40
0.260961176374221
 40
0.2646093057284608
 40
0.2682578524654461
 40
0.2711261432584446
 40
0.2739968199034752
 40
0.2768708156171312
 40
0.2797861382106844
 40
0.2828337373343054
 40
0.2866376237430182
 40
0.2904373371387953
 40
0.2942350560292278
 40
0.2980329623540969
 40
0.2997388177112637
 40
0.3014453478950638
 40
0.3031527499111982
 40
0.3048612204637714
 40
0.3065709558880846
 40
0.3082821520840618
 40
0.3099950044504188
 40
0.3136041855498274
 40
0.317207268459681
 40
0.3208060961591284
 40
0.3244025181690467
 40
0.3279983877223848
 40
0.3308245572820868
 40
0.3336524289988214
 40
0.3364828998312402
 40
0.3393168642701104
 40
0.3421552135032263
 40
0.3462690354120512
 40
0.3503750313130506
 40
0.3544759323059688
 40
0.3585744796756594
 40
0.3626734194291411
 40
0.3667754967854256
 40
0.3708834506732392
 40
0.3750000082915724
 40
0.3786864241703105
 40
0.3823663296591814
 40
0.3860416878874952
 40
0.3897144692762043
 40
0.393386648394313
 40
0.3962728211646364
 40
0.3991607991568815
 40
0.4020515379937182
 40
0.4049459905632838
 40
0.4078451060918028
 40
0.4114542875396197
 40
0.4150573706446165
 40
0.418656198429862
 40
0.4222526204604769
 40
0.4258484900138427
 40
0.4278670612512293
 40
0.4298863700428744
 40
0.4319067435804301
 40
0.4339285085386102
 40
0.4359519909182281
 40
0.4379775158908591
 40
0.4400054076454927
 40
0.4438846512345215
 40
0.4477574170048129
 40
0.451625997355187
 40
0.4554926921285437
 40
0.4593598045319456
 40
0.4624000717762325
 40
0.4654431331941121
 40
0.4684901006041262
 40
0.4715034606924187
 40
0.4743776503620157
 40
0.4786486966459763
 40
0.482915365010987
 40
0.4871807415462617
 40
0.4914479151438321
 40
0.4957199707976563
 40
0.4999999829448798
 40
0.5036584423394875
 40
0.5073115319510313
 40
0.5109611763982331
 40
0.5146093057524449
 40
0.5182578524894592
 40
0.5211261432825206
 40
0.5239968199276481
 40
0.5268708156414349
 40
0.5297861382350095
 40
0.5328337373582104
 40
0.5366376237665326
 40
0.5404373371620694
 40
0.5442350560524131
 40
0.5480329623773457
 40
0.5497388177345904
 40
0.5514453479184993
 40
0.5531527499347728
 40
0.5548612204875162
 40
0.5565709559120304
 40
0.5582821521082394
 40
0.5599950044748584
 40
0.5636041855742576
 40
0.5672072684841039
 40
0.5708060961835464
 40
0.5744025181934622
 40
0.5779983877468002
 40
0.5808245573065042
 40
0.5836524290232429
 40
0.5864828998556676
 40
0.5893168642945456
 40
0.5921552135276712
 40
0.5962690354369345
 40
0.6003750313382475
 40
0.6044759323313535
 40
0.6085744797011065
 40
0.612673419454526
 40
0.6167754968106235
 40
0.6208834506981263
 40
0.6250000083160262
 40
0.6286864241951784
 40
0.6323663296843598
 40
0.6360416879128798
 40
0.6397144693016906
 40
0.6433866484197953
 40
0.6462728211900415
 40
0.6491607991821448
 40
0.6520515380187741
 40
0.6549459905880669
 40
0.657845106116248
 40
0.6614542875641369
 40
0.6650573706691878
 40
0.6686561984544693
 40
0.6722526204851018
 40
0.6758484900384669
 40
0.6778670612758453
 40
0.6798863700674762
 40
0.6819067436050118
 40
0.6839285085631657
 40
0.6859519909427518
 40
0.6879775159153451
 40
0.6900054076699343
 40
0.6938846512587703
 40
0.6977574170289238
 40
0.7016259973792156
 40
0.7054926921525456
 40
0.709359804555976
 40
0.7124000718003237
 40
0.7154431332182977
 40
0.7184901006284401
 40
0.7215034607168623
 40
0.724377650386484
 40
0.7286486966704699
 40
0.7329153650354935
 40
0.7371807415707695
 40
0.7414479151683299
 40
0.7457199708221335
 40
0.7499999829693267
 40
0.7536584423640229
 40
0.7573115319756301
 40
0.76096117642287
 40
0.7646093057770945
 40
0.7682578525140953
 40
0.7711261433071279
 40
0.7739968199522097
 40
0.7768708156659342
 40
0.779786138259378
 40
0.7828337373822954
 40
0.7866376237903543
 40
0.7904373371857301
 40
0.7942350560760141
 40
0.798032962400989
 40
0.7997388177582857
 40
0.8014453479422669
 40
0.8031527499586334
 40
0.8048612205114897
 40
0.8065709559361376
 40
0.8082821521325
 40
0.8099950044992931
 40
0.8136041855985453
 40
0.8172072685082806
 40
0.8208060962076494
 40
0.8244025182175286
 40
0.827998387770868
 40
0.8308245573305998
 40
0.8336524290473901
 40
0.8364828998798904
 40
0.8393168643188675
 40
0.842155213552117
 40
0.8462690354611101
 40
0.8503750313622307
 40
0.8544759323552213
 40
0.8585744797249365
 40
0.8626734194783938
 40
0.866775496834605
 40
0.8708834507222959
 40
0.8750000083404574
 40
0.878686424218998
 40
0.8823663297077211
 40
0.8860416879359369
 40
0.8897144693245982
 40
0.8933866484427083
 40
0.8962728212130677
 40
0.8991607992053797
 40
0.9020515380423131
 40
0.9049459906120055
 40
0.9078451061406805
 40
0.9114542875881866
 40
0.9150573706929505
 40
0.9186561984780415
 40
0.9222526205085804
 40
0.9258484900619487
 40
0.9278670612993717
 40
0.9298863700910779
 40
0.9319067436287196
 40
0.9339285085870104
 40
0.9359519909667637
 40
0.937977515939555
 40
0.9400054076943731
 40
0.9438846512835158
 40
0.9477574170538878
 40
0.9516259974043099
 40
0.9554926921776822
 40
0.9593598045810678
 40
0.9624000718253198
 40
0.9654431332431456
 40
0.9684901006530872
 40
0.9715035915949285
 40
0.9743783089987768
 40
0.9786499159915307
 40
0.9829168765170448
 40
0.987182277349432
 40
0.9914492086477356
 40
0.9957207572494532
 40
0.9999999999999999
 40
0.9999999999999999
 40
0.9999999999999999
 40
0.9999999999999999
 10
412.0000000000005
 20
345.6330205658288
 30
0.0
 10
411.8953900475955
 20
345.633006510991
 30
0.0
 10
411.6863291338568
 20
345.6329784226768
 30
0.0
 10
411.3730852589173
 20
345.632750711578
 30
0.0
 10
411.0604823355841
 20
345.6323870591819
 30
0.0
 10
410.7485210576874
 20
345.6318742015545
 30
0.0
 10
410.4594536150049
 20
345.6312627623623
 30
0.0
 10
410.1931432332897
 20
345.6305862413587
 30
0.0
 10
409.9494053965464
 20
345.6298757348774
 30
0.0
 10
409.7050138212123
 20
345.6290713850982
 30
0.0
 10
409.4563864624371
 20
345.6281587320767
 30
0.0
 10
409.1825464174095
 20
345.6270459590105
 30
0.0
 10
408.8852306066436
 20
345.6257017339672
 30
0.0
 10
408.5687553710364
 20
345.6241078924938
 30
0.0
 10
408.254408655467
 20
345.6223606753185
 30
0.0
 10
407.9995688756818
 20
345.6208093644225
 30
0.0
 10
407.803093420645
 20
345.6195371630339
 30
0.0
 10
407.6640659521679
 20
345.6186032646402
 30
0.0
 10
407.525467520859
 20
345.6176384633758
 30
0.0
 10
407.3872978528962
 20
345.6166427576567
 30
0.0
 10
407.2495570709095
 20
345.6156161492039
 30
0.0
 10
407.1122449884217
 20
345.6145586330748
 30
0.0
 10
406.9248983940366
 20
345.6130689708246
 30
0.0
 10
406.6887055405443
 20
345.6110983715137
 30
0.0
 10
406.4053208589636
 20
345.6085801324326
 30
0.0
 10
406.1251343558146
 20
345.6059346938995
 30
0.0
 10
405.8481477644976
 20
345.6031620637968
 30
0.0
 10
405.5939241459097
 20
345.6004694448245
 30
0.0
 10
405.3617302097773
 20
345.5978869089914
 30
0.0
 10
405.1508519555319
 20
345.5954409816262
 30
0.0
 10
404.9419490240339
 20
345.5929165544964
 30
0.0
 10
404.7350210728413
 20
345.5903136131947
 30
0.0
 10
404.4994989378209
 20
345.5872322611923
 30
0.0
 10
404.2370963258508
 20
345.5836335595039
 30
0.0
 10
403.9498947941108
 20
345.5794716864503
 30
0.0
 10
403.6684067823965
 20
345.5751651625501
 30
0.0
 10
403.3926338072272
 20
345.5707139918429
 30
0.0
 10
403.1225760037995
 20
345.5661181797757
 30
0.0
 10
402.8582335868867
 20
345.5613777351271
 30
0.0
 10
402.5996076459106
 20
345.556492656512
 30
0.0
 10
402.3557341692303
 20
345.5516427369541
 30
0.0
 10
402.1262576616697
 20
345.5468522607807
 30
0.0
 10
401.9108647165838
 20
345.5421431837446
 30
0.0
 10
401.7011272794772
 20
345.5373396464889
 30
0.0
 10
401.4970461722785
 20
345.532441645324
 30
0.0
 10
401.3127999075732
 20
345.5278059203299
 30
0.0
 10
401.1470736441399
 20
345.523455010302
 30
0.0
 10
400.9986426326255
 20
345.5194082047247
 30
0.0
 10
400.8537029986699
 20
345.515303105597
 30
0.0
 10
400.7122549517306
 20
345.5111396981192
 30
0.0
 10
400.5631242332152
 20
345.5065761242876
 30
0.0
 10
400.4076492200367
 20
345.5016032255962
 30
0.0
 10
400.2473456837785
 20
345.4962109426311
 30
0.0
 10
400.0932505503054
 20
345.4907524026447
 30
0.0
 10
399.9453652157004
 20
345.4852276244677
 30
0.0
 10
399.8244168430185
 20
345.4804545764594
 30
0.0
 10
399.7276362038289
 20
345.4764634356032
 30
0.0
 10
399.652812450232
 20
345.4732762927652
 30
0.0
 10
399.5799439531398
 20
345.4700682967464
 30
0.0
 10
399.5090305886672
 20
345.4668394420166
 30
0.0
 10
399.4400723262686
 20
345.4635897328163
 30
0.0
 10
399.3730694318757
 20
345.4603191593209
 30
0.0
 10
399.288255467141
 20
345.4560276449077
 30
0.0
 10
399.1884683187748
 20
345.4506980020836
 30
0.0
 10
399.0774798229884
 20
345.4443083939047
 30
0.0
 10
398.9742648487863
 20
345.4378724448558
 30
0.0
 10
398.8788248666081
 20
345.431390189243
 30
0.0
 10
398.7974265835551
 20
345.4253283297599
 30
0.0
 10
398.7282471321182
 20
345.4196980525209
 30
0.0
 10
398.6696259014926
 20
345.414507982362
 30
0.0
 10
398.6160321076334
 20
345.4093113839289
 30
0.0
 10
398.5681659457658
 20
345.4041918095551
 30
0.0
 10
398.518988786454
 20
345.398351489737
 30
0.0
 10
398.4709598431274
 20
345.3917664949861
 30
0.0
 10
398.4268272724265
 20
345.3843519294912
 30
0.0
 10
398.3925016414447
 20
345.376918043978
 30
0.0
 10
398.3679827031205
 20
345.3694648715505
 30
0.0
 10
398.3532714632595
 20
345.3619924266375
 30
0.0
 10
398.3486057735975
 20
345.3548696823922
 30
0.0
 10
398.352373227408
 20
345.3481080863139
 30
0.0
 10
398.3631219309428
 20
345.3417175183958
 30
0.0
 10
398.3810483613602
 20
345.3353396970381
 30
0.0
 10
398.4061533182989
 20
345.3289746289423
 30
0.0
 10
398.436128977599
 20
345.3230763942209
 30
0.0
 10
398.4692874505358
 20
345.3176422441563
 30
0.0
 10
398.5041152496859
 20
345.3126684566582
 30
0.0
 10
398.5435432074708
 20
345.3076812010669
 30
0.0
 10
398.5882770482881
 20
345.3026077112071
 30
0.0
 10
398.6428166697813
 20
345.2970200481044
 30
0.0
 10
398.7086974422202
 20
345.2909536417862
 30
0.0
 10
398.786811927767
 20
345.2844963080523
 30
0.0
 10
398.8724433985729
 20
345.2780824045014
 30
0.0
 10
398.9484734599732
 20
345.2728826753796
 30
0.0
 10
399.0108243083637
 20
345.2688738069618
 30
0.0
 10
399.0565948582194
 20
345.2660371023593
 30
0.0
 10
399.1038799640556
 20
345.2632091517947
 30
0.0
 10
399.152679703482
 20
345.2603899496808
 30
0.0
 10
399.2029939921674
 20
345.25757949852
 30
0.0
 10
399.2548230723369
 20
345.2547777945072
 30
0.0
 10
399.3278317216408
 20
345.250955190583
 30
0.0
 10
399.4244111939397
 20
345.2461359317562
 30
0.0
 10
399.5478306025515
 20
345.2403537748959
 30
0.0
 10
399.6774840821328
 20
345.2346368733954
 30
0.0
 10
399.8133712463564
 20
345.228985262623
 30
0.0
 10
399.9453370488332
 20
345.2237981056037
 30
0.0
 10
400.0719076543066
 20
345.2190604403454
 30
0.0
 10
400.1917830510315
 20
345.2147576984414
 30
0.0
 10
400.3155057371526
 20
345.2104952608541
 30
0.0
 10
400.4430764187753
 20
345.2062731205966
 30
0.0
 10
400.5940941059665
 20
345.2014675470523
 30
0.0
 10
400.7704672062964
 20
345.1961135065501
 30
0.0
 10
400.9744414495735
 20
345.1902534710052
 30
0.0
 10
401.1855050602084
 20
345.1845100136352
 30
0.0
 10
401.4036578402267
 20
345.1788831653832
 30
0.0
 10
401.628899522661
 20
345.1733729290077
 30
0.0
 10
401.8612296772774
 20
345.1679793088908
 30
0.0
 10
402.1006483719557
 20
345.1627023272612
 30
0.0
 10
402.3383439141001
 20
345.157726353654
 30
0.0
 10
402.573126123905
 20
345.1530441345762
 30
0.0
 10
402.8039189454655
 20
345.1486492753054
 30
0.0
 10
403.0393412815633
 20
345.1443698105368
 30
0.0
 10
403.2793933130275
 20
345.140205757041
 30
0.0
 10
403.5065911361098
 20
345.1364464119787
 30
0.0
 10
403.7198301198788
 20
345.133064947442
 30
0.0
 10
403.9181648827856
 20
345.1300363737496
 30
0.0
 10
404.1193566244328
 20
345.1270790378269
 30
0.0
 10
404.3234060701528
 20
345.1241929439478
 30
0.0
 10
404.5470677501189
 20
345.1211500934933
 30
0.0
 10
404.7907905245801
 20
345.1179777945918
 30
0.0
 10
405.0550674074386
 20
345.1147069749173
 30
0.0
 10
405.3225915603566
 20
345.1115628309635
 30
0.0
 10
405.5933620604361
 20
345.1085453912161
 30
0.0
 10
405.8272901123242
 20
345.1060775709411
 30
0.0
 10
406.0228967359503
 20
345.104102867038
 30
0.0
 10
406.1790992534718
 20
345.1025761695548
 30
0.0
 10
406.3363237896158
 20
345.1010893669585
 30
0.0
 10
406.4945706154201
 20
345.0996424567214
 30
0.0
 10
406.6538395230558
 20
345.0982354382203
 30
0.0
 10
406.8141309940299
 20
345.096868316881
 30
0.0
 10
407.024458986662
 20
345.0951377799824
 30
0.0
 10
407.2856658634799
 20
345.0931017315226
 30
0.0
 10
407.5988218575321
 20
345.0908371317259
 30
0.0
 10
407.9142490270269
 20
345.0887311422002
 30
0.0
 10
408.2319456906191
 20
345.0867837929483
 30
0.0
 10
408.5290386545299
 20
345.0851229493271
 30
0.0
 10
408.8049796850412
 20
345.0837114177035
 30
0.0
 10
409.0593460771774
 20
345.0825153151163
 30
0.0
 10
409.3140324213576
 20
345.0814217919199
 30
0.0
 10
409.5649438007609
 20
345.0804451348378
 30
0.0
 10
409.8511790607206
 20
345.0794417282757
 30
0.0
 10
410.1739109903205
 20
345.0784617498146
 30
0.0
 10
410.5373003505009
 20
345.0775612726081
 30
0.0
 10
410.9016365886955
 20
345.0768608953628
 30
0.0
 10
411.2669180824765
 20
345.0763606130375
 30
0.0
 10
411.6331441246778
 20
345.0760604461549
 30
0.0
 10
411.9822312661582
 20
345.0759652478213
 30
0.0
 10
412.3136184626559
 20
345.0760421186274
 30
0.0
 10
412.6268214936875
 20
345.0762614342572
 30
0.0
 10
412.9393998132198
 20
345.0766272036137
 30
0.0
 10
413.2513530928031
 20
345.0771394430127
 30
0.0
 10
413.5404267739286
 20
345.0777510638071
 30
0.0
 10
413.8067555718201
 20
345.0784276264592
 30
0.0
 10
414.0505219068652
 20
345.079138249901
 30
0.0
 10
414.2949483158918
 20
345.0799427345869
 30
0.0
 10
414.5436010839133
 20
345.0808554800574
 30
0.0
 10
414.8174535869365
 20
345.0819683018399
 30
0.0
 10
415.1147693921383
 20
345.0833125274985
 30
0.0
 10
415.4312446293582
 20
345.0849063687956
 30
0.0
 10
415.7455913445005
 20
345.0866535860184
 30
0.0
 10
416.0004311243881
 20
345.0882048969032
 30
0.0
 10
416.1969065794087
 20
345.089477098293
 30
0.0
 10
416.3359340478827
 20
345.0904109966864
 30
0.0
 10
416.4745324791841
 20
345.0913757979509
 30
0.0
 10
416.6127021471386
 20
345.0923715036699
 30
0.0
 10
416.7504429291154
 20
345.0933981121228
 30
0.0
 10
416.8877550115919
 20
345.0944556282518
 30
0.0
 10
417.0751016059735
 20
345.095945290502
 30
0.0
 10
417.3112944594698
 20
345.0979158898131
 30
0.0
 10
417.5946791410612
 20
345.1004341288943
 30
0.0
 10
417.8748656442175
 20
345.1030795674276
 30
0.0
 10
418.1518522355379
 20
345.1058521975303
 30
0.0
 10
418.4060758541261
 20
345.1085448165027
 30
0.0
 10
418.6382697902561
 20
345.1111273523358
 30
0.0
 10
418.8491480444966
 20
345.1135732797008
 30
0.0
 10
419.0580509759874
 20
345.1160977068305
 30
0.0
 10
419.2649789271706
 20
345.118700648132
 30
0.0
 10
419.5005010621923
 20
345.1217820001344
 30
0.0
 10
419.7629036741728
 20
345.1253807018228
 30
0.0
 10
420.0501052059305
 20
345.1295425748767
 30
0.0
 10
420.3315932176555
 20
345.1338490987769
 30
0.0
 10
420.6073661928285
 20
345.1383002694842
 30
0.0
 10
420.8774239962527
 20
345.1428960815513
 30
0.0
 10
421.141766413155
 20
345.1476365261998
 30
0.0
 10
421.4003923541136
 20
345.1525216048148
 30
0.0
 10
421.6442658307869
 20
345.1573715243726
 30
0.0
 10
421.8737423383523
 20
345.1621620005464
 30
0.0
 10
422.0891352834561
 20
345.166871077583
 30
0.0
 10
422.2988727205744
 20
345.1716746148391
 30
0.0
 10
422.5029538277789
 20
345.1765726160042
 30
0.0
 10
422.6872000924848
 20
345.1812083409982
 30
0.0
 10
422.852926355914
 20
345.1855592510261
 30
0.0
 10
423.0013573674203
 20
345.1896060566032
 30
0.0
 10
423.1462970013644
 20
345.1937111557306
 30
0.0
 10
423.2877450482883
 20
345.1978745632079
 30
0.0
 10
423.4368757667999
 20
345.2024381370393
 30
0.0
 10
423.5923507799854
 20
345.2074110357311
 30
0.0
 10
423.752654316261
 20
345.2128033186966
 30
0.0
 10
423.9067494497455
 20
345.2182618586835
 30
0.0
 10
424.0546347843562
 20
345.2237866368607
 30
0.0
 10
424.175583157039
 20
345.228559684869
 30
0.0
 10
424.272363796226
 20
345.2325508257252
 30
0.0
 10
424.3471875498184
 20
345.2357379685629
 30
0.0
 10
424.4200560469044
 20
345.2389459645815
 30
0.0
 10
424.4909694113689
 20
345.2421748193111
 30
0.0
 10
424.5599276737575
 20
345.245424528511
 30
0.0
 10
424.6269305681387
 20
345.2486951020061
 30
0.0
 10
424.7117445328631
 20
345.2529866164191
 30
0.0
 10
424.8115316812217
 20
345.2583162592432
 30
0.0
 10
424.9225201770055
 20
345.2647058674222
 30
0.0
 10
425.0257351512059
 20
345.2711418164712
 30
0.0
 10
425.1211751333836
 20
345.2776240720841
 30
0.0
 10
425.2025734164372
 20
345.2836859315671
 30
0.0
 10
425.2717528678755
 20
345.2893162088061
 30
0.0
 10
425.3303740985031
 20
345.2945062789648
 30
0.0
 10
425.3839678923651
 20
345.2997028773978
 30
0.0
 10
425.4318340542374
 20
345.3048224517716
 30
0.0
 10
425.4810112135549
 20
345.3106627715897
 30
0.0
 10
425.5290401568867
 20
345.3172477663407
 30
0.0
 10
425.5731727275908
 20
345.3246623318357
 30
0.0
 10
425.6074983585729
 20
345.3320962173489
 30
0.0
 10
425.6320172968945
 20
345.3395493897764
 30
0.0
 10
425.6467285367503
 20
345.3470218346892
 30
0.0
 10
425.6513942264041
 20
345.3541445789343
 30
0.0
 10
425.6476267725854
 20
345.3609061750125
 30
0.0
 10
425.6368780690456
 20
345.3672967429303
 30
0.0
 10
425.618951638625
 20
345.373674564288
 30
0.0
 10
425.5938466816853
 20
345.3800396323838
 30
0.0
 10
425.5638710223863
 20
345.3859378671052
 30
0.0
 10
425.5307125494519
 20
345.3913720171699
 30
0.0
 10
425.4958847503054
 20
345.396345804668
 30
0.0
 10
425.456456792526
 20
345.4013330602594
 30
0.0
 10
425.4117229517209
 20
345.4064065501188
 30
0.0
 10
425.3571833302428
 20
345.4119942132207
 30
0.0
 10
425.2913025578188
 20
345.4180606195379
 30
0.0
 10
425.2131880722822
 20
345.4245179532712
 30
0.0
 10
425.1275566014798
 20
345.4309318568218
 30
0.0
 10
425.0515265400785
 20
345.4361315859437
 30
0.0
 10
424.9891756916844
 20
345.4401404543616
 30
0.0
 10
424.9434051418241
 20
345.4429771589644
 30
0.0
 10
424.8961200359818
 20
345.4458051095294
 30
0.0
 10
424.8473202965482
 20
345.4486243116438
 30
0.0
 10
424.7970060078541
 20
345.4514347628052
 30
0.0
 10
424.7451769276747
 20
345.4542364668187
 30
0.0
 10
424.6721682783675
 20
345.4580590707432
 30
0.0
 10
424.5755888060712
 20
345.4628783295702
 30
0.0
 10
424.4521693974668
 20
345.4686604864303
 30
0.0
 10
424.3225159178904
 20
345.4743773879307
 30
0.0
 10
424.1866287536692
 20
345.4800289987031
 30
0.0
 10
424.0546629511924
 20
345.4852161557223
 30
0.0
 10
423.9280923457172
 20
345.4899538209807
 30
0.0
 10
423.8082169489888
 20
345.4942565628848
 30
0.0
 10
423.6844942628627
 20
345.4985190004721
 30
0.0
 10
423.5569235812335
 20
345.5027411407298
 30
0.0
 10
423.4059058940337
 20
345.5075467142743
 30
0.0
 10
423.2295327936948
 20
345.5129007547766
 30
0.0
 10
423.0255585504103
 20
345.5187607903217
 30
0.0
 10
422.8144949397711
 20
345.5245042476917
 30
0.0
 10
422.5963421597513
 20
345.5301310959438
 30
0.0
 10
422.3711004773186
 20
345.5356413323193
 30
0.0
 10
422.1387703227068
 20
345.5410349524361
 30
0.0
 10
421.8993516280359
 20
345.5463119340656
 30
0.0
 10
421.6616560859015
 20
345.5512879076725
 30
0.0
 10
421.426873876107
 20
345.55597012675
 30
0.0
 10
421.1960810545555
 20
345.5603649860207
 30
0.0
 10
420.9606587184635
 20
345.5646444507892
 30
0.0
 10
420.7206066870022
 20
345.568808504285
 30
0.0
 10
420.4934088639203
 20
345.5725678493472
 30
0.0
 10
420.2801698801491
 20
345.575949313884
 30
0.0
 10
420.0818351172383
 20
345.5789778875765
 30
0.0
 10
419.880643375585
 20
345.5819352234992
 30
0.0
 10
419.6765939298572
 20
345.5848213173786
 30
0.0
 10
419.4529322498934
 20
345.5878641678331
 30
0.0
 10
419.2092094754433
 20
345.5910364667346
 30
0.0
 10
418.9449325926028
 20
345.5943072864089
 30
0.0
 10
418.6774084396967
 20
345.5974514303625
 30
0.0
 10
418.406637939623
 20
345.6004688701099
 30
0.0
 10
418.1727098877358
 20
345.6029366903849
 30
0.0
 10
417.9771032641072
 20
345.604911394288
 30
0.0
 10
417.8209007465809
 20
345.6064380917712
 30
0.0
 10
417.6636762104303
 20
345.6079248943676
 30
0.0
 10
417.5054293846175
 20
345.6093718046047
 30
0.0
 10
417.3461604769713
 20
345.610778823106
 30
0.0
 10
417.1858690059847
 20
345.6121459444453
 30
0.0
 10
416.9755410133414
 20
345.6138764813441
 30
0.0
 10
416.7143341365123
 20
345.6159125298039
 30
0.0
 10
416.4011781424613
 20
345.6181771296012
 30
0.0
 10
416.0857509729365
 20
345.6202831191252
 30
0.0
 10
415.7680543094417
 20
345.6222304683836
 30
0.0
 10
415.4709613451901
 20
345.6238913119824
 30
0.0
 10
415.1950203156993
 20
345.6253028436725
 30
0.0
 10
414.9406539199718
 20
345.626498946025
 30
0.0
 10
414.6859639283101
 20
345.6275924858154
 30
0.0
 10
414.4350339842324
 20
345.6285692096192
 30
0.0
 10
414.1487644968796
 20
345.6295727411971
 30
0.0
 10
413.8259937944727
 20
345.6305529293565
 30
0.0
 10
413.4625797607962
 20
345.6314532883951
 30
0.0
 10
413.0982414184454
 20
345.632154488717
 30
0.0
 10
412.7329805210329
 20
345.6326516796804
 30
0.0
 10
412.3667972772271
 20
345.6329629795281
 30
0.0
 10
412.1223390816362
 20
345.6330013588837
 30
0.0
 10
412.0000000000005
 20
345.6330205658288
 30
0.0
  0
ARC
  5
84
330
1F
100
AcDbEntity
  8
0
  6
Continuous
 62
     7
370
    30
100
AcDbCircle
 10
415.0189315356
 20
179.6044751154
 30
0.0
 40
166.1324921517472
100
AcDbArc
 50
86.7336569451
 51
91.0412265203
  0
ARC
  5
85
330
1F
100
AcDbEntity
  8
0
  6
Continuous
 62
     7
370
    30
100
AcDbCircle
 10
409.0886140991
 20
174.0229078511
 30
0.0
 40
171.7113106177034
100
AcDbArc
 50
89.0284966237
 51
93.1959940157
  0
LWPOLYLINE
  5
86
330
1F
100
AcDbEntity
  8
0
  6
Continuous
 62
     7
370
    30
100
AcDbPolyline
 90
       10
 70
   128
 43
0.0
 10
412.0
 20
345.5993541066
 10
411.6727881462
 20
345.5994415055
 10
411.345800547
 20
345.5997036423
 10
411.0192613034
 20
345.6001403373
 10
410.6933942092
 20
345.6007512913
 10
410.3684225972
 20
345.6015360856
 10
410.044569187
 20
345.6024941822
 10
409.7220559313
 20
345.6036249246
 10
409.4011038648
 20
345.6049275377
 10
409.277905216
 20
345.6054751138
  0
ARC
  5
87
330
1F
100
AcDbEntity
  8
0
  6
Continuous
 62
     7
370
    30
100
AcDbCircle
 10
410.0641282718
 20
703.2433131946
 30
0.0
 40
357.6360068572185
100
AcDbArc
 50
268.9141990024
 51
269.5788417207
  0
ARC
  5
88
330
1F
100
AcDbEntity
  8
0
  6
Continuous
 62
     7
370
    30
100
AcDbCircle
 10
413.9357614015
 20
703.2500731878
 30
0.0
 40
357.6427677272339
100
AcDbArc
 50
270.4211070274
 51
271.0857981471
  0
LWPOLYLINE
  5
89
330
1F
100
AcDbEntity
  8
0
  6
Continuous
 62
     7
370
    30
100
AcDbPolyline
 90
       10
 70
   128
 43
0.0
 10
414.7251523504
 20
345.6054890418
 10
414.5988961352
 20
345.6049275377
 10
414.2779440687
 20
345.6036249246
 10
413.955430813
 20
345.6024941822
 10
413.6315774028
 20
345.6015360856
 10
413.3066057908
 20
345.6007512913
 10
412.9807386966
 20
345.6001403373
 10
412.654199453
 20
345.5997036423
 10
412.3272118538
 20
345.5994415055
 10
412.0
 20
345.5993541066
  0
LINE
  5
8A
330
1F
100
AcDbEntity
  8
0
  6
Continuous
 62
     7
370
    30
100
AcDbLine
 10
410.85
 20
345.7034140714
 30
0.0
 11
410.85
 21
345.7084535851
 31
0.0
  0
LINE
  5
8B
330
1F
100
AcDbEntity
  8
0
  6
Continuous
 62
     7
370
    30
100
AcDbLine
 10
410.85
 20
345.7034140714
 30
0.0
 11
413.15
 21
345.7034140714
 31
0.0
  0
LINE
  5
8C
330
1F
100
AcDbEntity
  8
0
  6
Continuous
 62
     7
370
    30
100
AcDbLine
 10
413.15
 20
345.7084535851
 30
0.0
 11
413.15
 21
345.7034140714
 31
0.0
  0
SPLINE
  5
8D
330
1F
100
AcDbEntity
  8
0
  6
Continuous
 62
     7
370
    30
100
AcDbSpline
210
0.0
220
0.0
230
1.0
 70
     8
 71
     3
 72
    44
 73
    40
 74
     0
 42
0.000000001
 43
0.00000001
 40
0.0
 40
0.0
 40
0.0
 40
0.0
 40
0.0133705649392989
 40
0.0447807243862621
 40
0.0761419218287316
 40
0.1074716730499825
 40
0.1387875465994067
 40
0.1701071343802089
 40
0.1947296641923782
 40
0.2193738594651046
 40
0.2440482134586335
 40
0.2684657672959913
 40
0.2918188512289602
 40
0.3265244372379905
 40
0.3611967736030494
 40
0.3958596774747953
 40
0.4305369854392335
 40
0.4652525044117002
 40
0.5000299628355597
 40
0.537178995870207
 40
0.5742696824126449
 40
0.6113310711808423
 40
0.6483922797839619
 40
0.6717013255461366
 40
0.6950290252263376
 40
0.7183825813524936
 40
0.7420514999749092
 40
0.7667280444185096
 40
0.7975313072360571
 40
0.8283032020613961
 40
0.8590603697684073
 40
0.8898194751333759
 40
0.9059380193095083
 40
0.9220640588481629
 40
0.9381999823224627
 40
0.9543481739195531
 40
0.9705110123975608
 40
0.9866908700544618
 40
1.0
 40
1.0
 40
1.0
 40
1.0
 10
416.5626346042715
 20
345.7191272968988
 30
0.0
 10
416.5238855770155
 20
345.7188158946145
 30
0.0
 10
416.3941072529388
 20
345.7177729454252
 30
0.0
 10
416.1715870922647
 20
345.716097122252
 30
0.0
 10
415.8944531629166
 20
345.7141488201422
 30
0.0
 10
415.6153659255139
 20
345.7123394338386
 30
0.0
 10
415.3343938337353
 20
345.7106655191925
 30
0.0
 10
415.0717401088665
 20
345.7092379125527
 30
0.0
 10
414.8278676003306
 20
345.7080244327639
 30
0.0
 10
414.6031286668678
 20
345.706996059602
 30
0.0
 10
414.3781193937567
 20
345.7060555416022
 30
0.0
 10
414.1562554299759
 20
345.7052144875869
 30
0.0
 10
413.9028750351316
 20
345.7043492502197
 30
0.0
 10
413.6169954423476
 20
345.7035035655355
 30
0.0
 10
413.2951435881596
 20
345.7027264943264
 30
0.0
 10
412.9724904819063
 20
345.7021220941782
 30
0.0
 10
412.6490376297322
 20
345.7016903592565
 30
0.0
 10
412.3247849818999
 20
345.7014313119438
 30
0.0
 10
411.9926133768251
 20
345.7013429734869
 30
0.0
 10
411.6530407714066
 20
345.7014390063987
 30
0.0
 10
411.3066239308473
 20
345.701734831003
 30
0.0
 10
410.9610230217509
 20
345.7022281888113
 30
0.0
 10
410.6589590634003
 20
345.7028335013985
 30
0.0
 10
410.4001464186728
 20
345.7034740827369
 30
0.0
 10
410.1842145592527
 20
345.7040873387025
 30
0.0
 10
409.9677368731425
 20
345.7047814102469
 30
0.0
 10
409.7477526609735
 20
345.7055679311763
 30
0.0
 10
409.5057200849576
 20
345.7065256196703
 30
0.0
 10
409.2430814825824
 20
345.7076813426299
 30
0.0
 10
408.9634129932237
 20
345.709051510194
 30
0.0
 10
408.685516556145
 20
345.7105533968994
 30
0.0
 10
408.4532467269498
 20
345.7119275389551
 30
0.0
 10
408.2657639976666
 20
345.7131106350383
 30
0.0
 10
408.1223470109099
 20
345.714054780013
 30
0.0
 10
407.9794207138617
 20
345.7150352824928
 30
0.0
 10
407.8369634975811
 20
345.7160510390258
 30
0.0
 10
407.6950552783811
 20
345.7171061785032
 30
0.0
 10
407.5618317058724
 20
345.7181210191455
 30
0.0
 10
407.4766241305563
 20
345.7188209661185
 30
0.0
 10
407.4381677851736
 20
345.7191368699855
 30
0.0
  0
CIRCLE
  5
8E
330
1F
100
AcDbEntity
  8
0
  6
Continuous
 62
     7
370
    30
100
AcDbCircle
 10
412.0
 20
367.0
 30
0.0
 40
35.50899815166912
  0
CIRCLE
  5
8F
330
1F
100
AcDbEntity
  8
0
  6
Continuous
 62
     7
370
    30
100
AcDbCircle
 10
412.0
 20
367.0
 30
0.0
 40
37.24999999788088
  0
CIRCLE
  5
90
330
1F
100
AcDbEntity
  8
0
  6
Continuous
 62
     7
370
    30
100
AcDbCircle
 10
412.0
 20
367.0
 30
0.0
 40
35.50000000001029
  0
CIRCLE
  5
91
330
1F
100
AcDbEntity
  8
0
  6
Continuous
 62
     7
370
    30
100
AcDbCircle
 10
412.0
 20
367.0
 30
0.0
 40
34.99999999999983
  0
LINE
  5
92
330
1F
100
AcDbEntity
  8
0
  6
Continuous
 62
     7
370
    30
100
AcDbLine
 10
544.4172125709
 20
341.8232339658
 30
0.0
 11
717.41534729
 21
345.4470283002
 31
0.0
  0
LINE
  5
93
330
1F
100
AcDbEntity
  8
0
  6
Continuous
 62
     7
370
    30
100
AcDbLine
 10
726.4909949491
 20
345.6371360179
 30
0.0
 11
742.4089950807
 21
345.9705705881
 31
0.0
  0
LINE
  5
94
330
1F
100
AcDbEntity
  8
0
  6
Continuous
 62
     7
370
    30
100
AcDbLine
 10
751.4864069222
 20
346.1607152602
 30
0.0
 11
756.1386673058
 21
346.2581662232
 31
0.0
  0
LINE
  5
95
330
1F
100
AcDbEntity
  8
0
  6
Continuous
 62
     7
370
    30
100
AcDbLine
 10
783.6326400895
 20
346.8340828535
 30
0.0
 11
790.5428670906
 21
346.9788314746
 31
0.0
  0
LINE
  5
96
330
1F
100
AcDbEntity
  8
0
  6
Continuous
 62
     7
370
    30
100
AcDbLine
 10
790.5428670906
 20
387.0211685254
 30
0.0
 11
544.4172125709
 21
392.1767660342
 31
0.0
  0
SPLINE
  5
97
330
1F
100
AcDbEntity
  8
0
  6
Continuous
 62
     7
370
    30
100
AcDbSpline
210
0.0
220
0.0
230
1.0
 70
     8
 71
     3
 72
    88
 73
    84
 74
     0
 42
0.000000001
 43
0.00000001
 40
0.0
 40
0.0
 40
0.0
 40
0.0
 40
0.0004450478448184
 40
0.0049317348428525
 40
0.0099827718702963
 40
0.0145098533968982
 40
0.0195132342506134
 40
0.0250222775239781
 40
0.0310580429097135
 40
0.0374527398568915
 40
0.0537530428550857
 40
0.0704138842008854
 40
0.0874442911004231
 40
0.1048526972213878
 40
0.1226470960068119
 40
0.1328061327221479
 40
0.1430905219441725
 40
0.15350160092809
 40
0.1636911730662272
 40
0.1730132869788341
 40
0.1814592265643849
 40
0.1890343151858308
 40
0.1957432919421227
 40
0.2015903165608064
 40
0.2065789802154174
 40
0.2107123210060126
 40
0.2140204777737607
 40
0.216746307750157
 40
0.2190488813676423
 40
0.2221233857160427
 40
0.2259986376294835
 40
0.2306725430682098
 40
0.2361426160187986
 40
0.242406006641028
 40
0.2497061625071757
 40
0.2578457440576948
 40
0.2668206849334651
 40
0.2766267566941549
 40
0.2869515798246058
 40
0.2972066126691831
 40
0.3073789421158197
 40
0.3258175412722524
 40
0.3439917175620563
 40
0.361910565638289
 40
0.3819745075869097
 40
0.4017345502900929
 40
0.4212045982319657
 40
0.4403985224687034
 40
0.4593300410121568
 40
0.4780042601930615
 40
0.4985941382501679
 40
0.5188539677294496
 40
0.5387995751817424
 40
0.5584454144901364
 40
0.5778044433622176
 40
0.5968880256654009
 40
0.60800910275304
 40
0.6190396215580095
 40
0.6299810810047151
 40
0.6408347707851703
 40
0.6516017715110556
 40
0.6625141169848504
 40
0.6741038800398627
 40
0.6864069842944077
 40
0.6996852618360359
 40
0.7137430099188619
 40
0.7286041475008769
 40
0.7442953931611362
 40
0.7608464726580095
 40
0.7744755889704147
 40
0.7886732442552943
 40
0.8034582392605231
 40
0.8188507846877314
 40
0.8348725511121564
 40
0.852578728277592
 40
0.871048344169834
 40
0.8903129522727642
 40
0.9104061447476184
 40
0.9313635791913528
 40
0.953222994497981
 40
0.9710570479736056
 40
0.9894927018542244
 40
1.0
 40
1.0
 40
1.0
 40
1.0
 10
796.4169463870913
 20
381.0730108581302
 30
0.0
 10
796.4169409122117
 20
381.0738213943346
 30
0.0
 10
796.4168802431037
 20
381.0828032368198
 30
0.0
 10
796.4166590923284
 20
381.1068146144798
 30
0.0
 10
796.4161919860854
 20
381.1433456087532
 30
0.0
 10
796.4154842373262
 20
381.1844501935702
 30
0.0
 10
796.4145243873138
 20
381.22839658429
 30
0.0
 10
796.4131766569624
 20
381.2780404949399
 30
0.0
 10
796.4113593603279
 20
381.3328065212331
 30
0.0
 10
796.4078345867352
 20
381.4212622858134
 30
0.0
 10
796.4014908761317
 20
381.542855746814
 30
0.0
 10
796.390498841555
 20
381.6981697810482
 30
0.0
 10
796.3760836442862
 20
381.8574287949032
 30
0.0
 10
796.3579132913696
 20
382.0204898931353
 30
0.0
 10
796.3389923488675
 20
382.1621004710899
 30
0.0
 10
796.3208867247262
 20
382.2813144005164
 30
0.0
 10
796.3049871543404
 20
382.3773748367853
 30
0.0
 10
796.287748119932
 20
382.4733476575237
 30
0.0
 10
796.2697561774829
 20
382.5661024765795
 30
0.0
 10
796.2517917707428
 20
382.6525309090278
 30
0.0
 10
796.2345428618671
 20
382.7306709059223
 30
0.0
 10
796.218284545989
 20
382.8005752305821
 30
0.0
 10
796.2032573031124
 20
382.8623376384119
 30
0.0
 10
796.1896759587154
 20
382.9160448714378
 30
0.0
 10
796.1777290625172
 20
382.9617756095598
 30
0.0
 10
796.1675558210721
 20
382.9996835051867
 30
0.0
 10
796.1590652043989
 20
383.0306448548197
 30
0.0
 10
796.1519905131927
 20
383.0559999019215
 30
0.0
 10
796.145022368972
 20
383.0806185240725
 30
0.0
 10
796.136953488521
 20
383.1086973940883
 30
0.0
 10
796.126633696876
 20
383.1439197505371
 30
0.0
 10
796.1139146406456
 20
383.1863205714456
 30
0.0
 10
796.0986488782318
 20
383.2358288285753
 30
0.0
 10
796.0804269464734
 20
383.293101273602
 30
0.0
 10
796.0589696598538
 20
383.3581865810697
 30
0.0
 10
796.033955491775
 20
383.4311093334452
 30
0.0
 10
796.0052957133057
 20
383.5111394935633
 30
0.0
 10
795.97302113372
 20
383.5971944879824
 30
0.0
 10
795.9378749550824
 20
383.686476689449
 30
0.0
 10
795.9007921933824
 20
383.7762250655128
 30
0.0
 10
795.8520163606573
 20
383.8888440796753
 30
0.0
 10
795.7900620988324
 20
384.0229820631764
 30
0.0
 10
795.7129846279198
 20
384.1769875258246
 30
0.0
 10
795.6286464830941
 20
384.3330005962081
 30
0.0
 10
795.5365438845483
 20
384.4904030816513
 30
0.0
 10
795.4361837812975
 20
384.6485071845097
 30
0.0
 10
795.3317149996841
 20
384.8006055034934
 30
0.0
 10
795.2233598497874
 20
384.9467146810483
 30
0.0
 10
795.1113568645969
 20
385.0868432234726
 30
0.0
 10
794.9915005024077
 20
385.2261838729223
 30
0.0
 10
794.8635840698621
 20
385.3639615393781
 30
0.0
 10
794.7274584863619
 20
385.4993874011157
 30
0.0
 10
794.5883346394075
 20
385.62736482459
 30
0.0
 10
794.4465563738571
 20
385.748048064484
 30
0.0
 10
794.3024627524559
 20
385.8616044013185
 30
0.0
 10
794.1760172601432
 20
385.9538859702208
 30
0.0
 10
794.0686736485278
 20
386.0275907683121
 30
0.0
 10
793.9813050033767
 20
386.0849255202745
 30
0.0
 10
793.8934891207173
 20
386.139998299775
 30
0.0
 10
793.8052891393285
 20
386.192852054303
 30
0.0
 10
793.7161342554971
 20
386.2438929366526
 30
0.0
 10
793.6239485898335
 20
386.2942764197014
 30
0.0
 10
793.5264567301949
 20
386.3450193934864
 30
0.0
 10
793.421208587296
 20
386.3969859384425
 30
0.0
 10
793.3077565916473
 20
386.4498716176346
 30
0.0
 10
793.185689292505
 20
386.5033084110814
 30
0.0
 10
793.0552978415159
 20
386.5566278216091
 30
0.0
 10
792.9162382324268
 20
386.609427450429
 30
0.0
 10
792.7795205665035
 20
386.6573005465418
 30
0.0
 10
792.6461987763914
 20
386.7004589523254
 30
0.0
 10
792.5173245573388
 20
386.7391517525661
 30
0.0
 10
792.3822729301986
 20
386.7765192679917
 30
0.0
 10
792.2408465197934
 20
386.8123157645703
 30
0.0
 10
792.08966699715
 20
386.8470157490034
 30
0.0
 10
791.9282028768355
 20
386.8801538859114
 30
0.0
 10
791.7559118219076
 20
386.9112220606452
 30
0.0
 10
791.5754730547374
 20
386.9392822218031
 30
0.0
 10
791.3866191604303
 20
386.9639955821301
 30
0.0
 10
791.1890756203609
 20
386.9849942897226
 30
0.0
 10
790.9981941599364
 20
387.0006983537515
 30
0.0
 10
790.8149758873717
 20
387.0116990812835
 30
0.0
 10
790.6674077654828
 20
387.0182758074119
 30
0.0
 10
790.5760382660359
 20
387.0201686792679
 30
0.0
 10
790.5428679601441
 20
387.0208558575808
 30
0.0
  0
SPLINE
  5
98
330
1F
100
AcDbEntity
  8
0
  6
Continuous
 62
     7
370
    30
100
AcDbSpline
210
0.0
220
0.0
230
1.0
 70
     8
 71
     3
 72
    88
 73
    84
 74
     0
 42
0.000000001
 43
0.00000001
 40
0.0
 40
0.0
 40
0.0
 40
0.0
 40
0.0087986663711351
 40
0.0297901094197634
 40
0.0499909701132015
 40
0.0694318402453821
 40
0.0881419486233924
 40
0.1079121646419591
 40
0.1268670118976361
 40
0.1450396645721521
 40
0.1624613224619865
 40
0.1791612406023864
 40
0.1961150058973186
 40
0.212317988480291
 40
0.2277982550905865
 40
0.2425816762988508
 40
0.2566920172558345
 40
0.2701510349593233
 40
0.2852040530902495
 40
0.2994091758824498
 40
0.3127924811073316
 40
0.3253770675252845
 40
0.3366146840619467
 40
0.347182912349997
 40
0.3575560950977467
 40
0.3679402537249718
 40
0.3783375827366936
 40
0.3887503586620298
 40
0.4051497708575313
 40
0.4216026362024483
 40
0.4381188258588035
 40
0.4508081185467721
 40
0.46354514435186
 40
0.4762595815488005
 40
0.4882937710422418
 40
0.4995006526334287
 40
0.5098876651287143
 40
0.5194605057291635
 40
0.5243167284035996
 40
0.5284362593918099
 40
0.531804244115823
 40
0.5350411085770169
 40
0.538717460831349
 40
0.5441961282430172
 40
0.5504281701817751
 40
0.5574137011420475
 40
0.5676080112242279
 40
0.5784890991559961
 40
0.5900598913702347
 40
0.602324173197724
 40
0.6155584890199384
 40
0.629525842943222
 40
0.6442333768745334
 40
0.6596893399713273
 40
0.6759030778964603
 40
0.6928849944604859
 40
0.7106464837141826
 40
0.7290454176835247
 40
0.7473466543538564
 40
0.7652394595553251
 40
0.7827240639199947
 40
0.7998000275196889
 40
0.8164664389849864
 40
0.8327220951569243
 40
0.8485656638763256
 40
0.8658194845878385
 40
0.8825531477583727
 40
0.8987655267354916
 40
0.9144561859075969
 40
0.9240522435970191
 40
0.9334426698873094
 40
0.9425885666016421
 40
0.9510442558575233
 40
0.9587195661152871
 40
0.9653215068759983
 40
0.9713449464046953
 40
0.976883233514512
 40
0.9807931276883173
 40
0.9845614626425079
 40
0.9887006947412867
 40
0.992857658495787
 40
0.9972471728042874
 40
1.0
 40
1.0
 40
1.0
 40
1.0
 10
790.5428680602602
 20
346.9792567357337
 30
0.0
 10
790.571187205746
 20
346.9797679674057
 30
0.0
 10
790.6670688322464
 20
346.9814988714776
 30
0.0
 10
790.8278487218093
 20
346.9888621109078
 30
0.0
 10
791.0226553917821
 20
347.001040357655
 30
0.0
 10
791.2098248203033
 20
347.017065577515
 30
0.0
 10
791.3952236458766
 20
347.0369607237162
 30
0.0
 10
791.5785685440896
 20
347.0609199300012
 30
0.0
 10
791.7595720977691
 20
347.0890251766408
 30
0.0
 10
791.932404612004
 20
347.1201450062267
 30
0.0
 10
792.097328560622
 20
347.1539469818097
 30
0.0
 10
792.2575745214651
 20
347.1907942215295
 30
0.0
 10
792.4130772992294
 20
347.2305579198847
 30
0.0
 10
792.5637676776364
 20
347.273095297624
 30
0.0
 10
792.7066985235135
 20
347.3172361501908
 30
0.0
 10
792.8421419451747
 20
347.3626494533208
 30
0.0
 10
792.970361809488
 20
347.4090182547183
 30
0.0
 10
793.0982923787005
 20
347.4586297041415
 30
0.0
 10
793.2252688276109
 20
347.5114459469355
 30
0.0
 10
793.3506367061276
 20
347.5673749163881
 30
0.0
 10
793.4674219380709
 20
347.6229397837165
 30
0.0
 10
793.5743439896826
 20
347.6769203644132
 30
0.0
 10
793.6720616324674
 20
347.7289613179647
 30
0.0
 10
793.7624910761706
 20
347.7794958336992
 30
0.0
 10
793.8495386879098
 20
347.8304103398767
 30
0.0
 10
793.9350989304435
 20
347.8827403883412
 30
0.0
 10
794.019710248248
 20
347.9368294506784
 30
0.0
 10
794.1193220131265
 20
348.0033601678435
 30
0.0
 10
794.2331052561372
 20
348.0837181890663
 30
0.0
 10
794.3599173475146
 20
348.1795466670887
 30
0.0
 10
794.4742530386432
 20
348.2719479584721
 30
0.0
 10
794.5767698684898
 20
348.3598313841889
 30
0.0
 10
794.6679439009606
 20
348.4420823957913
 30
0.0
 10
794.7554744723402
 20
348.5251656763037
 30
0.0
 10
794.8374430158423
 20
348.6069003640079
 30
0.0
 10
794.9123194155478
 20
348.6850930786471
 30
0.0
 10
794.9801482155457
 20
348.7590297923655
 30
0.0
 10
795.0329849512399
 20
348.8189535903335
 30
0.0
 10
795.071835764559
 20
348.8642968964941
 30
0.0
 10
795.0974234036256
 20
348.8946985488732
 30
0.0
 10
795.1194598334087
 20
348.9212740527024
 30
0.0
 10
795.1404206462294
 20
348.9468872255503
 30
0.0
 10
795.1654757692403
 20
348.9779284687187
 30
0.0
 10
795.1962422487835
 20
349.0167488523277
 30
0.0
 10
795.2330869394528
 20
349.0643402464087
 30
0.0
 10
795.2784594655968
 20
349.1245203658646
 30
0.0
 10
795.3316438915077
 20
349.1975429581549
 30
0.0
 10
795.3917954453806
 20
349.2837271162774
 30
0.0
 10
795.4537966947382
 20
349.3767172199388
 30
0.0
 10
795.517762599348
 20
349.4774680073489
 30
0.0
 10
795.5833057112701
 20
349.5863163098782
 30
0.0
 10
795.6500023103963
 20
349.7036041336137
 30
0.0
 10
795.7170104670861
 20
349.8288893235566
 30
0.0
 10
795.7838724580812
 20
349.9623947169789
 30
0.0
 10
795.8501122728861
 20
350.104335300664
 30
0.0
 10
795.9152369533338
 20
350.2549156728593
 30
0.0
 10
795.978553887952
 20
350.4138647886902
 30
0.0
 10
796.0385951741588
 20
350.5786106060013
 30
0.0
 10
796.0939185933587
 20
350.7454373442183
 30
0.0
 10
796.1436687546714
 20
350.9108926437051
 30
0.0
 10
796.1879194251694
 20
351.073742185845
 30
0.0
 10
796.2270472759642
 20
351.2337259457495
 30
0.0
 10
796.2614164095555
 20
351.390605926392
 30
0.0
 10
796.2913779925622
 20
351.5441645933745
 30
0.0
 10
796.3182634950646
 20
351.6999593102148
 30
0.0
 10
796.3419132285632
 20
351.8575083345955
 30
0.0
 10
796.3622179447754
 20
352.0162826642978
 30
0.0
 10
796.3786787992632
 20
352.1699810995721
 30
0.0
 10
796.3901505528706
 20
352.3008378153708
 30
0.0
 10
796.3980882574873
 20
352.4098848671248
 30
0.0
 10
796.4035436198074
 20
352.4980560160386
 30
0.0
 10
796.4078876068935
 20
352.5825579120468
 30
0.0
 10
796.4111331937199
 20
352.6604333481524
 30
0.0
 10
796.4133889639389
 20
352.7285459521971
 30
0.0
 10
796.4148993835041
 20
352.7867986553358
 30
0.0
 10
796.4158743385001
 20
352.8355832723639
 30
0.0
 10
796.4164377482456
 20
352.8730093765821
 30
0.0
 10
796.4167599019033
 20
352.9005903267948
 30
0.0
 10
796.4169521665315
 20
352.9211773949299
 30
0.0
 10
796.4170703099727
 20
352.9370649244784
 30
0.0
 10
796.4171344431678
 20
352.9474803266978
 30
0.0
 10
796.4171552972813
 20
352.9510384485752
 30
0.0
 10
796.4171733036645
 20
352.9544602520128
 30
0.0
 10
796.4171802437502
 20
352.9557790959179
 30
0.0
  0
ARC
  5
99
330
1F
100
AcDbEntity
  8
0
  6
Continuous
 62
     7
370
    30
100
AcDbCircle
 10
783.5550903508
 20
345.7329997477
 30
0.0
 40
0.1000000000000371
100
AcDbArc
 50
271.169139328
 51
1.169139328
  0
ARC
  5
9A
330
1F
100
AcDbEntity
  8
0
  6
Continuous
 62
     7
370
    30
100
AcDbCircle
 10
756.2607737068
 20
345.1759728773
 30
0.0
 40
0.1000000000000383
100
AcDbArc
 50
181.169139328
 51
271.1691393279
  0
LINE
  5
9B
330
1F
100
AcDbEntity
  8
0
  6
Continuous
 62
     7
370
    30
100
AcDbLine
 10
756.1386673058
 20
346.2581662232
 30
0.0
 11
756.1607945249
 21
345.1739324859
 31
0.0
  0
LINE
  5
9C
330
1F
100
AcDbEntity
  8
0
  6
Continuous
 62
     7
370
    30
100
AcDbLine
 10
783.6550695327
 20
345.7350401391
 30
0.0
 11
783.6326400895
 21
346.8340828535
 31
0.0
  0
ARC
  5
9D
330
1F
100
AcDbEntity
  8
0
  6
Continuous
 62
     7
370
    30
100
AcDbCircle
 10
746.6123069336
 20
362.8811611807
 30
0.0
 40
17.49999999998958
100
AcDbArc
 50
256.1167636894
 51
286.1674286786
  0
LINE
  5
9E
330
1F
100
AcDbEntity
  8
0
  6
Continuous
 62
     7
370
    30
100
AcDbLine
 10
742.4089950807
 20
345.9705705881
 30
0.0
 11
742.4132866109
 21
345.89239347
 31
0.0
  0
LINE
  5
9F
330
1F
100
AcDbEntity
  8
0
  6
Continuous
 62
     7
370
    30
100
AcDbLine
 10
751.4850971689
 20
346.0732488974
 30
0.0
 11
751.4864069222
 21
346.1607152602
 31
0.0
  0
ARC
  5
A0
330
1F
100
AcDbEntity
  8
0
  6
Continuous
 62
     7
370
    30
100
AcDbCircle
 10
721.6172734941
 20
362.3828607115
 30
0.0
 40
17.4999999999893
100
AcDbArc
 50
256.1167636894
 51
286.1674286786
  0
LINE
  5
A1
330
1F
100
AcDbEntity
  8
0
  6
Continuous
 62
     7
370
    30
100
AcDbLine
 10
717.41534729
 20
345.4470283002
 30
0.0
 11
717.4182531714
 21
345.3940930008
 31
0.0
  0
LINE
  5
A2
330
1F
100
AcDbEntity
  8
0
  6
Continuous
 62
     7
370
    30
100
AcDbLine
 10
726.4900637294
 20
345.5749484283
 30
0.0
 11
726.4909949491
 21
345.6371360179
 31
0.0
  0
LINE
  5
A3
330
1F
100
AcDbEntity
  8
0
  6
Continuous
 62
     7
370
    30
100
AcDbLine
 10
532.9172124049
 20
329.7499999954
 30
0.0
 11
535.9327160743
 21
331.4910018483
 31
0.0
  0
LINE
  5
A4
330
1F
100
AcDbEntity
  8
0
  6
Continuous
 62
     7
370
    30
100
AcDbLine
 10
535.9327160743
 20
402.5089981517
 30
0.0
 11
532.9172124049
 21
404.2500000046
 31
0.0
  0
ARC
  5
A5
330
1F
100
AcDbEntity
  8
0
  6
Continuous
 62
     7
370
    30
100
AcDbCircle
 10
540.4172125709
 20
398.0
 30
0.0
 40
4.0
100
AcDbArc
 50
0.0
 51
90.0
  0
ARC
  5
A6
330
1F
100
AcDbEntity
  8
0
  6
Continuous
 62
     7
370
    30
100
AcDbCircle
 10
540.4172125709
 20
336.0
 30
0.0
 40
4.0
100
AcDbArc
 50
270.0
 51
0.0
  0
LINE
  5
A7
330
1F
100
AcDbEntity
  8
0
  6
Continuous
 62
     7
370
    30
100
AcDbLine
 10
535.9327160743
 20
332.0
 30
0.0
 11
540.4172125709
 21
332.0
 31
0.0
  0
LINE
  5
A8
330
1F
100
AcDbEntity
  8
0
  6
Continuous
 62
     7
370
    30
100
AcDbLine
 10
540.4172125709
 20
402.0
 30
0.0
 11
535.9327160743
 21
402.0
 31
0.0
  0
SPLINE
  5
A9
330
1F
100
AcDbEntity
  8
0
  6
Continuous
 62
     7
370
    30
100
AcDbSpline
210
0.0
220
0.0
230
1.0
 70
    24
 71
     3
 72
    23
 73
    19
 74
     0
 42
0.000000001
 43
0.00000001
 40
0.0
 40
0.0
 40
0.0
 40
0.0
 40
0.0542044289226689
 40
0.1170643463892806
 40
0.1799469601408246
 40
0.2454598470978778
 40
0.3111599689921963
 40
0.3742415668657283
 40
0.4373437228388102
 40
0.5031030439381631
 40
0.5687948572582862
 40
0.6318741651910171
 40
0.6949804243562512
 40
0.7607498466355905
 40
0.8261936379944624
 40
0.8890517183473278
 40
0.9519345075846725
 40
1.0
 40
1.0
 40
1.0
 40
1.0
 10
796.417212570938
 20
380.9790934197463
 30
0.0
 10
796.417212570938
 20
380.9391100551438
 30
0.0
 10
796.417212570938
 20
380.8527586898279
 30
0.0
 10
796.417212570938
 20
380.0851813384465
 30
0.0
 10
796.417212570938
 20
378.7850057973592
 30
0.0
 10
796.417212570938
 20
376.9912298136962
 30
0.0
 10
796.417212570938
 20
374.859676595387
 30
0.0
 10
796.4172125709379
 20
372.4352266169064
 30
0.0
 10
796.417212570938
 20
369.7863568776907
 30
0.0
 10
796.4172125709379
 20
367.0012989994902
 30
0.0
 10
796.417212570938
 20
364.2164076115484
 30
0.0
 10
796.417212570938
 20
361.5684116417694
 30
0.0
 10
796.417212570938
 20
359.1431195864086
 30
0.0
 10
796.4172125709379
 20
357.0106742660764
 30
0.0
 10
796.417212570938
 20
355.2154147000196
 30
0.0
 10
796.417212570938
 20
353.918207850506
 30
0.0
 10
796.4172125709379
 20
353.1685310943432
 30
0.0
 10
796.417212570938
 20
353.0823789545098
 30
0.0
 10
796.417212570938
 20
353.0450557534467
 30
0.0
  0
LINE
  5
AA
330
1F
100
AcDbEntity
  8
0
  6
Continuous
 62
     7
370
    30
100
AcDbLine
 10
783.5571307423
 20
345.6330205658
 30
0.0
 11
756.2628140982
 21
345.0759936955
 31
0.0
  0
LINE
  5
AB
330
1F
100
AcDbEntity
  8
0
  6
Continuous
 62
     7
370
    30
100
AcDbLine
 10
746.9491918899
 20
345.9828211837
 30
0.0
 11
751.4850971689
 21
346.0732488974
 31
0.0
  0
LINE
  5
AC
330
1F
100
AcDbEntity
  8
0
  6
Continuous
 62
     7
370
    30
100
AcDbLine
 10
742.4132866109
 20
345.89239347
 30
0.0
 11
746.9491918899
 21
345.9828211837
 31
0.0
  0
LINE
  5
AD
330
1F
100
AcDbEntity
  8
0
  6
Continuous
 62
     7
370
    30
100
AcDbLine
 10
721.9541584504
 20
345.4845207145
 30
0.0
 11
726.4900637294
 21
345.5749484283
 31
0.0
  0
LINE
  5
AE
330
1F
100
AcDbEntity
  8
0
  6
Continuous
 62
     7
370
    30
100
AcDbLine
 10
717.4182531714
 20
345.3940930008
 30
0.0
 11
721.9541584504
 21
345.4845207145
 31
0.0
  0
LINE
  5
AF
330
1F
100
AcDbEntity
  8
0
  6
Continuous
 62
     7
370
    30
100
AcDbLine
 10
535.9327160743
 20
367.0
 30
0.0
 11
535.9327160743
 21
402.5089981517
 31
0.0
  0
LINE
  5
B0
330
1F
100
AcDbEntity
  8
0
  6
Continuous
 62
     7
370
    30
100
AcDbLine
 10
535.9327160743
 20
331.4910018483
 30
0.0
 11
535.9327160743
 21
367.0
 31
0.0
  0
LINE
  5
B1
330
1F
100
AcDbEntity
  8
0
  6
Continuous
 62
     7
370
    30
100
AcDbLine
 10
532.9172124049
 20
367.0
 30
0.0
 11
532.9172124049
 21
329.7500000021
 31
0.0
  0
LINE
  5
B2
330
1F
100
AcDbEntity
  8
0
  6
Continuous
 62
     7
370
    30
100
AcDbLine
 10
532.9172124049
 20
404.2499999979
 30
0.0
 11
532.9172124049
 21
367.0
 31
0.0
  0
SPLINE
  5
B3
330
1F
100
AcDbEntity
  8
0
  6
Continuous
 62
     7
370
    30
100
AcDbSpline
210
0.0
220
0.0
230
1.0
 70
    24
 71
     3
 72
   121
 73
   117
 74
     0
 42
0.000000001
 43
0.00000001
 40
0.0
 40
0.0
 40
0.0
 40
0.0
 40
0.0104584113374207
 40
0.0209041306629709
 40
0.031339956381776
 40
0.0417686948633944
 40
0.0521931582012514
 40
0.0626161619490333
 40
0.0730405228431047
 40
0.080209563972955
 40
0.0873814915292541
 40
0.0945572185083246
 40
0.1017376564571939
 40
0.1089237151301385
 40
0.1161163021486241
 40
0.1237196061520512
 40
0.1313377933863077
 40
0.1414853264759947
 40
0.151623784254925
 40
0.1617557442473287
 40
0.1718837889383755
 40
0.1820105038086414
 40
0.1921384753571375
 40
0.2010542044760151
 40
0.2099746691782488
 40
0.2189016268134601
 40
0.2219094337808439
 40
0.2249182426727582
 40
0.2279281202594281
 40
0.2309391332399831
 40
0.2339513482381297
 40
0.2369648317978501
 40
0.2399796503791257
 40
0.2502964244994703
 40
0.2605993330771532
 40
0.2708910561904982
 40
0.2811742826635078
 40
0.2914517079889692
 40
0.3017260322255043
 40
0.3119999578766975
 40
0.3225502708398212
 40
0.3331059354043788
 40
0.3436698699703709
 40
0.3486537555079013
 40
0.3536404305353586
 40
0.358630198922255
 40
0.3636233639733444
 40
0.3686202283748583
 40
0.3791579091850069
 40
0.3896808064140816
 40
0.4001917745777364
 40
0.4106936779189245
 40
0.4211893881018778
 40
0.4316817818758478
 40
0.4421737387180264
 40
0.4537177959264843
 40
0.4652686391447401
 40
0.4768300917444878
 40
0.4884059665849738
 40
0.5000000622966662
 40
0.510537743277164
 40
0.5210606406226239
 40
0.5315716088588738
 40
0.5420735122391108
 40
0.5525692224378654
 40
0.5630616162147242
 40
0.573553573057235
 40
0.5807680799930484
 40
0.5879846769508327
 40
0.5952042984613182
 40
0.6024278778813555
 40
0.6096563470346325
 40
0.6168906358553476
 40
0.6241316720355179
 40
0.6313803806765734
 40
0.641697155266774
 40
0.6520000641654806
 40
0.6622917874790825
 40
0.6725750140598333
 40
0.682852439428914
 40
0.6931267636734388
 40
0.7034006893255388
 40
0.7139510023121299
 40
0.7245066669536481
 40
0.7350706016808636
 40
0.7386302530992226
 40
0.7421912834011722
 40
0.7457538034104654
 40
0.7493179238118913
 40
0.7528837551412082
 40
0.7564514077751467
 40
0.7600209919214855
 40
0.7711098348075085
 40
0.7821836885249706
 40
0.7932458869166316
 40
0.8042997743709652
 40
0.8153487028233339
 40
0.8263960287230225
 40
0.837445109979769
 40
0.8450441665118593
 40
0.8526467286235326
 40
0.8602538842784417
 40
0.8678667194708263
 40
0.8754863177664735
 40
0.883113759848841
 40
0.8903278964201562
 40
0.8975129421137695
 40
0.9089979226581999
 40
0.9204726322825852
 40
0.9319408115006352
 40
0.9434062072175746
 40
0.9548725690673528
 40
0.9661387474578622
 40
0.9774130209088997
 40
0.9886989289052707
 40
1.0
 40
1.0
 40
1.0
 40
1.0
 10
544.4172125709379
 20
367.0
 30
0.0
 10
544.4172125709379
 20
366.8302423562812
 30
0.0
 10
544.4172125709379
 20
366.4909330815888
 30
0.0
 10
544.4172125709379
 20
365.9823683793691
 30
0.0
 10
544.4172125709379
 20
365.4745573241922
 30
0.0
 10
544.4172125709379
 20
364.9675000492578
 30
0.0
 10
544.4172125709379
 20
364.4611965210339
 30
0.0
 10
544.4172125709379
 20
363.9556474047948
 30
0.0
 10
544.4172125709379
 20
363.503459330707
 30
0.0
 10
544.4172125709379
 20
363.1043866229676
 30
0.0
 10
544.4172125709379
 20
362.7581580879407
 30
0.0
 10
544.4172125709379
 20
362.4122861760254
 30
0.0
 10
544.4172125709379
 20
362.0667706541797
 30
0.0
 10
544.4172125709379
 20
361.7216115453622
 30
0.0
 10
544.4172125709379
 20
361.3703650770198
 30
0.0
 10
544.4172125709379
 20
361.0129732566147
 30
0.0
 10
544.4172125709379
 20
360.6094102989505
 30
0.0
 10
544.4172125709379
 20
360.1668049995259
 30
0.0
 10
544.4172125709379
 20
359.6860610039507
 30
0.0
 10
544.4172125709379
 20
359.2074811489904
 30
0.0
 10
544.4172125709379
 20
358.7310658861213
 30
0.0
 10
544.4172125709379
 20
358.2568153723877
 30
0.0
 10
544.4172125709379
 20
357.8036222490754
 30
0.0
 10
544.4172125709379
 20
357.3711978762551
 30
0.0
 10
544.4172125709379
 20
356.9592415153899
 30
0.0
 10
544.4172125709379
 20
356.6397611779265
 30
0.0
 10
544.4172125709379
 20
356.4116096023682
 30
0.0
 10
544.4172125709379
 20
356.2740329620219
 30
0.0
 10
544.4172125709379
 20
356.1366464252009
 30
0.0
 10
544.4172125709379
 20
355.9994499050205
 30
0.0
 10
544.4172125709379
 20
355.8624434476799
 30
0.0
 10
544.4172125709379
 20
355.7256269563265
 30
0.0
 10
544.4172125709379
 20
355.4787188996788
 30
0.0
 10
544.4172125709379
 20
355.1231551720635
 30
0.0
 10
544.4172125709379
 20
354.6612147460854
 30
0.0
 10
544.4172125709379
 20
354.2029948072739
 30
0.0
 10
544.4172125709379
 20
353.748496584148
 30
0.0
 10
544.4172125709379
 20
353.2977198872154
 30
0.0
 10
544.4172125709379
 20
352.8506648394389
 30
0.0
 10
544.4172125709379
 20
352.4033897177436
 30
0.0
 10
544.4172125709379
 20
351.9560087093875
 30
0.0
 10
544.4172125709379
 20
351.5086458435931
 30
0.0
 10
544.4172125709379
 20
351.1434309039404
 30
0.0
 10
544.4172125709379
 20
350.858227200794
 30
0.0
 10
544.4172125709379
 20
350.651430456484
 30
0.0
 10
544.4172125709379
 20
350.4455055919886
 30
0.0
 10
544.4172125709379
 20
350.2404522738462
 30
0.0
 10
544.4172125709379
 20
349.9608577412119
 30
0.0
 10
544.4172125709379
 20
349.608735812615
 30
0.0
 10
544.4172125709379
 20
349.1868309624414
 30
0.0
 10
544.4172125709379
 20
348.7702528980817
 30
0.0
 10
544.4172125709379
 20
348.3590025906014
 30
0.0
 10
544.4172125709379
 20
347.9530799423862
 30
0.0
 10
544.4172125709379
 20
347.552484977727
 30
0.0
 10
544.4172125709379
 20
347.1440381286085
 30
0.0
 10
544.4172125709379
 20
346.7283698196241
 30
0.0
 10
544.4172125709379
 20
346.306165283086
 30
0.0
 10
544.4172125709379
 20
345.8904079883263
 30
0.0
 10
544.4172125709379
 20
345.4810986669286
 30
0.0
 10
544.4172125709379
 20
345.0907250318677
 30
0.0
 10
544.4172125709379
 20
344.7189937267107
 30
0.0
 10
544.4172125709379
 20
344.365650922195
 30
0.0
 10
544.4172125709379
 20
344.0188709400404
 30
0.0
 10
544.4172125709379
 20
343.6786540302909
 30
0.0
 10
544.4172125709379
 20
343.3450001525718
 30
0.0
 10
544.4172125709379
 20
343.0179097407089
 30
0.0
 10
544.4172125709379
 20
342.7307786606843
 30
0.0
 10
544.4172125709379
 20
342.4814385897421
 30
0.0
 10
544.4172125709379
 20
342.2680001871009
 30
0.0
 10
544.4172125709379
 20
342.0576636864898
 30
0.0
 10
544.4172125709379
 20
341.8504289147509
 30
0.0
 10
544.4172125709379
 20
341.6462959369142
 30
0.0
 10
544.4172125709379
 20
341.4452647138448
 30
0.0
 10
544.4172125709379
 20
341.2473353804716
 30
0.0
 10
544.4172125709379
 20
341.0250982191156
 30
0.0
 10
544.4172125709379
 20
340.7805979419857
 30
0.0
 10
544.4172125709379
 20
340.5162378632758
 30
0.0
 10
544.4172125709379
 20
340.2590780356156
 30
0.0
 10
544.4172125709379
 20
340.0091191740574
 30
0.0
 10
544.4172125709379
 20
339.7663611750093
 30
0.0
 10
544.4172125709379
 20
339.5308041148517
 30
0.0
 10
544.4172125709379
 20
339.3004176549595
 30
0.0
 10
544.4172125709379
 20
339.0754263542086
 30
0.0
 10
544.4172125709379
 20
338.8560616216692
 30
0.0
 10
544.4172125709379
 20
338.691161367033
 30
0.0
 10
544.4172125709379
 20
338.5759095071837
 30
0.0
 10
544.4172125709379
 20
338.5071735760951
 30
0.0
 10
544.4172125709379
 20
338.4392981496006
 30
0.0
 10
544.4172125709379
 20
338.3722831692126
 30
0.0
 10
544.4172125709379
 20
338.3061286348944
 30
0.0
 10
544.4172125709379
 20
338.2408346058059
 30
0.0
 10
544.4172125709379
 20
338.1311707781657
 30
0.0
 10
544.4172125709379
 20
337.9807698804955
 30
0.0
 10
544.4172125709379
 20
337.7953274534756
 30
0.0
 10
544.4172125709379
 20
337.6188960610049
 30
0.0
 10
544.4172125709379
 20
337.4514766774754
 30
0.0
 10
544.4172125709379
 20
337.2930690849303
 30
0.0
 10
544.4172125709379
 20
337.1436735451603
 30
0.0
 10
544.4172125709379
 20
337.017921122255
 30
0.0
 10
544.4172125709379
 20
336.9128187401266
 30
0.0
 10
544.4172125709379
 20
336.8257978164461
 30
0.0
 10
544.4172125709379
 20
336.7430358702054
 30
0.0
 10
544.4172125709379
 20
336.6645327338317
 30
0.0
 10
544.4172125709379
 20
336.5902887061008
 30
0.0
 10
544.4172125709379
 20
336.5215940851864
 30
0.0
 10
544.4172125709379
 20
336.4582891821346
 30
0.0
 10
544.4172125709379
 20
336.3885562949686
 30
0.0
 10
544.4172125709379
 20
336.3144074844736
 30
0.0
 10
544.4172125709379
 20
336.2397038358206
 30
0.0
 10
544.4172125709379
 20
336.1750570622663
 30
0.0
 10
544.4172125709379
 20
336.1204627738041
 30
0.0
 10
544.4172125709379
 20
336.0762034405948
 30
0.0
 10
544.4172125709379
 20
336.0420069346138
 30
0.0
 10
544.4172125709379
 20
336.0179018368411
 30
0.0
 10
544.4172125709379
 20
336.0028031141895
 30
0.0
 10
544.4172125709379
 20
336.0009347894781
 30
0.0
 10
544.4172125709379
 20
336.0000000000002
 30
0.0
  0
SPLINE
  5
B4
330
1F
100
AcDbEntity
  8
0
  6
Continuous
 62
     7
370
    30
100
AcDbSpline
210
0.0
220
0.0
230
1.0
 70
    24
 71
     3
 72
   121
 73
   117
 74
     0
 42
0.000000001
 43
0.00000001
 40
0.0
 40
0.0
 40
0.0
 40
0.0
 40
0.0104575285596816
 40
0.0209025367949947
 40
0.031337824208008
 40
0.0417661981294713
 40
0.0521904714756931
 40
0.0626134604829248
 40
0.0730379824283292
 40
0.0802072364708968
 40
0.0873794603089088
 40
0.0945555669969622
 40
0.101736468108536
 40
0.1089230733926864
 40
0.1161162904341955
 40
0.1237196290046877
 40
0.131337815776674
 40
0.1414853482506021
 40
0.1516238054143171
 40
0.1617557647918924
 40
0.1718838088683413
 40
0.1820105231240828
 40
0.1921384940579724
 40
0.2010542226358002
 40
0.2099746867966911
 40
0.2189016438901606
 40
0.2219094506750112
 40
0.2249182593843307
 40
0.2279281367883405
 40
0.2309391495861659
 40
0.2339513644015093
 40
0.2369648477783488
 40
0.2399796661766612
 40
0.2502964396711569
 40
0.2605993476237961
 40
0.2708910701127394
 40
0.2811742959618267
 40
0.2914517206636813
 40
0.3017260442767613
 40
0.3119999693044859
 40
0.3225502816273322
 40
0.3331059455512495
 40
0.3436698794760609
 40
0.3486537647110801
 40
0.3536404394358483
 40
0.3586302075198596
 40
0.3636233722678497
 40
0.3686202363660322
 40
0.3791579165367896
 40
0.3896808131273581
 40
0.4001917806532181
 40
0.4106936833571492
 40
0.4211893929032084
 40
0.4316817860404727
 40
0.4421737422459575
 40
0.4537177987538621
 40
0.4652686412711364
 40
0.4768300931692424
 40
0.4884059673071947
 40
0.5000000623152301
 40
0.5105377426562328
 40
0.5210606393630999
 40
0.5315716069614861
 40
0.5420735097044151
 40
0.5525692192662429
 40
0.5630616124063819
 40
0.5735535686122035
 40
0.5807680751102196
 40
0.5879846716300823
 40
0.5952042927024653
 40
0.6024278716841632
 40
0.6096563403988066
 40
0.6168906287805382
 40
0.6241316645213183
 40
0.6313803727225209
 40
0.6416971466870612
 40
0.6520000549608801
 40
0.6622917776502035
 40
0.6725750036071223
 40
0.6828524283526537
 40
0.6931267519737481
 40
0.7034006770023711
 40
0.7139509893486422
 40
0.7245066533494432
 40
0.735070587435367
 40
0.7386302386376181
 40
0.7421912687233684
 40
0.7457537885163635
 40
0.7493179087013863
 40
0.7528837398141879
 40
0.7564513922314926
 40
0.7600209761610736
 40
0.7711098183743236
 40
0.7821836714198961
 40
0.7932458691403484
 40
0.8042997559239506
 40
0.8153486837058613
 40
0.8263960089351613
 40
0.8374450895213836
 40
0.8450441455923015
 40
0.8526467072425757
 40
0.8602538624357934
 40
0.8678666971661282
 40
0.8754862949993011
 40
0.8831137366187044
 40
0.8903284767344165
 40
0.8975140778118184
 40
0.9089997733645594
 40
0.9204749843441433
 40
0.9319434514766987
 40
0.9434089220891014
 40
0.9548751464461461
 40
0.9661409838784503
 40
0.9774147132979396
 40
0.9886998753666341
 40
1.0
 40
1.0
 40
1.0
 40
1.0
 10
544.4172125709379
 20
397.9999999999998
 30
0.0
 10
544.4172125709379
 20
397.9992042573746
 30
0.0
 10
544.4172125709379
 20
397.9976137248307
 30
0.0
 10
544.4172125709379
 20
397.9846890863046
 30
0.0
 10
544.4172125709379
 20
397.9640457671588
 30
0.0
 10
544.4172125709379
 20
397.9349297931793
 30
0.0
 10
544.4172125709379
 20
397.897542911178
 30
0.0
 10
544.4172125709379
 20
397.8518311753662
 30
0.0
 10
544.4172125709379
 20
397.8034390050672
 30
0.0
 10
544.4172125709379
 20
397.7551250843421
 30
0.0
 10
544.4172125709379
 20
397.7092368177032
 30
0.0
 10
544.4172125709379
 20
397.6594196829486
 30
0.0
 10
544.4172125709379
 20
397.6056736990852
 30
0.0
 10
544.4172125709379
 20
397.5479989024625
 30
0.0
 10
544.4172125709379
 20
397.485245890054
 30
0.0
 10
544.4172125709379
 20
397.4171395179472
 30
0.0
 10
544.4172125709379
 20
397.3352547069137
 30
0.0
 10
544.4172125709379
 20
397.2390188806384
 30
0.0
 10
544.4172125709379
 20
397.1264398277864
 30
0.0
 10
544.4172125709379
 20
397.0062806373626
 30
0.0
 10
544.4172125709379
 20
396.8785413842052
 30
0.0
 10
544.4172125709379
 20
396.7432221286648
 30
0.0
 10
544.4172125709379
 20
396.6060415925508
 30
0.0
 10
544.4172125709379
 20
396.4680266300707
 30
0.0
 10
544.4172125709379
 20
396.3301397771517
 30
0.0
 10
544.4172125709379
 20
396.2181982390156
 30
0.0
 10
544.4172125709379
 20
396.1358521569277
 30
0.0
 10
544.4172125709379
 20
396.0854630008732
 30
0.0
 10
544.4172125709379
 20
396.0344084238417
 30
0.0
 10
544.4172125709379
 20
395.9826883969043
 30
0.0
 10
544.4172125709379
 20
395.9303029409419
 30
0.0
 10
544.4172125709379
 20
395.8772520020876
 30
0.0
 10
544.4172125709379
 20
395.7801771313726
 30
0.0
 10
544.4172125709379
 20
395.6361085471187
 30
0.0
 10
544.4172125709379
 20
395.4402163247456
 30
0.0
 10
544.4172125709379
 20
395.2371102562701
 30
0.0
 10
544.4172125709379
 20
395.0267907575903
 30
0.0
 10
544.4172125709379
 20
394.8092577633147
 30
0.0
 10
544.4172125709379
 20
394.5845113058406
 30
0.0
 10
544.4172125709379
 20
394.3504890209019
 30
0.0
 10
544.4172125709379
 20
394.1069632615744
 30
0.0
 10
544.4172125709379
 20
393.8537086696202
 30
0.0
 10
544.4172125709379
 20
393.6388672688473
 30
0.0
 10
544.4172125709379
 20
393.4663756564432
 30
0.0
 10
544.4172125709379
 20
393.3390880918906
 30
0.0
 10
544.4172125709379
 20
393.2101112245384
 30
0.0
 10
544.4172125709379
 20
393.0794447698055
 30
0.0
 10
544.4172125709379
 20
392.8982046331656
 30
0.0
 10
544.4172125709379
 20
392.6638635898551
 30
0.0
 10
544.4172125709379
 20
392.3729542806538
 30
0.0
 10
544.4172125709379
 20
392.0754637655632
 30
0.0
 10
544.4172125709379
 20
391.771392468395
 30
0.0
 10
544.4172125709379
 20
391.4607403755247
 30
0.0
 10
544.4172125709379
 20
391.1435074519253
 30
0.0
 10
544.4172125709379
 20
390.8088966879072
 30
0.0
 10
544.4172125709379
 20
390.4561100733001
 30
0.0
 10
544.4172125709379
 20
390.0843411031608
 30
0.0
 10
544.4172125709379
 20
389.7046093687401
 30
0.0
 10
544.4172125709379
 20
389.3169149820768
 30
0.0
 10
544.4172125709379
 20
388.9335245884427
 30
0.0
 10
544.4172125709379
 20
388.5556659817393
 30
0.0
 10
544.4172125709379
 20
388.1844766369892
 30
0.0
 10
544.4172125709379
 20
387.8079379928678
 30
0.0
 10
544.4172125709379
 20
387.4260497318763
 30
0.0
 10
544.4172125709379
 20
387.0388119174332
 30
0.0
 10
544.4172125709379
 20
386.6462250627344
 30
0.0
 10
544.4172125709379
 20
386.2897501876733
 30
0.0
 10
544.4172125709379
 20
385.9711789658799
 30
0.0
 10
544.4172125709379
 20
385.6919868949653
 30
0.0
 10
544.4172125709379
 20
385.4102670180271
 30
0.0
 10
544.4172125709379
 20
385.1260191523487
 30
0.0
 10
544.4172125709379
 20
384.8392433408823
 30
0.0
 10
544.4172125709379
 20
384.549939689157
 30
0.0
 10
544.4172125709379
 20
384.2581078277604
 30
0.0
 10
544.4172125709379
 20
383.9223375534436
 30
0.0
 10
544.4172125709379
 20
383.5417392989678
 30
0.0
 10
544.4172125709379
 20
383.1152689839706
 30
0.0
 10
544.4172125709379
 20
382.6850524093844
 30
0.0
 10
544.4172125709379
 20
382.2510898161457
 30
0.0
 10
544.4172125709379
 20
381.8133812586076
 30
0.0
 10
544.4172125709379
 20
381.371926772163
 30
0.0
 10
544.4172125709379
 20
380.9227680778723
 30
0.0
 10
544.4172125709379
 20
380.4657850137062
 30
0.0
 10
544.4172125709379
 20
380.0008652561996
 30
0.0
 10
544.4172125709379
 20
379.6357764103746
 30
0.0
 10
544.4172125709379
 20
379.3728808718449
 30
0.0
 10
544.4172125709379
 20
379.2136803333127
 30
0.0
 10
544.4172125709379
 20
379.0540323181601
 30
0.0
 10
544.4172125709379
 20
378.8939366870485
 30
0.0
 10
544.4172125709379
 20
378.7333935244915
 30
0.0
 10
544.4172125709379
 20
378.5724026347206
 30
0.0
 10
544.4172125709379
 20
378.2976413977179
 30
0.0
 10
544.4172125709379
 20
377.9079615525849
 30
0.0
 10
544.4172125709379
 20
377.4015298465213
 30
0.0
 10
544.4172125709379
 20
376.8924880365074
 30
0.0
 10
544.4172125709379
 20
376.3808374809765
 30
0.0
 10
544.4172125709379
 20
375.8665778248998
 30
0.0
 10
544.4172125709379
 20
375.3497099456075
 30
0.0
 10
544.4172125709379
 20
374.8843744020227
 30
0.0
 10
544.4172125709379
 20
374.4714425452061
 30
0.0
 10
544.4172125709379
 20
374.1115850443924
 30
0.0
 10
544.4172125709379
 20
373.7504950605266
 30
0.0
 10
544.4172125709379
 20
373.3881723235676
 30
0.0
 10
544.4172125709379
 20
373.0246168960053
 30
0.0
 10
544.4172125709379
 20
372.6665500882204
 30
0.0
 10
544.4172125709379
 20
372.3146476653242
 30
0.0
 10
544.4172125709379
 20
371.9002982380141
 30
0.0
 10
544.4172125709379
 20
371.4165978958509
 30
0.0
 10
544.4172125709379
 20
370.8627433895342
 30
0.0
 10
544.4172125709379
 20
370.307954720405
 30
0.0
 10
544.4172125709379
 20
369.7522329642317
 30
0.0
 10
544.4172125709379
 20
369.198893175972
 30
0.0
 10
544.4172125709379
 20
368.6479567658458
 30
0.0
 10
544.4172125709379
 20
368.0994373754564
 30
0.0
 10
544.4172125709379
 20
367.550018405944
 30
0.0
 10
544.4172125709379
 20
367.1834204246863
 30
0.0
 10
544.4172125709379
 20
367.0
 30
0.0
  0
LINE
  5
B5
330
1F
100
AcDbEntity
  8
0
  6
Continuous
 62
     7
370
    30
100
AcDbLine
 10
279.5827874291
 20
392.1767660342
 30
0.0
 11
33.4571329094
 21
387.0211685254
 31
0.0
  0
LINE
  5
B6
330
1F
100
AcDbEntity
  8
0
  6
Continuous
 62
     7
370
    30
100
AcDbLine
 10
33.4571329094
 20
346.9788314746
 30
0.0
 11
40.3673599105
 21
346.8340828535
 31
0.0
  0
LINE
  5
B7
330
1F
100
AcDbEntity
  8
0
  6
Continuous
 62
     7
370
    30
100
AcDbLine
 10
67.8613326942
 20
346.2581662232
 30
0.0
 11
72.5135930778
 21
346.1607152602
 31
0.0
  0
LINE
  5
B8
330
1F
100
AcDbEntity
  8
0
  6
Continuous
 62
     7
370
    30
100
AcDbLine
 10
81.5910049193
 20
345.9705705881
 30
0.0
 11
97.5090050509
 21
345.6371360179
 31
0.0
  0
LINE
  5
B9
330
1F
100
AcDbEntity
  8
0
  6
Continuous
 62
     7
370
    30
100
AcDbLine
 10
106.58465271
 20
345.4470283002
 30
0.0
 11
279.5827874291
 21
341.8232339658
 31
0.0
  0
SPLINE
  5
BA
330
1F
100
AcDbEntity
  8
0
  6
Continuous
 62
     7
370
    30
100
AcDbSpline
210
0.0
220
0.0
230
1.0
 70
     8
 71
     3
 72
    90
 73
    86
 74
     0
 42
0.000000001
 43
0.00000001
 40
0.0
 40
0.0
 40
0.0
 40
0.0
 40
0.0036873531850408
 40
0.0080736707630035
 40
0.011776068694066
 40
0.0154735343508815
 40
0.0192417303073478
 40
0.0231514802619034
 40
0.0286895630880062
 40
0.034712780437769
 40
0.0413144776810903
 40
0.0482606904646407
 40
0.0558481927141777
 40
0.0640658840064321
 40
0.0725429548873353
 40
0.0811898242492084
 40
0.0900068036131773
 40
0.0989940780628508
 40
0.1159127286918489
 40
0.1334035444540099
 40
0.1514652804358822
 40
0.1673082647536624
 40
0.1835633213238357
 40
0.2002291180363603
 40
0.2173044517766507
 40
0.2347884112089089
 40
0.2526805564211854
 40
0.2709811180370248
 40
0.2893793733482566
 40
0.3071023122015296
 40
0.3240490793797579
 40
0.3402309972296608
 40
0.3556584068483564
 40
0.3703406007531814
 40
0.3840431967586413
 40
0.3970416144519884
 40
0.4093415884424602
 40
0.4209478770309626
 40
0.429736116355141
 40
0.4380844192963765
 40
0.4459565458150819
 40
0.4530356106891805
 40
0.4592498149252762
 40
0.4635257049913053
 40
0.4672675693293269
 40
0.4708321148462598
 40
0.4752459901327819
 40
0.4805584476342484
 40
0.4884612546645223
 40
0.4969263966427723
 40
0.5059569197589934
 40
0.5155566494830425
 40
0.5257303238080938
 40
0.5363328853107246
 40
0.5529659263973087
 40
0.5695198448516919
 40
0.5860049829151438
 40
0.6024313938749865
 40
0.6188087784074943
 40
0.6351464266561055
 40
0.6447592015935993
 40
0.6543629730603291
 40
0.6642044838499963
 40
0.6746341148871969
 40
0.687454356169126
 40
0.7011030103511754
 40
0.7156045416259456
 40
0.7309866254062688
 40
0.7472804193596357
 40
0.7607450495653764
 40
0.7748126667877633
 40
0.7895035352729878
 40
0.8048395958510518
 40
0.8208445327919432
 40
0.8359963799432447
 40
0.8517425455739173
 40
0.8681048107172806
 40
0.885106280444874
 40
0.9027714035830497
 40
0.9211259870786228
 40
0.9401972047462256
 40
0.9583331082289223
 40
0.97711814891081
 40
0.9965762809406654
 40
1.0
 40
1.0
 40
1.0
 40
1.0
 10
27.58281947894198
 20
352.9558098114217
 30
0.0
 10
27.58282864864053
 20
352.9540967845127
 30
0.0
 10
27.58284872622002
 20
352.9503460140882
 30
0.0
 10
27.58287322270642
 20
352.9461538965089
 30
0.0
 10
27.58294185013621
 20
352.9353449445388
 30
0.0
 10
27.58305495303709
 20
352.9204178189577
 30
0.0
 10
27.58324011629665
 20
352.900587607346
 30
0.0
 10
27.58356224464048
 20
352.8730104539793
 30
0.0
 10
27.58412566295354
 20
352.835582965449
 30
0.0
 10
27.5851006198955
 20
352.78679852735
 30
0.0
 10
27.58655679130839
 20
352.7306383328283
 30
0.0
 10
27.58862741841717
 20
352.6674415515674
 30
0.0
 10
27.59145084242975
 20
352.5976103712817
 30
0.0
 10
27.59517789870869
 20
352.5217278406472
 30
0.0
 10
27.59982028813324
 20
352.4423606313656
 30
0.0
 10
27.60538287579611
 20
352.3608752433084
 30
0.0
 10
27.61191460237677
 20
352.2776079571902
 30
0.0
 10
27.62166248177772
 20
352.1681062096652
 30
0.0
 10
27.63602114124525
 20
352.0309838819835
 30
0.0
 10
27.65699090477291
 20
351.865020087693
 30
0.0
 10
27.68129604217673
 20
351.7025116216294
 30
0.0
 10
27.70862200247398
 20
351.5441646375771
 30
0.0
 10
27.73858359182679
 20
351.3906059140906
 30
0.0
 10
27.77295272364799
 20
351.2337259491775
 30
0.0
 10
27.81208057495316
 20
351.0737421848578
 30
0.0
 10
27.85633124523662
 20
350.9108926441146
 30
0.0
 10
27.9060814068901
 20
350.7454373435805
 30
0.0
 10
27.96140482491749
 20
350.5786106081857
 30
0.0
 10
28.02140433626554
 20
350.4139794175763
 30
0.0
 10
28.08463001845696
 20
350.2552450594188
 30
0.0
 10
28.14960820027179
 20
350.10496499134
 30
0.0
 10
28.21569882063624
 20
349.9632878899415
 30
0.0
 10
28.28241204357473
 20
349.8300105727444
 30
0.0
 10
28.34890669877072
 20
349.7056082689001
 30
0.0
 10
28.41470766839854
 20
349.5897542673388
 30
0.0
 10
28.47937396624012
 20
349.4821205553679
 30
0.0
 10
28.54293841630195
 20
349.3817379058367
 30
0.0
 10
28.60123189676916
 20
349.294093232218
 30
0.0
 10
28.65395689387456
 20
349.2180494135781
 30
0.0
 10
28.70090735210778
 20
349.1526437121149
 30
0.0
 10
28.74559193747206
 20
349.0923965351537
 30
0.0
 10
28.78696847588763
 20
349.0382591620007
 30
0.0
 10
28.8218905973639
 20
348.9937668223591
 30
0.0
 10
28.85054532493164
 20
348.9580167270868
 30
0.0
 10
28.87409195747348
 20
348.9291057567482
 30
0.0
 10
28.89812737046976
 20
348.9000212731346
 30
0.0
 10
28.92564063642755
 20
348.8672530411129
 30
0.0
 10
28.96254777868645
 20
348.8241390625636
 30
0.0
 10
29.00862291746209
 20
348.7717104567527
 30
0.0
 10
29.06358488086436
 20
348.7111703287192
 30
0.0
 10
29.1233289102798
 20
348.647609962287
 30
0.0
 10
29.18807866291773
 20
348.5812269311551
 30
0.0
 10
29.2577258996029
 20
348.5125761195511
 30
0.0
 10
29.34522901668008
 20
348.429821988158
 30
0.0
 10
29.45025875647078
 20
348.3357556347539
 30
0.0
 10
29.57285216877087
 20
348.2330450043388
 30
0.0
 10
29.69821805328099
 20
348.1348130104641
 30
0.0
 10
29.8262425122115
 20
348.0410325443117
 30
0.0
 10
29.95681216151536
 20
347.9516708045911
 30
0.0
 10
30.0716555535861
 20
347.8782926044507
 30
0.0
 10
30.16960412970504
 20
347.8190714039226
 30
0.0
 10
30.25052314397225
 20
347.7721329674693
 30
0.0
 10
30.33458203404787
 20
347.7253987434813
 30
0.0
 10
30.42864800491124
 20
347.6753918738231
 30
0.0
 10
30.53470384042395
 20
347.621877404321
 30
0.0
 10
30.65384947056998
 20
347.5652862591415
 30
0.0
 10
30.78190711196643
 20
347.5083330313226
 30
0.0
 10
30.91926878121698
 20
347.4514641987437
 30
0.0
 10
31.05499368323472
 20
347.3995009671946
 30
0.0
 10
31.18796074635344
 20
347.3523107167132
 30
0.0
 10
31.31704572285016
 20
347.3097081258563
 30
0.0
 10
31.45282667681909
 20
347.2682860384635
 30
0.0
 10
31.59553291479173
 20
347.2283234115839
 30
0.0
 10
31.74057308483075
 20
347.1913410403767
 30
0.0
 10
31.8876934062523
 20
347.1573385864731
 30
0.0
 10
32.03664270611029
 20
347.1262974860645
 30
0.0
 10
32.19208797901884
 20
347.0974237757445
 30
0.0
 10
32.35422537279398
 20
347.0709639444532
 30
0.0
 10
32.52325556395097
 20
347.0471732610453
 30
0.0
 10
32.69938362032742
 20
347.0263038324464
 30
0.0
 10
32.87743511777147
 20
347.0091681534284
 30
0.0
 10
33.05718283417519
 20
346.9955571321226
 30
0.0
 10
33.23841371662789
 20
346.9857619712248
 30
0.0
 10
33.37245532441063
 20
346.9802637068328
 30
0.0
 10
33.44610766031331
 20
346.9791523524862
 30
0.0
 10
33.45712796217659
 20
346.9789860650193
 30
0.0
  0
SPLINE
  5
BB
330
1F
100
AcDbEntity
  8
0
  6
Continuous
 62
     7
370
    30
100
AcDbSpline
210
0.0
220
0.0
230
1.0
 70
     8
 71
     3
 72
    85
 73
    81
 74
     0
 42
0.000000001
 43
0.00000001
 40
0.0
 40
0.0
 40
0.0
 40
0.0
 40
0.0172818796449509
 40
0.0371224801708421
 40
0.0562581636915526
 40
0.0747146644181589
 40
0.0942616241453493
 40
0.1130477116155241
 40
0.1311024664453911
 40
0.1484537988644399
 40
0.1651280107806579
 40
0.1821003503257007
 40
0.1983663966793165
 40
0.213951844439105
 40
0.2288805483818708
 40
0.2431745912591315
 40
0.2568543567426895
 40
0.2722136395007403
 40
0.2867736532149748
 40
0.3005595871917985
 40
0.3135940327151677
 40
0.3253027509131615
 40
0.3363665166149863
 40
0.3468015082440754
 40
0.3570192251050822
 40
0.3673150565899739
 40
0.3776898900416542
 40
0.3941550262234152
 40
0.4108228443466561
 40
0.4276993340790707
 40
0.4460207063711794
 40
0.4645995521183683
 40
0.4834469912953576
 40
0.5025753112995004
 40
0.5219978722048185
 40
0.5406721457831399
 40
0.5596037194735205
 40
0.5787976996215453
 40
0.5982678042790603
 40
0.6180279045426349
 40
0.6380919049368845
 40
0.660941115178939
 40
0.684207949671258
 40
0.7079109517117985
 40
0.7173466025512004
 40
0.7267345788501346
 40
0.735501736502012
 40
0.7435696107772666
 40
0.7509349633443252
 40
0.7575946819430903
 40
0.7646365046779564
 40
0.7706578580076082
 40
0.7756546909256377
 40
0.7796235670883119
 40
0.7820207773517678
 40
0.7844135584232982
 40
0.78731123917592
 40
0.7908761525358287
 40
0.7953590786613306
 40
0.8006985073292784
 40
0.8068977007575677
 40
0.8139604810966193
 40
0.8218912440944433
 40
0.8306949676854429
 40
0.8403772139506531
 40
0.8589231506079053
 40
0.8771558609049667
 40
0.8949930627441085
 40
0.9124425123671434
 40
0.9295122530478128
 40
0.9462107711337624
 40
0.9625471510442144
 40
0.9689418666189514
 40
0.974977649586691
 40
0.9804867089077373
 40
0.9854901043361577
 40
0.9900171990500195
 40
0.995068250790997
 40
0.999554950858633
 40
1.0
 40
1.0
 40
1.0
 40
1.0
 10
33.45712760398356
 20
387.0210041566795
 30
0.0
 10
33.40257625701015
 20
387.0196144919992
 30
0.0
 10
33.28539679864578
 20
387.0166294116377
 30
0.0
 10
33.10797498064721
 20
387.0075455543605
 30
0.0
 10
32.92706084852309
 20
386.9949416907583
 30
0.0
 10
32.7473716645752
 20
386.9786083290675
 30
0.0
 10
32.56917087223216
 20
386.9585374952466
 30
0.0
 10
32.39273114834423
 20
386.9345763474032
 30
0.0
 10
32.22373024279379
 20
386.9076922353343
 30
0.0
 10
32.06194480743918
 20
386.8781691925638
 30
0.0
 10
31.90421715332176
 20
386.8456812253866
 30
0.0
 10
31.75062138759344
 20
386.8103209429956
 30
0.0
 10
31.60123531560194
 20
386.7721932408866
 30
0.0
 10
31.45899366937921
 20
386.7323319278483
 30
0.0
 10
31.32366231675626
 20
386.6910287877094
 30
0.0
 10
31.19501349773363
 20
386.6485643138023
 30
0.0
 10
31.06605644471155
 20
386.6028055851003
 30
0.0
 10
30.93742195794069
 20
386.5537267921697
 30
0.0
 10
30.80973497109463
 20
386.501346471575
 30
0.0
 10
30.69006531620416
 20
386.44886639548
 30
0.0
 10
30.57980199623855
 20
386.3974384001751
 30
0.0
 10
30.47839157207888
 20
386.3474324822016
 30
0.0
 10
30.38530188481531
 20
386.2991619421931
 30
0.0
 10
30.29730127712416
 20
386.2513466150711
 30
0.0
 10
30.21232359559706
 20
386.2030830749688
 30
0.0
 10
30.12843402871895
 20
386.153322247421
 30
0.0
 10
30.0287434653877
 20
386.0915740591618
 30
0.0
 10
29.91378771547109
 20
386.0163114725668
 30
0.0
 10
29.78443277191789
 20
385.9256993027815
 30
0.0
 10
29.65335844006073
 20
385.8274682798891
 30
0.0
 10
29.52098205209463
 20
385.721062737782
 30
0.0
 10
29.38778622775501
 20
385.6059190153404
 30
0.0
 10
29.25700188731278
 20
385.4842672029525
 30
0.0
 10
29.12891806602963
 20
385.3559798075063
 30
0.0
 10
29.00609550494776
 20
385.2233890176165
 30
0.0
 10
28.88864306424516
 20
385.0868431563707
 30
0.0
 10
28.7766401723128
 20
384.946714704949
 30
0.0
 10
28.66828498421719
 20
384.8006054758133
 30
0.0
 10
28.56381626144305
 20
384.6485072727122
 30
0.0
 10
28.46345595743793
 20
384.4904027497676
 30
0.0
 10
28.36349009128614
 20
384.3195623244044
 30
0.0
 10
28.26489669386289
 20
384.1352482052167
 30
0.0
 10
28.16876204401225
 20
383.9367902954995
 30
0.0
 10
28.0975276949213
 20
383.7734947455129
 30
0.0
 10
28.04720619751555
 20
383.6489948160687
 30
0.0
 10
28.01579561242989
 20
383.5677301860786
 30
0.0
 10
27.98706980465449
 20
383.4900685893479
 30
0.0
 10
27.96151811631831
 20
383.4180502609326
 30
0.0
 10
27.93898849222326
 20
383.3520265264778
 30
0.0
 10
27.91819147695884
 20
383.2888394206272
 30
0.0
 10
27.8993451322152
 20
383.2294815382279
 30
0.0
 10
27.88262894484222
 20
383.1749597593242
 30
0.0
 10
27.86913362588678
 20
383.1296014212386
 30
0.0
 10
27.85913289278735
 20
383.0951437269057
 30
0.0
 10
27.85155005958529
 20
383.0685465913876
 30
0.0
 10
27.84497761049753
 20
383.0451787391461
 30
0.0
 10
27.83751220088337
 20
383.0182320327812
 30
0.0
 10
27.82844333078166
 20
382.9848815921824
 30
0.0
 10
27.81759210444468
 20
382.9440270155906
 30
0.0
 10
27.80495548311385
 20
382.8950420985256
 30
0.0
 10
27.79075834345413
 20
382.8380495705823
 30
0.0
 10
27.77520003901945
 20
382.7729672635629
 30
0.0
 10
27.75850598677015
 20
382.6997055352808
 30
0.0
 10
27.74092698082159
 20
382.6181681122594
 30
0.0
 10
27.71774359818707
 20
382.5035628264756
 30
0.0
 10
27.69141724663654
 20
382.359226278486
 30
0.0
 10
27.66462168983963
 20
382.1890106576905
 30
0.0
 10
27.64226126785008
 20
382.0219380905117
 30
0.0
 10
27.62402096354627
 20
381.8584910937176
 30
0.0
 10
27.60955462421655
 20
381.6988624551595
 30
0.0
 10
27.59852783751327
 20
381.5431951623952
 30
0.0
 10
27.59216983246471
 20
381.4213731895294
 30
0.0
 10
27.58864063982114
 20
381.3328065246816
 30
0.0
 10
27.58682334300244
 20
381.2780404941229
 30
0.0
 10
27.58547561269409
 20
381.2283965844796
 30
0.0
 10
27.58451576267229
 20
381.1844501935268
 30
0.0
 10
27.58380801391503
 20
381.1433456087659
 30
0.0
 10
27.58334090767151
 20
381.1068146144765
 30
0.0
 10
27.58311975689659
 20
381.0828032368196
 30
0.0
 10
27.58305908778858
 20
381.0738213943342
 30
0.0
 10
27.58305361290869
 20
381.0730108581295
 30
0.0
  0
ARC
  5
BC
330
1F
100
AcDbEntity
  8
0
  6
Continuous
 62
     7
370
    30
100
AcDbCircle
 10
67.7392262932
 20
345.1759728773
 30
0.0
 40
0.0999999999999956
100
AcDbArc
 50
268.830860672
 51
358.830860672
  0
ARC
  5
BD
330
1F
100
AcDbEntity
  8
0
  6
Continuous
 62
     7
370
    30
100
AcDbCircle
 10
40.4449096492
 20
345.7329997477
 30
0.0
 40
0.1000000000000016
100
AcDbArc
 50
178.830860672
 51
268.830860672
  0
LINE
  5
BE
330
1F
100
AcDbEntity
  8
0
  6
Continuous
 62
     7
370
    30
100
AcDbLine
 10
40.3673599105
 20
346.8340828535
 30
0.0
 11
40.3449304673
 21
345.7350401391
 31
0.0
  0
LINE
  5
BF
330
1F
100
AcDbEntity
  8
0
  6
Continuous
 62
     7
370
    30
100
AcDbLine
 10
67.8392054751
 20
345.1739324859
 30
0.0
 11
67.8613326942
 21
346.2581662232
 31
0.0
  0
LINE
  5
C0
330
1F
100
AcDbEntity
  8
0
  6
Continuous
 62
     7
370
    30
100
AcDbLine
 10
72.5135930778
 20
346.1607152602
 30
0.0
 11
72.5149028311
 21
346.0732488974
 31
0.0
  0
LINE
  5
C1
330
1F
100
AcDbEntity
  8
0
  6
Continuous
 62
     7
370
    30
100
AcDbLine
 10
81.5867133891
 20
345.89239347
 30
0.0
 11
81.5910049193
 21
345.9705705881
 31
0.0
  0
ARC
  5
C2
330
1F
100
AcDbEntity
  8
0
  6
Continuous
 62
     7
370
    30
100
AcDbCircle
 10
77.3876930664
 20
362.8811611807
 30
0.0
 40
17.4999999999896
100
AcDbArc
 50
253.8325713214
 51
283.8832363106
  0
LINE
  5
C3
330
1F
100
AcDbEntity
  8
0
  6
Continuous
 62
     7
370
    30
100
AcDbLine
 10
97.5090050509
 20
345.6371360179
 30
0.0
 11
97.5099362706
 21
345.5749484283
 31
0.0
  0
LINE
  5
C4
330
1F
100
AcDbEntity
  8
0
  6
Continuous
 62
     7
370
    30
100
AcDbLine
 10
106.5817468286
 20
345.3940930008
 30
0.0
 11
106.58465271
 21
345.4470283002
 31
0.0
  0
ARC
  5
C5
330
1F
100
AcDbEntity
  8
0
  6
Continuous
 62
     7
370
    30
100
AcDbCircle
 10
102.3827265059
 20
362.3828607115
 30
0.0
 40
17.49999999998929
100
AcDbArc
 50
253.8325713214
 51
283.8832363106
  0
LINE
  5
C6
330
1F
100
AcDbEntity
  8
0
  6
Continuous
 62
     7
370
    30
100
AcDbLine
 10
291.0827875951
 20
404.2500000046
 30
0.0
 11
288.0672839257
 21
402.5089981517
 31
0.0
  0
LINE
  5
C7
330
1F
100
AcDbEntity
  8
0
  6
Continuous
 62
     7
370
    30
100
AcDbLine
 10
288.0672839257
 20
331.4910018483
 30
0.0
 11
291.0827875951
 21
329.7499999954
 31
0.0
  0
ARC
  5
C8
330
1F
100
AcDbEntity
  8
0
  6
Continuous
 62
     7
370
    30
100
AcDbCircle
 10
283.5827874291
 20
336.0
 30
0.0
 40
3.999999999999943
100
AcDbArc
 50
180.0
 51
270.0
  0
ARC
  5
C9
330
1F
100
AcDbEntity
  8
0
  6
Continuous
 62
     7
370
    30
100
AcDbCircle
 10
283.5827874291
 20
398.0
 30
0.0
 40
4.0
100
AcDbArc
 50
90.0
 51
180.0
  0
LINE
  5
CA
330
1F
100
AcDbEntity
  8
0
  6
Continuous
 62
     7
370
    30
100
AcDbLine
 10
288.0672839257
 20
402.0
 30
0.0
 11
283.5827874291
 21
402.0
 31
0.0
  0
LINE
  5
CB
330
1F
100
AcDbEntity
  8
0
  6
Continuous
 62
     7
370
    30
100
AcDbLine
 10
283.5827874291
 20
332.0
 30
0.0
 11
288.0672839257
 21
332.0
 31
0.0
  0
SPLINE
  5
CC
330
1F
100
AcDbEntity
  8
0
  6
Continuous
 62
     7
370
    30
100
AcDbSpline
210
0.0
220
0.0
230
1.0
 70
    24
 71
     3
 72
    15
 73
    11
 74
     0
 42
0.000000001
 43
0.00000001
 40
0.0
 40
0.0
 40
0.0
 40
0.0
 40
0.1292104269593196
 40
0.2532928956785107
 40
0.3774033842021872
 40
0.5066945184280861
 40
0.6356476561217554
 40
0.7595219629297366
 40
0.88345323897991
 40
1.0
 40
1.0
 40
1.0
 40
1.0
 10
27.58278742906206
 20
367.0000010347226
 30
0.0
 10
27.58278742906201
 20
367.9379518679635
 30
0.0
 10
27.58278742906206
 20
369.7766291956875
 30
0.0
 10
27.58278742906206
 20
372.4181186090429
 30
0.0
 10
27.58278742906201
 20
374.8383204611427
 30
0.0
 10
27.58278742906212
 20
376.9698105573901
 30
0.0
 10
27.58278742906201
 20
378.7655910203408
 30
0.0
 10
27.58278742906217
 20
380.071607480966
 30
0.0
 10
27.58278742906206
 20
380.8595740617389
 30
0.0
 10
27.58278742906206
 20
380.9521346824282
 30
0.0
 10
27.58278742906206
 20
380.9969938332711
 30
0.0
  0
SPLINE
  5
CD
330
1F
100
AcDbEntity
  8
0
  6
Continuous
 62
     7
370
    30
100
AcDbSpline
210
0.0
220
0.0
230
1.0
 70
    24
 71
     3
 72
    15
 73
    11
 74
     0
 42
0.000000001
 43
0.00000001
 40
0.0
 40
0.0
 40
0.0
 40
0.0
 40
0.1034975037083631
 40
0.2291821879384215
 40
0.3549059614161511
 40
0.4858729020593731
 40
0.6169957890623149
 40
0.7428984595604163
 40
0.8688207124337262
 40
1.0
 40
1.0
 40
1.0
 40
1.0
 10
27.58278742906206
 20
353.0318298142544
 30
0.0
 10
27.58278742906206
 20
353.0726501331946
 30
0.0
 10
27.58278742906201
 20
353.163041588755
 30
0.0
 10
27.58278742906212
 20
353.9289949021388
 30
0.0
 10
27.58278742906206
 20
355.2327654603343
 30
0.0
 10
27.58278742906212
 20
357.028875003367
 30
0.0
 10
27.58278742906201
 20
359.1595846505593
 30
0.0
 10
27.58278742906212
 20
361.5795964117436
 30
0.0
 10
27.58278742906206
 20
364.2218717853995
 30
0.0
 10
27.58278742906206
 20
366.0614200144726
 30
0.0
 10
27.58278742906206
 20
367.0000010347226
 30
0.0
  0
LINE
  5
CE
330
1F
100
AcDbEntity
  8
0
  6
Continuous
 62
     7
370
    30
100
AcDbLine
 10
67.7371859018
 20
345.0759936955
 30
0.0
 11
40.4428692577
 21
345.6330205658
 31
0.0
  0
LINE
  5
CF
330
1F
100
AcDbEntity
  8
0
  6
Continuous
 62
     7
370
    30
100
AcDbLine
 10
72.5149028311
 20
346.0732488974
 30
0.0
 11
81.5867133891
 21
345.89239347
 31
0.0
  0
LINE
  5
D0
330
1F
100
AcDbEntity
  8
0
  6
Continuous
 62
     7
370
    30
100
AcDbLine
 10
97.5099362706
 20
345.5749484283
 30
0.0
 11
106.5817468286
 21
345.3940930008
 31
0.0
  0
LINE
  5
D1
330
1F
100
AcDbEntity
  8
0
  6
Continuous
 62
     7
370
    30
100
AcDbLine
 10
288.0672839257
 20
402.5089981517
 30
0.0
 11
288.0672839257
 21
331.4910018483
 31
0.0
  0
LINE
  5
D2
330
1F
100
AcDbEntity
  8
0
  6
Continuous
 62
     7
370
    30
100
AcDbLine
 10
291.0827875951
 20
329.7500000021
 30
0.0
 11
291.0827875951
 21
404.2499999979
 31
0.0
  0
LINE
  5
D3
330
1F
100
AcDbEntity
  8
0
  6
Continuous
 62
     7
370
    30
100
AcDbLine
 10
279.5827874291
 20
336.0
 30
0.0
 11
279.5827874291
 21
398.0
 31
0.0
  0
LINE
  5
D4
330
1F
100
AcDbEntity
  8
0
  6
Continuous
 62
     7
370
    30
100
AcDbLine
 10
386.8232339658
 20
264.5827874291
 30
0.0
 11
391.9788314746
 21
18.4571329098
 31
0.0
  0
LINE
  5
D5
330
1F
100
AcDbEntity
  8
0
  6
Continuous
 62
     7
370
    30
100
AcDbLine
 10
432.0211685254
 20
18.4571329104
 30
0.0
 11
437.1767660342
 21
264.5827874291
 31
0.0
  0
SPLINE
  5
D6
330
1F
100
AcDbEntity
  8
0
  6
Continuous
 62
     7
370
    30
100
AcDbSpline
210
0.0
220
0.0
230
1.0
 70
     8
 71
     3
 72
    65
 73
    61
 74
     0
 42
0.000000001
 43
0.00000001
 40
0.0
 40
0.0
 40
0.0
 40
0.0
 40
0.0175522247352464
 40
0.0383058443735718
 40
0.0583095824564796
 40
0.0775917703049495
 40
0.0994274352000725
 40
0.1203403830557642
 40
0.1403701708233577
 40
0.1595539264949729
 40
0.1782531100229482
 40
0.1961453987740922
 40
0.2132625219867088
 40
0.2296338409249822
 40
0.2452864368271762
 40
0.2599840471608567
 40
0.274034025448355
 40
0.2874561626598456
 40
0.3002685102478478
 40
0.3141558835510682
 40
0.3272934907970607
 40
0.3397008500357861
 40
0.351395274143518
 40
0.3623922384449426
 40
0.3833412290366781
 40
0.4042912146972512
 40
0.4230127611324705
 40
0.4417635604735992
 40
0.4605576200466714
 40
0.479409211030429
 40
0.4986775673481498
 40
0.5180359008114215
 40
0.5374995701998856
 40
0.5572396589545008
 40
0.5774978780187491
 40
0.5979156910116781
 40
0.6188662614513774
 40
0.6403667307336658
 40
0.6624351297516514
 40
0.6816194526971889
 40
0.7012377847328529
 40
0.7213019118387123
 40
0.7418236095352935
 40
0.7628145171643396
 40
0.7840596199118025
 40
0.8086653808314064
 40
0.8327586928214288
 40
0.8563323199587685
 40
0.8793773134722683
 40
0.8940540211690243
 40
0.9085005292835099
 40
0.9227137396728271
 40
0.9366904823778199
 40
0.9504275474377979
 40
0.9639217129924846
 40
0.9770703498116701
 40
0.9840757673095079
 40
0.9904589665158287
 40
0.9962437786644098
 40
0.9999999999999999
 40
0.9999999999999999
 40
0.9999999999999999
 40
0.9999999999999999
 10
391.9791798612818
 20
18.45688615388386
 30
0.0
 10
391.9805595229147
 20
18.40191861446955
 30
0.0
 10
391.9835704861738
 20
18.28195786634995
 30
0.0
 10
391.9930477777253
 20
18.09952451410002
 30
0.0
 10
392.0063907038703
 20
17.91191169528999
 30
0.0
 10
392.024184907606
 20
17.72125863038365
 30
0.0
 10
392.0467455142656
 20
17.52823769367257
 30
0.0
 10
392.0745668215704
 20
17.333538092207
 30
0.0
 10
392.1059652550837
 20
17.14780429131568
 30
0.0
 10
392.1407567814235
 20
16.96973792102868
 30
0.0
 10
392.1786379752489
 20
16.79915601694104
 30
0.0
 10
392.219308216378
 20
16.63588263753474
 30
0.0
 10
392.2621573883805
 20
16.48072136486822
 30
0.0
 10
392.3068309091809
 20
16.3333935285383
 30
0.0
 10
392.3527313896212
 20
16.19440515199866
 30
0.0
 10
392.39949220709
 20
16.06340254582822
 30
0.0
 10
392.4467713193908
 20
15.94004250698655
 30
0.0
 10
392.4945864641396
 20
15.82324798571466
 30
0.0
 10
392.5447535411454
 20
15.70800055553495
 30
0.0
 10
392.5971571820269
 20
15.59473125029243
 30
0.0
 10
392.6516414734691
 20
15.48386122296369
 30
0.0
 10
392.7054382618515
 20
15.38034208906569
 30
0.0
 10
392.7582303670722
 20
15.28388762438265
 30
0.0
 10
392.8263130369497
 20
15.1653333511157
 30
0.0
 10
392.9130086365992
 20
15.02407254592625
 30
0.0
 10
393.0185866072739
 20
14.86617286841274
 30
0.0
 10
393.1259432976099
 20
14.71791251897514
 30
0.0
 10
393.2343594283228
 20
14.5788956013535
 30
0.0
 10
393.3479636120554
 20
14.44355216320242
 30
0.0
 10
393.4674781910149
 20
14.31120464562352
 30
0.0
 10
393.5930034746653
 20
14.1820635651338
 30
0.0
 10
393.7246266431735
 20
14.05635034160369
 30
0.0
 10
393.8619409638198
 20
13.93463960996666
 30
0.0
 10
394.0058806232814
 20
13.81634780458829
 30
0.0
 10
394.1565620085324
 20
13.70176052711536
 30
0.0
 10
394.314582783039
 20
13.59078944510539
 30
0.0
 10
394.4799760155306
 20
13.48378927931843
 30
0.0
 10
394.6537963825044
 20
13.38056706786511
 30
0.0
 10
394.8266063133158
 20
13.28676432688192
 30
0.0
 10
394.997360422928
 20
13.20182364005445
 30
0.0
 10
395.1651041360434
 20
13.12515097431954
 30
0.0
 10
395.3391410741286
 20
13.05241313853378
 30
0.0
 10
395.519487189192
 20
12.98388813164325
 30
0.0
 10
395.7054723788855
 20
12.92008162728653
 30
0.0
 10
395.905647270906
 20
12.8585474744457
 30
0.0
 10
396.1171914039098
 20
12.80130835620369
 30
0.0
 10
396.3376975828979
 20
12.74981134148268
 30
0.0
 10
396.5549757239605
 20
12.70654500026663
 30
0.0
 10
396.7443886113069
 20
12.67489637910646
 30
0.0
 10
396.9061830055765
 20
12.65186941431856
 30
0.0
 10
397.0409126965972
 20
12.6351949472257
 30
0.0
 10
397.1737320369403
 20
12.62111593189003
 30
0.0
 10
397.3045535451903
 20
12.60947279119484
 30
0.0
 10
397.4333018969111
 20
12.60011048780707
 30
0.0
 10
397.5595749110147
 20
12.59289607662994
 30
0.0
 10
397.6649150391874
 20
12.58844712326079
 30
0.0
 10
397.7479063001587
 20
12.58585021837738
 30
0.0
 10
397.80749560083
 20
12.58442435693008
 30
0.0
 10
397.8566634314618
 20
12.58353049314165
 30
0.0
 10
397.8852433082264
 20
12.58321250257321
 30
0.0
 10
397.8964949554457
 20
12.58308731247093
 30
0.0
  0
SPLINE
  5
D7
330
1F
100
AcDbEntity
  8
0
  6
Continuous
 62
     7
370
    30
100
AcDbSpline
210
0.0
220
0.0
230
1.0
 70
     8
 71
     3
 72
    66
 73
    62
 74
     0
 42
0.000000001
 43
0.00000001
 40
0.0
 40
0.0
 40
0.0
 40
0.0
 40
0.0068770564020121
 40
0.0154999966005038
 40
0.0249232564242372
 40
0.0351438545211764
 40
0.0452097470683616
 40
0.0559384110901933
 40
0.0671753574005166
 40
0.0783752653937756
 40
0.0894890984162378
 40
0.1005171186307288
 40
0.1238605356507761
 40
0.146815433423519
 40
0.1693869191297335
 40
0.1915811481635446
 40
0.2134052565010759
 40
0.2361564526060825
 40
0.25851098851995
 40
0.2805477441583498
 40
0.3023799095674412
 40
0.3240199506521457
 40
0.345480487648008
 40
0.3655628112641636
 40
0.3855103053611826
 40
0.4053363088528629
 40
0.4250549621942263
 40
0.4446811483665936
 40
0.466853043731778
 40
0.4887527292150992
 40
0.5103848110325103
 40
0.531770595075318
 40
0.552930344840896
 40
0.572492483180999
 40
0.5918886458184733
 40
0.6111319962141281
 40
0.6224055241079685
 40
0.6336323434599515
 40
0.6450581157047245
 40
0.6572300582054684
 40
0.6704284871598067
 40
0.6844611050619137
 40
0.6993527563093215
 40
0.715131538560101
 40
0.7318290798172221
 40
0.7456162334097878
 40
0.7600113310561716
 40
0.7750349453111172
 40
0.7907093544704578
 40
0.8070586120348218
 40
0.8225290018998904
 40
0.8385993080959677
 40
0.8552916667158333
 40
0.8726295644518343
 40
0.8906378584398151
 40
0.909342790081536
 40
0.92877199242178
 40
0.9472431703348032
 40
0.9663706917984147
 40
0.9861789062272683
 40
1.0
 40
1.0
 40
1.0
 40
1.0
 10
426.0886018645696
 20
12.58304786765035
 30
0.0
 10
426.1101062927675
 20
12.58326842834301
 30
0.0
 10
426.1585744955098
 20
12.58376554364737
 30
0.0
 10
426.2366669977936
 20
12.58541049712947
 30
0.0
 10
426.3252760474149
 20
12.58805713175482
 30
0.0
 10
426.4184303721119
 20
12.59185180621408
 30
0.0
 10
426.5156533532901
 20
12.59689520750756
 30
0.0
 10
426.6160093910759
 20
12.60327675076667
 30
0.0
 10
426.7198299105353
 20
12.61118679445683
 30
0.0
 10
426.8247422270535
 20
12.62055952791902
 30
0.0
 10
426.9288693053325
 20
12.63125272413024
 30
0.0
 10
427.0707118074266
 20
12.64773914794576
 30
0.0
 10
427.2490242003107
 20
12.67229601472114
 30
0.0
 10
427.4622734124832
 20
12.70812262693449
 30
0.0
 10
427.67080737893
 20
12.74966573441028
 30
0.0
 10
427.8745067728412
 20
12.79680357759594
 30
0.0
 10
428.0771768602722
 20
12.85043957402454
 30
0.0
 10
428.2784689654629
 20
12.91083397538245
 30
0.0
 10
428.4782052699248
 20
12.97830850805937
 30
0.0
 10
428.6727709820021
 20
13.05168267123308
 30
0.0
 10
428.8625423622279
 20
13.13104977031393
 30
0.0
 10
429.0476762184667
 20
13.2164739723204
 30
0.0
 10
429.2246378243366
 20
13.3061784814209
 30
0.0
 10
429.3935624726809
 20
13.39968975446348
 30
0.0
 10
429.5546303866577
 20
13.49655066873517
 30
0.0
 10
429.7111198593545
 20
13.59857169168771
 30
0.0
 10
429.8629347202462
 20
13.70568863271959
 30
0.0
 10
430.016531132055
 20
13.82282631065801
 30
0.0
 10
430.1706242076956
 20
13.95037166173046
 30
0.0
 10
430.3238352365274
 20
14.08856609419623
 30
0.0
 10
430.4693075705543
 20
14.23138197978652
 30
0.0
 10
430.6070785547599
 20
14.37847090142963
 30
0.0
 10
430.7343939252364
 20
14.52621656967573
 30
0.0
 10
430.8518803220445
 20
14.67397783384644
 30
0.0
 10
430.9601724271018
 20
14.82119491199274
 30
0.0
 10
431.0483273504674
 20
14.95078474453443
 30
0.0
 10
431.1188968461716
 20
15.06121909347774
 30
0.0
 10
431.1743537205708
 20
15.15215722320468
 30
0.0
 10
431.2293123272717
 20
15.24667458999107
 30
0.0
 10
431.2852151967492
 20
15.34777342130073
 30
0.0
 10
431.3425845159434
 20
15.45737837086497
 30
0.0
 10
431.4010591993899
 20
15.5760001459217
 30
0.0
 10
431.4599144383006
 20
15.70341807853531
 30
0.0
 10
431.5187089243308
 20
15.84002514040755
 30
0.0
 10
431.57248137902
 20
15.97496198628734
 30
0.0
 10
431.6213667814193
 20
16.1071144326625
 30
0.0
 10
431.6655521699801
 20
16.23536657659913
 30
0.0
 10
431.7085835949962
 20
16.37024416652699
 30
0.0
 10
431.7501848681338
 20
16.51197626897305
 30
0.0
 10
431.7887851257451
 20
16.65600827695923
 30
0.0
 10
431.8243859938763
 20
16.80208773294034
 30
0.0
 10
431.8570073577998
 20
16.94996505430912
 30
0.0
 10
431.8874950360841
 20
17.104278102405
 30
0.0
 10
431.9156048354897
 20
17.2652223586034
 30
0.0
 10
431.9410853760346
 20
17.43299770269902
 30
0.0
 10
431.9636832909472
 20
17.60780837419584
 30
0.0
 10
431.9825544613374
 20
17.78452145527704
 30
0.0
 10
431.9978470818313
 20
17.96291115696885
 30
0.0
 10
432.0095080720655
 20
18.14276163962403
 30
0.0
 10
432.0173935729311
 20
18.30821490250845
 30
0.0
 10
432.0197662514385
 20
18.41376502684516
 30
0.0
 10
432.0207413833665
 20
18.45714439574076
 30
0.0
  0
LINE
  5
D8
330
1F
100
AcDbEntity
  8
0
  6
Continuous
 62
     7
370
    30
100
AcDbLine
 10
374.7499999954
 20
276.0827875951
 30
0.0
 11
376.4910018483
 21
273.0672839257
 31
0.0
  0
LINE
  5
D9
330
1F
100
AcDbEntity
  8
0
  6
Continuous
 62
     7
370
    30
100
AcDbLine
 10
447.5089981517
 20
273.0672839257
 30
0.0
 11
449.2500000046
 21
276.0827875951
 31
0.0
  0
ARC
  5
DA
330
1F
100
AcDbEntity
  8
0
  6
Continuous
 62
     7
370
    30
100
AcDbCircle
 10
443.0
 20
268.5827874291
 30
0.0
 40
4.0
100
AcDbArc
 50
270.0
 51
0.0
  0
ARC
  5
DB
330
1F
100
AcDbEntity
  8
0
  6
Continuous
 62
     7
370
    30
100
AcDbCircle
 10
381.0
 20
268.5827874291
 30
0.0
 40
4.0
100
AcDbArc
 50
180.0
 51
270.0
  0
LINE
  5
DC
330
1F
100
AcDbEntity
  8
0
  6
Continuous
 62
     7
370
    30
100
AcDbLine
 10
377.0
 20
273.0672839257
 30
0.0
 11
377.0
 21
268.5827874291
 31
0.0
  0
LINE
  5
DD
330
1F
100
AcDbEntity
  8
0
  6
Continuous
 62
     7
370
    30
100
AcDbLine
 10
447.0
 20
268.5827874291
 30
0.0
 11
447.0
 21
273.0672839257
 31
0.0
  0
SPLINE
  5
DE
330
1F
100
AcDbEntity
  8
0
  6
Continuous
 62
     7
370
    30
100
AcDbSpline
210
0.0
220
0.0
230
1.0
 70
    24
 71
     3
 72
    23
 73
    19
 74
     0
 42
0.000000001
 43
0.00000001
 40
0.0
 40
0.0
 40
0.0
 40
0.0
 40
0.0443143779676919
 40
0.1078005974841421
 40
0.1713011532035768
 40
0.2374523622641581
 40
0.3034306369669496
 40
0.3668103514071674
 40
0.4302192138958795
 40
0.4962814546353784
 40
0.562317626117683
 40
0.625742930266099
 40
0.6891911348387104
 40
0.7552932703227244
 40
0.8215843248082559
 40
0.88523330324387
 40
0.9489030246866212
 40
1.0
 40
1.0
 40
1.0
 40
1.0
 10
425.9379335028546
 20
12.58278742906205
 30
0.0
 10
425.9019691700132
 20
12.58278742906205
 30
0.0
 10
425.8144811639479
 20
12.58278742906205
 30
0.0
 10
425.0720780319789
 20
12.58278742906199
 30
0.0
 10
423.7707435339755
 20
12.5827874290621
 30
0.0
 10
421.9736210640106
 20
12.58278742906205
 30
0.0
 10
419.8451385054963
 20
12.5827874290621
 30
0.0
 10
417.430069134538
 20
12.58278742906199
 30
0.0
 10
414.792702891269
 20
12.5827874290621
 30
0.0
 10
412.019320962342
 20
12.58278742906205
 30
0.0
 10
409.2448751975845
 20
12.58278742906194
 30
0.0
 10
406.6046721260138
 20
12.5827874290621
 30
0.0
 10
404.1840932533379
 20
12.58278742906205
 30
0.0
 10
402.0471839366344
 20
12.58278742906199
 30
0.0
 10
400.2417693784953
 20
12.5827874290621
 30
0.0
 10
398.9309413511444
 20
12.58278742906199
 30
0.0
 10
398.1656878217333
 20
12.5827874290621
 30
0.0
 10
398.0763605913633
 20
12.58278742906205
 30
0.0
 10
398.0365898964314
 20
12.58278742906205
 30
0.0
  0
LWPOLYLINE
  5
DF
330
1F
100
AcDbEntity
  8
0
  6
Continuous
 62
     7
370
    30
100
AcDbPolyline
 90
        3
 70
   128
 43
0.0
 10
414.3095827547
 20
94.5866762373
 10
414.423822284
 20
94.58687811
 10
414.4366967033
 20
94.5869014763
  0
LINE
  5
E0
330
1F
100
AcDbEntity
  8
0
  6
Continuous
 62
     7
370
    30
100
AcDbLine
 10
376.4910018483
 20
273.0672839257
 30
0.0
 11
447.5089981517
 21
273.0672839257
 31
0.0
  0
LINE
  5
E1
330
1F
100
AcDbEntity
  8
0
  6
Continuous
 62
     7
370
    30
100
AcDbLine
 10
449.2499999979
 20
276.0827875951
 30
0.0
 11
374.7500000021
 21
276.0827875951
 31
0.0
  0
LINE
  5
E2
330
1F
100
AcDbEntity
  8
0
  6
Continuous
 62
     7
370
    30
100
AcDbLine
 10
443.0
 20
264.5827874291
 30
0.0
 11
381.0
 21
264.5827874291
 31
0.0
  0
LINE
  5
E3
330
1F
100
AcDbEntity
  8
0
  6
Continuous
 62
     7
370
    30
100
AcDbLine
 10
749.9924411469
 20
197.4166437268
 30
0.0
 11
578.5704275512
 21
92.5044513877
 31
0.0
  0
LINE
  5
E4
330
1F
100
AcDbEntity
  8
0
  6
Continuous
 62
     7
370
    30
100
AcDbLine
 10
598.5877567513
 20
57.8296538521
 30
0.0
 11
775.1643990068
 21
153.8128092212
 31
0.0
  0
SPLINE
  5
E5
330
1F
100
AcDbEntity
  8
0
  6
Continuous
 62
     7
370
    30
100
AcDbSpline
210
0.0
220
0.0
230
1.0
 70
     8
 71
     3
 72
  1004
 73
  1000
 74
     0
 42
0.000000001
 43
0.00000001
 40
0.0
 40
0.0
 40
0.0
 40
0.0
 40
0.0001786912458736
 40
0.0013591051631466
 40
0.0025442152016395
 40
0.0037796413030946
 40
0.0045994817827437
 40
0.0056912839052518
 40
0.0063452608477915
 40
0.0072015654785332
 40
0.0080386352000393
 40
0.0087357127732653
 40
0.0094068387375527
 40
0.0099643382901287
 40
0.0104219435811835
 40
0.0107779549483273
 40
0.0112572136628815
 40
0.0118712769655511
 40
0.0129140532979843
 40
0.0139032603597519
 40
0.0147576508066969
 40
0.0156873327271947
 40
0.0166265938363085
 40
0.0176216414981677
 40
0.0182314390196212
 40
0.0188338322385211
 40
0.0195088858853654
 40
0.0201820953022835
 40
0.0209736987019409
 40
0.0218772479011819
 40
0.0226058695238641
 40
0.0238395070249093
 40
0.0250713592738514
 40
0.0260470242366105
 40
0.0270034481894772
 40
0.0279909618031456
 40
0.0288175891531652
 40
0.029435227291302
 40
0.0301703822769464
 40
0.030910194637993
 40
0.0316404825179568
 40
0.0323698641730001
 40
0.0330183575319777
 40
0.0334862797511888
 40
0.0347683424319703
 40
0.0359569332270291
 40
0.0371426595585327
 40
0.0382606682154987
 40
0.0394282188260732
 40
0.0407629070610211
 40
0.0417271998633285
 40
0.042254514131695
 40
0.0428961321626264
 40
0.0435894012977955
 40
0.0442275384532598
 40
0.0448708244620005
 40
0.04566869279321
 40
0.0462935977367868
 40
0.0467654476351632
 40
0.0472209035605435
 40
0.0476869587325296
 40
0.0481514291802068
 40
0.0488383738573763
 40
0.04961837420621
 40
0.0503699736199684
 40
0.0511793347486414
 40
0.0520637348163651
 40
0.0526930953241327
 40
0.0530587426663876
 40
0.0535510938796527
 40
0.0541123600236406
 40
0.05469986127189
 40
0.0551525471994733
 40
0.0554526306345772
 40
0.0557524499309846
 40
0.0562812153946715
 40
0.0568860099817949
 40
0.0574280570299428
 40
0.0579148434333855
 40
0.0585217745023772
 40
0.0591298568416763
 40
0.0596742380902734
 40
0.0602755463854989
 40
0.0609830946826248
 40
0.0617917548419596
 40
0.0636361210298268
 40
0.0653223951292273
 40
0.0673833975624123
 40
0.0697835357286808
 40
0.0715875239721439
 40
0.0733442559857167
 40
0.0753359532588022
 40
0.0772979072911448
 40
0.0786935650347795
 40
0.0800333682381982
 40
0.0812525544060532
 40
0.0825698618726058
 40
0.0840603062393213
 40
0.0852726707293739
 40
0.0861160740617926
 40
0.0869445303626381
 40
0.0876952652747776
 40
0.0883579557486167
 40
0.0890289377519483
 40
0.0897949486690513
 40
0.0907944672210291
 40
0.0919100653251627
 40
0.09275062315792
 40
0.0934159085683891
 40
0.0940215817189483
 40
0.0946065200728393
 40
0.0952261938200507
 40
0.0957890416943344
 40
0.096434021519044
 40
0.097104740481778
 40
0.0976254308532508
 40
0.097985921827199
 40
0.0983834288532952
 40
0.0989440660742835
 40
0.099623760364429
 40
0.1002196074036733
 40
0.1007063290428615
 40
0.1011440075089816
 40
0.1016742819119793
 40
0.1023007501431926
 40
0.1029254633831007
 40
0.1040282693838328
 40
0.1053381283162353
 40
0.106628745419937
 40
0.1077430054744125
 40
0.1091657597776698
 40
0.1097144101448223
 40
0.1102144194717003
 40
0.1108333877166381
 40
0.1115634325319077
 40
0.1122241731708892
 40
0.1127599887944664
 40
0.1132684129315781
 40
0.1139002857670817
 40
0.1150425608703021
 40
0.1159364757648151
 40
0.11688537178412
 40
0.1179521165094207
 40
0.1188475724214664
 40
0.1198223145168518
 40
0.1209545556656226
 40
0.1221337062002913
 40
0.1232430675463553
 40
0.124629010272258
 40
0.1258923178574792
 40
0.1271343711511126
 40
0.1284975061606445
 40
0.1296781359652673
 40
0.1304655766335762
 40
0.1313489134617748
 40
0.1321385075316325
 40
0.1328323729502481
 40
0.1334409492463054
 40
0.1340236685895687
 40
0.134590039039336
 40
0.1351402979189189
 40
0.1367340615324796
 40
0.1385590513314135
 40
0.1402614722324564
 40
0.1421681548048739
 40
0.1436202275337508
 40
0.1445303628222485
 40
0.1454305202478576
 40
0.146307620975752
 40
0.1473285074204876
 40
0.1485994193644123
 40
0.1496206667976696
 40
0.1505200259777999
 40
0.1514208062800314
 40
0.1523705216948697
 40
0.1533824721346044
 40
0.154949605282574
 40
0.1562180984792484
 40
0.1572384129963358
 40
0.1582678809515889
 40
0.1593119270619946
 40
0.1603530566403867
 40
0.161804398310526
 40
0.1633649949893403
 40
0.1650708798390816
 40
0.166895213305545
 40
0.168768188183911
 40
0.1702047254370183
 40
0.1715455724982203
 40
0.1727447164217523
 40
0.1738181377557842
 40
0.1748966745915028
 40
0.1757162667104065
 40
0.1766979185423737
 40
0.1778475964916747
 40
0.1790075535764495
 40
0.1800626725012761
 40
0.181051763892459
 40
0.1820481986932002
 40
0.1834289231643245
 40
0.1847397125323615
 40
0.1859531821622465
 40
0.1872116360111209
 40
0.1893078096133878
 40
0.1913616869457293
 40
0.1932900095743375
 40
0.1951085780268131
 40
0.1969954619722825
 40
0.1989971902120174
 40
0.2006582586720549
 40
0.2023461512130209
 40
0.2039938028518868
 40
0.2055931405457204
 40
0.2070317117769037
 40
0.208273416469162
 40
0.2095659273941935
 40
0.2109224078025097
 40
0.2123429958992794
 40
0.2139259861279783
 40
0.2157520222584288
 40
0.2178206389488112
 40
0.2201312689805136
 40
0.2221161326561654
 40
0.2242346078310177
 40
0.2262917392819553
 40
0.2282280838545171
 40
0.2300439398335604
 40
0.2317395762361706
 40
0.2333152360869646
 40
0.2350021617164816
 40
0.2365264047041283
 40
0.2378882607829121
 40
0.2391241788048298
 40
0.240280804697355
 40
0.2413584193782444
 40
0.2421497516395042
 40
0.2428924123811265
 40
0.2435987185791064
 40
0.2444482151655979
 40
0.2455001171268398
 40
0.2467364120140567
 40
0.2479962490234321
 40
0.2492944000099488
 40
0.2506305585490685
 40
0.2519272304852685
 40
0.2528758249203376
 40
0.2537626904624817
 40
0.2546641505230344
 40
0.2557691123069377
 40
0.2570755699697067
 40
0.2583094596282303
 40
0.2594260270328694
 40
0.260425374549465
 40
0.2613116238458987
 40
0.2621184273309219
 40
0.2628533459009206
 40
0.2635164166055281
 40
0.2641254576100703
 40
0.2648481800794341
 40
0.2657204679118577
 40
0.2666813370387368
 40
0.2677040091062507
 40
0.2686316061233189
 40
0.2695047784518642
 40
0.2703817878954768
 40
0.2712900684015266
 40
0.2722845591002623
 40
0.2734225945233902
 40
0.2745409065672816
 40
0.2757161293526084
 40
0.2768476311702371
 40
0.2777538928954011
 40
0.2783385350231994
 40
0.2789840585525415
 40
0.2797130014317884
 40
0.2804980216397676
 40
0.2814898795071026
 40
0.2824234907007446
 40
0.2831815516340375
 40
0.2839106180784227
 40
0.2847838886341371
 40
0.2857675873661361
 40
0.2873327996538132
 40
0.2887799939849153
 40
0.2902900399771166
 40
0.2916719913025785
 40
0.2932030383995936
 40
0.2946443732479093
 40
0.2971800900232656
 40
0.2990988762100633
 40
0.30178951885893
 40
0.3044537009607788
 40
0.306856736540125
 40
0.3086201695935986
 40
0.3098887748739123
 40
0.3114379486305035
 40
0.312707525356839
 40
0.314334368610182
 40
0.3156309435518683
 40
0.3170288403539818
 40
0.3182019243969639
 40
0.3194595404189106
 40
0.3208453360851031
 40
0.3221056225044041
 40
0.3236056594977585
 40
0.3248113770934362
 40
0.3256899670069752
 40
0.3266374083800804
 40
0.3275554087231776
 40
0.3283240193001045
 40
0.3291412542268058
 40
0.3299889692273122
 40
0.3308493206445688
 40
0.3318795964936432
 40
0.3326301755046068
 40
0.3332261314013182
 40
0.3338353011180396
 40
0.3345689389806068
 40
0.3350681861521685
 40
0.3354967671044917
 40
0.3358459281235487
 40
0.3361193406932433
 40
0.3364572684623962
 40
0.3370859569679802
 40
0.3378066677245887
 40
0.3384008756253625
 40
0.3388663652976961
 40
0.3392988730484785
 40
0.3397575892057602
 40
0.340238732194882
 40
0.3407834755935434
 40
0.341303462670332
 40
0.3418172288445748
 40
0.3423308469548951
 40
0.3429526239237077
 40
0.3437334532631057
 40
0.34436942648466
 40
0.3448498561181571
 40
0.3452256821100046
 40
0.3457372511305662
 40
0.3463983817892883
 40
0.3470158026760949
 40
0.3476512792399753
 40
0.3481565674944286
 40
0.3486419730537252
 40
0.3491241923266632
 40
0.3497148051378156
 40
0.3503968098712447
 40
0.3508385556204112
 40
0.3511989748889335
 40
0.3516518157485557
 40
0.352234632611483
 40
0.3528779649198694
 40
0.3534391742733793
 40
0.3541441207120415
 40
0.3548395138768239
 40
0.355575818036284
 40
0.3563322114128716
 40
0.3570114135781087
 40
0.3576639752857533
 40
0.358538903991341
 40
0.3593274505022545
 40
0.3599924355352911
 40
0.3609192978777685
 40
0.3616631989167907
 40
0.3623448281412188
 40
0.3633092364055192
 40
0.3640846517242712
 40
0.3647950825474443
 40
0.3656422620908971
 40
0.3666105403176328
 40
0.3672889104432692
 40
0.3681377439821497
 40
0.36907590295489
 40
0.3697311771991134
 40
0.3702480801441856
 40
0.3708544582323943
 40
0.3714761336538054
 40
0.3720608423221176
 40
0.3725176040566827
 40
0.3729669542067268
 40
0.3735647246209456
 40
0.374225941520171
 40
0.3747481305796327
 40
0.3752435121051917
 40
0.3758450487648432
 40
0.3765493887992695
 40
0.377312052888547
 40
0.3779382169955616
 40
0.3785154508705
 40
0.3794922684160809
 40
0.3803355975564201
 40
0.3809872314019102
 40
0.3816235322193729
 40
0.382544515142589
 40
0.3833755104334871
 40
0.383983821958955
 40
0.3847064651181331
 40
0.3854165572822107
 40
0.3861847337993377
 40
0.3867633252870358
 40
0.3872986227196826
 40
0.3879415326594183
 40
0.3886482567648271
 40
0.3893646106571051
 40
0.3899336588441586
 40
0.3911648905038819
 40
0.392599075957747
 40
0.393723558657931
 40
0.3951259899000769
 40
0.3964216748723408
 40
0.3975949017625802
 40
0.3991046706895045
 40
0.4002077405850177
 40
0.4015379385913765
 40
0.4029991686099675
 40
0.4040423666106169
 40
0.4055030088246148
 40
0.4068139628832609
 40
0.4079144792535862
 40
0.4088985461347169
 40
0.4100011311864356
 40
0.4107606787451354
 40
0.4114804993038118
 40
0.412390663903764
 40
0.4134246543168853
 40
0.4143689604515556
 40
0.415102741236255
 40
0.4157574322859184
 40
0.4165912442626034
 40
0.4174845290375724
 40
0.4183180581692271
 40
0.4189930233444298
 40
0.4196245435228738
 40
0.4202964164033254
 40
0.4211075663111082
 40
0.421967671617517
 40
0.4227524985179251
 40
0.4233728982236413
 40
0.4241442684813214
 40
0.4250217465973799
 40
0.4260870565814502
 40
0.4271384027413024
 40
0.4280015880707143
 40
0.4287794019617867
 40
0.4296000921833856
 40
0.4306320826425427
 40
0.4317442143125481
 40
0.4326664460957752
 40
0.4334663284537613
 40
0.4342488583699721
 40
0.4351243808302914
 40
0.4361778798073417
 40
0.4373550234741476
 40
0.4383445669400237
 40
0.4392274028286375
 40
0.4401114697564387
 40
0.4410945223078716
 40
0.4430587149973516
 40
0.444663308994954
 40
0.4460991452470827
 40
0.4476869470325749
 40
0.4496241908424748
 40
0.4512791380099126
 40
0.4527616222291957
 40
0.4539340900329769
 40
0.4552753150972317
 40
0.4567724434374121
 40
0.4581941506049158
 40
0.4593975996006586
 40
0.4606015606632263
 40
0.4617862785850742
 40
0.4630072259268341
 40
0.4644408430308586
 40
0.4659206783628015
 40
0.4673280059387737
 40
0.4685709141437316
 40
0.4709884215711708
 40
0.4734009865696227
 40
0.4749467533137983
 40
0.476612552200268
 40
0.4782997612844385
 40
0.4799750544994879
 40
0.4815393312033119
 40
0.4829532365245874
 40
0.4861596502042943
 40
0.4894089631999134
 40
0.4926890120465143
 40
0.4960002438084596
 40
0.4991791534725049
 40
0.5024481656253487
 40
0.5058326494503178
 40
0.5093202014035453
 40
0.5128453660567028
 40
0.5164093966561843
 40
0.5197736842639927
 40
0.5229429756300982
 40
0.5261038835951707
 40
0.5273842029559186
 40
0.5287800691389083
 40
0.5302466590146463
 40
0.5317002521164533
 40
0.533005705963553
 40
0.5341820623017024
 40
0.5353777159899308
 40
0.536556220172016
 40
0.5377173507396625
 40
0.5387928738223874
 40
0.5399701245417768
 40
0.5411369236083943
 40
0.5422143345229649
 40
0.5431729023413294
 40
0.5438976271318522
 40
0.544633726315107
 40
0.5453649201390988
 40
0.5460862789456588
 40
0.5469096944826447
 40
0.548140512598975
 40
0.5494031897866112
 40
0.5504855616285353
 40
0.5514329836354265
 40
0.5523756877574584
 40
0.5533201472632487
 40
0.5540760876329883
 40
0.5549433577149336
 40
0.5558087782410995
 40
0.5565955133749898
 40
0.5572967320078103
 40
0.5579327456023404
 40
0.558558189948313
 40
0.5592861637934157
 40
0.5600982867303235
 40
0.5611169701131927
 40
0.5621467973290777
 40
0.5629959688913513
 40
0.5637376896192703
 40
0.5644163633907616
 40
0.5651209201694883
 40
0.5659579703287894
 40
0.5668939791433203
 40
0.5678043446100866
 40
0.5685050766742978
 40
0.5691388925651931
 40
0.5697481979615966
 40
0.5703957072659676
 40
0.5711821554938649
 40
0.5720534052318635
 40
0.5729023730699851
 40
0.573627456214988
 40
0.5742858993818007
 40
0.5749552286513414
 40
0.5757209225856071
 40
0.576691932046188
 40
0.5775964117610553
 40
0.5783613395422643
 40
0.5790222952431061
 40
0.5797063415992262
 40
0.5805861001232521
 40
0.5815026485802143
 40
0.5823402604370586
 40
0.583016768092798
 40
0.5836586025161483
 40
0.5851234191591418
 40
0.5866210531167068
 40
0.58775148558575
 40
0.5892470523420648
 40
0.5906891375611317
 40
0.5918468383204634
 40
0.592447430850761
 40
0.5932000858157948
 40
0.5939502808597211
 40
0.594497341736481
 40
0.5949721725260257
 40
0.5954569369846298
 40
0.596031053978137
 40
0.5967084063491873
 40
0.597351133303858
 40
0.5979359530989649
 40
0.5984357014155091
 40
0.5990373356603557
 40
0.5997478693814562
 40
0.6005891820064645
 40
0.6014147866702885
 40
0.6020160777722421
 40
0.6023948226587152
 40
0.6027958015465876
 40
0.6033025499708372
 40
0.6039321762779131
 40
0.6045259908937006
 40
0.6049803941080745
 40
0.6053500330188158
 40
0.6057185056801494
 40
0.6061255827046702
 40
0.6066709938318363
 40
0.6073237101191754
 40
0.6078752547069926
 40
0.6082733848690121
 40
0.6086246542852913
 40
0.6089688596846812
 40
0.6093496890669932
 40
0.6098582449010138
 40
0.6106740869985987
 40
0.6113088409872565
 40
0.6117796681642789
 40
0.6122147331726879
 40
0.6127274510433216
 40
0.6134158684738096
 40
0.6140743284678816
 40
0.6145759936950737
 40
0.6149886343246729
 40
0.61544374330245
 40
0.6159965718951866
 40
0.6175110548065202
 40
0.6186124941022765
 40
0.6200078073612598
 40
0.6211697410477466
 40
0.6217660218047292
 40
0.6224712048927716
 40
0.623067469389484
 40
0.6235597453158869
 40
0.6240055145220063
 40
0.6244876835802416
 40
0.625171287473817
 40
0.6258794825699661
 40
0.6263522337671096
 40
0.6267451261358036
 40
0.6271946479993527
 40
0.6277139356963038
 40
0.6283637154035696
 40
0.6291489248958884
 40
0.6298577046382579
 40
0.6303650824691301
 40
0.6313022751474983
 40
0.6325042978685218
 40
0.633460386703161
 40
0.6345494582789519
 40
0.63561374080893
 40
0.636543962830897
 40
0.6374716302341095
 40
0.6382987357446521
 40
0.6390165480984966
 40
0.6399924314864797
 40
0.6408957641348579
 40
0.6416631121491362
 40
0.6426134581427151
 40
0.6434581501727219
 40
0.6441352682063559
 40
0.6446736039839687
 40
0.6451599345063487
 40
0.6459015394463591
 40
0.6466881400481523
 40
0.6472018979529802
 40
0.6478692366492286
 40
0.6487698744398351
 40
0.6495329486498713
 40
0.6501338400945765
 40
0.6506614719522378
 40
0.6510034894666928
 40
0.6514134151805822
 40
0.6519497514747424
 40
0.6525100016414167
 40
0.6529266325123864
 40
0.6532478284344855
 40
0.653746713381463
 40
0.6543980506581986
 40
0.655068055946735
 40
0.65564368769189
 40
0.6562354466182613
 40
0.6569351945283596
 40
0.6576947184496323
 40
0.6582468530734961
 40
0.658760264920146
 40
0.659373253793688
 40
0.660071303589542
 40
0.6608383346574698
 40
0.6615933697724726
 40
0.6622065003578078
 40
0.6628396523291249
 40
0.6636040227725828
 40
0.6641454168256328
 40
0.6645931052415462
 40
0.6649431617707077
 40
0.6652524497328317
 40
0.6657008308446264
 40
0.6662913725447679
 40
0.6668607918901402
 40
0.6676553881004426
 40
0.6683431535176569
 40
0.6690788290733581
 40
0.6697723036452496
 40
0.6704209334136494
 40
0.6711749656898356
 40
0.6718160227313708
 40
0.6724468083993593
 40
0.6730589631560452
 40
0.6736160311346299
 40
0.6741201555627666
 40
0.6747203273363128
 40
0.6754773782797138
 40
0.6762430062100071
 40
0.6768288976660479
 40
0.6773683469620538
 40
0.6780049817116726
 40
0.6787114894356426
 40
0.6792944908703669
 40
0.6797725991885007
 40
0.6802310860001308
 40
0.6807922823244382
 40
0.6814492047771326
 40
0.682509748133918
 40
0.6834103316196697
 40
0.6846129265363147
 40
0.6855895277342111
 40
0.686550757576196
 40
0.6877508140844848
 40
0.6883895125448746
 40
0.6889731803586959
 40
0.6897209615883985
 40
0.6905397911363284
 40
0.6911987557667538
 40
0.691764397173032
 40
0.6924569146510982
 40
0.693433981229221
 40
0.6942365572406739
 40
0.6950358607083329
 40
0.6961051058877373
 40
0.6971511954297822
 40
0.698162202097156
 40
0.6992602475994917
 40
0.700286176748853
 40
0.7012573200648722
 40
0.7020472798923565
 40
0.7027112347796216
 40
0.7035249317074352
 40
0.7044956928956745
 40
0.7061079454130776
 40
0.7075498335436458
 40
0.7090710794940103
 40
0.7104472020699835
 40
0.7119672635846548
 40
0.7134021509619576
 40
0.7143506377759382
 40
0.7154104848267668
 40
0.7164304179354497
 40
0.71732164374048
 40
0.718164632539512
 40
0.7190604919311598
 40
0.7200162394238319
 40
0.7214327628515309
 40
0.7228241749007018
 40
0.7241112801688182
 40
0.7252524368016041
 40
0.7263471905397303
 40
0.72751406025747
 40
0.7288355399213685
 40
0.7303674356776385
 40
0.7318682382890481
 40
0.7332604104603041
 40
0.7346578937567375
 40
0.7362688025989478
 40
0.737750087853964
 40
0.7392426096375427
 40
0.7408939728548932
 40
0.7425359735724751
 40
0.7440833837584276
 40
0.7451312264720398
 40
0.7459952295959836
 40
0.746781843432125
 40
0.7475471816679258
 40
0.7482912450632591
 40
0.7490163579176167
 40
0.7504221913946534
 40
0.7520500166673787
 40
0.7539002612341046
 40
0.7559733341889432
 40
0.7582696639375509
 40
0.7607897250903615
 40
0.7635340603021791
 40
0.7658480683623827
 40
0.7683012699161729
 40
0.7708920213280582
 40
0.7734784049195892
 40
0.7759734156474459
 40
0.7783768769581757
 40
0.7806886056020323
 40
0.7837705538533902
 40
0.7866718273652027
 40
0.789391927516138
 40
0.7919303885081781
 40
0.7942867982694252
 40
0.796423602998878
 40
0.7983840124354951
 40
0.8001629020216307
 40
0.8017580323404606
 40
0.8024514684498608
 40
0.8031033174454549
 40
0.8037638894034739
 40
0.8045934681665671
 40
0.8056041665326796
 40
0.8067752048088568
 40
0.8079109540366844
 40
0.8090580521984112
 40
0.8102165261477936
 40
0.811295844308744
 40
0.812201349112279
 40
0.8127488492788928
 40
0.8133864339176884
 40
0.8141868520659011
 40
0.8151502915238488
 40
0.8161605989597387
 40
0.8170736868187343
 40
0.8178890294007677
 40
0.8188505836699171
 40
0.8196919650046425
 40
0.8204630934399056
 40
0.8211952575922146
 40
0.8222433284247711
 40
0.8234322425640674
 40
0.824865731906259
 40
0.8265033234780623
 40
0.828056196982651
 40
0.8294968145616535
 40
0.8308425825888418
 40
0.8320197212903299
 40
0.8331575377656572
 40
0.8342579569981173
 40
0.8354425081950551
 40
0.836799962852826
 40
0.8381665762012426
 40
0.8391803090422946
 40
0.8400580792026158
 40
0.8408113855395813
 40
0.8416875499146687
 40
0.8427253273222615
 40
0.844035118915828
 40
0.8451809709251603
 40
0.846378696956879
 40
0.8474594263987736
 40
0.8484284992094766
 40
0.8493745350237529
 40
0.8503203549177244
 40
0.8512599764600892
 40
0.8522336561714481
 40
0.8531174088377376
 40
0.8541485756980132
 40
0.8551242843718784
 40
0.8559404346467919
 40
0.8568408411627393
 40
0.8578827684469451
 40
0.8588974315019804
 40
0.8598050314722823
 40
0.8604263450766818
 40
0.8609746468514683
 40
0.861557541492402
 40
0.8622025853056315
 40
0.8628773980178612
 40
0.8634451315461666
 40
0.86389533590028
 40
0.864394486697746
 40
0.8652198218930967
 40
0.8662062039624241
 40
0.8671406729085033
 40
0.8680002730000927
 40
0.8688592612424125
 40
0.8698207884302297
 40
0.8706770543968516
 40
0.8713148688366411
 40
0.8719368313292081
 40
0.8726733970100479
 40
0.8734182838828561
 40
0.8740311423998481
 40
0.8746101667651294
 40
0.8753486695289849
 40
0.8761751444607878
 40
0.876788666183755
 40
0.877304279363114
 40
0.8778842885110951
 40
0.8785647734369616
 40
0.8792090806863722
 40
0.8797673181667703
 40
0.8803899644344216
 40
0.8811402603894412
 40
0.8819327460731508
 40
0.8826003332041659
 40
0.8832214922139889
 40
0.8839360144512399
 40
0.8847051315083677
 40
0.8854042435231338
 40
0.8870820388814102
 40
0.8888085111071924
 40
0.8905439619215495
 40
0.8921895120734162
 40
0.8939528503251009
 40
0.8955455984881631
 40
0.8973463261196305
 40
0.8981079320284296
 40
0.898866314157607
 40
0.8997324533985256
 40
0.9006797636703867
 40
0.9015218414071987
 40
0.9023177964527362
 40
0.9028810792391591
 40
0.9034833941754055
 40
0.9041548831677811
 40
0.9048927725261525
 40
0.9056696717353272
 40
0.9063588959333674
 40
0.9068750820516492
 40
0.9078976535243033
 40
0.9090603978730525
 40
0.9104178161740756
 40
0.9116653119215952
 40
0.9129109563437197
 40
0.9142733081551354
 40
0.9154919307800847
 40
0.9165263260447887
 40
0.917695335237748
 40
0.9189422107236838
 40
0.9200291439205369
 40
0.9212701454350056
 40
0.9223705647038671
 40
0.9232908322536467
 40
0.9241434741909406
 40
0.9253372471947295
 40
0.9264316621395758
 40
0.9272918579920637
 40
0.9282273092071254
 40
0.9291344450928026
 40
0.9302073137291202
 40
0.9312358517087649
 40
0.9323226220196695
 40
0.9334049033236955
 40
0.9343104881443594
 40
0.9353428682115358
 40
0.9364399839900807
 40
0.9377677586574403
 40
0.9389548090227217
 40
0.939846299931076
 40
0.9407281262986815
 40
0.9416435415943023
 40
0.9426399202174135
 40
0.9433264697087362
 40
0.9441619662254233
 40
0.9449089607891714
 40
0.9455460691697085
 40
0.9461582130423694
 40
0.9468408682529137
 40
0.9473915779080943
 40
0.9482273816240078
 40
0.9491906469365735
 40
0.9502065138973967
 40
0.9513004375772004
 40
0.9523294228793973
 40
0.9531993342621439
 40
0.9540538663067611
 40
0.9544385220535506
 40
0.95485633735965
 40
0.9553120114699414
 40
0.9557306156181233
 40
0.9561002563486004
 40
0.9565653670112488
 40
0.9571341214903134
 40
0.9576702458137976
 40
0.9581044079255104
 40
0.9584346552581929
 40
0.9586704147705006
 40
0.9592228301870372
 40
0.9598975715044094
 40
0.9606894139105078
 40
0.9617340379985224
 40
0.962627964851026
 40
0.9636726914382843
 40
0.9643961067163481
 40
0.9649793179188025
 40
0.9653849744279546
 40
0.9658868882929788
 40
0.9664964650065329
 40
0.9670682407820653
 40
0.9675745937580236
 40
0.970207742578734
 40
0.9726989194895469
 40
0.9753033098311268
 40
0.978190454581195
 40
0.9807607068188012
 40
0.9833206477828339
 40
0.9864940445703057
 40
0.9876943612047306
 40
0.9891396689707596
 40
0.990421126836529
 40
0.9915927423312709
 40
0.992669863883842
 40
0.9938093266923167
 40
0.9950090877797422
 40
0.9956425261149937
 40
0.9964551265378281
 40
0.9972327795297808
 40
0.9981367861618002
 40
0.9991810711481192
 40
1.0
 40
1.0
 40
1.0
 40
1.0
 10
578.5668243243399
 20
92.50221217109056
 30
0.0
 10
578.5639808696209
 20
92.50047449646785
 30
0.0
 10
578.5423538784893
 20
92.48725794218119
 30
0.0
 10
578.50208001522
 20
92.46229795229003
 30
0.0
 10
578.4453466773838
 20
92.42686221721164
 30
0.0
 10
578.3944492076606
 20
92.39467174623931
 30
0.0
 10
578.345385879353
 20
92.36334488635234
 30
0.0
 10
578.3053654366579
 20
92.33755764998116
 30
0.0
 10
578.2650399220894
 20
92.31135801876442
 30
0.0
 10
578.2287443033515
 20
92.28760764111152
 30
0.0
 10
578.1919308098036
 20
92.26332476940397
 30
0.0
 10
578.1580950583674
 20
92.2408440830382
 30
0.0
 10
578.1285581768238
 20
92.22109287922953
 30
0.0
 10
578.1025548662577
 20
92.20360296427216
 30
0.0
 10
578.081566280477
 20
92.189417402426
 30
0.0
 10
578.0622491913953
 20
92.1763123387021
 30
0.0
 10
578.0403274990323
 20
92.16138273146865
 30
0.0
 10
578.0080000842278
 20
92.13925301882588
 30
0.0
 10
577.9680613677342
 20
92.11170007936583
 30
0.0
 10
577.9246893530569
 20
92.08149261855883
 30
0.0
 10
577.883207114688
 20
92.05235163193484
 30
0.0
 10
577.8426120183016
 20
92.02359561353666
 30
0.0
 10
577.8001250251668
 20
91.99323649165356
 30
0.0
 10
577.762517166185
 20
91.96612104634092
 30
0.0
 10
577.7300351623202
 20
91.94252625881988
 30
0.0
 10
577.7023289879306
 20
91.92228728289086
 30
0.0
 10
577.6737599430361
 20
91.90129405632331
 30
0.0
 10
577.642555346071
 20
91.87822070798387
 30
0.0
 10
577.6081053665771
 20
91.85257478502385
 30
0.0
 10
577.5729705461927
 20
91.82621333170101
 30
0.0
 10
577.5316315699326
 20
91.79496283250255
 30
0.0
 10
577.4857062908796
 20
91.75992987243505
 30
0.0
 10
577.4366211539667
 20
91.7220603063271
 30
0.0
 10
577.3915154337833
 20
91.6869061638979
 30
0.0
 10
577.3502237954875
 20
91.65443734903134
 30
0.0
 10
577.3113167102049
 20
91.62357088631404
 30
0.0
 10
577.2772930413685
 20
91.59635454979886
 30
0.0
 10
577.246832611096
 20
91.57182738123757
 30
0.0
 10
577.2176673202056
 20
91.54819740462494
 30
0.0
 10
577.1870950991162
 20
91.52326041941467
 30
0.0
 10
577.1566876412875
 20
91.49829132027313
 30
0.0
 10
577.1276523039564
 20
91.47428994891463
 30
0.0
 10
577.1023272658166
 20
91.45322411312299
 30
0.0
 10
577.0695004045921
 20
91.42577926765722
 30
0.0
 10
577.0294822225345
 20
91.39205534406936
 30
0.0
 10
576.9799363904898
 20
91.34983180297704
 30
0.0
 10
576.9329457632523
 20
91.3093528593229
 30
0.0
 10
576.8864683167407
 20
91.26889632097637
 30
0.0
 10
576.8383506950231
 20
91.22657779310919
 30
0.0
 10
576.7924290945765
 20
91.18573046191469
 30
0.0
 10
576.7554921958949
 20
91.15253362816334
 30
0.0
 10
576.7274895529644
 20
91.12719714418607
 30
0.0
 10
576.703120896462
 20
91.10503143965163
 30
0.0
 10
576.6774758658778
 20
91.08156398323958
 30
0.0
 10
576.6518889176975
 20
91.05800904609576
 30
0.0
 10
576.6250269547219
 20
91.03313721506554
 30
0.0
 10
576.598458997399
 20
91.00837753416866
 30
0.0
 10
576.5741878796038
 20
90.98561330346128
 30
0.0
 10
576.554336832134
 20
90.96690264046869
 30
0.0
 10
576.5365681271821
 20
90.95008464653293
 30
0.0
 10
576.5189486023532
 20
90.9333386437586
 30
0.0
 10
576.498436666282
 20
90.91376190079184
 30
0.0
 10
576.4740229211016
 20
90.89034063405695
 30
0.0
 10
576.4460137801217
 20
90.86329157837642
 30
0.0
 10
576.4169674473916
 20
90.83504799565773
 30
0.0
 10
576.3865357058509
 20
90.80525235388612
 30
0.0
 10
576.3573333008437
 20
90.77644027526807
 30
0.0
 10
576.3340317018962
 20
90.75329172935814
 30
0.0
 10
576.315671025982
 20
90.73497032887416
 30
0.0
 10
576.2981812818068
 20
90.71745055427047
 30
0.0
 10
576.2780258156536
 20
90.69716468553813
 30
0.0
 10
576.2584263058212
 20
90.67733634326474
 30
0.0
 10
576.2420766183286
 20
90.66071836919171
 30
0.0
 10
576.2292546686592
 20
90.64764190386346
 30
0.0
 10
576.2155239350489
 20
90.6336008112418
 30
0.0
 10
576.1981357346082
 20
90.61575323869567
 30
0.0
 10
576.1778827110157
 20
90.59485907187528
 30
0.0
 10
576.1581955289837
 20
90.57444380783657
 30
0.0
 10
576.1385265625277
 20
90.5539528948604
 30
0.0
 10
576.1181349212682
 20
90.53260436786792
 30
0.0
 10
576.097133801377
 20
90.51049737778888
 30
0.0
 10
576.0762704664835
 20
90.48842140300451
 30
0.0
 10
576.0542833252599
 20
90.46503614831455
 30
0.0
 10
576.0292540595851
 20
90.43825802785305
 30
0.0
 10
575.9897332999917
 20
90.39568646403767
 30
0.0
 10
575.939067379658
 20
90.34045350500739
 30
0.0
 10
575.8744597756867
 20
90.26889233784551
 30
0.0
 10
575.8042271582194
 20
90.18977430901894
 30
0.0
 10
575.7335818798274
 20
90.10856996701804
 30
0.0
 10
575.6672441318924
 20
90.03085159088891
 30
0.0
 10
575.6060997297615
 20
89.95805046008462
 30
0.0
 10
575.5439515747238
 20
89.88278101272063
 30
0.0
 10
575.486459133179
 20
89.81188334039244
 30
0.0
 10
575.4365049222765
 20
89.74932868783281
 30
0.0
 10
575.3948140381061
 20
89.69646293389927
 30
0.0
 10
575.3542790649129
 20
89.64445507977197
 30
0.0
 10
575.3125033318199
 20
89.59022539572106
 30
0.0
 10
575.2712252492951
 20
89.53594193454254
 30
0.0
 10
575.2351516254743
 20
89.4879085739854
 30
0.0
 10
575.2056539606526
 20
89.44825194418982
 30
0.0
 10
575.1812985340919
 20
89.41524985054478
 30
0.0
 10
575.159173044809
 20
89.38505159799328
 30
0.0
 10
575.1384129855675
 20
89.35653110608091
 30
0.0
 10
575.1176103049567
 20
89.32777279856988
 30
0.0
 10
575.0935860088833
 20
89.29433726324415
 30
0.0
 10
575.0653354376024
 20
89.2546931940158
 30
0.0
 10
575.0365728675579
 20
89.21392766549957
 30
0.0
 10
575.0112466576483
 20
89.17770080944109
 30
0.0
 10
574.9909395737268
 20
89.14844638691034
 30
0.0
 10
574.9731789924136
 20
89.12270636551217
 30
0.0
 10
574.9559269064489
 20
89.09756213115685
 30
0.0
 10
574.9391522626916
 20
89.07297384251811
 30
0.0
 10
574.9218744804356
 20
89.0475055356404
 30
0.0
 10
574.9041920874004
 20
89.02129071226636
 30
0.0
 10
574.8869943862023
 20
88.99563427390717
 30
0.0
 10
574.87253061696
 20
88.97393362471068
 30
0.0
 10
574.8606494912285
 20
88.95603276889646
 30
0.0
 10
574.8484158478506
 20
88.93753388781452
 30
0.0
 10
574.8332762971072
 20
88.91453558642307
 30
0.0
 10
574.8163890283439
 20
88.88872938208642
 30
0.0
 10
574.8002629095965
 20
88.86393504207341
 30
0.0
 10
574.7864069035677
 20
88.84251997167034
 30
0.0
 10
574.7731841222762
 20
88.82199243456144
 30
0.0
 10
574.7587405836316
 20
88.79946480711567
 30
0.0
 10
574.7426758132856
 20
88.77426814471684
 30
0.0
 10
574.721557290376
 20
88.74094391888612
 30
0.0
 10
574.6944837203845
 20
88.69786389040182
 30
0.0
 10
574.6617387645418
 20
88.64514415750907
 30
0.0
 10
574.6292628763047
 20
88.59219003195135
 30
0.0
 10
574.5960632635703
 20
88.53741455253758
 30
0.0
 10
574.5695893009698
 20
88.49318709480156
 30
0.0
 10
574.5485550703786
 20
88.45770583641848
 30
0.0
 10
574.5344120155722
 20
88.43372547756998
 30
0.0
 10
574.5188009826704
 20
88.40710982190994
 30
0.0
 10
574.5019318426487
 20
88.37815744550284
 30
0.0
 10
574.4858568815584
 20
88.35037847467689
 30
0.0
 10
574.4716991101795
 20
88.3257679079223
 30
0.0
 10
574.4578298200043
 20
88.30153426510498
 30
0.0
 10
574.4390287471882
 20
88.268497707897
 30
0.0
 10
574.4172253406128
 20
88.22984780751722
 30
0.0
 10
574.3930293524013
 20
88.18652249870024
 30
0.0
 10
574.3696265900708
 20
88.14423258306608
 30
0.0
 10
574.3464366536207
 20
88.10190648648918
 30
0.0
 10
574.3231325789197
 20
88.05895439184056
 30
0.0
 10
574.2995389763079
 20
88.01506008351772
 30
0.0
 10
574.2739323180399
 20
87.96691617540661
 30
0.0
 10
574.2475437725512
 20
87.91672366936479
 30
0.0
 10
574.2194610730202
 20
87.8626907544349
 30
0.0
 10
574.1910321843015
 20
87.8072984643638
 30
0.0
 10
574.1619263925378
 20
87.74982158893808
 30
0.0
 10
574.133268351083
 20
87.69250331829811
 30
0.0
 10
574.1055324386117
 20
87.63628531151981
 30
0.0
 10
574.0814321826019
 20
87.58679583971853
 30
0.0
 10
574.0609270942725
 20
87.54426033974228
 30
0.0
 10
574.0433723444444
 20
87.50752875763207
 30
0.0
 10
574.0266159506332
 20
87.47216244788392
 30
0.0
 10
574.0119027738122
 20
87.44086831716794
 30
0.0
 10
573.9987137866779
 20
87.41262500788952
 30
0.0
 10
573.9864826427978
 20
87.38626929260859
 30
0.0
 10
573.9747171871643
 20
87.36076402567902
 30
0.0
 10
573.9560450070968
 20
87.3200484092263
 30
0.0
 10
573.928938781948
 20
87.26027013767121
 30
0.0
 10
573.8944949014889
 20
87.18291992074778
 30
0.0
 10
573.8585233150043
 20
87.10060225466323
 30
0.0
 10
573.8255679465135
 20
87.02370608144541
 30
0.0
 10
573.7981910554145
 20
86.95865047127194
 30
0.0
 10
573.7774864422403
 20
86.90880988821468
 30
0.0
 10
573.7605794826018
 20
86.86770343460307
 30
0.0
 10
573.743124100224
 20
86.82484460236643
 30
0.0
 10
573.7235199901642
 20
86.77619935705904
 30
0.0
 10
573.7032616681189
 20
86.72528223441589
 30
0.0
 10
573.6839757521927
 20
86.67618097613028
 30
0.0
 10
573.6670702371
 20
86.63267029069466
 30
0.0
 10
573.6507304716857
 20
86.59018267303276
 30
0.0
 10
573.6338816996546
 20
86.54590532840555
 30
0.0
 10
573.6133021205093
 20
86.49121021570174
 30
0.0
 10
573.5911368545537
 20
86.4314127919772
 30
0.0
 10
573.5692760775435
 20
86.3714521163426
 30
0.0
 10
573.550670193512
 20
86.31972739163879
 30
0.0
 10
573.5335049074205
 20
86.27142385669345
 30
0.0
 10
573.5164098919724
 20
86.22271899249725
 30
0.0
 10
573.4972061475005
 20
86.16731604562996
 30
0.0
 10
573.4754813097976
 20
86.10368567312085
 30
0.0
 10
573.4505906874318
 20
86.02942638524927
 30
0.0
 10
573.4242133362903
 20
85.94912386288769
 30
0.0
 10
573.3967670428174
 20
85.86369885261058
 30
0.0
 10
573.3712081562712
 20
85.78225807087381
 30
0.0
 10
573.3484909012341
 20
85.70831199789139
 30
0.0
 10
573.3293931275967
 20
85.64501226832778
 30
0.0
 10
573.3122987467808
 20
85.5873978524736
 30
0.0
 10
573.296643116506
 20
85.53382877006422
 30
0.0
 10
573.2829375232915
 20
85.48624900273583
 30
0.0
 10
573.2698033396082
 20
85.44006252585848
 30
0.0
 10
573.2564882267751
 20
85.39265936843806
 30
0.0
 10
573.2418476169408
 20
85.33976539279534
 30
0.0
 10
573.2271035144416
 20
85.28563475638812
 30
0.0
 10
573.2132493145463
 20
85.23397297141747
 30
0.0
 10
573.2002612464115
 20
85.18483165805013
 30
0.0
 10
573.1860744407113
 20
85.13038390824052
 30
0.0
 10
573.1707775514857
 20
85.0706543382554
 30
0.0
 10
573.1548795654154
 20
85.00733855021991
 30
0.0
 10
573.1397450408334
 20
84.9459215598069
 30
0.0
 10
573.1217566896654
 20
84.87155105385618
 30
0.0
 10
573.1009417869507
 20
84.78325152144636
 30
0.0
 10
573.0782790137882
 20
84.68394176115243
 30
0.0
 10
573.0572916601466
 20
84.58900570332575
 30
0.0
 10
573.0374150529971
 20
84.49629514633708
 30
0.0
 10
573.0178587830721
 20
84.4021993122873
 30
0.0
 10
572.9994124198904
 20
84.31043274186545
 30
0.0
 10
572.9821375519867
 20
84.2216759773975
 30
0.0
 10
572.9664690773769
 20
84.13870256459616
 30
0.0
 10
572.9514673583849
 20
84.05677942158704
 30
0.0
 10
572.9376560973449
 20
83.97901626556703
 30
0.0
 10
572.9253830395991
 20
83.90786379526982
 30
0.0
 10
572.9142421748016
 20
83.84154599444416
 30
0.0
 10
572.9035687856453
 20
83.77636463577764
 30
0.0
 10
572.8926880075961
 20
83.70807381194165
 30
0.0
 10
572.8813600951638
 20
83.63486376180954
 30
0.0
 10
572.869153409702
 20
83.55336715634876
 30
0.0
 10
572.8557576198458
 20
83.4604485088777
 30
0.0
 10
572.8412144317477
 20
83.35489758948569
 30
0.0
 10
572.8270444238764
 20
83.24645365090225
 30
0.0
 10
572.8135098742936
 20
83.13709143619994
 30
0.0
 10
572.8011946296416
 20
83.0320340080794
 30
0.0
 10
572.7896711288416
 20
82.92788803646101
 30
0.0
 10
572.7793400816182
 20
82.82895419171058
 30
0.0
 10
572.7701924202371
 20
82.7362046468155
 30
0.0
 10
572.7621163641103
 20
82.64959381086875
 30
0.0
 10
572.7546624916116
 20
82.56514481156493
 30
0.0
 10
572.7478625473823
 20
82.48353798060076
 30
0.0
 10
572.7417331893203
 20
82.40544823940758
 30
0.0
 10
572.7364970882289
 20
82.33484429038148
 30
0.0
 10
572.7319657450582
 20
82.27036187058037
 30
0.0
 10
572.7279891655735
 20
82.2107496657149
 30
0.0
 10
572.7246901234519
 20
82.15870788322397
 30
0.0
 10
572.7219630343004
 20
82.11372536027517
 30
0.0
 10
572.7197074569596
 20
82.07507508480127
 30
0.0
 10
572.7174742680811
 20
82.03535411830956
 30
0.0
 10
572.7150325270325
 20
81.99007453911808
 30
0.0
 10
572.7122421196912
 20
81.93548543737342
 30
0.0
 10
572.7092920642116
 20
81.87369880437755
 30
0.0
 10
572.7063792473939
 20
81.80762547636688
 30
0.0
 10
572.7036429330063
 20
81.73981181007134
 30
0.0
 10
572.7011435088989
 20
81.67137796392659
 30
0.0
 10
572.699103208116
 20
81.60901545929252
 30
0.0
 10
572.697493571441
 20
81.55441569960803
 30
0.0
 10
572.6962118172115
 20
81.5066626705644
 30
0.0
 10
572.694983337814
 20
81.45605448473248
 30
0.0
 10
572.6937388510164
 20
81.39787708527308
 30
0.0
 10
572.6925898197462
 20
81.33377374953277
 30
0.0
 10
572.6916716138115
 20
81.26951848929711
 30
0.0
 10
572.691027753087
 20
81.21067749251415
 30
0.0
 10
572.6906091692371
 20
81.15794704292483
 30
0.0
 10
572.6903599718128
 20
81.11063575928503
 30
0.0
 10
572.6902373405686
 20
81.06795544056459
 30
0.0
 10
572.6902103276154
 20
81.02917168628407
 30
0.0
 10
572.6902553809196
 20
80.99383160068373
 30
0.0
 10
572.6903632472109
 20
80.95864238967748
 30
0.0
 10
572.6905554720902
 20
80.91971420787294
 30
0.0
 10
572.690879285878
 20
80.87457304300494
 30
0.0
 10
572.6913706486729
 20
80.82408728180826
 30
0.0
 10
572.6920139397191
 20
80.77259579962346
 30
0.0
 10
572.6927729816074
 20
80.72264089682612
 30
0.0
 10
572.6936119515815
 20
80.67519138303238
 30
0.0
 10
572.6945592274888
 20
80.62804626831274
 30
0.0
 10
572.6956711744812
 20
80.57872333726854
 30
0.0
 10
572.6970288095923
 20
80.52473901824777
 30
0.0
 10
572.6986479838068
 20
80.46702867046434
 30
0.0
 10
572.7005435233399
 20
80.40611247046827
 30
0.0
 10
572.7026287497994
 20
80.34517414817205
 30
0.0
 10
572.7047645613736
 20
80.28796249511424
 30
0.0
 10
572.7066353045713
 20
80.24127301410796
 30
0.0
 10
572.7082380450037
 20
80.20317213280978
 30
0.0
 10
572.7097645699951
 20
80.16825008755261
 30
0.0
 10
572.7115161052892
 20
80.12979231759066
 30
0.0
 10
572.7136406260254
 20
80.0851193635568
 30
0.0
 10
572.7160561680598
 20
80.03672848041923
 30
0.0
 10
572.7185708184049
 20
79.98880205539605
 30
0.0
 10
572.7209360874238
 20
79.94556320129576
 30
0.0
 10
572.7233297487336
 20
79.9033196078898
 30
0.0
 10
572.726053078424
 20
79.85698474901632
 30
0.0
 10
572.7298082849402
 20
79.7956434248924
 30
0.0
 10
572.734424927964
 20
79.7241308030236
 30
0.0
 10
572.739971330625
 20
79.64313517472507
 30
0.0
 10
572.7456047941394
 20
79.56523792398474
 30
0.0
 10
572.7516493460919
 20
79.48577573027418
 30
0.0
 10
572.7578939270137
 20
79.40754276885303
 30
0.0
 10
572.7662116060601
 20
79.30811343213252
 30
0.0
 10
572.7756169584494
 20
79.2021471256164
 30
0.0
 10
572.7877798642078
 20
79.07332883075405
 30
0.0
 10
572.8009512027371
 20
78.94197410561127
 30
0.0
 10
572.815965379784
 20
78.80169691813205
 30
0.0
 10
572.8299896175885
 20
78.67802058999577
 30
0.0
 10
572.8416769367788
 20
78.57948032856038
 30
0.0
 10
572.8518439657388
 20
78.49640546675147
 30
0.0
 10
572.8611699971881
 20
78.42231932767376
 30
0.0
 10
572.8716253602595
 20
78.34150354978028
 30
0.0
 10
572.8817709162935
 20
78.26519986420024
 30
0.0
 10
572.8924926068439
 20
78.18669206246676
 30
0.0
 10
572.9023193561294
 20
78.1164389891795
 30
0.0
 10
572.912291166472
 20
78.04671971058336
 30
0.0
 10
572.9224621882192
 20
77.97706169466062
 30
0.0
 10
572.9330678395086
 20
77.90600026432412
 30
0.0
 10
572.9446021475371
 20
77.83035106486716
 30
0.0
 10
572.9558751972648
 20
77.7580111104652
 30
0.0
 10
572.9662832892599
 20
77.69260003493369
 30
0.0
 10
572.9752323141087
 20
77.63723785139572
 30
0.0
 10
572.9834459972132
 20
77.58711042516417
 30
0.0
 10
572.9914382333945
 20
77.53899655765822
 30
0.0
 10
572.999131077384
 20
77.49324553903578
 30
0.0
 10
573.0066982079162
 20
77.44874820377994
 30
0.0
 10
573.0146442681197
 20
77.4025672163886
 30
0.0
 10
573.0233675036624
 20
77.35246763287063
 30
0.0
 10
573.0318932226996
 20
77.30413316372712
 30
0.0
 10
573.0396554407937
 20
77.26065358118476
 30
0.0
 10
573.0461031674012
 20
77.2248603087213
 30
0.0
 10
573.05255207445
 20
77.18934501854666
 30
0.0
 10
573.0587333639329
 20
77.1556022171233
 30
0.0
 10
573.0643521800581
 20
77.12517457848558
 30
0.0
 10
573.0686955270182
 20
77.10179422104075
 30
0.0
 10
573.0722886020274
 20
77.08254869281222
 30
0.0
 10
573.0755857370016
 20
77.06495821783612
 30
0.0
 10
573.0798644551189
 20
77.04221936062089
 30
0.0
 10
573.0857229094834
 20
77.01127480115436
 30
0.0
 10
573.0925256832584
 20
76.97564487388817
 30
0.0
 10
573.0988058942214
 20
76.94301911921134
 30
0.0
 10
573.1041041137363
 20
76.91567364921079
 30
0.0
 10
573.1089499697387
 20
76.89079984886799
 30
0.0
 10
573.1138794158226
 20
76.86563365989618
 30
0.0
 10
573.119242942384
 20
76.83840637240749
 30
0.0
 10
573.1248630959864
 20
76.81005142698547
 30
0.0
 10
573.1306402022423
 20
76.78108897822284
 30
0.0
 10
573.1363392830391
 20
76.75269200097459
 30
0.0
 10
573.1424512646008
 20
76.72242105601318
 30
0.0
 10
573.1496030098748
 20
76.68723455255744
 30
0.0
 10
573.1572716861583
 20
76.64981008575086
 30
0.0
 10
573.1644638031801
 20
76.61499540523994
 30
0.0
 10
573.1701556606504
 20
76.58761735099301
 30
0.0
 10
573.1754036113144
 20
76.56249642540178
 30
0.0
 10
573.1813791133542
 20
76.5340354089451
 30
0.0
 10
573.1883306513076
 20
76.50114212498387
 30
0.0
 10
573.1958132339388
 20
76.46598632518022
 30
0.0
 10
573.2027322848274
 20
76.43370154010368
 30
0.0
 10
573.2091739117542
 20
76.40383116850616
 30
0.0
 10
573.2150408439229
 20
76.37677164168963
 30
0.0
 10
573.2212815750518
 20
76.34813799651624
 30
0.0
 10
573.2283535857729
 20
76.31587656761083
 30
0.0
 10
573.2353081294611
 20
76.28436548240444
 30
0.0
 10
573.2413637243776
 20
76.25709012393153
 30
0.0
 10
573.2465082807173
 20
76.23401579093769
 30
0.0
 10
573.2522590157611
 20
76.20833229609686
 30
0.0
 10
573.2592113966127
 20
76.17744927356496
 30
0.0
 10
573.2666570307211
 20
76.14458440628674
 30
0.0
 10
573.2746592132249
 20
76.10948083506963
 30
0.0
 10
573.2829349338052
 20
76.0734110455277
 30
0.0
 10
573.2920169315313
 20
76.03410686459333
 30
0.0
 10
573.3013850243566
 20
75.99385519638321
 30
0.0
 10
573.3107549333794
 20
75.95389419384288
 30
0.0
 10
573.319827080802
 20
75.91547671955576
 30
0.0
 10
573.3294788728181
 20
75.87487104830534
 30
0.0
 10
573.339658698024
 20
75.83236102698262
 30
0.0
 10
573.3499949033602
 20
75.78954191494009
 30
0.0
 10
573.3606866942544
 20
75.74555791686632
 30
0.0
 10
573.37121534185
 20
75.70257256765333
 30
0.0
 10
573.3819030042296
 20
75.65927932468561
 30
0.0
 10
573.3928412359206
 20
75.61526540143154
 30
0.0
 10
573.4040062726797
 20
75.57068051909732
 30
0.0
 10
573.4153928221922
 20
75.52557314027919
 30
0.0
 10
573.4263118994494
 20
75.48260963428599
 30
0.0
 10
573.4382195484355
 20
75.436085519731
 30
0.0
 10
573.4500702897792
 20
75.39015952204356
 30
0.0
 10
573.4620135774536
 20
75.3442125609852
 30
0.0
 10
573.4739036534507
 20
75.29877782788108
 30
0.0
 10
573.4857654080666
 20
75.25380491119982
 30
0.0
 10
573.49608668159
 20
75.21494242384655
 30
0.0
 10
573.5048336676264
 20
75.18217384591026
 30
0.0
 10
573.5134548014037
 20
75.15003217587457
 30
0.0
 10
573.5224590866773
 20
75.11663761344803
 30
0.0
 10
573.5307614965424
 20
75.08600347648803
 30
0.0
 10
573.5382362662041
 20
75.05854420843528
 30
0.0
 10
573.5458071971141
 20
75.03083748945508
 30
0.0
 10
573.5544405063687
 20
74.9993811128947
 30
0.0
 10
573.5634848402076
 20
74.9665993682764
 30
0.0
 10
573.5720558926894
 20
74.93568480109103
 30
0.0
 10
573.5803740157947
 20
74.90580824608622
 30
0.0
 10
573.5896577555236
 20
74.87261346088204
 30
0.0
 10
573.6003639818138
 20
74.83453600665507
 30
0.0
 10
573.6112315123231
 20
74.79611372736181
 30
0.0
 10
573.6215327463577
 20
74.75989609850453
 30
0.0
 10
573.6330617378454
 20
74.71955779000541
 30
0.0
 10
573.6457557477252
 20
74.6754186482134
 30
0.0
 10
573.6589441429469
 20
74.62988894209563
 30
0.0
 10
573.6703811213347
 20
74.59063702116222
 30
0.0
 10
573.6822993796376
 20
74.54993866127563
 30
0.0
 10
573.69526296936
 20
74.50593793929738
 30
0.0
 10
573.7081514810095
 20
74.4624867286497
 30
0.0
 10
573.7200265636415
 20
74.42267234474525
 30
0.0
 10
573.7312954379829
 20
74.38508172061643
 30
0.0
 10
573.7435144437768
 20
74.34454256571574
 30
0.0
 10
573.754993629071
 20
74.30666967026437
 30
0.0
 10
573.7655474652694
 20
74.27202508288488
 30
0.0
 10
573.7754441402209
 20
74.23967250809262
 30
0.0
 10
573.7861066882563
 20
74.20496856752948
 30
0.0
 10
573.7978543880857
 20
74.16692307976544
 30
0.0
 10
573.8092426413523
 20
74.13023439929795
 30
0.0
 10
573.823683361298
 20
74.0839301309989
 30
0.0
 10
573.8423718576961
 20
74.02439651408524
 30
0.0
 10
573.8644787332119
 20
73.95464789821455
 30
0.0
 10
573.8877916765063
 20
73.88176395502794
 30
0.0
 10
573.9104922624153
 20
73.81142732695686
 30
0.0
 10
573.9336900970042
 20
73.74022795064018
 30
0.0
 10
573.9577390643055
 20
73.66704797293605
 30
0.0
 10
573.9808317001282
 20
73.59742614875466
 30
0.0
 10
574.0050854701518
 20
73.52495443831548
 30
0.0
 10
574.0292488286792
 20
73.4533470942536
 30
0.0
 10
574.0532413843767
 20
73.38291123336275
 30
0.0
 10
574.0782665401495
 20
73.31005594961599
 30
0.0
 10
574.102532842849
 20
73.23999423790997
 30
0.0
 10
574.1273809713157
 20
73.16890401762444
 30
0.0
 10
574.1493391924405
 20
73.10657480555486
 30
0.0
 10
574.170089739638
 20
73.04807110138556
 30
0.0
 10
574.1887349824368
 20
72.99585614619927
 30
0.0
 10
574.205746521664
 20
72.9485004031748
 30
0.0
 10
574.2215654106211
 20
72.90467263309233
 30
0.0
 10
574.2392891978553
 20
72.85582161462386
 30
0.0
 10
574.258620946977
 20
72.80286640980505
 30
0.0
 10
574.2768771843025
 20
72.75316891339492
 30
0.0
 10
574.2926628765761
 20
72.71042287037722
 30
0.0
 10
574.3077912298804
 20
72.66963517495853
 30
0.0
 10
574.3240324956819
 20
72.62605026703584
 30
0.0
 10
574.3415711588973
 20
72.57923586468748
 30
0.0
 10
574.358082856747
 20
72.53539760757835
 30
0.0
 10
574.372950553111
 20
72.49610762210438
 30
0.0
 10
574.3867212631842
 20
72.45986384086417
 30
0.0
 10
574.4014761807605
 20
72.42118505719297
 30
0.0
 10
574.4179005617046
 20
72.3783254946819
 30
0.0
 10
574.4352003739608
 20
72.3334119686557
 30
0.0
 10
574.4512300186549
 20
72.29200456344154
 30
0.0
 10
574.4666941845243
 20
72.2522285263503
 30
0.0
 10
574.4828832266858
 20
72.21076380529368
 30
0.0
 10
574.5023372571574
 20
72.16118510151779
 30
0.0
 10
574.5239184849615
 20
72.10650767081647
 30
0.0
 10
574.5455203496427
 20
72.05212627090334
 30
0.0
 10
574.5651435684421
 20
72.00300866836623
 30
0.0
 10
574.5831663666173
 20
71.95811722002712
 30
0.0
 10
574.6025112411876
 20
71.91016081689264
 30
0.0
 10
574.6244241305805
 20
71.85613469811165
 30
0.0
 10
574.6472191317873
 20
71.80028645940037
 30
0.0
 10
574.668400516858
 20
71.74869875049639
 30
0.0
 10
574.6872049986691
 20
71.70312831677747
 30
0.0
 10
574.7057383251315
 20
71.65841978047196
 30
0.0
 10
574.7262740131152
 20
71.60911647922543
 30
0.0
 10
574.7499086988889
 20
71.55268502786657
 30
0.0
 10
574.7745566197312
 20
71.49420618928195
 30
0.0
 10
574.7980259264074
 20
71.43886335721841
 30
0.0
 10
574.8193403092401
 20
71.38886552968532
 30
0.0
 10
574.8407004549125
 20
71.33900702229798
 30
0.0
 10
574.8705984003777
 20
71.26958088039362
 30
0.0
 10
574.9063781107726
 20
71.18717001560628
 30
0.0
 10
574.9460570710189
 20
71.09666579135879
 30
0.0
 10
574.983022686258
 20
71.01304255755322
 30
0.0
 10
575.0229323018418
 20
70.9234908650849
 30
0.0
 10
575.064947074206
 20
70.8300975710718
 30
0.0
 10
575.1064491708474
 20
70.73871901952184
 30
0.0
 10
575.1419502215033
 20
70.66119852857634
 30
0.0
 10
575.1750672843516
 20
70.5893867788755
 30
0.0
 10
575.2084940670165
 20
70.51737883664208
 30
0.0
 10
575.2442236463046
 20
70.44097730217491
 30
0.0
 10
575.2790236724456
 20
70.3671242708617
 30
0.0
 10
575.3115343327763
 20
70.29859512008197
 30
0.0
 10
575.3421949883576
 20
70.23436351949294
 30
0.0
 10
575.3731653416547
 20
70.16987766914673
 30
0.0
 10
575.4062776971197
 20
70.10135204430668
 30
0.0
 10
575.4421371245267
 20
70.0276379174835
 30
0.0
 10
575.4798455050901
 20
69.950688933931
 30
0.0
 10
575.5161095489817
 20
69.87721978117523
 30
0.0
 10
575.560850547347
 20
69.78717244970164
 30
0.0
 10
575.614874371323
 20
69.67942228590127
 30
0.0
 10
575.6721509494968
 20
69.56653107032166
 30
0.0
 10
575.7230781060232
 20
69.46711788699622
 30
0.0
 10
575.7677190020617
 20
69.3806512228429
 30
0.0
 10
575.8138432460322
 20
69.2920304378728
 30
0.0
 10
575.8593322786655
 20
69.20533202039675
 30
0.0
 10
575.9025661532153
 20
69.12356639492478
 30
0.0
 10
575.9603513090644
 20
69.01505152767903
 30
0.0
 10
576.0345241944464
 20
68.87727532465642
 30
0.0
 10
576.1273888875396
 20
68.70737383266837
 30
0.0
 10
576.2223728200438
 20
68.5362181684527
 30
0.0
 10
576.3177902808702
 20
68.36688140884378
 30
0.0
 10
576.4141857778695
 20
68.19833831686495
 30
0.0
 10
576.5123831554024
 20
68.02914974120675
 30
0.0
 10
576.6148011105365
 20
67.85532805773254
 30
0.0
 10
576.7210008774103
 20
67.67785353227131
 30
0.0
 10
576.830263990316
 20
67.49810142372652
 30
0.0
 10
576.9394711902111
 20
67.32125223958992
 30
0.0
 10
577.0461000001325
 20
67.1512063511503
 30
0.0
 10
577.1494962097336
 20
66.98867246312813
 30
0.0
 10
577.2314375906258
 20
66.86164075029447
 30
0.0
 10
577.2946963898555
 20
66.76451873930509
 30
0.0
 10
577.3397696985323
 20
66.69571909665126
 30
0.0
 10
577.3869225996963
 20
66.62419098457362
 30
0.0
 10
577.4332808855627
 20
66.5543110712172
 30
0.0
 10
577.4766252387385
 20
66.48936162124086
 30
0.0
 10
577.5172709791477
 20
66.42877948876134
 30
0.0
 10
577.556643256003
 20
66.37039225760793
 30
0.0
 10
577.5959756214307
 20
66.31235816242895
 30
0.0
 10
577.6340933224369
 20
66.25639425249611
 30
0.0
 10
577.6723131653957
 20
66.20054405379705
 30
0.0
 10
577.7107124930549
 20
66.14469607526743
 30
0.0
 10
577.7492512362919
 20
66.08891952174487
 30
0.0
 10
577.7854330702509
 20
66.03679869612475
 30
0.0
 10
577.8167045612316
 20
65.99194185460797
 30
0.0
 10
577.8441688013955
 20
65.95268379347141
 30
0.0
 10
577.8690984014997
 20
65.91715663670043
 30
0.0
 10
577.894036210095
 20
65.88172564715528
 30
0.0
 10
577.9200157621906
 20
65.8449253336536
 30
0.0
 10
577.9517608047607
 20
65.80010143809037
 30
0.0
 10
577.9897972490484
 20
65.74662128017084
 30
0.0
 10
578.0309271696884
 20
65.68908785857877
 30
0.0
 10
578.0689103219659
 20
65.6362117670027
 30
0.0
 10
578.1032864277461
 20
65.5885560598147
 30
0.0
 10
578.1361420587411
 20
65.54318440528174
 30
0.0
 10
578.1668477269018
 20
65.50094533901746
 30
0.0
 10
578.1967364062989
 20
65.45997295940784
 30
0.0
 10
578.2257646553043
 20
65.42031196021087
 30
0.0
 10
578.2552099058938
 20
65.38022341096
 30
0.0
 10
578.2827696478228
 20
65.34282826977741
 30
0.0
 10
578.3076858770503
 20
65.30912254462262
 30
0.0
 10
578.3307465949467
 20
65.27801184702072
 30
0.0
 10
578.354154548458
 20
65.24651379966754
 30
0.0
 10
578.3796746194628
 20
65.21226822224455
 30
0.0
 10
578.4098795672364
 20
65.17186287837174
 30
0.0
 10
578.4437235449644
 20
65.12675795258512
 30
0.0
 10
578.4780818247184
 20
65.08115798010492
 30
0.0
 10
578.5092259864448
 20
65.0399813010433
 30
0.0
 10
578.5362434269128
 20
65.00437594602911
 30
0.0
 10
578.5615794235639
 20
64.9710826473019
 30
0.0
 10
578.5880904554069
 20
64.9363429452706
 30
0.0
 10
578.6177275455866
 20
64.89762831510448
 30
0.0
 10
578.6498879738912
 20
64.85576860920725
 30
0.0
 10
578.6804807412587
 20
64.81609865257626
 30
0.0
 10
578.707490597958
 20
64.78118941376576
 30
0.0
 10
578.7309134734452
 20
64.75099842599738
 30
0.0
 10
578.753725058934
 20
64.72166979730815
 30
0.0
 10
578.7784097701293
 20
64.69001416958692
 30
0.0
 10
578.8063056758665
 20
64.65434506771034
 30
0.0
 10
578.8366922510064
 20
64.61562262126044
 30
0.0
 10
578.8663931084203
 20
64.57790687341897
 30
0.0
 10
578.8935567977522
 20
64.54352388307844
 30
0.0
 10
578.9185700775769
 20
64.51195237630145
 30
0.0
 10
578.9441137712806
 20
64.47979895956219
 30
0.0
 10
578.9735137583491
 20
64.44290006498879
 30
0.0
 10
579.0058507713213
 20
64.4024592882409
 30
0.0
 10
579.0382439955329
 20
64.36210385053664
 30
0.0
 10
579.0668842854742
 20
64.32654592770007
 30
0.0
 10
579.0928543730349
 20
64.29439748114137
 30
0.0
 10
579.1202745755062
 20
64.26054763879793
 30
0.0
 10
579.150897708866
 20
64.22286518795775
 30
0.0
 10
579.183444629972
 20
64.18296328076397
 30
0.0
 10
579.2134756778648
 20
64.1462780629834
 30
0.0
 10
579.2403320590024
 20
64.11357288076702
 30
0.0
 10
579.2749396836892
 20
64.07154335572729
 30
0.0
 10
579.319811564058
 20
64.01728408101052
 30
0.0
 10
579.3709455181416
 20
63.95582900166213
 30
0.0
 10
579.4225906888387
 20
63.8940949882145
 30
0.0
 10
579.4736681640314
 20
63.83336921936553
 30
0.0
 10
579.5252532099568
 20
63.77241050335719
 30
0.0
 10
579.5656601226856
 20
63.72491657114384
 30
0.0
 10
579.5974151808148
 20
63.68772708405457
 30
0.0
 10
579.6240474750858
 20
63.65662399163794
 30
0.0
 10
579.6500492739964
 20
63.62635123704747
 30
0.0
 10
579.6725560749599
 20
63.60021762155147
 30
0.0
 10
579.6917066792381
 20
63.57802786926931
 30
0.0
 10
579.7112178532005
 20
63.55546504266501
 30
0.0
 10
579.7333239465389
 20
63.52995721716898
 30
0.0
 10
579.757476149188
 20
63.50216028030272
 30
0.0
 10
579.781795356271
 20
63.47424728078479
 30
0.0
 10
579.803870743942
 20
63.44897377305078
 30
0.0
 10
579.8254458621468
 20
63.42432822890726
 30
0.0
 10
579.8486474334208
 20
63.3978849271063
 30
0.0
 10
579.8762587781854
 20
63.36650079505804
 30
0.0
 10
579.9067797872517
 20
63.33192030919996
 30
0.0
 10
579.9359526945467
 20
63.29898070177523
 30
0.0
 10
579.9592056896265
 20
63.27280256939638
 30
0.0
 10
579.9770027973393
 20
63.25280712416417
 30
0.0
 10
579.9935930821908
 20
63.23419753380968
 30
0.0
 10
580.0134296736886
 20
63.2119881374775
 30
0.0
 10
580.0357811716118
 20
63.18702159393183
 30
0.0
 10
580.0574873104101
 20
63.1628370457048
 30
0.0
 10
580.0758491195044
 20
63.14242290377536
 30
0.0
 10
580.0912993698612
 20
63.12527493949582
 30
0.0
 10
580.1061458078144
 20
63.10882221489963
 30
0.0
 10
580.1232790029228
 20
63.08986568466635
 30
0.0
 10
580.1441136608686
 20
63.06685903100195
 30
0.0
 10
580.1668545375195
 20
63.04180943797085
 30
0.0
 10
580.1877093896247
 20
63.01889438891747
 30
0.0
 10
580.2046531751944
 20
63.0003132453631
 30
0.0
 10
580.2189028496733
 20
62.98471071573741
 30
0.0
 10
580.2329354637451
 20
62.9693679002776
 30
0.0
 10
580.249024898908
 20
62.95180253599381
 30
0.0
 10
580.2712800495831
 20
62.92755042127002
 30
0.0
 10
580.2968875379665
 20
62.8997213547017
 30
0.0
 10
580.3220414977698
 20
62.87246698154167
 30
0.0
 10
580.3422222592707
 20
62.85065097832354
 30
0.0
 10
580.3608181011018
 20
62.83058591453813
 30
0.0
 10
580.382274751401
 20
62.80747931331904
 30
0.0
 10
580.4066890418839
 20
62.78125280261465
 30
0.0
 10
580.4309957117569
 20
62.75521451050189
 30
0.0
 10
580.4517001837611
 20
62.73308821961893
 30
0.0
 10
580.4697339129654
 20
62.71385250218353
 30
0.0
 10
580.4884542062849
 20
62.69392028126767
 30
0.0
 10
580.5217128899797
 20
62.65858225201878
 30
0.0
 10
580.5635844888002
 20
62.61428284279557
 30
0.0
 10
580.6166875072964
 20
62.55840460393661
 30
0.0
 10
580.6652141088846
 20
62.5076056250907
 30
0.0
 10
580.7071413027534
 20
62.46394757577845
 30
0.0
 10
580.7399177374275
 20
62.42994253492387
 30
0.0
 10
580.7652041142774
 20
62.403779204044
 30
0.0
 10
580.7891332541572
 20
62.3790871916689
 30
0.0
 10
580.8096129512688
 20
62.35800245303547
 30
0.0
 10
580.828587787155
 20
62.33850519733872
 30
0.0
 10
580.8501119270593
 20
62.31643120893593
 30
0.0
 10
580.8751337563309
 20
62.29083245649581
 30
0.0
 10
580.9000649630614
 20
62.26540025012734
 30
0.0
 10
580.921198422802
 20
62.24389521343879
 30
0.0
 10
580.9388948115162
 20
62.22592039048664
 30
0.0
 10
580.9571819178724
 20
62.20737837744966
 30
0.0
 10
580.9789160395937
 20
62.18538594976028
 30
0.0
 10
581.0051809253176
 20
62.15887394063005
 30
0.0
 10
581.0340344206421
 20
62.12983651157133
 30
0.0
 10
581.0610165326057
 20
62.10276755226346
 30
0.0
 10
581.0900636540721
 20
62.07370144974861
 30
0.0
 10
581.1257894962379
 20
62.03806089493358
 30
0.0
 10
581.1676329102679
 20
61.99650528017159
 30
0.0
 10
581.2116238901667
 20
61.95301590411783
 30
0.0
 10
581.2537725487474
 20
61.91152802114696
 30
0.0
 10
581.295686155085
 20
61.87045985215589
 30
0.0
 10
581.3354207626303
 20
61.83169185400747
 30
0.0
 10
581.3719994689145
 20
61.79614421942928
 30
0.0
 10
581.4057228546379
 20
61.76349432737516
 30
0.0
 10
581.4401406989034
 20
61.7302823597958
 30
0.0
 10
581.4756259314959
 20
61.69616479978978
 30
0.0
 10
581.5118744866634
 20
61.66145429487702
 30
0.0
 10
581.5477734767074
 20
61.62720250115689
 30
0.0
 10
581.5829196916586
 20
61.59379342740806
 30
0.0
 10
581.6168931469905
 20
61.56162495554521
 30
0.0
 10
581.6452296306387
 20
61.53488285831438
 30
0.0
 10
581.6686680818523
 20
61.51282189536455
 30
0.0
 10
581.6929996488277
 20
61.4899716658926
 30
0.0
 10
581.7207545035066
 20
61.46397664265132
 30
0.0
 10
581.748938315536
 20
61.43766838417367
 30
0.0
 10
581.7761259214936
 20
61.41236277602735
 30
0.0
 10
581.8048803042129
 20
61.38566860536063
 30
0.0
 10
581.8371337936959
 20
61.35582979273696
 30
0.0
 10
581.8685219293216
 20
61.32689882390821
 30
0.0
 10
581.8947622849392
 20
61.30278615722942
 30
0.0
 10
581.9151778620508
 20
61.28407326791974
 30
0.0
 10
581.9329503755872
 20
61.26781473798864
 30
0.0
 10
581.9508443566408
 20
61.25147269302245
 30
0.0
 10
581.9717858488375
 20
61.23238808126278
 30
0.0
 10
581.9928448620473
 20
61.21324374183074
 30
0.0
 10
582.0109269602125
 20
61.19684192180053
 30
0.0
 10
582.0281494900993
 20
61.18124587006785
 30
0.0
 10
582.0486427890053
 20
61.16272238673142
 30
0.0
 10
582.0740228835019
 20
61.13984165891229
 30
0.0
 10
582.100511431892
 20
61.11603342701349
 30
0.0
 10
582.126199718844
 20
61.09301016011748
 30
0.0
 10
582.1523255171525
 20
61.06965740167239
 30
0.0
 10
582.1810296669404
 20
61.04407604762321
 30
0.0
 10
582.2092163085841
 20
61.01904029345518
 30
0.0
 10
582.2348219615083
 20
60.99636601476332
 30
0.0
 10
582.2583723495344
 20
60.97556324612874
 30
0.0
 10
582.2839929036581
 20
60.95299108169439
 30
0.0
 10
582.3132042640761
 20
60.92733401940567
 30
0.0
 10
582.3444465316448
 20
60.89998723887874
 30
0.0
 10
582.3745362510924
 20
60.873743395959
 30
0.0
 10
582.4028464499171
 20
60.84913151275884
 30
0.0
 10
582.4312566942114
 20
60.82450578030835
 30
0.0
 10
582.4586058789062
 20
60.80087837809811
 30
0.0
 10
582.483350094823
 20
60.7795678472195
 30
0.0
 10
582.5022789769201
 20
60.76330420135212
 30
0.0
 10
582.5179464745602
 20
60.74986848204247
 30
0.0
 10
582.533637090526
 20
60.73643427494596
 30
0.0
 10
582.5527282282748
 20
60.72011838500471
 30
0.0
 10
582.5755289447334
 20
60.70068099763143
 30
0.0
 10
582.6032724723655
 20
60.67709633845602
 30
0.0
 10
582.6324359629722
 20
60.65238675194978
 30
0.0
 10
582.6639847653636
 20
60.62575285619917
 30
0.0
 10
582.6941225935657
 20
60.60039884061247
 30
0.0
 10
582.7237381684182
 20
60.57557180358966
 30
0.0
 10
582.7536307687419
 20
60.55059565557266
 30
0.0
 10
582.7827972232219
 20
60.52631091302371
 30
0.0
 10
582.8117424265698
 20
60.50229368043061
 30
0.0
 10
582.8386801657186
 20
60.48001260494041
 30
0.0
 10
582.8644356725738
 20
60.45877502476574
 30
0.0
 10
582.8883960038785
 20
60.43907500077603
 30
0.0
 10
582.9121884483235
 20
60.41956449556982
 30
0.0
 10
582.9388508509415
 20
60.39776039093706
 30
0.0
 10
582.9692988316937
 20
60.37294425561496
 30
0.0
 10
582.9995901182054
 20
60.34834912651444
 30
0.0
 10
583.0267563565674
 20
60.32636543107825
 30
0.0
 10
583.0520574462415
 20
60.30594823472607
 30
0.0
 10
583.0791307822495
 20
60.28416466089961
 30
0.0
 10
583.1068688265555
 20
60.26192075503264
 30
0.0
 10
583.1323810929214
 20
60.24152740792296
 30
0.0
 10
583.1543836794464
 20
60.22398618233365
 30
0.0
 10
583.1760614351198
 20
60.20674449341681
 30
0.0
 10
583.2002188511223
 20
60.18757941806993
 30
0.0
 10
583.2330033626846
 20
60.16164878544647
 30
0.0
 10
583.2707452887748
 20
60.13192452957119
 30
0.0
 10
583.3164674585785
 20
60.09609136522401
 30
0.0
 10
583.361056285559
 20
60.06132970470246
 30
0.0
 10
583.4067826226981
 20
60.02587626597678
 30
0.0
 10
583.4523632297958
 20
59.99070850804811
 30
0.0
 10
583.492869861516
 20
59.95962472234309
 30
0.0
 10
583.528035311686
 20
59.93276413884274
 30
0.0
 10
583.556660204342
 20
59.91096688317976
 30
0.0
 10
583.5879613426259
 20
59.88721183670634
 30
0.0
 10
583.6204217613031
 20
59.86267472149423
 30
0.0
 10
583.6502820479232
 20
59.84018782394632
 30
0.0
 10
583.6783087471848
 20
59.81914764777244
 30
0.0
 10
583.7108979491272
 20
59.7947607075067
 30
0.0
 10
583.7469539214127
 20
59.76789406697308
 30
0.0
 10
583.784653356291
 20
59.73993044855805
 30
0.0
 10
583.8237201783554
 20
59.71107144654328
 30
0.0
 10
583.8664166974955
 20
59.6796823840797
 30
0.0
 10
583.9122672392092
 20
59.64615827279329
 30
0.0
 10
583.958557652935
 20
59.6124923969871
 30
0.0
 10
584.0046133915615
 20
59.57918023623926
 30
0.0
 10
584.0501454055731
 20
59.54642898223683
 30
0.0
 10
584.0911611087168
 20
59.51708020371735
 30
0.0
 10
584.1269082309678
 20
59.49161949713042
 30
0.0
 10
584.1603324538136
 20
59.46790440637906
 30
0.0
 10
584.1964089685575
 20
59.4424071961884
 30
0.0
 10
584.2465150348412
 20
59.40716150902644
 30
0.0
 10
584.3060616288041
 20
59.3655622574612
 30
0.0
 10
584.3738799265159
 20
59.31857149902081
 30
0.0
 10
584.4382007038311
 20
59.27435925569618
 30
0.0
 10
584.5038087529323
 20
59.22961595026102
 30
0.0
 10
584.5681831439168
 20
59.18606023365678
 30
0.0
 10
584.6264852879624
 20
59.14693364474164
 30
0.0
 10
584.6778175837546
 20
59.11271233347865
 30
0.0
 10
584.7229151300504
 20
59.08281521576917
 30
0.0
 10
584.7672379543943
 20
59.05360236327528
 30
0.0
 10
584.8084122848278
 20
59.02661058375877
 30
0.0
 10
584.8477666556729
 20
59.00093848891994
 30
0.0
 10
584.8881134959224
 20
58.97474906281286
 30
0.0
 10
584.9370813424877
 20
58.94313177972102
 30
0.0
 10
584.9935255448726
 20
58.90693527095384
 30
0.0
 10
585.0550650896711
 20
58.86779157666835
 30
0.0
 10
585.1125467796529
 20
58.83151462930716
 30
0.0
 10
585.1656398451524
 20
58.79824667780148
 30
0.0
 10
585.2169360347616
 20
58.76631751693876
 30
0.0
 10
585.2709990031778
 20
58.73289302389082
 30
0.0
 10
585.3317136166908
 20
58.69563641939094
 30
0.0
 10
585.397627613669
 20
58.65553845367064
 30
0.0
 10
585.4647138736027
 20
58.61510593463063
 30
0.0
 10
585.5297616175621
 20
58.57625178673803
 30
0.0
 10
585.5966954734711
 20
58.53661816516451
 30
0.0
 10
585.6651868132658
 20
58.49644716405514
 30
0.0
 10
585.7350046937796
 20
58.45590117242811
 30
0.0
 10
585.8054068688177
 20
58.41540525278108
 30
0.0
 10
585.8784750755641
 20
58.3738036541149
 30
0.0
 10
585.9525368912556
 20
58.33209209478862
 30
0.0
 10
586.0174236360233
 20
58.29593464565053
 30
0.0
 10
586.0705380809616
 20
58.26659510684868
 30
0.0
 10
586.1120708799263
 20
58.24380210253307
 30
0.0
 10
586.1492548243524
 20
58.22351102419868
 30
0.0
 10
586.184566568965
 20
58.20434442199038
 30
0.0
 10
586.2188988824375
 20
58.1858065340069
 30
0.0
 10
586.2630377487636
 20
58.1620950428485
 30
0.0
 10
586.320464968449
 20
58.1314740126303
 30
0.0
 10
586.3948459532719
 20
58.09223291922169
 30
0.0
 10
586.4793213604532
 20
58.04821256031989
 30
0.0
 10
586.5740623099333
 20
57.99953358591898
 30
0.0
 10
586.6792651177924
 20
57.94633368743462
 30
0.0
 10
586.7951480677995
 20
57.88877137151363
 30
0.0
 10
586.9118614850197
 20
57.83194144087916
 30
0.0
 10
587.0281385768111
 20
57.77642346212664
 30
0.0
 10
587.1426133259303
 20
57.72278841290743
 30
0.0
 10
587.262004179828
 20
57.66798214264001
 30
0.0
 10
587.3826926683886
 20
57.61376118008604
 30
0.0
 10
587.5009925489311
 20
57.56175500861538
 30
0.0
 10
587.6154485776666
 20
57.51250782824246
 30
0.0
 10
587.7397020455197
 20
57.46016677731019
 30
0.0
 10
587.8724254322615
 20
57.40563234085735
 30
0.0
 10
588.0122101728379
 20
57.34980998781005
 30
0.0
 10
588.1436187621796
 20
57.29876138878259
 30
0.0
 10
588.266439578085
 20
57.25229968685127
 30
0.0
 10
588.3798540854011
 20
57.21047032827934
 30
0.0
 10
588.483829364668
 20
57.17302478690053
 30
0.0
 10
588.57805434251
 20
57.13983161380623
 30
0.0
 10
588.6636336037338
 20
57.11029532799658
 30
0.0
 10
588.7289231471452
 20
57.0881832331677
 30
0.0
 10
588.7760695964448
 20
57.07242180795682
 30
0.0
 10
588.8081989368434
 20
57.06176315125919
 30
0.0
 10
588.8424410740614
 20
57.05048913465144
 30
0.0
 10
588.8823833313475
 20
57.03745144325028
 30
0.0
 10
588.9305158579492
 20
57.02190852867881
 30
0.0
 10
588.9836259641366
 20
57.0049783989024
 30
0.0
 10
589.0390622037041
 20
56.98755012203119
 30
0.0
 10
589.0944275409506
 20
56.97038512060742
 30
0.0
 10
589.1490292218142
 20
56.953697377677
 30
0.0
 10
589.1998220328062
 20
56.93839139859116
 30
0.0
 10
589.2407352953143
 20
56.92621811792883
 30
0.0
 10
589.2744555703498
 20
56.91627870929966
 30
0.0
 10
589.3064105899656
 20
56.90693185857537
 30
0.0
 10
589.345063937353
 20
56.89573158115557
 30
0.0
 10
589.3897567963611
 20
56.88293144859799
 30
0.0
 10
589.4363412298324
 20
56.8697648874689
 30
0.0
 10
589.4805936653244
 20
56.85741996476171
 30
0.0
 10
589.5240970099323
 20
56.84542770732951
 30
0.0
 10
589.5664408964996
 20
56.83389887430182
 30
0.0
 10
589.6080638400775
 20
56.82270963609618
 30
0.0
 10
589.6459914727272
 20
56.81263058612837
 30
0.0
 10
589.6872392376765
 20
56.80178761629421
 30
0.0
 10
589.7352415205571
 20
56.78933202610184
 30
0.0
 10
589.79463079675
 20
56.77417526956924
 30
0.0
 10
589.8635692233094
 20
56.75692632467577
 30
0.0
 10
589.9385597780046
 20
56.73860275494333
 30
0.0
 10
590.0137340295057
 20
56.72069305663211
 30
0.0
 10
590.0841902696377
 20
56.70431092046685
 30
0.0
 10
590.1484566424052
 20
56.68971018357491
 30
0.0
 10
590.20785290711
 20
56.67650184761933
 30
0.0
 10
590.2633530628733
 20
56.66440563170211
 30
0.0
 10
590.3189364754719
 20
56.65252928485118
 30
0.0
 10
590.3780856463253
 20
56.64014923480332
 30
0.0
 10
590.4416699982864
 20
56.62715004740734
 30
0.0
 10
590.502518616429
 20
56.6150278641612
 30
0.0
 10
590.5555502617174
 20
56.60470485035107
 30
0.0
 10
590.5986343309573
 20
56.59647446305274
 30
0.0
 10
590.6394527588957
 20
56.58880462279983
 30
0.0
 10
590.6828393523062
 20
56.58078768477895
 30
0.0
 10
590.7353158427452
 20
56.57128355128016
 30
0.0
 10
590.7922675685559
 20
56.56122546576977
 30
0.0
 10
590.8518822003458
 20
56.55097873067253
 30
0.0
 10
590.9077174860852
 20
56.54163332383241
 30
0.0
 10
590.9606993343726
 20
56.53299774208784
 30
0.0
 10
591.0095894823407
 20
56.52522215469813
 30
0.0
 10
591.0562752924543
 20
56.51796947591564
 30
0.0
 10
591.102488202564
 20
56.5109588553723
 30
0.0
 10
591.1491699424475
 20
56.50404700197306
 30
0.0
 10
591.1948452794123
 20
56.4974530220757
 30
0.0
 10
591.2420148300467
 20
56.49081269849082
 30
0.0
 10
591.2892744564481
 20
56.48433482247358
 30
0.0
 10
591.3354774559857
 20
56.47818174972116
 30
0.0
 10
591.3795040656611
 20
56.47247175876436
 30
0.0
 10
591.4245934530009
 20
56.46677419066953
 30
0.0
 10
591.4729731530902
 20
56.46084350667166
 30
0.0
 10
591.5215100968188
 20
56.45508812354119
 30
0.0
 10
591.5631492670192
 20
56.45030681924457
 30
0.0
 10
591.5971815389615
 20
56.44650071169446
 30
0.0
 10
591.6258658585335
 20
56.44335826009486
 30
0.0
 10
591.6550925032442
 20
56.44022115132879
 30
0.0
 10
591.6865382698978
 20
56.43692203084056
 30
0.0
 10
591.7178553252472
 20
56.43371855479093
 30
0.0
 10
591.7457391614889
 20
56.43093525737772
 30
0.0
 10
591.7702043717219
 20
56.4285415027708
 30
0.0
 10
591.7988899711518
 20
56.42578733670794
 30
0.0
 10
591.8366266283011
 20
56.42226162334079
 30
0.0
 10
591.8816964755412
 20
56.41821188217492
 30
0.0
 10
591.9273487410202
 20
56.41428338902471
 30
0.0
 10
591.9709457300237
 20
56.4106868552659
 30
0.0
 10
592.0149844985377
 20
56.40720433575963
 30
0.0
 10
592.0589661565226
 20
56.40388565915757
 30
0.0
 10
592.0993620843728
 20
56.40098412154831
 30
0.0
 10
592.1341684505926
 20
56.3985881721005
 30
0.0
 10
592.1669961786589
 20
56.39641126252151
 30
0.0
 10
592.2016105755539
 20
56.39421022618113
 30
0.0
 10
592.2361086163453
 20
56.39211944796124
 30
0.0
 10
592.2680290863937
 20
56.39027238056346
 30
0.0
 10
592.2998288201906
 20
56.38850892117372
 30
0.0
 10
592.3351590770762
 20
56.38664387657039
 30
0.0
 10
592.3710976099874
 20
56.38486089470934
 30
0.0
 10
592.4033853512699
 20
56.38335378330383
 30
0.0
 10
592.4316078896627
 20
56.3821015193171
 30
0.0
 10
592.4609117279768
 20
56.38086692733771
 30
0.0
 10
592.4923375326842
 20
56.37962400354027
 30
0.0
 10
592.5234536290094
 20
56.37847792424022
 30
0.0
 10
592.5536950817352
 20
56.37743911455223
 30
0.0
 10
592.5856711812165
 20
56.37641888066531
 30
0.0
 10
592.6215176369142
 20
56.3753770869336
 30
0.0
 10
592.658140751946
 20
56.37443012160364
 30
0.0
 10
592.6926557849733
 20
56.37364283524946
 30
0.0
 10
592.7258826800576
 20
56.37297455589749
 30
0.0
 10
592.7608083846742
 20
56.37236998110992
 30
0.0
 10
592.797059629634
 20
56.37185569231734
 30
0.0
 10
592.8493621364837
 20
56.37127611404896
 30
0.0
 10
592.9176332778686
 20
56.37086363947979
 30
0.0
 10
593.0033218670781
 20
56.37097096855396
 30
0.0
 10
593.0885075236414
 20
56.37171281345646
 30
0.0
 10
593.1744135083045
 20
56.37308759279849
 30
0.0
 10
593.25796306594
 20
56.37504076878891
 30
0.0
 10
593.3441825494203
 20
56.37768370450086
 30
0.0
 10
593.4136907212063
 20
56.38032692645026
 30
0.0
 10
593.4692900151294
 20
56.38275175841107
 30
0.0
 10
593.5092231053874
 20
56.38462575222925
 30
0.0
 10
593.5522747680634
 20
56.38679867491508
 30
0.0
 10
593.5967670243825
 20
56.38922066818242
 30
0.0
 10
593.6400909378041
 20
56.39174882781995
 30
0.0
 10
593.6769730981248
 20
56.39403344271368
 30
0.0
 10
593.7098562755444
 20
56.39616838725592
 30
0.0
 10
593.7406581269431
 20
56.39824705423738
 30
0.0
 10
593.7743832989496
 20
56.40061738281307
 30
0.0
 10
593.811052877485
 20
56.40330833655194
 30
0.0
 10
593.8480181655154
 20
56.40614423924059
 30
0.0
 10
593.8812926230901
 20
56.40880463597164
 30
0.0
 10
593.9186534649403
 20
56.41189088997478
 30
0.0
 10
593.9641198340975
 20
56.41580229901186
 30
0.0
 10
594.0228816969047
 20
56.42113897731346
 30
0.0
 10
594.086590131374
 20
56.42727828421323
 30
0.0
 10
594.1514105873079
 20
56.43390407611943
 30
0.0
 10
594.2160891071902
 20
56.4408730596807
 30
0.0
 10
594.2803468513348
 20
56.44816954617615
 30
0.0
 10
594.3411402121358
 20
56.4554232190119
 30
0.0
 10
594.3986432557117
 20
56.46257434533081
 30
0.0
 10
594.4566048106261
 20
56.47006849050046
 30
0.0
 10
594.51548606663
 20
56.47800090410335
 30
0.0
 10
594.575560683181
 20
56.4864095481317
 30
0.0
 10
594.6331909299299
 20
56.49477838406258
 30
0.0
 10
594.6880211271973
 20
56.50303070552776
 30
0.0
 10
594.7363118289944
 20
56.51051957384565
 30
0.0
 10
594.7862091182939
 20
56.51845827189695
 30
0.0
 10
594.8389770782779
 20
56.52709890279451
 30
0.0
 10
594.8919356543819
 20
56.53604652793026
 30
0.0
 10
594.9405218875509
 20
56.54447226107118
 30
0.0
 10
594.9859503411211
 20
56.5525366651601
 30
0.0
 10
595.0350000633326
 20
56.56145102294271
 30
0.0
 10
595.0855509900748
 20
56.5708678348345
 30
0.0
 10
595.1391825853005
 20
56.58111773034472
 30
0.0
 10
595.192924777569
 20
56.59165074210124
 30
0.0
 10
595.2446344118674
 20
56.6020450990275
 30
0.0
 10
595.2951511105997
 20
56.61243101822161
 30
0.0
 10
595.346485703554
 20
56.62321616012434
 30
0.0
 10
595.4045730815524
 20
56.635709680246
 30
0.0
 10
595.4653097923315
 20
56.64911579460016
 30
0.0
 10
595.5226082126013
 20
56.66210106490321
 30
0.0
 10
595.5723502244499
 20
56.67361663126557
 30
0.0
 10
595.6175825684793
 20
56.68427711596047
 30
0.0
 10
595.6645329349809
 20
56.69554180254801
 30
0.0
 10
595.7082261055218
 20
56.70622262526057
 30
0.0
 10
595.7505684931185
 20
56.71674248071373
 30
0.0
 10
595.7887006794712
 20
56.7263542881693
 30
0.0
 10
595.8260294086313
 20
56.73590438854262
 30
0.0
 10
595.8595936000951
 20
56.74460243232681
 30
0.0
 10
595.8920582560761
 20
56.75311258901309
 30
0.0
 10
595.9230754074927
 20
56.76133952489882
 30
0.0
 10
595.9578822571993
 20
56.7706748620469
 30
0.0
 10
595.9973503612779
 20
56.78139206419056
 30
0.0
 10
596.0446740642777
 20
56.79444763954986
 30
0.0
 10
596.0963236378911
 20
56.80894409116122
 30
0.0
 10
596.1490584510034
 20
56.82401506288881
 30
0.0
 10
596.1993420749474
 20
56.83864541171932
 30
0.0
 10
596.2456539160801
 20
56.85233469448178
 30
0.0
 10
596.2812710697981
 20
56.86301411613815
 30
0.0
 10
596.3089699280046
 20
56.87140347079689
 30
0.0
 10
596.3300500869915
 20
56.87782947329728
 30
0.0
 10
596.3517261026287
 20
56.88448368786797
 30
0.0
 10
596.3726059435265
 20
56.89093842917053
 30
0.0
 10
596.3936644162245
 20
56.89748937052425
 30
0.0
 10
596.4172286253703
 20
56.90486842470976
 30
0.0
 10
596.4435832941098
 20
56.91318868105277
 30
0.0
 10
596.4694248266474
 20
56.92141769353487
 30
0.0
 10
596.4912593305169
 20
56.9284233142284
 30
0.0
 10
596.5080590294394
 20
56.93384539835137
 30
0.0
 10
596.5269246599526
 20
56.93996096912748
 30
0.0
 10
596.5514106741545
 20
56.94794667505493
 30
0.0
 10
596.5852694372317
 20
56.95909230566487
 30
0.0
 10
596.6274438034465
 20
56.97313010581765
 30
0.0
 10
596.6732143856001
 20
56.9885754693876
 30
0.0
 10
596.7232763281438
 20
57.00571275986627
 30
0.0
 10
596.7679010598963
 20
57.02120687016443
 30
0.0
 10
596.8073312763555
 20
57.03507351796672
 30
0.0
 10
596.8360494475538
 20
57.04526815163815
 30
0.0
 10
596.8610231547625
 20
57.05419616643911
 30
0.0
 10
596.8865117135797
 20
57.0633670057871
 30
0.0
 10
596.9148354127256
 20
57.0736383839591
 30
0.0
 10
596.9431453925924
 20
57.08399046096554
 30
0.0
 10
597.0049816426609
 20
57.10677133585126
 30
0.0
 10
597.0993738453145
 20
57.14230053750175
 30
0.0
 10
597.2285871217221
 20
57.19264565150811
 30
0.0
 10
597.3619508805976
 20
57.24636777001935
 30
0.0
 10
597.496420906116
 20
57.30246396674008
 30
0.0
 10
597.6298851522929
 20
57.36005281934339
 30
0.0
 10
597.7680648315758
 20
57.42155101224075
 30
0.0
 10
597.8830909021281
 20
57.47449828401751
 30
0.0
 10
597.9795751645679
 20
57.5200388441428
 30
0.0
 10
598.0445903378381
 20
57.55118775535534
 30
0.0
 10
598.1090466609754
 20
57.58254157068041
 30
0.0
 10
598.1674092370052
 20
57.61131786269711
 30
0.0
 10
598.2233353089672
 20
57.63923340127725
 30
0.0
 10
598.2797147400383
 20
57.66771458031098
 30
0.0
 10
598.3286942040362
 20
57.69276957131878
 30
0.0
 10
598.3722852480183
 20
57.71528627513953
 30
0.0
 10
598.4088641061239
 20
57.73432591951536
 30
0.0
 10
598.4499042080469
 20
57.75586493736242
 30
0.0
 10
598.4946838580681
 20
57.77958026962701
 30
0.0
 10
598.5401284104524
 20
57.80386287538333
 30
0.0
 10
598.5706789333747
 20
57.82040776151845
 30
0.0
 10
598.584106648513
 20
57.82767965072907
 30
0.0
  0
LINE
  5
E6
330
1F
100
AcDbEntity
  8
0
  6
Continuous
 62
     7
370
    30
100
AcDbLine
 10
617.066786189
 20
65.8428522364
 30
0.0
 11
617.1026692184
 21
67.8939505636
 31
0.0
  0
SPLINE
  5
E7
330
1F
100
AcDbEntity
  8
0
  6
Continuous
 62
     7
370
    30
100
AcDbSpline
210
0.0
220
0.0
230
1.0
 70
     8
 71
     3
 72
   132
 73
   128
 74
     0
 42
0.000000001
 43
0.00000001
 40
0.0
 40
0.0
 40
0.0
 40
0.0
 40
0.0008972666348947
 40
0.0170061608771176
 40
0.0330666742554298
 40
0.0490788372760011
 40
0.0650426803272482
 40
0.0806744697581738
 40
0.0962597070302108
 40
0.1117984204697417
 40
0.127290638207883
 40
0.1430167712518253
 40
0.158694760798818
 40
0.1743246357893009
 40
0.1899064248687584
 40
0.205440156367017
 40
0.220649766516099
 40
0.2358130731305593
 40
0.2509301020475815
 40
0.2660008787359684
 40
0.2812981568911426
 40
0.2965475378361868
 40
0.3117490471587506
 40
0.3269027099713974
 40
0.3420085508915408
 40
0.3567981355884104
 40
0.3715416364983166
 40
0.3862390754364016
 40
0.4008904736819323
 40
0.4157609625791461
 40
0.4305837642563088
 40
0.4453588993378668
 40
0.4600863877884923
 40
0.4747634911897166
 40
0.4841019554690464
 40
0.4930186521577074
 40
0.5015135503726427
 40
0.5095866207855
 40
0.5172378356004088
 40
0.5244671685325494
 40
0.5321701757393515
 40
0.5393283341953541
 40
0.5459416118431966
 40
0.5520099790389749
 40
0.5575334085208689
 40
0.5625118753799878
 40
0.5669453570336087
 40
0.5708338332010046
 40
0.5741772858823216
 40
0.576975699341397
 40
0.5792290600949872
 40
0.580937356916172
 40
0.5814374421063677
 40
0.5818608759802929
 40
0.5822076582229198
 40
0.5826385471171734
 40
0.5834974390560224
 40
0.5847880007919288
 40
0.5863155295081126
 40
0.5879956930929264
 40
0.5910797534899366
 40
0.5945739134476978
 40
0.5984781970524595
 40
0.6027926313003915
 40
0.6075172460260031
 40
0.6124861954102753
 40
0.6241940600582186
 40
0.6358883448751733
 40
0.6497923144841852
 40
0.6636770715747231
 40
0.6775426298033941
 40
0.6844683485902093
 40
0.6913892710922136
 40
0.6983096063926237
 40
0.7055196970255819
 40
0.7131965696792196
 40
0.7213403045960427
 40
0.7294463752394753
 40
0.7379676253644675
 40
0.7469041291379758
 40
0.7562559615268069
 40
0.7660231975073429
 40
0.7719840541638539
 40
0.7780897140766734
 40
0.7843401921535349
 40
0.7907355029485928
 40
0.7972756605859759
 40
0.8039514721028543
 40
0.8103434386818393
 40
0.8163740168837872
 40
0.8218656903755006
 40
0.8268184001033164
 40
0.8294845642195949
 40
0.8319635416506138
 40
0.8342264563232249
 40
0.8360462770973408
 40
0.8371598693150134
 40
0.8379509849258412
 40
0.838421002804608
 40
0.8388272686271759
 40
0.8393607592099265
 40
0.840021475333752
 40
0.8408094179489684
 40
0.8417245881749278
 40
0.8440546443576891
 40
0.8469432514364115
 40
0.8503904260480694
 40
0.8534058967863535
 40
0.8567485388986991
 40
0.8604183631645108
 40
0.8644153811521387
 40
0.868739605148822
 40
0.8733882182880048
 40
0.8781322553683568
 40
0.8919274912209775
 40
0.9052846065252416
 40
0.9182035130639217
 40
0.9306841311833981
 40
0.9427263891974753
 40
0.9543302228071463
 40
0.9618980333485833
 40
0.9692160902893433
 40
0.976151139330676
 40
0.982696591759946
 40
0.9888528954085638
 40
0.994620523482799
 40
1.0
 40
1.0
 40
1.0
 40
1.0
 10
599.9112648337696
 20
58.54908355859553
 30
0.0
 10
599.9184433995505
 20
58.54789737852686
 30
0.0
 10
600.0545008876921
 20
58.52541535557796
 30
0.0
 10
600.3217775560811
 20
58.48759626562658
 30
0.0
 10
600.7125137038711
 20
58.43623737556014
 30
0.0
 10
601.1045973156968
 20
58.392147848636
 30
0.0
 10
601.4949323453245
 20
58.3546306776232
 30
0.0
 10
601.8832707766225
 20
58.32376495113659
 30
0.0
 10
602.2692467709613
 20
58.29932285641121
 30
0.0
 10
602.6549024256184
 20
58.28109841524707
 30
0.0
 10
603.0422478883079
 20
58.26897367974454
 30
0.0
 10
603.4309699756582
 20
58.26303403031493
 30
0.0
 10
603.8207414983959
 20
58.26335807980734
 30
0.0
 10
604.2089138853482
 20
58.26992365042435
 30
0.0
 10
604.5951823707173
 20
58.28266802440885
 30
0.0
 10
604.9769734663759
 20
58.30141226694622
 30
0.0
 10
605.3540352664793
 20
58.32595945408129
 30
0.0
 10
605.7261394049191
 20
58.35611237556024
 30
0.0
 10
606.0953032972526
 20
58.39194392067459
 30
0.0
 10
606.4634766626752
 20
58.43362467462623
 30
0.0
 10
606.8303461111856
 20
58.48119024889989
 30
0.0
 10
607.1955886817987
 20
58.53466991492532
 30
0.0
 10
607.5567468223031
 20
58.5936831298074
 30
0.0
 10
607.9135769267141
 20
58.65813215824451
 30
0.0
 10
608.2637563724829
 20
58.72750281538569
 30
0.0
 10
608.6071448302865
 20
58.8015811663887
 30
0.0
 10
608.9436229057525
 20
58.88015625524282
 30
0.0
 10
609.2750662339564
 20
58.96357292218907
 30
0.0
 10
609.6032470107228
 20
59.05225703335775
 30
0.0
 10
609.9278721467156
 20
59.14620163043896
 30
0.0
 10
610.2486424677778
 20
59.24539290670203
 30
0.0
 10
610.5634224455683
 20
59.34914772056543
 30
0.0
 10
610.8720158340974
 20
59.45733856524166
 30
0.0
 10
611.1379450905949
 20
59.55632665178678
 30
0.0
 10
611.3605899646416
 20
59.6432683246951
 30
0.0
 10
611.5392914492938
 20
59.71559853480917
 30
0.0
 10
611.7075444675751
 20
59.78604310686059
 30
0.0
 10
611.8656017348247
 20
59.85436317113907
 30
0.0
 10
612.0137128603421
 20
59.92033526054769
 30
0.0
 10
612.157838227528
 20
59.98636947293701
 30
0.0
 10
612.297224318415
 20
60.05205592756807
 30
0.0
 10
612.4311565813033
 20
60.11695678033082
 30
0.0
 10
612.5535330643878
 20
60.17780364749564
 30
0.0
 10
612.6646611594402
 20
60.23437837000547
 30
0.0
 10
612.7648294874501
 20
60.28648385992683
 30
0.0
 10
612.8543060794752
 20
60.33394332507078
 30
0.0
 10
612.9333368290089
 20
60.37659957619029
 30
0.0
 10
613.0021440961542
 20
60.41431437142575
 30
0.0
 10
613.060925515332
 20
60.44696783514447
 30
0.0
 10
613.1098528783484
 20
60.47445788681971
 30
0.0
 10
613.1490714073409
 20
60.49669986973424
 30
0.0
 10
613.1748648567954
 20
60.51143569154177
 30
0.0
 10
613.1900514329253
 20
60.52014732012037
 30
0.0
 10
613.1973763399285
 20
60.5243563665385
 30
0.0
 10
613.2042988491792
 20
60.52833986012796
 30
0.0
 10
613.2137276619424
 20
60.53377339879712
 30
0.0
 10
613.2285754907289
 20
60.54235020874133
 30
0.0
 10
613.2496912518862
 20
60.55459630944007
 30
0.0
 10
613.2754561116808
 20
60.56961683438885
 30
0.0
 10
613.3113862601087
 20
60.59068838329662
 30
0.0
 10
613.3583358186086
 20
60.61846646224439
 30
0.0
 10
613.4175552203782
 20
60.65393393976501
 30
0.0
 10
613.4832505781632
 20
60.69382368496152
 30
0.0
 10
613.5552593985685
 20
60.73821929252971
 30
0.0
 10
613.6324855406604
 20
60.78663849276384
 30
0.0
 10
613.7493057360456
 20
60.86121669200334
 30
0.0
 10
613.9014990864339
 20
60.9614514706667
 30
0.0
 10
614.0965926402679
 20
61.09571529964256
 30
0.0
 10
614.2971514742239
 20
61.24060114278507
 30
0.0
 10
614.5018198832837
 20
61.39654952788048
 30
0.0
 10
614.6663432307456
 20
61.52886896438625
 30
0.0
 10
614.7942499018154
 20
61.63605682427644
 30
0.0
 10
614.8883045783466
 20
61.71709180480225
 30
0.0
 10
614.9818067827933
 20
61.79993921695112
 30
0.0
 10
615.0767235717517
 20
61.88650910401172
 30
0.0
 10
615.1747868488176
 20
61.97875482616597
 30
0.0
 10
615.2742315188935
 20
62.07546944250603
 30
0.0
 10
615.3745705315009
 20
62.17650916567805
 30
0.0
 10
615.4753320618595
 20
62.28172059596162
 30
0.0
 10
615.5779032267379
 20
62.39306328703617
 30
0.0
 10
615.6818094126281
 20
62.51064835432879
 30
0.0
 10
615.7714577115721
 20
62.61672835166493
 30
0.0
 10
615.8471608522892
 20
62.70974411061903
 30
0.0
 10
615.9091561099553
 20
62.78819814693057
 30
0.0
 10
615.9710253708141
 20
62.86894295021686
 30
0.0
 10
616.0326479019376
 20
62.95199838100651
 30
0.0
 10
616.0938693959097
 20
63.03734145653326
 30
0.0
 10
616.1532694695334
 20
63.1231190062852
 30
0.0
 10
616.2093589140285
 20
63.20706624763017
 30
0.0
 10
616.2603821917569
 20
63.2861427720785
 30
0.0
 10
616.3059442287419
 20
63.35913849310174
 30
0.0
 10
616.3412133029933
 20
63.41741242554011
 30
0.0
 10
616.3678181396688
 20
63.46239112471483
 30
0.0
 10
616.3870578274283
 20
63.49543394299256
 30
0.0
 10
616.4038695757758
 20
63.52473363962899
 30
0.0
 10
616.4170308678172
 20
63.54796616898456
 30
0.0
 10
616.4263857979739
 20
63.56463327486828
 30
0.0
 10
616.4323177072669
 20
63.57526592131235
 30
0.0
 10
616.4364675331823
 20
63.58273424987981
 30
0.0
 10
616.439966206265
 20
63.58904837484963
 30
0.0
 10
616.4439267095506
 20
63.59621752914546
 30
0.0
 10
616.448814229918
 20
63.60509875222795
 30
0.0
 10
616.4546178765919
 20
63.61569406954259
 30
0.0
 10
616.4644701867843
 20
63.63378022073535
 30
0.0
 10
616.4793099533239
 20
63.66131166450501
 30
0.0
 10
616.4999487485026
 20
63.70026618597352
 30
0.0
 10
616.5217918108297
 20
63.74237787718151
 30
0.0
 10
616.5442369485887
 20
63.78661447599834
 30
0.0
 10
616.5667298965724
 20
63.83193517901464
 30
0.0
 10
616.5908643906847
 20
63.88178659620517
 30
0.0
 10
616.6164826047632
 20
63.93619306818357
 30
0.0
 10
616.6434061967601
 20
63.99516697932317
 30
0.0
 10
616.6709828608758
 20
64.05767832741225
 30
0.0
 10
616.7160073083993
 20
64.16359033247967
 30
0.0
 10
616.773609239729
 20
64.30991145762258
 30
0.0
 10
616.8379535162618
 20
64.49476887122435
 30
0.0
 10
616.8926455539249
 20
64.67442819316699
 30
0.0
 10
616.938411665064
 20
64.84870609722684
 30
0.0
 10
616.9759603844328
 20
65.01743658506598
 30
0.0
 10
617.0028861698935
 20
65.16364316712244
 30
0.0
 10
617.0219196892697
 20
65.28792802751734
 30
0.0
 10
617.0351911587368
 20
65.39051869442447
 30
0.0
 10
617.0459265775022
 20
65.48950353720399
 30
0.0
 10
617.05428208863
 20
65.5840032207086
 30
0.0
 10
617.0604445121922
 20
65.67407065577999
 30
0.0
 10
617.064774854608
 20
65.75953469392873
 30
0.0
 10
617.066131490591
 20
65.8157320002178
 30
0.0
 10
617.0667861889796
 20
65.84285223462777
 30
0.0
  0
SPLINE
  5
E8
330
1F
100
AcDbEntity
  8
0
  6
Continuous
 62
     7
370
    30
100
AcDbSpline
210
0.0
220
0.0
230
1.0
 70
     8
 71
     3
 72
    87
 73
    83
 74
     0
 42
0.000000001
 43
0.00000001
 40
0.0
 40
0.0
 40
0.0
 40
0.0
 40
0.0098549452613031
 40
0.0229090041242123
 40
0.0359632011318974
 40
0.0490170971532601
 40
0.0620702326930054
 40
0.0751221276411153
 40
0.0881722811144219
 40
0.1012201714016368
 40
0.1142652560191468
 40
0.1273069718888406
 40
0.1403447356459833
 40
0.1533779440864071
 40
0.1664059747620143
 40
0.1794281867318916
 40
0.1924439214757698
 40
0.2054525039768683
 40
0.2184532439783499
 40
0.2314454374162986
 40
0.2444283680320275
 40
0.2574013091628418
 40
0.2703635257103663
 40
0.2833142762810963
 40
0.2962528154945888
 40
0.3091783964495789
 40
0.322090273338434
 40
0.3349877041963202
 40
0.34786995377013
 40
0.3607362964902705
 40
0.3735860195257055
 40
0.386418425901246
 40
0.3992328376559046
 40
0.4120285990163451
 40
0.4248050795637639
 40
0.4375616773672055
 40
0.4502978220586256
 40
0.4630129778261614
 40
0.4757066462995064
 40
0.4883783693058742
 40
0.5010277314735457
 40
0.513654362664354
 40
0.5262579402158456
 40
0.538838190978381
 40
0.551394893133127
 40
0.5639278777809127
 40
0.5764370302939134
 40
0.5889222914244724
 40
0.6013836581689261
 40
0.6138211843867668
 40
0.6262349811767122
 40
0.6386252170158261
 40
0.650992117667602
 40
0.6633359658683219
 40
0.6756571008021948
 40
0.6879559173770764
 40
0.7002328653131537
 40
0.7124884480593534
 40
0.7247232215504437
 40
0.7369377928204414
 40
0.7491328184862253
 40
0.7613090031158802
 40
0.7734670974961382
 40
0.7856078968119524
 40
0.7977322387510241
 40
0.8098410015460475
 40
0.8219351019642095
 40
0.834015493255852
 40
0.8460831630698546
 40
0.8581391313445029
 40
0.8701844481806421
 40
0.8822201917026943
 40
0.8942474659125484
 40
0.906267398540147
 40
0.9182811388931161
 40
0.9302898557077247
 40
0.9422947350022227
 40
0.9542969779322458
 40
0.9662977986484415
 40
0.9782984221547172
 40
0.9903000821657055
 40
1.0
 40
1.0
 40
1.0
 40
1.0
 10
764.5541117043582
 20
148.0452918324338
 30
0.0
 10
764.6171613455209
 20
148.0117444028446
 30
0.0
 10
764.7637278104916
 20
147.9337593727469
 30
0.0
 10
764.9941161303542
 20
147.8145820942553
 30
0.0
 10
765.2452042444143
 20
147.6872432895615
 30
0.0
 10
765.4965187514102
 20
147.5627919372962
 30
0.0
 10
765.7480239122954
 20
147.4411322230617
 30
0.0
 10
765.9996977329773
 20
147.3223141363619
 30
0.0
 10
766.251514068703
 20
147.2063482990043
 30
0.0
 10
766.5034474103968
 20
147.0932555546862
 30
0.0
 10
766.7554715958612
 20
146.9830536582079
 30
0.0
 10
767.0075601507298
 20
146.8757608147058
 30
0.0
 10
767.2596861951831
 20
146.7713947032092
 30
0.0
 10
767.5118224695643
 20
146.6699727083283
 30
0.0
 10
767.7639413309201
 20
146.5715118269196
 30
0.0
 10
768.0160147602907
 20
146.4760286605463
 30
0.0
 10
768.2680143702514
 20
146.3835393838696
 30
0.0
 10
768.5199114156713
 20
146.294059718594
 30
0.0
 10
768.7716768070196
 20
146.2076049052565
 30
0.0
 10
769.0232811264932
 20
146.1241896751749
 30
0.0
 10
769.2746946469537
 20
146.0438282222095
 30
0.0
 10
769.5258873537077
 20
145.9665341747247
 30
0.0
 10
769.7768289690977
 20
145.8923205679636
 30
0.0
 10
770.0274889798551
 20
145.8211998171103
 30
0.0
 10
770.2778366671157
 20
145.7531836913113
 30
0.0
 10
770.5278411389719
 20
145.6882832889341
 30
0.0
 10
770.7774713653823
 20
145.6265090143458
 30
0.0
 10
771.0266962152336
 20
145.567870556488
 30
0.0
 10
771.2754844952996
 20
145.5123768695208
 30
0.0
 10
771.5238049908158
 20
145.4600361557914
 30
0.0
 10
771.7716265073487
 20
145.410855851373
 30
0.0
 10
772.0189179136142
 20
145.36484261439
 30
0.0
 10
772.2656481848667
 20
145.3220023163262
 30
0.0
 10
772.5117864464759
 20
145.2823400364784
 30
0.0
 10
772.7573020172762
 20
145.2458600596858
 30
0.0
 10
773.0021644522835
 20
145.2125658774274
 30
0.0
 10
773.2463435843657
 20
145.1824601923412
 30
0.0
 10
773.4898095644613
 20
145.155544926178
 30
0.0
 10
773.7325328999613
 20
145.1318212311605
 30
0.0
 10
773.9744844908746
 20
145.1112895046778
 30
0.0
 10
774.2156356634492
 20
145.0939494072041
 30
0.0
 10
774.455958200929
 20
145.079799883294
 30
0.0
 10
774.6954243711865
 20
145.0688391854661
 30
0.0
 10
774.9340069509975
 20
145.0610649007626
 30
0.0
 10
775.1716792467786
 20
145.0564739797352
 30
0.0
 10
775.4084151116546
 20
145.055062767591
 30
0.0
 10
775.6441889587735
 20
145.0568270372094
 30
0.0
 10
775.8789757708299
 20
145.0617620237296
 30
0.0
 10
776.112751105813
 20
145.069862460398
 30
0.0
 10
776.345491099038
 20
145.0811226153642
 30
0.0
 10
776.5771724615628
 20
145.0955363291143
 30
0.0
 10
776.8077724751332
 20
145.1130970522379
 30
0.0
 10
777.0372689838338
 20
145.1337978832357
 30
0.0
 10
777.2656403826518
 20
145.1576316060895
 30
0.0
 10
777.4928656031924
 20
145.184590727336
 30
0.0
 10
777.718924096795
 20
145.2146675124045
 30
0.0
 10
777.9437958153253
 20
145.2478540210024
 30
0.0
 10
778.1674611899176
 20
145.2841421413582
 30
0.0
 10
778.3899011079603
 20
145.3235236231549
 30
0.0
 10
778.6110968885994
 20
145.3659901090135
 30
0.0
 10
778.8310302570493
 20
145.4115331644106
 30
0.0
 10
779.0496833179782
 20
145.4601443059413
 30
0.0
 10
779.2670385282319
 20
145.5118150278566
 30
0.0
 10
779.483078669138
 20
145.5665368268334
 30
0.0
 10
779.6977868186256
 20
145.6243012249473
 30
0.0
 10
779.9111463233603
 20
145.6850997908452
 30
0.0
 10
780.1231407710997
 20
145.7489241591138
 30
0.0
 10
780.3337539634033
 20
145.8157660479025
 30
0.0
 10
780.5429698889368
 20
145.8856172746897
 30
0.0
 10
780.7507726971749
 20
145.9584697707683
 30
0.0
 10
780.9571466737666
 20
146.0343155924875
 30
0.0
 10
781.1620762133294
 20
146.1131469367891
 30
0.0
 10
781.3655458058131
 20
146.1949561331691
 30
0.0
 10
781.5675399765267
 20
146.2797357161963
 30
0.0
 10
781.76804340337
 20
146.3674781905573
 30
0.0
 10
781.9670403777816
 20
146.4581769358345
 30
0.0
 10
782.1645167180105
 20
146.5518228536812
 30
0.0
 10
782.3604525390564
 20
146.6484168905403
 30
0.0
 10
782.5548491394318
 20
146.7479233247205
 30
0.0
 10
782.7476285882805
 20
146.8504440797867
 30
0.0
 10
782.9267621043178
 20
146.9488413304927
 30
0.0
 10
783.0408453174142
 20
147.0144283432358
 30
0.0
 10
783.0918368997405
 20
147.0437436602667
 30
0.0
  0
SPLINE
  5
E9
330
1F
100
AcDbEntity
  8
0
  6
Continuous
 62
     7
370
    30
100
AcDbSpline
210
0.0
220
0.0
230
1.0
 70
     8
 71
     3
 72
    86
 73
    82
 74
     0
 42
0.000000001
 43
0.00000001
 40
0.0
 40
0.0
 40
0.0
 40
0.0
 40
0.0023035919563272
 40
0.0143111583429412
 40
0.0263232062328606
 40
0.0383408547078488
 40
0.0503653487385522
 40
0.0623979296111951
 40
0.0744398327063869
 40
0.0864922852680541
 40
0.0985565041488956
 40
0.1106336935320057
 40
0.1227250426265084
 40
0.1348317233362381
 40
0.146954887902099
 40
0.1590956665181179
 40
0.1712551649230404
 40
0.1834344619704562
 40
0.1956346071806624
 40
0.2078566182799896
 40
0.2201014787325111
 40
0.2323701352731699
 40
0.2446634954499247
 40
0.2569824251857319
 40
0.2693277463718339
 40
0.2817002345053853
 40
0.2941006163853876
 40
0.3065295678833272
 40
0.3189877118037217
 40
0.3314756158540226
 40
0.3439937907409136
 40
0.3565426884132376
 40
0.3691227004703729
 40
0.3817341567560268
 40
0.3943773241571885
 40
0.4070524056265321
 40
0.4197595394470067
 40
0.4324987987549186
 40
0.4452701913369267
 40
0.4580736597142911
 40
0.4709090815245195
 40
0.4837762702095387
 40
0.4966749760141186
 40
0.5096048872977703
 40
0.5225656321572335
 40
0.5355567803547431
 40
0.5485778455429
 40
0.5616282877734996
 40
0.5747075162734966
 40
0.5878148924688187
 40
0.6009497332327578
 40
0.6141113143328311
 40
0.6272988740481525
 40
0.6405116169266969
 40
0.6537487176506853
 40
0.6670093249772552
 40
0.6802925657211485
 40
0.6935975487461998
 40
0.7069233689333292
 40
0.7202691110940967
 40
0.7336338537995394
 40
0.747016673097447
 40
0.760416646092825
 40
0.7738328543691603
 40
0.7872643872316296
 40
0.8007103447552479
 40
0.8141698406255916
 40
0.8276420047618486
 40
0.841125985715625
 40
0.8546209528417524
 40
0.8681260982396307
 40
0.8816406384676503
 40
0.8951638160340731
 40
0.9086949006707038
 40
0.9222331903978129
 40
0.9357780123889814
 40
0.9493287236476612
 40
0.9628847115070245
 40
0.9764453939655
 40
0.9900102198715154
 40
1.0
 40
1.0
 40
1.0
 40
1.0
 10
748.0948236477598
 20
207.6666505512854
 30
0.0
 10
748.0826863769144
 20
207.6597370444068
 30
0.0
 10
748.0072830901287
 20
207.6167866028703
 30
0.0
 10
747.8702099598767
 20
207.534978464473
 30
0.0
 10
747.6837087340272
 20
207.4210768312346
 30
0.0
 10
747.4990069706324
 20
207.3040238956415
 30
0.0
 10
747.3159345622593
 20
207.1841509736594
 30
0.0
 10
747.1345576242217
 20
207.0613766018505
 30
0.0
 10
746.9548789316989
 20
206.935729732133
 30
0.0
 10
746.7769184444022
 20
206.8072095513023
 30
0.0
 10
746.6006917232164
 20
206.6758230963179
 30
0.0
 10
746.4262157333578
 20
206.5415751838443
 30
0.0
 10
746.253507300184
 20
206.4044711342499
 30
0.0
 10
746.0825835355907
 20
206.2645160652831
 30
0.0
 10
745.9134617348743
 20
206.1217151087478
 30
0.0
 10
745.7461594148974
 20
205.9760733820474
 30
0.0
 10
745.5806943134344
 20
205.8275960281725
 30
0.0
 10
745.4170843979471
 20
205.6762882400085
 30
0.0
 10
745.2553478707187
 20
205.5221552915748
 30
0.0
 10
745.0955031737301
 20
205.3652025701323
 30
0.0
 10
744.9375689922169
 20
205.2054356107669
 30
0.0
 10
744.7815642570366
 20
205.0428601329693
 30
0.0
 10
744.6275081456354
 20
204.8774820792536
 30
0.0
 10
744.475420081495
 20
204.7093076556874
 30
0.0
 10
744.3253197319011
 20
204.5383433742079
 30
0.0
 10
744.177227003888
 20
204.3645960965575
 30
0.0
 10
744.031162038209
 20
204.1880730796384
 30
0.0
 10
743.8871452011897
 20
204.0087820220542
 30
0.0
 10
743.7451970743256
 20
203.8267311115631
 30
0.0
 10
743.6053384415011
 20
203.6419290731417
 30
0.0
 10
743.4675902737177
 20
203.4543852173121
 30
0.0
 10
743.3319737112428
 20
203.2641094883652
 30
0.0
 10
743.1985100431074
 20
203.0711125120745
 30
0.0
 10
743.0672206839143
 20
202.8754056424729
 30
0.0
 10
742.9381271479427
 20
202.6770010072437
 30
0.0
 10
742.8112510205666
 20
202.4759115512598
 30
0.0
 10
742.6866139270481
 20
202.2721510777991
 30
0.0
 10
742.5642374987966
 20
202.065734286959
 30
0.0
 10
742.4441433372231
 20
201.8566768107998
 30
0.0
 10
742.3263529753667
 20
201.6449952447613
 30
0.0
 10
742.2108878375008
 20
201.4307071749182
 30
0.0
 10
742.0977691969705
 20
201.2138312006743
 30
0.0
 10
741.987018132547
 20
200.9943869525298
 30
0.0
 10
741.8786554836195
 20
200.7723951046104
 30
0.0
 10
741.7727018045726
 20
200.5478773816968
 30
0.0
 10
741.6691773187281
 20
200.3208565605622
 30
0.0
 10
741.5681018722386
 20
200.0913564654854
 30
0.0
 10
741.4694948883487
 20
199.8594019578875
 30
0.0
 10
741.3733753224318
 20
199.6250189201105
 30
0.0
 10
741.2797616182189
 20
199.3882342334339
 30
0.0
 10
741.188671665626
 20
199.1490757505022
 30
0.0
 10
741.100122760569
 20
198.90757226241
 30
0.0
 10
741.0141315671386
 20
198.6637534607609
 30
0.0
 10
740.9307140824725
 20
198.4176498950811
 30
0.0
 10
740.8498856046326
 20
198.1692929260254
 30
0.0
 10
740.7716607037543
 20
197.9187146748647
 30
0.0
 10
740.6960531966877
 20
197.6659479697814
 30
0.0
 10
740.6230761253107
 20
197.4110262895328
 30
0.0
 10
740.5527417386353
 20
197.1539837050557
 30
0.0
 10
740.4850614787848
 20
196.8948548196017
 30
0.0
 10
740.4200459708716
 20
196.6336747079855
 30
0.0
 10
740.3577050167473
 20
196.3704788555227
 30
0.0
 10
740.2980475925624
 20
196.1053030972058
 30
0.0
 10
740.2410818500169
 20
195.8381835576428
 30
0.0
 10
740.1868151211604
 20
195.5691565922447
 30
0.0
 10
740.1352539265393
 20
195.2982587301092
 30
0.0
 10
740.0864039865207
 20
195.0255266189812
 30
0.0
 10
740.0402702353979
 20
194.7509969727029
 30
0.0
 10
739.9968568385943
 20
194.4747065211843
 30
0.0
 10
739.9561672105455
 20
194.1966919641155
 30
0.0
 10
739.9182040410109
 20
193.9169899249438
 30
0.0
 10
739.8829692995135
 20
193.6356369189239
 30
0.0
 10
739.8504643297872
 20
193.3526692842365
 30
0.0
 10
739.8206896149437
 20
193.0681232670555
 30
0.0
 10
739.7936457782589
 20
192.7820345476843
 30
0.0
 10
739.7693299732987
 20
192.4944398703577
 30
0.0
 10
739.7477494969064
 20
192.2053708321609
 30
0.0
 10
739.7288710858147
 20
191.9148769689532
 30
0.0
 10
739.7128103863512
 20
191.6229394543835
 30
0.0
 10
739.7003281613102
 20
191.3555728436265
 30
0.0
 10
739.694425207789
 20
191.1849665495224
 30
0.0
 10
739.6919216971083
 20
191.1126104521994
 30
0.0
  0
LINE
  5
EA
330
1F
100
AcDbEntity
  8
0
  6
Continuous
 62
     7
370
    30
100
AcDbLine
 10
751.630289895
 20
209.7079295882
 30
0.0
 11
748.0947559891
 21
207.6669093086
 31
0.0
  0
LINE
  5
EB
330
1F
100
AcDbEntity
  8
0
  6
Continuous
 62
     7
370
    30
100
AcDbLine
 10
783.0919116313
 20
147.043488942
 30
0.0
 11
786.6274455373
 21
149.0845092215
 31
0.0
  0
LWPOLYLINE
  5
EC
330
1F
100
AcDbEntity
  8
0
  6
Continuous
 62
     7
370
    30
100
AcDbPolyline
 90
       92
 70
   128
 43
0.0
 10
780.5675686766
 20
165.4451248918
 10
780.5614681489
 20
165.9867886108
 10
780.543170747
 20
166.5351246199
 10
780.512689011
 20
167.089757117
 10
780.4700438315
 20
167.6503059845
 10
780.4152644353
 20
168.2163870503
 10
780.3483883656
 20
168.7876123508
 10
780.2694614559
 20
169.3635903965
 10
780.1785377987
 20
169.9439264411
 10
780.0756797086
 20
170.528222751
 10
779.9609576794
 20
171.1160788789
 10
779.8344503357
 20
171.7070919375
 10
779.6962443795
 20
172.3008568759
 10
779.5464345302
 20
172.8969667573
 10
779.3851234599
 20
173.4950130379
 10
779.2124217233
 20
174.0945858465
 10
779.0284476814
 20
174.6952742658
 10
778.8333274209
 20
175.2966666142
 10
778.6271946675
 20
175.8983507272
 10
778.4101906942
 20
176.4999142406
 10
778.1824642247
 20
177.1009448729
 10
777.9441713315
 20
177.7010307077
 10
777.6954753285
 20
178.2997604762
 10
777.4365466595
 20
178.8967238387
 10
777.1675627814
 20
179.4915116666
 10
776.8887080422
 20
180.0837163219
 10
776.600173555
 20
180.6729319371
 10
776.3021570671
 20
181.2587546933
 10
775.9948628239
 20
181.8407830968
 10
775.6785014296
 20
182.4186182544
 10
775.3532897025
 20
182.9918641468
 10
775.0194505266
 20
183.5601278999
 10
774.6772126984
 20
184.123020054
 10
774.3268107707
 20
184.6801548311
 10
773.9684848914
 20
185.2311503988
 10
773.6024806393
 20
185.7756291321
 10
773.2290488554
 20
186.3132178727
 10
772.8484454711
 20
186.843548184
 10
772.460931333
 20
187.3662566042
 10
772.0667720239
 20
187.8809848949
 10
771.666237681
 20
188.3873802872
 10
771.2596028105
 20
188.8850957229
 10
770.8471460995
 20
189.3737900927
 10
770.4291502254
 20
189.8531284699
 10
770.0059016615
 20
190.32278234
 10
769.5776904815
 20
190.7824298256
 10
769.1448101597
 20
191.2317559073
 10
768.7075573707
 20
191.6704526394
 10
768.2662317858
 20
192.0982193612
 10
767.8211358675
 20
192.5147629026
 10
767.3725746623
 20
192.9197977856
 10
766.9208555916
 20
193.3130464195
 10
766.4662882411
 20
193.6942392913
 10
766.0091841486
 20
194.0631151504
 10
765.5498565903
 20
194.4194211878
 10
765.0886203665
 20
194.762913209
 10
764.6257915855
 20
195.0933558019
 10
764.1616874468
 20
195.4105224976
 10
763.6966260244
 20
195.7141959258
 10
763.2309260481
 20
196.004167964
 10
762.7649066855
 20
196.2802398798
 10
762.2988873228
 20
196.5422224674
 10
761.8331873465
 20
196.7899361768
 10
761.3681259241
 20
197.0232112376
 10
760.9040217855
 20
197.2418877747
 10
760.4411930044
 20
197.445815918
 10
759.9799567806
 20
197.6348559055
 10
759.5206292224
 20
197.8088781785
 10
759.0635251298
 20
197.9677634709
 10
758.6089577794
 20
198.1114028906
 10
758.1572387086
 20
198.2396979944
 10
757.7086775034
 20
198.3525608552
 10
757.2635815851
 20
198.4499141224
 10
756.8222560002
 20
198.531691075
 10
756.3850032113
 20
198.5978356671
 10
755.9521228895
 20
198.6483025666
 10
755.5239117094
 20
198.6830571859
 10
755.1006631456
 20
198.7020757059
 10
754.6826672714
 20
198.7053450924
 10
754.2702105605
 20
198.6928631046
 10
753.8635756899
 20
198.6646382971
 10
753.463041347
 20
198.6206900137
 10
753.0688820379
 20
198.5610483744
 10
752.6813678998
 20
198.4857542546
 10
752.3007645156
 20
198.3948592571
 10
751.9273327316
 20
198.2884256769
 10
751.5613284795
 20
198.1665264581
 10
751.2030026003
 20
198.0292451445
 10
750.8526006726
 20
197.8766758217
 10
750.5103628444
 20
197.7089230532
 10
750.1765236684
 20
197.5261018084
 10
749.9924411469
 20
197.4166437268
  0
LWPOLYLINE
  5
ED
330
1F
100
AcDbEntity
  8
0
  6
Continuous
 62
     7
370
    30
100
AcDbPolyline
 90
       32
 70
   128
 43
0.0
 10
775.1643990068
 20
153.8128092212
 10
775.3532897025
 20
153.9186639949
 10
775.6785014296
 20
154.1164284196
 10
775.9948628239
 20
154.3290004863
 10
776.3021570671
 20
154.5562345086
 10
776.600173555
 20
154.7979747518
 10
776.8887080422
 20
155.0540555391
 10
777.1675627814
 20
155.3243013656
 10
777.4365466595
 20
155.6085270182
 10
777.6954753285
 20
155.906537703
 10
777.9441713315
 20
156.2181291783
 10
778.1824642247
 20
156.5430878948
 10
778.4101906942
 20
156.881191142
 10
778.6271946675
 20
157.232207201
 10
778.8333274209
 20
157.5958955028
 10
779.0284476814
 20
157.9720067936
 10
779.2124217233
 20
158.3602833055
 10
779.3851234599
 20
158.7604589332
 10
779.5464345302
 20
159.1722594164
 10
779.6962443795
 20
159.5954025275
 10
779.8344503357
 20
160.0295982654
 10
779.9609576794
 20
160.474549054
 10
780.0756797086
 20
160.9299499463
 10
780.1785377987
 20
161.3954888332
 10
780.2694614559
 20
161.8708466577
 10
780.3483883656
 20
162.3556976332
 10
780.4152644353
 20
162.8497094672
 10
780.4700438315
 20
163.3525435885
 10
780.512689011
 20
163.8638553797
 10
780.543170747
 20
164.3832944134
 10
780.5614681489
 20
164.910504692
 10
780.5675686766
 20
165.4451248918
  0
LINE
  5
EE
330
1F
100
AcDbEntity
  8
0
  6
Continuous
 62
     7
370
    30
100
AcDbLine
 10
617.066786189
 20
65.8428522364
 30
0.0
 11
617.0664129553
 21
65.8238637301
 31
0.0
  0
LWPOLYLINE
  5
EF
330
1F
100
AcDbEntity
  8
0
  6
Continuous
 62
     7
370
    30
100
AcDbPolyline
 90
      135
 70
   128
 43
0.0
 10
748.2701611343
 20
207.7681685436
 10
748.4510243979
 20
207.9549896646
 10
748.844317659
 20
208.3361410222
 10
749.2512631165
 20
208.6973141844
 10
749.6715818701
 20
209.0382616213
 10
750.1049858545
 20
209.3587496644
 10
750.5511780362
 20
209.6585586674
 10
751.0098526174
 20
209.937483156
 10
751.4806952453
 20
210.1953319693
 10
751.963383228
 20
210.4319283907
 10
752.4575857553
 20
210.6471102689
 10
752.9629641255
 20
210.8407301288
 10
753.4791719773
 20
211.0126552731
 10
754.0058555279
 20
211.1627678729
 10
754.5426538145
 20
211.2909650485
 10
755.0891989424
 20
211.39715894
 10
755.645116337
 20
211.4812767673
 10
756.2100250001
 20
211.5432608805
 10
756.7835377716
 20
211.5830687985
 10
757.3652615946
 20
211.6006732391
 10
757.9547977845
 20
211.596062137
 10
758.5517423027
 20
211.5692386525
 10
759.1556860333
 20
211.5202211691
 10
759.7662150633
 20
211.4490432808
 10
760.3829109668
 20
211.3557537695
 10
761.005351091
 20
211.2404165712
 10
761.6331088467
 20
211.1031107321
 10
762.265754
 20
210.9439303548
 10
762.9028529675
 20
210.7629845337
 10
763.5439691135
 20
210.5603972799
 10
764.188663049
 20
210.3363074367
 10
764.8364929328
 20
210.0908685839
 10
765.4870147749
 20
209.8242489333
 10
766.13978274
 20
209.5366312124
 10
766.7943494536
 20
209.2282125402
 10
767.4502663082
 20
208.8992042915
 10
768.1070837714
 20
208.5498319519
 10
768.7643516932
 20
208.1803349639
 10
769.421619615
 20
207.7909665623
 10
770.0784370781
 20
207.3819936007
 10
770.7343539328
 20
206.9536963688
 10
771.3889206464
 20
206.5063684
 10
772.0416886115
 20
206.0403162707
 10
772.6922104535
 20
205.5558593896
 10
773.3400403374
 20
205.0533297794
 10
773.9847342729
 20
204.5330718486
 10
774.6258504189
 20
203.9954421562
 10
775.2629493864
 20
203.4408091667
 10
775.8955945397
 20
202.8695529977
 10
776.5233522954
 20
202.2820651597
 10
777.1457924196
 20
201.6787482877
 10
777.762488323
 20
201.0600158647
 10
778.3730173531
 20
200.4262919391
 10
778.9769610836
 20
199.7780108337
 10
779.5739056019
 20
199.1156168478
 10
780.1634417918
 20
198.4395639533
 10
780.7451656147
 20
197.7503154831
 10
781.3186783863
 20
197.0483438136
 10
781.8835870494
 20
196.3341300411
 10
782.439504444
 20
195.6081636521
 10
782.9860495719
 20
194.8709421877
 10
783.5228478585
 20
194.1229709026
 10
784.049531409
 20
193.3647624191
 10
784.5657392609
 20
192.5968363753
 10
785.071117631
 20
191.8197190693
 10
785.5653201583
 20
191.0339430986
 10
786.0480081411
 20
190.2400469948
 10
786.518850769
 20
189.4385748545
 10
786.9775253502
 20
188.6300759669
 10
787.4237175318
 20
187.8151044365
 10
787.8571215162
 20
186.9942188042
 10
788.2774402699
 20
186.1679816641
 10
788.6843857273
 20
185.3369592777
 10
789.0776789885
 20
184.5017211863
 10
789.4570505098
 20
183.6628398204
 10
789.8222402889
 20
182.8208901073
 10
790.1729980431
 20
181.9764490774
 10
790.5090833804
 20
181.1300954683
 10
790.8302659649
 20
180.2824093285
 10
791.1363256739
 20
179.4339716198
 10
791.4270527494
 20
178.5853638189
 10
791.7022479417
 20
177.7371675194
 10
791.9617226456
 20
176.8899640324
 10
792.2052990302
 20
176.0443339891
 10
792.4328101605
 20
175.200856942
 10
792.6441001115
 20
174.3601109681
 10
792.8390240758
 20
173.5226722728
 10
793.0174484622
 20
172.6891147946
 10
793.1792509876
 20
171.8600098123
 10
793.3243207605
 20
171.0359255529
 10
793.4525583575
 20
170.2174268027
 10
793.5638758908
 20
169.4050745199
 10
793.6581970689
 20
168.59942545
 10
793.735457249
 20
167.8010317447
 10
793.7956034806
 20
167.0104405833
 10
793.8385945425
 20
166.2281937973
 10
793.864400971
 20
165.4548274997
 10
793.8730050794
 20
164.6908717171
 10
793.864400971
 20
163.9368500266
 10
793.8385945425
 20
163.193279197
 10
793.7956034806
 20
162.4606688346
 10
793.735457249
 20
161.7395210341
 10
793.6581970689
 20
161.0303300339
 10
793.5638758908
 20
160.3335818783
 10
793.4525583575
 20
159.6497540837
 10
793.3243207605
 20
158.9793153114
 10
793.1792509876
 20
158.3227250466
 10
793.0174484622
 20
157.6804332836
 10
792.8390240758
 20
157.0528802171
 10
792.6441001115
 20
156.4404959405
 10
792.4328101605
 20
155.8437001515
 10
792.2052990302
 20
155.2629018641
 10
791.9617226456
 20
154.6984991284
 10
791.7022479417
 20
154.1508787578
 10
791.4270527494
 20
153.6204160641
 10
791.1363256739
 20
153.1074745998
 10
790.8302659649
 20
152.6124059094
 10
790.5090833804
 20
152.1355492883
 10
790.1729980431
 20
151.6772315501
 10
789.8222402889
 20
151.237766803
 10
789.4570505098
 20
150.8174562341
 10
789.0776789885
 20
150.4165879033
 10
788.6843857273
 20
150.0354365457
 10
788.2774402699
 20
149.6742633834
 10
787.8571215162
 20
149.3333159466
 10
787.4237175318
 20
149.0128279034
 10
786.9775253502
 20
148.7130189005
 10
786.518850769
 20
148.4340944119
 10
786.0480081411
 20
148.1762455985
 10
785.5653201583
 20
147.9396491771
 10
785.071117631
 20
147.724467299
 10
784.5657392609
 20
147.5308474391
 10
784.049531409
 20
147.3589222948
 10
783.5228478585
 20
147.208809695
 10
783.2673167765
 20
147.1447481769
  0
LWPOLYLINE
  5
F0
330
1F
100
AcDbEntity
  8
0
  6
Continuous
 62
     7
370
    30
100
AcDbPolyline
 90
      149
 70
   128
 43
0.0
 10
781.9064681476
 20
146.4293395978
 10
782.2361798043
 20
146.4173845119
 10
782.8546208816
 20
146.412547328
 10
783.4648665526
 20
146.4310149122
 10
784.0664985854
 20
146.4727746076
 10
784.6591046514
 20
146.5377977942
 10
785.2422786079
 20
146.6260399084
 10
785.8156207768
 20
146.7374404734
 10
786.3787382179
 20
146.8719231409
 10
786.9312449986
 20
147.0293957432
 10
787.4727624585
 20
147.2097503563
 10
788.0029194684
 20
147.4128633743
 10
788.5213526853
 20
147.6385955937
 10
789.027706801
 20
147.8867923087
 10
789.5216347855
 20
148.157283418
 10
790.0027981254
 20
148.4498835402
 10
790.4708670553
 20
148.764392142
 10
790.9255207841
 20
149.1005936748
 10
791.366447715
 20
149.4582577228
 10
791.7933456585
 20
149.8371391612
 10
792.2059220403
 20
150.2369783233
 10
792.603894101
 20
150.6575011794
 10
792.9869890904
 20
151.0984195242
 10
793.3549444545
 20
151.5594311743
 10
793.7075080149
 20
152.0402201752
 10
794.0444381423
 20
152.5404570183
 10
794.3655039214
 20
153.0597988662
 10
794.67048531
 20
153.5978897879
 10
794.959173289
 20
154.1543610027
 10
795.231370006
 20
154.7288311332
 10
795.486888911
 20
155.3209064662
 10
795.7255548842
 20
155.9301812228
 10
795.9472043558
 20
156.5562378365
 10
796.1516854183
 20
157.1986472394
 10
796.3388579306
 20
157.8569691562
 10
796.508593614
 20
158.530752406
 10
796.6607761402
 20
159.2195352113
 10
796.7953012109
 20
159.9228455148
 10
796.9120766293
 20
160.6402013028
 10
797.0110223633
 20
161.3711109354
 10
797.0920706005
 20
162.1150734837
 10
797.1551657945
 20
162.871579073
 10
797.200264703
 20
163.640109232
 10
797.2273364175
 20
164.4201372486
 10
797.2363623843
 20
165.2111285306
 10
797.2273364175
 20
166.012540972
 10
797.200264703
 20
166.8238253248
 10
797.1551657945
 20
167.6444255752
 10
797.0920706005
 20
168.4737793249
 10
797.0110223633
 20
169.3113181761
 10
796.9120766293
 20
170.1564681215
 10
796.7953012109
 20
171.0086499377
 10
796.6607761402
 20
171.8672795817
 10
796.508593614
 20
172.7317685918
 10
796.3388579306
 20
173.6015244902
 10
796.1516854183
 20
174.4759511898
 10
795.9472043558
 20
175.3544494022
 10
795.7255548842
 20
176.2364170486
 10
795.486888911
 20
177.1212496724
 10
795.231370006
 20
178.0083408535
 10
794.959173289
 20
178.897082624
 10
794.67048531
 20
179.7868658847
 10
794.3655039214
 20
180.6770808224
 10
794.0444381423
 20
181.5671173285
 10
793.7075080149
 20
182.4563654162
 10
793.3549444545
 20
183.3442156395
 10
792.9869890904
 20
184.2300595101
 10
792.603894101
 20
185.1132899149
 10
792.2059220403
 20
185.9933015318
 10
791.7933456585
 20
186.8694912449
 10
791.366447715
 20
187.7412585574
 10
790.9255207841
 20
188.6080060038
 10
790.4708670553
 20
189.4691395584
 10
790.0027981254
 20
190.3240690434
 10
789.5216347855
 20
191.1722085329
 10
789.027706801
 20
192.0129767544
 10
788.5213526853
 20
192.8457974873
 10
788.0029194684
 20
193.670099958
 10
787.4727624585
 20
194.4853192306
 10
786.9312449986
 20
195.2908965946
 10
786.3787382179
 20
196.0862799476
 10
785.8156207768
 20
196.8709241735
 10
785.2422786079
 20
197.6442915164
 10
784.6591046514
 20
198.4058519488
 10
784.0664985854
 20
199.1550835354
 10
783.4648665526
 20
199.8914727902
 10
782.8546208816
 20
200.6145150288
 10
782.2361798043
 20
201.3237147142
 10
781.6099671692
 20
202.0185857964
 10
780.9764121512
 20
202.6986520453
 10
780.3359489573
 20
203.3634473776
 10
779.689016529
 20
204.0125161758
 10
779.0360582414
 20
204.6454136005
 10
778.3775215996
 20
205.2617058954
 10
777.7138579316
 20
205.8609706847
 10
777.0455220795
 20
206.442797262
 10
776.3729720871
 20
207.0067868727
 10
775.6966688866
 20
207.5525529863
 10
775.0170759826
 20
208.079721562
 10
774.334659134
 20
208.5879313048
 10
773.6498860352
 20
209.0768339132
 10
772.9632259956
 20
209.5460943176
 10
772.2751496176
 20
209.9953909106
 10
771.5861284743
 20
210.4244157666
 10
770.8966347866
 20
210.8328748534
 10
770.2071410988
 20
211.2204882336
 10
769.5181199555
 20
211.5869902563
 10
768.8300435775
 20
211.9321297394
 10
768.1433835379
 20
212.2556701415
 10
767.4586104391
 20
212.557389724
 10
766.7761935905
 20
212.8370817037
 10
766.0966006865
 20
213.0945543934
 10
765.420297486
 20
213.3296313343
 10
764.7477474936
 20
213.5421514164
 10
764.0794116415
 20
213.7319689891
 10
763.4157479735
 20
213.8989539608
 10
762.7572113317
 20
214.0429918884
 10
762.1042530441
 20
214.1639840556
 10
761.4573206158
 20
214.2618475402
 10
760.8168574219
 20
214.3365152717
 10
760.1833024039
 20
214.3879360763
 10
759.5570897688
 20
214.416074713
 10
758.9386486915
 20
214.4209118968
 10
758.3284030205
 20
214.4024443126
 10
757.7267709877
 20
214.3606846172
 10
757.1341649217
 20
214.2956614306
 10
756.5509909652
 20
214.2074193164
 10
755.9776487963
 20
214.0960187514
 10
755.4145313552
 20
213.9615360839
 10
754.8620245745
 20
213.8040634817
 10
754.3205071146
 20
213.6237088685
 10
753.7903501047
 20
213.4205958505
 10
753.2719168878
 20
213.1948636312
 10
752.7655627721
 20
212.9466669161
 10
752.2716347876
 20
212.6761758069
 10
751.7904714477
 20
212.3835756846
 10
751.3224025178
 20
212.0690670829
 10
750.867748789
 20
211.7328655501
 10
750.4268218581
 20
211.375201502
 10
749.9999239146
 20
210.9963200637
 10
749.5873475328
 20
210.5964809016
 10
749.1893754721
 20
210.1759580454
 10
748.8062804827
 20
209.7350397006
 10
748.4383251186
 20
209.2740280506
 10
748.0857615582
 20
208.7932390496
 10
747.7488314308
 20
208.2930022065
 10
747.4277656517
 20
207.7736603587
 10
747.1227842631
 20
207.235569437
 10
746.9691657758
 20
206.9456650182
  0
ARC
  5
F1
330
1F
100
AcDbEntity
  8
0
  6
Continuous
 62
     7
370
    30
100
AcDbCircle
 10
780.831739124
 20
159.1590123833
 30
0.0
 40
12.12257908144298
100
AcDbArc
 50
283.4850290692
 51
300.1160120255
  0
ARC
  5
F2
330
1F
100
AcDbEntity
  8
0
  6
Continuous
 62
     7
370
    30
100
AcDbCircle
 10
757.4564610146
 20
199.6506577724
 30
0.0
 40
12.12288691661709
100
AcDbArc
 50
119.8788240911
 51
136.5093817486
  0
LWPOLYLINE
  5
F3
330
1F
100
AcDbEntity
  8
0
  6
Continuous
 62
     7
370
    30
100
AcDbPolyline
 90
       31
 70
   128
 43
0.0
 10
768.6386600347
 20
208.2525319225
 10
768.4810212981
 20
208.3393483123
 10
767.8336188816
 20
208.683712629
 10
767.1871041639
 20
209.0080047607
 10
766.541920234
 20
209.312002454
 10
765.8985092687
 20
209.5954973638
 10
765.2573122297
 20
209.858295197
 10
764.6187685614
 20
210.1002158451
 10
763.9833158899
 20
210.3210935077
 10
763.3513897225
 20
210.5207768063
 10
762.7234231499
 20
210.6991288881
 10
762.0998465491
 20
210.8560275192
 10
761.4810872883
 20
210.9913651693
 10
760.8675694342
 20
211.1050490848
 10
760.2597134612
 20
211.1970013522
 10
759.6579359636
 20
211.2671589522
 10
759.0626493695
 20
211.3154738023
 10
758.4742616586
 20
211.3419127897
 10
757.8931760825
 20
211.3464577947
 10
757.3197908883
 20
211.3291057022
 10
756.7544990454
 20
211.2898684045
 10
756.1976879767
 20
211.2287727929
 10
755.6497392926
 20
211.1458607393
 10
755.1110285299
 20
211.0411890674
 10
754.5819248939
 20
210.9148295141
 10
754.062791006
 20
210.7668686798
 10
753.5539826544
 20
210.5974079694
 10
753.0558485511
 20
210.4065635229
 10
752.5687300922
 20
210.1944661356
 10
752.0929611245
 20
209.9612611684
 10
751.630289895
 20
209.7079295882
  0
LWPOLYLINE
  5
F4
330
1F
100
AcDbEntity
  8
0
  6
Continuous
 62
     7
370
    30
100
AcDbPolyline
 90
       32
 70
   128
 43
0.0
 10
786.6274455373
 20
149.0845092215
 10
786.6288677161
 20
149.0853303613
 10
787.0809674986
 20
149.3602566507
 10
787.5207638086
 20
149.6557680886
 10
787.9479552317
 20
149.9716621463
 10
788.3622489923
 20
150.3077223257
 10
788.763361154
 20
150.6637183081
 10
789.1510168148
 20
151.0394061114
 10
789.5249502946
 20
151.4345282582
 10
789.8849053183
 20
151.8488139513
 10
790.2306351906
 20
152.2819792601
 10
790.5619029655
 20
152.7337273147
 10
790.8784816087
 20
153.2037485096
 10
791.1801541529
 20
153.6917207156
 10
791.4667138468
 20
154.1973095012
 10
791.7379642969
 20
154.7201683608
 10
791.9937196015
 20
155.2599389532
 10
792.2338044787
 20
155.8162513467
 10
792.4580543864
 20
156.3887242723
 10
792.6663156349
 20
156.9769653859
 10
792.8584454923
 20
157.5805715364
 10
793.0343122824
 20
158.1991290421
 10
793.1937954749
 20
158.8322139748
 10
793.336785768
 20
159.4793924496
 10
793.4631851632
 20
160.1402209228
 10
793.5729070328
 20
160.8142464954
 10
793.6658761789
 20
161.5010072241
 10
793.742028885
 20
162.2000324373
 10
793.8013129599
 20
162.9108430581
 10
793.8436877733
 20
163.6329519324
 10
793.8691242835
 20
164.3658641628
 10
793.8726697168
 20
164.5412088617
  0
ENDSEC
  0
SECTION
  2
OBJECTS
  0
DICTIONARY
  5
C
330
0
100
AcDbDictionary
281
     1
  3
ACAD_GROUP
350
D
  3
ACAD_LAYOUT
350
1A
  3
ACAD_MLINESTYLE
350
17
  3
ACAD_PLOTSETTINGS
350
19
  3
ACAD_PLOTSTYLENAME
350
E
  3
ACAD_SCALELIST
350
47
  0
DICTIONARY
  5
D
102
{ACAD_REACTORS
330
C
102
}
330
C
100
AcDbDictionary
281
     1
  0
DICTIONARY
  5
1A
102
{ACAD_REACTORS
330
C
102
}
330
C
100
AcDbDictionary
281
     1
  3
Layout1
350
1E
  3
Layout2
350
26
  3
Model
350
22
  0
DICTIONARY
  5
17
102
{ACAD_REACTORS
330
C
102
}
330
C
100
AcDbDictionary
281
     1
  3
Standard
350
18
  0
DICTIONARY
  5
19
102
{ACAD_REACTORS
330
C
102
}
330
C
100
AcDbDictionary
281
     1
  0
ACDBDICTIONARYWDFLT
  5
E
102
{ACAD_REACTORS
330
C
102
}
330
C
100
AcDbDictionary
281
     1
  3
Normal
350
F
100
AcDbDictionaryWithDefault
340
F
  0
DICTIONARY
  5
47
102
{ACAD_REACTORS
330
C
102
}
330
C
100
AcDbDictionary
281
     1
  3
A0
350
48
  3
A1
350
49
  3
A2
350
4A
  3
A3
350
4B
  3
A4
350
4C
  3
A5
350
4D
  3
A6
350
4E
  3
A7
350
4F
  3
A8
350
50
  3
A9
350
51
  3
B0
350
52
  3
B1
350
53
  3
B2
350
54
  3
B3
350
55
  3
B4
350
56
  3
B5
350
57
  3
B6
350
58
  3
B7
350
59
  3
B8
350
5A
  3
B9
350
5B
  3
C0
350
5C
  3
C1
350
5D
  3
C2
350
5E
  3
C3
350
5F
  3
C4
350
60
  3
C5
350
61
  3
C6
350
62
  3
C7
350
63
  3
C8
350
64
  3
C9
350
65
  3
D0
350
66
  3
D1
350
67
  3
D2
350
68
  0
LAYOUT
  5
1E
102
{ACAD_REACTORS
330
1A
102
}
330
1A
100
AcDbPlotSettings
  1

  2
none_device
  4

  6

 40
0.0
 41
0.0
 42
0.0
 43
0.0
 44
0.0
 45
0.0
 46
0.0
 47
0.0
 48
0.0
 49
0.0
140
0.0
141
0.0
142
1.0
143
1.0
 70
   688
 72
     1
 73
     0
 74
     5
  7

 75
    16
147
1.0
148
0.0
149
0.0
100
AcDbLayout
  1
Layout1
 70
     1
 71
     1
 10
0.0
 20
0.0
 11
420.0
 21
297.0
 12
0.0
 22
0.0
 32
0.0
 14
1.0000000000E+20
 24
1.0000000000E+20
 34
1.0000000000E+20
 15
-1.0000000000E+20
 25
-1.0000000000E+20
 35
-1.0000000000E+20
146
0.0
 13
0.0
 23
0.0
 33
0.0
 16
1.0
 26
0.0
 36
0.0
 17
0.0
 27
1.0
 37
0.0
 76
     0
330
1B
  0
LAYOUT
  5
26
102
{ACAD_REACTORS
330
1A
102
}
330
1A
100
AcDbPlotSettings
  1

  2
none_device
  4

  6

 40
0.0
 41
0.0
 42
0.0
 43
0.0
 44
0.0
 45
0.0
 46
0.0
 47
0.0
 48
0.0
 49
0.0
140
0.0
141
0.0
142
1.0
143
1.0
 70
   688
 72
     1
 73
     0
 74
     5
  7

 75
    16
147
1.0
148
0.0
149
0.0
100
AcDbLayout
  1
Layout2
 70
     1
 71
     2
 10
0.0
 20
0.0
 11
0.0
 21
0.0
 12
0.0
 22
0.0
 32
0.0
 14
0.0
 24
0.0
 34
0.0
 15
0.0
 25
0.0
 35
0.0
146
0.0
 13
0.0
 23
0.0
 33
0.0
 16
1.0
 26
0.0
 36
0.0
 17
0.0
 27
1.0
 37
0.0
 76
     0
330
23
  0
LAYOUT
  5
22
102
{ACAD_REACTORS
330
1A
102
}
330
1A
100
AcDbPlotSettings
  1

  2
none_device
  4
Letter_(8.50_x_11.00_Inches)
  6

 40
6.35
 41
6.35
 42
6.35000508
 43
6.35000508
 44
215.9
 45
279.4
 46
0.0
 47
0.0
 48
0.0
 49
0.0
140
0.0
141
0.0
142
1.0
143
1.0
 70
  1712
 72
     1
 73
     0
 74
     0
  7

 75
     0
147
1.0
148
0.0
149
0.0
100
AcDbLayout
  1
Model
 70
     1
 71
     0
 10
0.0
 20
0.0
 11
824.0
 21
431.0
 12
0.0
 22
0.0
 32
0.0
 14
0.0
 24
0.0
 34
0.0
 15
824.0
 25
431.0
 35
0.0
146
0.0
 13
0.0
 23
0.0
 33
0.0
 16
1.0
 26
0.0
 36
0.0
 17
0.0
 27
1.0
 37
0.0
 76
     0
330
1F
331
29
  0
MLINESTYLE
  5
18
102
{ACAD_REACTORS
330
17
102
}
330
17
100
AcDbMlineStyle
  2
Standard
 70
     0
  3

 62
   256
 51
90.0
 52
90.0
 71
     2
 49
0.5
 62
   256
  6
BYLAYER
 49
-0.5
 62
   256
  6
BYLAYER
  0
ACDBPLACEHOLDER
  5
F
102
{ACAD_REACTORS
330
E
102
}
330
E
  0
SCALE
  5
48
102
{ACAD_REACTORS
330
47
102
}
330
47
100
AcDbScale
 70
     0
300
1:1
140
1.0
141
1.0
290
     1
  0
SCALE
  5
49
102
{ACAD_REACTORS
330
47
102
}
330
47
100
AcDbScale
 70
     0
300
1:2
140
1.0
141
2.0
290
     0
  0
SCALE
  5
4A
102
{ACAD_REACTORS
330
47
102
}
330
47
100
AcDbScale
 70
     0
300
1:4
140
1.0
141
4.0
290
     0
  0
SCALE
  5
4B
102
{ACAD_REACTORS
330
47
102
}
330
47
100
AcDbScale
 70
     0
300
1:5
140
1.0
141
5.0
290
     0
  0
SCALE
  5
4C
102
{ACAD_REACTORS
330
47
102
}
330
47
100
AcDbScale
 70
     0
300
1:8
140
1.0
141
8.0
290
     0
  0
SCALE
  5
4D
102
{ACAD_REACTORS
330
47
102
}
330
47
100
AcDbScale
 70
     0
300
1:10
140
1.0
141
10.0
290
     0
  0
SCALE
  5
4E
102
{ACAD_REACTORS
330
47
102
}
330
47
100
AcDbScale
 70
     0
300
1:16
140
1.0
141
16.0
290
     0
  0
SCALE
  5
4F
102
{ACAD_REACTORS
330
47
102
}
330
47
100
AcDbScale
 70
     0
300
1:20
140
1.0
141
20.0
290
     0
  0
SCALE
  5
50
102
{ACAD_REACTORS
330
47
102
}
330
47
100
AcDbScale
 70
     0
300
1:30
140
1.0
141
30.0
290
     0
  0
SCALE
  5
51
102
{ACAD_REACTORS
330
47
102
}
330
47
100
AcDbScale
 70
     0
300
1:40
140
1.0
141
40.0
290
     0
  0
SCALE
  5
52
102
{ACAD_REACTORS
330
47
102
}
330
47
100
AcDbScale
 70
     0
300
1:50
140
1.0
141
50.0
290
     0
  0
SCALE
  5
53
102
{ACAD_REACTORS
330
47
102
}
330
47
100
AcDbScale
 70
     0
300
1:100
140
1.0
141
100.0
290
     0
  0
SCALE
  5
54
102
{ACAD_REACTORS
330
47
102
}
330
47
100
AcDbScale
 70
     0
300
2:1
140
2.0
141
1.0
290
     0
  0
SCALE
  5
55
102
{ACAD_REACTORS
330
47
102
}
330
47
100
AcDbScale
 70
     0
300
4:1
140
4.0
141
1.0
290
     0
  0
SCALE
  5
56
102
{ACAD_REACTORS
330
47
102
}
330
47
100
AcDbScale
 70
     0
300
8:1
140
8.0
141
1.0
290
     0
  0
SCALE
  5
57
102
{ACAD_REACTORS
330
47
102
}
330
47
100
AcDbScale
 70
     0
300
10:1
140
10.0
141
1.0
290
     0
  0
SCALE
  5
58
102
{ACAD_REACTORS
330
47
102
}
330
47
100
AcDbScale
 70
     0
300
100:1
140
100.0
141
1.0
290
     0
  0
SCALE
  5
59
102
{ACAD_REACTORS
330
47
102
}
330
47
100
AcDbScale
 70
     0
300
1/128" = 1'-0"
140
0.0078125
141
12.0
290
     0
  0
SCALE
  5
5A
102
{ACAD_REACTORS
330
47
102
}
330
47
100
AcDbScale
 70
     0
300
1/64" = 1'-0"
140
0.015625
141
12.0
290
     0
  0
SCALE
  5
5B
102
{ACAD_REACTORS
330
47
102
}
330
47
100
AcDbScale
 70
     0
300
1/32" = 1'-0"
140
0.03125
141
12.0
290
     0
  0
SCALE
  5
5C
102
{ACAD_REACTORS
330
47
102
}
330
47
100
AcDbScale
 70
     0
300
1/16" = 1'-0"
140
0.0625
141
12.0
290
     0
  0
SCALE
  5
5D
102
{ACAD_REACTORS
330
47
102
}
330
47
100
AcDbScale
 70
     0
300
3/32" = 1'-0"
140
0.09375
141
12.0
290
     0
  0
SCALE
  5
5E
102
{ACAD_REACTORS
330
47
102
}
330
47
100
AcDbScale
 70
     0
300
1/8" = 1'-0"
140
0.125
141
12.0
290
     0
  0
SCALE
  5
5F
102
{ACAD_REACTORS
330
47
102
}
330
47
100
AcDbScale
 70
     0
300
3/16" = 1'-0"
140
0.1875
141
12.0
290
     0
  0
SCALE
  5
60
102
{ACAD_REACTORS
330
47
102
}
330
47
100
AcDbScale
 70
     0
300
1/4" = 1'-0"
140
0.25
141
12.0
290
     0
  0
SCALE
  5
61
102
{ACAD_REACTORS
330
47
102
}
330
47
100
AcDbScale
 70
     0
300
3/8" = 1'-0"
140
0.375
141
12.0
290
     0
  0
SCALE
  5
62
102
{ACAD_REACTORS
330
47
102
}
330
47
100
AcDbScale
 70
     0
300
1/2" = 1'-0"
140
0.5
141
12.0
290
     0
  0
SCALE
  5
63
102
{ACAD_REACTORS
330
47
102
}
330
47
100
AcDbScale
 70
     0
300
3/4" = 1'-0"
140
0.75
141
12.0
290
     0
  0
SCALE
  5
64
102
{ACAD_REACTORS
330
47
102
}
330
47
100
AcDbScale
 70
     0
300
1" = 1'-0"
140
1.0
141
12.0
290
     0
  0
SCALE
  5
65
102
{ACAD_REACTORS
330
47
102
}
330
47
100
AcDbScale
 70
     0
300
1-1/2" = 1'-0"
140
1.5
141
12.0
290
     0
  0
SCALE
  5
66
102
{ACAD_REACTORS
330
47
102
}
330
47
100
AcDbScale
 70
     0
300
3" = 1'-0"
140
3.0
141
12.0
290
     0
  0
SCALE
  5
67
102
{ACAD_REACTORS
330
47
102
}
330
47
100
AcDbScale
 70
     0
300
6" = 1'-0"
140
6.0
141
12.0
290
     0
  0
SCALE
  5
68
102
{ACAD_REACTORS
330
47
102
}
330
47
100
AcDbScale
 70
     0
300
1'-0" = 1'-0"
140
12.0
141
12.0
290
     0
  0
ENDSEC
  0
EOF
