  0
SECTION
  2
HEADER
  9
$ACADVER
  1
AC1015
  9
$ACADMAINTVER
 70
     6
  9
$DWGCODEPAGE
  3
ANSI_1252
  9
$INSBASE
 10
0.0
 20
0.0
 30
0.0
  9
$EXTMIN
 10
0.0
 20
0.0
 30
0.0
  9
$EXTMAX
 10
905.0
 20
478.0
 30
0.0
  9
$LIMMIN
 10
0.0
 20
0.0
  9
$LIMMAX
 10
905.0
 20
478.0
  9
$ORTHOMODE
 70
     0
  9
$REGENMODE
 70
     1
  9
$FILLMODE
 70
     1
  9
$QTEXTMODE
 70
     0
  9
$MIRRTEXT
 70
     1
  9
$LTSCALE
 40
1.0
  9
$ATTMODE
 70
     1
  9
$TEXTSIZE
 40
3.5
  9
$TRACEWID
 40
1.0
  9
$TEXTSTYLE
  7
Standard
  9
$CLAYER
  8
0
  9
$CELTYPE
  6
ByLayer
  9
$CECOLOR
 62
   256
  9
$CELTSCALE
 40
1.0
  9
$DISPSILH
 70
     0
  9
$DIMSCALE
 40
1.0
  9
$DIMASZ
 40
3.302
  9
$DIMEXO
 40
1.0
  9
$DIMDLI
 40
3.75
  9
$DIMRND
 40
0.0
  9
$DIMDLE
 40
0.0
  9
$DIMEXE
 40
1.0
  9
$DIMTP
 40
0.0
  9
$DIMTM
 40
0.0
  9
$DIMTXT
 40
2.8
  9
$DIMCEN
 40
2.5
  9
$DIMTSZ
 40
0.0
  9
$DIMTOL
 70
     0
  9
$DIMLIM
 70
     0
  9
$DIMTIH
 70
     1
  9
$DIMTOH
 70
     1
  9
$DIMSE1
 70
     0
  9
$DIMSE2
 70
     0
  9
$DIMTAD
 70
     1
  9
$DIMZIN
 70
     0
  9
$DIMBLK
  1

  9
$DIMASO
 70
     1
  9
$DIMSHO
 70
     1
  9
$DIMPOST
  1

  9
$DIMAPOST
  1

  9
$DIMALT
 70
     0
  9
$DIMALTD
 70
     3
  9
$DIMALTF
 40
0.0393700787
  9
$DIMLFAC
 40
1.0
  9
$DIMTOFL
 70
     1
  9
$DIMTVP
 40
0.0
  9
$DIMTIX
 70
     0
  9
$DIMSOXD
 70
     0
  9
$DIMSAH
 70
     0
  9
$DIMBLK1
  1

  9
$DIMBLK2
  1

  9
$DIMSTYLE
  2
ISO-25
  9
$DIMCLRD
 70
     0
  9
$DIMCLRE
 70
     0
  9
$DIMCLRT
 70
     0
  9
$DIMTFAC
 40
1.0
  9
$DIMGAP
 40
1.524
  9
$DIMJUST
 70
     0
  9
$DIMSD1
 70
     0
  9
$DIMSD2
 70
     0
  9
$DIMTOLJ
 70
     0
  9
$DIMTZIN
 70
     0
  9
$DIMALTZ
 70
     0
  9
$DIMALTTZ
 70
     0
  9
$DIMUPT
 70
     0
  9
$DIMDEC
 70
     2
  9
$DIMTDEC
 70
     2
  9
$DIMALTU
 70
     2
  9
$DIMALTTD
 70
     3
  9
$DIMTXSTY
  7
Standard
  9
$DIMAUNIT
 70
     0
  9
$DIMADEC
 70
     2
  9
$DIMALTRND
 40
0.0
  9
$DIMAZIN
 70
     0
  9
$DIMDSEP
 70
    44
  9
$DIMATFIT
 70
     3
  9
$DIMFRAC
 70
     0
  9
$DIMLDRBLK
  1

  9
$DIMLUNIT
 70
     2
  9
$DIMLWD
 70
    -2
  9
$DIMLWE
 70
    -2
  9
$DIMTMOVE
 70
     0
  9
$LUNITS
 70
     2
  9
$LUPREC
 70
     2
  9
$SKETCHINC
 40
1.0
  9
$FILLETRAD
 40
10.0
  9
$AUNITS
 70
     0
  9
$AUPREC
 70
     2
  9
$MENU
  1
.
  9
$ELEVATION
 40
0.0
  9
$PELEVATION
 40
0.0
  9
$THICKNESS
 40
0.0
  9
$LIMCHECK
 70
     0
  9
$CHAMFERA
 40
0.0
  9
$CHAMFERB
 40
0.0
  9
$CHAMFERC
 40
0.0
  9
$CHAMFERD
 40
0.0
  9
$SKPOLY
 70
     0
  9
$TDCREATE
 40
2460215.415586678
  9
$TDUCREATE
 40
2460215.290586678
  9
$TDUPDATE
 40
2460215.415586886
  9
$TDUUPDATE
 40
2460215.290586886
  9
$TDINDWG
 40
0.0000000116
  9
$TDUSRTIMER
 40
0.0000000116
  9
$USRTIMER
 70
     1
  9
$ANGBASE
 50
0.0
  9
$ANGDIR
 70
     0
  9
$PDMODE
 70
     0
  9
$PDSIZE
 40
-1.0
  9
$PLINEWID
 40
0.0
  9
$SPLFRAME
 70
     0
  9
$SPLINETYPE
 70
     6
  9
$SPLINESEGS
 70
     8
  9
$HANDSEED
  5
FB
  9
$SURFTAB1
 70
     6
  9
$SURFTAB2
 70
     6
  9
$SURFTYPE
 70
     6
  9
$SURFU
 70
     6
  9
$SURFV
 70
     6
  9
$UCSBASE
  2

  9
$UCSNAME
  2

  9
$UCSORG
 10
0.0
 20
0.0
 30
0.0
  9
$UCSXDIR
 10
1.0
 20
0.0
 30
0.0
  9
$UCSYDIR
 10
0.0
 20
1.0
 30
0.0
  9
$UCSORTHOREF
  2

  9
$UCSORTHOVIEW
 70
     0
  9
$UCSORGTOP
 10
0.0
 20
0.0
 30
0.0
  9
$UCSORGBOTTOM
 10
0.0
 20
0.0
 30
0.0
  9
$UCSORGLEFT
 10
0.0
 20
0.0
 30
0.0
  9
$UCSORGRIGHT
 10
0.0
 20
0.0
 30
0.0
  9
$UCSORGFRONT
 10
0.0
 20
0.0
 30
0.0
  9
$UCSORGBACK
 10
0.0
 20
0.0
 30
0.0
  9
$PUCSBASE
  2

  9
$PUCSNAME
  2

  9
$PUCSORG
 10
0.0
 20
0.0
 30
0.0
  9
$PUCSXDIR
 10
1.0
 20
0.0
 30
0.0
  9
$PUCSYDIR
 10
0.0
 20
1.0
 30
0.0
  9
$PUCSORTHOREF
  2

  9
$PUCSORTHOVIEW
 70
     0
  9
$PUCSORGTOP
 10
0.0
 20
0.0
 30
0.0
  9
$PUCSORGBOTTOM
 10
0.0
 20
0.0
 30
0.0
  9
$PUCSORGLEFT
 10
0.0
 20
0.0
 30
0.0
  9
$PUCSORGRIGHT
 10
0.0
 20
0.0
 30
0.0
  9
$PUCSORGFRONT
 10
0.0
 20
0.0
 30
0.0
  9
$PUCSORGBACK
 10
0.0
 20
0.0
 30
0.0
  9
$USERI1
 70
     0
  9
$USERI2
 70
     0
  9
$USERI3
 70
     0
  9
$USERI4
 70
     0
  9
$USERI5
 70
     0
  9
$USERR1
 40
0.0
  9
$USERR2
 40
0.0
  9
$USERR3
 40
0.0
  9
$USERR4
 40
0.0
  9
$USERR5
 40
0.0
  9
$WORLDVIEW
 70
     1
  9
$SHADEDGE
 70
     3
  9
$SHADEDIF
 70
    70
  9
$TILEMODE
 70
     1
  9
$MAXACTVP
 70
    64
  9
$PINSBASE
 10
0.0
 20
0.0
 30
0.0
  9
$PLIMCHECK
 70
     0
  9
$PEXTMIN
 10
1.0000000000E+20
 20
1.0000000000E+20
 30
1.0000000000E+20
  9
$PEXTMAX
 10
-1.0000000000E+20
 20
-1.0000000000E+20
 30
-1.0000000000E+20
  9
$PLIMMIN
 10
0.0
 20
0.0
  9
$PLIMMAX
 10
420.0
 20
297.0
  9
$UNITMODE
 70
     0
  9
$VISRETAIN
 70
     1
  9
$PLINEGEN
 70
     0
  9
$PSLTSCALE
 70
     1
  9
$TREEDEPTH
 70
  3020
  9
$CMLSTYLE
  2
Standard
  9
$CMLJUST
 70
     0
  9
$CMLSCALE
 40
20.0
  9
$PROXYGRAPHICS
 70
     1
  9
$MEASUREMENT
 70
     1
  9
$CELWEIGHT
370
    -1
  9
$ENDCAPS
280
     0
  9
$JOINSTYLE
280
     0
  9
$LWDISPLAY
290
     1
  9
$INSUNITS
 70
     4
  9
$HYPERLINKBASE
  1

  9
$STYLESHEET
  1

  9
$XEDIT
290
     1
  9
$CEPSNTYPE
380
     0
  9
$PSTYLEMODE
290
     1
  9
$FINGERPRINTGUID
  2
{958C29CD-91AA-4CB9-AE6A-D25A5443A73E}
  9
$VERSIONGUID
  2
{FAEB1C32-E019-11D5-929B-00C0DF256EC4}
  9
$EXTNAMES
290
     1
  9
$PSVPSCALE
 40
0.0
  9
$OLESTARTUP
290
     0
  0
ENDSEC
  0
SECTION
  2
CLASSES
  0
CLASS
  1
ACDBDICTIONARYWDFLT
  2
AcDbDictionaryWithDefault
  3
ObjectDBX Classes
 90
        0
280
     0
281
     0
  0
CLASS
  1
VISUALSTYLE
  2
AcDbVisualStyle
  3
ObjectDBX Classes
 90
     4095
280
     0
281
     0
  0
CLASS
  1
MATERIAL
  2
AcDbMaterial
  3
ObjectDBX Classes
 90
     1153
280
     0
281
     0
  0
CLASS
  1
SCALE
  2
AcDbScale
  3
ObjectDBX Classes
 90
     1153
280
     0
281
     0
  0
CLASS
  1
TABLESTYLE
  2
AcDbTableStyle
  3
ObjectDBX Classes
 90
     4095
280
     0
281
     0
  0
CLASS
  1
MLEADERSTYLE
  2
AcDbMLeaderStyle
  3
ACDB_MLEADERSTYLE_CLASS
 90
     4095
280
     0
281
     0
  0
CLASS
  1
SUN
  2
AcDbSun
  3
SCENEOE
 90
     1153
280
     0
281
     0
  0
CLASS
  1
ACDBPLACEHOLDER
  2
AcDbPlaceHolder
  3
ObjectDBX Classes
 90
        0
280
     0
281
     0
  0
CLASS
  1
LAYOUT
  2
AcDbLayout
  3
ObjectDBX Classes
 90
        0
280
     0
281
     0
  0
ENDSEC
  0
SECTION
  2
TABLES
  0
TABLE
  2
VPORT
  5
8
330
0
100
AcDbSymbolTable
 70
     1
  0
VPORT
  5
29
330
8
100
AcDbSymbolTableRecord
100
AcDbViewportTableRecord
  2
*Active
 70
     0
 10
0.0
 20
0.0
 11
1.0
 21
1.0
 12
452.5
 22
239.0
 13
0.0
 23
0.0
 14
10.0
 24
10.0
 15
10.0
 25
10.0
 16
0.0
 26
0.0
 36
1.0
 17
0.0
 27
0.0
 37
0.0
 40
478.0
 41
1.8933054393
 42
50.0
 43
0.0
 44
0.0
 50
0.0
 51
0.0
 71
     0
 72
  2000
 73
     1
 74
     3
 75
     0
 76
     0
 77
     0
 78
     0
281
     0
 65
     1
110
0.0
120
0.0
130
0.0
111
1.0
121
0.0
131
0.0
112
0.0
122
1.0
132
0.0
 79
     0
146
0.0
  0
ENDTAB
  0
TABLE
  2
LTYPE
  5
5
330
0
100
AcDbSymbolTable
 70
     6
  0
LTYPE
  5
14
330
5
100
AcDbSymbolTableRecord
100
AcDbLinetypeTableRecord
  2
ByBlock
 70
     0
  3

 72
    65
 73
     0
 40
0.0
  0
LTYPE
  5
15
330
5
100
AcDbSymbolTableRecord
100
AcDbLinetypeTableRecord
  2
ByLayer
 70
     0
  3

 72
    65
 73
     0
 40
0.0
  0
LTYPE
  5
16
330
5
100
AcDbSymbolTableRecord
100
AcDbLinetypeTableRecord
  2
Continuous
 70
     0
  3
Solid line
 72
    65
 73
     0
 40
0.0
  0
LTYPE
  5
6E
330
5
100
AcDbSymbolTableRecord
100
AcDbLinetypeTableRecord
  2
HIDDEN
 70
     0
  3
Hidden __ __ __ __ __ __ __ __ __ __ __ __ __ __
 72
    65
 73
     2
 40
1.905
 49
1.27
 74
     0
 49
-0.635
 74
     0
  0
LTYPE
  5
6F
330
5
100
AcDbSymbolTableRecord
100
AcDbLinetypeTableRecord
  2
PHANTOM
 70
     0
  3
Phantom ______  __  __  ______  __  __  ______
 72
    65
 73
     6
 40
12.7
 49
6.35
 74
     0
 49
-1.27
 74
     0
 49
1.27
 74
     0
 49
-1.27
 74
     0
 49
1.27
 74
     0
 49
-1.27
 74
     0
  0
LTYPE
  5
70
330
5
100
AcDbSymbolTableRecord
100
AcDbLinetypeTableRecord
  2
CENTER
 70
     0
  3
Center ____ _ ____ _ ____ _ ____ _ ____ _ ____
 72
    65
 73
     4
 40
10.16
 49
6.35
 74
     0
 49
-1.27
 74
     0
 49
1.27
 74
     0
 49
-1.27
 74
     0
  0
LTYPE
  5
71
330
5
100
AcDbSymbolTableRecord
100
AcDbLinetypeTableRecord
  2
CENTERX2
 70
     0
  3
Center (2x) ________  __  ________  __  _____
 72
    65
 73
     4
 40
20.32
 49
12.7
 74
     0
 49
-2.54
 74
     0
 49
2.54
 74
     0
 49
-2.54
 74
     0
  0
LTYPE
  5
72
330
5
100
AcDbSymbolTableRecord
100
AcDbLinetypeTableRecord
  2
DOT2
 70
     0
  3
Dot (.5x) ........................................
 72
    65
 73
     2
 40
0.635
 49
0.0
 74
     0
 49
-0.635
 74
     0
  0
ENDTAB
  0
TABLE
  2
LAYER
  5
2
330
0
100
AcDbSymbolTable
 70
     2
  0
LAYER
  5
10
330
2
100
AcDbSymbolTableRecord
100
AcDbLayerTableRecord
  2
0
 70
     0
 62
     7
  6
Continuous
370
    -3
390
F
  0
LAYER
  5
73
330
2
100
AcDbSymbolTableRecord
100
AcDbLayerTableRecord
  2
FORMAT
 70
     0
 62
     7
  6
Continuous
370
    -3
390
F
  0
ENDTAB
  0
TABLE
  2
STYLE
  5
3
330
0
100
AcDbSymbolTable
 70
     2
  0
STYLE
  5
11
330
3
100
AcDbSymbolTableRecord
100
AcDbTextStyleTableRecord
  2
Standard
 70
     0
 40
0.0
 41
1.0
 50
0.0
 71
     0
 42
3.5
  3
txt
  4

  0
STYLE
  5
74
330
3
100
AcDbSymbolTableRecord
100
AcDbTextStyleTableRecord
  2
SLDTEXTSTYLE0
 70
     0
 40
0.0
 41
0.605
 50
0.0
 71
     0
 42
3.5
  3
TXT
  4

  0
ENDTAB
  0
TABLE
  2
VIEW
  5
6
330
0
100
AcDbSymbolTable
 70
     0
  0
ENDTAB
  0
TABLE
  2
UCS
  5
7
330
0
100
AcDbSymbolTable
 70
     0
  0
ENDTAB
  0
TABLE
  2
APPID
  5
9
330
0
100
AcDbSymbolTable
 70
     1
  0
APPID
  5
12
330
9
100
AcDbSymbolTableRecord
100
AcDbRegAppTableRecord
  2
ACAD
 70
     0
  0
ENDTAB
  0
TABLE
  2
DIMSTYLE
  5
A
330
0
100
AcDbSymbolTable
 70
     1
100
AcDbDimStyleTable
  0
DIMSTYLE
105
27
330
A
100
AcDbSymbolTableRecord
100
AcDbDimStyleTableRecord
  2
ISO-25
 70
     0
 41
2.5
 42
0.625
 43
3.75
 44
1.25
 73
     0
 74
     0
 77
     1
 78
     8
140
2.5
141
2.5
143
0.0393700787
147
0.625
171
     3
172
     1
178
     0
271
     2
272
     2
274
     3
278
    44
283
     0
284
     8
340
11
  0
ENDTAB
  0
TABLE
  2
BLOCK_RECORD
  5
1
330
0
100
AcDbSymbolTable
 70
     1
  0
BLOCK_RECORD
  5
1F
330
1
100
AcDbSymbolTableRecord
100
AcDbBlockTableRecord
  2
*Model_Space
340
22
  0
BLOCK_RECORD
  5
1B
330
1
100
AcDbSymbolTableRecord
100
AcDbBlockTableRecord
  2
*Paper_Space
340
1E
  0
BLOCK_RECORD
  5
23
330
1
100
AcDbSymbolTableRecord
100
AcDbBlockTableRecord
  2
*Paper_Space0
340
26
  0
ENDTAB
  0
ENDSEC
  0
SECTION
  2
BLOCKS
  0
BLOCK
  5
20
330
1F
100
AcDbEntity
  8
0
100
AcDbBlockBegin
  2
*Model_Space
 70
     0
 10
0.0
 20
0.0
 30
0.0
  3
*Model_Space
  1

  0
ENDBLK
  5
21
330
1F
100
AcDbEntity
  8
0
100
AcDbBlockEnd
  0
BLOCK
  5
1C
330
1B
100
AcDbEntity
 67
     1
  8
0
100
AcDbBlockBegin
  2
*Paper_Space
 70
     0
 10
0.0
 20
0.0
 30
0.0
  3
*Paper_Space
  1

  0
ENDBLK
  5
1D
330
1B
100
AcDbEntity
 67
     1
  8
0
100
AcDbBlockEnd
  0
BLOCK
  5
24
330
23
100
AcDbEntity
  8
0
100
AcDbBlockBegin
  2
*Paper_Space0
 70
     0
 10
0.0
 20
0.0
 30
0.0
  3
*Paper_Space0
  1

  0
ENDBLK
  5
25
330
23
100
AcDbEntity
  8
0
100
AcDbBlockEnd
  0
ENDSEC
  0
SECTION
  2
ENTITIES
  0
MTEXT
  5
75
330
1F
100
AcDbEntity
  8
0
  6
Continuous
 62
     7
370
     0
100
AcDbMText
 10
7.2782978723
 20
22.1884790273
 30
0.0
 40
10.0
 41
0.0
 71
     1
 72
     1
  1
1:1
  7
SLDTEXTSTYLE0
 73
     1
 44
1.0
  0
SPLINE
  5
76
330
1F
100
AcDbEntity
  8
0
  6
Continuous
 62
     7
370
    30
100
AcDbSpline
210
0.0
220
0.0
230
1.0
 70
     8
 71
     3
 72
    72
 73
    68
 74
     0
 42
0.000000001
 43
0.00000001
 40
0.0
 40
0.0
 40
0.0
 40
0.0
 40
0.0069627689758024
 40
0.0247041507994295
 40
0.0427021111634322
 40
0.0609528128398081
 40
0.0794487428569589
 40
0.0981654584451652
 40
0.1219156333209691
 40
0.1458711403697711
 40
0.1700179011085946
 40
0.1943436449260347
 40
0.2188231622539973
 40
0.2384105697967858
 40
0.2581282240172042
 40
0.2779945089191647
 40
0.2980362758013134
 40
0.318253211251313
 40
0.3386246763900433
 40
0.3591427973538623
 40
0.3797661791147497
 40
0.4013498553305017
 40
0.4228895391762674
 40
0.4443736433644565
 40
0.4657898137068628
 40
0.487131654985231
 40
0.508399438406908
 40
0.5315155478695774
 40
0.5545413444723749
 40
0.5774740006394701
 40
0.6003096224616923
 40
0.6230293730674904
 40
0.6456078482249188
 40
0.6680273355316746
 40
0.6924723470535142
 40
0.7165803328698777
 40
0.740304953336829
 40
0.7636385861242918
 40
0.7865987952372064
 40
0.810546348276007
 40
0.834078808537064
 40
0.8571942365359373
 40
0.8678933942928443
 40
0.878140702411018
 40
0.8879203889899525
 40
0.8972455610923588
 40
0.9061228083460561
 40
0.9141215872908997
 40
0.9217281523787298
 40
0.9289464023129977
 40
0.9358416958587075
 40
0.9430382697419896
 40
0.95069948142247
 40
0.9588282541473249
 40
0.9674283640245931
 40
0.9765044289213272
 40
0.9809351990041832
 40
0.9849386590154017
 40
0.9885148004518525
 40
0.9897456606623615
 40
0.9909163998312095
 40
0.9920270058095256
 40
0.9931345667166441
 40
0.9944053699938604
 40
0.9959400064583931
 40
0.9977949346973695
 40
0.9999999999999999
 40
0.9999999999999999
 40
0.9999999999999999
 40
0.9999999999999999
 10
464.0291755563717
 20
420.5523744663087
 30
0.0
 10
464.0171985529351
 20
420.5580907336884
 30
0.0
 10
463.9747037207713
 20
420.5783722527
 30
0.0
 10
463.8934186473599
 20
420.6166579754216
 30
0.0
 10
463.7852940091341
 20
420.6671221035932
 30
0.0
 10
463.66826871925
 20
420.7210689178569
 30
0.0
 10
463.5431886875548
 20
420.778002431855
 30
0.0
 10
463.3987270903892
 20
420.8428502342175
 30
0.0
 10
463.2340432821408
 20
420.9155349501233
 30
0.0
 10
463.0475739356214
 20
420.9961003781257
 30
0.0
 10
462.8524732458907
 20
421.0785301564225
 30
0.0
 10
462.6499899288505
 20
421.1621665437889
 30
0.0
 10
462.4559126556729
 20
421.2404227976538
 30
0.0
 10
462.2715735344394
 20
421.3131061470576
 30
0.0
 10
462.0961734328221
 20
421.3808487439923
 30
0.0
 10
461.9142307000694
 20
421.4495726047122
 30
0.0
 10
461.7242678688078
 20
421.5197082808155
 30
0.0
 10
461.5262719743037
 20
421.5910404468917
 30
0.0
 10
461.3209426419621
 20
421.6631123281319
 30
0.0
 10
461.1084504407733
 20
421.7357153326467
 30
0.0
 10
460.8860677274042
 20
421.8095807645756
 30
0.0
 10
460.6543044521384
 20
421.8842654690223
 30
0.0
 10
460.4136570975014
 20
421.9593235262481
 30
0.0
 10
460.1680958131329
 20
422.033319536172
 30
0.0
 10
459.9179577939976
 20
422.1059747212838
 30
0.0
 10
459.6636277745471
 20
422.177086442331
 30
0.0
 10
459.3976299560574
 20
422.2485855651567
 30
0.0
 10
459.1198143543441
 20
422.3201220827708
 30
0.0
 10
458.8301007614998
 20
422.3912884806491
 30
0.0
 10
458.536839731424
 20
422.4598190858155
 30
0.0
 10
458.2404948483576
 20
422.525489453347
 30
0.0
 10
457.9415162519081
 20
422.588050957267
 30
0.0
 10
457.6405235592992
 20
422.6473733396089
 30
0.0
 10
457.328324399895
 20
422.7051697346074
 30
0.0
 10
457.0057411159381
 20
422.7608760245818
 30
0.0
 10
456.6743140441059
 20
422.8137922532597
 30
0.0
 10
456.3454209786863
 20
422.8620103687987
 30
0.0
 10
456.0196456897564
 20
422.9054994994859
 30
0.0
 10
455.6910296003468
 20
422.9452023854404
 30
0.0
 10
455.3598999153529
 20
422.9809586065966
 30
0.0
 10
455.0267046811856
 20
423.0126022840009
 30
0.0
 10
454.7551370408222
 20
423.0348976943509
 30
0.0
 10
454.5461047018448
 20
423.0500734923128
 30
0.0
 10
454.3999732957407
 20
423.0598633021735
 30
0.0
 10
454.2600983739135
 20
423.0685159609113
 30
0.0
 10
454.1265161079525
 20
423.0761267627826
 30
0.0
 10
454.0012516233193
 20
423.0826847154671
 30
0.0
 10
453.8840710971235
 20
423.0883204869684
 30
0.0
 10
453.7747463935394
 20
423.0931522187657
 30
0.0
 10
453.67065883009
 20
423.0973649640853
 30
0.0
 10
453.5685499277043
 20
423.1011523946219
 30
0.0
 10
453.4642910084323
 20
423.1045691757152
 30
0.0
 10
453.3540983375198
 20
423.1076932673613
 30
0.0
 10
453.2371628769754
 20
423.1104691046554
 30
0.0
 10
453.1134333319119
 20
423.1128116583399
 30
0.0
 10
453.0074303689346
 20
423.1142849614351
 30
0.0
 10
452.9234647340873
 20
423.1151376748934
 30
0.0
 10
452.8658706805343
 20
423.1155913120506
 30
0.0
 10
452.8236179111028
 20
423.1158391293528
 30
0.0
 10
452.7949538909884
 20
423.1159675352009
 30
0.0
 10
452.7781038600115
 20
423.1160377173503
 30
0.0
 10
452.7618760099186
 20
423.1160751667003
 30
0.0
 10
452.7450508224223
 20
423.1161819132359
 30
0.0
 10
452.7287721495356
 20
423.1164248781723
 30
0.0
 10
452.7126722506798
 20
423.1167091247752
 30
0.0
 10
452.696403023665
 20
423.116979657316
 30
0.0
 10
452.6866779566707
 20
423.1170212100832
 30
0.0
 10
452.6813960744274
 20
423.1170437782386
 30
0.0
  0
SPLINE
  5
77
330
1F
100
AcDbEntity
  8
0
  6
Continuous
 62
     7
370
    30
100
AcDbSpline
210
0.0
220
0.0
230
1.0
 70
     8
 71
     3
 72
    45
 73
    41
 74
     0
 42
0.000000001
 43
0.00000001
 40
0.0
 40
0.0
 40
0.0
 40
0.0
 40
0.0408519082777908
 40
0.0794694433993003
 40
0.1156140843427913
 40
0.1490904487450216
 40
0.179744402253215
 40
0.2074593009256625
 40
0.2321510124629962
 40
0.2537623214984037
 40
0.2855092173875403
 40
0.3181350843135523
 40
0.3516153404305435
 40
0.3858733875039102
 40
0.4203125557552521
 40
0.4474258815706024
 40
0.4728949583300048
 40
0.4967356884571549
 40
0.5313234962694937
 40
0.5394230781913958
 40
0.5449374084802915
 40
0.5466485030503107
 40
0.5477253566044009
 40
0.5482904104985927
 40
0.5493917173436491
 40
0.5508522318463396
 40
0.5566614291954739
 40
0.565376190567566
 40
0.5797314554435266
 40
0.5983640370487898
 40
0.6212843475844831
 40
0.6484968192459548
 40
0.6800037527039589
 40
0.7140046594180695
 40
0.7519044438800423
 40
0.7937057631420422
 40
0.8394120240956189
 40
0.8890271994325003
 40
0.942555375124815
 40
1.0
 40
1.0
 40
1.0
 40
1.0
 10
465.3235657516737
 20
419.041384942165
 30
0.0
 10
465.3227477815005
 20
419.0781323077143
 30
0.0
 10
465.3211565795928
 20
419.1496171614141
 30
0.0
 10
465.3087421591476
 20
419.2529890876036
 30
0.0
 10
465.2907451090231
 20
419.3487010298728
 30
0.0
 10
465.2680630901545
 20
419.4360405044062
 30
0.0
 10
465.2424390510951
 20
419.5145988824564
 30
0.0
 10
465.2153199674624
 20
419.584224820574
 30
0.0
 10
465.1880679034946
 20
419.6449705314883
 30
0.0
 10
465.1565174734761
 20
419.7076763100844
 30
0.0
 10
465.1182532233261
 20
419.7749117227855
 30
0.0
 10
465.0700640539728
 20
419.8485901110468
 30
0.0
 10
465.0159419133389
 20
419.9208744823033
 30
0.0
 10
464.9561743706058
 20
419.9907284616332
 30
0.0
 10
464.8959324156265
 20
420.0523949421202
 30
0.0
 10
464.8380206275392
 20
420.1050576228716
 30
0.0
 10
464.784886078841
 20
420.1486837096058
 30
0.0
 10
464.7243776987906
 20
420.1937494262693
 30
0.0
 10
464.6743656963734
 20
420.2267939290053
 30
0.0
 10
464.6373081935703
 20
420.2491602494858
 30
0.0
 10
464.6253571532751
 20
420.2561605193764
 30
0.0
 10
464.6189848354604
 20
420.2598338880788
 30
0.0
 10
464.6163020049391
 20
420.2613704393569
 30
0.0
 10
464.6145658084689
 20
420.2623580971169
 30
0.0
 10
464.6130523704667
 20
420.2632144493618
 30
0.0
 10
464.6098806307618
 20
420.2649990141091
 30
0.0
 10
464.6058798499524
 20
420.2672212415843
 30
0.0
 10
464.6002296032742
 20
420.2703246325034
 30
0.0
 10
464.5936233344597
 20
420.2739014343659
 30
0.0
 10
464.5856925470572
 20
420.2781414191436
 30
0.0
 10
464.5764788940909
 20
420.2830080266197
 30
0.0
 10
464.5656356949717
 20
420.2886754164101
 30
0.0
 10
464.5530280084415
 20
420.2952040366346
 30
0.0
 10
464.5383031445153
 20
420.30276888162
 30
0.0
 10
464.5211131588244
 20
420.3115394946628
 30
0.0
 10
464.5007775019782
 20
420.3218502421506
 30
0.0
 10
464.4767947145556
 20
420.3339400568352
 30
0.0
 10
464.4485578701743
 20
420.3480930760889
 30
0.0
 10
464.4157303877575
 20
420.3644649946872
 30
0.0
 10
464.3905989401927
 20
420.3769093029338
 30
0.0
 10
464.3775897472144
 20
420.3833510491581
 30
0.0
  0
SPLINE
  5
78
330
1F
100
AcDbEntity
  8
0
  6
Continuous
 62
     7
370
    30
100
AcDbSpline
210
0.0
220
0.0
230
1.0
 70
     8
 71
     3
 72
    16
 73
    12
 74
     0
 42
0.000000001
 43
0.00000001
 40
0.0
 40
0.0
 40
0.0
 40
0.0
 40
0.0047108424626086
 40
0.1057079806765555
 40
0.2222828901573527
 40
0.3537986676778442
 40
0.4991758644268322
 40
0.6163965067952081
 40
0.7396571209401329
 40
0.8679181978236724
 40
1.0
 40
1.0
 40
1.0
 40
1.0
 10
465.1240563590437
 20
411.5290107782316
 30
0.0
 10
465.1246735227994
 20
411.529600817987
 30
0.0
 10
465.1385222419769
 20
411.5428408937428
 30
0.0
 10
465.1649336941593
 20
411.5734034549117
 30
0.0
 10
465.2035314871937
 20
411.6235762731849
 30
0.0
 10
465.2409811582523
 20
411.6844500442637
 30
0.0
 10
465.2718560217361
 20
411.7490273521218
 30
0.0
 10
465.2954670542803
 20
411.8149718672059
 30
0.0
 10
465.31194035674
 20
411.8798285806939
 30
0.0
 10
465.3229172361516
 20
411.9486690119631
 30
0.0
 10
465.3243142068952
 20
411.9958808142159
 30
0.0
 10
465.325022943059
 20
412.0198331494902
 30
0.0
  0
LINE
  5
79
330
1F
100
AcDbEntity
  8
0
  6
Continuous
 62
     7
370
    30
100
AcDbLine
 10
452.681393038
 20
423.1170437782
 30
0.0
 11
452.5647519679
 21
423.1170437782
 31
0.0
  0
LINE
  5
7A
330
1F
100
AcDbEntity
  8
0
  6
Continuous
 62
     7
370
    30
100
AcDbLine
 10
441.2777325453
 20
409.9670437782
 30
0.0
 11
441.2777325453
 21
393.9670437782
 31
0.0
  0
LINE
  5
7B
330
1F
100
AcDbEntity
  8
0
  6
Continuous
 62
     7
370
    30
100
AcDbLine
 10
464.0777325453
 20
393.9670437782
 30
0.0
 11
464.0777325453
 21
409.9670437782
 31
0.0
  0
ARC
  5
7C
330
1F
100
AcDbEntity
  8
0
  6
Continuous
 62
     7
370
    30
100
AcDbCircle
 10
463.0777325453
 20
393.9670437782
 30
0.0
 40
1.0
100
AcDbArc
 50
270.0
 51
0.0
  0
ARC
  5
7D
330
1F
100
AcDbEntity
  8
0
  6
Continuous
 62
     7
370
    30
100
AcDbCircle
 10
442.2777325453
 20
393.9670437782
 30
0.0
 40
1.0
100
AcDbArc
 50
180.0
 51
270.0
  0
LINE
  5
7E
330
1F
100
AcDbEntity
  8
0
  6
Continuous
 62
     7
370
    30
100
AcDbLine
 10
467.0590139015
 20
409.0344344034
 30
0.0
 11
467.0590139015
 21
450.8329562218
 31
0.0
  0
LINE
  5
7F
330
1F
100
AcDbEntity
  8
0
  6
Continuous
 62
     7
370
    30
100
AcDbLine
 10
438.0590139015
 20
450.8329562218
 30
0.0
 11
438.0590139015
 21
409.0344344034
 31
0.0
  0
LINE
  5
80
330
1F
100
AcDbEntity
  8
0
  6
Continuous
 62
     7
370
    30
100
AcDbLine
 10
467.0590139011
 20
450.8329562218
 30
0.0
 11
466.8590139015
 21
451.0329562218
 31
0.0
  0
LINE
  5
81
330
1F
100
AcDbEntity
  8
0
  6
Continuous
 62
     7
370
    30
100
AcDbLine
 10
438.2590139015
 20
451.0329562218
 30
0.0
 11
438.0590139018
 21
450.8329562218
 31
0.0
  0
LINE
  5
82
330
1F
100
AcDbEntity
  8
0
  6
Continuous
 62
     7
370
    30
100
AcDbLine
 10
438.0590139015
 20
409.0344344034
 30
0.0
 11
438.5590139006
 21
408.5344344034
 31
0.0
  0
LINE
  5
83
330
1F
100
AcDbEntity
  8
0
  6
Continuous
 62
     7
370
    30
100
AcDbLine
 10
466.5590139024
 20
408.5344344034
 30
0.0
 11
467.0590139015
 21
409.0344344034
 31
0.0
  0
LINE
  5
84
330
1F
100
AcDbEntity
  8
0
  6
Continuous
 62
     7
370
    30
100
AcDbLine
 10
465.4277325453
 20
409.9670437782
 30
0.0
 11
465.4277325453
 21
411.5290107782
 31
0.0
  0
LINE
  5
85
330
1F
100
AcDbEntity
  8
0
  6
Continuous
 62
     7
370
    30
100
AcDbLine
 10
440.0277335358
 20
419.0427576526
 30
0.0
 11
440.0277335358
 21
412.0202218014
 31
0.0
  0
LINE
  5
86
330
1F
100
AcDbEntity
  8
0
  6
Continuous
 62
     7
370
    30
100
AcDbLine
 10
465.3277315548
 20
419.0427576526
 30
0.0
 11
465.3229707555
 21
419.0398254924
 31
0.0
  0
LINE
  5
87
330
1F
100
AcDbEntity
  8
0
  6
Continuous
 62
     7
370
    30
100
AcDbLine
 10
465.3277315548
 20
419.0427576526
 30
0.0
 11
465.3277315548
 21
412.0202218014
 31
0.0
  0
SPLINE
  5
88
330
1F
100
AcDbEntity
  8
0
  6
Continuous
 62
     7
370
    30
100
AcDbSpline
210
0.0
220
0.0
230
1.0
 70
     8
 71
     3
 72
    13
 73
     9
 74
     0
 42
0.000000001
 43
0.00000001
 40
0.0
 40
0.0
 40
0.0
 40
0.0
 40
0.0124445190286144
 40
0.1866878649555242
 40
0.3976489437444063
 40
0.6024212936129858
 40
0.8026268059109313
 40
1.0
 40
1.0
 40
1.0
 40
1.0
 10
464.0206311509677
 20
420.5564848759622
 30
0.0
 10
464.0250478397878
 20
420.5544014921934
 30
0.0
 10
464.0913052985218
 20
420.5231473740722
 30
0.0
 10
464.2083572539056
 20
420.4662966268547
 30
0.0
 10
464.360344643408
 20
420.3919540100962
 30
0.0
 10
464.4733185040359
 20
420.3356139731753
 30
0.0
 10
464.5446697994813
 20
420.2996968027152
 30
0.0
 10
464.5533984038561
 20
420.2952200566211
 30
0.0
 10
464.5577316151114
 20
420.2929976295607
 30
0.0
  0
ARC
  5
89
330
1F
100
AcDbEntity
  8
0
  6
Continuous
 62
     7
370
    30
100
AcDbCircle
 10
463.9277315183
 20
419.0427576677
 30
0.0
 40
1.400000036540746
100
AcDbArc
 50
359.999999381
 51
51.9256701834
  0
LINE
  5
8A
330
1F
100
AcDbEntity
  8
0
  6
Continuous
 62
     7
370
    30
100
AcDbLine
 10
464.5673073261
 20
420.2881262362
 30
0.0
 11
464.5577316151
 21
420.2929976296
 31
0.0
  0
ARC
  5
8B
330
1F
100
AcDbEntity
  8
0
  6
Continuous
 62
     7
370
    30
100
AcDbCircle
 10
464.6277315279
 20
412.0202217964
 30
0.0
 40
0.7000000269263751
100
AcDbArc
 50
315.3609640337
 51
0.0000004057
  0
LINE
  5
8C
330
1F
100
AcDbEntity
  8
0
  6
Continuous
 62
     7
370
    30
100
AcDbLine
 10
463.0777325453
 20
392.9670437782
 30
0.0
 11
442.2777325453
 21
392.9670437782
 31
0.0
  0
LINE
  5
8D
330
1F
100
AcDbEntity
  8
0
  6
Continuous
 62
     7
370
    30
100
AcDbLine
 10
464.0777325453
 20
409.0344344034
 30
0.0
 11
467.0590139015
 21
409.0344344034
 31
0.0
  0
LINE
  5
8E
330
1F
100
AcDbEntity
  8
0
  6
Continuous
 62
     7
370
    30
100
AcDbLine
 10
438.0590139015
 20
409.0344344034
 30
0.0
 11
441.2777325453
 21
409.0344344034
 31
0.0
  0
LINE
  5
8F
330
1F
100
AcDbEntity
  8
0
  6
Continuous
 62
     7
370
    30
100
AcDbLine
 10
467.0590139015
 20
450.8329562218
 30
0.0
 11
438.0590139015
 21
450.8329562218
 31
0.0
  0
LINE
  5
90
330
1F
100
AcDbEntity
  8
0
  6
Continuous
 62
     7
370
    30
100
AcDbLine
 10
438.2590139015
 20
451.0329562218
 30
0.0
 11
466.8590139015
 21
451.0329562218
 31
0.0
  0
LINE
  5
91
330
1F
100
AcDbEntity
  8
0
  6
Continuous
 62
     7
370
    30
100
AcDbLine
 10
441.2777325453
 20
408.5344344034
 30
0.0
 11
438.5590139015
 21
408.5344344034
 31
0.0
  0
LINE
  5
92
330
1F
100
AcDbEntity
  8
0
  6
Continuous
 62
     7
370
    30
100
AcDbLine
 10
466.5590139015
 20
408.5344344034
 30
0.0
 11
464.0777325453
 21
408.5344344034
 31
0.0
  0
LINE
  5
93
330
1F
100
AcDbEntity
  8
0
  6
Continuous
 62
     7
370
    30
100
AcDbLine
 10
439.9277335437
 20
409.9670437782
 30
0.0
 11
465.4277325453
 21
409.9670437782
 31
0.0
  0
LINE
  5
94
330
1F
100
AcDbEntity
  8
0
  6
Continuous
 62
     7
370
    30
100
AcDbLine
 10
465.4277325453
 20
411.5290107782
 30
0.0
 11
439.9277335437
 21
411.5290107782
 31
0.0
  0
LINE
  5
95
330
1F
100
AcDbEntity
  8
0
  6
Continuous
 62
     7
370
    30
100
AcDbLine
 10
439.9267294917
 20
411.5290107782
 30
0.0
 11
439.9267294917
 21
409.9670437782
 31
0.0
  0
LINE
  5
96
330
1F
100
AcDbEntity
  8
0
  6
Continuous
 62
     7
370
    30
100
AcDbLine
 10
439.9267294917
 20
409.9670437782
 30
0.0
 11
439.9277335437
 21
409.9670437782
 31
0.0
  0
LINE
  5
97
330
1F
100
AcDbEntity
  8
0
  6
Continuous
 62
     7
370
    30
100
AcDbLine
 10
439.9277335437
 20
411.5290107782
 30
0.0
 11
439.9267294917
 21
411.5290107782
 31
0.0
  0
LINE
  5
98
330
1F
100
AcDbEntity
  8
0
  6
Continuous
 62
     7
370
    30
100
AcDbLine
 10
878.0228962594
 20
411.5290107782
 30
0.0
 11
878.0228962594
 21
419.7170127445
 31
0.0
  0
SPLINE
  5
99
330
1F
100
AcDbEntity
  8
0
  6
Continuous
 62
     7
370
    30
100
AcDbSpline
210
0.0
220
0.0
230
1.0
 70
     8
 71
     3
 72
    48
 73
    44
 74
     0
 42
0.000000001
 43
0.00000001
 40
0.0
 40
0.0
 40
0.0
 40
0.0
 40
0.0341377647102544
 40
0.0677437365661547
 40
0.1007182290108747
 40
0.1329661015929525
 40
0.1643976658968899
 40
0.1949294143978902
 40
0.2244845609271325
 40
0.2529933906260768
 40
0.2803934256181646
 40
0.3066294196441598
 40
0.3316532002935468
 40
0.3554233811051022
 40
0.3805143962930425
 40
0.4039488176930911
 40
0.4256946040946223
 40
0.4457362202733324
 40
0.4651977394033892
 40
0.4848611365560763
 40
0.5161448562703348
 40
0.5478667664555631
 40
0.5799858669237101
 40
0.6116108018250613
 40
0.6435276462722073
 40
0.6756910373601576
 40
0.7080198640292356
 40
0.7394971614089495
 40
0.7696617040131104
 40
0.7985131963756981
 40
0.8255196967027428
 40
0.8512818418489977
 40
0.8760084123154598
 40
0.9007906573399485
 40
0.9095629065443692
 40
0.9183580760045441
 40
0.9271747311919311
 40
0.9360197525893652
 40
0.9458600387253786
 40
0.9571175468626951
 40
0.9699202513719768
 40
0.9842293035830123
 40
1.0
 40
1.0
 40
1.0
 40
1.0
 10
878.022896279256
 20
419.71705194902
 30
0.0
 10
878.0219563776204
 20
419.7778277065674
 30
0.0
 10
878.0200912159924
 20
419.8984324662477
 30
0.0
 10
878.0052115758301
 20
420.0772297083128
 30
0.0
 10
877.9821327822195
 20
420.2516937761219
 30
0.0
 10
877.9506807632337
 20
420.420929374534
 30
0.0
 10
877.9118608692329
 20
420.584147215193
 30
0.0
 10
877.866471395531
 20
420.740673721548
 30
0.0
 10
877.815436212328
 20
420.8899563269516
 30
0.0
 10
877.7596919297581
 20
421.0315644096864
 30
0.0
 10
877.7001911931987
 20
421.1651863476333
 30
0.0
 10
877.6378784514835
 20
421.2906230590978
 30
0.0
 10
877.5736752697011
 20
421.4077793527631
 30
0.0
 10
877.5060803375112
 20
421.5206373540152
 30
0.0
 10
877.4357488317852
 20
421.6284527839154
 30
0.0
 10
877.3634462620755
 20
421.7305642554084
 30
0.0
 10
877.2930211028021
 20
421.8228954100236
 30
0.0
 10
877.224078575871
 20
421.907382817915
 30
0.0
 10
877.1549805685031
 20
421.9868923458552
 30
0.0
 10
877.0698869531907
 20
422.0789369515382
 30
0.0
 10
876.9657027372602
 20
422.1829560455208
 30
0.0
 10
876.8400498506684
 20
422.2965682479332
 30
0.0
 10
876.7083871471324
 20
422.4041266861735
 30
0.0
 10
876.5712297928869
 20
422.5051651548212
 30
0.0
 10
876.4291355238579
 20
422.5992801598019
 30
0.0
 10
876.2814070564004
 20
422.6867665667602
 30
0.0
 10
876.1301303306524
 20
422.766297213645
 30
0.0
 10
875.978292985359
 20
422.8366517170056
 30
0.0
 10
875.8289720026535
 20
422.8972449782023
 30
0.0
 10
875.6845162167849
 20
422.9482042154247
 30
0.0
 10
875.5454711354134
 20
422.9904958935199
 30
0.0
 10
875.4119060063131
 20
423.0251451046947
 30
0.0
 10
875.280946912119
 20
423.0536295808295
 30
0.0
 10
875.1787628725285
 20
423.0717267581411
 30
0.0
 10
875.104210330312
 20
423.0829130007222
 30
0.0
 10
875.0576713976334
 20
423.0892407940318
 30
0.0
 10
875.0109210322694
 20
423.0949398706035
 30
0.0
 10
874.9622464392575
 20
423.100189808427
 30
0.0
 10
874.9091734503271
 20
423.1051260563285
 30
0.0
 10
874.8490005850755
 20
423.1097249748104
 30
0.0
 10
874.7808087088769
 20
423.1136132154093
 30
0.0
 10
874.7045187936864
 20
423.116464544894
 30
0.0
 10
874.6509739180706
 20
423.1168445454235
 30
0.0
 10
874.6229005459003
 20
423.1170437782384
 30
0.0
  0
LINE
  5
9A
330
1F
100
AcDbEntity
  8
0
  6
Continuous
 62
     7
370
    30
100
AcDbLine
 10
579.8728474075
 20
410.5170437782
 30
0.0
 11
851.7230583939
 21
410.5170437782
 31
0.0
  0
LINE
  5
9B
330
1F
100
AcDbEntity
  8
0
  6
Continuous
 62
     7
370
    30
100
AcDbLine
 10
874.6229005299
 20
423.1170437782
 30
0.0
 11
579.8728474075
 21
423.1170437782
 31
0.0
  0
LINE
  5
9C
330
1F
100
AcDbEntity
  8
0
  6
Continuous
 62
     7
370
    30
100
AcDbLine
 10
853.9728962594
 20
409.9670437782
 30
0.0
 11
853.9728962594
 21
393.9670437782
 31
0.0
  0
LINE
  5
9D
330
1F
100
AcDbEntity
  8
0
  6
Continuous
 62
     7
370
    30
100
AcDbLine
 10
876.7728962594
 20
393.9670437782
 30
0.0
 11
876.7728962594
 21
409.9670437782
 31
0.0
  0
ARC
  5
9E
330
1F
100
AcDbEntity
  8
0
  6
Continuous
 62
     7
370
    30
100
AcDbCircle
 10
875.7728962594
 20
393.9670437782
 30
0.0
 40
1.0
100
AcDbArc
 50
270.0
 51
0.0
  0
ARC
  5
9F
330
1F
100
AcDbEntity
  8
0
  6
Continuous
 62
     7
370
    30
100
AcDbCircle
 10
854.9728962594
 20
393.9670437782
 30
0.0
 40
1.0
100
AcDbArc
 50
180.0
 51
270.0
  0
LINE
  5
A0
330
1F
100
AcDbEntity
  8
0
  6
Continuous
 62
     7
370
    30
100
AcDbLine
 10
579.8728474072
 20
450.8329562218
 30
0.0
 11
579.6728474075
 21
451.0329562218
 31
0.0
  0
LINE
  5
A1
330
1F
100
AcDbEntity
  8
0
  6
Continuous
 62
     7
370
    30
100
AcDbLine
 10
551.0728474075
 20
451.0329562218
 30
0.0
 11
550.8728474079
 21
450.8329562218
 31
0.0
  0
LINE
  5
A2
330
1F
100
AcDbEntity
  8
0
  6
Continuous
 62
     7
370
    30
100
AcDbLine
 10
550.8728474075
 20
409.0344344034
 30
0.0
 11
551.3728474066
 21
408.5344344034
 31
0.0
  0
LINE
  5
A3
330
1F
100
AcDbEntity
  8
0
  6
Continuous
 62
     7
370
    30
100
AcDbLine
 10
579.3728474084
 20
408.5344344034
 30
0.0
 11
579.8728474075
 21
409.0344344034
 31
0.0
  0
LINE
  5
A4
330
1F
100
AcDbEntity
  8
0
  6
Continuous
 62
     7
370
    30
100
AcDbLine
 10
579.8728474075
 20
409.0344344034
 30
0.0
 11
579.8728474075
 21
410.5170437782
 31
0.0
  0
LINE
  5
A5
330
1F
100
AcDbEntity
  8
0
  6
Continuous
 62
     7
370
    30
100
AcDbLine
 10
579.8728474075
 20
423.1170437782
 30
0.0
 11
579.8728474075
 21
450.8329562218
 31
0.0
  0
LINE
  5
A6
330
1F
100
AcDbEntity
  8
0
  6
Continuous
 62
     7
370
    30
100
AcDbLine
 10
550.8728474075
 20
450.8329562218
 30
0.0
 11
550.8728474075
 21
409.0344344034
 31
0.0
  0
LINE
  5
A7
330
1F
100
AcDbEntity
  8
0
  6
Continuous
 62
     7
370
    30
100
AcDbLine
 10
852.3728962594
 20
410.6130862179
 30
0.0
 11
852.3728962594
 21
409.9670437782
 31
0.0
  0
LINE
  5
A8
330
1F
100
AcDbEntity
  8
0
  6
Continuous
 62
     7
370
    30
100
AcDbLine
 10
878.1228962594
 20
409.9670437782
 30
0.0
 11
878.1228962594
 21
411.5290107782
 31
0.0
  0
LINE
  5
A9
330
1F
100
AcDbEntity
  8
0
  6
Continuous
 62
     7
370
    30
100
AcDbLine
 10
859.4984970747
 20
411.2670437782
 30
0.0
 11
858.1743608644
 21
411.2670437782
 31
0.0
  0
SPLINE
  5
AA
330
1F
100
AcDbEntity
  8
0
  6
Continuous
 62
     7
370
    30
100
AcDbSpline
210
0.0
220
0.0
230
1.0
 70
     8
 71
     3
 72
    52
 73
    48
 74
     0
 42
0.000000001
 43
0.00000001
 40
0.0
 40
0.0
 40
0.0
 40
0.0
 40
0.022779379869065
 40
0.0455617991355863
 40
0.0683411869257812
 40
0.0912305898946675
 40
0.1141230665137695
 40
0.1370124749256979
 40
0.1590649873289247
 40
0.1811202424473321
 40
0.2031727569830943
 40
0.2253246788187752
 40
0.2474793782373383
 40
0.2696312995459912
 40
0.285561967195851
 40
0.3014926346540079
 40
0.3174398672274106
 40
0.3333870995136023
 40
0.3583978337726292
 40
0.3834125739761657
 40
0.4084232990497648
 40
0.433579975625349
 40
0.4587407413670577
 40
0.4838974048172988
 40
0.5048497415766889
 40
0.525804450234415
 40
0.5467567795268394
 40
0.5677953469608154
 40
0.5888363255614457
 40
0.6098748848482146
 40
0.6383300400481632
 40
0.666809214818155
 40
0.6917243333158662
 40
0.7166434908372586
 40
0.7415585942207363
 40
0.7666210494738661
 40
0.7916876354354716
 40
0.8167500776997747
 40
0.8376289698131446
 40
0.8585102589271275
 40
0.8793891463979709
 40
0.9003550737331197
 40
0.9213234339920551
 40
0.9422893584344504
 40
0.9706514207970015
 40
0.99903763720437
 40
1.0
 40
1.0
 40
1.0
 40
1.0
 10
858.1743608644067
 20
411.2670437782316
 30
0.0
 10
858.0854143682063
 20
411.2597899413404
 30
0.0
 10
857.90750950789
 20
411.2452812996962
 30
0.0
 10
857.6457049146187
 20
411.2229493394473
 30
0.0
 10
857.3873513174825
 20
411.2002246363432
 30
0.0
 10
857.1329661685279
 20
411.1771084109516
 30
0.0
 10
856.8826063388178
 20
411.1536616490362
 30
0.0
 10
856.6398315043535
 20
411.130257315588
 30
0.0
 10
856.4045732914581
 20
411.106955124037
 30
0.0
 10
856.1767421190051
 20
411.0838091542723
 30
0.0
 10
855.9531744107816
 20
411.0605394656758
 30
0.0
 10
855.7340101253552
 20
411.0371919295935
 30
0.0
 10
855.5193760205747
 20
411.0138133662325
 30
0.0
 10
855.3293327016121
 20
410.9926691164736
 30
0.0
 10
855.1624725513807
 20
410.9737780870537
 30
0.0
 10
855.0174392808688
 20
410.9571247729958
 30
0.0
 10
854.8750564504592
 20
410.9405507818763
 30
0.0
 10
854.7088984349601
 20
410.9209517482645
 30
0.0
 10
854.5211774716659
 20
410.898441017549
 30
0.0
 10
854.3146286038373
 20
410.8731966863954
 30
0.0
 10
854.1147817633578
 20
410.8483268695433
 30
0.0
 10
853.9218279738199
 20
410.8239001102739
 30
0.0
 10
853.7359298723561
 20
410.7999810973801
 30
0.0
 10
853.5675174349658
 20
410.777976783282
 30
0.0
 10
853.4153011769256
 20
410.7578243887316
 30
0.0
 10
853.2780125376787
 20
410.7394388211642
 30
0.0
 10
853.1459922348416
 20
410.7215652843745
 30
0.0
 10
853.0193347660189
 20
410.7042400659771
 30
0.0
 10
852.8981188047047
 20
410.6874958011103
 30
0.0
 10
852.7689997521659
 20
410.6694939597213
 30
0.0
 10
852.6345898510162
 20
410.6505602381517
 30
0.0
 10
852.5036719931431
 20
410.6319175895412
 30
0.0
 10
852.3876515783672
 20
410.6152441006171
 30
0.0
 10
852.285208150682
 20
410.6004042849161
 30
0.0
 10
852.1909441306876
 20
410.5866497479026
 30
0.0
 10
852.1049982918116
 20
410.5740280661122
 30
0.0
 10
852.0274727028308
 20
410.5625756237071
 30
0.0
 10
851.9624225787481
 20
410.5529160685585
 30
0.0
 10
851.9082989417892
 20
410.5448479062751
 30
0.0
 10
851.8636193543825
 20
410.5381662128992
 30
0.0
 10
851.82496881436
 20
410.532370749406
 30
0.0
 10
851.7923864243596
 20
410.5274761235768
 30
0.0
 10
851.7659753721218
 20
410.5235031822157
 30
0.0
 10
851.7431472747983
 20
410.5200674732492
 30
0.0
 10
851.7279631184593
 20
410.5177878482757
 30
0.0
 10
851.7214362593963
 20
410.5168136488875
 30
0.0
 10
851.7230068916843
 20
410.5170601362363
 30
0.0
 10
851.7230583939418
 20
410.5170682187486
 30
0.0
  0
LINE
  5
AB
330
1F
100
AcDbEntity
  8
0
  6
Continuous
 62
     7
370
    30
100
AcDbLine
 10
865.3687806807
 20
392.9670437782
 30
0.0
 11
854.9728962594
 21
392.9670437782
 31
0.0
  0
LINE
  5
AC
330
1F
100
AcDbEntity
  8
0
  6
Continuous
 62
     7
370
    30
100
AcDbLine
 10
875.7728962594
 20
392.9670437782
 30
0.0
 11
865.3687806807
 21
392.9670437782
 31
0.0
  0
LINE
  5
AD
330
1F
100
AcDbEntity
  8
0
  6
Continuous
 62
     7
370
    30
100
AcDbLine
 10
551.0728474075
 20
451.0329562218
 30
0.0
 11
579.6728474075
 21
451.0329562218
 31
0.0
  0
LINE
  5
AE
330
1F
100
AcDbEntity
  8
0
  6
Continuous
 62
     7
370
    30
100
AcDbLine
 10
579.8728474072
 20
450.8329562218
 30
0.0
 11
550.8728474075
 21
450.8329562218
 31
0.0
  0
LINE
  5
AF
330
1F
100
AcDbEntity
  8
0
  6
Continuous
 62
     7
370
    30
100
AcDbLine
 10
550.8728474075
 20
409.0344344034
 30
0.0
 11
579.8728474075
 21
409.0344344034
 31
0.0
  0
LINE
  5
B0
330
1F
100
AcDbEntity
  8
0
  6
Continuous
 62
     7
370
    30
100
AcDbLine
 10
579.3728474075
 20
408.5344344034
 30
0.0
 11
551.3728474075
 21
408.5344344034
 31
0.0
  0
LINE
  5
B1
330
1F
100
AcDbEntity
  8
0
  6
Continuous
 62
     7
370
    30
100
AcDbLine
 10
862.8407191079
 20
411.5290107782
 30
0.0
 11
862.8407191079
 21
409.9670437782
 31
0.0
  0
LINE
  5
B2
330
1F
100
AcDbEntity
  8
0
  6
Continuous
 62
     7
370
    30
100
AcDbLine
 10
862.8407191079
 20
411.5290107782
 30
0.0
 11
861.632209741
 21
411.5290107782
 31
0.0
  0
LINE
  5
B3
330
1F
100
AcDbEntity
  8
0
  6
Continuous
 62
     7
370
    30
100
AcDbLine
 10
862.8407191079
 20
409.9670437782
 30
0.0
 11
852.3728962594
 21
409.9670437782
 31
0.0
  0
LINE
  5
B4
330
1F
100
AcDbEntity
  8
0
  6
Continuous
 62
     7
370
    30
100
AcDbLine
 10
865.3779418005
 20
411.5290107782
 30
0.0
 11
862.8407191079
 21
411.5290107782
 31
0.0
  0
LINE
  5
B5
330
1F
100
AcDbEntity
  8
0
  6
Continuous
 62
     7
370
    30
100
AcDbLine
 10
862.8407191079
 20
409.9670437782
 30
0.0
 11
865.3779418005
 21
409.9670437782
 31
0.0
  0
LINE
  5
B6
330
1F
100
AcDbEntity
  8
0
  6
Continuous
 62
     7
370
    30
100
AcDbLine
 10
878.1228962594
 20
411.5290107782
 30
0.0
 11
865.3779418005
 21
411.5290107782
 31
0.0
  0
LINE
  5
B7
330
1F
100
AcDbEntity
  8
0
  6
Continuous
 62
     7
370
    30
100
AcDbLine
 10
865.3779418005
 20
409.9670437782
 30
0.0
 11
878.1228962594
 21
409.9670437782
 31
0.0
  0
LINE
  5
B8
330
1F
100
AcDbEntity
  8
0
  6
Continuous
 62
     7
370
    30
100
AcDbLine
 10
26.9771037406
 20
419.7170127445
 30
0.0
 11
26.9771037406
 21
411.5290107782
 31
0.0
  0
SPLINE
  5
B9
330
1F
100
AcDbEntity
  8
0
  6
Continuous
 62
     7
370
    30
100
AcDbSpline
210
0.0
220
0.0
230
1.0
 70
     8
 71
     3
 72
    44
 73
    40
 74
     0
 42
0.000000001
 43
0.00000001
 40
0.0
 40
0.0
 40
0.0
 40
0.0
 40
0.024141798511138
 40
0.0463807607793285
 40
0.0671554635656931
 40
0.0865737063923509
 40
0.1047199232912015
 40
0.1287644827159296
 40
0.1536941977379575
 40
0.1795153363228531
 40
0.2099072788359498
 40
0.2406622611929357
 40
0.2714459548184175
 40
0.3022185990587876
 40
0.3329404460711267
 40
0.3635720561957921
 40
0.3806729571648622
 40
0.3977266446896171
 40
0.4152003468105099
 40
0.4342644870626686
 40
0.45497364890332
 40
0.4773236608610678
 40
0.4998912311043027
 40
0.5238963277149183
 40
0.5493202632027456
 40
0.5761377597840592
 40
0.604316162572757
 40
0.6322182751108657
 40
0.6612625216157624
 40
0.6913996934865623
 40
0.7225729331382718
 40
0.7547176323277699
 40
0.7877615034150517
 40
0.8216248414476884
 40
0.8562209882779547
 40
0.8914570015424105
 40
0.9272345216863365
 40
0.9634508199358857
 40
1.0
 40
1.0
 40
1.0
 40
1.0
 10
30.37709945409966
 20
423.1170437782384
 30
0.0
 10
30.33412354797565
 20
423.1165762248241
 30
0.0
 10
30.25155906048332
 20
423.1156779701621
 30
0.0
 10
30.13217840548688
 20
423.1088114868173
 30
0.0
 10
30.0214682777919
 20
423.0989732963852
 30
0.0
 10
29.91836085946093
 20
423.0864497760042
 30
0.0
 10
29.80991425509416
 20
423.0700377025383
 30
0.0
 10
29.6924090453029
 20
423.0482450988239
 30
0.0
 10
29.56249697468749
 20
423.018944792205
 30
0.0
 10
29.42293667988394
 20
422.9815662157858
 30
0.0
 10
29.2752530379079
 20
422.9349359619898
 30
0.0
 10
29.12168878842297
 20
422.8782072056807
 30
0.0
 10
28.97042034919906
 20
422.8138598844466
 30
0.0
 10
28.8224912560528
 20
422.7423026691654
 30
0.0
 10
28.67842875374404
 20
422.663817556925
 30
0.0
 10
28.55910315630661
 20
422.5911448806394
 30
0.0
 10
28.46291483011376
 20
422.5275021113499
 30
0.0
 10
28.38764824753254
 20
422.4747464182122
 30
0.0
 10
28.31103311379313
 20
422.4178864429431
 30
0.0
 10
28.23096625708438
 20
422.3548232350915
 30
0.0
 10
28.14625685398659
 20
422.283706255145
 30
0.0
 10
28.0593588055354
 20
422.2055934463531
 30
0.0
 10
27.97104674743856
 20
422.120389899139
 30
0.0
 10
27.88210978192967
 20
422.0280695559055
 30
0.0
 10
27.79178587692738
 20
421.9267148797089
 30
0.0
 10
27.70098063010717
 20
421.8159916674162
 30
0.0
 10
27.61238979866776
 20
421.6979169625278
 30
0.0
 10
27.52684726281551
 20
421.5727842684582
 30
0.0
 10
27.44514482894189
 20
421.4409835252677
 30
0.0
 10
27.366817078184
 20
421.3004371750396
 30
0.0
 10
27.29289095638615
 20
421.15133296639
 30
0.0
 10
27.2244003679627
 20
420.9939881451973
 30
0.0
 10
27.16236686994317
 20
420.8288557038313
 30
0.0
 10
27.10776940057613
 20
420.6565270296142
 30
0.0
 10
27.06154838626079
 20
420.4777298736356
 30
0.0
 10
27.02447236535377
 20
420.2933213659056
 30
0.0
 10
26.99753240015029
 20
420.1042758869705
 30
0.0
 10
26.98032786105309
 20
419.9116680629447
 30
0.0
 10
26.97818170686639
 20
419.7821215334359
 30
0.0
 10
26.97710372074391
 20
419.71705194902
 30
0.0
  0
LINE
  5
BA
330
1F
100
AcDbEntity
  8
0
  6
Continuous
 62
     7
370
    30
100
AcDbLine
 10
53.276983663
 20
410.5170437782
 30
0.0
 11
325.1271525925
 21
410.5170437782
 31
0.0
  0
LINE
  5
BB
330
1F
100
AcDbEntity
  8
0
  6
Continuous
 62
     7
370
    30
100
AcDbLine
 10
325.1271525925
 20
423.1170437782
 30
0.0
 11
30.3770994701
 21
423.1170437782
 31
0.0
  0
LINE
  5
BC
330
1F
100
AcDbEntity
  8
0
  6
Continuous
 62
     7
370
    30
100
AcDbLine
 10
28.2271037406
 20
409.9670437782
 30
0.0
 11
28.2271037406
 21
393.9670437782
 31
0.0
  0
LINE
  5
BD
330
1F
100
AcDbEntity
  8
0
  6
Continuous
 62
     7
370
    30
100
AcDbLine
 10
51.0271037406
 20
393.9670437782
 30
0.0
 11
51.0271037406
 21
409.9670437782
 31
0.0
  0
ARC
  5
BE
330
1F
100
AcDbEntity
  8
0
  6
Continuous
 62
     7
370
    30
100
AcDbCircle
 10
50.0271037406
 20
393.9670437782
 30
0.0
 40
1.0
100
AcDbArc
 50
270.0
 51
0.0
  0
ARC
  5
BF
330
1F
100
AcDbEntity
  8
0
  6
Continuous
 62
     7
370
    30
100
AcDbCircle
 10
29.2271037406
 20
393.9670437782
 30
0.0
 40
1.000000000000004
100
AcDbArc
 50
180.0
 51
270.0
  0
LINE
  5
C0
330
1F
100
AcDbEntity
  8
0
  6
Continuous
 62
     7
370
    30
100
AcDbLine
 10
354.1271525921
 20
450.8329562218
 30
0.0
 11
353.9271525925
 21
451.0329562218
 31
0.0
  0
LINE
  5
C1
330
1F
100
AcDbEntity
  8
0
  6
Continuous
 62
     7
370
    30
100
AcDbLine
 10
325.3271525925
 20
451.0329562218
 30
0.0
 11
325.1271525928
 21
450.8329562218
 31
0.0
  0
LINE
  5
C2
330
1F
100
AcDbEntity
  8
0
  6
Continuous
 62
     7
370
    30
100
AcDbLine
 10
325.1271525925
 20
409.0344344034
 30
0.0
 11
325.6271525916
 21
408.5344344034
 31
0.0
  0
LINE
  5
C3
330
1F
100
AcDbEntity
  8
0
  6
Continuous
 62
     7
370
    30
100
AcDbLine
 10
353.6271525934
 20
408.5344344034
 30
0.0
 11
354.1271525925
 21
409.0344344034
 31
0.0
  0
LINE
  5
C4
330
1F
100
AcDbEntity
  8
0
  6
Continuous
 62
     7
370
    30
100
AcDbLine
 10
354.1271525925
 20
409.0344344034
 30
0.0
 11
354.1271525925
 21
450.8329562218
 31
0.0
  0
LINE
  5
C5
330
1F
100
AcDbEntity
  8
0
  6
Continuous
 62
     7
370
    30
100
AcDbLine
 10
325.1271525925
 20
450.8329562218
 30
0.0
 11
325.1271525925
 21
423.1170437782
 31
0.0
  0
LINE
  5
C6
330
1F
100
AcDbEntity
  8
0
  6
Continuous
 62
     7
370
    30
100
AcDbLine
 10
325.1271525925
 20
410.5170437782
 30
0.0
 11
325.1271525925
 21
409.0344344034
 31
0.0
  0
LINE
  5
C7
330
1F
100
AcDbEntity
  8
0
  6
Continuous
 62
     7
370
    30
100
AcDbLine
 10
26.8771037406
 20
411.5290107782
 30
0.0
 11
26.8771037406
 21
409.9670437782
 31
0.0
  0
LINE
  5
C8
330
1F
100
AcDbEntity
  8
0
  6
Continuous
 62
     7
370
    30
100
AcDbLine
 10
52.6271037406
 20
409.9670437782
 30
0.0
 11
52.6271037406
 21
410.6135537765
 31
0.0
  0
SPLINE
  5
C9
330
1F
100
AcDbEntity
  8
0
  6
Continuous
 62
     7
370
    30
100
AcDbSpline
210
0.0
220
0.0
230
1.0
 70
     8
 71
     3
 72
    53
 73
    49
 74
     0
 42
0.000000001
 43
0.00000001
 40
0.0
 40
0.0
 40
0.0
 40
0.0
 40
0.0171471712636414
 40
0.0356463698069824
 40
0.0541723854569056
 40
0.0726984014193807
 40
0.0953936109001573
 40
0.1180919068622842
 40
0.1407871210592385
 40
0.1635941623965813
 40
0.1864043295032511
 40
0.2092113782900935
 40
0.238771181565907
 40
0.2683309924217136
 40
0.2979997009568459
 40
0.327668418203993
 40
0.3461646637482165
 40
0.3646609106793506
 40
0.3831835614822153
 40
0.4017062136979418
 40
0.4243928931531775
 40
0.4470826014472665
 40
0.4697692917932406
 40
0.4925654973341944
 40
0.5153647616599293
 40
0.5381609772735558
 40
0.5676971447105458
 40
0.5972333189383953
 40
0.626875873947974
 40
0.6565184341975498
 40
0.6793313325938815
 40
0.7021442322286074
 40
0.7250058380349856
 40
0.7478674445159023
 40
0.7672963697052838
 40
0.7867252949576523
 40
0.8061842500537619
 40
0.8256432049432385
 40
0.8435664572618747
 40
0.861489709247612
 40
0.8794365486908807
 40
0.8973833876281634
 40
0.9147257458185976
 40
0.9320681034291516
 40
0.9494318738298677
 40
0.9667956435215552
 40
0.9833954726440152
 40
0.9999999999999999
 40
0.9999999999999999
 40
0.9999999999999999
 40
0.9999999999999999
 10
53.27694031440517
 20
410.5170687270009
 30
0.0
 10
53.27660769708437
 20
410.5171239547402
 30
0.0
 10
53.27591623609413
 20
410.5172387648384
 30
0.0
 10
53.26887974442346
 20
410.5183206685529
 30
0.0
 10
53.25724680309779
 20
410.5200988852679
 30
0.0
 10
53.23942594413433
 20
410.52281286171
 30
0.0
 10
53.21421735336062
 20
410.5266412142431
 30
0.0
 10
53.18013179607006
 20
410.5318006487779
 30
0.0
 10
53.13877987051896
 20
410.5380383565098
 30
0.0
 10
53.09012863578988
 20
410.5453511003944
 30
0.0
 10
53.03417761933132
 20
410.5537256390425
 30
0.0
 10
52.96480743549365
 20
410.5640604297545
 30
0.0
 10
52.87936284378381
 20
410.5767178932919
 30
0.0
 10
52.77482680888779
 20
410.5920868419481
 30
0.0
 10
52.65827436995879
 20
410.6090800584614
 30
0.0
 10
52.54591004299797
 20
410.6253092498484
 30
0.0
 10
52.44257413537884
 20
410.6401084162918
 30
0.0
 10
52.35200773927545
 20
410.6529904812095
 30
0.0
 10
52.25691535891308
 20
410.6664192322448
 30
0.0
 10
52.14986535590715
 20
410.6814217284772
 30
0.0
 10
52.02969394502893
 20
410.6981144636554
 30
0.0
 10
51.89514073283819
 20
410.7166104455154
 30
0.0
 10
51.75388346274623
 20
410.7358137397206
 30
0.0
 10
51.60595285056696
 20
410.7556895821778
 30
0.0
 10
51.45140332497972
 20
410.776197300199
 30
0.0
 10
51.27470551500907
 20
410.7993373809877
 30
0.0
 10
51.07361379265579
 20
410.8252583283961
 30
0.0
 10
50.84546772363668
 20
410.8541070310039
 30
0.0
 10
50.60696967047051
 20
410.8836520028157
 30
0.0
 10
50.37740080389064
 20
410.9114741990977
 30
0.0
 10
50.15969382737329
 20
410.9373178599935
 30
0.0
 10
49.95597821274433
 20
410.9610494045139
 30
0.0
 10
49.74659027242223
 20
410.9849641078059
 30
0.0
 10
49.5423885836131
 20
411.0078077218185
 30
0.0
 10
49.34452499931425
 20
411.0295010638068
 30
0.0
 10
49.15380291739035
 20
411.0500133188302
 30
0.0
 10
48.95928166801994
 20
411.0705193284059
 30
0.0
 10
48.76624535889979
 20
411.0904489408832
 30
0.0
 10
48.57518849450076
 20
411.1097669695738
 30
0.0
 10
48.38639747085472
 20
411.1284640640425
 30
0.0
 10
48.19462215250559
 20
411.1470517503356
 30
0.0
 10
48.00210673185295
 20
411.1652981927665
 30
0.0
 10
47.80910627162282
 20
411.1831772848204
 30
0.0
 10
47.61570211959193
 20
411.2006804656713
 30
0.0
 10
47.41974558217682
 20
411.2179927633273
 30
0.0
 10
47.22415062490548
 20
411.2348351370853
 30
0.0
 10
47.02935167398825
 20
411.2512169588245
 30
0.0
 10
46.8996672491101
 20
411.2617676741398
 30
0.0
 10
46.83481586185523
 20
411.2670437782316
 30
0.0
  0
LINE
  5
CA
330
1F
100
AcDbEntity
  8
0
  6
Continuous
 62
     7
370
    30
100
AcDbLine
 10
46.8348158619
 20
411.2670437782
 30
0.0
 11
45.5106796516
 21
411.2670437782
 31
0.0
  0
LINE
  5
CB
330
1F
100
AcDbEntity
  8
0
  6
Continuous
 62
     7
370
    30
100
AcDbLine
 10
50.0271037406
 20
392.9670437782
 30
0.0
 11
29.2271037406
 21
392.9670437782
 31
0.0
  0
LINE
  5
CC
330
1F
100
AcDbEntity
  8
0
  6
Continuous
 62
     7
370
    30
100
AcDbLine
 10
325.3271525925
 20
451.0329562218
 30
0.0
 11
353.9271525925
 21
451.0329562218
 31
0.0
  0
LINE
  5
CD
330
1F
100
AcDbEntity
  8
0
  6
Continuous
 62
     7
370
    30
100
AcDbLine
 10
354.1271525925
 20
450.8329562218
 30
0.0
 11
325.1271525925
 21
450.8329562218
 31
0.0
  0
LINE
  5
CE
330
1F
100
AcDbEntity
  8
0
  6
Continuous
 62
     7
370
    30
100
AcDbLine
 10
325.1271525925
 20
409.0344344034
 30
0.0
 11
354.1271525925
 21
409.0344344034
 31
0.0
  0
LINE
  5
CF
330
1F
100
AcDbEntity
  8
0
  6
Continuous
 62
     7
370
    30
100
AcDbLine
 10
353.6271525925
 20
408.5344344034
 30
0.0
 11
325.6271525925
 21
408.5344344034
 31
0.0
  0
LINE
  5
D0
330
1F
100
AcDbEntity
  8
0
  6
Continuous
 62
     7
370
    30
100
AcDbLine
 10
26.8771037406
 20
409.9670437782
 30
0.0
 11
39.6321492818
 21
409.9670437782
 31
0.0
  0
LINE
  5
D1
330
1F
100
AcDbEntity
  8
0
  6
Continuous
 62
     7
370
    30
100
AcDbLine
 10
39.6321492818
 20
411.5290107782
 30
0.0
 11
26.8771037406
 21
411.5290107782
 31
0.0
  0
LINE
  5
D2
330
1F
100
AcDbEntity
  8
0
  6
Continuous
 62
     7
370
    30
100
AcDbLine
 10
42.1693719744
 20
409.9670437782
 30
0.0
 11
42.1693719744
 21
411.5290107782
 31
0.0
  0
LINE
  5
D3
330
1F
100
AcDbEntity
  8
0
  6
Continuous
 62
     7
370
    30
100
AcDbLine
 10
42.1693719744
 20
411.5290107782
 30
0.0
 11
39.6321492818
 21
411.5290107782
 31
0.0
  0
LINE
  5
D4
330
1F
100
AcDbEntity
  8
0
  6
Continuous
 62
     7
370
    30
100
AcDbLine
 10
39.6321492818
 20
409.9670437782
 30
0.0
 11
42.1693719744
 21
409.9670437782
 31
0.0
  0
LINE
  5
D5
330
1F
100
AcDbEntity
  8
0
  6
Continuous
 62
     7
370
    30
100
AcDbLine
 10
43.3776428831
 20
411.5290107782
 30
0.0
 11
42.1693719744
 21
411.5290107782
 31
0.0
  0
LINE
  5
D6
330
1F
100
AcDbEntity
  8
0
  6
Continuous
 62
     7
370
    30
100
AcDbLine
 10
52.6271037406
 20
409.9670437782
 30
0.0
 11
42.1693719744
 21
409.9670437782
 31
0.0
  0
SPLINE
  5
D7
330
1F
100
AcDbEntity
  8
0
  6
Continuous
 62
     7
370
    30
100
AcDbSpline
210
0.0
220
0.0
230
1.0
 70
     8
 71
     3
 72
    97
 73
    93
 74
     0
 42
0.000000001
 43
0.00000001
 40
0.0
 40
0.0
 40
0.0
 40
0.0
 40
0.0057513119389519
 40
0.0136317633906773
 40
0.0236415344939578
 40
0.0336954681599735
 40
0.0452519151982601
 40
0.0583108393324877
 40
0.0714336608889803
 40
0.0826113300285444
 40
0.0931503855392761
 40
0.1047518024864636
 40
0.1154672706960206
 40
0.1252975935585123
 40
0.1342438208254035
 40
0.1427296901767101
 40
0.1522987783198129
 40
0.1629537360374571
 40
0.1746964682252771
 40
0.1875283846727771
 40
0.2014505535079604
 40
0.217952729561892
 40
0.232513038247939
 40
0.2451313692397493
 40
0.2495574240360713
 40
0.2536837079988967
 40
0.2575102238027632
 40
0.2610369750977594
 40
0.2642639668478551
 40
0.2671912058424331
 40
0.2940287552251268
 40
0.3198248311359995
 40
0.344584831796562
 40
0.3683148733225835
 40
0.3910219149459817
 40
0.4215303208219142
 40
0.4520374369382454
 40
0.4788876346542655
 40
0.4819025268913119
 40
0.4849174708883078
 40
0.4879324698558404
 40
0.4909475270043212
 40
0.4939626455439765
 40
0.4969778286848347
 40
0.49999307963672
 40
0.5016839867298236
 40
0.5068589297672091
 40
0.5152003059564789
 40
0.5212547217690264
 40
0.5283021588608694
 40
0.5363426027359501
 40
0.5453760355848907
 40
0.554575915456089
 40
0.5613695578609039
 40
0.5679377667456187
 40
0.5742805706289662
 40
0.5837922867403209
 40
0.5927476473779222
 40
0.6011468204738327
 40
0.6089900115725216
 40
0.6300963635325374
 40
0.6521186319797131
 40
0.6750625248630687
 40
0.7067623916472456
 40
0.7110354806963969
 40
0.7153364719655169
 40
0.7196653860190658
 40
0.7240222430259232
 40
0.7284070627691875
 40
0.7328198646556849
 40
0.7415338286307291
 40
0.7524648968971213
 40
0.7656130223201322
 40
0.7809780956254071
 40
0.7985599634781686
 40
0.8190062465274327
 40
0.8370185691692031
 40
0.8526012790337324
 40
0.8657613060172786
 40
0.8814557941292318
 40
0.899704030825967
 40
0.9059682112439421
 40
0.9124852125072781
 40
0.9192551170856258
 40
0.9262779983883582
 40
0.9335539220166877
 40
0.9499698291327616
 40
0.9642492045471611
 40
0.9763919290877997
 40
0.986397934560623
 40
0.9942672329460837
 40
1.0
 40
1.0
 40
1.0
 40
1.0
 10
465.32773155482
 20
24.63210970888322
 30
0.0
 10
465.3273535828918
 20
24.55580440308422
 30
0.0
 10
465.326457713576
 20
24.37494551642541
 30
0.0
 10
465.3166552885183
 20
24.06142962942306
 30
0.0
 10
465.2952084199751
 20
23.69131505415714
 30
0.0
 10
465.2575498969161
 20
23.27351736074426
 30
0.0
 10
465.2007713070489
 20
22.81708882164865
 30
0.0
 10
465.1197614367495
 20
22.32300496338743
 30
0.0
 10
465.0195060036759
 20
21.83761632409268
 30
0.0
 10
464.9087801051868
 20
21.38885584724545
 30
0.0
 10
464.7882851497027
 20
20.96352771255069
 30
0.0
 10
464.6549097422911
 20
20.54843576077611
 30
0.0
 10
464.5102325785385
 20
20.14712381384712
 30
0.0
 10
464.3656846798127
 20
19.78346253029609
 30
0.0
 10
464.2222114686381
 20
19.45142826248583
 30
0.0
 10
464.071230245574
 20
19.12676598838006
 30
0.0
 10
463.9011228083365
 20
18.78656843983142
 30
0.0
 10
463.6999702088768
 20
18.41432015765362
 30
0.0
 10
463.4642290209819
 20
18.01248469663072
 30
0.0
 10
463.1901319266383
 20
17.5839770240748
 30
0.0
 10
462.8625551462142
 20
17.11623863064368
 30
0.0
 10
462.4991941282687
 20
16.64665188640943
 30
0.0
 10
462.1245914160635
 20
16.20831210784954
 30
0.0
 10
461.8402936641937
 20
15.90294996082628
 30
0.0
 10
461.6444885357359
 20
15.70357590116814
 30
0.0
 10
461.5284367813614
 20
15.58853054162387
 30
0.0
 10
461.4194860754864
 20
15.48318128603118
 30
0.0
 10
461.3179480665863
 20
15.38723659662786
 30
0.0
 10
461.2241045922476
 20
15.30042258523015
 30
0.0
 10
460.9014134037176
 20
15.00762174473
 30
0.0
 10
460.3344075294229
 20
14.53938988895423
 30
0.0
 10
459.4928341941412
 20
13.95408273411489
 30
0.0
 10
458.6422024146493
 20
13.45760165804968
 30
0.0
 10
457.7924373581964
 20
13.04491599589111
 30
0.0
 10
456.8434988142271
 20
12.66691910748166
 30
0.0
 10
455.7791000596358
 20
12.34310112123035
 30
0.0
 10
454.6346999282858
 20
12.11196648644827
 30
0.0
 10
453.8374343566714
 20
12.02471014365467
 30
0.0
 10
453.4021010827627
 20
11.99767035590685
 30
0.0
 10
453.2822807957039
 20
11.99136788613272
 30
0.0
 10
453.1624070324195
 20
11.98620229493205
 30
0.0
 10
453.0424891373673
 20
11.98217387553177
 30
0.0
 10
452.9225396348823
 20
11.97928303273396
 30
0.0
 10
452.8025638106109
 20
11.97753002849902
 30
0.0
 10
452.7001580487719
 20
11.97700502293078
 30
0.0
 10
452.5690592455031
 20
11.97730341310457
 30
0.0
 10
452.3673106202279
 20
11.97994202251093
 30
0.0
 10
452.107786338313
 20
11.98885812971132
 30
0.0
 10
451.823749835301
 20
12.0050627577287
 30
0.0
 10
451.5440815016535
 20
12.02680878323256
 30
0.0
 10
451.225680475727
 20
12.05918521913693
 30
0.0
 10
450.8799305779448
 20
12.10375341614653
 30
0.0
 10
450.5519401384797
 20
12.1556350389618
 30
0.0
 10
450.25754490292
 20
12.20982686771013
 30
0.0
 10
450.0014758685216
 20
12.26255118776739
 30
0.0
 10
449.7113633863596
 20
12.32845401898
 30
0.0
 10
449.392246800857
 20
12.40936543220847
 30
0.0
 10
449.0493819103392
 20
12.50698183524998
 30
0.0
 10
448.7304360428454
 20
12.60727887350163
 30
0.0
 10
448.2616853419369
 20
12.76795404702816
 30
0.0
 10
447.6322481085407
 20
13.01627630817623
 30
0.0
 10
446.8404832913407
 20
13.39253231603385
 30
0.0
 10
445.9556041550409
 20
13.89246927519519
 30
0.0
 10
445.3109015406582
 20
14.3336626668403
 30
0.0
 10
444.8890934213424
 20
14.65869195232763
 30
0.0
 10
444.7553828102007
 20
14.76461740661625
 30
0.0
 10
444.6222855155595
 20
14.87301965921375
 30
0.0
 10
444.4898508430122
 20
14.98391439929017
 30
0.0
 10
444.3581329377471
 20
15.09731389415495
 30
0.0
 10
444.1849153566648
 20
15.25064852173727
 30
0.0
 10
443.9513905523211
 20
15.46609196175205
 30
0.0
 10
443.6423356230065
 20
15.76933308448689
 30
0.0
 10
443.2846530273093
 20
16.14777446179769
 30
0.0
 10
442.8868133361448
 20
16.60822410592491
 30
0.0
 10
442.4541483346028
 20
17.16452098147628
 30
0.0
 10
442.0352479097164
 20
17.77480427444075
 30
0.0
 10
441.6669932150746
 20
18.38734515580384
 30
0.0
 10
441.3763925182573
 20
18.93401392697605
 30
0.0
 10
441.1235710284093
 20
19.46628613466459
 30
0.0
 10
440.8812324294569
 20
20.04260450314907
 30
0.0
 10
440.7008974883515
 20
20.54499902793919
 30
0.0
 10
440.5768572412925
 20
20.93753980510302
 30
0.0
 10
440.5036903301044
 20
21.18639119689089
 30
0.0
 10
440.4331078280563
 20
21.44641559136543
 30
0.0
 10
440.3657596657505
 20
21.7176695724878
 30
0.0
 10
440.2765037416292
 20
22.1151797320466
 30
0.0
 10
440.1845013112181
 20
22.61057713707729
 30
0.0
 10
440.1078353414904
 20
23.17375647682487
 30
0.0
 10
440.0625315480834
 20
23.6549446770147
 30
0.0
 10
440.0392140910736
 20
24.05250919658727
 30
0.0
 10
440.0292030730148
 20
24.36557482370352
 30
0.0
 10
440.0281692527827
 20
24.54603886109044
 30
0.0
 10
440.0277335358254
 20
24.6220977723314
 30
0.0
  0
LINE
  5
D8
330
1F
100
AcDbEntity
  8
0
  6
Continuous
 62
     7
370
    30
100
AcDbLine
 10
465.2118165268
 20
317.5474678207
 30
0.0
 11
465.3277315548
 21
24.6321097089
 31
0.0
  0
LINE
  5
D9
330
1F
100
AcDbEntity
  8
0
  6
Continuous
 62
     7
370
    30
100
AcDbLine
 10
440.0277335358
 20
24.6220977723
 30
0.0
 11
439.9118187685
 21
317.5367970667
 31
0.0
  0
CIRCLE
  5
DA
330
1F
100
AcDbEntity
  8
0
  6
Continuous
 62
     7
370
    30
100
AcDbCircle
 10
452.5590139015
 20
324.6271525925
 30
0.0
 40
14.30000000000018
  0
CIRCLE
  5
DB
330
1F
100
AcDbEntity
  8
0
  6
Continuous
 62
     7
370
    30
100
AcDbCircle
 10
452.5590139015
 20
324.6271525925
 30
0.0
 40
14.50000000000017
  0
ARC
  5
DC
330
1F
100
AcDbEntity
  8
0
  6
Continuous
 62
     7
370
    30
100
AcDbCircle
 10
452.6777325453
 20
24.6271037406
 30
0.0
 40
12.75000000000014
100
AcDbArc
 50
180.0226735859
 51
0.0226735859
  0
LINE
  5
DD
330
1F
100
AcDbEntity
  8
0
  6
Continuous
 62
     7
370
    30
100
AcDbLine
 10
439.9277335437
 20
24.6220581995
 30
0.0
 11
439.9267294917
 21
27.1592808921
 31
0.0
  0
LWPOLYLINE
  5
DE
330
1F
100
AcDbEntity
  8
0
  6
Continuous
 62
     7
370
    30
100
AcDbPolyline
 90
        3
 70
   128
 43
0.0
 10
439.9267294917
 20
27.1592808921
 10
439.9880716657
 20
27.4506665183
 10
440.025752013
 20
27.6149773339
  0
LWPOLYLINE
  5
DF
330
1F
100
AcDbEntity
  8
0
  6
Continuous
 62
     7
370
    30
100
AcDbPolyline
 90
        3
 70
   128
 43
0.0
 10
465.3279040224
 20
27.6226273342
 10
465.365154721
 20
27.4607089596
 10
465.426727495
 20
27.1693719744
  0
LINE
  5
E0
330
1F
100
AcDbEntity
  8
0
  6
Continuous
 62
     7
370
    30
100
AcDbLine
 10
465.426727495
 20
27.1693719744
 30
0.0
 11
465.427731547
 21
24.6321492818
 31
0.0
  0
SPLINE
  5
E1
330
1F
100
AcDbEntity
  8
0
  6
Continuous
 62
     7
370
    30
100
AcDbSpline
210
0.0
220
0.0
230
1.0
 70
     8
 71
     3
 72
   179
 73
   175
 74
     0
 42
0.000000001
 43
0.00000001
 40
0.0
 40
0.0
 40
0.0
 40
0.0
 40
0.0100082837472968
 40
0.0189118998232438
 40
0.0267112512597829
 40
0.0334063839631486
 40
0.0388737711290103
 40
0.0432897894852507
 40
0.046654154493275
 40
0.0491674847014595
 40
0.0518229438669109
 40
0.0547552295291135
 40
0.0579644491452208
 40
0.0645676967275017
 40
0.0721031229999519
 40
0.0801462329817543
 40
0.0873593706765624
 40
0.0946024668134628
 40
0.101875726386146
 40
0.1091793481777517
 40
0.1164891017930909
 40
0.1229615208596412
 40
0.126992700185695
 40
0.1303176940474241
 40
0.1329360222421692
 40
0.1352164557188467
 40
0.1382881522137827
 40
0.1422303354220136
 40
0.1470438456145193
 40
0.152729683680419
 40
0.1649924181071928
 40
0.1761656355277276
 40
0.1862469362450773
 40
0.1907514908328685
 40
0.1951448509531163
 40
0.1994269096395985
 40
0.2035975610917888
 40
0.2081208483552051
 40
0.2135314377707314
 40
0.2197451373070862
 40
0.2257954441257637
 40
0.2344269163047867
 40
0.2419846967671916
 40
0.2485143253244587
 40
0.254152143232472
 40
0.2580255609041334
 40
0.2613652609722267
 40
0.265264657391851
 40
0.2702569912170115
 40
0.2762090615331123
 40
0.2827220977415591
 40
0.289842723908103
 40
0.2970586207147265
 40
0.3037676894574847
 40
0.3098098508422098
 40
0.3151242095430128
 40
0.3204253127934156
 40
0.3257202547732961
 40
0.3310192419051952
 40
0.3363157922081016
 40
0.3413150217365188
 40
0.3463681284692146
 40
0.3514951051280265
 40
0.3572840270307247
 40
0.3640423038456603
 40
0.3734889610019566
 40
0.3818473836983916
 40
0.3875271527594168
 40
0.3933733152324445
 40
0.4000025030455934
 40
0.4078076978293976
 40
0.416944704382188
 40
0.4212053577309515
 40
0.4246390668556475
 40
0.4272706289122473
 40
0.4300339113514714
 40
0.4333950177214209
 40
0.4373549563467694
 40
0.4419020347705988
 40
0.446420757845718
 40
0.4527778949060438
 40
0.458224562738598
 40
0.4631735643256699
 40
0.4683765890445983
 40
0.4739464087821464
 40
0.4797139595742586
 40
0.4856103714408804
 40
0.4912581508776592
 40
0.4966625634432023
 40
0.502790906453092
 40
0.5099590887285076
 40
0.5162387512467551
 40
0.5214810850267954
 40
0.5256209247662109
 40
0.5291733769965766
 40
0.5334025197655932
 40
0.5399340927153344
 40
0.5463189420992515
 40
0.552239986077597
 40
0.5580392891528809
 40
0.5638973439252872
 40
0.5708529959913398
 40
0.5755998478648668
 40
0.5807607843243694
 40
0.5854400273714948
 40
0.5893569266668417
 40
0.5950887341666381
 40
0.6014131418095957
 40
0.6094563183305428
 40
0.6167992228253252
 40
0.623567788587688
 40
0.6304427420202197
 40
0.6383681220936589
 40
0.6477615695329764
 40
0.6527489203770651
 40
0.6570580837860139
 40
0.6606883983214089
 40
0.6638897173149304
 40
0.6670418494219648
 40
0.6701487440429655
 40
0.6736157684742212
 40
0.6780271945329872
 40
0.6827986646188775
 40
0.6878448618044775
 40
0.6921214069573831
 40
0.6955931527123665
 40
0.6985985642697093
 40
0.7017417977912646
 40
0.7050349109386271
 40
0.7101589472621086
 40
0.7161952811086814
 40
0.7228526103626458
 40
0.7285673412503069
 40
0.733208813896054
 40
0.7366985114599874
 40
0.7402000501817878
 40
0.7441630100862135
 40
0.7488355634658626
 40
0.7540946468767606
 40
0.7603554204546771
 40
0.7657673729495313
 40
0.7705732684204192
 40
0.7750404919962218
 40
0.7794315176052842
 40
0.7841846753864469
 40
0.7895008925764943
 40
0.7958652867968675
 40
0.8045217368414702
 40
0.8114613612815444
 40
0.8176875053067284
 40
0.8243724532271475
 40
0.8316272967253978
 40
0.8400601401581194
 40
0.8476895377151804
 40
0.8551695115741689
 40
0.8626684401711646
 40
0.8706749687989509
 40
0.8797484785892249
 40
0.8892431361146269
 40
0.8996693561000498
 40
0.910003274113484
 40
0.9206718683062498
 40
0.9315512750531793
 40
0.9412092233534303
 40
0.9500237560594521
 40
0.9557859121415386
 40
0.9615570115660159
 40
0.9675656728496758
 40
0.9741530042744416
 40
0.9787539241096131
 40
0.9831890682192246
 40
0.9876365771129123
 40
0.9932046594314048
 40
1.0
 40
1.0
 40
1.0
 40
1.0
 10
636.7839776489908
 20
65.22852211496057
 30
0.0
 10
636.7601419996233
 20
65.21470043065173
 30
0.0
 10
636.7151015686721
 20
65.18858263506995
 30
0.0
 10
636.6523484812277
 20
65.1516194458616
 30
0.0
 10
636.5978530599021
 20
65.11920014708309
 30
0.0
 10
636.551748023836
 20
65.09150683990127
 30
0.0
 10
636.5137146695726
 20
65.06848152025425
 30
0.0
 10
636.4834841253868
 20
65.05006129399955
 30
0.0
 10
636.4600879360802
 20
65.0357327056398
 30
0.0
 10
636.4407296219239
 20
65.02383122807011
 30
0.0
 10
636.422387733324
 20
65.01251623989131
 30
0.0
 10
636.402520680055
 20
65.00021516372321
 30
0.0
 10
636.3738228220411
 20
64.98237410070877
 30
0.0
 10
636.334953706456
 20
64.95805217306426
 30
0.0
 10
636.2856289954287
 20
64.92689640866845
 30
0.0
 10
636.2353817306969
 20
64.89482629601316
 30
0.0
 10
636.1861945626401
 20
64.86311023579754
 30
0.0
 10
636.1390691311457
 20
64.83242653991391
 30
0.0
 10
636.0921270647609
 20
64.80156090679138
 30
0.0
 10
636.045422313968
 20
64.77054594985633
 30
0.0
 10
636.0007902100547
 20
64.74061054380424
 30
0.0
 10
635.9633791020684
 20
64.71528039878567
 30
0.0
 10
635.9345038593764
 20
64.69558799883552
 30
0.0
 10
635.9137534605123
 20
64.68136460822015
 30
0.0
 10
635.896690774904
 20
64.66962080278223
 30
0.0
 10
635.880165055369
 20
64.65820785106916
 30
0.0
 10
635.860931317204
 20
64.64487509736368
 30
0.0
 10
635.8365434559454
 20
64.62788653351218
 30
0.0
 10
635.8069070427183
 20
64.6071148680447
 30
0.0
 10
635.7604762005544
 20
64.57433131984273
 30
0.0
 10
635.7016725278523
 20
64.53228213401049
 30
0.0
 10
635.6348515846678
 20
64.4836966825666
 30
0.0
 10
635.5840650092355
 20
64.446202026078
 30
0.0
 10
635.546920081944
 20
64.41848759968315
 30
0.0
 10
635.5212474279526
 20
64.39920845353716
 30
0.0
 10
635.496330358952
 20
64.38037774893075
 30
0.0
 10
635.4712907571957
 20
64.36133690071476
 30
0.0
 10
635.4440981553972
 20
64.34052614037623
 30
0.0
 10
635.4129615828855
 20
64.31652043028103
 30
0.0
 10
635.3789678967964
 20
64.29008152655304
 30
0.0
 10
635.339159701583
 20
64.2588317810691
 30
0.0
 10
635.2973063339367
 20
64.22560933989168
 30
0.0
 10
635.2552128772562
 20
64.19178403635674
 30
0.0
 10
635.219265902654
 20
64.16258924175985
 30
0.0
 10
635.1900872142712
 20
64.13867092333659
 30
0.0
 10
635.1667572065702
 20
64.11940325883083
 30
0.0
 10
635.1465285413614
 20
64.10260175868372
 30
0.0
 10
635.1242988808415
 20
64.0840317461157
 30
0.0
 10
635.0974648971487
 20
64.06145614235449
 30
0.0
 10
635.0660901783759
 20
64.03482877277293
 30
0.0
 10
635.0311113219592
 20
64.00484439504294
 30
0.0
 10
634.9941515813549
 20
63.97281215402916
 30
0.0
 10
634.9571177991281
 20
63.9403411764611
 30
0.0
 10
634.9222402559343
 20
63.9094123495768
 30
0.0
 10
634.8908943803293
 20
63.88132414753471
 30
0.0
 10
634.8621502274814
 20
63.85532590222167
 30
0.0
 10
634.8348583970517
 20
63.8304241700575
 30
0.0
 10
634.807748205119
 20
63.80547029900747
 30
0.0
 10
634.7807918367497
 20
63.78043859206404
 30
0.0
 10
634.7544797235747
 20
63.75578808003991
 30
0.0
 10
634.7287140713497
 20
63.73144029076617
 30
0.0
 10
634.7033113886436
 20
63.70723146412028
 30
0.0
 10
634.6766291896162
 20
63.6815821718784
 30
0.0
 10
634.6474129087193
 20
63.65323349829934
 30
0.0
 10
634.611590672258
 20
63.61810272394831
 30
0.0
 10
634.5717688987152
 20
63.57850689125251
 30
0.0
 10
634.5338932494353
 20
63.54026041250134
 30
0.0
 10
634.5021147787329
 20
63.50777496008512
 30
0.0
 10
634.4732685182711
 20
63.47798733724909
 30
0.0
 10
634.4412847925748
 20
63.44459419230424
 30
0.0
 10
634.4043860173632
 20
63.40557232132825
 30
0.0
 10
634.371508419771
 20
63.37027109284084
 30
0.0
 10
634.3456147494036
 20
63.3421298717755
 30
0.0
 10
634.329805223264
 20
63.3248276533888
 30
0.0
 10
634.3163181118232
 20
63.30998518805621
 30
0.0
 10
634.3030272751511
 20
63.29528632630259
 30
0.0
 10
634.2878241399181
 20
63.27837821704311
 30
0.0
 10
634.2700427107022
 20
63.25846960463187
 30
0.0
 10
634.2506833608353
 20
63.2366245238843
 30
0.0
 10
634.2278196864756
 20
63.21060891293935
 30
0.0
 10
634.2036295014799
 20
63.18280474492201
 30
0.0
 10
634.1786711297077
 20
63.15379614213555
 30
0.0
 10
634.1553437498245
 20
63.12640820605055
 30
0.0
 10
634.1322831103579
 20
63.09906399992619
 30
0.0
 10
634.1083406966276
 20
63.07037818014473
 30
0.0
 10
634.0835314989455
 20
63.0403245395106
 30
0.0
 10
634.0587952827465
 20
63.0100143000241
 30
0.0
 10
634.0346910782233
 20
62.98013931251016
 30
0.0
 10
634.0103084657322
 20
62.94958144230102
 30
0.0
 10
633.9841184747481
 20
62.91637253276515
 30
0.0
 10
633.9570798357714
 20
62.8816206131896
 30
0.0
 10
633.9315812213628
 20
62.84839702764312
 30
0.0
 10
633.9103716015989
 20
62.82043752169357
 30
0.0
 10
633.8929610042384
 20
62.79726510282781
 30
0.0
 10
633.8769749115199
 20
62.77582000911218
 30
0.0
 10
633.857903966712
 20
62.75003056716384
 30
0.0
 10
633.8352498320579
 20
62.71905274683258
 30
0.0
 10
633.8106082746888
 20
62.68490125155017
 30
0.0
 10
633.7871621581971
 20
62.65198527135448
 30
0.0
 10
633.7645405934088
 20
62.61983232058756
 30
0.0
 10
633.7406981976957
 20
62.58551904111366
 30
0.0
 10
633.7185824938904
 20
62.55324890755339
 30
0.0
 10
633.6976145104777
 20
62.52226637093956
 30
0.0
 10
633.6796751868396
 20
62.49547354063608
 30
0.0
 10
633.6628920931199
 20
62.47013808669487
 30
0.0
 10
633.6455341004987
 20
62.44368701138235
 30
0.0
 10
633.6262941888755
 20
62.41405458214287
 30
0.0
 10
633.6022926068945
 20
62.3765875598226
 30
0.0
 10
633.5767187704922
 20
62.33601379200683
 30
0.0
 10
633.550987693952
 20
62.29446748333144
 30
0.0
 10
633.5269056381658
 20
62.25494376915149
 30
0.0
 10
633.5023994285217
 20
62.2140748248698
 30
0.0
 10
633.4752332365096
 20
62.16795932854117
 30
0.0
 10
633.4506093433827
 20
62.12527626406118
 30
0.0
 10
633.4302234166536
 20
62.0892787197
 30
0.0
 10
633.4162037141151
 20
62.0642152904073
 30
0.0
 10
633.4041475992755
 20
62.04242880324519
 30
0.0
 10
633.3933470497897
 20
62.02272498134252
 30
0.0
 10
633.3831738291085
 20
62.0039980774922
 30
0.0
 10
633.3727672742248
 20
61.98466910569457
 30
0.0
 10
633.3610518151224
 20
61.96269962087104
 30
0.0
 10
633.3476260775477
 20
61.93722642679462
 30
0.0
 10
633.3326655362459
 20
61.90844250294055
 30
0.0
 10
633.318011036853
 20
61.87981506558375
 30
0.0
 10
633.304842121881
 20
61.85370696762756
 30
0.0
 10
633.2938503265256
 20
61.83164061106926
 30
0.0
 10
633.2840522469447
 20
61.81175961815723
 30
0.0
 10
633.2744981874749
 20
61.79217310100817
 30
0.0
 10
633.2628823954794
 20
61.76809822891201
 30
0.0
 10
633.2484786594451
 20
61.73780827759457
 30
0.0
 10
633.2309300584677
 20
61.70016809051982
 30
0.0
 10
633.2131003478952
 20
61.6610296613181
 30
0.0
 10
633.1969041618474
 20
61.62464304190131
 30
0.0
 10
633.183879101072
 20
61.59479110042678
 30
0.0
 10
633.1730474355002
 20
61.56956450497338
 30
0.0
 10
633.16294368239
 20
61.54570063842656
 30
0.0
 10
633.1518579189469
 20
61.51911493760868
 30
0.0
 10
633.1393336470279
 20
61.48853387729557
 30
0.0
 10
633.1249799089512
 20
61.45273668995561
 30
0.0
 10
633.1102634138513
 20
61.41510135841226
 30
0.0
 10
633.0962106046325
 20
61.37820953376507
 30
0.0
 10
633.0839002441538
 20
61.34512108140759
 30
0.0
 10
633.0726408099243
 20
61.3141869724433
 30
0.0
 10
633.0616160461246
 20
61.28324277602089
 30
0.0
 10
633.05015142056
 20
61.2503292198716
 30
0.0
 10
633.0374179375126
 20
61.21284213635091
 30
0.0
 10
633.0220829074035
 20
61.16634623216995
 30
0.0
 10
633.0061098819814
 20
61.11598975326078
 30
0.0
 10
632.9907506839462
 20
61.06548939734969
 30
0.0
 10
632.9772412868216
 20
61.01939701256846
 30
0.0
 10
632.9640916655853
 20
60.97283828217588
 30
0.0
 10
632.9499415954144
 20
60.92062034036881
 30
0.0
 10
632.9358375798815
 20
60.86596454905201
 30
0.0
 10
632.9222634121135
 20
60.81053980284283
 30
0.0
 10
632.9098345495681
 20
60.7571048736291
 30
0.0
 10
632.8978136545138
 20
60.70257521081297
 30
0.0
 10
632.8856447487044
 20
60.64404916958289
 30
0.0
 10
632.8733086406587
 20
60.58052336554866
 30
0.0
 10
632.8608294592847
 20
60.51093687762148
 30
0.0
 10
632.8489111726466
 20
60.43803178113446
 30
0.0
 10
632.8377315996277
 20
60.36199988115971
 30
0.0
 10
632.8276296748876
 20
60.2845876412116
 30
0.0
 10
632.8189913746254
 20
60.20855308981378
 30
0.0
 10
632.8119908484666
 20
60.13682397991367
 30
0.0
 10
632.8070477862536
 20
60.07745336790314
 30
0.0
 10
632.803453165232
 20
60.02751684402159
 30
0.0
 10
632.800733523773
 20
59.98440844005474
 30
0.0
 10
632.7982920856701
 20
59.93921917786864
 30
0.0
 10
632.7964123501906
 20
59.8968419125563
 30
0.0
 10
632.7950344795463
 20
59.85834371598105
 30
0.0
 10
632.7940656526001
 20
59.82485123730923
 30
0.0
 10
632.7932744874227
 20
59.78870924144099
 30
0.0
 10
632.7926596497117
 20
59.74730505235163
 30
0.0
 10
632.7925741098985
 20
59.71703851488676
 30
0.0
 10
632.7925270944265
 20
59.70040303846698
 30
0.0
  0
LINE
  5
E2
330
1F
100
AcDbEntity
  8
0
  6
Continuous
 62
     7
370
    30
100
AcDbLine
 10
632.7924278458
 20
59.7012043664
 30
0.0
 11
632.7924278458
 21
53.365846619
 31
0.0
  0
LINE
  5
E3
330
1F
100
AcDbEntity
  8
0
  6
Continuous
 62
     7
370
    30
100
AcDbLine
 10
656.9020004695
 20
49.743964395
 30
0.0
 11
861.0343720486
 21
167.6803788826
 31
0.0
  0
SPLINE
  5
E4
330
1F
100
AcDbEntity
  8
0
  6
Continuous
 62
     7
370
    30
100
AcDbSpline
210
0.0
220
0.0
230
1.0
 70
     8
 71
     3
 72
    17
 73
    13
 74
     0
 42
0.000000001
 43
0.00000001
 40
0.0
 40
0.0
 40
0.0
 40
0.0
 40
0.1463164462126475
 40
0.2756231001394167
 40
0.3879315128427788
 40
0.4832766657062537
 40
0.5701962402051015
 40
0.6561543853329049
 40
0.7562357070807694
 40
0.8529528948605754
 40
0.9387103272599895
 40
1.0
 40
1.0
 40
1.0
 40
1.0
 10
632.7953925344284
 20
53.39455061783653
 30
0.0
 10
632.7954497622283
 20
53.37095166845625
 30
0.0
 10
632.7955575648987
 20
53.32649722907788
 30
0.0
 10
632.7966784819059
 20
53.26474881115968
 30
0.0
 10
632.798144263723
 20
53.21177613337659
 30
0.0
 10
632.7997916558802
 20
53.16669195701733
 30
0.0
 10
632.8015821725559
 20
53.12605147482784
 30
0.0
 10
632.8037390613417
 20
53.08409060718579
 30
0.0
 10
632.806336554433
 20
53.04023059062264
 30
0.0
 10
632.8093451170672
 20
52.99589043770244
 30
0.0
 10
632.8122059697193
 20
52.95773986263326
 30
0.0
 10
632.8141268024352
 20
52.93475814025584
 30
0.0
 10
632.8149274112499
 20
52.92517928970882
 30
0.0
  0
LINE
  5
E5
330
1F
100
AcDbEntity
  8
0
  6
Continuous
 62
     7
370
    30
100
AcDbLine
 10
842.9905499871
 20
184.3632952879
 30
0.0
 11
636.7839705197
 21
65.2285179962
 31
0.0
  0
LINE
  5
E6
330
1F
100
AcDbEntity
  8
0
  6
Continuous
 62
     7
370
    30
100
AcDbLine
 10
634.0424278458
 20
48.7188888772
 30
0.0
 11
634.0424278458
 21
38.9504678411
 31
0.0
  0
LINE
  5
E7
330
1F
100
AcDbEntity
  8
0
  6
Continuous
 62
     7
370
    30
100
AcDbLine
 10
656.8424278458
 20
38.9504678411
 30
0.0
 11
656.8424278458
 21
48.4081118983
 31
0.0
  0
SPLINE
  5
E8
330
1F
100
AcDbEntity
  8
0
  6
Continuous
 62
     7
370
    30
100
AcDbSpline
210
0.0
220
0.0
230
1.0
 70
     8
 71
     3
 72
   189
 73
   185
 74
     0
 42
0.000000001
 43
0.00000001
 40
0.0
 40
0.0
 40
0.0
 40
0.0
 40
0.0007202409690341
 40
0.0059127855198196
 40
0.0111051478390495
 40
0.0162986762689803
 40
0.0214948927150075
 40
0.0266952968262282
 40
0.0319013550890293
 40
0.03711449005784
 40
0.0423360697804989
 40
0.047567397478128
 40
0.0528097015556086
 40
0.0580641260363764
 40
0.0633317215331443
 40
0.0686134368831795
 40
0.0739101115911443
 40
0.0792224692330917
 40
0.0845511119798636
 40
0.0898965163962326
 40
0.0952590306616788
 40
0.1006388733393766
 40
0.1060361337917255
 40
0.1114507743034367
 40
0.1168826339286206
 40
0.1223314340282828
 40
0.1277967854113136
 40
0.1332781969393431
 40
0.1387750854061959
 40
0.1442867864601937
 40
0.1498125663043123
 40
0.1553516338880619
 40
0.1609031532968841
 40
0.1664662560499674
 40
0.1720400530354103
 40
0.1776236458402986
 40
0.1832161372707572
 40
0.1888166408999176
 40
0.1944242895276786
 40
0.2000382424817973
 40
0.2056576917330609
 40
0.2112818668359825
 40
0.2169100387393776
 40
0.2225415225373153
 40
0.2281756792505376
 40
0.2338119167412107
 40
0.2394496898709313
 40
0.2450885000136837
 40
0.2507278940330802
 40
0.2563674023032302
 40
0.2620066054545479
 40
0.267645189843
 40
0.2732828790343843
 40
0.2789194314743942
 40
0.2845546381054408
 40
0.2901883199926734
 40
0.2958203259938023
 40
0.3014505304995219
 40
0.3070788312649429
 40
0.312705147346455
 40
0.3183294171539285
 40
0.3239515966239126
 40
0.329571657516485
 40
0.3351895858355591
 40
0.3408053803707609
 40
0.346419051357098
 40
0.3520306192478514
 40
0.3576401135950106
 40
0.3632475720314122
 40
0.3688530393481074
 40
0.3744565666606228
 40
0.3800582106576756
 40
0.3856580329261047
 40
0.3912560993458696
 40
0.3968524795494078
 40
0.4024472464397223
 40
0.4080404757620737
 40
0.4136322457243358
 40
0.4192226366614966
 40
0.4248117307400283
 40
0.4303996116982324
 40
0.4359863646189094
 40
0.4415720757309697
 40
0.4471568322369774
 40
0.4527407221636275
 40
0.4583238342327002
 40
0.4639062577498617
 40
0.469488082509283
 40
0.4750693987117285
 40
0.4806502968944281
 40
0.4862308678706669
 40
0.4918112026775631
 40
0.4973913925302778
 40
0.5029715287811443
 40
0.5085517019507707
 40
0.5141319739921953
 40
0.5197124364600688
 40
0.5252931809135758
 40
0.53087429887815
 40
0.5364558818045325
 40
0.5420380210229323
 40
0.547620807690608
 40
0.5532043327313685
 40
0.5587886867650916
 40
0.5643739600256092
 40
0.5699602422647727
 40
0.5755476226407782
 40
0.5811361895883529
 40
0.5867260306683498
 40
0.5923172323941726
 40
0.5979098800319392
 40
0.6035040573714576
 40
0.6090998464644675
 40
0.6146973273264443
 40
0.6202965775980401
 40
0.6258976721617525
 40
0.6315006827092262
 40
0.6371056772540988
 40
0.6427127195851998
 40
0.6483218686542395
 40
0.6539331778921668
 40
0.6595466944477846
 40
0.6651624583422472
 40
0.6707805015326423
 40
0.6764008468780389
 40
0.6820235070012708
 40
0.6876484830400955
 40
0.6932757632817312
 40
0.6989053216755775
 40
0.7045371162199631
 40
0.7101710872202032
 40
0.7158071554173082
 40
0.7214452199891187
 40
0.727085156428839
 40
0.7327268143099955
 40
0.7383700149514908
 40
0.7440145490023288
 40
0.7496601739720995
 40
0.755306611741214
 40
0.7609535460935833
 40
0.7666005448316755
 40
0.7722471410549651
 40
0.777892875310901
 40
0.7835372411893388
 40
0.7891796841153631
 40
0.7948196006978171
 40
0.8004563387288026
 40
0.8060891979528444
 40
0.8117174317243822
 40
0.8173402496660823
 40
0.8229568214290758
 40
0.8285662816370208
 40
0.8341677360696548
 40
0.8397602691077518
 40
0.8453429524206744
 40
0.8509148548315768
 40
0.8564750532455632
 40
0.862022644475144
 40
0.8675567577487934
 40
0.8730765676451664
 40
0.8785813071608994
 40
0.8840702805974713
 40
0.8895428759437172
 40
0.8949985764368523
 40
0.9004369710068031
 40
0.9058577633438357
 40
0.9112607793769755
 40
0.9166459730061322
 40
0.922013429991305
 40
0.9273633699629257
 40
0.9326961465754812
 40
0.9380122458779573
 40
0.9433122830176951
 40
0.9485969974269071
 40
0.9538672466630075
 40
0.9591239990855011
 40
0.9643683255537187
 40
0.9696013903235953
 40
0.9748244413087612
 40
0.980038799853872
 40
0.985245850148246
 40
0.9904470283866097
 40
0.9956438117634593
 40
1.0
 40
1.0
 40
1.0
 40
1.0
 10
634.042629333915
 20
38.95043530428817
 30
0.0
 10
634.0425645352647
 20
38.9447616109067
 30
0.0
 10
634.0420325736873
 20
38.89818368280719
 30
0.0
 10
634.0442572494376
 20
38.81069848063674
 30
0.0
 10
634.0495238780679
 20
38.68805220304021
 30
0.0
 10
634.0584858928125
 20
38.56551355730954
 30
0.0
 10
634.070724530379
 20
38.44311382754469
 30
0.0
 10
634.0863493134456
 20
38.32088047389757
 30
0.0
 10
634.1053288476745
 20
38.19884164996721
 30
0.0
 10
634.1276701726318
 20
38.0770255488972
 30
0.0
 10
634.1533705586334
 20
37.95546074610844
 30
0.0
 10
634.1824303191115
 20
37.83417627291895
 30
0.0
 10
634.2148492182846
 20
37.71320175842501
 30
0.0
 10
634.2506272547905
 20
37.5925675464235
 30
0.0
 10
634.2897642429108
 20
37.47230480929144
 30
0.0
 10
634.3322596920046
 20
37.35244564942793
 30
0.0
 10
634.3781125839288
 20
37.23302318698725
 30
0.0
 10
634.4273211599217
 20
37.11407163030274
 30
0.0
 10
634.4798826917867
 20
36.99562632606619
 30
0.0
 10
634.5357932498025
 20
36.8777237863853
 30
0.0
 10
634.5950474704546
 20
36.76040169030466
 30
0.0
 10
634.6576383301694
 20
36.64369885794981
 30
0.0
 10
634.7235569307666
 20
36.52765519622549
 30
0.0
 10
634.7927923025268
 20
36.4123116158986
 30
0.0
 10
634.8653312304671
 20
36.29770992090734
 30
0.0
 10
634.9411581088709
 20
36.18389267178314
 30
0.0
 10
635.0202548283164
 20
36.07090302610387
 30
0.0
 10
635.102600698388
 20
35.95878455984132
 30
0.0
 10
635.1881724080288
 20
35.84758107425558
 30
0.0
 10
635.2769440241376
 20
35.73733639356976
 30
0.0
 10
635.3688870276388
 20
35.62809415899228
 30
0.0
 10
635.4639703849167
 20
35.51989762470485
 30
0.0
 10
635.5621606513187
 20
35.41278946122279
 30
0.0
 10
635.6634221024333
 20
35.30681157105468
 30
0.0
 10
635.7677168881099
 20
35.20200492090176
 30
0.0
 10
635.8750052037366
 20
35.0984093937891
 30
0.0
 10
635.9852454731172
 20
34.99606366356593
 30
0.0
 10
636.0983945374056
 20
34.89500509323342
 30
0.0
 10
636.214407844893
 20
34.79526965759742
 30
0.0
 10
636.3332396369897
 20
34.69689188986792
 30
0.0
 10
636.454843126413
 20
34.59990485106439
 30
0.0
 10
636.5791706643561
 20
34.50434012047417
 30
0.0
 10
636.7061738941956
 20
34.41022780495339
 30
0.0
 10
636.835803890065
 20
34.31759656455853
 30
0.0
 10
636.9680112793378
 20
34.22647365184857
 30
0.0
 10
637.1027463486951
 20
34.13688496216936
 30
0.0
 10
637.2399591339928
 20
34.04885509231949
 30
0.0
 10
637.3795994945702
 20
33.96240740516642
 30
0.0
 10
637.5216166649324
 20
33.87756440152061
 30
0.0
 10
637.6659593237124
 20
33.79434771887695
 30
0.0
 10
637.8125761590046
 20
33.71277785696954
 30
0.0
 10
637.9614164427536
 20
33.63287397929977
 30
0.0
 10
638.112430019101
 20
33.5546540582828
 30
0.0
 10
638.2655667431401
 20
33.47813526406367
 30
0.0
 10
638.4207764790086
 20
33.40333402331692
 30
0.0
 10
638.5780090931113
 20
33.33026607362487
 30
0.0
 10
638.7372144437142
 20
33.25894651315971
 30
0.0
 10
638.8983423678715
 20
33.18938984561366
 30
0.0
 10
639.0613426665224
 20
33.12161002043234
 30
0.0
 10
639.2261650884768
 20
33.05562046848794
 30
0.0
 10
639.3927593139016
 20
32.99143413339352
 30
0.0
 10
639.5610749378113
 20
32.92906349870319
 30
0.0
 10
639.7310614539808
 20
32.86852061127531
 30
0.0
 10
639.9026682396116
 20
32.80981710108934
 30
0.0
 10
640.0758445410119
 20
32.75296419782102
 30
0.0
 10
640.25053946049
 20
32.69797274447215
 30
0.0
 10
640.4267019446042
 20
32.64485320835518
 30
0.0
 10
640.6042807738681
 20
32.59361568971124
 30
0.0
 10
640.7832245539727
 20
32.54426992823596
 30
0.0
 10
640.9634817085562
 20
32.49682530776678
 30
0.0
 10
641.1450004735233
 20
32.45129085936792
 30
0.0
 10
641.3277288928978
 20
32.4076752630346
 30
0.0
 10
641.5116148161783
 20
32.36598684821875
 30
0.0
 10
641.6966058971457
 20
32.32623359335891
 30
0.0
 10
641.8826495940738
 20
32.28842312458564
 30
0.0
 10
642.0696931712753
 20
32.252562713752
 30
0.0
 10
642.2576837019178
 20
32.21865927592695
 30
0.0
 10
642.4465680720413
 20
32.18671936647609
 30
0.0
 10
642.6362929856988
 20
32.15674917783718
 30
0.0
 10
642.8268049711545
 20
32.12875453609147
 30
0.0
 10
643.0180503880587
 20
32.10274089741576
 30
0.0
 10
643.2099754355324
 20
32.07871334449376
 30
0.0
 10
643.4025261610883
 20
32.05667658295543
 30
0.0
 10
643.5956484703161
 20
32.03663493790216
 30
0.0
 10
643.7892881372683
 20
32.01859235057326
 30
0.0
 10
643.9833908154767
 20
32.00255237519768
 30
0.0
 10
644.1779020495367
 20
31.98851817607255
 30
0.0
 10
644.3727672871953
 20
31.97649252490172
 30
0.0
 10
644.5679318918865
 20
31.96647779842578
 30
0.0
 10
644.7633411556459
 20
31.95847597636677
 30
0.0
 10
644.9589403123596
 20
31.95248863971244
 30
0.0
 10
645.1546745512765
 20
31.94851696935254
 30
0.0
 10
645.3504890307448
 20
31.94656174508827
 30
0.0
 10
645.5463288812025
 20
31.94662334501579
 30
0.0
 10
645.7421388843081
 20
31.9487017411333
 30
0.0
 10
645.937863833582
 20
31.95279648716108
 30
0.0
 10
646.1334485609946
 20
31.95890671965833
 30
0.0
 10
646.3288382856863
 20
31.96703117873108
 30
0.0
 10
646.5239782821349
 20
31.9771682057738
 30
0.0
 10
646.718813893925
 20
31.98931574527196
 30
0.0
 10
646.9132905473404
 20
32.0034713469914
 30
0.0
 10
647.1073537646954
 20
32.01963216854183
 30
0.0
 10
647.3009491773626
 20
32.03779497830354
 30
0.0
 10
647.4940225384289
 20
32.0579561586979
 30
0.0
 10
647.6865197349273
 20
32.08011170978349
 30
0.0
 10
647.8783867995802
 20
32.10425725315098
 30
0.0
 10
648.0695699219916
 20
32.13038803608918
 30
0.0
 10
648.2600154592222
 20
32.15849893598501
 30
0.0
 10
648.4496699456835
 20
32.18858446492047
 30
0.0
 10
648.6384801022749
 20
32.2206387744169
 30
0.0
 10
648.8263928446992
 20
32.25465566027351
 30
0.0
 10
649.013355290876
 20
32.2906285674396
 30
0.0
 10
649.1993147673818
 20
32.32855059484725
 30
0.0
 10
649.3842188148361
 20
32.36841450012736
 30
0.0
 10
649.5680151921556
 20
32.4102127041128
 30
0.0
 10
649.7506518795977
 20
32.45393729503147
 30
0.0
 10
649.9320770805126
 20
32.4995800322661
 30
0.0
 10
650.1122392217271
 20
32.54713234955494
 30
0.0
 10
650.2910869524839
 20
32.59658535748348
 30
0.0
 10
650.468569141865
 20
32.64792984510438
 30
0.0
 10
650.6446348746366
 20
32.70115628050417
 30
0.0
 10
650.8192334454553
 20
32.7562548101132
 30
0.0
 10
650.9923143513959
 20
32.8132152565407
 30
0.0
 10
651.1638272827694
 20
32.87202711468782
 30
0.0
 10
651.3337221122264
 20
32.93267954587876
 30
0.0
 10
651.501948882157
 20
32.99516136972048
 30
0.0
 10
651.6684577904401
 20
33.05946105338699
 30
0.0
 10
651.8331991746252
 20
33.12556669800322
 30
0.0
 10
651.9961234946763
 20
33.1934660217842
 30
0.0
 10
652.1571813144644
 20
33.26314633957801
 30
0.0
 10
652.3163232822536
 20
33.33459453844832
 30
0.0
 10
652.4735001105072
 20
33.40779704893816
 30
0.0
 10
652.6286625554126
 20
33.48273981166101
 30
0.0
 10
652.7817613966313
 20
33.55940823889193
 30
0.0
 10
652.9327474178816
 20
33.63778717086717
 30
0.0
 10
653.081571389073
 20
33.71786082655463
 30
0.0
 10
653.2281840508479
 20
33.79961274873951
 30
0.0
 10
653.3725361025116
 20
33.883025743369
 30
0.0
 10
653.5145781944569
 20
33.96808181322498
 30
0.0
 10
653.6542603039009
 20
34.05476169991591
 30
0.0
 10
653.7915318643708
 20
34.14304480970536
 30
0.0
 10
653.9263422515072
 20
34.23290937572339
 30
0.0
 10
654.0586413931284
 20
34.32433278297624
 30
0.0
 10
654.188379696979
 20
34.4172914664143
 30
0.0
 10
654.3155076776517
 20
34.51176055119175
 30
0.0
 10
654.439976026515
 20
34.60771377024209
 30
0.0
 10
654.5617356982654
 20
34.70512338650832
 30
0.0
 10
654.6807380148634
 20
34.80396012233432
 30
0.0
 10
654.7969347873607
 20
34.90419309887215
 30
0.0
 10
654.9102784556144
 20
35.00578978854494
 30
0.0
 10
655.020722245234
 20
35.1087159836521
 30
0.0
 10
655.1282203403925
 20
35.21293578415958
 30
0.0
 10
655.2327280703145
 20
35.31841160747777
 30
0.0
 10
655.3342021064228
 20
35.42510422265192
 30
0.0
 10
655.4326006662799
 20
35.53297281080202
 30
0.0
 10
655.5278837196865
 20
35.6419750529081
 30
0.0
 10
655.620013191645
 20
35.75206724512368
 30
0.0
 10
655.7089531564233
 20
35.86320444078535
 30
0.0
 10
655.7946700167134
 20
35.97534061718842
 30
0.0
 10
655.8771326619359
 20
36.0884288641214
 30
0.0
 10
655.9563126000817
 20
36.20242159012811
 30
0.0
 10
656.0321840581573
 20
36.3172707416017
 30
0.0
 10
656.1047240472425
 20
36.43292802915944
 30
0.0
 10
656.1739123893595
 20
36.54934515535606
 30
0.0
 10
656.2397317047166
 20
36.66647403770936
 30
0.0
 10
656.3021673593195
 20
36.78426702122269
 30
0.0
 10
656.3612073743907
 20
36.90267707510929
 30
0.0
 10
656.4168423003504
 20
37.02165796917196
 30
0.0
 10
656.4690650592912
 20
37.14116442624955
 30
0.0
 10
656.5178707607225
 20
37.26115224820213
 30
0.0
 10
656.5632564962026
 20
37.38157841401359
 30
0.0
 10
656.6052211180307
 20
37.50240114965896
 30
0.0
 10
656.6437650101075
 20
37.62357997035086
 30
0.0
 10
656.678889848148
 20
37.74507569661014
 30
0.0
 10
656.7105983858402
 20
37.86685044617612
 30
0.0
 10
656.7388941550057
 20
37.98886760445143
 30
0.0
 10
656.7637815172214
 20
38.11109177549364
 30
0.0
 10
656.7852644583095
 20
38.23348871903897
 30
0.0
 10
656.8033501243849
 20
38.35602526623237
 30
0.0
 10
656.8180347890964
 20
38.47866925380243
 30
0.0
 10
656.8293553122072
 20
38.60138934013259
 30
0.0
 10
656.8371967806902
 20
38.72415522160154
 30
0.0
 10
656.8417501389174
 20
38.84033963703666
 30
0.0
 10
656.8420588456127
 20
38.91559837860291
 30
0.0
 10
656.8421996169379
 20
38.94991662615725
 30
0.0
  0
LINE
  5
E9
330
1F
100
AcDbEntity
  8
0
  6
Continuous
 62
     7
370
    30
100
AcDbLine
 10
867.745264335
 20
213.8115011841
 30
0.0
 11
867.6038199994
 21
213.8931818034
 31
0.0
  0
LINE
  5
EA
330
1F
100
AcDbEntity
  8
0
  6
Continuous
 62
     7
370
    30
100
AcDbLine
 10
847.3772799748
 20
213.8931818034
 30
0.0
 11
847.2358356392
 21
213.8115011841
 31
0.0
  0
LINE
  5
EB
330
1F
100
AcDbEntity
  8
0
  6
Continuous
 62
     7
370
    30
100
AcDbLine
 10
871.9905499871
 20
173.763305362
 30
0.0
 11
871.9905499871
 21
207.8935043032
 31
0.0
  0
LINE
  5
EC
330
1F
100
AcDbEntity
  8
0
  6
Continuous
 62
     7
370
    30
100
AcDbLine
 10
842.9905499871
 20
207.8935043032
 30
0.0
 11
842.9905499871
 21
183.5687834223
 31
0.0
  0
LINE
  5
ED
330
1F
100
AcDbEntity
  8
0
  6
Continuous
 62
     7
370
    30
100
AcDbLine
 10
867.3916534963
 20
167.6411069327
 30
0.0
 11
867.7452643352
 21
167.8453084811
 31
0.0
  0
LINE
  5
EE
330
1F
100
AcDbEntity
  8
0
  6
Continuous
 62
     7
370
    30
100
AcDbLine
 10
632.6924278458
 20
53.2905306336
 30
0.0
 11
632.6924278458
 21
52.0151208312
 31
0.0
  0
LINE
  5
EF
330
1F
100
AcDbEntity
  8
0
  6
Continuous
 62
     7
370
    30
100
AcDbLine
 10
632.7937090481
 20
59.7012113924
 30
0.0
 11
632.793452397
 21
59.7145950237
 31
0.0
  0
LWPOLYLINE
  5
F0
330
1F
100
AcDbEntity
  8
0
  6
Continuous
 62
     7
370
    30
100
AcDbPolyline
 90
      241
 70
   128
 43
0.0
 10
867.602176958
 20
213.8941304651
 10
867.3340204195
 20
214.0449333336
 10
867.059117658
 20
214.1916322431
 10
866.7776570782
 20
214.3341266536
 10
866.4898315791
 20
214.4723189064
 10
866.1958384219
 20
214.6061142917
 10
865.8958790949
 20
214.7354211126
 10
865.5901591751
 20
214.8601507488
 10
865.2788881878
 20
214.9802177167
 10
864.9622794625
 20
215.0955397285
 10
864.6405499871
 20
215.2060377482
 10
864.3139202588
 20
215.311636046
 10
863.9826141333
 20
215.4122622502
 10
863.6468586714
 20
215.5078473964
 10
863.3068839831
 20
215.5983259755
 10
862.9629230699
 20
215.683635978
 10
862.6152116656
 20
215.7637189366
 10
862.2639880741
 20
215.8385199664
 10
861.9094930066
 20
215.9079878027
 10
861.5519694163
 20
215.9720748355
 10
861.191662332
 20
216.0307371429
 10
860.8288186902
 20
216.0839345206
 10
860.4636871658
 20
216.1316305099
 10
860.0965180016
 20
216.1737924222
 10
859.7275628371
 20
216.2103913619
 10
859.3570745358
 20
216.2414022458
 10
858.9853070118
 20
216.2668038208
 10
858.612515056
 20
216.2865786778
 10
858.2389541613
 20
216.3007132641
 10
857.8648803479
 20
216.3091978927
 10
857.4905499871
 20
216.3120267484
 10
857.1162196263
 20
216.3091978927
 10
856.7421458128
 20
216.3007132641
 10
856.3685849182
 20
216.2865786778
 10
855.9957929623
 20
216.2668038208
 10
855.6240254383
 20
216.2414022458
 10
855.253537137
 20
216.2103913619
 10
854.8845819725
 20
216.1737924222
 10
854.5174128084
 20
216.1316305099
 10
854.1522812839
 20
216.0839345206
 10
853.7894376421
 20
216.0307371429
 10
853.4291305578
 20
215.9720748355
 10
853.0716069675
 20
215.9079878027
 10
852.7171119
 20
215.8385199664
 10
852.3658883086
 20
215.7637189366
 10
852.0181769043
 20
215.683635978
 10
851.6742159911
 20
215.5983259755
 10
851.3342413027
 20
215.5078473964
 10
850.9984858408
 20
215.4122622502
 10
850.6671797154
 20
215.311636046
 10
850.3405499871
 20
215.2060377482
 10
850.0188205116
 20
215.0955397285
 10
849.7022117864
 20
214.9802177167
 10
849.390940799
 20
214.8601507488
 10
849.0852208793
 20
214.7354211126
 10
848.7852615522
 20
214.6061142917
 10
848.4912683951
 20
214.4723189064
 10
848.203442896
 20
214.3341266536
 10
847.9219823161
 20
214.1916322431
 10
847.6470795547
 20
214.0449333336
 10
847.3789230161
 20
213.8941304651
 10
847.1176964816
 20
213.7393269905
 10
846.8635789827
 20
213.5806290043
 10
846.616744679
 20
213.4181452701
 10
846.3773627382
 20
213.2519871463
 10
846.1455972209
 20
213.0822685092
 10
845.9216069675
 20
212.9091056755
 10
845.7055454898
 20
212.7326173225
 10
845.4975608655
 20
212.5529244064
 10
845.2977956368
 20
212.3701500798
 10
845.106386713
 20
212.184419607
 10
844.923465276
 20
211.9958602785
 10
844.7491566912
 20
211.8046013233
 10
844.5835804209
 20
211.6107738209
 10
844.4268499428
 20
211.4145106109
 10
844.2790726722
 20
211.2159462023
 10
844.1403498882
 20
211.0152166812
 10
844.0107766645
 20
210.8124596176
 10
843.8904418041
 20
210.6078139712
 10
843.7794277785
 20
210.4014199957
 10
843.6778106711
 20
210.1934191434
 10
843.5856601254
 20
209.9839539676
 10
843.5030392966
 20
209.7731680252
 10
843.4300048089
 20
209.5612057785
 10
843.3666067166
 20
209.3482124957
 10
843.3128884694
 20
209.1343341519
 10
843.2688868833
 20
208.9197173285
 10
843.2346321147
 20
208.7045091133
 10
843.2101476401
 20
208.4888569991
 10
843.1954502399
 20
208.2729087831
 10
843.1905499871
 20
208.0568124656
 10
843.1954502399
 20
207.840716148
 10
843.2101476401
 20
207.6247679321
 10
843.2346321147
 20
207.4091158179
 10
843.2688868833
 20
207.1939076027
 10
843.3128884694
 20
206.9792907793
 10
843.3666067166
 20
206.7654124355
 10
843.4300048089
 20
206.5524191527
 10
843.5030392966
 20
206.340456906
 10
843.5856601254
 20
206.1296709636
 10
843.6778106711
 20
205.9202057878
 10
843.7794277785
 20
205.7122049355
 10
843.8904418041
 20
205.50581096
 10
844.0107766645
 20
205.3011653135
 10
844.1403498882
 20
205.09840825
 10
844.2790726722
 20
204.8976787289
 10
844.4268499428
 20
204.6991143203
 10
844.5835804209
 20
204.5028511103
 10
844.7491566912
 20
204.3090236079
 10
844.923465276
 20
204.1177646527
 10
845.106386713
 20
203.9292053242
 10
845.2977956368
 20
203.7434748514
 10
845.4975608655
 20
203.5607005248
 10
845.7055454898
 20
203.3810076086
 10
845.9216069675
 20
203.2045192556
 10
846.1455972209
 20
203.031356422
 10
846.3773627382
 20
202.8616377849
 10
846.616744679
 20
202.6954796611
 10
846.8635789827
 20
202.5329959269
 10
847.1176964816
 20
202.3742979407
 10
847.3789230161
 20
202.2194944661
 10
847.6470795547
 20
202.0686915976
 10
847.9219823161
 20
201.9219926881
 10
848.203442896
 20
201.7794982776
 10
848.4912683951
 20
201.6413060247
 10
848.7852615522
 20
201.5075106395
 10
849.0852208793
 20
201.3782038186
 10
849.390940799
 20
201.2534741824
 10
849.7022117864
 20
201.1334072145
 10
850.0188205116
 20
201.0180852027
 10
850.3405499871
 20
200.907587183
 10
850.6671797154
 20
200.8019888852
 10
850.9984858408
 20
200.701362681
 10
851.3342413027
 20
200.6057775348
 10
851.6742159911
 20
200.5152989557
 10
852.0181769043
 20
200.4299889532
 10
852.3658883086
 20
200.3499059946
 10
852.7171119
 20
200.2751049647
 10
853.0716069675
 20
200.2056371285
 10
853.4291305578
 20
200.1415500957
 10
853.7894376421
 20
200.0828877883
 10
854.1522812839
 20
200.0296904105
 10
854.5174128084
 20
199.9819944213
 10
854.8845819725
 20
199.939832509
 10
855.253537137
 20
199.9032335693
 10
855.6240254383
 20
199.8722226853
 10
855.9957929623
 20
199.8468211104
 10
856.3685849182
 20
199.8270462534
 10
856.7421458128
 20
199.812911667
 10
857.1162196263
 20
199.8044270385
 10
857.4905499871
 20
199.8015981828
 10
857.8648803479
 20
199.8044270385
 10
858.2389541613
 20
199.812911667
 10
858.612515056
 20
199.8270462534
 10
858.9853070118
 20
199.8468211104
 10
859.3570745358
 20
199.8722226853
 10
859.7275628371
 20
199.9032335693
 10
860.0965180016
 20
199.939832509
 10
860.4636871658
 20
199.9819944213
 10
860.8288186902
 20
200.0296904105
 10
861.191662332
 20
200.0828877883
 10
861.5519694163
 20
200.1415500957
 10
861.9094930066
 20
200.2056371285
 10
862.2639880741
 20
200.2751049647
 10
862.6152116656
 20
200.3499059946
 10
862.9629230699
 20
200.4299889532
 10
863.3068839831
 20
200.5152989557
 10
863.6468586714
 20
200.6057775348
 10
863.9826141334
 20
200.701362681
 10
864.3139202588
 20
200.8019888852
 10
864.6405499871
 20
200.907587183
 10
864.9622794625
 20
201.0180852027
 10
865.2788881878
 20
201.1334072145
 10
865.5901591751
 20
201.2534741824
 10
865.8958790949
 20
201.3782038186
 10
866.1958384219
 20
201.5075106395
 10
866.4898315791
 20
201.6413060247
 10
866.7776570782
 20
201.7794982776
 10
867.059117658
 20
201.9219926881
 10
867.3340204195
 20
202.0686915976
 10
867.602176958
 20
202.2194944661
 10
867.8634034926
 20
202.3742979407
 10
868.1175209914
 20
202.5329959269
 10
868.3643552952
 20
202.6954796611
 10
868.6037372359
 20
202.8616377849
 10
868.8355027532
 20
203.031356422
 10
869.0594930066
 20
203.2045192556
 10
869.2755544844
 20
203.3810076086
 10
869.4835391087
 20
203.5607005248
 10
869.6833043373
 20
203.7434748514
 10
869.8747132612
 20
203.9292053242
 10
870.0576346981
 20
204.1177646527
 10
870.231943283
 20
204.3090236079
 10
870.3975195533
 20
204.5028511103
 10
870.5542500314
 20
204.6991143203
 10
870.702027302
 20
204.8976787289
 10
870.840750086
 20
205.09840825
 10
870.9703233097
 20
205.3011653135
 10
871.0906581701
 20
205.50581096
 10
871.2016721957
 20
205.7122049355
 10
871.303289303
 20
205.9202057878
 10
871.3954398488
 20
206.1296709636
 10
871.4780606776
 20
206.340456906
 10
871.5510951652
 20
206.5524191527
 10
871.6144932576
 20
206.7654124355
 10
871.6682115047
 20
206.9792907793
 10
871.7122130908
 20
207.1939076027
 10
871.7464678595
 20
207.4091158179
 10
871.7709523341
 20
207.6247679321
 10
871.7856497342
 20
207.840716148
 10
871.7905499871
 20
208.0568124656
 10
871.7856497342
 20
208.2729087831
 10
871.7709523341
 20
208.4888569991
 10
871.7464678595
 20
208.7045091133
 10
871.7122130908
 20
208.9197173285
 10
871.6682115047
 20
209.1343341519
 10
871.6144932576
 20
209.3482124957
 10
871.5510951652
 20
209.5612057785
 10
871.4780606776
 20
209.7731680252
 10
871.3954398488
 20
209.9839539676
 10
871.303289303
 20
210.1934191434
 10
871.2016721957
 20
210.4014199957
 10
871.0906581701
 20
210.6078139712
 10
870.9703233097
 20
210.8124596176
 10
870.840750086
 20
211.0152166812
 10
870.702027302
 20
211.2159462023
 10
870.5542500314
 20
211.4145106109
 10
870.3975195533
 20
211.6107738209
 10
870.231943283
 20
211.8046013233
 10
870.0576346981
 20
211.9958602785
 10
869.8747132612
 20
212.184419607
 10
869.6833043373
 20
212.3701500798
 10
869.4835391087
 20
212.5529244064
 10
869.2755544844
 20
212.7326173225
 10
869.0594930066
 20
212.9091056755
 10
868.8355027532
 20
213.0822685092
 10
868.6037372359
 20
213.2519871463
 10
868.3643552952
 20
213.4181452701
 10
868.1175209914
 20
213.5806290043
 10
867.8634034925
 20
213.7393269905
 10
867.602176958
 20
213.8941304651
  0
LWPOLYLINE
  5
F1
330
1F
100
AcDbEntity
  8
0
  6
Continuous
 62
     7
370
    30
100
AcDbPolyline
 90
      181
 70
   128
 43
0.0
 10
867.745264335
 20
213.8115011841
 10
868.0084783668
 20
213.6554945557
 10
868.2661499565
 20
213.4945770173
 10
868.5164364883
 20
213.3298207833
 10
868.7591664282
 20
213.1613387696
 10
868.9941734213
 20
212.9892464453
 10
869.2212964055
 20
212.8136617539
 10
869.4403797221
 20
212.6347050323
 10
869.6512732223
 20
212.4524989285
 10
869.8538323702
 20
212.2671683176
 10
870.0479183419
 20
212.0788402158
 10
870.2333981207
 20
211.8876436939
 10
870.4101445878
 20
211.6937097883
 10
870.5780366101
 20
211.4971714117
 10
870.7369591229
 20
211.2981632617
 10
870.8868032085
 20
211.0968217285
 10
871.0274661713
 20
210.8932848015
 10
871.1588516079
 20
210.6876919749
 10
871.2808694734
 20
210.4801841515
 10
871.3934361427
 20
210.2709035471
 10
871.4964744683
 20
210.0599935919
 10
871.5899138328
 20
209.8475988332
 10
871.6736901977
 20
209.6338648357
 10
871.7477461468
 20
209.418938082
 10
871.8120309257
 20
209.2029658722
 10
871.866500477
 20
208.9860962229
 10
871.9111174699
 20
208.7684777656
 10
871.9458513262
 20
208.5502596453
 10
871.970678241
 20
208.3315914176
 10
871.9855811992
 20
208.1126229469
 10
871.9905499871
 20
207.8935043032
 10
871.9855811992
 20
207.6743856595
 10
871.970678241
 20
207.4554171888
 10
871.9458513262
 20
207.2367489612
 10
871.9111174699
 20
207.0185308408
 10
871.866500477
 20
206.8009123835
 10
871.8120309257
 20
206.5840427342
 10
871.7477461468
 20
206.3680705244
 10
871.6736901977
 20
206.1531437707
 10
871.5899138328
 20
205.9394097733
 10
871.4964744683
 20
205.7270150145
 10
871.3934361427
 20
205.5161050594
 10
871.2808694734
 20
205.3068244549
 10
871.1588516079
 20
205.0993166316
 10
871.0274661713
 20
204.8937238049
 10
870.8868032085
 20
204.6901868779
 10
870.7369591229
 20
204.4888453447
 10
870.5780366101
 20
204.2898371947
 10
870.4101445878
 20
204.0932988181
 10
870.2333981207
 20
203.8993649125
 10
870.0479183419
 20
203.7081683906
 10
869.8538323702
 20
203.5198402888
 10
869.6512732223
 20
203.3345096779
 10
869.4403797221
 20
203.1523035741
 10
869.2212964055
 20
202.9733468526
 10
868.9941734213
 20
202.7977621611
 10
868.7591664282
 20
202.6256698368
 10
868.5164364883
 20
202.4571878231
 10
868.2661499565
 20
202.2924315892
 10
868.0084783668
 20
202.1315140507
 10
867.7435983143
 20
201.9745454925
 10
867.4716913346
 20
201.821633493
 10
867.1929437793
 20
201.6728828505
 10
866.9075466879
 20
201.5283955112
 10
866.6156956573
 20
201.3882704995
 10
866.3175907077
 20
201.2526038502
 10
866.0134361453
 20
201.1214885423
 10
865.7034404225
 20
200.9950144357
 10
865.3878159948
 20
200.8732682095
 10
865.0667791755
 20
200.7563333024
 10
864.7405499871
 20
200.6442898558
 10
864.4093520108
 20
200.5372146587
 10
864.0734122333
 20
200.4351810951
 10
863.7329608908
 20
200.3382590936
 10
863.3882313117
 20
200.2465150798
 10
863.0394597564
 20
200.1600119305
 10
862.6868852555
 20
200.0788089305
 10
862.330749446
 20
200.0029617324
 10
861.9712964055
 20
199.9325223181
 10
861.6087724853
 20
199.8675389631
 10
861.2434261411
 20
199.8080562038
 10
860.875507763
 20
199.7541148068
 10
860.5052695039
 20
199.7057517408
 10
860.1329651067
 20
199.6630001514
 10
859.7588497302
 20
199.6258893385
 10
859.3831797743
 20
199.5944447358
 10
859.0062127045
 20
199.5686878941
 10
858.6282068751
 20
199.5486364656
 10
858.2494213526
 20
199.5343041928
 10
857.8701157375
 20
199.5257008981
 10
857.4905499871
 20
199.522832478
 10
857.1109842366
 20
199.5257008981
 10
856.7316786216
 20
199.5343041928
 10
856.352893099
 20
199.5486364656
 10
855.9748872697
 20
199.5686878941
 10
855.5979201999
 20
199.5944447358
 10
855.222250244
 20
199.6258893385
 10
854.8481348674
 20
199.6630001514
 10
854.4758304702
 20
199.7057517408
 10
854.1055922112
 20
199.7541148068
 10
853.7376738331
 20
199.8080562038
 10
853.3723274889
 20
199.8675389631
 10
853.0098035686
 20
199.9325223181
 10
852.6503505282
 20
200.0029617324
 10
852.2942147187
 20
200.0788089305
 10
851.9416402178
 20
200.1600119305
 10
851.5928686625
 20
200.2465150798
 10
851.2481390834
 20
200.3382590936
 10
850.9076877409
 20
200.4351810951
 10
850.5717479633
 20
200.5372146587
 10
850.2405499871
 20
200.6442898558
 10
849.9143207987
 20
200.7563333024
 10
849.5932839794
 20
200.8732682095
 10
849.2776595517
 20
200.9950144357
 10
848.9676638288
 20
201.1214885423
 10
848.6635092664
 20
201.2526038502
 10
848.3654043169
 20
201.3882704995
 10
848.0735532863
 20
201.5283955112
 10
847.7881561949
 20
201.6728828505
 10
847.5094086395
 20
201.821633493
 10
847.2375016599
 20
201.9745454925
 10
846.9726216074
 20
202.1315140507
 10
846.7149500177
 20
202.2924315892
 10
846.4646634859
 20
202.4571878231
 10
846.2219335459
 20
202.6256698368
 10
845.9869265529
 20
202.7977621611
 10
845.7598035686
 20
202.9733468526
 10
845.5407202521
 20
203.1523035741
 10
845.3298267519
 20
203.3345096779
 10
845.1272676039
 20
203.5198402888
 10
844.9331816322
 20
203.7081683906
 10
844.7477018535
 20
203.8993649125
 10
844.5709553863
 20
204.0932988181
 10
844.403063364
 20
204.2898371947
 10
844.2441408513
 20
204.4888453447
 10
844.0942967657
 20
204.6901868779
 10
843.9536338029
 20
204.8937238049
 10
843.8222483662
 20
205.0993166316
 10
843.7002305008
 20
205.3068244549
 10
843.5876638315
 20
205.5161050594
 10
843.4846255059
 20
205.7270150145
 10
843.3911861413
 20
205.9394097733
 10
843.3074097764
 20
206.1531437707
 10
843.2333538274
 20
206.3680705244
 10
843.1690690484
 20
206.5840427342
 10
843.1145994972
 20
206.8009123835
 10
843.0699825042
 20
207.0185308408
 10
843.0352486479
 20
207.2367489612
 10
843.0104217331
 20
207.4554171888
 10
842.9955187749
 20
207.6743856595
 10
842.9905499871
 20
207.8935043032
 10
842.9955187749
 20
208.1126229469
 10
843.0104217331
 20
208.3315914176
 10
843.0352486479
 20
208.5502596453
 10
843.0699825042
 20
208.7684777656
 10
843.1145994972
 20
208.9860962229
 10
843.1690690484
 20
209.2029658722
 10
843.2333538274
 20
209.418938082
 10
843.3074097764
 20
209.6338648357
 10
843.3911861413
 20
209.8475988332
 10
843.4846255059
 20
210.0599935919
 10
843.5876638315
 20
210.2709035471
 10
843.7002305008
 20
210.4801841515
 10
843.8222483662
 20
210.6876919749
 10
843.9536338029
 20
210.8932848015
 10
844.0942967657
 20
211.0968217285
 10
844.2441408513
 20
211.2981632617
 10
844.403063364
 20
211.4971714117
 10
844.5709553863
 20
211.6937097883
 10
844.7477018535
 20
211.8876436939
 10
844.9331816322
 20
212.0788402158
 10
845.1272676039
 20
212.2671683176
 10
845.3298267519
 20
212.4524989285
 10
845.5407202521
 20
212.6347050323
 10
845.7598035686
 20
212.8136617539
 10
845.9869265529
 20
212.9892464453
 10
846.2219335459
 20
213.1613387696
 10
846.4646634859
 20
213.3298207833
 10
846.7149500177
 20
213.4945770173
 10
846.9726216074
 20
213.6554945557
 10
847.2358356392
 20
213.8115011841
  0
LWPOLYLINE
  5
F2
330
1F
100
AcDbEntity
  8
0
  6
Continuous
 62
     7
370
    30
100
AcDbPolyline
 90
       63
 70
   128
 43
0.0
 10
857.0803845283
 20
165.3959831865
 10
857.1109842366
 20
165.395501957
 10
857.4905499871
 20
165.3926335368
 10
857.8701157375
 20
165.395501957
 10
858.2494213526
 20
165.4041052516
 10
858.6282068751
 20
165.4184375245
 10
859.0062127045
 20
165.4384889529
 10
859.3831797743
 20
165.4642457947
 10
859.7588497302
 20
165.4956903973
 10
860.1329651067
 20
165.5328012103
 10
860.5052695039
 20
165.5755527997
 10
860.875507763
 20
165.6239158657
 10
861.2434261411
 20
165.6778572626
 10
861.6087724853
 20
165.7373400219
 10
861.9712964055
 20
165.8023233769
 10
862.330749446
 20
165.8727627913
 10
862.6868852555
 20
165.9486099894
 10
863.0394597564
 20
166.0298129893
 10
863.3882313117
 20
166.1163161387
 10
863.7329608908
 20
166.2080601525
 10
864.0734122333
 20
166.3049821539
 10
864.4093520108
 20
166.4070157175
 10
864.7405499871
 20
166.5140909146
 10
865.0667791755
 20
166.6261343612
 10
865.3878159948
 20
166.7430692683
 10
865.7034404225
 20
166.8648154945
 10
866.0134361453
 20
166.9912896011
 10
866.3175907077
 20
167.122404909
 10
866.6156956573
 20
167.2580715584
 10
866.9075466879
 20
167.39819657
 10
867.1929437793
 20
167.5426839093
 10
867.4716913346
 20
167.6914345519
 10
867.7435983143
 20
167.8443465513
 10
868.0084783668
 20
168.0013151095
 10
868.2661499565
 20
168.162232648
 10
868.5164364883
 20
168.3269888819
 10
868.7591664282
 20
168.4954708956
 10
868.9941734213
 20
168.6675632199
 10
869.2212964055
 20
168.8431479114
 10
869.4403797221
 20
169.022104633
 10
869.6512732223
 20
169.2043107367
 10
869.8538323702
 20
169.3896413476
 10
870.0479183419
 20
169.5779694494
 10
870.2333981207
 20
169.7691659714
 10
870.4101445878
 20
169.9630998769
 10
870.5780366101
 20
170.1596382535
 10
870.7369591229
 20
170.3586464036
 10
870.8868032085
 20
170.5599879368
 10
871.0274661713
 20
170.7635248637
 10
871.1588516079
 20
170.9691176904
 10
871.2808694734
 20
171.1766255137
 10
871.3934361427
 20
171.3859061182
 10
871.4964744683
 20
171.5968160734
 10
871.5899138328
 20
171.8092108321
 10
871.6736901977
 20
172.0229448296
 10
871.7477461468
 20
172.2378715832
 10
871.8120309257
 20
172.453843793
 10
871.866500477
 20
172.6707134424
 10
871.9111174699
 20
172.8883318996
 10
871.9458513262
 20
173.10655002
 10
871.970678241
 20
173.3252182477
 10
871.9855811992
 20
173.5441867184
 10
871.9905499871
 20
173.763305362
  0
ARC
  5
F3
330
1F
100
AcDbEntity
  8
0
  6
Continuous
 62
     7
370
    30
100
AcDbCircle
 10
857.8172562299
 20
185.6930022808
 30
0.0
 40
20.43379574805611
100
AcDbArc
 50
267.3732919132
 51
297.9406665494
  0
LWPOLYLINE
  5
F4
330
1F
100
AcDbEntity
  8
0
  6
Continuous
 62
     7
370
    30
100
AcDbPolyline
 90
       96
 70
   128
 43
0.0
 10
654.4616063363
 20
48.0879889386
 10
654.2226079049
 20
47.953477226
 10
653.9775919766
 20
47.8226232633
 10
653.7267264732
 20
47.6955167312
 10
653.4701833253
 20
47.5722447421
 10
653.2081383548
 20
47.4528917805
 10
652.9407711542
 20
47.337539645
 10
652.6682649637
 20
47.2262673921
 10
652.3908065453
 20
47.1191512824
 10
652.1085860553
 20
47.0162647278
 10
651.8217969134
 20
46.9176782417
 10
651.5306356706
 20
46.8234593902
 10
651.2353018743
 20
46.7336727464
 10
650.9359979315
 20
46.6483798454
 10
650.6329289701
 20
46.5676391428
 10
650.3263026986
 20
46.4915059741
 10
650.0163292632
 20
46.4200325174
 10
649.7032211042
 20
46.3532677569
 10
649.3871928103
 20
46.2912574499
 10
649.0684609716
 20
46.234044095
 10
648.7472440309
 20
46.1816669036
 10
648.4237621343
 20
46.1341617723
 10
648.0982369801
 20
46.0915612587
 10
647.770891667
 20
46.0538945591
 10
647.441950541
 20
46.0211874884
 10
647.1116390421
 20
45.9934624624
 10
646.7801835492
 20
45.9707384825
 10
646.4478112254
 20
45.9530311224
 10
646.114749862
 20
45.940352518
 10
645.7812277227
 20
45.9327113585
 10
645.4474733869
 20
45.9301128808
 10
645.1137155931
 20
45.9325588658
 10
644.7801830823
 20
45.9400476371
 10
644.447104441
 20
45.9525740622
 10
644.1147079446
 20
45.9701295563
 10
643.7832214011
 20
45.9927020876
 10
643.4528719948
 20
46.0202761861
 10
643.1238861308
 20
46.0528329538
 10
642.7964892794
 20
46.0903500779
 10
642.4709058221
 20
46.1328018462
 10
642.1473588976
 20
46.1801591642
 10
641.8260702488
 20
46.2323895756
 10
641.5072600708
 20
46.2894572844
 10
641.1911468602
 20
46.3513231791
 10
640.8779472653
 20
46.4179448601
 10
640.5678759374
 20
46.489276668
 10
640.2611453838
 20
46.5652697156
 10
639.9579658224
 20
46.6458719211
 10
639.6585450374
 20
46.7310280438
 10
639.3630882367
 20
46.820679722
 10
639.0717979117
 20
46.9147655128
 10
638.7848736983
 20
47.0132209345
 10
638.5025122399
 20
47.1159785107
 10
638.224907053
 20
47.2229678165
 10
637.9522483944
 20
47.3341155268
 10
637.6847231306
 20
47.4493454665
 10
637.4225146101
 20
47.5685786627
 10
637.1658025375
 20
47.691733399
 10
636.9147628505
 20
47.8187252712
 10
636.6695675991
 20
47.9494672455
 10
636.4303848279
 20
48.0838697179
 10
636.1973784609
 20
48.2218405755
 10
635.9707081888
 20
48.3632852602
 10
635.7505293604
 20
48.5081068327
 10
635.536992875
 20
48.6562060396
 10
635.3302450799
 20
48.8074813811
 10
635.1304276698
 20
48.9618291806
 10
634.9376775896
 20
49.1191436559
 10
634.7521269404
 20
49.2793169914
 10
634.5739028895
 20
49.4422394124
 10
634.4031275827
 20
49.60779926
 10
634.2399180608
 20
49.7758830677
 10
634.0843861796
 20
49.9463756392
 10
633.9366385328
 20
50.1191601276
 10
633.7967763793
 20
50.2941181149
 10
633.6648955736
 20
50.4711296937
 10
633.5410865002
 20
50.650073549
 10
633.4254340117
 20
50.8308270417
 10
633.3180173704
 20
51.0132662925
 10
633.2189101945
 20
51.1972662664
 10
633.128180407
 20
51.3827008592
 10
633.0458901896
 20
51.5694429832
 10
632.9720959399
 20
51.7573646547
 10
632.9068482328
 20
51.9463370816
 10
632.8501917857
 20
52.1362307516
 10
632.8021654283
 20
52.326915521
 10
632.7628020753
 20
52.5182607042
 10
632.7321287045
 20
52.7101351626
 10
632.7101663378
 20
52.902407395
 10
632.6969300272
 20
53.0949456277
 10
632.6924288441
 20
53.2876179047
 10
632.6966658734
 20
53.4802921778
 10
632.7096382114
 20
53.6728363979
 10
632.7313369673
 20
53.8651186047
 10
632.76174727
 20
54.0570070176
 10
632.7924278458
 20
54.2105758501
  0
ARC
  5
F5
330
1F
100
AcDbEntity
  8
0
  6
Continuous
 62
     7
370
    30
100
AcDbCircle
 10
650.9182566857
 20
55.3152134677
 30
0.0
 40
8.173768995637756
100
AcDbArc
 50
310.7612860798
 51
316.9979970132
  0
LINE
  5
F6
330
1F
100
AcDbEntity
  8
0
  6
Continuous
 62
     7
370
    30
100
AcDbLine
 10
656.2549837357
 20
49.1241033905
 30
0.0
 11
654.4616063363
 21
48.0879889386
 31
0.0
  0
LWPOLYLINE
  5
F7
330
1F
100
AcDbEntity
  8
0
  6
Continuous
 62
     7
370
    30
100
AcDbPolyline
 90
       92
 70
   128
 43
0.0
 10
632.6924278458
 20
52.0151208312
 10
632.6924288441
 20
52.0122081023
 10
632.6969300272
 20
51.8195358254
 10
632.7101663378
 20
51.6269975927
 10
632.7321287045
 20
51.4347253603
 10
632.7628020753
 20
51.2428509019
 10
632.8021654283
 20
51.0515057187
 10
632.8501917857
 20
50.8608209492
 10
632.9068482328
 20
50.6709272792
 10
632.9720959399
 20
50.4819548524
 10
633.0458901896
 20
50.2940331808
 10
633.128180407
 20
50.1072910568
 10
633.2189101945
 20
49.9218564641
 10
633.3180173704
 20
49.7378564901
 10
633.4254340117
 20
49.5554172394
 10
633.5410865002
 20
49.3746637467
 10
633.6648955736
 20
49.1957198914
 10
633.7967763793
 20
49.0187083126
 10
633.9366385328
 20
48.8437503253
 10
634.0843861796
 20
48.6709658369
 10
634.2399180608
 20
48.5004732653
 10
634.4031275827
 20
48.3323894576
 10
634.5739028895
 20
48.1668296101
 10
634.7521269404
 20
48.0039071891
 10
634.9376775896
 20
47.8437338535
 10
635.1304276698
 20
47.6864193783
 10
635.3302450799
 20
47.5320715788
 10
635.536992875
 20
47.3807962373
 10
635.7505293604
 20
47.2326970304
 10
635.9707081888
 20
47.0878754579
 10
636.1973784609
 20
46.9464307732
 10
636.4303848279
 20
46.8084599155
 10
636.6695675991
 20
46.6740574432
 10
636.9147628505
 20
46.5433154689
 10
637.1658025375
 20
46.4163235966
 10
637.4225146101
 20
46.2931688604
 10
637.6847231306
 20
46.1739356641
 10
637.9522483944
 20
46.0587057245
 10
638.224907053
 20
45.9475580142
 10
638.5025122399
 20
45.8405687084
 10
638.7848736983
 20
45.7378111321
 10
639.0717979117
 20
45.6393557104
 10
639.3630882367
 20
45.5452699197
 10
639.6585450374
 20
45.4556182415
 10
639.9579658224
 20
45.3704621188
 10
640.2611453838
 20
45.2898599133
 10
640.5678759374
 20
45.2138668656
 10
640.8779472653
 20
45.1425350577
 10
641.1911468602
 20
45.0759133768
 10
641.5072600708
 20
45.0140474821
 10
641.8260702488
 20
44.9569797733
 10
642.1473588976
 20
44.9047493619
 10
642.4709058221
 20
44.8573920438
 10
642.7964892794
 20
44.8149402756
 10
643.1238861308
 20
44.7774231514
 10
643.4528719948
 20
44.7448663837
 10
643.7832214011
 20
44.7172922853
 10
644.1147079446
 20
44.694719754
 10
644.447104441
 20
44.6771642599
 10
644.7801830823
 20
44.6646378348
 10
645.1137155931
 20
44.6571490635
 10
645.4474733869
 20
44.6547030785
 10
645.7812277227
 20
44.6573015562
 10
646.114749862
 20
44.6649427157
 10
646.4478112254
 20
44.6776213201
 10
646.7801835492
 20
44.6953286801
 10
647.1116390421
 20
44.7180526601
 10
647.441950541
 20
44.7457776861
 10
647.770891667
 20
44.7784847568
 10
648.0982369801
 20
44.8161514564
 10
648.4237621343
 20
44.85875197
 10
648.7472440309
 20
44.9062571013
 10
649.0684609716
 20
44.9586342927
 10
649.3871928103
 20
45.0158476476
 10
649.7032211042
 20
45.0778579546
 10
650.0163292632
 20
45.1446227151
 10
650.3263026986
 20
45.2160961718
 10
650.6329289701
 20
45.2922293404
 10
650.9359979315
 20
45.372970043
 10
651.2353018743
 20
45.458262944
 10
651.5306356706
 20
45.5480495879
 10
651.8217969134
 20
45.6422684393
 10
652.1085860553
 20
45.7408549255
 10
652.3908065453
 20
45.8437414801
 10
652.6682649637
 20
45.9508575898
 10
652.9407711542
 20
46.0621298427
 10
653.2081383548
 20
46.1774819782
 10
653.4701833253
 20
46.2968349397
 10
653.7267264732
 20
46.4201069288
 10
653.9775919766
 20
46.547213461
 10
654.2226079049
 20
46.6780674237
 10
654.4616063363
 20
46.8125791363
  0
LINE
  5
F8
330
1F
100
AcDbEntity
  8
0
  6
Continuous
 62
     7
370
    30
100
AcDbLine
 10
656.2549837357
 20
47.8486935882
 30
0.0
 11
656.2549837357
 21
49.1241033905
 31
0.0
  0
LINE
  5
F9
330
1F
100
AcDbEntity
  8
0
  6
Continuous
 62
     7
370
    30
100
AcDbLine
 10
654.4616063363
 20
46.8125791363
 30
0.0
 11
656.2549837357
 21
47.8486935882
 31
0.0
  0
ARC
  5
FA
330
1F
100
AcDbEntity
  8
0
  6
Continuous
 62
     7
370
    30
100
AcDbCircle
 10
652.1523473349
 20
52.8418493791
 30
0.0
 40
6.462447693383091
100
AcDbArc
 50
309.4083034033
 51
338.5045892737
  0
ENDSEC
  0
SECTION
  2
OBJECTS
  0
DICTIONARY
  5
C
330
0
100
AcDbDictionary
281
     1
  3
ACAD_GROUP
350
D
  3
ACAD_LAYOUT
350
1A
  3
ACAD_MLINESTYLE
350
17
  3
ACAD_PLOTSETTINGS
350
19
  3
ACAD_PLOTSTYLENAME
350
E
  3
ACAD_SCALELIST
350
47
  0
DICTIONARY
  5
D
102
{ACAD_REACTORS
330
C
102
}
330
C
100
AcDbDictionary
281
     1
  0
DICTIONARY
  5
1A
102
{ACAD_REACTORS
330
C
102
}
330
C
100
AcDbDictionary
281
     1
  3
Layout1
350
1E
  3
Layout2
350
26
  3
Model
350
22
  0
DICTIONARY
  5
17
102
{ACAD_REACTORS
330
C
102
}
330
C
100
AcDbDictionary
281
     1
  3
Standard
350
18
  0
DICTIONARY
  5
19
102
{ACAD_REACTORS
330
C
102
}
330
C
100
AcDbDictionary
281
     1
  0
ACDBDICTIONARYWDFLT
  5
E
102
{ACAD_REACTORS
330
C
102
}
330
C
100
AcDbDictionary
281
     1
  3
Normal
350
F
100
AcDbDictionaryWithDefault
340
F
  0
DICTIONARY
  5
47
102
{ACAD_REACTORS
330
C
102
}
330
C
100
AcDbDictionary
281
     1
  3
A0
350
48
  3
A1
350
49
  3
A2
350
4A
  3
A3
350
4B
  3
A4
350
4C
  3
A5
350
4D
  3
A6
350
4E
  3
A7
350
4F
  3
A8
350
50
  3
A9
350
51
  3
B0
350
52
  3
B1
350
53
  3
B2
350
54
  3
B3
350
55
  3
B4
350
56
  3
B5
350
57
  3
B6
350
58
  3
B7
350
59
  3
B8
350
5A
  3
B9
350
5B
  3
C0
350
5C
  3
C1
350
5D
  3
C2
350
5E
  3
C3
350
5F
  3
C4
350
60
  3
C5
350
61
  3
C6
350
62
  3
C7
350
63
  3
C8
350
64
  3
C9
350
65
  3
D0
350
66
  3
D1
350
67
  3
D2
350
68
  0
LAYOUT
  5
1E
102
{ACAD_REACTORS
330
1A
102
}
330
1A
100
AcDbPlotSettings
  1

  2
none_device
  4

  6

 40
0.0
 41
0.0
 42
0.0
 43
0.0
 44
0.0
 45
0.0
 46
0.0
 47
0.0
 48
0.0
 49
0.0
140
0.0
141
0.0
142
1.0
143
1.0
 70
   688
 72
     1
 73
     0
 74
     5
  7

 75
    16
147
1.0
148
0.0
149
0.0
100
AcDbLayout
  1
Layout1
 70
     1
 71
     1
 10
0.0
 20
0.0
 11
420.0
 21
297.0
 12
0.0
 22
0.0
 32
0.0
 14
1.0000000000E+20
 24
1.0000000000E+20
 34
1.0000000000E+20
 15
-1.0000000000E+20
 25
-1.0000000000E+20
 35
-1.0000000000E+20
146
0.0
 13
0.0
 23
0.0
 33
0.0
 16
1.0
 26
0.0
 36
0.0
 17
0.0
 27
1.0
 37
0.0
 76
     0
330
1B
  0
LAYOUT
  5
26
102
{ACAD_REACTORS
330
1A
102
}
330
1A
100
AcDbPlotSettings
  1

  2
none_device
  4

  6

 40
0.0
 41
0.0
 42
0.0
 43
0.0
 44
0.0
 45
0.0
 46
0.0
 47
0.0
 48
0.0
 49
0.0
140
0.0
141
0.0
142
1.0
143
1.0
 70
   688
 72
     1
 73
     0
 74
     5
  7

 75
    16
147
1.0
148
0.0
149
0.0
100
AcDbLayout
  1
Layout2
 70
     1
 71
     2
 10
0.0
 20
0.0
 11
0.0
 21
0.0
 12
0.0
 22
0.0
 32
0.0
 14
0.0
 24
0.0
 34
0.0
 15
0.0
 25
0.0
 35
0.0
146
0.0
 13
0.0
 23
0.0
 33
0.0
 16
1.0
 26
0.0
 36
0.0
 17
0.0
 27
1.0
 37
0.0
 76
     0
330
23
  0
LAYOUT
  5
22
102
{ACAD_REACTORS
330
1A
102
}
330
1A
100
AcDbPlotSettings
  1

  2
none_device
  4
Letter_(8.50_x_11.00_Inches)
  6

 40
6.35
 41
6.35
 42
6.35000508
 43
6.35000508
 44
215.9
 45
279.4
 46
0.0
 47
0.0
 48
0.0
 49
0.0
140
0.0
141
0.0
142
1.0
143
1.0
 70
  1712
 72
     1
 73
     0
 74
     0
  7

 75
     0
147
1.0
148
0.0
149
0.0
100
AcDbLayout
  1
Model
 70
     1
 71
     0
 10
0.0
 20
0.0
 11
905.0
 21
478.0
 12
0.0
 22
0.0
 32
0.0
 14
0.0
 24
0.0
 34
0.0
 15
905.0
 25
478.0
 35
0.0
146
0.0
 13
0.0
 23
0.0
 33
0.0
 16
1.0
 26
0.0
 36
0.0
 17
0.0
 27
1.0
 37
0.0
 76
     0
330
1F
331
29
  0
MLINESTYLE
  5
18
102
{ACAD_REACTORS
330
17
102
}
330
17
100
AcDbMlineStyle
  2
Standard
 70
     0
  3

 62
   256
 51
90.0
 52
90.0
 71
     2
 49
0.5
 62
   256
  6
BYLAYER
 49
-0.5
 62
   256
  6
BYLAYER
  0
ACDBPLACEHOLDER
  5
F
102
{ACAD_REACTORS
330
E
102
}
330
E
  0
SCALE
  5
48
102
{ACAD_REACTORS
330
47
102
}
330
47
100
AcDbScale
 70
     0
300
1:1
140
1.0
141
1.0
290
     1
  0
SCALE
  5
49
102
{ACAD_REACTORS
330
47
102
}
330
47
100
AcDbScale
 70
     0
300
1:2
140
1.0
141
2.0
290
     0
  0
SCALE
  5
4A
102
{ACAD_REACTORS
330
47
102
}
330
47
100
AcDbScale
 70
     0
300
1:4
140
1.0
141
4.0
290
     0
  0
SCALE
  5
4B
102
{ACAD_REACTORS
330
47
102
}
330
47
100
AcDbScale
 70
     0
300
1:5
140
1.0
141
5.0
290
     0
  0
SCALE
  5
4C
102
{ACAD_REACTORS
330
47
102
}
330
47
100
AcDbScale
 70
     0
300
1:8
140
1.0
141
8.0
290
     0
  0
SCALE
  5
4D
102
{ACAD_REACTORS
330
47
102
}
330
47
100
AcDbScale
 70
     0
300
1:10
140
1.0
141
10.0
290
     0
  0
SCALE
  5
4E
102
{ACAD_REACTORS
330
47
102
}
330
47
100
AcDbScale
 70
     0
300
1:16
140
1.0
141
16.0
290
     0
  0
SCALE
  5
4F
102
{ACAD_REACTORS
330
47
102
}
330
47
100
AcDbScale
 70
     0
300
1:20
140
1.0
141
20.0
290
     0
  0
SCALE
  5
50
102
{ACAD_REACTORS
330
47
102
}
330
47
100
AcDbScale
 70
     0
300
1:30
140
1.0
141
30.0
290
     0
  0
SCALE
  5
51
102
{ACAD_REACTORS
330
47
102
}
330
47
100
AcDbScale
 70
     0
300
1:40
140
1.0
141
40.0
290
     0
  0
SCALE
  5
52
102
{ACAD_REACTORS
330
47
102
}
330
47
100
AcDbScale
 70
     0
300
1:50
140
1.0
141
50.0
290
     0
  0
SCALE
  5
53
102
{ACAD_REACTORS
330
47
102
}
330
47
100
AcDbScale
 70
     0
300
1:100
140
1.0
141
100.0
290
     0
  0
SCALE
  5
54
102
{ACAD_REACTORS
330
47
102
}
330
47
100
AcDbScale
 70
     0
300
2:1
140
2.0
141
1.0
290
     0
  0
SCALE
  5
55
102
{ACAD_REACTORS
330
47
102
}
330
47
100
AcDbScale
 70
     0
300
4:1
140
4.0
141
1.0
290
     0
  0
SCALE
  5
56
102
{ACAD_REACTORS
330
47
102
}
330
47
100
AcDbScale
 70
     0
300
8:1
140
8.0
141
1.0
290
     0
  0
SCALE
  5
57
102
{ACAD_REACTORS
330
47
102
}
330
47
100
AcDbScale
 70
     0
300
10:1
140
10.0
141
1.0
290
     0
  0
SCALE
  5
58
102
{ACAD_REACTORS
330
47
102
}
330
47
100
AcDbScale
 70
     0
300
100:1
140
100.0
141
1.0
290
     0
  0
SCALE
  5
59
102
{ACAD_REACTORS
330
47
102
}
330
47
100
AcDbScale
 70
     0
300
1/128" = 1'-0"
140
0.0078125
141
12.0
290
     0
  0
SCALE
  5
5A
102
{ACAD_REACTORS
330
47
102
}
330
47
100
AcDbScale
 70
     0
300
1/64" = 1'-0"
140
0.015625
141
12.0
290
     0
  0
SCALE
  5
5B
102
{ACAD_REACTORS
330
47
102
}
330
47
100
AcDbScale
 70
     0
300
1/32" = 1'-0"
140
0.03125
141
12.0
290
     0
  0
SCALE
  5
5C
102
{ACAD_REACTORS
330
47
102
}
330
47
100
AcDbScale
 70
     0
300
1/16" = 1'-0"
140
0.0625
141
12.0
290
     0
  0
SCALE
  5
5D
102
{ACAD_REACTORS
330
47
102
}
330
47
100
AcDbScale
 70
     0
300
3/32" = 1'-0"
140
0.09375
141
12.0
290
     0
  0
SCALE
  5
5E
102
{ACAD_REACTORS
330
47
102
}
330
47
100
AcDbScale
 70
     0
300
1/8" = 1'-0"
140
0.125
141
12.0
290
     0
  0
SCALE
  5
5F
102
{ACAD_REACTORS
330
47
102
}
330
47
100
AcDbScale
 70
     0
300
3/16" = 1'-0"
140
0.1875
141
12.0
290
     0
  0
SCALE
  5
60
102
{ACAD_REACTORS
330
47
102
}
330
47
100
AcDbScale
 70
     0
300
1/4" = 1'-0"
140
0.25
141
12.0
290
     0
  0
SCALE
  5
61
102
{ACAD_REACTORS
330
47
102
}
330
47
100
AcDbScale
 70
     0
300
3/8" = 1'-0"
140
0.375
141
12.0
290
     0
  0
SCALE
  5
62
102
{ACAD_REACTORS
330
47
102
}
330
47
100
AcDbScale
 70
     0
300
1/2" = 1'-0"
140
0.5
141
12.0
290
     0
  0
SCALE
  5
63
102
{ACAD_REACTORS
330
47
102
}
330
47
100
AcDbScale
 70
     0
300
3/4" = 1'-0"
140
0.75
141
12.0
290
     0
  0
SCALE
  5
64
102
{ACAD_REACTORS
330
47
102
}
330
47
100
AcDbScale
 70
     0
300
1" = 1'-0"
140
1.0
141
12.0
290
     0
  0
SCALE
  5
65
102
{ACAD_REACTORS
330
47
102
}
330
47
100
AcDbScale
 70
     0
300
1-1/2" = 1'-0"
140
1.5
141
12.0
290
     0
  0
SCALE
  5
66
102
{ACAD_REACTORS
330
47
102
}
330
47
100
AcDbScale
 70
     0
300
3" = 1'-0"
140
3.0
141
12.0
290
     0
  0
SCALE
  5
67
102
{ACAD_REACTORS
330
47
102
}
330
47
100
AcDbScale
 70
     0
300
6" = 1'-0"
140
6.0
141
12.0
290
     0
  0
SCALE
  5
68
102
{ACAD_REACTORS
330
47
102
}
330
47
100
AcDbScale
 70
     0
300
1'-0" = 1'-0"
140
12.0
141
12.0
290
     0
  0
ENDSEC
  0
EOF
