  0
SECTION
  2
HEADER
  9
$ACADVER
  1
AC1015
  9
$ACADMAINTVER
 70
     6
  9
$DWGCODEPAGE
  3
ANSI_1252
  9
$INSBASE
 10
0.0
 20
0.0
 30
0.0
  9
$EXTMIN
 10
0.0
 20
0.0
 30
0.0
  9
$EXTMAX
 10
705.0
 20
378.0
 30
0.0
  9
$LIMMIN
 10
0.0
 20
0.0
  9
$LIMMAX
 10
705.0
 20
378.0
  9
$ORTHOMODE
 70
     0
  9
$REGENMODE
 70
     1
  9
$FILLMODE
 70
     1
  9
$QTEXTMODE
 70
     0
  9
$MIRRTEXT
 70
     1
  9
$LTSCALE
 40
1.0
  9
$ATTMODE
 70
     1
  9
$TEXTSIZE
 40
3.5
  9
$TRACEWID
 40
1.0
  9
$TEXTSTYLE
  7
Standard
  9
$CLAYER
  8
0
  9
$CELTYPE
  6
ByLayer
  9
$CECOLOR
 62
   256
  9
$CELTSCALE
 40
1.0
  9
$DISPSILH
 70
     0
  9
$DIMSCALE
 40
1.0
  9
$DIMASZ
 40
3.302
  9
$DIMEXO
 40
1.0
  9
$DIMDLI
 40
3.75
  9
$DIMRND
 40
0.0
  9
$DIMDLE
 40
0.0
  9
$DIMEXE
 40
1.0
  9
$DIMTP
 40
0.0
  9
$DIMTM
 40
0.0
  9
$DIMTXT
 40
2.8
  9
$DIMCEN
 40
2.5
  9
$DIMTSZ
 40
0.0
  9
$DIMTOL
 70
     0
  9
$DIMLIM
 70
     0
  9
$DIMTIH
 70
     1
  9
$DIMTOH
 70
     1
  9
$DIMSE1
 70
     0
  9
$DIMSE2
 70
     0
  9
$DIMTAD
 70
     1
  9
$DIMZIN
 70
     0
  9
$DIMBLK
  1

  9
$DIMASO
 70
     1
  9
$DIMSHO
 70
     1
  9
$DIMPOST
  1

  9
$DIMAPOST
  1

  9
$DIMALT
 70
     0
  9
$DIMALTD
 70
     3
  9
$DIMALTF
 40
0.0393700787
  9
$DIMLFAC
 40
1.0
  9
$DIMTOFL
 70
     1
  9
$DIMTVP
 40
0.0
  9
$DIMTIX
 70
     0
  9
$DIMSOXD
 70
     0
  9
$DIMSAH
 70
     0
  9
$DIMBLK1
  1

  9
$DIMBLK2
  1

  9
$DIMSTYLE
  2
ISO-25
  9
$DIMCLRD
 70
     0
  9
$DIMCLRE
 70
     0
  9
$DIMCLRT
 70
     0
  9
$DIMTFAC
 40
1.0
  9
$DIMGAP
 40
1.524
  9
$DIMJUST
 70
     0
  9
$DIMSD1
 70
     0
  9
$DIMSD2
 70
     0
  9
$DIMTOLJ
 70
     0
  9
$DIMTZIN
 70
     0
  9
$DIMALTZ
 70
     0
  9
$DIMALTTZ
 70
     0
  9
$DIMUPT
 70
     0
  9
$DIMDEC
 70
     2
  9
$DIMTDEC
 70
     2
  9
$DIMALTU
 70
     2
  9
$DIMALTTD
 70
     3
  9
$DIMTXSTY
  7
Standard
  9
$DIMAUNIT
 70
     0
  9
$DIMADEC
 70
     2
  9
$DIMALTRND
 40
0.0
  9
$DIMAZIN
 70
     0
  9
$DIMDSEP
 70
    44
  9
$DIMATFIT
 70
     3
  9
$DIMFRAC
 70
     0
  9
$DIMLDRBLK
  1

  9
$DIMLUNIT
 70
     2
  9
$DIMLWD
 70
    -2
  9
$DIMLWE
 70
    -2
  9
$DIMTMOVE
 70
     0
  9
$LUNITS
 70
     2
  9
$LUPREC
 70
     2
  9
$SKETCHINC
 40
1.0
  9
$FILLETRAD
 40
10.0
  9
$AUNITS
 70
     0
  9
$AUPREC
 70
     2
  9
$MENU
  1
.
  9
$ELEVATION
 40
0.0
  9
$PELEVATION
 40
0.0
  9
$THICKNESS
 40
0.0
  9
$LIMCHECK
 70
     0
  9
$CHAMFERA
 40
0.0
  9
$CHAMFERB
 40
0.0
  9
$CHAMFERC
 40
0.0
  9
$CHAMFERD
 40
0.0
  9
$SKPOLY
 70
     0
  9
$TDCREATE
 40
2460215.410419086
  9
$TDUCREATE
 40
2460215.285419086
  9
$TDUPDATE
 40
2460215.410419352
  9
$TDUUPDATE
 40
2460215.285419352
  9
$TDINDWG
 40
0.0000000116
  9
$TDUSRTIMER
 40
0.0000000116
  9
$USRTIMER
 70
     1
  9
$ANGBASE
 50
0.0
  9
$ANGDIR
 70
     0
  9
$PDMODE
 70
     0
  9
$PDSIZE
 40
-1.0
  9
$PLINEWID
 40
0.0
  9
$SPLFRAME
 70
     0
  9
$SPLINETYPE
 70
     6
  9
$SPLINESEGS
 70
     8
  9
$HANDSEED
  5
FC
  9
$SURFTAB1
 70
     6
  9
$SURFTAB2
 70
     6
  9
$SURFTYPE
 70
     6
  9
$SURFU
 70
     6
  9
$SURFV
 70
     6
  9
$UCSBASE
  2

  9
$UCSNAME
  2

  9
$UCSORG
 10
0.0
 20
0.0
 30
0.0
  9
$UCSXDIR
 10
1.0
 20
0.0
 30
0.0
  9
$UCSYDIR
 10
0.0
 20
1.0
 30
0.0
  9
$UCSORTHOREF
  2

  9
$UCSORTHOVIEW
 70
     0
  9
$UCSORGTOP
 10
0.0
 20
0.0
 30
0.0
  9
$UCSORGBOTTOM
 10
0.0
 20
0.0
 30
0.0
  9
$UCSORGLEFT
 10
0.0
 20
0.0
 30
0.0
  9
$UCSORGRIGHT
 10
0.0
 20
0.0
 30
0.0
  9
$UCSORGFRONT
 10
0.0
 20
0.0
 30
0.0
  9
$UCSORGBACK
 10
0.0
 20
0.0
 30
0.0
  9
$PUCSBASE
  2

  9
$PUCSNAME
  2

  9
$PUCSORG
 10
0.0
 20
0.0
 30
0.0
  9
$PUCSXDIR
 10
1.0
 20
0.0
 30
0.0
  9
$PUCSYDIR
 10
0.0
 20
1.0
 30
0.0
  9
$PUCSORTHOREF
  2

  9
$PUCSORTHOVIEW
 70
     0
  9
$PUCSORGTOP
 10
0.0
 20
0.0
 30
0.0
  9
$PUCSORGBOTTOM
 10
0.0
 20
0.0
 30
0.0
  9
$PUCSORGLEFT
 10
0.0
 20
0.0
 30
0.0
  9
$PUCSORGRIGHT
 10
0.0
 20
0.0
 30
0.0
  9
$PUCSORGFRONT
 10
0.0
 20
0.0
 30
0.0
  9
$PUCSORGBACK
 10
0.0
 20
0.0
 30
0.0
  9
$USERI1
 70
     0
  9
$USERI2
 70
     0
  9
$USERI3
 70
     0
  9
$USERI4
 70
     0
  9
$USERI5
 70
     0
  9
$USERR1
 40
0.0
  9
$USERR2
 40
0.0
  9
$USERR3
 40
0.0
  9
$USERR4
 40
0.0
  9
$USERR5
 40
0.0
  9
$WORLDVIEW
 70
     1
  9
$SHADEDGE
 70
     3
  9
$SHADEDIF
 70
    70
  9
$TILEMODE
 70
     1
  9
$MAXACTVP
 70
    64
  9
$PINSBASE
 10
0.0
 20
0.0
 30
0.0
  9
$PLIMCHECK
 70
     0
  9
$PEXTMIN
 10
1.0000000000E+20
 20
1.0000000000E+20
 30
1.0000000000E+20
  9
$PEXTMAX
 10
-1.0000000000E+20
 20
-1.0000000000E+20
 30
-1.0000000000E+20
  9
$PLIMMIN
 10
0.0
 20
0.0
  9
$PLIMMAX
 10
420.0
 20
297.0
  9
$UNITMODE
 70
     0
  9
$VISRETAIN
 70
     1
  9
$PLINEGEN
 70
     0
  9
$PSLTSCALE
 70
     1
  9
$TREEDEPTH
 70
  3020
  9
$CMLSTYLE
  2
Standard
  9
$CMLJUST
 70
     0
  9
$CMLSCALE
 40
20.0
  9
$PROXYGRAPHICS
 70
     1
  9
$MEASUREMENT
 70
     1
  9
$CELWEIGHT
370
    -1
  9
$ENDCAPS
280
     0
  9
$JOINSTYLE
280
     0
  9
$LWDISPLAY
290
     1
  9
$INSUNITS
 70
     4
  9
$HYPERLINKBASE
  1

  9
$STYLESHEET
  1

  9
$XEDIT
290
     1
  9
$CEPSNTYPE
380
     0
  9
$PSTYLEMODE
290
     1
  9
$FINGERPRINTGUID
  2
{F52FF6E0-A60D-4AF3-9B16-2997270093F0}
  9
$VERSIONGUID
  2
{FAEB1C32-E019-11D5-929B-00C0DF256EC4}
  9
$EXTNAMES
290
     1
  9
$PSVPSCALE
 40
0.0
  9
$OLESTARTUP
290
     0
  0
ENDSEC
  0
SECTION
  2
CLASSES
  0
CLASS
  1
ACDBDICTIONARYWDFLT
  2
AcDbDictionaryWithDefault
  3
ObjectDBX Classes
 90
        0
280
     0
281
     0
  0
CLASS
  1
VISUALSTYLE
  2
AcDbVisualStyle
  3
ObjectDBX Classes
 90
     4095
280
     0
281
     0
  0
CLASS
  1
MATERIAL
  2
AcDbMaterial
  3
ObjectDBX Classes
 90
     1153
280
     0
281
     0
  0
CLASS
  1
SCALE
  2
AcDbScale
  3
ObjectDBX Classes
 90
     1153
280
     0
281
     0
  0
CLASS
  1
TABLESTYLE
  2
AcDbTableStyle
  3
ObjectDBX Classes
 90
     4095
280
     0
281
     0
  0
CLASS
  1
MLEADERSTYLE
  2
AcDbMLeaderStyle
  3
ACDB_MLEADERSTYLE_CLASS
 90
     4095
280
     0
281
     0
  0
CLASS
  1
SUN
  2
AcDbSun
  3
SCENEOE
 90
     1153
280
     0
281
     0
  0
CLASS
  1
ACDBPLACEHOLDER
  2
AcDbPlaceHolder
  3
ObjectDBX Classes
 90
        0
280
     0
281
     0
  0
CLASS
  1
LAYOUT
  2
AcDbLayout
  3
ObjectDBX Classes
 90
        0
280
     0
281
     0
  0
ENDSEC
  0
SECTION
  2
TABLES
  0
TABLE
  2
VPORT
  5
8
330
0
100
AcDbSymbolTable
 70
     1
  0
VPORT
  5
29
330
8
100
AcDbSymbolTableRecord
100
AcDbViewportTableRecord
  2
*Active
 70
     0
 10
0.0
 20
0.0
 11
1.0
 21
1.0
 12
352.5
 22
189.0
 13
0.0
 23
0.0
 14
10.0
 24
10.0
 15
10.0
 25
10.0
 16
0.0
 26
0.0
 36
1.0
 17
0.0
 27
0.0
 37
0.0
 40
378.0
 41
1.8650793651
 42
50.0
 43
0.0
 44
0.0
 50
0.0
 51
0.0
 71
     0
 72
  2000
 73
     1
 74
     3
 75
     0
 76
     0
 77
     0
 78
     0
281
     0
 65
     1
110
0.0
120
0.0
130
0.0
111
1.0
121
0.0
131
0.0
112
0.0
122
1.0
132
0.0
 79
     0
146
0.0
  0
ENDTAB
  0
TABLE
  2
LTYPE
  5
5
330
0
100
AcDbSymbolTable
 70
     6
  0
LTYPE
  5
14
330
5
100
AcDbSymbolTableRecord
100
AcDbLinetypeTableRecord
  2
ByBlock
 70
     0
  3

 72
    65
 73
     0
 40
0.0
  0
LTYPE
  5
15
330
5
100
AcDbSymbolTableRecord
100
AcDbLinetypeTableRecord
  2
ByLayer
 70
     0
  3

 72
    65
 73
     0
 40
0.0
  0
LTYPE
  5
16
330
5
100
AcDbSymbolTableRecord
100
AcDbLinetypeTableRecord
  2
Continuous
 70
     0
  3
Solid line
 72
    65
 73
     0
 40
0.0
  0
LTYPE
  5
6E
330
5
100
AcDbSymbolTableRecord
100
AcDbLinetypeTableRecord
  2
HIDDEN
 70
     0
  3
Hidden __ __ __ __ __ __ __ __ __ __ __ __ __ __
 72
    65
 73
     2
 40
1.905
 49
1.27
 74
     0
 49
-0.635
 74
     0
  0
LTYPE
  5
6F
330
5
100
AcDbSymbolTableRecord
100
AcDbLinetypeTableRecord
  2
PHANTOM
 70
     0
  3
Phantom ______  __  __  ______  __  __  ______
 72
    65
 73
     6
 40
12.7
 49
6.35
 74
     0
 49
-1.27
 74
     0
 49
1.27
 74
     0
 49
-1.27
 74
     0
 49
1.27
 74
     0
 49
-1.27
 74
     0
  0
LTYPE
  5
70
330
5
100
AcDbSymbolTableRecord
100
AcDbLinetypeTableRecord
  2
CENTER
 70
     0
  3
Center ____ _ ____ _ ____ _ ____ _ ____ _ ____
 72
    65
 73
     4
 40
10.16
 49
6.35
 74
     0
 49
-1.27
 74
     0
 49
1.27
 74
     0
 49
-1.27
 74
     0
  0
LTYPE
  5
71
330
5
100
AcDbSymbolTableRecord
100
AcDbLinetypeTableRecord
  2
CENTERX2
 70
     0
  3
Center (2x) ________  __  ________  __  _____
 72
    65
 73
     4
 40
20.32
 49
12.7
 74
     0
 49
-2.54
 74
     0
 49
2.54
 74
     0
 49
-2.54
 74
     0
  0
LTYPE
  5
72
330
5
100
AcDbSymbolTableRecord
100
AcDbLinetypeTableRecord
  2
DOT2
 70
     0
  3
Dot (.5x) ........................................
 72
    65
 73
     2
 40
0.635
 49
0.0
 74
     0
 49
-0.635
 74
     0
  0
ENDTAB
  0
TABLE
  2
LAYER
  5
2
330
0
100
AcDbSymbolTable
 70
     2
  0
LAYER
  5
10
330
2
100
AcDbSymbolTableRecord
100
AcDbLayerTableRecord
  2
0
 70
     0
 62
     7
  6
Continuous
370
    -3
390
F
  0
LAYER
  5
73
330
2
100
AcDbSymbolTableRecord
100
AcDbLayerTableRecord
  2
FORMAT
 70
     0
 62
     7
  6
Continuous
370
    -3
390
F
  0
ENDTAB
  0
TABLE
  2
STYLE
  5
3
330
0
100
AcDbSymbolTable
 70
     2
  0
STYLE
  5
11
330
3
100
AcDbSymbolTableRecord
100
AcDbTextStyleTableRecord
  2
Standard
 70
     0
 40
0.0
 41
1.0
 50
0.0
 71
     0
 42
3.5
  3
txt
  4

  0
STYLE
  5
74
330
3
100
AcDbSymbolTableRecord
100
AcDbTextStyleTableRecord
  2
SLDTEXTSTYLE0
 70
     0
 40
0.0
 41
0.605
 50
0.0
 71
     0
 42
3.5
  3
TXT
  4

  0
ENDTAB
  0
TABLE
  2
VIEW
  5
6
330
0
100
AcDbSymbolTable
 70
     0
  0
ENDTAB
  0
TABLE
  2
UCS
  5
7
330
0
100
AcDbSymbolTable
 70
     0
  0
ENDTAB
  0
TABLE
  2
APPID
  5
9
330
0
100
AcDbSymbolTable
 70
     1
  0
APPID
  5
12
330
9
100
AcDbSymbolTableRecord
100
AcDbRegAppTableRecord
  2
ACAD
 70
     0
  0
ENDTAB
  0
TABLE
  2
DIMSTYLE
  5
A
330
0
100
AcDbSymbolTable
 70
     1
100
AcDbDimStyleTable
  0
DIMSTYLE
105
27
330
A
100
AcDbSymbolTableRecord
100
AcDbDimStyleTableRecord
  2
ISO-25
 70
     0
 41
2.5
 42
0.625
 43
3.75
 44
1.25
 73
     0
 74
     0
 77
     1
 78
     8
140
2.5
141
2.5
143
0.0393700787
147
0.625
171
     3
172
     1
178
     0
271
     2
272
     2
274
     3
278
    44
283
     0
284
     8
340
11
  0
ENDTAB
  0
TABLE
  2
BLOCK_RECORD
  5
1
330
0
100
AcDbSymbolTable
 70
     1
  0
BLOCK_RECORD
  5
1F
330
1
100
AcDbSymbolTableRecord
100
AcDbBlockTableRecord
  2
*Model_Space
340
22
  0
BLOCK_RECORD
  5
1B
330
1
100
AcDbSymbolTableRecord
100
AcDbBlockTableRecord
  2
*Paper_Space
340
1E
  0
BLOCK_RECORD
  5
23
330
1
100
AcDbSymbolTableRecord
100
AcDbBlockTableRecord
  2
*Paper_Space0
340
26
  0
ENDTAB
  0
ENDSEC
  0
SECTION
  2
BLOCKS
  0
BLOCK
  5
20
330
1F
100
AcDbEntity
  8
0
100
AcDbBlockBegin
  2
*Model_Space
 70
     0
 10
0.0
 20
0.0
 30
0.0
  3
*Model_Space
  1

  0
ENDBLK
  5
21
330
1F
100
AcDbEntity
  8
0
100
AcDbBlockEnd
  0
BLOCK
  5
1C
330
1B
100
AcDbEntity
 67
     1
  8
0
100
AcDbBlockBegin
  2
*Paper_Space
 70
     0
 10
0.0
 20
0.0
 30
0.0
  3
*Paper_Space
  1

  0
ENDBLK
  5
1D
330
1B
100
AcDbEntity
 67
     1
  8
0
100
AcDbBlockEnd
  0
BLOCK
  5
24
330
23
100
AcDbEntity
  8
0
100
AcDbBlockBegin
  2
*Paper_Space0
 70
     0
 10
0.0
 20
0.0
 30
0.0
  3
*Paper_Space0
  1

  0
ENDBLK
  5
25
330
23
100
AcDbEntity
  8
0
100
AcDbBlockEnd
  0
ENDSEC
  0
SECTION
  2
ENTITIES
  0
MTEXT
  5
75
330
1F
100
AcDbEntity
  8
0
  6
Continuous
 62
     7
370
     0
100
AcDbMText
 10
7.2782978723
 20
22.1884790273
 30
0.0
 40
10.0
 41
0.0
 71
     1
 72
     1
  1
1:1
  7
SLDTEXTSTYLE0
 73
     1
 44
1.0
  0
SPLINE
  5
76
330
1F
100
AcDbEntity
  8
0
  6
Continuous
 62
     7
370
    30
100
AcDbSpline
210
0.0
220
0.0
230
1.0
 70
     8
 71
     3
 72
    31
 73
    27
 74
     0
 42
0.000000001
 43
0.00000001
 40
0.0
 40
0.0
 40
0.0
 40
0.0
 40
0.0289239016329447
 40
0.1119386154133339
 40
0.1940966181103225
 40
0.2753868338530342
 40
0.3557345965723959
 40
0.4350716889750454
 40
0.5133435960739444
 40
0.5520674785278528
 40
0.5905105307160252
 40
0.6286694927580645
 40
0.6665418268591448
 40
0.7041256907250311
 40
0.7414199098266127
 40
0.7784239485361314
 40
0.8143067872870653
 40
0.844096999056947
 40
0.871617213272882
 40
0.8968682429963508
 40
0.919849749796907
 40
0.9405603008504878
 40
0.9586924432591208
 40
0.9746392027431966
 40
0.9884057141158594
 40
1.0
 40
1.0
 40
1.0
 40
1.0
 10
342.2984474786869
 20
321.0920401130365
 30
0.0
 10
342.2812311163934
 20
321.0848908758267
 30
0.0
 10
342.2146019395262
 20
321.0572225576074
 30
0.0
 10
342.1023190325248
 20
321.0095405197038
 30
0.0
 10
341.9626988024362
 20
320.949530435767
 30
0.0
 10
341.8290442395082
 20
320.8910691031566
 30
0.0
 10
341.7012936230919
 20
320.8343765799175
 30
0.0
 10
341.5797877792913
 20
320.7797035498193
 30
0.0
 10
341.4835686678875
 20
320.7358532320571
 30
0.0
 10
341.4099332976576
 20
320.7019948721365
 30
0.0
 10
341.3565844717698
 20
320.6773222921463
 30
0.0
 10
341.304936953823
 20
320.653302233548
 30
0.0
 10
341.2550073373166
 20
320.6299544048376
 30
0.0
 10
341.206807317842
 20
320.6072957344645
 30
0.0
 10
341.1603575707149
 20
320.5853471590311
 30
0.0
 10
341.1159707942712
 20
320.5642674241013
 30
0.0
 10
341.0759934688809
 20
320.5451903280781
 30
0.0
 10
341.0413341034908
 20
320.5285875395516
 30
0.0
 10
341.011905958974
 20
320.5144453315401
 30
0.0
 10
340.9861082324462
 20
320.5020124976595
 30
0.0
 10
340.9637417816065
 20
320.491208727072
 30
0.0
 10
340.9447223298745
 20
320.4820099323143
 30
0.0
 10
340.9288267892676
 20
320.4743127937493
 30
0.0
 10
340.9159260831768
 20
320.4680589480279
 30
0.0
 10
340.905595329457
 20
320.4630460103287
 30
0.0
 10
340.900252628502
 20
320.460446578551
 30
0.0
 10
340.8978100869039
 20
320.4592581870796
 30
0.0
  0
SPLINE
  5
77
330
1F
100
AcDbEntity
  8
0
  6
Continuous
 62
     7
370
    30
100
AcDbSpline
210
0.0
220
0.0
230
1.0
 70
     8
 71
     3
 72
    92
 73
    88
 74
     0
 42
0.000000001
 43
0.00000001
 40
0.0
 40
0.0
 40
0.0
 40
0.0
 40
0.0024219315580862
 40
0.0044302184211386
 40
0.0060411547299595
 40
0.0070099337930488
 40
0.0078052742492615
 40
0.0084819757832764
 40
0.0097155265117993
 40
0.0110648472878556
 40
0.0134238525158425
 40
0.0157764870792408
 40
0.0183589507855048
 40
0.0233530642756141
 40
0.0287686336235517
 40
0.0357654124639353
 40
0.0433601827784963
 40
0.0515539616722916
 40
0.0593773142881637
 40
0.0676669265740299
 40
0.0757986042759851
 40
0.0834376014528183
 40
0.0905845267530827
 40
0.0972395903196949
 40
0.1045762357218541
 40
0.1112038020124636
 40
0.1171213692697695
 40
0.1223279528184252
 40
0.1268233348207113
 40
0.1311651798316227
 40
0.1359918307400195
 40
0.1413066513074846
 40
0.1471128235513753
 40
0.1543509038701908
 40
0.1622393574410332
 40
0.1707836721964661
 40
0.1799956679541478
 40
0.1898972674216927
 40
0.200497924400094
 40
0.2093232871248657
 40
0.2185333129704004
 40
0.2276474200137177
 40
0.2365530325775837
 40
0.245246909016504
 40
0.2537259584919251
 40
0.26832357323428
 40
0.2822110500962715
 40
0.2953738078219539
 40
0.3077983417679777
 40
0.3194721267863818
 40
0.3303835420312686
 40
0.3385392166800456
 40
0.3461971152441337
 40
0.3533652044873574
 40
0.3605010165049161
 40
0.3678361585031986
 40
0.3753718754727614
 40
0.3876218501934479
 40
0.4003747158243672
 40
0.4136348791912796
 40
0.4284098987228687
 40
0.4437769876308648
 40
0.4597407427753947
 40
0.476305464220186
 40
0.4934751652020894
 40
0.5112535950549593
 40
0.5296442772454585
 40
0.548650280758308
 40
0.5682671846903077
 40
0.5884961767378325
 40
0.6089648504124037
 40
0.6297351201671484
 40
0.6504760220074501
 40
0.6711855133021994
 40
0.6979728062048856
 40
0.7247023820160297
 40
0.751372596493358
 40
0.7779757365213021
 40
0.8044967938921594
 40
0.8304510553475464
 40
0.8563007342692589
 40
0.8820347077936214
 40
0.9076428866513478
 40
0.9336346242471456
 40
0.9594772539694498
 40
0.9851408679991008
 40
1.0
 40
1.0
 40
1.0
 40
1.0
 10
352.456421941157
 20
323.1254487946792
 30
0.0
 10
352.4540211025019
 20
323.1254315211311
 30
0.0
 10
352.4496294674037
 20
323.1253999242059
 30
0.0
 10
352.441813104593
 20
323.1251860487571
 30
0.0
 10
352.4342503942433
 20
323.124960899823
 30
0.0
 10
352.4269911263781
 20
323.1247755292202
 30
0.0
 10
352.4204221850883
 20
323.1246482399333
 30
0.0
 10
352.4113251651959
 20
323.1245552677806
 30
0.0
 10
352.399625154541
 20
323.1245594238075
 30
0.0
 10
352.3822628729097
 20
323.1245082226778
 30
0.0
 10
352.3608372746596
 20
323.1244468363303
 30
0.0
 10
352.335106417932
 20
323.1243420817557
 30
0.0
 10
352.3000609391136
 20
323.1241677970782
 30
0.0
 10
352.2542125495266
 20
323.1238700464612
 30
0.0
 10
352.1927846472988
 20
323.1233445596721
 30
0.0
 10
352.1221830392559
 20
323.1225658013511
 30
0.0
 10
352.0417825827054
 20
323.1214442828514
 30
0.0
 10
351.9584733349838
 20
323.1200181434948
 30
0.0
 10
351.8727221863057
 20
323.118273202959
 30
0.0
 10
351.7872033606403
 20
323.1162558362992
 30
0.0
 10
351.7023442370092
 20
323.1139671965131
 30
0.0
 10
351.6215219013345
 20
323.1115217664423
 30
0.0
 10
351.5459129780705
 20
323.1089999052327
 30
0.0
 10
351.4713749942555
 20
323.1062963610055
 30
0.0
 10
351.3986724524898
 20
323.1034419600978
 30
0.0
 10
351.3285731981121
 20
323.1004769776529
 30
0.0
 10
351.2659884755785
 20
323.0976528182966
 30
0.0
 10
351.2109230944097
 20
323.0950274478794
 30
0.0
 10
351.1614369898464
 20
323.0925365022496
 30
0.0
 10
351.1132857854233
 20
323.09002702296
 30
0.0
 10
351.0622398473839
 20
323.0873077818777
 30
0.0
 10
351.006061508891
 20
323.084223449411
 30
0.0
 10
350.941435124984
 20
323.0805577102774
 30
0.0
 10
350.8678221695653
 20
323.076217399675
 30
0.0
 10
350.7846822972208
 20
323.0710927989624
 30
0.0
 10
350.6947319455471
 20
323.0652811711711
 30
0.0
 10
350.597864500444
 20
323.0587046542024
 30
0.0
 10
350.4939672642706
 20
323.0512641914655
 30
0.0
 10
350.3916056986026
 20
323.0435241213955
 30
0.0
 10
350.2918282763781
 20
323.0355968929959
 30
0.0
 10
350.1973925866688
 20
323.0277577914105
 30
0.0
 10
350.102774543498
 20
323.0195488226651
 30
0.0
 10
350.0100500448307
 20
323.0111638689256
 30
0.0
 10
349.9196283246602
 20
323.0026636074535
 30
0.0
 10
349.809592460075
 20
322.9919360283441
 30
0.0
 10
349.6817644536899
 20
322.9788758387144
 30
0.0
 10
349.5380267785428
 20
322.9633618281253
 30
0.0
 10
349.4020574758751
 20
322.9479426561466
 30
0.0
 10
349.2739591678972
 20
322.9327532437553
 30
0.0
 10
349.1538202118356
 20
322.9179215851335
 30
0.0
 10
349.0485092743538
 20
322.9044382542495
 30
0.0
 10
348.9570804920066
 20
322.8923780275344
 30
0.0
 10
348.8785452334989
 20
322.8817654815304
 30
0.0
 10
348.8035504780851
 20
322.8714041374963
 30
0.0
 10
348.7297609543417
 20
322.860991878863
 30
0.0
 10
348.6548459905724
 20
322.850199351308
 30
0.0
 10
348.5626826047924
 20
322.8366436898746
 30
0.0
 10
348.4523754372293
 20
322.8199787758399
 30
0.0
 10
348.3230782294372
 20
322.7997982436312
 30
0.0
 10
348.1857322386202
 20
322.7776521587168
 30
0.0
 10
348.0401647120235
 20
322.7533751198466
 30
0.0
 10
347.8862286044631
 20
322.7267915988822
 30
0.0
 10
347.7271116574186
 20
322.6983380213057
 30
0.0
 10
347.5629078542004
 20
322.6679311698707
 30
0.0
 10
347.3937298121674
 20
322.6354873107682
 30
0.0
 10
347.2197116206831
 20
322.6009221982791
 30
0.0
 10
347.0410063761126
 20
322.5641523056578
 30
0.0
 10
346.8578310159614
 20
322.525096895609
 30
0.0
 10
346.6703650315696
 20
322.4836886735309
 30
0.0
 10
346.4800066201493
 20
322.4401606734708
 30
0.0
 10
346.2879241324275
 20
322.3947278455526
 30
0.0
 10
346.0962972921758
 20
322.3478914695201
 30
0.0
 10
345.9061069802123
 20
322.2999092343951
 30
0.0
 10
345.6999989160113
 20
322.2463020510703
 30
0.0
 10
345.4789970868978
 20
322.186849837987
 30
0.0
 10
345.2443269290432
 20
322.121374996301
 30
0.0
 10
345.014431727559
 20
322.0549400113598
 30
0.0
 10
344.7895584519341
 20
321.9877142503106
 30
0.0
 10
344.5712124997359
 20
321.9203282284529
 30
0.0
 10
344.3594940842163
 20
321.8530112890383
 30
0.0
 10
344.1544859289138
 20
321.7859747521249
 30
0.0
 10
343.9550787289189
 20
321.7190055760224
 30
0.0
 10
343.7601368479525
 20
321.65183480908
 30
0.0
 10
343.5699199197655
 20
321.584663789147
 30
0.0
 10
343.3848648128687
 20
321.5176385319503
 30
0.0
 10
343.2307769822779
 20
321.4607497395767
 30
0.0
 10
343.1403464021723
 20
321.4264305721558
 30
0.0
 10
343.107186755842
 20
321.4138462068593
 30
0.0
  0
SPLINE
  5
78
330
1F
100
AcDbEntity
  8
0
  6
Continuous
 62
     7
370
    30
100
AcDbSpline
210
0.0
220
0.0
230
1.0
 70
     8
 71
     3
 72
    60
 73
    56
 74
     0
 42
0.000000001
 43
0.00000001
 40
0.0
 40
0.0
 40
0.0
 40
0.0
 40
0.0309075809020886
 40
0.0639746716967257
 40
0.0992107621009568
 40
0.1366235288834325
 40
0.1761016345501503
 40
0.2168918508493305
 40
0.2588610189236398
 40
0.2838885364519648
 40
0.3093186890182978
 40
0.3351523013583564
 40
0.3613903842475731
 40
0.3880341551722741
 40
0.4145111556068662
 40
0.4283586788994409
 40
0.4402949806190206
 40
0.4503455198772034
 40
0.4585549366341837
 40
0.4650085081960186
 40
0.4682287753191404
 40
0.4709165911600331
 40
0.4732170030130628
 40
0.4769823814120662
 40
0.4829191459943035
 40
0.4890853510879671
 40
0.4955763389808207
 40
0.5114218173505138
 40
0.527401450555237
 40
0.54249553088628
 40
0.5529729290189039
 40
0.5628625167962461
 40
0.5723204943072743
 40
0.581530213325872
 40
0.593750821095835
 40
0.6059414417685202
 40
0.6182410875842351
 40
0.6308663379524005
 40
0.6440182534321598
 40
0.6578748158768181
 40
0.6704296243118903
 40
0.6836941370802639
 40
0.6984894029458896
 40
0.7155045603109063
 40
0.7347345600697293
 40
0.756165584353992
 40
0.7797721591531674
 40
0.8021819767435852
 40
0.8261891116266495
 40
0.851743655527269
 40
0.8787824007458396
 40
0.9072277507758596
 40
0.9369870028056471
 40
0.967952107843687
 40
1.0
 40
1.0
 40
1.0
 40
1.0
 10
340.7593271693105
 20
320.3913134207082
 30
0.0
 10
340.7510716923559
 20
320.3872259289668
 30
0.0
 10
340.7339839290158
 20
320.3787653528042
 30
0.0
 10
340.7107987741596
 20
320.3672269933419
 30
0.0
 10
340.6885356685578
 20
320.3561203470734
 30
0.0
 10
340.6677099566613
 20
320.3457032776235
 30
0.0
 10
340.6488527560119
 20
320.3362529036829
 30
0.0
 10
340.6303425065648
 20
320.3269388987082
 30
0.0
 10
340.6152995268717
 20
320.319337220222
 30
0.0
 10
340.6033113920988
 20
320.3132562114147
 30
0.0
 10
340.5940134069351
 20
320.3085249034091
 30
0.0
 10
340.5851916854746
 20
320.3040197577309
 30
0.0
 10
340.5769373038423
 20
320.2997877750907
 30
0.0
 10
340.5691971640281
 20
320.2957982190504
 30
0.0
 10
340.5636722709492
 20
320.2929399905128
 30
0.0
 10
340.5580434077218
 20
320.2899936198904
 30
0.0
 10
340.5531962603021
 20
320.2874328468363
 30
0.0
 10
340.5479042983076
 20
320.2846090710233
 30
0.0
 10
340.5420933101156
 20
320.2814732348303
 30
0.0
 10
340.5362614183708
 20
320.2782881459036
 30
0.0
 10
340.5306540419403
 20
320.2751865242921
 30
0.0
 10
340.5259242716214
 20
320.2725459987303
 30
0.0
 10
340.5194890329535
 20
320.2689162917662
 30
0.0
 10
340.5093927673996
 20
320.2631363032793
 30
0.0
 10
340.4963473895668
 20
320.2554906074464
 30
0.0
 10
340.4810193089082
 20
320.2462511313519
 30
0.0
 10
340.4577605471838
 20
320.2318136115965
 30
0.0
 10
340.4269139552176
 20
320.2116706594189
 30
0.0
 10
340.3899779333004
 20
320.1857921899804
 30
0.0
 10
340.3580137665727
 20
320.1618160905642
 30
0.0
 10
340.3318081901763
 20
320.1410351840019
 30
0.0
 10
340.3108245732391
 20
320.1236534733081
 30
0.0
 10
340.2922135760073
 20
320.1076046432594
 30
0.0
 10
340.2738940884926
 20
320.0911879182324
 30
0.0
 10
340.2580606027552
 20
320.0763876637811
 30
0.0
 10
340.23894137897
 20
320.0579231835445
 30
0.0
 10
340.2178890626472
 20
320.0367737316163
 30
0.0
 10
340.195163652586
 20
320.0129421868891
 30
0.0
 10
340.1709041223662
 20
319.9862734932537
 30
0.0
 10
340.1466220513732
 20
319.9581700154669
 30
0.0
 10
340.1226253319271
 20
319.9289146740358
 30
0.0
 10
340.0986388045651
 20
319.8981320704037
 30
0.0
 10
340.0729886857513
 20
319.8632222279358
 30
0.0
 10
340.0452554034702
 20
319.8227610259556
 30
0.0
 10
340.0156339315577
 20
319.7759034685257
 30
0.0
 10
339.984832241984
 20
319.7223556525016
 30
0.0
 10
339.9551340744031
 20
319.6647196871421
 30
0.0
 10
339.927161143956
 20
319.6034963722226
 30
0.0
 10
339.9014364587881
 20
319.5392674821513
 30
0.0
 10
339.877563826996
 20
319.4695995515345
 30
0.0
 10
339.8563245088037
 20
319.3946346687467
 30
0.0
 10
339.8384778225674
 20
319.3146305348344
 30
0.0
 10
339.8249398846151
 20
319.2299712903489
 30
0.0
 10
339.815950962021
 20
319.141173885249
 30
0.0
 10
339.8148211640844
 20
319.0806021822887
 30
0.0
 10
339.8142465581453
 20
319.0497959123027
 30
0.0
  0
SPLINE
  5
79
330
1F
100
AcDbEntity
  8
0
  6
Continuous
 62
     7
370
    30
100
AcDbSpline
210
0.0
220
0.0
230
1.0
 70
     8
 71
     3
 72
    18
 73
    14
 74
     0
 42
0.000000001
 43
0.00000001
 40
0.0
 40
0.0
 40
0.0
 40
0.0
 40
0.1181246231264271
 40
0.2316349555998371
 40
0.3395656444232946
 40
0.4410800640987512
 40
0.5354811745044273
 40
0.6222117663228719
 40
0.7008459724775538
 40
0.7710745117003641
 40
0.8685194113776412
 40
0.9653704543488776
 40
1.0
 40
1.0
 40
1.0
 40
1.0
 10
339.8128564147975
 20
312.0282313820114
 30
0.0
 10
339.8134231622141
 20
312.006793825961
 30
0.0
 10
339.8145345182483
 20
311.9647561270252
 30
0.0
 10
339.8232114379083
 20
311.9036427294771
 30
0.0
 10
339.8360511073746
 20
311.8464254488698
 30
0.0
 10
339.8525597501222
 20
311.7937681467328
 30
0.0
 10
339.8715748439129
 20
311.7461022736866
 30
0.0
 10
339.8920886872469
 20
311.7036369468802
 30
0.0
 10
339.913135480937
 20
311.6664131039368
 30
0.0
 10
339.9373125423249
 20
311.6288040449286
 30
0.0
 10
339.9660442172186
 20
311.5903481277416
 30
0.0
 10
339.9927797682107
 20
311.5584566326634
 30
0.0
 10
340.0098599511966
 20
311.5418022498571
 30
0.0
 10
340.0143585542424
 20
311.5374157946722
 30
0.0
  0
LINE
  5
7A
330
1F
100
AcDbEntity
  8
0
  6
Continuous
 62
     7
370
    30
100
AcDbLine
 10
352.5334874219
 20
323.1254487947
 30
0.0
 11
352.4564192236
 21
323.1254487947
 31
0.0
  0
LINE
  5
7B
330
1F
100
AcDbEntity
  8
0
  6
Continuous
 62
     7
370
    30
100
AcDbLine
 10
341.0600797162
 20
309.9754487947
 30
0.0
 11
341.0600797162
 21
293.9754487947
 31
0.0
  0
LINE
  5
7C
330
1F
100
AcDbEntity
  8
0
  6
Continuous
 62
     7
370
    30
100
AcDbLine
 10
363.8600797162
 20
293.9754487947
 30
0.0
 11
363.8600797162
 21
309.9754487947
 31
0.0
  0
ARC
  5
7D
330
1F
100
AcDbEntity
  8
0
  6
Continuous
 62
     7
370
    30
100
AcDbCircle
 10
362.8600797162
 20
293.9754487947
 30
0.0
 40
1.0
100
AcDbArc
 50
270.0
 51
0.0
  0
ARC
  5
7E
330
1F
100
AcDbEntity
  8
0
  6
Continuous
 62
     7
370
    30
100
AcDbCircle
 10
342.0600797162
 20
293.9754487947
 30
0.0
 40
1.0
100
AcDbArc
 50
180.0
 51
270.0
  0
LINE
  5
7F
330
1F
100
AcDbEntity
  8
0
  6
Continuous
 62
     7
370
    30
100
AcDbLine
 10
367.0392254883
 20
309.026029387
 30
0.0
 11
367.0392254883
 21
350.8245512053
 31
0.0
  0
LINE
  5
80
330
1F
100
AcDbEntity
  8
0
  6
Continuous
 62
     7
370
    30
100
AcDbLine
 10
338.0392254883
 20
350.8245512053
 30
0.0
 11
338.0392254883
 21
309.026029387
 31
0.0
  0
LINE
  5
81
330
1F
100
AcDbEntity
  8
0
  6
Continuous
 62
     7
370
    30
100
AcDbLine
 10
367.0392254879
 20
350.8245512053
 30
0.0
 11
366.8392254883
 21
351.0245512053
 31
0.0
  0
LINE
  5
82
330
1F
100
AcDbEntity
  8
0
  6
Continuous
 62
     7
370
    30
100
AcDbLine
 10
338.2392254883
 20
351.0245512053
 30
0.0
 11
338.0392254887
 21
350.8245512053
 31
0.0
  0
LINE
  5
83
330
1F
100
AcDbEntity
  8
0
  6
Continuous
 62
     7
370
    30
100
AcDbLine
 10
338.0392254883
 20
309.026029387
 30
0.0
 11
338.5392254874
 21
308.526029387
 31
0.0
  0
LINE
  5
84
330
1F
100
AcDbEntity
  8
0
  6
Continuous
 62
     7
370
    30
100
AcDbLine
 10
366.5392254892
 20
308.526029387
 30
0.0
 11
367.0392254883
 21
309.026029387
 31
0.0
  0
LINE
  5
85
330
1F
100
AcDbEntity
  8
0
  6
Continuous
 62
     7
370
    30
100
AcDbLine
 10
339.7100797162
 20
311.5374157947
 30
0.0
 11
339.7100797162
 21
309.9754487947
 31
0.0
  0
LINE
  5
86
330
1F
100
AcDbEntity
  8
0
  6
Continuous
 62
     7
370
    30
100
AcDbLine
 10
339.8100807067
 20
312.0286268178
 30
0.0
 11
339.8224276363
 21
312.0267400175
 31
0.0
  0
LINE
  5
87
330
1F
100
AcDbEntity
  8
0
  6
Continuous
 62
     7
370
    30
100
AcDbLine
 10
339.8100807067
 20
319.051162669
 30
0.0
 11
339.8100807067
 21
312.0286268178
 31
0.0
  0
LINE
  5
88
330
1F
100
AcDbEntity
  8
0
  6
Continuous
 62
     7
370
    30
100
AcDbLine
 10
339.8148286448
 20
319.0482374475
 30
0.0
 11
339.8100807067
 21
319.051162669
 31
0.0
  0
LINE
  5
89
330
1F
100
AcDbEntity
  8
0
  6
Continuous
 62
     7
370
    30
100
AcDbLine
 10
365.1100787257
 20
319.051162669
 30
0.0
 11
365.1100787257
 21
312.0286268178
 31
0.0
  0
SPLINE
  5
8A
330
1F
100
AcDbEntity
  8
0
  6
Continuous
 62
     7
370
    30
100
AcDbSpline
210
0.0
220
0.0
230
1.0
 70
     8
 71
     3
 72
     9
 73
     5
 74
     0
 42
0.000000001
 43
0.00000001
 40
0.0
 40
0.0
 40
0.0
 40
0.0
 40
0.2524636121792467
 40
1.0
 40
1.0
 40
1.0
 40
1.0
 10
340.7530935245306
 20
320.3880071815751
 30
0.0
 10
340.7628388835388
 20
320.392863883569
 30
0.0
 10
340.8014399275631
 20
320.4121011191925
 30
0.0
 10
340.8621069943041
 20
320.4416904014791
 30
0.0
 10
340.9074578342353
 20
320.4638094666779
 30
0.0
  0
SPLINE
  5
8B
330
1F
100
AcDbEntity
  8
0
  6
Continuous
 62
     7
370
    30
100
AcDbSpline
210
0.0
220
0.0
230
1.0
 70
     8
 71
     3
 72
    11
 73
     7
 74
     0
 42
0.000000001
 43
0.00000001
 40
0.0
 40
0.0
 40
0.0
 40
0.0
 40
0.1185945007255808
 40
0.5513590790966166
 40
0.9588061056894719
 40
1.0
 40
1.0
 40
1.0
 40
1.0
 10
342.3059817326015
 20
321.0947869341712
 30
0.0
 10
342.3356489271719
 20
321.1073259137501
 30
0.0
 10
342.4735750281093
 20
321.1656210302281
 30
0.0
 10
342.7306426811555
 20
321.2682768777196
 30
0.0
 10
342.9703164345754
 20
321.3629170198677
 30
0.0
 10
343.1019098264864
 20
321.411850776233
 30
0.0
 10
343.1139926393235
 20
321.4163438393799
 30
0.0
  0
ARC
  5
8C
330
1F
100
AcDbEntity
  8
0
  6
Continuous
 62
     7
370
    30
100
AcDbCircle
 10
340.5100807338
 20
312.028626813
 30
0.0
 40
0.7000000271266638
100
AcDbArc
 50
179.9999996005
 51
224.5953189057
  0
LINE
  5
8D
330
1F
100
AcDbEntity
  8
0
  6
Continuous
 62
     7
370
    30
100
AcDbLine
 10
362.8600797162
 20
292.9754487947
 30
0.0
 11
342.0600797162
 21
292.9754487947
 31
0.0
  0
LINE
  5
8E
330
1F
100
AcDbEntity
  8
0
  6
Continuous
 62
     7
370
    30
100
AcDbLine
 10
363.8600797162
 20
309.026029387
 30
0.0
 11
367.0392254883
 21
309.026029387
 31
0.0
  0
LINE
  5
8F
330
1F
100
AcDbEntity
  8
0
  6
Continuous
 62
     7
370
    30
100
AcDbLine
 10
338.0392254883
 20
309.026029387
 30
0.0
 11
341.0600797162
 21
309.026029387
 31
0.0
  0
LINE
  5
90
330
1F
100
AcDbEntity
  8
0
  6
Continuous
 62
     7
370
    30
100
AcDbLine
 10
367.0392254883
 20
350.8245512053
 30
0.0
 11
338.0392254883
 21
350.8245512053
 31
0.0
  0
LINE
  5
91
330
1F
100
AcDbEntity
  8
0
  6
Continuous
 62
     7
370
    30
100
AcDbLine
 10
338.2392254883
 20
351.0245512053
 30
0.0
 11
366.8392254883
 21
351.0245512053
 31
0.0
  0
LINE
  5
92
330
1F
100
AcDbEntity
  8
0
  6
Continuous
 62
     7
370
    30
100
AcDbLine
 10
341.0600797162
 20
308.526029387
 30
0.0
 11
338.5392254883
 21
308.526029387
 31
0.0
  0
LINE
  5
93
330
1F
100
AcDbEntity
  8
0
  6
Continuous
 62
     7
370
    30
100
AcDbLine
 10
366.5392254883
 20
308.526029387
 30
0.0
 11
363.8600797162
 21
308.526029387
 31
0.0
  0
LINE
  5
94
330
1F
100
AcDbEntity
  8
0
  6
Continuous
 62
     7
370
    30
100
AcDbLine
 10
339.7100797162
 20
309.9754487947
 30
0.0
 11
365.2100787178
 21
309.9754487947
 31
0.0
  0
LINE
  5
95
330
1F
100
AcDbEntity
  8
0
  6
Continuous
 62
     7
370
    30
100
AcDbLine
 10
365.2100787178
 20
311.5374157947
 30
0.0
 11
339.7100797162
 21
311.5374157947
 31
0.0
  0
LINE
  5
96
330
1F
100
AcDbEntity
  8
0
  6
Continuous
 62
     7
370
    30
100
AcDbLine
 10
365.2110827698
 20
309.9754487947
 30
0.0
 11
365.2110827698
 21
311.5374157947
 31
0.0
  0
LINE
  5
97
330
1F
100
AcDbEntity
  8
0
  6
Continuous
 62
     7
370
    30
100
AcDbLine
 10
365.2100787178
 20
309.9754487947
 30
0.0
 11
365.2110827698
 21
309.9754487947
 31
0.0
  0
LINE
  5
98
330
1F
100
AcDbEntity
  8
0
  6
Continuous
 62
     7
370
    30
100
AcDbLine
 10
365.2110827698
 20
311.5374157947
 30
0.0
 11
365.2100787178
 21
311.5374157947
 31
0.0
  0
LINE
  5
99
330
1F
100
AcDbEntity
  8
0
  6
Continuous
 62
     7
370
    30
100
AcDbLine
 10
678.0278967377
 20
311.5374157947
 30
0.0
 11
678.0278967377
 21
319.72556798
 31
0.0
  0
SPLINE
  5
9A
330
1F
100
AcDbEntity
  8
0
  6
Continuous
 62
     7
370
    30
100
AcDbSpline
210
0.0
220
0.0
230
1.0
 70
     8
 71
     3
 72
    60
 73
    56
 74
     0
 42
0.000000001
 43
0.00000001
 40
0.0
 40
0.0
 40
0.0
 40
0.0
 40
0.0284933700299162
 40
0.0566273352375454
 40
0.0843434780001155
 40
0.1115854277462387
 40
0.1382992539468974
 40
0.1644338022266726
 40
0.189940968907428
 40
0.2147759115170057
 40
0.2422820768550998
 40
0.2688000203081207
 40
0.2942794657610429
 40
0.3186760456165632
 40
0.3419511158603233
 40
0.3640714832792464
 40
0.3850090624684209
 40
0.4043578329249273
 40
0.4225301806284639
 40
0.4395116385985284
 40
0.455426111208216
 40
0.4705936437632963
 40
0.4850230413071603
 40
0.4987096982381548
 40
0.5116501267769519
 40
0.5268554585078022
 40
0.5408744771768632
 40
0.553705815203807
 40
0.5656101363300974
 40
0.5777571717292511
 40
0.5865568136023781
 40
0.5950288270891163
 40
0.6033552941668062
 40
0.6124839545438119
 40
0.6230210694155863
 40
0.6347332494392136
 40
0.6477866825857895
 40
0.6621687814606901
 40
0.6771800011324819
 40
0.7040038389551575
 40
0.7308306533901424
 40
0.757634734651026
 40
0.7843905261915762
 40
0.8069250308268211
 40
0.8286130510713298
 40
0.8493492454315247
 40
0.8691453306160598
 40
0.8880145318969559
 40
0.9060768584915244
 40
0.9204870317832483
 40
0.9352943292624826
 40
0.9504837807021236
 40
0.9660817624419585
 40
0.9825531175540818
 40
1.0
 40
1.0
 40
1.0
 40
1.0
 10
678.0278967585647
 20
319.7254509756607
 30
0.0
 10
678.0272418734108
 20
319.7761776149428
 30
0.0
 10
678.0259403635821
 20
319.8769910464562
 30
0.0
 10
678.0155277271962
 20
320.0268481778578
 30
0.0
 10
677.9992777576142
 20
320.1739049760792
 30
0.0
 10
677.9769598957909
 20
320.3176187788484
 30
0.0
 10
677.9491557940613
 20
320.4574952806246
 30
0.0
 10
677.9162908703674
 20
320.5930933182628
 30
0.0
 10
677.8788764195998
 20
320.7240289342838
 30
0.0
 10
677.8355525900035
 20
320.8557003565253
 30
0.0
 10
677.7862182731413
 20
320.9871744505275
 30
0.0
 10
677.730904561878
 20
321.1174898379537
 30
0.0
 10
677.6726873876942
 20
321.2404314191854
 30
0.0
 10
677.6123752329667
 20
321.3558780756917
 30
0.0
 10
677.5507512133165
 20
321.4637899321518
 30
0.0
 10
677.4885639631472
 20
321.5641983574505
 30
0.0
 10
677.426898333339
 20
321.6566294961932
 30
0.0
 10
677.3664253138902
 20
321.7413401224586
 30
0.0
 10
677.3077431944125
 20
321.8186212162771
 30
0.0
 10
677.2507817051211
 20
321.8894859794485
 30
0.0
 10
677.195467546681
 20
321.9547730062876
 30
0.0
 10
677.1415975815635
 20
322.015296009847
 30
0.0
 10
677.0890410637774
 20
322.0716495031654
 30
0.0
 10
677.0380210530882
 20
322.1239892369973
 30
0.0
 10
676.9849336721396
 20
322.1762188427513
 30
0.0
 10
676.9302721509724
 20
322.2276695360684
 30
0.0
 10
676.874589726864
 20
322.2777213823869
 30
0.0
 10
676.8223173509981
 20
322.3227518558439
 30
0.0
 10
676.7717473978223
 20
322.3646322673001
 30
0.0
 10
676.7260084326525
 20
322.4010775261885
 30
0.0
 10
676.6845184067611
 20
322.4330356256791
 30
0.0
 10
676.6480427471222
 20
322.4603511409979
 30
0.0
 10
676.6107365565422
 20
322.4875278898101
 30
0.0
 10
676.5700602381564
 20
322.5163145565417
 30
0.0
 10
676.5239705765389
 20
322.547875347401
 30
0.0
 10
676.4715029053151
 20
322.5824726697808
 30
0.0
 10
676.4125848305738
 20
322.6196997828942
 30
0.0
 10
676.3478454878843
 20
322.6586790666794
 30
0.0
 10
676.2609357313592
 20
322.7083105603704
 30
0.0
 10
676.152826862922
 20
322.7654227710407
 30
0.0
 10
676.0234469959703
 20
322.8269463575335
 30
0.0
 10
675.8917020655126
 20
322.8829201783763
 30
0.0
 10
675.7648728849874
 20
322.9306139255751
 30
0.0
 10
675.6449495554286
 20
322.9704850914984
 30
0.0
 10
675.5339967429917
 20
323.0031414116269
 30
0.0
 10
675.4267402638259
 20
323.03086272887
 30
0.0
 10
675.3235539663415
 20
323.0540552447512
 30
0.0
 10
675.2243870363388
 20
323.0732013512342
 30
0.0
 10
675.1341711798622
 20
323.0879190624734
 30
0.0
 10
675.0507789388714
 20
323.0993495476988
 30
0.0
 10
674.9722274307343
 20
323.1082828841692
 30
0.0
 10
674.8913808211485
 20
323.1155634055689
 30
0.0
 10
674.8074254327832
 20
323.1210396142966
 30
0.0
 10
674.7193412681497
 20
323.1247285419436
 30
0.0
 10
674.6589599839162
 20
323.1252041507494
 30
0.0
 10
674.627901024377
 20
323.1254487946791
 30
0.0
  0
LINE
  5
9B
330
1F
100
AcDbEntity
  8
0
  6
Continuous
 62
     7
370
    30
100
AcDbLine
 10
479.8778400558
 20
310.5254487947
 30
0.0
 11
651.7280588723
 21
310.5254487947
 31
0.0
  0
LINE
  5
9C
330
1F
100
AcDbEntity
  8
0
  6
Continuous
 62
     7
370
    30
100
AcDbLine
 10
674.6279010083
 20
323.1254487947
 30
0.0
 11
479.8778400558
 21
323.1254487947
 31
0.0
  0
LINE
  5
9D
330
1F
100
AcDbEntity
  8
0
  6
Continuous
 62
     7
370
    30
100
AcDbLine
 10
653.9778967377
 20
309.9754487947
 30
0.0
 11
653.9778967377
 21
293.9754487947
 31
0.0
  0
LINE
  5
9E
330
1F
100
AcDbEntity
  8
0
  6
Continuous
 62
     7
370
    30
100
AcDbLine
 10
676.7778967377
 20
293.9754487947
 30
0.0
 11
676.7778967377
 21
309.9754487947
 31
0.0
  0
ARC
  5
9F
330
1F
100
AcDbEntity
  8
0
  6
Continuous
 62
     7
370
    30
100
AcDbCircle
 10
675.7778967377
 20
293.9754487947
 30
0.0
 40
1.0
100
AcDbArc
 50
270.0
 51
0.0
  0
ARC
  5
A0
330
1F
100
AcDbEntity
  8
0
  6
Continuous
 62
     7
370
    30
100
AcDbCircle
 10
654.9778967377
 20
293.9754487947
 30
0.0
 40
1.0
100
AcDbArc
 50
180.0
 51
270.0
  0
LINE
  5
A1
330
1F
100
AcDbEntity
  8
0
  6
Continuous
 62
     7
370
    30
100
AcDbLine
 10
479.8778400555
 20
350.8245512053
 30
0.0
 11
479.6778400558
 21
351.0245512053
 31
0.0
  0
LINE
  5
A2
330
1F
100
AcDbEntity
  8
0
  6
Continuous
 62
     7
370
    30
100
AcDbLine
 10
451.0778400558
 20
351.0245512053
 30
0.0
 11
450.8778400562
 21
350.8245512053
 31
0.0
  0
LINE
  5
A3
330
1F
100
AcDbEntity
  8
0
  6
Continuous
 62
     7
370
    30
100
AcDbLine
 10
450.8778400558
 20
309.026029387
 30
0.0
 11
451.3778400549
 21
308.526029387
 31
0.0
  0
LINE
  5
A4
330
1F
100
AcDbEntity
  8
0
  6
Continuous
 62
     7
370
    30
100
AcDbLine
 10
479.3778400567
 20
308.526029387
 30
0.0
 11
479.8778400558
 21
309.026029387
 31
0.0
  0
LINE
  5
A5
330
1F
100
AcDbEntity
  8
0
  6
Continuous
 62
     7
370
    30
100
AcDbLine
 10
479.8778400558
 20
309.026029387
 30
0.0
 11
479.8778400558
 21
310.5254487947
 31
0.0
  0
LINE
  5
A6
330
1F
100
AcDbEntity
  8
0
  6
Continuous
 62
     7
370
    30
100
AcDbLine
 10
479.8778400558
 20
323.1254487947
 30
0.0
 11
479.8778400558
 21
350.8245512053
 31
0.0
  0
LINE
  5
A7
330
1F
100
AcDbEntity
  8
0
  6
Continuous
 62
     7
370
    30
100
AcDbLine
 10
450.8778400558
 20
350.8245512053
 30
0.0
 11
450.8778400558
 21
309.026029387
 31
0.0
  0
LINE
  5
A8
330
1F
100
AcDbEntity
  8
0
  6
Continuous
 62
     7
370
    30
100
AcDbLine
 10
678.1278967377
 20
309.9754487947
 30
0.0
 11
678.1278967377
 21
311.5374157947
 31
0.0
  0
LINE
  5
A9
330
1F
100
AcDbEntity
  8
0
  6
Continuous
 62
     7
370
    30
100
AcDbLine
 10
652.3778967377
 20
310.621968669
 30
0.0
 11
652.3778967377
 21
309.9754487947
 31
0.0
  0
LINE
  5
AA
330
1F
100
AcDbEntity
  8
0
  6
Continuous
 62
     7
370
    30
100
AcDbLine
 10
659.4943208268
 20
311.2754487947
 30
0.0
 11
658.1701846165
 21
311.2754487947
 31
0.0
  0
SPLINE
  5
AB
330
1F
100
AcDbEntity
  8
0
  6
Continuous
 62
     7
370
    30
100
AcDbSpline
210
0.0
220
0.0
230
1.0
 70
     8
 71
     3
 72
    58
 73
    54
 74
     0
 42
0.000000001
 43
0.00000001
 40
0.0
 40
0.0
 40
0.0
 40
0.0
 40
0.0227881429587114
 40
0.0455793264841149
 40
0.0683674773670065
 40
0.091265685750759
 40
0.1141669689671426
 40
0.1370651827960311
 40
0.1591261786673855
 40
0.1811899183090275
 40
0.2032509163137393
 40
0.2254113598597537
 40
0.2475745820571723
 40
0.2697350250759539
 40
0.2856718211572946
 40
0.3016086170468621
 40
0.3175619844241713
 40
0.3335153515141616
 40
0.3585357072513665
 40
0.3835600704741459
 40
0.4085804170223934
 40
0.427454702338407
 40
0.4463324427615698
 40
0.4652101766572045
 40
0.4840844530704075
 40
0.5050448500670093
 40
0.5260076198744004
 40
0.5469680094011626
 40
0.5680146702447698
 40
0.5890637431825911
 40
0.6101103958758535
 40
0.6243438216319418
 40
0.638577246895661
 40
0.6528226887416266
 40
0.6670681300991561
 40
0.6919928332922418
 40
0.7169215770627952
 40
0.7418462651358307
 40
0.7606498524202564
 40
0.7794569298242557
 40
0.7982640007686292
 40
0.8170675792428399
 40
0.8379545033397086
 40
0.8588438253593019
 40
0.8797307448118588
 40
0.90070473761243
 40
0.9216811642727186
 40
0.9426551541794231
 40
0.9568420177131259
 40
0.9710288811607592
 40
0.9852278273862517
 40
0.9994267735815341
 40
0.9999999999999999
 40
0.9999999999999999
 40
0.9999999999999999
 40
0.9999999999999999
 10
658.1701846164946
 20
311.2754487946723
 30
0.0
 10
658.0812824972043
 20
311.2681949577811
 30
0.0
 10
657.9034663966293
 20
311.2536863161369
 30
0.0
 10
657.6418010614193
 20
311.2313543558878
 30
0.0
 10
657.3835913394107
 20
311.2086296527838
 30
0.0
 10
657.1293550850826
 20
311.1855134273922
 30
0.0
 10
656.8791489892045
 20
311.1620666654768
 30
0.0
 10
656.636530510466
 20
311.1386623320286
 30
0.0
 10
656.4014309990422
 20
311.1153601404776
 30
0.0
 10
656.1737606088041
 20
311.0922141707129
 30
0.0
 10
655.9503579140631
 20
311.0689444821163
 30
0.0
 10
655.731362819204
 20
311.0455969460346
 30
0.0
 10
655.5169020129812
 20
311.022218382671
 30
0.0
 10
655.327019188092
 20
311.0010741329207
 30
0.0
 10
655.1603055215833
 20
310.9821831034776
 30
0.0
 10
655.015403781398
 20
310.9655297894996
 30
0.0
 10
654.8731543655105
 20
310.9489557980804
 30
0.0
 10
654.7071572585688
 20
310.9293567657999
 30
0.0
 10
654.5196259152688
 20
310.9068460272497
 30
0.0
 10
654.3132972830374
 20
310.8816017276275
 30
0.0
 10
654.1303742085151
 20
310.8588123827089
 30
0.0
 10
653.9690764751141
 20
310.8384139273931
 30
0.0
 10
653.8277271200352
 20
310.8203151097687
 30
0.0
 10
653.6905931214841
 20
310.8025458277451
 30
0.0
 10
653.5528409578511
 20
310.7844918461142
 30
0.0
 10
653.4150932715929
 20
310.766229388202
 30
0.0
 10
653.278007195699
 20
310.747843841501
 30
0.0
 10
653.1461918418195
 20
310.7299703021951
 30
0.0
 10
653.0197417583516
 20
310.7126450729371
 30
0.0
 10
652.8987359747612
 20
310.6959008540813
 30
0.0
 10
652.7958488455987
 20
310.6815299202995
 30
0.0
 10
652.7091812423673
 20
310.6693355064598
 30
0.0
 10
652.6370552744052
 20
310.6591287767966
 30
0.0
 10
652.5675652120595
 20
310.6492409194021
 30
0.0
 10
652.4840258125215
 20
310.6372910332726
 30
0.0
 10
652.3893218576384
 20
310.6236490951155
 30
0.0
 10
652.2871399599733
 20
310.6088093197039
 30
0.0
 10
652.201003518975
 20
310.5962054671742
 30
0.0
 10
652.128745699019
 20
310.5855707106424
 30
0.0
 10
652.0683822825666
 20
310.5766439168385
 30
0.0
 10
652.0128660881493
 20
310.5683970787885
 30
0.0
 10
651.9603545105339
 20
310.5605645528414
 30
0.0
 10
651.9115239722677
 20
310.5532528915719
 30
0.0
 10
651.867071704603
 20
310.5465713156196
 30
0.0
 10
651.8286461022495
 20
310.5407754513569
 30
0.0
 10
651.7963020614786
 20
310.5358823170478
 30
0.0
 10
651.7700835947845
 20
310.5319038067544
 30
0.0
 10
651.7521878163334
 20
310.5291797110419
 30
0.0
 10
651.7405767268659
 20
310.527407275156
 30
0.0
 10
651.7332414323779
 20
310.5262835526805
 30
0.0
 10
651.7293210685988
 20
310.5256773354742
 30
0.0
 10
651.7271186624257
 20
310.5253351478742
 30
0.0
 10
651.7279615062652
 20
310.525458943927
 30
0.0
 10
651.7279942123787
 20
310.5254637477679
 30
0.0
  0
SPLINE
  5
AC
330
1F
100
AcDbEntity
  8
0
  6
Continuous
 62
     7
370
    30
100
AcDbSpline
210
0.0
220
0.0
230
1.0
 70
     8
 71
     3
 72
    22
 73
    18
 74
     0
 42
0.000000001
 43
0.00000001
 40
0.0
 40
0.0
 40
0.0
 40
0.0
 40
0.0372546754849236
 40
0.1218884653681861
 40
0.2065086384960987
 40
0.2916236366248909
 40
0.3767524872233816
 40
0.4618675091391145
 40
0.5327537879366363
 40
0.6036480485941716
 40
0.6745343449053713
 40
0.7457092522155706
 40
0.8168922157491013
 40
0.888067145281557
 40
0.9361971459741719
 40
0.984327148135767
 40
1.0
 40
1.0
 40
1.0
 40
1.0
 10
651.7301924779657
 20
310.5257862951132
 30
0.0
 10
651.7306263414926
 20
310.5258491469561
 30
0.0
 10
651.7320458400869
 20
310.5260547832845
 30
0.0
 10
651.7435599442359
 20
310.5277837149137
 30
0.0
 10
651.7644613876437
 20
310.5309271868579
 30
0.0
 10
651.7945389429419
 20
310.5354535631897
 30
0.0
 10
651.8331772033267
 20
310.5412586370705
 30
0.0
 10
651.8778288419427
 20
310.5479502044338
 30
0.0
 10
651.9268324754639
 20
310.5552728138409
 30
0.0
 10
651.9786932443801
 20
310.5629966946028
 30
0.0
 10
652.0365378408404
 20
310.5715790523548
 30
0.0
 10
652.1003672378898
 20
310.5810099148475
 30
0.0
 10
652.1702006040736
 20
310.5912780364396
 30
0.0
 10
652.2376480994574
 20
310.6011445058046
 30
0.0
 10
652.3009802741759
 20
310.6103608490649
 30
0.0
 10
652.344842621193
 20
310.6167257772663
 30
0.0
 10
652.3713783650351
 20
310.6205538355416
 30
0.0
 10
652.3778967377425
 20
310.6214941789038
 30
0.0
  0
LINE
  5
AD
330
1F
100
AcDbEntity
  8
0
  6
Continuous
 62
     7
370
    30
100
AcDbLine
 10
665.3737811591
 20
292.9754487947
 30
0.0
 11
654.9778967377
 21
292.9754487947
 31
0.0
  0
LINE
  5
AE
330
1F
100
AcDbEntity
  8
0
  6
Continuous
 62
     7
370
    30
100
AcDbLine
 10
675.7778967377
 20
292.9754487947
 30
0.0
 11
665.3737811591
 21
292.9754487947
 31
0.0
  0
LINE
  5
AF
330
1F
100
AcDbEntity
  8
0
  6
Continuous
 62
     7
370
    30
100
AcDbLine
 10
451.0778400558
 20
351.0245512053
 30
0.0
 11
479.6778400558
 21
351.0245512053
 31
0.0
  0
LINE
  5
B0
330
1F
100
AcDbEntity
  8
0
  6
Continuous
 62
     7
370
    30
100
AcDbLine
 10
479.8778400555
 20
350.8245512053
 30
0.0
 11
450.8778400558
 21
350.8245512053
 31
0.0
  0
LINE
  5
B1
330
1F
100
AcDbEntity
  8
0
  6
Continuous
 62
     7
370
    30
100
AcDbLine
 10
450.8778400558
 20
309.026029387
 30
0.0
 11
479.8778400558
 21
309.026029387
 31
0.0
  0
LINE
  5
B2
330
1F
100
AcDbEntity
  8
0
  6
Continuous
 62
     7
370
    30
100
AcDbLine
 10
479.3778400558
 20
308.526029387
 30
0.0
 11
451.3778400558
 21
308.526029387
 31
0.0
  0
LINE
  5
B3
330
1F
100
AcDbEntity
  8
0
  6
Continuous
 62
     7
370
    30
100
AcDbLine
 10
665.3728511966
 20
309.9754487947
 30
0.0
 11
678.1278967377
 21
309.9754487947
 31
0.0
  0
LINE
  5
B4
330
1F
100
AcDbEntity
  8
0
  6
Continuous
 62
     7
370
    30
100
AcDbLine
 10
678.1278967377
 20
311.5374157947
 30
0.0
 11
665.3728511966
 21
311.5374157947
 31
0.0
  0
LINE
  5
B5
330
1F
100
AcDbEntity
  8
0
  6
Continuous
 62
     7
370
    30
100
AcDbLine
 10
662.835628504
 20
311.5374157947
 30
0.0
 11
662.835628504
 21
309.9754487947
 31
0.0
  0
LINE
  5
B6
330
1F
100
AcDbEntity
  8
0
  6
Continuous
 62
     7
370
    30
100
AcDbLine
 10
665.3728511966
 20
311.5374157947
 30
0.0
 11
662.835628504
 21
311.5374157947
 31
0.0
  0
LINE
  5
B7
330
1F
100
AcDbEntity
  8
0
  6
Continuous
 62
     7
370
    30
100
AcDbLine
 10
662.835628504
 20
309.9754487947
 30
0.0
 11
665.3728511966
 21
309.9754487947
 31
0.0
  0
LINE
  5
B8
330
1F
100
AcDbEntity
  8
0
  6
Continuous
 62
     7
370
    30
100
AcDbLine
 10
662.835628504
 20
311.5374157947
 30
0.0
 11
661.6273575952
 21
311.5374157947
 31
0.0
  0
LINE
  5
B9
330
1F
100
AcDbEntity
  8
0
  6
Continuous
 62
     7
370
    30
100
AcDbLine
 10
662.835628504
 20
309.9754487947
 30
0.0
 11
652.3778967377
 21
309.9754487947
 31
0.0
  0
LINE
  5
BA
330
1F
100
AcDbEntity
  8
0
  6
Continuous
 62
     7
370
    30
100
AcDbLine
 10
26.9721032623
 20
319.72556798
 30
0.0
 11
26.9721032623
 21
311.5374157947
 31
0.0
  0
SPLINE
  5
BB
330
1F
100
AcDbEntity
  8
0
  6
Continuous
 62
     7
370
    30
100
AcDbSpline
210
0.0
220
0.0
230
1.0
 70
     8
 71
     3
 72
    65
 73
    61
 74
     0
 42
0.000000001
 43
0.00000001
 40
0.0
 40
0.0
 40
0.0
 40
0.0
 40
0.0110408979426641
 40
0.0209891495841047
 40
0.030251528399797
 40
0.0395046865107188
 40
0.0487560995235952
 40
0.0580043406930669
 40
0.0800832449515733
 40
0.1031362884096756
 40
0.1245797266726973
 40
0.1468445928412135
 40
0.1698134287925758
 40
0.1933917277672126
 40
0.2109217684940114
 40
0.2287716703291434
 40
0.2469393605652019
 40
0.2654221299777929
 40
0.28418061779571
 40
0.3024420807155419
 40
0.319880917633945
 40
0.3329946143155909
 40
0.3455824028072956
 40
0.3576377121011798
 40
0.3691547230458326
 40
0.3800992103531726
 40
0.3899275975165283
 40
0.3984312279065935
 40
0.4125576483334253
 40
0.4279775584913588
 40
0.4414644944735308
 40
0.4553336572795202
 40
0.4695856022080413
 40
0.4767618119908182
 40
0.4848012191819837
 40
0.4939852961898004
 40
0.5043134705284038
 40
0.5157843874893501
 40
0.5283956615226689
 40
0.5421436026229474
 40
0.5570229198092463
 40
0.5733277116812074
 40
0.5907879020188304
 40
0.6093906868943877
 40
0.6291200861347357
 40
0.6499565647125791
 40
0.6714759258187923
 40
0.6940143526789104
 40
0.7175413801725942
 40
0.7420220634570526
 40
0.7650718132386946
 40
0.7888438896076828
 40
0.8133018412931982
 40
0.838405965448958
 40
0.8641133898980285
 40
0.8903782121445958
 40
0.9171516964688939
 40
0.9443825286958987
 40
0.9720171263534958
 40
1.0
 40
1.0
 40
1.0
 40
1.0
 10
30.37209897562299
 20
323.1254487946791
 30
0.0
 10
30.3524442127476
 20
323.1253511623303
 30
0.0
 10
30.31507979183071
 20
323.1251655596753
 30
0.0
 10
30.26124222225254
 20
323.1237605527239
 30
0.0
 10
30.21061146238521
 20
323.1217340572988
 30
0.0
 10
30.1612543759785
 20
323.119024174817
 30
0.0
 10
30.11196679309544
 20
323.1156030343857
 30
0.0
 10
30.03998239264941
 20
323.1095529321695
 30
0.0
 10
29.94372466787201
 20
323.0990728390837
 30
0.0
 10
29.82640923544508
 20
323.0820738006037
 30
0.0
 10
29.70943718064445
 20
323.0609279488237
 30
0.0
 10
29.59340409265729
 20
323.0358110568905
 30
0.0
 10
29.47465113478479
 20
323.0056527307669
 30
0.0
 10
29.36516679226106
 20
322.9735455425683
 30
0.0
 10
29.26544719402136
 20
322.9407707948183
 30
0.0
 10
29.17573947223595
 20
322.9084985378029
 30
0.0
 10
29.08540105795818
 20
322.8730826830364
 30
0.0
 10
28.99463046430925
 20
322.8344477491533
 30
0.0
 10
28.90487645586162
 20
322.7931046817636
 30
0.0
 10
28.81802795415519
 20
322.7499966182837
 30
0.0
 10
28.74129588508456
 20
322.7091898131243
 30
0.0
 10
28.67437142177889
 20
322.67151168508
 30
0.0
 10
28.61647610745327
 20
322.6373599753697
 30
0.0
 10
28.56167284830555
 20
322.6035857800709
 30
0.0
 10
28.50996616625193
 20
322.5703837279452
 30
0.0
 10
28.46215112308659
 20
322.5384755294192
 30
0.0
 10
28.41927640845515
 20
322.5088419407637
 30
0.0
 10
28.37222045619617
 20
322.4753071667549
 30
0.0
 10
28.31776240380835
 20
322.4350189013525
 30
0.0
 10
28.25724514226349
 20
322.3880367077424
 30
0.0
 10
28.19816689403681
 20
322.3399830995538
 30
0.0
 10
28.14171889864328
 20
322.2920176086953
 30
0.0
 10
28.09474207142681
 20
322.2502788894176
 30
0.0
 10
28.05611881489386
 20
322.2147813966889
 30
0.0
 10
28.02449121077183
 20
322.1850084416179
 30
0.0
 10
27.98923571436232
 20
322.1509091728042
 30
0.0
 10
27.9501811018763
 20
322.1119594991193
 30
0.0
 10
27.90755295930098
 20
322.0679647525179
 30
0.0
 10
27.86161095597989
 20
322.0187194966241
 30
0.0
 10
27.81265106518932
 20
321.9640114844173
 30
0.0
 10
27.76065897799079
 20
321.9032185769379
 30
0.0
 10
27.70599895598066
 20
321.8360430457878
 30
0.0
 10
27.64909233168725
 20
321.7621895758349
 30
0.0
 10
27.59071588636872
 20
321.6818196483084
 30
0.0
 10
27.53139943528002
 20
321.5947596715095
 30
0.0
 10
27.4720995683562
 20
321.5014701820983
 30
0.0
 10
27.41339358132838
 20
321.4019511777532
 30
0.0
 10
27.35587482209065
 20
321.2962508288009
 30
0.0
 10
27.29986506662094
 20
321.1838176177226
 30
0.0
 10
27.24775732684711
 20
321.0685204673094
 30
0.0
 10
27.19982602892995
 20
320.950959074987
 30
0.0
 10
27.15626246720038
 20
320.8317507182309
 30
0.0
 10
27.1161195809434
 20
320.7074957166197
 30
0.0
 10
27.07991179864835
 20
320.5784529360887
 30
0.0
 10
27.04813391552205
 20
320.4449366848319
 30
0.0
 10
27.02126936817575
 20
320.3073158316524
 30
0.0
 10
26.99971908571577
 20
320.1660120141357
 30
0.0
 10
26.98403589714562
 20
320.0214963496476
 30
0.0
 10
26.97399029440237
 20
319.8742848565316
 30
0.0
 10
26.97273487955565
 20
319.7752689481247
 30
0.0
 10
26.97210324143537
 20
319.7254509756607
 30
0.0
  0
LINE
  5
BC
330
1F
100
AcDbEntity
  8
0
  6
Continuous
 62
     7
370
    30
100
AcDbLine
 10
53.2719831847
 20
310.5254487947
 30
0.0
 11
225.1221599442
 21
310.5254487947
 31
0.0
  0
LINE
  5
BD
330
1F
100
AcDbEntity
  8
0
  6
Continuous
 62
     7
370
    30
100
AcDbLine
 10
225.1221599442
 20
323.1254487947
 30
0.0
 11
30.3720989917
 21
323.1254487947
 31
0.0
  0
LINE
  5
BE
330
1F
100
AcDbEntity
  8
0
  6
Continuous
 62
     7
370
    30
100
AcDbLine
 10
28.2221032623
 20
309.9754487947
 30
0.0
 11
28.2221032623
 21
293.9754487947
 31
0.0
  0
LINE
  5
BF
330
1F
100
AcDbEntity
  8
0
  6
Continuous
 62
     7
370
    30
100
AcDbLine
 10
51.0221032623
 20
293.9754487947
 30
0.0
 11
51.0221032623
 21
309.9754487947
 31
0.0
  0
ARC
  5
C0
330
1F
100
AcDbEntity
  8
0
  6
Continuous
 62
     7
370
    30
100
AcDbCircle
 10
50.0221032623
 20
293.9754487947
 30
0.0
 40
1.0
100
AcDbArc
 50
270.0
 51
0.0
  0
ARC
  5
C1
330
1F
100
AcDbEntity
  8
0
  6
Continuous
 62
     7
370
    30
100
AcDbCircle
 10
29.2221032623
 20
293.9754487947
 30
0.0
 40
1.0
100
AcDbArc
 50
180.0
 51
270.0
  0
LINE
  5
C2
330
1F
100
AcDbEntity
  8
0
  6
Continuous
 62
     7
370
    30
100
AcDbLine
 10
254.1221599438
 20
350.8245512053
 30
0.0
 11
253.9221599442
 21
351.0245512053
 31
0.0
  0
LINE
  5
C3
330
1F
100
AcDbEntity
  8
0
  6
Continuous
 62
     7
370
    30
100
AcDbLine
 10
225.3221599442
 20
351.0245512053
 30
0.0
 11
225.1221599445
 21
350.8245512053
 31
0.0
  0
LINE
  5
C4
330
1F
100
AcDbEntity
  8
0
  6
Continuous
 62
     7
370
    30
100
AcDbLine
 10
225.1221599442
 20
309.026029387
 30
0.0
 11
225.6221599433
 21
308.526029387
 31
0.0
  0
LINE
  5
C5
330
1F
100
AcDbEntity
  8
0
  6
Continuous
 62
     7
370
    30
100
AcDbLine
 10
253.6221599451
 20
308.526029387
 30
0.0
 11
254.1221599442
 21
309.026029387
 31
0.0
  0
LINE
  5
C6
330
1F
100
AcDbEntity
  8
0
  6
Continuous
 62
     7
370
    30
100
AcDbLine
 10
254.1221599442
 20
309.026029387
 30
0.0
 11
254.1221599442
 21
350.8245512053
 31
0.0
  0
LINE
  5
C7
330
1F
100
AcDbEntity
  8
0
  6
Continuous
 62
     7
370
    30
100
AcDbLine
 10
225.1221599442
 20
350.8245512053
 30
0.0
 11
225.1221599442
 21
323.1254487947
 31
0.0
  0
LINE
  5
C8
330
1F
100
AcDbEntity
  8
0
  6
Continuous
 62
     7
370
    30
100
AcDbLine
 10
225.1221599442
 20
310.5254487947
 30
0.0
 11
225.1221599442
 21
309.026029387
 31
0.0
  0
LINE
  5
C9
330
1F
100
AcDbEntity
  8
0
  6
Continuous
 62
     7
370
    30
100
AcDbLine
 10
52.6221032623
 20
309.9754487947
 30
0.0
 11
52.6221032623
 21
310.6214929529
 31
0.0
  0
LINE
  5
CA
330
1F
100
AcDbEntity
  8
0
  6
Continuous
 62
     7
370
    30
100
AcDbLine
 10
26.8721032623
 20
311.5374157947
 30
0.0
 11
26.8721032623
 21
309.9754487947
 31
0.0
  0
SPLINE
  5
CB
330
1F
100
AcDbEntity
  8
0
  6
Continuous
 62
     7
370
    30
100
AcDbSpline
210
0.0
220
0.0
230
1.0
 70
     8
 71
     3
 72
    57
 73
    53
 74
     0
 42
0.000000001
 43
0.00000001
 40
0.0
 40
0.0
 40
0.0
 40
0.0
 40
0.0175295792398198
 40
0.0360214864834205
 40
0.0545402002638717
 40
0.0730589143567511
 40
0.0957451787162236
 40
0.1184345283405367
 40
0.1411207974143288
 40
0.1639188495528045
 40
0.1867200262286122
 40
0.2095180858136518
 40
0.2292166031227564
 40
0.2489171294085659
 40
0.2686156519561604
 40
0.288386742269971
 40
0.3081598569064321
 40
0.3279309532410665
 40
0.3464199086494503
 40
0.3649088654441925
 40
0.3834242157038103
 40
0.4019395673757311
 40
0.4246173050716981
 40
0.447298070412727
 40
0.4699758189951371
 40
0.4927630396080583
 40
0.5155533178001676
 40
0.5383405484817907
 40
0.5580233206170282
 40
0.5777080548441481
 40
0.5973908316725094
 40
0.6171444989366662
 40
0.6369001436121898
 40
0.6566538144976757
 40
0.6794577213866289
 40
0.7022616295134902
 40
0.7251142246148846
 40
0.7479668203905487
 40
0.7673880878364449
 40
0.7868093553453
 40
0.806260640861894
 40
0.8257119261719353
 40
0.8436281141950768
 40
0.8615443018854481
 40
0.8794840677365586
 40
0.8974238330818829
 40
0.9147593559312427
 40
0.9320948782009443
 40
0.9494518048211398
 40
0.9668087307325983
 40
0.9834020171754169
 40
1.0
 40
1.0
 40
1.0
 40
1.0
 10
53.27198318466744
 20
310.525466844655
 30
0.0
 10
53.2715822052724
 20
310.5255228157159
 30
0.0
 10
53.27075823376335
 20
310.5256378305025
 30
0.0
 10
53.26348689755736
 20
310.5267251845577
 30
0.0
 10
53.25164668719359
 20
310.5285040349742
 30
0.0
 10
53.23360880733269
 20
310.5312178334072
 30
0.0
 10
53.20816677297174
 20
310.5350462436337
 30
0.0
 10
53.17383362939957
 20
310.5402056619322
 30
0.0
 10
53.13223428802608
 20
310.546443373152
 30
0.0
 10
53.08333607833119
 20
310.5537561193473
 30
0.0
 10
53.02713878660528
 20
310.5621306452342
 30
0.0
 10
52.96662649814402
 20
310.5711108922337
 30
0.0
 10
52.90291938308314
 20
310.5805245031394
 30
0.0
 10
52.83707456058467
 20
310.5902099872115
 30
0.0
 10
52.76585798517472
 20
310.6006337990399
 30
0.0
 10
52.68927116362352
 20
310.6117839785589
 30
0.0
 10
52.60733077333213
 20
310.6236438510854
 30
0.0
 10
52.52204915092356
 20
310.6359098167844
 30
0.0
 10
52.43384817366831
 20
310.6485134449059
 30
0.0
 10
52.34309208868762
 20
310.6613954943864
 30
0.0
 10
52.24781117729155
 20
310.6748242495474
 30
0.0
 10
52.14056004359529
 20
310.6898267446569
 30
0.0
 10
52.02017542298826
 20
310.706519480035
 30
0.0
 10
51.88539752753754
 20
310.7250154624736
 30
0.0
 10
51.74391778101647
 20
310.7442187541477
 30
0.0
 10
51.59576691249804
 20
310.7640946061946
 30
0.0
 10
51.44099993831846
 20
310.7846022883604
 30
0.0
 10
51.28725141954424
 20
310.8047101026116
 30
0.0
 10
51.13555432070005
 20
310.8242957994688
 30
0.0
 10
50.9868600654988
 20
310.8432558091002
 30
0.0
 10
50.83346750705017
 20
310.8625616121278
 30
0.0
 10
50.67541391513278
 20
310.8821846583658
 30
0.0
 10
50.5127489122949
 20
310.9020942251969
 30
0.0
 10
50.33713024699652
 20
310.9232718113772
 30
0.0
 10
50.14781636944684
 20
310.9457229092332
 30
0.0
 10
49.94391017533844
 20
310.9694544121415
 30
0.0
 10
49.73433485873424
 20
310.9933691266227
 30
0.0
 10
49.52995886415912
 20
311.0162127377278
 30
0.0
 10
49.33193345598541
 20
311.0379060803797
 30
0.0
 10
49.14106142165253
 20
311.058418335235
 30
0.0
 10
48.94639314683266
 20
311.0789243448559
 30
0.0
 10
48.75321659003507
 20
311.0988539573214
 30
0.0
 10
48.56202610723853
 20
311.1181719860149
 30
0.0
 10
48.37310780771012
 20
311.1368690804828
 30
0.0
 10
48.18120789259159
 20
311.1554567667761
 30
0.0
 10
47.98857196640746
 20
311.173703209207
 30
0.0
 10
47.79545507689892
 20
311.191582301261
 30
0.0
 10
47.60193845614089
 20
311.2090854821118
 30
0.0
 10
47.40587209491931
 20
311.2263977797678
 30
0.0
 10
47.21017163330036
 20
311.2432401535258
 30
0.0
 10
47.01527118450624
 20
311.259621975265
 30
0.0
 10
46.88552228591583
 20
311.2701726905805
 30
0.0
 10
46.82063865724342
 20
311.2754487946722
 30
0.0
  0
LINE
  5
CC
330
1F
100
AcDbEntity
  8
0
  6
Continuous
 62
     7
370
    30
100
AcDbLine
 10
46.8206386572
 20
311.2754487947
 30
0.0
 11
45.496502447
 21
311.2754487947
 31
0.0
  0
LINE
  5
CD
330
1F
100
AcDbEntity
  8
0
  6
Continuous
 62
     7
370
    30
100
AcDbLine
 10
50.0221032623
 20
292.9754487947
 30
0.0
 11
29.2221032623
 21
292.9754487947
 31
0.0
  0
LINE
  5
CE
330
1F
100
AcDbEntity
  8
0
  6
Continuous
 62
     7
370
    30
100
AcDbLine
 10
225.3221599442
 20
351.0245512053
 30
0.0
 11
253.9221599442
 21
351.0245512053
 31
0.0
  0
LINE
  5
CF
330
1F
100
AcDbEntity
  8
0
  6
Continuous
 62
     7
370
    30
100
AcDbLine
 10
254.1221599442
 20
350.8245512053
 30
0.0
 11
225.1221599442
 21
350.8245512053
 31
0.0
  0
LINE
  5
D0
330
1F
100
AcDbEntity
  8
0
  6
Continuous
 62
     7
370
    30
100
AcDbLine
 10
225.1221599442
 20
309.026029387
 30
0.0
 11
254.1221599442
 21
309.026029387
 31
0.0
  0
LINE
  5
D1
330
1F
100
AcDbEntity
  8
0
  6
Continuous
 62
     7
370
    30
100
AcDbLine
 10
253.6221599442
 20
308.526029387
 30
0.0
 11
225.6221599442
 21
308.526029387
 31
0.0
  0
LINE
  5
D2
330
1F
100
AcDbEntity
  8
0
  6
Continuous
 62
     7
370
    30
100
AcDbLine
 10
42.1542804137
 20
309.9754487947
 30
0.0
 11
42.1542804137
 21
311.5374157947
 31
0.0
  0
LINE
  5
D3
330
1F
100
AcDbEntity
  8
0
  6
Continuous
 62
     7
370
    30
100
AcDbLine
 10
43.3627897807
 20
311.5374157947
 30
0.0
 11
42.1542804137
 21
311.5374157947
 31
0.0
  0
LINE
  5
D4
330
1F
100
AcDbEntity
  8
0
  6
Continuous
 62
     7
370
    30
100
AcDbLine
 10
52.6221032623
 20
309.9754487947
 30
0.0
 11
42.1542804137
 21
309.9754487947
 31
0.0
  0
LINE
  5
D5
330
1F
100
AcDbEntity
  8
0
  6
Continuous
 62
     7
370
    30
100
AcDbLine
 10
42.1542804137
 20
311.5374157947
 30
0.0
 11
39.6170577211
 21
311.5374157947
 31
0.0
  0
LINE
  5
D6
330
1F
100
AcDbEntity
  8
0
  6
Continuous
 62
     7
370
    30
100
AcDbLine
 10
39.6170577211
 20
309.9754487947
 30
0.0
 11
42.1542804137
 21
309.9754487947
 31
0.0
  0
LINE
  5
D7
330
1F
100
AcDbEntity
  8
0
  6
Continuous
 62
     7
370
    30
100
AcDbLine
 10
39.6170577211
 20
311.5374157947
 30
0.0
 11
26.8721032623
 21
311.5374157947
 31
0.0
  0
LINE
  5
D8
330
1F
100
AcDbEntity
  8
0
  6
Continuous
 62
     7
370
    30
100
AcDbLine
 10
26.8721032623
 20
309.9754487947
 30
0.0
 11
39.6170577211
 21
309.9754487947
 31
0.0
  0
SPLINE
  5
D9
330
1F
100
AcDbEntity
  8
0
  6
Continuous
 62
     7
370
    30
100
AcDbSpline
210
0.0
220
0.0
230
1.0
 70
     8
 71
     3
 72
    97
 73
    93
 74
     0
 42
0.000000001
 43
0.00000001
 40
0.0
 40
0.0
 40
0.0
 40
0.0
 40
0.0057513119389523
 40
0.0136317633906777
 40
0.0236415344939571
 40
0.0336954681599723
 40
0.0452519151982597
 40
0.0583108393324878
 40
0.07143366088898
 40
0.0826113300285446
 40
0.093150385539276
 40
0.1047518024864629
 40
0.1154672706960204
 40
0.125297593558512
 40
0.1342438208254038
 40
0.1427296901767092
 40
0.1522987783198125
 40
0.1629537360374567
 40
0.174696468225277
 40
0.1875283846727762
 40
0.2014505535079597
 40
0.2179527295618914
 40
0.2325130382479393
 40
0.2451313692397487
 40
0.2495574240360708
 40
0.2536837079988966
 40
0.2575102238027629
 40
0.2610369750977589
 40
0.2642639668478546
 40
0.2671912058424328
 40
0.2940287552251266
 40
0.3198248311359991
 40
0.3445848317965614
 40
0.3683148733225828
 40
0.3910219149459812
 40
0.4215303208219136
 40
0.4520374369382447
 40
0.4788876346542649
 40
0.4819025268913113
 40
0.4849174708883072
 40
0.4879324698558399
 40
0.4909475270043206
 40
0.4939626455439759
 40
0.4969778286848341
 40
0.4999930796367194
 40
0.5016839867298231
 40
0.5068589297672086
 40
0.5152003059564781
 40
0.5212547217690257
 40
0.5283021588608686
 40
0.5363426027359496
 40
0.54537603558489
 40
0.5545759154560884
 40
0.5613695578609034
 40
0.567937766745618
 40
0.5742805706289654
 40
0.5837922867403201
 40
0.5927476473779212
 40
0.6011468204738323
 40
0.608990011572521
 40
0.6300963635325364
 40
0.6521186319797121
 40
0.6750625248630675
 40
0.7067623916472444
 40
0.7110354806963959
 40
0.7153364719655159
 40
0.7196653860190652
 40
0.7240222430259229
 40
0.7284070627691877
 40
0.7328198646556846
 40
0.7415338286307281
 40
0.7524648968971208
 40
0.7656130223201316
 40
0.7809780956254061
 40
0.7985599634781682
 40
0.8190062465274323
 40
0.8370185691692028
 40
0.8526012790337312
 40
0.8657613060172774
 40
0.8814557941292304
 40
0.899704030825966
 40
0.9059682112439414
 40
0.912485212507277
 40
0.919255117085625
 40
0.9262779983883578
 40
0.9335539220166863
 40
0.9499698291327617
 40
0.964249204547159
 40
0.9763919290877974
 40
0.986397934560621
 40
0.9942672329460818
 40
0.9999999999999999
 40
0.9999999999999999
 40
0.9999999999999999
 40
0.9999999999999999
 10
365.1100787256749
 20
24.61709729398158
 30
0.0
 10
365.1096403614683
 20
24.5407923112302
 30
0.0
 10
365.1086013503337
 20
24.35993419025932
 30
0.0
 10
365.0985507938859
 20
24.04642615965248
 30
0.0
 10
365.0768110021504
 20
23.67632867458959
 30
0.0
 10
365.0388218218213
 20
23.25856091714758
 30
0.0
 10
364.9816820060048
 20
22.80217745884027
 30
0.0
 10
364.9002811147654
 20
22.30815787118621
 30
0.0
 10
364.7996415486747
 20
21.82284873181824
 30
0.0
 10
364.6885605100771
 20
21.37417603035262
 30
0.0
 10
364.5677289632442
 20
20.94894339549257
 30
0.0
 10
364.4340250700204
 20
20.53395713467525
 30
0.0
 10
364.2890303302819
 20
20.13275981924613
 30
0.0
 10
364.1441946544247
 20
19.76921305309497
 30
0.0
 10
364.000458697217
 20
19.43729244220939
 30
0.0
 10
363.8492205650899
 20
19.1127497649909
 30
0.0
 10
363.6788439292725
 20
18.77268695577815
 30
0.0
 10
363.4773967741667
 20
18.40059799389763
 30
0.0
 10
363.2413376244682
 20
17.99894923783153
 30
0.0
 10
362.9669014704156
 20
17.57065863565176
 30
0.0
 10
362.6389545975893
 20
17.10317965177542
 30
0.0
 10
362.2752220355584
 20
16.63388063937353
 30
0.0
 10
361.9002725134301
 20
16.19583748018129
 30
0.0
 10
361.6157331694804
 20
15.89070043834993
 30
0.0
 10
361.4197703062798
 20
15.69148141254888
 30
0.0
 10
361.3036275347549
 20
15.57652793905372
 30
0.0
 10
361.1945934835584
 20
15.47126494629615
 30
0.0
 10
361.0929795703285
 20
15.37540064994862
 30
0.0
 10
360.9990674157923
 20
15.28866093885099
 30
0.0
 10
360.676144588946
 20
14.99611558637747
 30
0.0
 10
360.1087683066844
 20
14.52833263823243
 30
0.0
 10
359.2667319893223
 20
13.94369173613381
 30
0.0
 10
358.4157075326422
 20
13.44788405436122
 30
0.0
 10
357.5656161192278
 20
13.03587107427608
 30
0.0
 10
356.616378704044
 20
12.65862534866331
 30
0.0
 10
355.5517239946924
 20
12.33564989007464
 30
0.0
 10
354.4071412885603
 20
12.10542107160602
 30
0.0
 10
353.6098069069756
 20
12.01879575785654
 30
0.0
 10
353.174452368575
 20
11.9921005263066
 30
0.0
 10
353.054627130908
 20
11.98589289115622
 30
0.0
 10
352.9347493168232
 20
11.98082217654693
 30
0.0
 10
352.8148282710073
 20
11.9768886683108
 30
0.0
 10
352.6948765181119
 20
11.97409276133639
 30
0.0
 10
352.5748993439892
 20
11.97243471340127
 30
0.0
 10
352.4724931987044
 20
11.97199075779261
 30
0.0
 10
352.3413946726591
 20
11.97239290698755
 30
0.0
 10
352.139648198919
 20
11.97519119100444
 30
0.0
 10
351.8801310550064
 20
11.98431269781854
 30
0.0
 10
351.5961074662277
 20
12.00074212354514
 30
0.0
 10
351.3164564312252
 20
12.02270948780278
 30
0.0
 10
350.9980811295916
 20
12.05533791440629
 30
0.0
 10
350.6523666139272
 20
12.1001797437628
 30
0.0
 10
350.3244173392824
 20
12.15232094078021
 30
0.0
 10
350.0300650864505
 20
12.20674575383531
 30
0.0
 10
349.7740378613053
 20
12.25967272510441
 30
0.0
 10
349.483977629289
 20
12.32580514733907
 30
0.0
 10
349.1649251816691
 20
12.40696910240043
 30
0.0
 10
348.8221376577592
 20
12.50485683781359
 30
0.0
 10
348.5032712709906
 20
12.60540627671054
 30
0.0
 10
348.0346478844465
 20
12.76645239611128
 30
0.0
 10
347.4054073846761
 20
13.01527275222368
 30
0.0
 10
346.6139406060503
 20
13.39215529033903
 30
0.0
 10
345.7294574256891
 20
13.8927924370356
 30
0.0
 10
345.0851041989915
 20
14.33449594513507
 30
0.0
 10
344.6635534586115
 20
14.65985897196877
 30
0.0
 10
344.52992672483
 20
14.76589021933018
 30
0.0
 10
344.3969152676374
 20
14.87439777881118
 30
0.0
 10
344.2645684050286
 20
14.98539730055286
 30
0.0
 10
344.1329402918842
 20
15.09890100900814
 30
0.0
 10
343.9598441228756
 20
15.25237268289735
 30
0.0
 10
343.7264899059714
 20
15.46800088036278
 30
0.0
 10
343.4176750758759
 20
15.77148651192438
 30
0.0
 10
343.0602921124241
 20
16.15021086123376
 30
0.0
 10
342.6628169721297
 20
16.6109752343039
 30
0.0
 10
342.2305923913632
 20
17.16761437152718
 30
0.0
 10
341.8121751108891
 20
17.77822901517935
 30
0.0
 10
341.4444053315825
 20
18.39106116258636
 30
0.0
 10
341.1542373908115
 20
18.9379597606046
 30
0.0
 10
340.9018372509109
 20
19.47043189901636
 30
0.0
 10
340.6599548592815
 20
20.04694188766747
 30
0.0
 10
340.4800175985083
 20
20.54947898252503
 30
0.0
 10
340.3562880695913
 20
20.94211780931231
 30
0.0
 10
340.283318136588
 20
21.19102703165056
 30
0.0
 10
340.2129414548707
 20
21.45110720772657
 30
0.0
 10
340.1458079996219
 20
21.72241440709104
 30
0.0
 10
340.0568667158022
 20
22.11999508440811
 30
0.0
 10
339.9652564001353
 20
22.61546515028092
 30
0.0
 10
339.8890361868603
 20
23.17870499148626
 30
0.0
 10
339.8441132475914
 20
23.65992889698813
 30
0.0
 10
339.8211104532549
 20
24.05751174681577
 30
0.0
 10
339.8113472164304
 20
24.37058519917319
 30
0.0
 10
339.810456226115
 20
24.55104999826295
 30
0.0
 10
339.8100807066803
 20
24.62710923053353
 30
0.0
  0
LINE
  5
DA
330
1F
100
AcDbEntity
  8
0
  6
Continuous
 62
     7
370
    30
100
AcDbLine
 10
365.1864202081
 20
217.5307603676
 30
0.0
 11
365.1100787257
 21
24.617097294
 31
0.0
  0
LINE
  5
DB
330
1F
100
AcDbEntity
  8
0
  6
Continuous
 62
     7
370
    30
100
AcDbLine
 10
339.8100807067
 20
24.6271092305
 30
0.0
 11
339.8864225928
 21
217.5417925014
 31
0.0
  0
CIRCLE
  5
DC
330
1F
100
AcDbEntity
  8
0
  6
Continuous
 62
     7
370
    30
100
AcDbCircle
 10
352.5392254883
 20
224.6221599442
 30
0.0
 40
14.30000000000007
  0
CIRCLE
  5
DD
330
1F
100
AcDbEntity
  8
0
  6
Continuous
 62
     7
370
    30
100
AcDbCircle
 10
352.5392254883
 20
224.6221599442
 30
0.0
 40
14.50000000000006
  0
ARC
  5
DE
330
1F
100
AcDbEntity
  8
0
  6
Continuous
 62
     7
370
    30
100
AcDbCircle
 10
352.4600797162
 20
24.6221032623
 30
0.0
 40
12.75000000000014
100
AcDbArc
 50
179.9773264141
 51
359.9773264141
  0
LINE
  5
DF
330
1F
100
AcDbEntity
  8
0
  6
Continuous
 62
     7
370
    30
100
AcDbLine
 10
339.7100807145
 20
24.6271488034
 30
0.0
 11
339.7110847665
 21
27.164371496
 31
0.0
  0
LWPOLYLINE
  5
E0
330
1F
100
AcDbEntity
  8
0
  6
Continuous
 62
     7
370
    30
100
AcDbPolyline
 90
        3
 70
   128
 43
0.0
 10
339.7110847665
 20
27.164371496
 10
339.7726575405
 20
27.4557084812
 10
339.8102580156
 20
27.6191035867
  0
LWPOLYLINE
  5
E1
330
1F
100
AcDbEntity
  8
0
  6
Continuous
 62
     7
370
    30
100
AcDbPolyline
 90
        3
 70
   128
 43
0.0
 10
365.112060299
 20
27.6099766417
 10
365.1497405958
 20
27.4456660399
 10
365.2110827698
 20
27.1542804137
  0
LINE
  5
E2
330
1F
100
AcDbEntity
  8
0
  6
Continuous
 62
     7
370
    30
100
AcDbLine
 10
365.2110827698
 20
27.1542804137
 30
0.0
 11
365.2100787178
 21
24.6170577211
 31
0.0
  0
SPLINE
  5
E3
330
1F
100
AcDbEntity
  8
0
  6
Continuous
 62
     7
370
    30
100
AcDbSpline
210
0.0
220
0.0
230
1.0
 70
     8
 71
     3
 72
   229
 73
   225
 74
     0
 42
0.000000001
 43
0.00000001
 40
0.0
 40
0.0
 40
0.0
 40
0.0
 40
0.0090490979225291
 40
0.0172040050747778
 40
0.0244650649894155
 40
0.0308323654781855
 40
0.0363058287190487
 40
0.0408852807447563
 40
0.0445705046502266
 40
0.0471628844135236
 40
0.0492460902184712
 40
0.0515006867444728
 40
0.0539674328813218
 40
0.0566464150437557
 40
0.0595377295459105
 40
0.0652292564817604
 40
0.0715989329210944
 40
0.0783571626079005
 40
0.0849601735952963
 40
0.0913953573571086
 40
0.0976626007760532
 40
0.1067482620257034
 40
0.115395466014631
 40
0.1232833111383389
 40
0.1303760861862036
 40
0.1350075991116062
 40
0.1402134263871238
 40
0.1457526633938318
 40
0.1513470440320455
 40
0.1569941841925804
 40
0.1758427169633639
 40
0.1946437974878606
 40
0.211323320476714
 40
0.2286604794610485
 40
0.2478140062427068
 40
0.2643146870620418
 40
0.276168339957745
 40
0.2870679155013066
 40
0.2973641201623267
 40
0.3078645187989759
 40
0.3202458900639503
 40
0.3316504791417117
 40
0.3409508469013293
 40
0.3469652670451999
 40
0.353171182761585
 40
0.3586882357172503
 40
0.3639017570221412
 40
0.3695109431095904
 40
0.3750228718989268
 40
0.3808777245230417
 40
0.3866235240984419
 40
0.392706531131768
 40
0.3994010516565998
 40
0.4038600562280111
 40
0.4082720469086427
 40
0.4126356172110981
 40
0.417456263821165
 40
0.4232022482249555
 40
0.4285352555501764
 40
0.432410864199793
 40
0.4353000587204075
 40
0.4384445318900766
 40
0.4422286686574305
 40
0.446524601811938
 40
0.450625111839667
 40
0.45442294231163
 40
0.4579352056446231
 40
0.4615573245584719
 40
0.4667092271497397
 40
0.4719062147032819
 40
0.4763694382464171
 40
0.478676451353992
 40
0.4807740938602033
 40
0.4834357239647699
 40
0.4871023175533995
 40
0.4903376471592825
 40
0.4927596500408346
 40
0.4952394701494999
 40
0.4986679723268562
 40
0.5023597391804832
 40
0.5054304166845377
 40
0.5078755612983259
 40
0.5098737469382777
 40
0.5115346238831406
 40
0.5131474790740203
 40
0.5147345284339114
 40
0.516676743926694
 40
0.5191119968778333
 40
0.5218838863583974
 40
0.5240582530772485
 40
0.5256978965591401
 40
0.5272883538832658
 40
0.529289751160795
 40
0.5317025170848028
 40
0.5364588247137299
 40
0.5404739364129452
 40
0.5438023852236936
 40
0.5471226791680699
 40
0.5506857055278398
 40
0.5531692268229714
 40
0.5556864715451976
 40
0.5578108284216913
 40
0.559525826522989
 40
0.5614220018952204
 40
0.563899137162617
 40
0.5669568378755637
 40
0.5700762524680415
 40
0.5734701326938151
 40
0.5763131342098383
 40
0.5790731149081351
 40
0.5818914776699449
 40
0.5848235995926255
 40
0.5876124354202865
 40
0.59025396529369
 40
0.5924754505234298
 40
0.5945303726160671
 40
0.5972071272650257
 40
0.6005626422378904
 40
0.6040408159358983
 40
0.608091565984568
 40
0.6115353622591555
 40
0.6150255698676711
 40
0.6186734751966994
 40
0.6217570612502392
 40
0.6245585263097131
 40
0.6268065010156701
 40
0.62924045120205
 40
0.6325634390810531
 40
0.6364748967785976
 40
0.6399727322830326
 40
0.6429175433428383
 40
0.645497228795387
 40
0.6502059664690828
 40
0.6567764539029981
 40
0.6620645167843631
 40
0.6685141234347425
 40
0.6741684707803907
 40
0.6785299565627259
 40
0.6817027935964889
 40
0.685803649245541
 40
0.6893555279163913
 40
0.6919644641043823
 40
0.6945986576215871
 40
0.6976421363419837
 40
0.7014383735242992
 40
0.7054780141327887
 40
0.7122459107367854
 40
0.7209017168597067
 40
0.7285609471328117
 40
0.7367317154988327
 40
0.7449260077024731
 40
0.751620802434358
 40
0.7552809380267506
 40
0.7593503992487922
 40
0.7633995021893658
 40
0.7666564143923432
 40
0.7696810667483995
 40
0.772955724985799
 40
0.777579753627243
 40
0.7822683498178873
 40
0.7865815003038844
 40
0.7902333553125326
 40
0.7938622435150864
 40
0.7985057662437203
 40
0.8034332225922385
 40
0.8075945786666902
 40
0.8104381027469544
 40
0.8131323964562228
 40
0.8160136435576651
 40
0.8195295782316523
 40
0.8238605993408009
 40
0.8276354380627722
 40
0.8307237212075466
 40
0.8335214388905027
 40
0.836386553271229
 40
0.8388927249832497
 40
0.8417698188997207
 40
0.8450999143428105
 40
0.8483644307077522
 40
0.8510299208577669
 40
0.8547261056219372
 40
0.8583895421332315
 40
0.8627966579383847
 40
0.8658448149193511
 40
0.8692098694755146
 40
0.8721941664318056
 40
0.87454761117509
 40
0.8776115205832091
 40
0.8807528794652751
 40
0.8843880822869249
 40
0.8885376827671488
 40
0.893076196874964
 40
0.8961952961852859
 40
0.8988034351481377
 40
0.9013451272629605
 40
0.9040043208243775
 40
0.9069916593600602
 40
0.9119140399326822
 40
0.9170516138772001
 40
0.9211961237668826
 40
0.9250207675265106
 40
0.9293132313519887
 40
0.9342029713498978
 40
0.9385374989958875
 40
0.942369123076538
 40
0.9456240451947262
 40
0.9488954739176838
 40
0.9527737576312206
 40
0.9570954290806849
 40
0.9613428518804245
 40
0.9651217908508407
 40
0.9677307875522198
 40
0.9703038258524809
 40
0.973111190844096
 40
0.9764985967517892
 40
0.9800612509084888
 40
0.9841732768317013
 40
0.9877489214630781
 40
0.9887981751047596
 40
0.9899554896837071
 40
0.9916436257872663
 40
0.9938804262847893
 40
0.9966659003954979
 40
1.0
 40
1.0
 40
1.0
 40
1.0
 10
507.4890036120032
 20
65.2365075750578
 30
0.0
 10
507.4674096744033
 20
65.22400996548372
 30
0.0
 10
507.4263556140722
 20
65.20024970336968
 30
0.0
 10
507.3686931568157
 20
65.16639912278045
 30
0.0
 10
507.3177605400766
 20
65.13622391282797
 30
0.0
 10
507.2734476522771
 20
65.10973203383384
 30
0.0
 10
507.2356059593041
 20
65.08693510791313
 30
0.0
 10
507.204120816567
 20
65.0678425365018
 30
0.0
 10
507.1793459317367
 20
65.0527377164343
 30
0.0
 10
507.1603251187394
 20
65.04109325912165
 30
0.0
 10
507.1445766318224
 20
65.0314224658399
 30
0.0
 10
507.1291166072421
 20
65.02190164383276
 30
0.0
 10
507.1123218409306
 20
65.01152651382736
 30
0.0
 10
507.0941100135916
 20
65.00023754139315
 30
0.0
 10
507.0686417502803
 20
64.98439194813591
 30
0.0
 10
507.0349452011852
 20
64.96330663951589
 30
0.0
 10
506.9927586493899
 20
64.93669458947812
 30
0.0
 10
506.9488410390557
 20
64.90874458616882
 30
0.0
 10
506.9052238421923
 20
64.88073513030277
 30
0.0
 10
506.8630912222688
 20
64.85344064115002
 30
0.0
 10
506.8160032941744
 20
64.8226739961761
 30
0.0
 10
506.7647481475823
 20
64.78883541133382
 30
0.0
 10
506.7108723627667
 20
64.75283876913666
 30
0.0
 10
506.6614670221948
 20
64.7194559507765
 30
0.0
 10
506.6206216274326
 20
64.69157187269586
 30
0.0
 10
506.5854632209905
 20
64.66737468733979
 30
0.0
 10
506.5536635281513
 20
64.64533884475586
 30
0.0
 10
506.5200486955534
 20
64.62186971035874
 30
0.0
 10
506.485734023547
 20
64.59772414696427
 30
0.0
 10
506.4245685346277
 20
64.55434281342833
 30
0.0
 10
506.3377066105025
 20
64.49165747823454
 30
0.0
 10
506.2307842015738
 20
64.41237923604103
 30
0.0
 10
506.1287682962039
 20
64.3347545716373
 30
0.0
 10
506.0277759594917
 20
64.25594289918749
 30
0.0
 10
505.9291255426261
 20
64.17681488944112
 30
0.0
 10
505.8420046954489
 20
64.10498214336509
 30
0.0
 10
505.7711203817497
 20
64.0451971874954
 30
0.0
 10
505.7121448221699
 20
63.99454218580146
 30
0.0
 10
505.656205443066
 20
63.94566488927993
 30
0.0
 10
505.5982702433274
 20
63.8941796507915
 30
0.0
 10
505.5391207401103
 20
63.84061876710783
 30
0.0
 10
505.4827790238576
 20
63.78858676264784
 30
0.0
 10
505.4377322654997
 20
63.74625955198618
 30
0.0
 10
505.4019028099823
 20
63.71215750782022
 30
0.0
 10
505.3725409768456
 20
63.68392273657072
 30
0.0
 10
505.3445167007602
 20
63.65670470402844
 30
0.0
 10
505.3175276334073
 20
63.6302489975287
 30
0.0
 10
505.2908511403144
 20
63.60385451264525
 30
0.0
 10
505.263319767759
 20
63.57635204517801
 30
0.0
 10
505.2357342828196
 20
63.54852271137973
 30
0.0
 10
505.2073899347578
 20
63.51963722930232
 30
0.0
 10
505.1778844366148
 20
63.48925486088583
 30
0.0
 10
505.1506305930242
 20
63.46087296469531
 30
0.0
 10
505.1261747361741
 20
63.43515158051015
 30
0.0
 10
505.1054780042173
 20
63.41321097183344
 30
0.0
 10
505.0843160105363
 20
63.39060003534741
 30
0.0
 10
505.0611898209089
 20
63.36568520680382
 30
0.0
 10
505.0367093405537
 20
63.33905775578398
 30
0.0
 10
505.0138395694383
 20
63.31392995413343
 30
0.0
 10
504.9954334767254
 20
63.29353532177456
 30
0.0
 10
504.9804134702488
 20
63.27678840534035
 30
0.0
 10
504.9657349286857
 20
63.26033109829923
 30
0.0
 10
504.9490888164746
 20
63.24154880749251
 30
0.0
 10
504.9312081256098
 20
63.22122377665225
 30
0.0
 10
504.9131598730658
 20
63.20054919575934
 30
0.0
 10
504.8961571606756
 20
63.18092787667033
 30
0.0
 10
504.8796066925738
 20
63.1616941104153
 30
0.0
 10
504.8611494316287
 20
63.14009342224217
 30
0.0
 10
504.840460851707
 20
63.11567382104185
 30
0.0
 10
504.818789470106
 20
63.08983525534831
 30
0.0
 10
504.8016517625639
 20
63.06921059303466
 30
0.0
 10
504.7890073178882
 20
63.05389414209007
 30
0.0
 10
504.7788729323728
 20
63.04156534954776
 30
0.0
 10
504.766794964259
 20
63.02680316841662
 30
0.0
 10
504.753148753526
 20
63.01001967912874
 30
0.0
 10
504.7399043536018
 20
62.99361848429577
 30
0.0
 10
504.7283892527024
 20
62.97927814653819
 30
0.0
 10
504.7166277446581
 20
62.96455891378039
 30
0.0
 10
504.7031229164864
 20
62.94755723110733
 30
0.0
 10
504.6888587923051
 20
62.92946993251815
 30
0.0
 10
504.6760344503302
 20
62.91309617844004
 30
0.0
 10
504.6656093344901
 20
62.89971056692768
 30
0.0
 10
504.6571665092935
 20
62.88882057889031
 30
0.0
 10
504.6498998935525
 20
62.87941279934721
 30
0.0
 10
504.6432193458105
 20
62.87073500190003
 30
0.0
 10
504.6361740123918
 20
62.86155356219314
 30
0.0
 10
504.628023004974
 20
62.85089303197741
 30
0.0
 10
504.618284352222
 20
62.83809913409571
 30
0.0
 10
504.6082688880786
 20
62.82487147264196
 30
0.0
 10
504.5993668106754
 20
62.8130546624928
 30
0.0
 10
504.5920832369374
 20
62.80334843520738
 30
0.0
 10
504.5850499386297
 20
62.79394461286753
 30
0.0
 10
504.5769990957012
 20
62.78314047996794
 30
0.0
 10
504.5647453849855
 20
62.76662124264176
 30
0.0
 10
504.5498839495547
 20
62.74643770447624
 30
0.0
 10
504.5339132528568
 20
62.72454964316842
 30
0.0
 10
504.5199139951926
 20
62.70521628339002
 30
0.0
 10
504.5065813962101
 20
62.68667529465938
 30
0.0
 10
504.4944196926995
 20
62.66964020286239
 30
0.0
 10
504.4833533793594
 20
62.65404058028952
 30
0.0
 10
504.4741833481948
 20
62.6410456933264
 30
0.0
 10
504.4660335139384
 20
62.62943970566559
 30
0.0
 10
504.4587031488819
 20
62.61895813793247
 30
0.0
 10
504.4509438404502
 20
62.60782058937729
 30
0.0
 10
504.4415068691786
 20
62.59421172712061
 30
0.0
 10
504.4305672558149
 20
62.57834240513752
 30
0.0
 10
504.4185308271936
 20
62.56076603239542
 30
0.0
 10
504.4068273201885
 20
62.54355562287978
 30
0.0
 10
504.3956284716951
 20
62.52697594879341
 30
0.0
 10
504.3851958664699
 20
62.51143647952311
 30
0.0
 10
504.374704356995
 20
62.49571404390203
 30
0.0
 10
504.3642286606923
 20
62.47991630082147
 30
0.0
 10
504.3540199225637
 20
62.46442414652198
 30
0.0
 10
504.3447229772136
 20
62.45023097258451
 30
0.0
 10
504.3363537161009
 20
62.43738512128078
 30
0.0
 10
504.3279721565275
 20
62.42445917356038
 30
0.0
 10
504.3182627862125
 20
62.4094063414318
 30
0.0
 10
504.3069070400963
 20
62.39168183927926
 30
0.0
 10
504.2939911215938
 20
62.37136665278504
 30
0.0
 10
504.2810571548294
 20
62.35084912986583
 30
0.0
 10
504.268191311654
 20
62.33026474366959
 30
0.0
 10
504.2558782607943
 20
62.31040762058426
 30
0.0
 10
504.2440624577416
 20
62.29119495394046
 30
0.0
 10
504.233111174727
 20
62.27324836646356
 30
0.0
 10
504.2238207130461
 20
62.25791853254134
 30
0.0
 10
504.2153134896568
 20
62.24379769194361
 30
0.0
 10
504.2062497326916
 20
62.22866981404063
 30
0.0
 10
504.195362247156
 20
62.21037357477546
 30
0.0
 10
504.1833661778401
 20
62.1900397005086
 30
0.0
 10
504.1718603101016
 20
62.17036220797295
 30
0.0
 10
504.1618785533236
 20
62.15315728699164
 30
0.0
 10
504.1505811247457
 20
62.13355228218098
 30
0.0
 10
504.135263977781
 20
62.10672068999526
 30
0.0
 10
504.117067117155
 20
62.07436503665065
 30
0.0
 10
504.0971723340357
 20
62.03841338068035
 30
0.0
 10
504.0783834703046
 20
62.00389675945836
 30
0.0
 10
504.0608098939885
 20
61.97104178880961
 30
0.0
 10
504.0468305658378
 20
61.94451478750987
 30
0.0
 10
504.0345728196644
 20
61.92098640412355
 30
0.0
 10
504.0232670130634
 20
61.89904013423775
 30
0.0
 10
504.0126338508435
 20
61.87815056882662
 30
0.0
 10
504.0035133892322
 20
61.86005495237193
 30
0.0
 10
503.994974016881
 20
61.84296670654996
 30
0.0
 10
503.98529395844
 20
61.82341426418775
 30
0.0
 10
503.9742692807193
 20
61.80089021514487
 30
0.0
 10
503.9596406914897
 20
61.77060640258821
 30
0.0
 10
503.9401160650606
 20
61.72942078895079
 30
0.0
 10
503.9176346189407
 20
61.68066591917665
 30
0.0
 10
503.8941111244539
 20
61.62808418665774
 30
0.0
 10
503.8715406749071
 20
61.57605798171269
 30
0.0
 10
503.8503914672851
 20
61.52568010906989
 30
0.0
 10
503.8337361817224
 20
61.484753864291
 30
0.0
 10
503.8209971539947
 20
61.45274420786811
 30
0.0
 10
503.8107218116515
 20
61.42648302628177
 30
0.0
 10
503.8009347221684
 20
61.40101017395544
 30
0.0
 10
503.7921716787299
 20
61.37781988042926
 30
0.0
 10
503.7841003695195
 20
61.3561464221421
 30
0.0
 10
503.7749721452267
 20
61.33126433819444
 30
0.0
 10
503.7647363924602
 20
61.302829912394
 30
0.0
 10
503.7538610879819
 20
61.27192815497148
 30
0.0
 10
503.7439583679023
 20
61.24315497082661
 30
0.0
 10
503.7349650751587
 20
61.21649977904139
 30
0.0
 10
503.7259433367055
 20
61.18925996282212
 30
0.0
 10
503.7161365254227
 20
61.15901495142255
 30
0.0
 10
503.7061598372207
 20
61.1274627422462
 30
0.0
 10
503.6976742588164
 20
61.09996420666235
 30
0.0
 10
503.6908930854728
 20
61.07756390876376
 30
0.0
 10
503.685086064958
 20
61.05808430291071
 30
0.0
 10
503.6789025495551
 20
61.03701358636219
 30
0.0
 10
503.6717231851695
 20
61.01209802607982
 30
0.0
 10
503.6641046409212
 20
60.98504732082918
 30
0.0
 10
503.6569252920339
 20
60.95893428147004
 30
0.0
 10
503.6508442690888
 20
60.93635075731449
 30
0.0
 10
503.6454262638671
 20
60.91586050216408
 30
0.0
 10
503.6404493667523
 20
60.89670099920733
 30
0.0
 10
503.6355022898035
 20
60.87732732329937
 30
0.0
 10
503.6303588846523
 20
60.85683055914296
 30
0.0
 10
503.6248719964443
 20
60.83451318879504
 30
0.0
 10
503.6196167078093
 20
60.81265899423511
 30
0.0
 10
503.6142554691837
 20
60.78990676662063
 30
0.0
 10
503.6087854164468
 20
60.76617130465381
 30
0.0
 10
503.602519819948
 20
60.73825980561159
 30
0.0
 10
503.5967603364659
 20
60.71183290291795
 30
0.0
 10
503.5913006702986
 20
60.68606878865522
 30
0.0
 10
503.5866682031107
 20
60.66366094753351
 30
0.0
 10
503.5824774198388
 20
60.64287510859855
 30
0.0
 10
503.5785167185605
 20
60.62280308632489
 30
0.0
 10
503.5745496200351
 20
60.60224709465384
 30
0.0
 10
503.5700607794027
 20
60.57836281709006
 30
0.0
 10
503.5653060533392
 20
60.55230757675317
 30
0.0
 10
503.5601180348311
 20
60.52288841661227
 30
0.0
 10
503.555316050514
 20
60.49455049878916
 30
0.0
 10
503.5512722452958
 20
60.46979941693936
 30
0.0
 10
503.5480817302324
 20
60.44970938272498
 30
0.0
 10
503.5451561469679
 20
60.43079827091649
 30
0.0
 10
503.542173662038
 20
60.4109928006534
 30
0.0
 10
503.5384318544115
 20
60.38538505694113
 30
0.0
 10
503.5340073558214
 20
60.35375761939932
 30
0.0
 10
503.5294432067514
 20
60.31915982041108
 30
0.0
 10
503.5254953636593
 20
60.28750691796118
 30
0.0
 10
503.5218458455682
 20
60.25667789227876
 30
0.0
 10
503.5182802644829
 20
60.22477498548244
 30
0.0
 10
503.5149228943756
 20
60.19273992617175
 30
0.0
 10
503.5118136196925
 20
60.16093835944755
 30
0.0
 10
503.5092594204414
 20
60.13299238363186
 30
0.0
 10
503.5070611767387
 20
60.10739247741723
 30
0.0
 10
503.5050002484654
 20
60.08187828965156
 30
0.0
 10
503.5028799619148
 20
60.05370456909353
 30
0.0
 10
503.5007715074844
 20
60.02310887478134
 30
0.0
 10
503.4988786481301
 20
59.9927283084364
 30
0.0
 10
503.4974086705108
 20
59.96653490576051
 30
0.0
 10
503.4962781824093
 20
59.94446024532969
 30
0.0
 10
503.4953443664334
 20
59.92468694776848
 30
0.0
 10
503.4944095843692
 20
59.90298344167908
 30
0.0
 10
503.4934889663866
 20
59.87895941063034
 30
0.0
 10
503.4925896240262
 20
59.85172129681242
 30
0.0
 10
503.4918382570177
 20
59.82407417662586
 30
0.0
 10
503.4913766799285
 20
59.80245499160971
 30
0.0
 10
503.4911186133719
 20
59.78793207246852
 30
0.0
 10
503.4909615345673
 20
59.77814278705951
 30
0.0
 10
503.4907867406416
 20
59.76554468507704
 30
0.0
 10
503.4906073129973
 20
59.74895382309414
 30
0.0
 10
503.4904562977278
 20
59.72835547910331
 30
0.0
 10
503.4904357971595
 20
59.71329269682047
 30
0.0
 10
503.4904246279276
 20
59.70508610943561
 30
0.0
  0
LINE
  5
E4
330
1F
100
AcDbEntity
  8
0
  6
Continuous
 62
     7
370
    30
100
AcDbLine
 10
503.4903272415
 20
59.705895811
 30
0.0
 11
503.4903272415
 21
53.3692323664
 31
0.0
  0
LINE
  5
E5
330
1F
100
AcDbEntity
  8
0
  6
Continuous
 62
     7
370
    30
100
AcDbLine
 10
527.5953585191
 20
49.7427857886
 30
0.0
 11
661.1500107063
 21
126.7812485811
 31
0.0
  0
SPLINE
  5
E6
330
1F
100
AcDbEntity
  8
0
  6
Continuous
 62
     7
370
    30
100
AcDbSpline
210
0.0
220
0.0
230
1.0
 70
     8
 71
     3
 72
    18
 73
    14
 74
     0
 42
0.000000001
 43
0.00000001
 40
0.0
 40
0.0
 40
0.0
 40
0.0
 40
0.1321057583082358
 40
0.2506845827510176
 40
0.3557482099095591
 40
0.4473192921461542
 40
0.5271665758606062
 40
0.5993601492790985
 40
0.6748345856869656
 40
0.743480947042601
 40
0.8183639520101421
 40
0.8998471364323214
 40
1.0
 40
1.0
 40
1.0
 40
1.0
 10
503.4933225807234
 20
53.39801712086617
 30
0.0
 10
503.4933661346482
 20
53.37674938876943
 30
0.0
 10
503.4934487828053
 20
53.33639162832805
 30
0.0
 10
503.4943722813823
 20
53.27986456247979
 30
0.0
 10
503.4956130608146
 20
53.23045433548577
 30
0.0
 10
503.4970374766279
 20
53.18798603863431
 30
0.0
 10
503.4985157889251
 20
53.15147431855844
 30
0.0
 10
503.5001290842295
 20
53.11706077962513
 30
0.0
 10
503.5018719899165
 20
53.08423804488617
 30
0.0
 10
503.5038512216168
 20
53.05071576663839
 30
0.0
 10
503.5061423906242
 20
53.01567184548261
 30
0.0
 10
503.5090138533339
 20
52.97513099855086
 30
0.0
 10
503.5113984675702
 20
52.9467788004179
 30
0.0
 10
503.5127133274062
 20
52.93114559399834
 30
0.0
  0
LINE
  5
E7
330
1F
100
AcDbEntity
  8
0
  6
Continuous
 62
     7
370
    30
100
AcDbLine
 10
643.1176880712
 20
143.4713364648
 30
0.0
 11
507.4889969286
 21
65.23650372
 31
0.0
  0
LINE
  5
E8
330
1F
100
AcDbEntity
  8
0
  6
Continuous
 62
     7
370
    30
100
AcDbLine
 10
504.7403272415
 20
48.7227602638
 30
0.0
 11
504.7403272415
 21
38.9543392277
 31
0.0
  0
LINE
  5
E9
330
1F
100
AcDbEntity
  8
0
  6
Continuous
 62
     7
370
    30
100
AcDbLine
 10
527.5403272415
 20
38.9543392277
 30
0.0
 11
527.5403272415
 21
48.4119832849
 31
0.0
  0
SPLINE
  5
EA
330
1F
100
AcDbEntity
  8
0
  6
Continuous
 62
     7
370
    30
100
AcDbSpline
210
0.0
220
0.0
230
1.0
 70
     8
 71
     3
 72
   216
 73
   212
 74
     0
 42
0.000000001
 43
0.00000001
 40
0.0
 40
0.0
 40
0.0
 40
0.0
 40
0.004299678667906
 40
0.0087971736592672
 40
0.0132952437666518
 40
0.0177948813176278
 40
0.0222970687676369
 40
0.0268027733467473
 40
0.0313129417542944
 40
0.0358284949183861
 40
0.0403503228384938
 40
0.0448792795338983
 40
0.0494161781260528
 40
0.0539617860885409
 40
0.0585168207041537
 40
0.0630819447742297
 40
0.0676577626304574
 40
0.072244816503692
 40
0.0768435833073301
 40
0.0814544718939951
 40
0.086077820843831
 40
0.0907138968397637
 40
0.0953628936797823
 40
0.1000249319682758
 40
0.1047000595181476
 40
0.1093882524827204
 40
0.1140894172214363
 40
0.1188033928875288
 40
0.1235299547084443
 40
0.1282688179129001
 40
0.1330196422419132
 40
0.1377820369663004
 40
0.1425555663205704
 40
0.1473397552533252
 40
0.1521340953880827
 40
0.1569380510858632
 40
0.1617510655018234
 40
0.1665725665330787
 40
0.1714019725628479
 40
0.1762386979164248
 40
0.1810821579575002
 40
0.1859317737672767
 40
0.1907869763635403
 40
0.1956472104315865
 40
0.2005119375530068
 40
0.2053806389310594
 40
0.2102528176230664
 40
0.215128000299677
 40
0.2200057385587848
 40
0.2248856098277859
 40
0.229767217891815
 40
0.2346501930882769
 40
0.2395341922087028
 40
0.244418898148888
 40
0.2493040193467281
 40
0.2541892605023715
 40
0.2590743316393536
 40
0.2639590203395366
 40
0.2688431356854374
 40
0.27372650714041
 40
0.2786089833892738
 40
0.2834904311715739
 40
0.288370734122244
 40
0.2932497916320301
 40
0.2981275177373912
 40
0.30300384004763
 40
0.3078786987150531
 40
0.3127520454524322
 40
0.3176238426005079
 40
0.3224940622472952
 40
0.3273626853998389
 40
0.3322297012083154
 40
0.3370951062417971
 40
0.3419589038144251
 40
0.3468211033603052
 40
0.3516817198553497
 40
0.3565407732838163
 40
0.3613982881473285
 40
0.3662542930141441
 40
0.3711088201061435
 40
0.375961904921321
 40
0.3808135858893962
 40
0.385663904058304
 40
0.3905129028093256
 40
0.3953606275988917
 40
0.4002071257248621
 40
0.4050524461155798
 40
0.40989663913972
 40
0.4147397564353622
 40
0.419581850756676
 40
0.4244229758366515
 40
0.4292631862645535
 40
0.4341025373767551
 40
0.4389410851597774
 40
0.4437788861643228
 40
0.4486159974293313
 40
0.4534524764150103
 40
0.4582883809439348
 40
0.4631237691493897
 40
0.4679586994300759
 40
0.4727932304105211
 40
0.4776274209063847
 40
0.4824613298940501
 40
0.4872950164838743
 40
0.4921285398964197
 40
0.4969619594411464
 40
0.5017953344969776
 40
0.5066287244941973
 40
0.5114621716922
 40
0.5162957329632037
 40
0.5211294677973736
 40
0.5259634356718693
 40
0.5307976960318629
 40
0.535632308269859
 40
0.5404673317027535
 40
0.5453028255460713
 40
0.5501388488847263
 40
0.5549754606396885
 40
0.5598127195299637
 40
0.5646506840290437
 40
0.5694894123152029
 40
0.5743289622148136
 40
0.5791693911377482
 40
0.5840107560040952
 40
0.5888531131610988
 40
0.5936965182893237
 40
0.5985410262969252
 40
0.6033866912007547
 40
0.6082335659931415
 40
0.6130817024927867
 40
0.6179311511784071
 40
0.6227819610035217
 40
0.6276341791906256
 40
0.6324878510030368
 40
0.6373430194924129
 40
0.6421997252200304
 40
0.6470580059495811
 40
0.6519178963093708
 40
0.6567794274215811
 40
0.66164262649621
 40
0.666507516387235
 40
0.6713741151086488
 40
0.6762424353077847
 40
0.68111248369363
 40
0.6859842604177832
 40
0.6908577584059614
 40
0.6957329626381507
 40
0.7006098493758157
 40
0.7054883853352016
 40
0.7103685268059969
 40
0.7152502187157694
 40
0.7201333936411125
 40
0.7250179707677843
 40
0.7299038548032502
 40
0.7347909348467
 40
0.7396790832233232
 40
0.7445681542917245
 40
0.7494579832356376
 40
0.7543483848538485
 40
0.7592391523649742
 40
0.7641300235225102
 40
0.7690206877710661
 40
0.7739108584351642
 40
0.7788002228451093
 40
0.7836884416298576
 40
0.7885751482240538
 40
0.7934599486143994
 40
0.798342421367727
 40
0.8032221179842645
 40
0.8080985636193767
 40
0.812971258215584
 40
0.8178396780833549
 40
0.8227032779641745
 40
0.8275614936021641
 40
0.8324137448415097
 40
0.8372594392556876
 40
0.8420979763014734
 40
0.8469287519762891
 40
0.8517511639415962
 40
0.8565646170592799
 40
0.8613685292717846
 40
0.8661623377422448
 40
0.8709455051574722
 40
0.8757175260866504
 40
0.8804779332810713
 40
0.8852263037970909
 40
0.8899622648252442
 40
0.8946854991133625
 40
0.8993957498806315
 40
0.9040928251320569
 40
0.9087766012984593
 40
0.9134470261447726
 40
0.9181041209085421
 40
0.9227479816496725
 40
0.927378779811351
 40
0.9319967620092293
 40
0.9366022490814216
 40
0.9411956344442717
 40
0.9457773818091121
 40
0.9503480223217077
 40
0.9549081511904772
 40
0.9594584238706698
 40
0.9639995518707265
 40
0.9685322982440109
 40
0.973057472824483
 40
0.977575927259271
 40
0.9820885498846081
 40
0.9865962604850843
 40
0.9911000049696179
 40
0.9956007499912213
 40
1.0
 40
1.0
 40
1.0
 40
1.0
 10
504.740380493226
 20
38.9544074614096
 30
0.0
 10
504.7405807965392
 20
38.92053473536649
 30
0.0
 10
504.7409906185669
 20
38.85123089284029
 30
0.0
 10
504.7447753906287
 20
38.74653054418992
 30
0.0
 10
504.7509416503351
 20
38.64033745670986
 30
0.0
 10
504.7596881300094
 20
38.53423119895199
 30
0.0
 10
504.7709448209981
 20
38.42822997342202
 30
0.0
 10
504.7847292762971
 20
38.32235205693815
 30
0.0
 10
504.8010359457749
 20
38.21661579733352
 30
0.0
 10
504.8198658147988
 20
38.11103969481189
 30
0.0
 10
504.8412184048596
 20
38.00564246035076
 30
0.0
 10
504.8650938584838
 20
37.90044307936463
 30
0.0
 10
504.8914923058056
 20
37.79546087227237
 30
0.0
 10
504.9204139487982
 20
37.69071555327119
 30
0.0
 10
504.9518589412658
 20
37.58622728587968
 30
0.0
 10
504.9858273128373
 20
37.48201673441199
 30
0.0
 10
505.0223188712125
 20
37.37810511027379
 30
0.0
 10
505.0613331015426
 20
37.27451421196604
 30
0.0
 10
505.1028690593569
 20
37.17126645764715
 30
0.0
 10
505.1469252597906
 20
37.06838490913422
 30
0.0
 10
505.1934995644312
 20
36.96589328629135
 30
0.0
 10
505.2425890677384
 20
36.8638159708726
 30
0.0
 10
505.2941899850322
 20
36.76217799906467
 30
0.0
 10
505.3482975441742
 20
36.66100504219105
 30
0.0
 10
505.4049058831078
 20
36.56032337530996
 30
0.0
 10
505.4640079553963
 20
36.46015983373913
 30
0.0
 10
505.5255954457982
 20
36.36054175786718
 30
0.0
 10
505.5896586977378
 20
36.26149692694988
 30
0.0
 10
505.6561866542758
 20
36.16305348292226
 30
0.0
 10
505.7251668138645
 20
36.06523984556726
 30
0.0
 10
505.7965852017878
 20
35.96808462065704
 30
0.0
 10
505.8704263577758
 20
35.87161650289985
 30
0.0
 10
505.9466733398368
 20
35.77586417568593
 30
0.0
 10
506.0253077439116
 20
35.68085620970313
 30
0.0
 10
506.106309738533
 20
35.58662096250201
 30
0.0
 10
506.1896581132874
 20
35.49318648101582
 30
0.0
 10
506.2753303395532
 20
35.4005804088966
 30
0.0
 10
506.3633026417278
 20
35.30882990032397
 30
0.0
 10
506.4535500769765
 20
35.21796154168333
 30
0.0
 10
506.5460466214348
 20
35.12800128221855
 30
0.0
 10
506.6407652607768
 20
35.0389743744525
 30
0.0
 10
506.7376780831153
 20
34.95090532484912
 30
0.0
 10
506.8367563723154
 20
34.86381785488682
 30
0.0
 10
506.9379706999788
 20
34.77773487242569
 30
0.0
 10
507.0412910145646
 20
34.69267845300339
 30
0.0
 10
507.1466867263512
 20
34.60866983047825
 30
0.0
 10
507.2541267871937
 20
34.52572939627321
 30
0.0
 10
507.363579764283
 20
34.44387670634652
 30
0.0
 10
507.4750139073585
 20
34.3631304949385
 30
0.0
 10
507.5883972090438
 20
34.28350869409841
 30
0.0
 10
507.7036974581865
 20
34.205028457995
 30
0.0
 10
507.8208822862516
 20
34.12770619103556
 30
0.0
 10
507.9399192069664
 20
34.05155757886985
 30
0.0
 10
508.0607756495322
 20
33.97659762142285
 30
0.0
 10
508.1834187469473
 20
33.90284081082762
 30
0.0
 10
508.3078151809419
 20
33.83030124531353
 30
0.0
 10
508.4339316387423
 20
33.7589923762838
 30
0.0
 10
508.5617350822703
 20
33.68892691436384
 30
0.0
 10
508.6911929437755
 20
33.62011679585042
 30
0.0
 10
508.8222726625797
 20
33.55257348661722
 30
0.0
 10
508.954941685624
 20
33.48630801227092
 30
0.0
 10
509.0891674655855
 20
33.42133098652145
 30
0.0
 10
509.2249174571098
 20
33.3576526375913
 30
0.0
 10
509.3621591115523
 20
33.29528283260663
 30
0.0
 10
509.5008598705784
 20
33.23423109995321
 30
0.0
 10
509.6409871589365
 20
33.17450664961474
 30
0.0
 10
509.7825083766776
 20
33.1161183915408
 30
0.0
 10
509.9253908910585
 20
33.05907495211063
 30
0.0
 10
510.0696020283363
 20
33.00338468877828
 30
0.0
 10
510.2151090656246
 20
32.94905570299425
 30
0.0
 10
510.3618792229586
 20
32.89609585150982
 30
0.0
 10
510.5098796556855
 20
32.84451275617115
 30
0.0
 10
510.6590774472817
 20
32.79431381231798
 30
0.0
 10
510.809439602665
 20
32.74550619589456
 30
0.0
 10
510.9609330420706
 20
32.69809686938738
 30
0.0
 10
511.1135245955231
 20
32.65209258669355
 30
0.0
 10
511.267180997943
 20
32.60749989702344
 30
0.0
 10
511.4218688849022
 20
32.56432514793839
 30
0.0
 10
511.5775547890362
 20
32.52257448761203
 30
0.0
 10
511.7342051371197
 20
32.48225386640804
 30
0.0
 10
511.8917862477928
 20
32.4433690378518
 30
0.0
 10
512.0502643299328
 20
32.40592555907496
 30
0.0
 10
512.2096054816526
 20
32.36992879080219
 30
0.0
 10
512.3697756899094
 20
32.33538389694613
 30
0.0
 10
512.5307408306993
 20
32.3022958438689
 30
0.0
 10
512.6924666698187
 20
32.27066939936702
 30
0.0
 10
512.8549188641621
 20
32.24050913142801
 30
0.0
 10
513.0180629635354
 20
32.2118194068054
 30
0.0
 10
513.1818644129535
 20
32.18460438945247
 30
0.0
 10
513.3462885554005
 20
32.15886803885357
 30
0.0
 10
513.5113006350205
 20
32.13461410828547
 30
0.0
 10
513.6768658007139
 20
32.11184614304
 30
0.0
 10
513.8429491101153
 20
32.0905674786359
 30
0.0
 10
514.0095155339217
 20
32.07078123904303
 30
0.0
 10
514.1765299605502
 20
32.05249033494253
 30
0.0
 10
514.343957201097
 20
32.03569746204165
 30
0.0
 10
514.5117619945747
 20
32.02040509946119
 30
0.0
 10
514.6799090134031
 20
32.00661550821076
 30
0.0
 10
514.8483628691309
 20
31.9943307297659
 30
0.0
 10
515.017088118365
 20
31.9835525847591
 30
0.0
 10
515.1860492688859
 20
31.97428267179503
 30
0.0
 10
515.3552107859261
 20
31.96652236639899
 30
0.0
 10
515.5245370985937
 20
31.96027282010841
 30
0.0
 10
515.6939926064143
 20
31.95553495971004
 30
0.0
 10
515.86354168598
 20
31.95230948663397
 30
0.0
 10
516.0331486976748
 20
31.95059687650367
 30
0.0
 10
516.2027779924649
 20
31.95039737885028
 30
0.0
 10
516.3723937174846
 20
31.9517110154319
 30
0.0
 10
516.5419599938808
 20
31.95453757325087
 30
0.0
 10
516.7114409550138
 20
31.95887660406349
 30
0.0
 10
516.8808009546087
 20
31.96472743441814
 30
0.0
 10
517.0500044028543
 20
31.97208916640326
 30
0.0
 10
517.2190157426081
 20
31.98096067787237
 30
0.0
 10
517.3877994561001
 20
31.99134062334552
 30
0.0
 10
517.5563200715412
 20
32.00322743507034
 30
0.0
 10
517.724542169627
 20
32.01661932424268
 30
0.0
 10
517.8924303899092
 20
32.03151428237827
 30
0.0
 10
518.0599494370183
 20
32.04791008283206
 30
0.0
 10
518.2270640867125
 20
32.06580428245712
 30
0.0
 10
518.3937391917331
 20
32.08519422339256
 30
0.0
 10
518.5599396874428
 20
32.10607703497475
 30
0.0
 10
518.7256305972242
 20
32.12844963575567
 30
0.0
 10
518.8907770376122
 20
32.15230873561836
 30
0.0
 10
519.0553442231405
 20
32.17765083797358
 30
0.0
 10
519.219297470871
 20
32.2044722420195
 30
0.0
 10
519.3826022045836
 20
32.23276904504701
 30
0.0
 10
519.5452239586001
 20
32.26253714476795
 30
0.0
 10
519.7071283812115
 20
32.29377224164018
 30
0.0
 10
519.868281237685
 20
32.32646984116671
 30
0.0
 10
520.0286484128167
 20
32.36062525613212
 30
0.0
 10
520.1881959130088
 20
32.39623360874771
 30
0.0
 10
520.346889867834
 20
32.43328983266399
 30
0.0
 10
520.504696531065
 20
32.4717886748091
 30
0.0
 10
520.6615822811369
 20
32.51172469700813
 30
0.0
 10
520.8175136210155
 20
32.55309227732983
 30
0.0
 10
520.972457177445
 20
32.59588561110466
 30
0.0
 10
521.1263796995507
 20
32.64009871155382
 30
0.0
 10
521.2792480567718
 20
32.68572540995765
 30
0.0
 10
521.4310292361072
 20
32.73275935529371
 30
0.0
 10
521.5816903386566
 20
32.78119401326008
 30
0.0
 10
521.7311985754457
 20
32.83102266459922
 30
0.0
 10
521.8795212625324
 20
32.88223840262761
 30
0.0
 10
522.0266258153927
 20
32.93483412987058
 30
0.0
 10
522.172479742601
 20
32.98880255369588
 30
0.0
 10
522.3170506388254
 20
33.04413618083129
 30
0.0
 10
522.460306177169
 20
33.10082731064795
 30
0.0
 10
522.602214100912
 20
33.15886802708565
 30
0.0
 10
522.7427422147159
 20
33.21825018909036
 30
0.0
 10
522.8818583753751
 20
33.27896541943426
 30
0.0
 10
523.019530482228
 20
33.34100509178867
 30
0.0
 10
523.1557264673538
 20
33.4043603159169
 30
0.0
 10
523.2904142857238
 20
33.46902192086762
 30
0.0
 10
523.4235619054928
 20
33.53498043604841
 30
0.0
 10
523.5551372986623
 20
33.60222607008059
 30
0.0
 10
523.6851084323765
 20
33.67074868734754
 30
0.0
 10
523.8134432611555
 20
33.74053778217812
 30
0.0
 10
523.9401097204112
 20
33.81158245063431
 30
0.0
 10
524.0650757216301
 20
33.88387135991167
 30
0.0
 10
524.1883091496564
 20
33.95739271540762
 30
0.0
 10
524.3097775916257
 20
34.03213405886962
 30
0.0
 10
524.4294481624083
 20
34.10808208975835
 30
0.0
 10
524.5472879425607
 20
34.18522285717032
 30
0.0
 10
524.6632642476218
 20
34.26354189384134
 30
0.0
 10
524.7773448123595
 20
34.34302432036579
 30
0.0
 10
524.8894974139708
 20
34.423654550331
 30
0.0
 10
524.9996899011818
 20
34.50541624963125
 30
0.0
 10
525.1078902300538
 20
34.58829229708616
 30
0.0
 10
525.2140665067915
 20
34.67226474714833
 30
0.0
 10
525.3181870378827
 20
34.75731479566516
 30
0.0
 10
525.4202203877664
 20
34.84342274973237
 30
0.0
 10
525.5201354440624
 20
34.93056800274014
 30
0.0
 10
525.6179014902068
 20
35.01872901573721
 30
0.0
 10
525.7134882851151
 20
35.10788330623762
 30
0.0
 10
525.8068661492514
 20
35.19800744555265
 30
0.0
 10
525.8980060562175
 20
35.28907706563494
 30
0.0
 10
525.9868797287119
 20
35.38106687629239
 30
0.0
 10
526.0734597374388
 20
35.47395069343534
 30
0.0
 10
526.1577196012995
 20
35.56770147878724
 30
0.0
 10
526.2396338869818
 20
35.66229139120844
 30
0.0
 10
526.319178305891
 20
35.75769184946864
 30
0.0
 10
526.3963298062548
 20
35.85387360596221
 30
0.0
 10
526.4710666581944
 20
35.95080683051285
 30
0.0
 10
526.543368529595
 20
36.04846120307398
 30
0.0
 10
526.6132165507394
 20
36.14680601380948
 30
0.0
 10
526.6805933658753
 20
36.24581026877011
 30
0.0
 10
526.7454831701871
 20
36.34544279915952
 30
0.0
 10
526.8078717309976
 20
36.4456723720426
 30
0.0
 10
526.8677463924465
 20
36.54646780028175
 30
0.0
 10
526.9250960633395
 20
36.64779804951057
 30
0.0
 10
526.979911188325
 20
36.74963234005801
 30
0.0
 10
527.0321837030061
 20
36.85194024191915
 30
0.0
 10
527.0819069740207
 20
36.95469176111909
 30
0.0
 10
527.1290757254856
 20
37.05785741611825
 30
0.0
 10
527.1736859535146
 20
37.16140830324321
 30
0.0
 10
527.2157348307383
 20
37.26531615047918
 30
0.0
 10
527.2552206029158
 20
37.36955335931008
 30
0.0
 10
527.2921424797623
 20
37.47409303462218
 30
0.0
 10
527.3265005222175
 20
37.57890900298361
 30
0.0
 10
527.3582955278871
 20
37.6839758198648
 30
0.0
 10
527.3875289178146
 20
37.78926876656369
 30
0.0
 10
527.414202621746
 20
37.89476383774873
 30
0.0
 10
527.4383189805076
 20
38.0004377206104
 30
0.0
 10
527.4598806032885
 20
38.10626776668974
 30
0.0
 10
527.4788904173348
 20
38.21223195730538
 30
0.0
 10
527.4953510311251
 20
38.31830886395243
 30
0.0
 10
527.5092666869083
 20
38.42447760312334
 30
0.0
 10
527.5206356076606
 20
38.53071779175399
 30
0.0
 10
527.5294781628518
 20
38.63700948387508
 30
0.0
 10
527.5357316131481
 20
38.74333316395842
 30
0.0
 10
527.5396133735028
 20
38.84888614354543
 30
0.0
 10
527.5400727532746
 20
38.91899984597433
 30
0.0
 10
527.5402998237906
 20
38.95365691094721
 30
0.0
  0
LINE
  5
EB
330
1F
100
AcDbEntity
  8
0
  6
Continuous
 62
     7
370
    30
100
AcDbLine
 10
667.8724024191
 20
172.9004750408
 30
0.0
 11
667.7309580835
 21
172.9821556601
 31
0.0
  0
LINE
  5
EC
330
1F
100
AcDbEntity
  8
0
  6
Continuous
 62
     7
370
    30
100
AcDbLine
 10
647.5044180588
 20
172.9821556601
 30
0.0
 11
647.3629737233
 21
172.9004750408
 31
0.0
  0
LINE
  5
ED
330
1F
100
AcDbEntity
  8
0
  6
Continuous
 62
     7
370
    30
100
AcDbLine
 10
672.1176880712
 20
132.8522792188
 30
0.0
 11
672.1176880712
 21
166.9824781599
 31
0.0
  0
LINE
  5
EE
330
1F
100
AcDbEntity
  8
0
  6
Continuous
 62
     7
370
    30
100
AcDbLine
 10
643.1176880712
 20
166.9824781599
 30
0.0
 11
643.1176880712
 21
142.6742759722
 31
0.0
  0
LINE
  5
EF
330
1F
100
AcDbEntity
  8
0
  6
Continuous
 62
     7
370
    30
100
AcDbLine
 10
667.5187915804
 20
126.7300807894
 30
0.0
 11
667.8724024193
 21
126.9342823378
 31
0.0
  0
LINE
  5
F0
330
1F
100
AcDbEntity
  8
0
  6
Continuous
 62
     7
370
    30
100
AcDbLine
 10
503.3903272415
 20
53.2944020202
 30
0.0
 11
503.3903272415
 21
52.0189922179
 31
0.0
  0
LWPOLYLINE
  5
F1
330
1F
100
AcDbEntity
  8
0
  6
Continuous
 62
     7
370
    30
100
AcDbPolyline
 90
      241
 70
   128
 43
0.0
 10
667.7293150421
 20
172.9831043218
 10
667.4611585036
 20
173.1339071903
 10
667.1862557421
 20
173.2806060998
 10
666.9047951623
 20
173.4231005103
 10
666.6169696632
 20
173.5612927632
 10
666.322976506
 20
173.6950881484
 10
666.0230171789
 20
173.8243949693
 10
665.7172972592
 20
173.9491246055
 10
665.4060262719
 20
174.0691915734
 10
665.0894175466
 20
174.1845135852
 10
664.7676880712
 20
174.2950116049
 10
664.4410583429
 20
174.4006099027
 10
664.1097522174
 20
174.5012361069
 10
663.7739967555
 20
174.5968212531
 10
663.4340220671
 20
174.6872998322
 10
663.090061154
 20
174.7726098347
 10
662.7423497497
 20
174.8526927933
 10
662.3911261582
 20
174.9274938232
 10
662.0366310907
 20
174.9969616594
 10
661.6791075004
 20
175.0610486922
 10
661.3188004161
 20
175.1197109996
 10
660.9559567743
 20
175.1729083774
 10
660.5908252498
 20
175.2206043666
 10
660.2236560857
 20
175.2627662789
 10
659.8547009212
 20
175.2993652186
 10
659.4842126199
 20
175.3303761025
 10
659.1124450959
 20
175.3557776775
 10
658.7396531401
 20
175.3755525345
 10
658.3660922454
 20
175.3896871209
 10
657.992018432
 20
175.3981717494
 10
657.6176880712
 20
175.4010006051
 10
657.2433577104
 20
175.3981717494
 10
656.8692838969
 20
175.3896871209
 10
656.4957230022
 20
175.3755525345
 10
656.1229310464
 20
175.3557776775
 10
655.7511635224
 20
175.3303761025
 10
655.3806752211
 20
175.2993652186
 10
655.0117200566
 20
175.2627662789
 10
654.6445508925
 20
175.2206043666
 10
654.279419368
 20
175.1729083774
 10
653.9165757262
 20
175.1197109996
 10
653.5562686419
 20
175.0610486922
 10
653.1987450516
 20
174.9969616594
 10
652.8442499841
 20
174.9274938232
 10
652.4930263927
 20
174.8526927933
 10
652.1453149883
 20
174.7726098347
 10
651.8013540752
 20
174.6872998322
 10
651.4613793868
 20
174.5968212531
 10
651.1256239249
 20
174.5012361069
 10
650.7943177994
 20
174.4006099027
 10
650.4676880712
 20
174.2950116049
 10
650.1459585957
 20
174.1845135852
 10
649.8293498704
 20
174.0691915734
 10
649.5180788831
 20
173.9491246055
 10
649.2123589634
 20
173.8243949693
 10
648.9123996363
 20
173.6950881484
 10
648.6184064791
 20
173.5612927632
 10
648.33058098
 20
173.4231005103
 10
648.0491204002
 20
173.2806060998
 10
647.7742176387
 20
173.1339071903
 10
647.5060611002
 20
172.9831043218
 10
647.2448345657
 20
172.8283008472
 10
646.9907170668
 20
172.669602861
 10
646.7438827631
 20
172.5071191268
 10
646.5045008223
 20
172.340961003
 10
646.272735305
 20
172.1712423659
 10
646.0487450516
 20
171.9980795323
 10
645.8326835739
 20
171.8215911792
 10
645.6246989495
 20
171.6418982631
 10
645.4249337209
 20
171.4591239365
 10
645.233524797
 20
171.2733934637
 10
645.0506033601
 20
171.0848341352
 10
644.8762947753
 20
170.89357518
 10
644.710718505
 20
170.6997476776
 10
644.5539880269
 20
170.5034844676
 10
644.4062107562
 20
170.304920059
 10
644.2674879722
 20
170.1041905379
 10
644.1379147485
 20
169.9014334744
 10
644.0175798881
 20
169.6967878279
 10
643.9065658625
 20
169.4903938524
 10
643.8049487552
 20
169.2823930001
 10
643.7127982095
 20
169.0729278243
 10
643.6301773807
 20
168.8621418819
 10
643.557142893
 20
168.6501796352
 10
643.4937448006
 20
168.4371863524
 10
643.4400265535
 20
168.2233080086
 10
643.3960249674
 20
168.0086911852
 10
643.3617701988
 20
167.79348297
 10
643.3372857242
 20
167.5778308558
 10
643.322588324
 20
167.3618826399
 10
643.3176880712
 20
167.1457863223
 10
643.322588324
 20
166.9296900048
 10
643.3372857242
 20
166.7137417888
 10
643.3617701988
 20
166.4980896746
 10
643.3960249674
 20
166.2828814594
 10
643.4400265535
 20
166.068264636
 10
643.4937448006
 20
165.8543862922
 10
643.557142893
 20
165.6413930094
 10
643.6301773807
 20
165.4294307627
 10
643.7127982095
 20
165.2186448203
 10
643.8049487552
 20
165.0091796445
 10
643.9065658625
 20
164.8011787922
 10
644.0175798881
 20
164.5947848167
 10
644.1379147485
 20
164.3901391703
 10
644.2674879722
 20
164.1873821067
 10
644.4062107562
 20
163.9866525856
 10
644.5539880269
 20
163.788088177
 10
644.710718505
 20
163.591824967
 10
644.8762947753
 20
163.3979974646
 10
645.0506033601
 20
163.2067385094
 10
645.233524797
 20
163.0181791809
 10
645.4249337209
 20
162.8324487081
 10
645.6246989495
 20
162.6496743815
 10
645.8326835739
 20
162.4699814654
 10
646.0487450516
 20
162.2934931123
 10
646.272735305
 20
162.1203302787
 10
646.5045008223
 20
161.9506116416
 10
646.7438827631
 20
161.7844535178
 10
646.9907170668
 20
161.6219697836
 10
647.2448345657
 20
161.4632717974
 10
647.5060611002
 20
161.3084683228
 10
647.7742176387
 20
161.1576654543
 10
648.0491204002
 20
161.0109665448
 10
648.33058098
 20
160.8684721343
 10
648.6184064791
 20
160.7302798814
 10
648.9123996363
 20
160.5964844962
 10
649.2123589634
 20
160.4671776753
 10
649.5180788831
 20
160.3424480391
 10
649.8293498704
 20
160.2223810712
 10
650.1459585957
 20
160.1070590594
 10
650.4676880712
 20
159.9965610397
 10
650.7943177994
 20
159.8909627419
 10
651.1256239249
 20
159.7903365377
 10
651.4613793868
 20
159.6947513915
 10
651.8013540752
 20
159.6042728124
 10
652.1453149883
 20
159.5189628099
 10
652.4930263927
 20
159.4388798513
 10
652.8442499841
 20
159.3640788215
 10
653.1987450516
 20
159.2946109852
 10
653.5562686419
 20
159.2305239524
 10
653.9165757262
 20
159.171861645
 10
654.279419368
 20
159.1186642673
 10
654.6445508925
 20
159.070968278
 10
655.0117200566
 20
159.0288063657
 10
655.3806752211
 20
158.992207426
 10
655.7511635224
 20
158.9611965421
 10
656.1229310464
 20
158.9357949671
 10
656.4957230022
 20
158.9160201101
 10
656.8692838969
 20
158.9018855237
 10
657.2433577104
 20
158.8934008952
 10
657.6176880712
 20
158.8905720395
 10
657.992018432
 20
158.8934008952
 10
658.3660922454
 20
158.9018855237
 10
658.7396531401
 20
158.9160201101
 10
659.1124450959
 20
158.9357949671
 10
659.4842126199
 20
158.9611965421
 10
659.8547009212
 20
158.992207426
 10
660.2236560857
 20
159.0288063657
 10
660.5908252498
 20
159.070968278
 10
660.9559567743
 20
159.1186642673
 10
661.3188004161
 20
159.171861645
 10
661.6791075004
 20
159.2305239524
 10
662.0366310907
 20
159.2946109852
 10
662.3911261582
 20
159.3640788215
 10
662.7423497497
 20
159.4388798513
 10
663.090061154
 20
159.5189628099
 10
663.4340220671
 20
159.6042728124
 10
663.7739967555
 20
159.6947513915
 10
664.1097522174
 20
159.7903365377
 10
664.4410583429
 20
159.8909627419
 10
664.7676880712
 20
159.9965610397
 10
665.0894175466
 20
160.1070590594
 10
665.4060262719
 20
160.2223810712
 10
665.7172972592
 20
160.3424480391
 10
666.0230171789
 20
160.4671776753
 10
666.322976506
 20
160.5964844962
 10
666.6169696632
 20
160.7302798814
 10
666.9047951623
 20
160.8684721343
 10
667.1862557421
 20
161.0109665448
 10
667.4611585036
 20
161.1576654543
 10
667.7293150421
 20
161.3084683228
 10
667.9905415766
 20
161.4632717974
 10
668.2446590755
 20
161.6219697836
 10
668.4914933792
 20
161.7844535178
 10
668.73087532
 20
161.9506116416
 10
668.9626408373
 20
162.1203302787
 10
669.1866310907
 20
162.2934931123
 10
669.4026925684
 20
162.4699814654
 10
669.6106771928
 20
162.6496743815
 10
669.8104424214
 20
162.8324487081
 10
670.0018513453
 20
163.0181791809
 10
670.1847727822
 20
163.2067385094
 10
670.359081367
 20
163.3979974646
 10
670.5246576374
 20
163.591824967
 10
670.6813881154
 20
163.788088177
 10
670.8291653861
 20
163.9866525856
 10
670.9678881701
 20
164.1873821067
 10
671.0974613938
 20
164.3901391703
 10
671.2177962542
 20
164.5947848167
 10
671.3288102798
 20
164.8011787922
 10
671.4304273871
 20
165.0091796445
 10
671.5225779328
 20
165.2186448203
 10
671.6051987616
 20
165.4294307627
 10
671.6782332493
 20
165.6413930094
 10
671.7416313417
 20
165.8543862922
 10
671.7953495888
 20
166.068264636
 10
671.8393511749
 20
166.2828814594
 10
671.8736059435
 20
166.4980896746
 10
671.8980904181
 20
166.7137417888
 10
671.9127878183
 20
166.9296900048
 10
671.9176880712
 20
167.1457863223
 10
671.9127878183
 20
167.3618826399
 10
671.8980904181
 20
167.5778308558
 10
671.8736059435
 20
167.79348297
 10
671.8393511749
 20
168.0086911852
 10
671.7953495888
 20
168.2233080086
 10
671.7416313417
 20
168.4371863524
 10
671.6782332493
 20
168.6501796352
 10
671.6051987616
 20
168.8621418819
 10
671.5225779328
 20
169.0729278243
 10
671.4304273871
 20
169.2823930001
 10
671.3288102798
 20
169.4903938524
 10
671.2177962542
 20
169.6967878279
 10
671.0974613938
 20
169.9014334744
 10
670.9678881701
 20
170.1041905379
 10
670.8291653861
 20
170.304920059
 10
670.6813881154
 20
170.5034844676
 10
670.5246576374
 20
170.6997476776
 10
670.359081367
 20
170.89357518
 10
670.1847727822
 20
171.0848341352
 10
670.0018513453
 20
171.2733934637
 10
669.8104424214
 20
171.4591239365
 10
669.6106771928
 20
171.6418982631
 10
669.4026925684
 20
171.8215911792
 10
669.1866310907
 20
171.9980795323
 10
668.9626408373
 20
172.1712423659
 10
668.73087532
 20
172.340961003
 10
668.4914933792
 20
172.5071191268
 10
668.2446590755
 20
172.669602861
 10
667.9905415766
 20
172.8283008472
 10
667.7293150421
 20
172.9831043218
  0
LWPOLYLINE
  5
F2
330
1F
100
AcDbEntity
  8
0
  6
Continuous
 62
     7
370
    30
100
AcDbPolyline
 90
      181
 70
   128
 43
0.0
 10
667.8724024191
 20
172.9004750408
 10
668.1356164508
 20
172.7444684125
 10
668.3932880406
 20
172.583550874
 10
668.6435745724
 20
172.41879464
 10
668.8863045123
 20
172.2503126263
 10
669.1213115054
 20
172.078220302
 10
669.3484344896
 20
171.9026356106
 10
669.5675178062
 20
171.723678889
 10
669.7784113064
 20
171.5414727853
 10
669.9809704543
 20
171.3561421743
 10
670.175056426
 20
171.1678140725
 10
670.3605362048
 20
170.9766175506
 10
670.5372826719
 20
170.782683645
 10
670.7051746942
 20
170.5861452684
 10
670.864097207
 20
170.3871371184
 10
671.0139412926
 20
170.1857955852
 10
671.1546042554
 20
169.9822586583
 10
671.285989692
 20
169.7766658316
 10
671.4080075574
 20
169.5691580083
 10
671.5205742267
 20
169.3598774038
 10
671.6236125523
 20
169.1489674486
 10
671.7170519169
 20
168.9365726899
 10
671.8008282818
 20
168.7228386924
 10
671.8748842308
 20
168.5079119387
 10
671.9391690098
 20
168.2919397289
 10
671.9936385611
 20
168.0750700796
 10
672.038255554
 20
167.8574516223
 10
672.0729894103
 20
167.639233502
 10
672.0978163251
 20
167.4205652743
 10
672.1127192833
 20
167.2015968036
 10
672.1176880712
 20
166.9824781599
 10
672.1127192833
 20
166.7633595163
 10
672.0978163251
 20
166.5443910456
 10
672.0729894103
 20
166.3257228179
 10
672.038255554
 20
166.1075046975
 10
671.9936385611
 20
165.8898862403
 10
671.9391690098
 20
165.6730165909
 10
671.8748842308
 20
165.4570443811
 10
671.8008282818
 20
165.2421176275
 10
671.7170519169
 20
165.02838363
 10
671.6236125523
 20
164.8159888713
 10
671.5205742267
 20
164.6050789161
 10
671.4080075574
 20
164.3957983116
 10
671.285989692
 20
164.1882904883
 10
671.1546042554
 20
163.9826976616
 10
671.0139412926
 20
163.7791607346
 10
670.864097207
 20
163.5778192014
 10
670.7051746942
 20
163.3788110514
 10
670.5372826719
 20
163.1822726748
 10
670.3605362048
 20
162.9883387693
 10
670.175056426
 20
162.7971422473
 10
669.9809704543
 20
162.6088141455
 10
669.7784113064
 20
162.4234835346
 10
669.5675178062
 20
162.2412774309
 10
669.3484344896
 20
162.0623207093
 10
669.1213115054
 20
161.8867360178
 10
668.8863045123
 20
161.7146436935
 10
668.6435745724
 20
161.5461616798
 10
668.3932880406
 20
161.3814054459
 10
668.1356164508
 20
161.2204879074
 10
667.8707363984
 20
161.0635193492
 10
667.5988294187
 20
160.9106073497
 10
667.3200818634
 20
160.7618567072
 10
667.0346847719
 20
160.6173693679
 10
666.7428337414
 20
160.4772443563
 10
666.4447287918
 20
160.3415777069
 10
666.1405742294
 20
160.210462399
 10
665.8305785066
 20
160.0839882924
 10
665.5149540789
 20
159.9622420662
 10
665.1939172595
 20
159.8453071591
 10
664.8676880712
 20
159.7332637125
 10
664.5364900949
 20
159.6261885154
 10
664.2005503174
 20
159.5241549518
 10
663.8600989749
 20
159.4272329503
 10
663.5153693958
 20
159.3354889366
 10
663.1665978404
 20
159.2489857872
 10
662.8140233396
 20
159.1677827873
 10
662.45788753
 20
159.0919355891
 10
662.0984344896
 20
159.0214961748
 10
661.7359105694
 20
158.9565128198
 10
661.3705642251
 20
158.8970300605
 10
661.0026458471
 20
158.8430886635
 10
660.632407588
 20
158.7947255975
 10
660.2601031908
 20
158.7519740082
 10
659.8859878142
 20
158.7148631952
 10
659.5103178583
 20
158.6834185925
 10
659.1333507885
 20
158.6576617508
 10
658.7553449592
 20
158.6376103224
 10
658.3765594367
 20
158.6232780495
 10
657.9972538216
 20
158.6146747549
 10
657.6176880712
 20
158.6118063347
 10
657.2381223207
 20
158.6146747549
 10
656.8588167056
 20
158.6232780495
 10
656.4800311831
 20
158.6376103224
 10
656.1020253538
 20
158.6576617508
 10
655.725058284
 20
158.6834185925
 10
655.3493883281
 20
158.7148631952
 10
654.9752729515
 20
158.7519740082
 10
654.6029685543
 20
158.7947255975
 10
654.2327302952
 20
158.8430886635
 10
653.8648119172
 20
158.8970300605
 10
653.4994655729
 20
158.9565128198
 10
653.1369416527
 20
159.0214961748
 10
652.7774886123
 20
159.0919355891
 10
652.4213528027
 20
159.1677827873
 10
652.0687783019
 20
159.2489857872
 10
651.7200067466
 20
159.3354889366
 10
651.3752771674
 20
159.4272329503
 10
651.0348258249
 20
159.5241549518
 10
650.6988860474
 20
159.6261885154
 10
650.3676880712
 20
159.7332637125
 10
650.0414588828
 20
159.8453071591
 10
649.7204220634
 20
159.9622420662
 10
649.4047976357
 20
160.0839882924
 10
649.0948019129
 20
160.210462399
 10
648.7906473505
 20
160.3415777069
 10
648.4925424009
 20
160.4772443563
 10
648.2006913704
 20
160.6173693679
 10
647.915294279
 20
160.7618567072
 10
647.6365467236
 20
160.9106073497
 10
647.3646397439
 20
161.0635193492
 10
647.0997596915
 20
161.2204879074
 10
646.8420881017
 20
161.3814054459
 10
646.59180157
 20
161.5461616798
 10
646.34907163
 20
161.7146436935
 10
646.1140646369
 20
161.8867360178
 10
645.8869416527
 20
162.0623207093
 10
645.6678583361
 20
162.2412774309
 10
645.4569648359
 20
162.4234835346
 10
645.254405688
 20
162.6088141455
 10
645.0603197163
 20
162.7971422473
 10
644.8748399376
 20
162.9883387693
 10
644.6980934704
 20
163.1822726748
 10
644.5302014481
 20
163.3788110514
 10
644.3712789353
 20
163.5778192014
 10
644.2214348497
 20
163.7791607346
 10
644.0807718869
 20
163.9826976616
 10
643.9493864503
 20
164.1882904883
 10
643.8273685849
 20
164.3957983116
 10
643.7148019156
 20
164.6050789161
 10
643.61176359
 20
164.8159888713
 10
643.5183242254
 20
165.02838363
 10
643.4345478605
 20
165.2421176275
 10
643.3604919115
 20
165.4570443811
 10
643.2962071325
 20
165.6730165909
 10
643.2417375812
 20
165.8898862403
 10
643.1971205883
 20
166.1075046975
 10
643.162386732
 20
166.3257228179
 10
643.1375598172
 20
166.5443910456
 10
643.122656859
 20
166.7633595163
 10
643.1176880712
 20
166.9824781599
 10
643.122656859
 20
167.2015968036
 10
643.1375598172
 20
167.4205652743
 10
643.162386732
 20
167.639233502
 10
643.1971205883
 20
167.8574516223
 10
643.2417375812
 20
168.0750700796
 10
643.2962071325
 20
168.2919397289
 10
643.3604919115
 20
168.5079119387
 10
643.4345478605
 20
168.7228386924
 10
643.5183242254
 20
168.9365726899
 10
643.61176359
 20
169.1489674486
 10
643.7148019156
 20
169.3598774038
 10
643.8273685849
 20
169.5691580083
 10
643.9493864503
 20
169.7766658316
 10
644.0807718869
 20
169.9822586583
 10
644.2214348497
 20
170.1857955852
 10
644.3712789353
 20
170.3871371184
 10
644.5302014481
 20
170.5861452684
 10
644.6980934704
 20
170.782683645
 10
644.8748399376
 20
170.9766175506
 10
645.0603197163
 20
171.1678140725
 10
645.254405688
 20
171.3561421743
 10
645.4569648359
 20
171.5414727853
 10
645.6678583361
 20
171.723678889
 10
645.8869416527
 20
171.9026356106
 10
646.1140646369
 20
172.078220302
 10
646.34907163
 20
172.2503126263
 10
646.59180157
 20
172.41879464
 10
646.8420881017
 20
172.583550874
 10
647.0997596915
 20
172.7444684125
 10
647.3629737233
 20
172.9004750408
  0
LWPOLYLINE
  5
F3
330
1F
100
AcDbEntity
  8
0
  6
Continuous
 62
     7
370
    30
100
AcDbPolyline
 90
       63
 70
   128
 43
0.0
 10
657.1702405467
 20
124.4855938035
 10
657.2381223207
 20
124.4844758137
 10
657.6176880712
 20
124.4816073935
 10
657.9972538216
 20
124.4844758137
 10
658.3765594367
 20
124.4930791083
 10
658.7553449592
 20
124.5074113812
 10
659.1333507885
 20
124.5274628096
 10
659.5103178583
 20
124.5532196514
 10
659.8859878142
 20
124.584664254
 10
660.2601031908
 20
124.621775067
 10
660.632407588
 20
124.6645266564
 10
661.0026458471
 20
124.7128897224
 10
661.3705642251
 20
124.7668311194
 10
661.7359105694
 20
124.8263138786
 10
662.0984344896
 20
124.8912972336
 10
662.45788753
 20
124.961736648
 10
662.8140233396
 20
125.0375838461
 10
663.1665978404
 20
125.118786846
 10
663.5153693958
 20
125.2052899954
 10
663.8600989749
 20
125.2970340092
 10
664.2005503174
 20
125.3939560106
 10
664.5364900949
 20
125.4959895743
 10
664.8676880712
 20
125.6030647714
 10
665.1939172595
 20
125.7151082179
 10
665.5149540789
 20
125.832043125
 10
665.8305785066
 20
125.9537893512
 10
666.1405742294
 20
126.0802634578
 10
666.4447287918
 20
126.2113787657
 10
666.7428337414
 20
126.3470454151
 10
667.0346847719
 20
126.4871704268
 10
667.3200818634
 20
126.6316577661
 10
667.5988294187
 20
126.7804084086
 10
667.8707363984
 20
126.933320408
 10
668.1356164508
 20
127.0902889662
 10
668.3932880406
 20
127.2512065047
 10
668.6435745724
 20
127.4159627386
 10
668.8863045123
 20
127.5844447523
 10
669.1213115054
 20
127.7565370767
 10
669.3484344896
 20
127.9321217681
 10
669.5675178062
 20
128.1110784897
 10
669.7784113064
 20
128.2932845934
 10
669.9809704543
 20
128.4786152044
 10
670.175056426
 20
128.6669433061
 10
670.3605362048
 20
128.8581398281
 10
670.5372826719
 20
129.0520737337
 10
670.7051746942
 20
129.2486121102
 10
670.864097207
 20
129.4476202603
 10
671.0139412926
 20
129.6489617935
 10
671.1546042554
 20
129.8524987204
 10
671.285989692
 20
130.0580915471
 10
671.4080075574
 20
130.2655993704
 10
671.5205742267
 20
130.4748799749
 10
671.6236125523
 20
130.6857899301
 10
671.7170519169
 20
130.8981846888
 10
671.8008282818
 20
131.1119186863
 10
671.8748842308
 20
131.32684544
 10
671.9391690098
 20
131.5428176497
 10
671.9936385611
 20
131.7596872991
 10
672.038255554
 20
131.9773057563
 10
672.0729894103
 20
132.1955238767
 10
672.0978163251
 20
132.4141921044
 10
672.1127192833
 20
132.6331605751
 10
672.1176880712
 20
132.8522792188
  0
ARC
  5
F4
330
1F
100
AcDbEntity
  8
0
  6
Continuous
 62
     7
370
    30
100
AcDbCircle
 10
657.9408916187
 20
144.7909533983
 30
0.0
 40
20.44336780154667
100
AcDbArc
 50
267.2804349505
 51
297.9375501041
  0
LWPOLYLINE
  5
F5
330
1F
100
AcDbEntity
  8
0
  6
Continuous
 62
     7
370
    30
100
AcDbPolyline
 90
       96
 70
   128
 43
0.0
 10
525.1523702593
 20
48.0877411045
 10
524.9131874882
 20
47.9533386321
 10
524.6679922368
 20
47.8225966578
 10
524.4169525498
 20
47.6956047856
 10
524.1602404772
 20
47.5724500493
 10
523.8980319567
 20
47.4532168531
 10
523.6305066929
 20
47.3379869134
 10
523.3578480342
 20
47.2268392031
 10
523.0802428474
 20
47.1198498973
 10
522.797881389
 20
47.0170923211
 10
522.5109571755
 20
46.9186368994
 10
522.2196668506
 20
46.8245511086
 10
521.9242100499
 20
46.7348994305
 10
521.6247892648
 20
46.6497433077
 10
521.3216097035
 20
46.5691411022
 10
521.0148791499
 20
46.4931480546
 10
520.704807822
 20
46.4218162467
 10
520.3916082271
 20
46.3551945658
 10
520.0754950165
 20
46.293328671
 10
519.7566848385
 20
46.2362609622
 10
519.4353961897
 20
46.1840305508
 10
519.1118492652
 20
46.1366732328
 10
518.7862658079
 20
46.0942214645
 10
518.4588689565
 20
46.0567043404
 10
518.1298830924
 20
46.0241475727
 10
517.7995336862
 20
45.9965734742
 10
517.4680471427
 20
45.9740009429
 10
517.1356506463
 20
45.9564454488
 10
516.8025720049
 20
45.9439190237
 10
516.4690394941
 20
45.9364302524
 10
516.1352817004
 20
45.9339842674
 10
515.8015273645
 20
45.9365827451
 10
515.4680052253
 20
45.9442239046
 10
515.1349438619
 20
45.956902509
 10
514.8025715381
 20
45.9746098691
 10
514.4711160452
 20
45.997333849
 10
514.1408045463
 20
46.025058875
 10
513.8118634203
 20
46.0577659457
 10
513.4845181072
 20
46.0954326453
 10
513.158992953
 20
46.1380331589
 10
512.8355110563
 20
46.1855382902
 10
512.5142941156
 20
46.2379154817
 10
512.1955622769
 20
46.2951288365
 10
511.8795339831
 20
46.3571391435
 10
511.5664258241
 20
46.423903904
 10
511.2564523887
 20
46.4953773608
 10
510.9498261172
 20
46.5715105294
 10
510.6467571558
 20
46.652251232
 10
510.347453213
 20
46.737544133
 10
510.0521194167
 20
46.8273307768
 10
509.7609581739
 20
46.9215496283
 10
509.474169032
 20
47.0201361144
 10
509.1919485419
 20
47.123022669
 10
508.9144901236
 20
47.2301387787
 10
508.641983933
 20
47.3414110316
 10
508.3746167325
 20
47.4567631671
 10
508.112571762
 20
47.5761161287
 10
507.8560286141
 20
47.6993881178
 10
507.6051631107
 20
47.8264946499
 10
507.3601471824
 20
47.9573486126
 10
507.1211487509
 20
48.0918603252
 10
506.8883316139
 20
48.2299375999
 10
506.6618553326
 20
48.3714858056
 10
506.4418751224
 20
48.5164079322
 10
506.2285417469
 20
48.6646046572
 10
506.022001414
 20
48.8159744141
 10
505.8223956762
 20
48.9704134616
 10
505.6298613334
 20
49.1278159548
 10
505.4445303388
 20
49.288074018
 10
505.2665297092
 20
49.4510778183
 10
505.0959814373
 20
49.616715641
 10
504.9330024083
 20
49.7848739663
 10
504.7777043199
 20
49.9554375468
 10
504.6301936057
 20
50.1282894867
 10
504.4905713621
 20
50.303311322
 10
504.3589332793
 20
50.4803831015
 10
504.2353695755
 20
50.659383469
 10
504.1199649349
 20
50.8401897466
 10
504.0127984503
 20
51.0226780187
 10
503.9139435681
 20
51.2067232169
 10
503.8234680385
 20
51.3921992059
 10
503.741433869
 20
51.5789788697
 10
503.6678972817
 20
51.7669341989
 10
503.6029086748
 20
51.9559363781
 10
503.5465125884
 20
52.1458558749
 10
503.4987476735
 20
52.3365625279
 10
503.4596466658
 20
52.5279256361
 10
503.4292363631
 20
52.719814049
 10
503.4075376071
 20
52.9120962558
 10
503.3945652692
 20
53.1046404759
 10
503.3903282398
 20
53.2973147491
 10
503.3948294229
 20
53.489987026
 10
503.4080657336
 20
53.6825252587
 10
503.4300281003
 20
53.8747974912
 10
503.4607014711
 20
54.0666719496
 10
503.4903272415
 20
54.2144472367
  0
ARC
  5
F6
330
1F
100
AcDbEntity
  8
0
  6
Continuous
 62
     7
370
    30
100
AcDbCircle
 10
521.6083794409
 20
55.3271428049
 30
0.0
 40
8.184961958654112
100
AcDbArc
 50
310.7128128255
 51
316.9438343698
  0
LINE
  5
F7
330
1F
100
AcDbEntity
  8
0
  6
Continuous
 62
     7
370
    30
100
AcDbLine
 10
526.9471676026
 20
49.1230358403
 30
0.0
 11
525.1523702593
 21
48.0877411045
 31
0.0
  0
LWPOLYLINE
  5
F8
330
1F
100
AcDbEntity
  8
0
  6
Continuous
 62
     7
370
    30
100
AcDbPolyline
 90
       91
 70
   128
 43
0.0
 10
503.3903272415
 20
52.0189922179
 10
503.3945652692
 20
51.8292306736
 10
503.4075376071
 20
51.6366864535
 10
503.4292363631
 20
51.4444042467
 10
503.4596466658
 20
51.2525158338
 10
503.4987476735
 20
51.0611527255
 10
503.5465125884
 20
50.8704460726
 10
503.6029086748
 20
50.6805265758
 10
503.6678972817
 20
50.4915243965
 10
503.741433869
 20
50.3035690674
 10
503.8234680385
 20
50.1167894036
 10
503.9139435681
 20
49.9313134146
 10
504.0127984503
 20
49.7472682164
 10
504.1199649349
 20
49.5647799443
 10
504.2353695755
 20
49.3839736667
 10
504.3589332793
 20
49.2049732992
 10
504.4905713621
 20
49.0279015197
 10
504.6301936057
 20
48.8528796844
 10
504.7777043199
 20
48.6800277444
 10
504.9330024083
 20
48.509464164
 10
505.0959814373
 20
48.3413058387
 10
505.2665297092
 20
48.175668016
 10
505.4445303388
 20
48.0126642157
 10
505.6298613334
 20
47.8524061525
 10
505.8223956762
 20
47.6950036593
 10
506.022001414
 20
47.5405646118
 10
506.2285417469
 20
47.3891948549
 10
506.4418751224
 20
47.2409981299
 10
506.6618553326
 20
47.0960760033
 10
506.8883316139
 20
46.9545277976
 10
507.1211487509
 20
46.8164505229
 10
507.3601471824
 20
46.6819388103
 10
507.6051631107
 20
46.5510848476
 10
507.8560286141
 20
46.4239783154
 10
508.112571762
 20
46.3007063264
 10
508.3746167325
 20
46.1813533648
 10
508.6419839331
 20
46.0660012293
 10
508.9144901236
 20
45.9547289764
 10
509.1919485419
 20
45.8476128667
 10
509.474169032
 20
45.7447263121
 10
509.7609581739
 20
45.6461398259
 10
510.0521194167
 20
45.5519209745
 10
510.347453213
 20
45.4621343306
 10
510.6467571558
 20
45.3768414297
 10
510.9498261172
 20
45.296100727
 10
511.2564523887
 20
45.2199675584
 10
511.5664258241
 20
45.1484941017
 10
511.8795339831
 20
45.0817293412
 10
512.1955622769
 20
45.0197190342
 10
512.5142941156
 20
44.9625056793
 10
512.8355110563
 20
44.9101284879
 10
513.158992953
 20
44.8626233566
 10
513.4845181072
 20
44.820022843
 10
513.8118634203
 20
44.7823561434
 10
514.1408045463
 20
44.7496490727
 10
514.4711160452
 20
44.7219240467
 10
514.8025715381
 20
44.6992000667
 10
515.1349438619
 20
44.6814927067
 10
515.4680052253
 20
44.6688141023
 10
515.8015273645
 20
44.6611729428
 10
516.1352817004
 20
44.6585744651
 10
516.4690394941
 20
44.6610204501
 10
516.8025720049
 20
44.6685092214
 10
517.1356506463
 20
44.6810356465
 10
517.4680471427
 20
44.6985911406
 10
517.7995336862
 20
44.7211636719
 10
518.1298830924
 20
44.7487377704
 10
518.4588689565
 20
44.781294538
 10
518.7862658079
 20
44.8188116622
 10
519.1118492652
 20
44.8612634304
 10
519.4353961897
 20
44.9086207485
 10
519.7566848385
 20
44.9608511599
 10
520.0754950165
 20
45.0179188687
 10
520.3916082271
 20
45.0797847634
 10
520.704807822
 20
45.1464064443
 10
521.0148791499
 20
45.2177382522
 10
521.3216097035
 20
45.2937312999
 10
521.6247892648
 20
45.3743335054
 10
521.9242100499
 20
45.4594896281
 10
522.2196668506
 20
45.5491413063
 10
522.5109571755
 20
45.643227097
 10
522.797881389
 20
45.7416825188
 10
523.0802428474
 20
45.844440095
 10
523.3578480342
 20
45.9514294008
 10
523.6305066929
 20
46.0625771111
 10
523.8980319567
 20
46.1778070508
 10
524.1602404772
 20
46.297040247
 10
524.4169525498
 20
46.4201949832
 10
524.6679922368
 20
46.5471868555
 10
524.9131874882
 20
46.6779288298
 10
525.1523702593
 20
46.8123313021
  0
LINE
  5
F9
330
1F
100
AcDbEntity
  8
0
  6
Continuous
 62
     7
370
    30
100
AcDbLine
 10
526.9471676026
 20
47.8476260379
 30
0.0
 11
526.9471676026
 21
49.1230358403
 31
0.0
  0
LINE
  5
FA
330
1F
100
AcDbEntity
  8
0
  6
Continuous
 62
     7
370
    30
100
AcDbLine
 10
525.1523702593
 20
46.8123313021
 30
0.0
 11
526.9471676026
 21
47.8476260379
 31
0.0
  0
ARC
  5
FB
330
1F
100
AcDbEntity
  8
0
  6
Continuous
 62
     7
370
    30
100
AcDbCircle
 10
522.8439372345
 20
52.8501623737
 30
0.0
 40
6.470074902563053
100
AcDbArc
 50
309.3596313771
 51
338.4457159596
  0
ENDSEC
  0
SECTION
  2
OBJECTS
  0
DICTIONARY
  5
C
330
0
100
AcDbDictionary
281
     1
  3
ACAD_GROUP
350
D
  3
ACAD_LAYOUT
350
1A
  3
ACAD_MLINESTYLE
350
17
  3
ACAD_PLOTSETTINGS
350
19
  3
ACAD_PLOTSTYLENAME
350
E
  3
ACAD_SCALELIST
350
47
  0
DICTIONARY
  5
D
102
{ACAD_REACTORS
330
C
102
}
330
C
100
AcDbDictionary
281
     1
  0
DICTIONARY
  5
1A
102
{ACAD_REACTORS
330
C
102
}
330
C
100
AcDbDictionary
281
     1
  3
Layout1
350
1E
  3
Layout2
350
26
  3
Model
350
22
  0
DICTIONARY
  5
17
102
{ACAD_REACTORS
330
C
102
}
330
C
100
AcDbDictionary
281
     1
  3
Standard
350
18
  0
DICTIONARY
  5
19
102
{ACAD_REACTORS
330
C
102
}
330
C
100
AcDbDictionary
281
     1
  0
ACDBDICTIONARYWDFLT
  5
E
102
{ACAD_REACTORS
330
C
102
}
330
C
100
AcDbDictionary
281
     1
  3
Normal
350
F
100
AcDbDictionaryWithDefault
340
F
  0
DICTIONARY
  5
47
102
{ACAD_REACTORS
330
C
102
}
330
C
100
AcDbDictionary
281
     1
  3
A0
350
48
  3
A1
350
49
  3
A2
350
4A
  3
A3
350
4B
  3
A4
350
4C
  3
A5
350
4D
  3
A6
350
4E
  3
A7
350
4F
  3
A8
350
50
  3
A9
350
51
  3
B0
350
52
  3
B1
350
53
  3
B2
350
54
  3
B3
350
55
  3
B4
350
56
  3
B5
350
57
  3
B6
350
58
  3
B7
350
59
  3
B8
350
5A
  3
B9
350
5B
  3
C0
350
5C
  3
C1
350
5D
  3
C2
350
5E
  3
C3
350
5F
  3
C4
350
60
  3
C5
350
61
  3
C6
350
62
  3
C7
350
63
  3
C8
350
64
  3
C9
350
65
  3
D0
350
66
  3
D1
350
67
  3
D2
350
68
  0
LAYOUT
  5
1E
102
{ACAD_REACTORS
330
1A
102
}
330
1A
100
AcDbPlotSettings
  1

  2
none_device
  4

  6

 40
0.0
 41
0.0
 42
0.0
 43
0.0
 44
0.0
 45
0.0
 46
0.0
 47
0.0
 48
0.0
 49
0.0
140
0.0
141
0.0
142
1.0
143
1.0
 70
   688
 72
     1
 73
     0
 74
     5
  7

 75
    16
147
1.0
148
0.0
149
0.0
100
AcDbLayout
  1
Layout1
 70
     1
 71
     1
 10
0.0
 20
0.0
 11
420.0
 21
297.0
 12
0.0
 22
0.0
 32
0.0
 14
1.0000000000E+20
 24
1.0000000000E+20
 34
1.0000000000E+20
 15
-1.0000000000E+20
 25
-1.0000000000E+20
 35
-1.0000000000E+20
146
0.0
 13
0.0
 23
0.0
 33
0.0
 16
1.0
 26
0.0
 36
0.0
 17
0.0
 27
1.0
 37
0.0
 76
     0
330
1B
  0
LAYOUT
  5
26
102
{ACAD_REACTORS
330
1A
102
}
330
1A
100
AcDbPlotSettings
  1

  2
none_device
  4

  6

 40
0.0
 41
0.0
 42
0.0
 43
0.0
 44
0.0
 45
0.0
 46
0.0
 47
0.0
 48
0.0
 49
0.0
140
0.0
141
0.0
142
1.0
143
1.0
 70
   688
 72
     1
 73
     0
 74
     5
  7

 75
    16
147
1.0
148
0.0
149
0.0
100
AcDbLayout
  1
Layout2
 70
     1
 71
     2
 10
0.0
 20
0.0
 11
0.0
 21
0.0
 12
0.0
 22
0.0
 32
0.0
 14
0.0
 24
0.0
 34
0.0
 15
0.0
 25
0.0
 35
0.0
146
0.0
 13
0.0
 23
0.0
 33
0.0
 16
1.0
 26
0.0
 36
0.0
 17
0.0
 27
1.0
 37
0.0
 76
     0
330
23
  0
LAYOUT
  5
22
102
{ACAD_REACTORS
330
1A
102
}
330
1A
100
AcDbPlotSettings
  1

  2
none_device
  4
Letter_(8.50_x_11.00_Inches)
  6

 40
6.35
 41
6.35
 42
6.35000508
 43
6.35000508
 44
215.9
 45
279.4
 46
0.0
 47
0.0
 48
0.0
 49
0.0
140
0.0
141
0.0
142
1.0
143
1.0
 70
  1712
 72
     1
 73
     0
 74
     0
  7

 75
     0
147
1.0
148
0.0
149
0.0
100
AcDbLayout
  1
Model
 70
     1
 71
     0
 10
0.0
 20
0.0
 11
705.0
 21
378.0
 12
0.0
 22
0.0
 32
0.0
 14
0.0
 24
0.0
 34
0.0
 15
705.0
 25
378.0
 35
0.0
146
0.0
 13
0.0
 23
0.0
 33
0.0
 16
1.0
 26
0.0
 36
0.0
 17
0.0
 27
1.0
 37
0.0
 76
     0
330
1F
331
29
  0
MLINESTYLE
  5
18
102
{ACAD_REACTORS
330
17
102
}
330
17
100
AcDbMlineStyle
  2
Standard
 70
     0
  3

 62
   256
 51
90.0
 52
90.0
 71
     2
 49
0.5
 62
   256
  6
BYLAYER
 49
-0.5
 62
   256
  6
BYLAYER
  0
ACDBPLACEHOLDER
  5
F
102
{ACAD_REACTORS
330
E
102
}
330
E
  0
SCALE
  5
48
102
{ACAD_REACTORS
330
47
102
}
330
47
100
AcDbScale
 70
     0
300
1:1
140
1.0
141
1.0
290
     1
  0
SCALE
  5
49
102
{ACAD_REACTORS
330
47
102
}
330
47
100
AcDbScale
 70
     0
300
1:2
140
1.0
141
2.0
290
     0
  0
SCALE
  5
4A
102
{ACAD_REACTORS
330
47
102
}
330
47
100
AcDbScale
 70
     0
300
1:4
140
1.0
141
4.0
290
     0
  0
SCALE
  5
4B
102
{ACAD_REACTORS
330
47
102
}
330
47
100
AcDbScale
 70
     0
300
1:5
140
1.0
141
5.0
290
     0
  0
SCALE
  5
4C
102
{ACAD_REACTORS
330
47
102
}
330
47
100
AcDbScale
 70
     0
300
1:8
140
1.0
141
8.0
290
     0
  0
SCALE
  5
4D
102
{ACAD_REACTORS
330
47
102
}
330
47
100
AcDbScale
 70
     0
300
1:10
140
1.0
141
10.0
290
     0
  0
SCALE
  5
4E
102
{ACAD_REACTORS
330
47
102
}
330
47
100
AcDbScale
 70
     0
300
1:16
140
1.0
141
16.0
290
     0
  0
SCALE
  5
4F
102
{ACAD_REACTORS
330
47
102
}
330
47
100
AcDbScale
 70
     0
300
1:20
140
1.0
141
20.0
290
     0
  0
SCALE
  5
50
102
{ACAD_REACTORS
330
47
102
}
330
47
100
AcDbScale
 70
     0
300
1:30
140
1.0
141
30.0
290
     0
  0
SCALE
  5
51
102
{ACAD_REACTORS
330
47
102
}
330
47
100
AcDbScale
 70
     0
300
1:40
140
1.0
141
40.0
290
     0
  0
SCALE
  5
52
102
{ACAD_REACTORS
330
47
102
}
330
47
100
AcDbScale
 70
     0
300
1:50
140
1.0
141
50.0
290
     0
  0
SCALE
  5
53
102
{ACAD_REACTORS
330
47
102
}
330
47
100
AcDbScale
 70
     0
300
1:100
140
1.0
141
100.0
290
     0
  0
SCALE
  5
54
102
{ACAD_REACTORS
330
47
102
}
330
47
100
AcDbScale
 70
     0
300
2:1
140
2.0
141
1.0
290
     0
  0
SCALE
  5
55
102
{ACAD_REACTORS
330
47
102
}
330
47
100
AcDbScale
 70
     0
300
4:1
140
4.0
141
1.0
290
     0
  0
SCALE
  5
56
102
{ACAD_REACTORS
330
47
102
}
330
47
100
AcDbScale
 70
     0
300
8:1
140
8.0
141
1.0
290
     0
  0
SCALE
  5
57
102
{ACAD_REACTORS
330
47
102
}
330
47
100
AcDbScale
 70
     0
300
10:1
140
10.0
141
1.0
290
     0
  0
SCALE
  5
58
102
{ACAD_REACTORS
330
47
102
}
330
47
100
AcDbScale
 70
     0
300
100:1
140
100.0
141
1.0
290
     0
  0
SCALE
  5
59
102
{ACAD_REACTORS
330
47
102
}
330
47
100
AcDbScale
 70
     0
300
1/128" = 1'-0"
140
0.0078125
141
12.0
290
     0
  0
SCALE
  5
5A
102
{ACAD_REACTORS
330
47
102
}
330
47
100
AcDbScale
 70
     0
300
1/64" = 1'-0"
140
0.015625
141
12.0
290
     0
  0
SCALE
  5
5B
102
{ACAD_REACTORS
330
47
102
}
330
47
100
AcDbScale
 70
     0
300
1/32" = 1'-0"
140
0.03125
141
12.0
290
     0
  0
SCALE
  5
5C
102
{ACAD_REACTORS
330
47
102
}
330
47
100
AcDbScale
 70
     0
300
1/16" = 1'-0"
140
0.0625
141
12.0
290
     0
  0
SCALE
  5
5D
102
{ACAD_REACTORS
330
47
102
}
330
47
100
AcDbScale
 70
     0
300
3/32" = 1'-0"
140
0.09375
141
12.0
290
     0
  0
SCALE
  5
5E
102
{ACAD_REACTORS
330
47
102
}
330
47
100
AcDbScale
 70
     0
300
1/8" = 1'-0"
140
0.125
141
12.0
290
     0
  0
SCALE
  5
5F
102
{ACAD_REACTORS
330
47
102
}
330
47
100
AcDbScale
 70
     0
300
3/16" = 1'-0"
140
0.1875
141
12.0
290
     0
  0
SCALE
  5
60
102
{ACAD_REACTORS
330
47
102
}
330
47
100
AcDbScale
 70
     0
300
1/4" = 1'-0"
140
0.25
141
12.0
290
     0
  0
SCALE
  5
61
102
{ACAD_REACTORS
330
47
102
}
330
47
100
AcDbScale
 70
     0
300
3/8" = 1'-0"
140
0.375
141
12.0
290
     0
  0
SCALE
  5
62
102
{ACAD_REACTORS
330
47
102
}
330
47
100
AcDbScale
 70
     0
300
1/2" = 1'-0"
140
0.5
141
12.0
290
     0
  0
SCALE
  5
63
102
{ACAD_REACTORS
330
47
102
}
330
47
100
AcDbScale
 70
     0
300
3/4" = 1'-0"
140
0.75
141
12.0
290
     0
  0
SCALE
  5
64
102
{ACAD_REACTORS
330
47
102
}
330
47
100
AcDbScale
 70
     0
300
1" = 1'-0"
140
1.0
141
12.0
290
     0
  0
SCALE
  5
65
102
{ACAD_REACTORS
330
47
102
}
330
47
100
AcDbScale
 70
     0
300
1-1/2" = 1'-0"
140
1.5
141
12.0
290
     0
  0
SCALE
  5
66
102
{ACAD_REACTORS
330
47
102
}
330
47
100
AcDbScale
 70
     0
300
3" = 1'-0"
140
3.0
141
12.0
290
     0
  0
SCALE
  5
67
102
{ACAD_REACTORS
330
47
102
}
330
47
100
AcDbScale
 70
     0
300
6" = 1'-0"
140
6.0
141
12.0
290
     0
  0
SCALE
  5
68
102
{ACAD_REACTORS
330
47
102
}
330
47
100
AcDbScale
 70
     0
300
1'-0" = 1'-0"
140
12.0
141
12.0
290
     0
  0
ENDSEC
  0
EOF
