  0
SECTION
  2
HEADER
  9
$ACADVER
  1
AC1015
  9
$ACADMAINTVER
 70
     6
  9
$DWGCODEPAGE
  3
ANSI_1252
  9
$INSBASE
 10
0.0
 20
0.0
 30
0.0
  9
$EXTMIN
 10
0.0
 20
0.0
 30
0.0
  9
$EXTMAX
 10
507.0
 20
280.0
 30
0.0
  9
$LIMMIN
 10
0.0
 20
0.0
  9
$LIMMAX
 10
507.0
 20
280.0
  9
$ORTHOMODE
 70
     0
  9
$REGENMODE
 70
     1
  9
$FILLMODE
 70
     1
  9
$QTEXTMODE
 70
     0
  9
$MIRRTEXT
 70
     1
  9
$LTSCALE
 40
1.0
  9
$ATTMODE
 70
     1
  9
$TEXTSIZE
 40
3.5
  9
$TRACEWID
 40
1.0
  9
$TEXTSTYLE
  7
Standard
  9
$CLAYER
  8
0
  9
$CELTYPE
  6
ByLayer
  9
$CECOLOR
 62
   256
  9
$CELTSCALE
 40
1.0
  9
$DISPSILH
 70
     0
  9
$DIMSCALE
 40
1.0
  9
$DIMASZ
 40
3.302
  9
$DIMEXO
 40
1.0
  9
$DIMDLI
 40
3.75
  9
$DIMRND
 40
0.0
  9
$DIMDLE
 40
0.0
  9
$DIMEXE
 40
1.0
  9
$DIMTP
 40
0.0
  9
$DIMTM
 40
0.0
  9
$DIMTXT
 40
2.8
  9
$DIMCEN
 40
2.5
  9
$DIMTSZ
 40
0.0
  9
$DIMTOL
 70
     0
  9
$DIMLIM
 70
     0
  9
$DIMTIH
 70
     1
  9
$DIMTOH
 70
     1
  9
$DIMSE1
 70
     0
  9
$DIMSE2
 70
     0
  9
$DIMTAD
 70
     1
  9
$DIMZIN
 70
     0
  9
$DIMBLK
  1

  9
$DIMASO
 70
     1
  9
$DIMSHO
 70
     1
  9
$DIMPOST
  1

  9
$DIMAPOST
  1

  9
$DIMALT
 70
     0
  9
$DIMALTD
 70
     3
  9
$DIMALTF
 40
0.0393700787
  9
$DIMLFAC
 40
1.0
  9
$DIMTOFL
 70
     1
  9
$DIMTVP
 40
0.0
  9
$DIMTIX
 70
     0
  9
$DIMSOXD
 70
     0
  9
$DIMSAH
 70
     0
  9
$DIMBLK1
  1

  9
$DIMBLK2
  1

  9
$DIMSTYLE
  2
ISO-25
  9
$DIMCLRD
 70
     0
  9
$DIMCLRE
 70
     0
  9
$DIMCLRT
 70
     0
  9
$DIMTFAC
 40
1.0
  9
$DIMGAP
 40
1.524
  9
$DIMJUST
 70
     0
  9
$DIMSD1
 70
     0
  9
$DIMSD2
 70
     0
  9
$DIMTOLJ
 70
     0
  9
$DIMTZIN
 70
     0
  9
$DIMALTZ
 70
     0
  9
$DIMALTTZ
 70
     0
  9
$DIMUPT
 70
     0
  9
$DIMDEC
 70
     2
  9
$DIMTDEC
 70
     2
  9
$DIMALTU
 70
     2
  9
$DIMALTTD
 70
     3
  9
$DIMTXSTY
  7
Standard
  9
$DIMAUNIT
 70
     0
  9
$DIMADEC
 70
     2
  9
$DIMALTRND
 40
0.0
  9
$DIMAZIN
 70
     0
  9
$DIMDSEP
 70
    44
  9
$DIMATFIT
 70
     3
  9
$DIMFRAC
 70
     0
  9
$DIMLDRBLK
  1

  9
$DIMLUNIT
 70
     2
  9
$DIMLWD
 70
    -2
  9
$DIMLWE
 70
    -2
  9
$DIMTMOVE
 70
     0
  9
$LUNITS
 70
     2
  9
$LUPREC
 70
     2
  9
$SKETCHINC
 40
1.0
  9
$FILLETRAD
 40
10.0
  9
$AUNITS
 70
     0
  9
$AUPREC
 70
     2
  9
$MENU
  1
.
  9
$ELEVATION
 40
0.0
  9
$PELEVATION
 40
0.0
  9
$THICKNESS
 40
0.0
  9
$LIMCHECK
 70
     0
  9
$CHAMFERA
 40
0.0
  9
$CHAMFERB
 40
0.0
  9
$CHAMFERC
 40
0.0
  9
$CHAMFERD
 40
0.0
  9
$SKPOLY
 70
     0
  9
$TDCREATE
 40
2460215.399337315
  9
$TDUCREATE
 40
2460215.274337315
  9
$TDUPDATE
 40
2460215.3993375
  9
$TDUUPDATE
 40
2460215.2743375
  9
$TDINDWG
 40
0.0000000116
  9
$TDUSRTIMER
 40
0.0000000116
  9
$USRTIMER
 70
     1
  9
$ANGBASE
 50
0.0
  9
$ANGDIR
 70
     0
  9
$PDMODE
 70
     0
  9
$PDSIZE
 40
-1.0
  9
$PLINEWID
 40
0.0
  9
$SPLFRAME
 70
     0
  9
$SPLINETYPE
 70
     6
  9
$SPLINESEGS
 70
     8
  9
$HANDSEED
  5
109
  9
$SURFTAB1
 70
     6
  9
$SURFTAB2
 70
     6
  9
$SURFTYPE
 70
     6
  9
$SURFU
 70
     6
  9
$SURFV
 70
     6
  9
$UCSBASE
  2

  9
$UCSNAME
  2

  9
$UCSORG
 10
0.0
 20
0.0
 30
0.0
  9
$UCSXDIR
 10
1.0
 20
0.0
 30
0.0
  9
$UCSYDIR
 10
0.0
 20
1.0
 30
0.0
  9
$UCSORTHOREF
  2

  9
$UCSORTHOVIEW
 70
     0
  9
$UCSORGTOP
 10
0.0
 20
0.0
 30
0.0
  9
$UCSORGBOTTOM
 10
0.0
 20
0.0
 30
0.0
  9
$UCSORGLEFT
 10
0.0
 20
0.0
 30
0.0
  9
$UCSORGRIGHT
 10
0.0
 20
0.0
 30
0.0
  9
$UCSORGFRONT
 10
0.0
 20
0.0
 30
0.0
  9
$UCSORGBACK
 10
0.0
 20
0.0
 30
0.0
  9
$PUCSBASE
  2

  9
$PUCSNAME
  2

  9
$PUCSORG
 10
0.0
 20
0.0
 30
0.0
  9
$PUCSXDIR
 10
1.0
 20
0.0
 30
0.0
  9
$PUCSYDIR
 10
0.0
 20
1.0
 30
0.0
  9
$PUCSORTHOREF
  2

  9
$PUCSORTHOVIEW
 70
     0
  9
$PUCSORGTOP
 10
0.0
 20
0.0
 30
0.0
  9
$PUCSORGBOTTOM
 10
0.0
 20
0.0
 30
0.0
  9
$PUCSORGLEFT
 10
0.0
 20
0.0
 30
0.0
  9
$PUCSORGRIGHT
 10
0.0
 20
0.0
 30
0.0
  9
$PUCSORGFRONT
 10
0.0
 20
0.0
 30
0.0
  9
$PUCSORGBACK
 10
0.0
 20
0.0
 30
0.0
  9
$USERI1
 70
     0
  9
$USERI2
 70
     0
  9
$USERI3
 70
     0
  9
$USERI4
 70
     0
  9
$USERI5
 70
     0
  9
$USERR1
 40
0.0
  9
$USERR2
 40
0.0
  9
$USERR3
 40
0.0
  9
$USERR4
 40
0.0
  9
$USERR5
 40
0.0
  9
$WORLDVIEW
 70
     1
  9
$SHADEDGE
 70
     3
  9
$SHADEDIF
 70
    70
  9
$TILEMODE
 70
     1
  9
$MAXACTVP
 70
    64
  9
$PINSBASE
 10
0.0
 20
0.0
 30
0.0
  9
$PLIMCHECK
 70
     0
  9
$PEXTMIN
 10
1.0000000000E+20
 20
1.0000000000E+20
 30
1.0000000000E+20
  9
$PEXTMAX
 10
-1.0000000000E+20
 20
-1.0000000000E+20
 30
-1.0000000000E+20
  9
$PLIMMIN
 10
0.0
 20
0.0
  9
$PLIMMAX
 10
420.0
 20
297.0
  9
$UNITMODE
 70
     0
  9
$VISRETAIN
 70
     1
  9
$PLINEGEN
 70
     0
  9
$PSLTSCALE
 70
     1
  9
$TREEDEPTH
 70
  3020
  9
$CMLSTYLE
  2
Standard
  9
$CMLJUST
 70
     0
  9
$CMLSCALE
 40
20.0
  9
$PROXYGRAPHICS
 70
     1
  9
$MEASUREMENT
 70
     1
  9
$CELWEIGHT
370
    -1
  9
$ENDCAPS
280
     0
  9
$JOINSTYLE
280
     0
  9
$LWDISPLAY
290
     1
  9
$INSUNITS
 70
     4
  9
$HYPERLINKBASE
  1

  9
$STYLESHEET
  1

  9
$XEDIT
290
     1
  9
$CEPSNTYPE
380
     0
  9
$PSTYLEMODE
290
     1
  9
$FINGERPRINTGUID
  2
{73550CAA-005A-446F-9D69-755A79553FDE}
  9
$VERSIONGUID
  2
{FAEB1C32-E019-11D5-929B-00C0DF256EC4}
  9
$EXTNAMES
290
     1
  9
$PSVPSCALE
 40
0.0
  9
$OLESTARTUP
290
     0
  0
ENDSEC
  0
SECTION
  2
CLASSES
  0
CLASS
  1
ACDBDICTIONARYWDFLT
  2
AcDbDictionaryWithDefault
  3
ObjectDBX Classes
 90
        0
280
     0
281
     0
  0
CLASS
  1
VISUALSTYLE
  2
AcDbVisualStyle
  3
ObjectDBX Classes
 90
     4095
280
     0
281
     0
  0
CLASS
  1
MATERIAL
  2
AcDbMaterial
  3
ObjectDBX Classes
 90
     1153
280
     0
281
     0
  0
CLASS
  1
SCALE
  2
AcDbScale
  3
ObjectDBX Classes
 90
     1153
280
     0
281
     0
  0
CLASS
  1
TABLESTYLE
  2
AcDbTableStyle
  3
ObjectDBX Classes
 90
     4095
280
     0
281
     0
  0
CLASS
  1
MLEADERSTYLE
  2
AcDbMLeaderStyle
  3
ACDB_MLEADERSTYLE_CLASS
 90
     4095
280
     0
281
     0
  0
CLASS
  1
SUN
  2
AcDbSun
  3
SCENEOE
 90
     1153
280
     0
281
     0
  0
CLASS
  1
ACDBPLACEHOLDER
  2
AcDbPlaceHolder
  3
ObjectDBX Classes
 90
        0
280
     0
281
     0
  0
CLASS
  1
LAYOUT
  2
AcDbLayout
  3
ObjectDBX Classes
 90
        0
280
     0
281
     0
  0
ENDSEC
  0
SECTION
  2
TABLES
  0
TABLE
  2
VPORT
  5
8
330
0
100
AcDbSymbolTable
 70
     1
  0
VPORT
  5
29
330
8
100
AcDbSymbolTableRecord
100
AcDbViewportTableRecord
  2
*Active
 70
     0
 10
0.0
 20
0.0
 11
1.0
 21
1.0
 12
253.5
 22
140.0
 13
0.0
 23
0.0
 14
10.0
 24
10.0
 15
10.0
 25
10.0
 16
0.0
 26
0.0
 36
1.0
 17
0.0
 27
0.0
 37
0.0
 40
280.0
 41
1.8107142857
 42
50.0
 43
0.0
 44
0.0
 50
0.0
 51
0.0
 71
     0
 72
  2000
 73
     1
 74
     3
 75
     0
 76
     0
 77
     0
 78
     0
281
     0
 65
     1
110
0.0
120
0.0
130
0.0
111
1.0
121
0.0
131
0.0
112
0.0
122
1.0
132
0.0
 79
     0
146
0.0
  0
ENDTAB
  0
TABLE
  2
LTYPE
  5
5
330
0
100
AcDbSymbolTable
 70
     6
  0
LTYPE
  5
14
330
5
100
AcDbSymbolTableRecord
100
AcDbLinetypeTableRecord
  2
ByBlock
 70
     0
  3

 72
    65
 73
     0
 40
0.0
  0
LTYPE
  5
15
330
5
100
AcDbSymbolTableRecord
100
AcDbLinetypeTableRecord
  2
ByLayer
 70
     0
  3

 72
    65
 73
     0
 40
0.0
  0
LTYPE
  5
16
330
5
100
AcDbSymbolTableRecord
100
AcDbLinetypeTableRecord
  2
Continuous
 70
     0
  3
Solid line
 72
    65
 73
     0
 40
0.0
  0
LTYPE
  5
6E
330
5
100
AcDbSymbolTableRecord
100
AcDbLinetypeTableRecord
  2
HIDDEN
 70
     0
  3
Hidden __ __ __ __ __ __ __ __ __ __ __ __ __ __
 72
    65
 73
     2
 40
1.905
 49
1.27
 74
     0
 49
-0.635
 74
     0
  0
LTYPE
  5
6F
330
5
100
AcDbSymbolTableRecord
100
AcDbLinetypeTableRecord
  2
PHANTOM
 70
     0
  3
Phantom ______  __  __  ______  __  __  ______
 72
    65
 73
     6
 40
12.7
 49
6.35
 74
     0
 49
-1.27
 74
     0
 49
1.27
 74
     0
 49
-1.27
 74
     0
 49
1.27
 74
     0
 49
-1.27
 74
     0
  0
LTYPE
  5
70
330
5
100
AcDbSymbolTableRecord
100
AcDbLinetypeTableRecord
  2
CENTER
 70
     0
  3
Center ____ _ ____ _ ____ _ ____ _ ____ _ ____
 72
    65
 73
     4
 40
10.16
 49
6.35
 74
     0
 49
-1.27
 74
     0
 49
1.27
 74
     0
 49
-1.27
 74
     0
  0
LTYPE
  5
71
330
5
100
AcDbSymbolTableRecord
100
AcDbLinetypeTableRecord
  2
CENTERX2
 70
     0
  3
Center (2x) ________  __  ________  __  _____
 72
    65
 73
     4
 40
20.32
 49
12.7
 74
     0
 49
-2.54
 74
     0
 49
2.54
 74
     0
 49
-2.54
 74
     0
  0
LTYPE
  5
72
330
5
100
AcDbSymbolTableRecord
100
AcDbLinetypeTableRecord
  2
DOT2
 70
     0
  3
Dot (.5x) ........................................
 72
    65
 73
     2
 40
0.635
 49
0.0
 74
     0
 49
-0.635
 74
     0
  0
ENDTAB
  0
TABLE
  2
LAYER
  5
2
330
0
100
AcDbSymbolTable
 70
     2
  0
LAYER
  5
10
330
2
100
AcDbSymbolTableRecord
100
AcDbLayerTableRecord
  2
0
 70
     0
 62
     7
  6
Continuous
370
    -3
390
F
  0
LAYER
  5
73
330
2
100
AcDbSymbolTableRecord
100
AcDbLayerTableRecord
  2
FORMAT
 70
     0
 62
     7
  6
Continuous
370
    -3
390
F
  0
ENDTAB
  0
TABLE
  2
STYLE
  5
3
330
0
100
AcDbSymbolTable
 70
     2
  0
STYLE
  5
11
330
3
100
AcDbSymbolTableRecord
100
AcDbTextStyleTableRecord
  2
Standard
 70
     0
 40
0.0
 41
1.0
 50
0.0
 71
     0
 42
3.5
  3
txt
  4

  0
STYLE
  5
74
330
3
100
AcDbSymbolTableRecord
100
AcDbTextStyleTableRecord
  2
SLDTEXTSTYLE0
 70
     0
 40
0.0
 41
0.605
 50
0.0
 71
     0
 42
3.5
  3
TXT
  4

  0
ENDTAB
  0
TABLE
  2
VIEW
  5
6
330
0
100
AcDbSymbolTable
 70
     0
  0
ENDTAB
  0
TABLE
  2
UCS
  5
7
330
0
100
AcDbSymbolTable
 70
     0
  0
ENDTAB
  0
TABLE
  2
APPID
  5
9
330
0
100
AcDbSymbolTable
 70
     1
  0
APPID
  5
12
330
9
100
AcDbSymbolTableRecord
100
AcDbRegAppTableRecord
  2
ACAD
 70
     0
  0
ENDTAB
  0
TABLE
  2
DIMSTYLE
  5
A
330
0
100
AcDbSymbolTable
 70
     1
100
AcDbDimStyleTable
  0
DIMSTYLE
105
27
330
A
100
AcDbSymbolTableRecord
100
AcDbDimStyleTableRecord
  2
ISO-25
 70
     0
 41
2.5
 42
0.625
 43
3.75
 44
1.25
 73
     0
 74
     0
 77
     1
 78
     8
140
2.5
141
2.5
143
0.0393700787
147
0.625
171
     3
172
     1
178
     0
271
     2
272
     2
274
     3
278
    44
283
     0
284
     8
340
11
  0
ENDTAB
  0
TABLE
  2
BLOCK_RECORD
  5
1
330
0
100
AcDbSymbolTable
 70
     1
  0
BLOCK_RECORD
  5
1F
330
1
100
AcDbSymbolTableRecord
100
AcDbBlockTableRecord
  2
*Model_Space
340
22
  0
BLOCK_RECORD
  5
1B
330
1
100
AcDbSymbolTableRecord
100
AcDbBlockTableRecord
  2
*Paper_Space
340
1E
  0
BLOCK_RECORD
  5
23
330
1
100
AcDbSymbolTableRecord
100
AcDbBlockTableRecord
  2
*Paper_Space0
340
26
  0
ENDTAB
  0
ENDSEC
  0
SECTION
  2
BLOCKS
  0
BLOCK
  5
20
330
1F
100
AcDbEntity
  8
0
100
AcDbBlockBegin
  2
*Model_Space
 70
     0
 10
0.0
 20
0.0
 30
0.0
  3
*Model_Space
  1

  0
ENDBLK
  5
21
330
1F
100
AcDbEntity
  8
0
100
AcDbBlockEnd
  0
BLOCK
  5
1C
330
1B
100
AcDbEntity
 67
     1
  8
0
100
AcDbBlockBegin
  2
*Paper_Space
 70
     0
 10
0.0
 20
0.0
 30
0.0
  3
*Paper_Space
  1

  0
ENDBLK
  5
1D
330
1B
100
AcDbEntity
 67
     1
  8
0
100
AcDbBlockEnd
  0
BLOCK
  5
24
330
23
100
AcDbEntity
  8
0
100
AcDbBlockBegin
  2
*Paper_Space0
 70
     0
 10
0.0
 20
0.0
 30
0.0
  3
*Paper_Space0
  1

  0
ENDBLK
  5
25
330
23
100
AcDbEntity
  8
0
100
AcDbBlockEnd
  0
ENDSEC
  0
SECTION
  2
ENTITIES
  0
MTEXT
  5
75
330
1F
100
AcDbEntity
  8
0
  6
Continuous
 62
     7
370
     0
100
AcDbMText
 10
7.2782978723
 20
22.1884790273
 30
0.0
 40
10.0
 41
0.0
 71
     1
 72
     1
  1
1:1
  7
SLDTEXTSTYLE0
 73
     1
 44
1.0
  0
LINE
  5
76
330
1F
100
AcDbEntity
  8
0
  6
Continuous
 62
     7
370
    30
100
AcDbLine
 10
242.0799142066
 20
211.1695719974
 30
0.0
 11
242.0799142066
 21
194.8129277871
 31
0.0
  0
LINE
  5
77
330
1F
100
AcDbEntity
  8
0
  6
Continuous
 62
     7
370
    30
100
AcDbLine
 10
264.8799142066
 20
194.8129277871
 30
0.0
 11
264.8799142066
 21
211.1695719974
 31
0.0
  0
ARC
  5
78
330
1F
100
AcDbEntity
  8
0
  6
Continuous
 62
     7
370
    30
100
AcDbCircle
 10
263.8799142066
 20
194.8129277871
 30
0.0
 40
1.0
100
AcDbArc
 50
270.0
 51
0.0
  0
ARC
  5
79
330
1F
100
AcDbEntity
  8
0
  6
Continuous
 62
     7
370
    30
100
AcDbCircle
 10
243.0799142066
 20
194.8129277871
 30
0.0
 40
1.0
100
AcDbArc
 50
180.0
 51
270.0
  0
LINE
  5
7A
330
1F
100
AcDbEntity
  8
0
  6
Continuous
 62
     7
370
    30
100
AcDbLine
 10
268.0194871066
 20
252.9870722129
 30
0.0
 11
267.819487107
 21
253.1870722129
 31
0.0
  0
LINE
  5
7B
330
1F
100
AcDbEntity
  8
0
  6
Continuous
 62
     7
370
    30
100
AcDbLine
 10
239.219487107
 20
253.1870722129
 30
0.0
 11
239.0194871074
 21
252.9870722129
 31
0.0
  0
LINE
  5
7C
330
1F
100
AcDbEntity
  8
0
  6
Continuous
 62
     7
370
    30
100
AcDbLine
 10
239.019487107
 20
211.1885503946
 30
0.0
 11
239.5194871061
 21
210.6885503946
 31
0.0
  0
LINE
  5
7D
330
1F
100
AcDbEntity
  8
0
  6
Continuous
 62
     7
370
    30
100
AcDbLine
 10
267.5194871079
 20
210.6885503946
 30
0.0
 11
268.019487107
 21
211.1885503946
 31
0.0
  0
LINE
  5
7E
330
1F
100
AcDbEntity
  8
0
  6
Continuous
 62
     7
370
    30
100
AcDbLine
 10
268.019487107
 20
211.1885503946
 30
0.0
 11
268.019487107
 21
252.9870722129
 31
0.0
  0
LINE
  5
7F
330
1F
100
AcDbEntity
  8
0
  6
Continuous
 62
     7
370
    30
100
AcDbLine
 10
239.019487107
 20
252.9870722129
 30
0.0
 11
239.019487107
 21
211.1885503946
 31
0.0
  0
LINE
  5
80
330
1F
100
AcDbEntity
  8
0
  6
Continuous
 62
     7
370
    30
100
AcDbLine
 10
240.7299142066
 20
213.6998947871
 30
0.0
 11
240.7299142066
 21
212.1379277871
 31
0.0
  0
LINE
  5
81
330
1F
100
AcDbEntity
  8
0
  6
Continuous
 62
     7
370
    30
100
AcDbLine
 10
264.4799142066
 20
211.1695719974
 30
0.0
 11
264.4799142066
 21
212.1379277871
 31
0.0
  0
LINE
  5
82
330
1F
100
AcDbEntity
  8
0
  6
Continuous
 62
     7
370
    30
100
AcDbLine
 10
242.4799142066
 20
212.1379277871
 30
0.0
 11
242.4799142066
 21
211.1695719974
 31
0.0
  0
SPLINE
  5
83
330
1F
100
AcDbEntity
  8
0
  6
Continuous
 62
     7
370
    30
100
AcDbSpline
210
0.0
220
0.0
230
1.0
 70
     8
 71
     3
 72
    11
 73
     7
 74
     0
 42
0.000000001
 43
0.00000001
 40
0.0
 40
0.0
 40
0.0
 40
0.0
 40
0.2679083564487186
 40
0.5668021488395845
 40
0.8658102956192003
 40
0.9999999999999999
 40
0.9999999999999999
 40
0.9999999999999999
 40
0.9999999999999999
 10
246.7133457227891
 20
224.4067078680406
 30
0.0
 10
246.6615818489802
 20
224.3929195493622
 30
0.0
 10
246.5520672549004
 20
224.363748198534
 30
0.0
 10
246.3874492600004
 20
224.3183190840412
 30
0.0
 10
246.2494675612768
 20
224.2795487921514
 30
0.0
 10
246.1692570860361
 20
224.2562458991843
 30
0.0
 10
246.1444106563227
 20
224.2490274692911
 30
0.0
  0
SPLINE
  5
84
330
1F
100
AcDbEntity
  8
0
  6
Continuous
 62
     7
370
    30
100
AcDbSpline
210
0.0
220
0.0
230
1.0
 70
     8
 71
     3
 72
    12
 73
     8
 74
     0
 42
0.000000001
 43
0.00000001
 40
0.0
 40
0.0
 40
0.0
 40
0.0
 40
0.1635177712453003
 40
0.4363921600457004
 40
0.7094124799096269
 40
0.972779648011368
 40
1.0
 40
1.0
 40
1.0
 40
1.0
 10
247.3862033667026
 20
224.5755377882498
 30
0.0
 10
247.3487838389003
 20
224.5666764422655
 30
0.0
 10
247.248919533992
 20
224.5430275025477
 30
0.0
 10
247.0886904091979
 20
224.5035238612123
 30
0.0
 10
246.9078189175461
 20
224.4576636755742
 30
0.0
 10
246.782767834116
 20
224.4253243914669
 30
0.0
 10
246.7192917501601
 20
224.4083023795835
 30
0.0
 10
246.7133457227891
 20
224.4067078680406
 30
0.0
  0
SPLINE
  5
85
330
1F
100
AcDbEntity
  8
0
  6
Continuous
 62
     7
370
    30
100
AcDbSpline
210
0.0
220
0.0
230
1.0
 70
     8
 71
     3
 72
    84
 73
    80
 74
     0
 42
0.000000001
 43
0.00000001
 40
0.0
 40
0.0
 40
0.0
 40
0.0
 40
0.0039552807983632
 40
0.0072501422046351
 40
0.0099093457134046
 40
0.0115185108799546
 40
0.0128442532936152
 40
0.0139666901160072
 40
0.0152863862685863
 40
0.0167218920778348
 40
0.0182874305871506
 40
0.0224919605195915
 40
0.0268560863690272
 40
0.0317936250243022
 40
0.0408348793679386
 40
0.0494768414311464
 40
0.0592502325972283
 40
0.0684711518006805
 40
0.0771470658183701
 40
0.0827098297769473
 40
0.0886293893852373
 40
0.0950510758724852
 40
0.1019787732431995
 40
0.1094154534347181
 40
0.1173634216051492
 40
0.1258245011525766
 40
0.1348001787526414
 40
0.145689808314641
 40
0.1572549352843987
 40
0.1694972410607101
 40
0.1823713920630842
 40
0.1950440000163925
 40
0.2072100346735167
 40
0.2188710709485531
 40
0.2311162735196008
 40
0.2427527400704359
 40
0.2537809188642994
 40
0.2642008292634475
 40
0.2740121373176759
 40
0.2828541506627827
 40
0.2911354033718216
 40
0.2989586083932959
 40
0.3066360845981999
 40
0.314190438595401
 40
0.3286668768320691
 40
0.342656612523074
 40
0.3586665195597416
 40
0.3739650913336385
 40
0.3885417062476028
 40
0.399203415307767
 40
0.4094869887268111
 40
0.4200739936467576
 40
0.4311731508085536
 40
0.4427889287962025
 40
0.4549259543998164
 40
0.46758901611226
 40
0.4823692209124104
 40
0.4978197741200289
 40
0.5139481341521968
 40
0.530762064389677
 40
0.5482696573959087
 40
0.5661479865066642
 40
0.5847119541847866
 40
0.6039741982158181
 40
0.623945663135375
 40
0.6450619081396438
 40
0.6669287025410694
 40
0.6895516338670301
 40
0.7129359255357077
 40
0.736768707832216
 40
0.7606628977009564
 40
0.7846121805285813
 40
0.8182236756453336
 40
0.851919771145503
 40
0.8856882798494036
 40
0.9195163590498734
 40
0.953379377689185
 40
0.9866638756238325
 40
0.9999999999999999
 40
0.9999999999999999
 40
0.9999999999999999
 40
0.9999999999999999
 10
253.4762564295938
 20
225.2879277871063
 30
0.0
 10
253.4739040230035
 20
225.2879111826266
 30
0.0
 10
253.4695919948133
 20
225.2878807461432
 30
0.0
 10
253.4619445407069
 20
225.2876735900309
 30
0.0
 10
253.4545533103438
 20
225.2874538666406
 30
0.0
 10
253.4474780914079
 20
225.287269441647
 30
0.0
 10
253.4410814361153
 20
225.2871418453805
 30
0.0
 10
253.4336891332307
 20
225.2870524974154
 30
0.0
 10
253.4253166254407
 20
225.2870440394018
 30
0.0
 10
253.4162079039837
 20
225.2870235452201
 30
0.0
 10
253.4009178706933
 20
225.2869876072736
 30
0.0
 10
253.3794538886845
 20
225.2869209716994
 30
0.0
 10
253.3508272498203
 20
225.2868036486872
 30
0.0
 10
253.3119573994548
 20
225.2866023350393
 30
0.0
 10
253.2640183174823
 20
225.2862663508729
 30
0.0
 10
253.2058393567636
 20
225.2857148233121
 30
0.0
 10
253.1472991584633
 20
225.2850068492848
 30
0.0
 10
253.0887389803794
 20
225.2841312580936
 30
0.0
 10
253.0391469501904
 20
225.283252267972
 30
0.0
 10
252.9966474040939
 20
225.2823849037715
 30
0.0
 10
252.9587864681874
 20
225.2815899232676
 30
0.0
 10
252.9179834465592
 20
225.2807019733315
 30
0.0
 10
252.8739429568334
 20
225.2797013065913
 30
0.0
 10
252.8266714416949
 20
225.2785727589653
 30
0.0
 10
252.7761750421037
 20
225.2772992556424
 30
0.0
 10
252.7224608841867
 20
225.2758618951339
 30
0.0
 10
252.6625811392054
 20
225.2741557643331
 30
0.0
 10
252.5962206288562
 20
225.2721273439556
 30
0.0
 10
252.5230715690141
 20
225.2697120832188
 30
0.0
 10
252.4458554211608
 20
225.2669527183957
 30
0.0
 10
252.3664621826261
 20
225.2638849621235
 30
0.0
 10
252.287257645433
 20
225.2605625838809
 30
0.0
 10
252.2106113628035
 20
225.2571005188425
 30
0.0
 10
252.1348735943998
 20
225.2534470498983
 30
0.0
 10
252.0602543234741
 20
225.2496189664887
 30
0.0
 10
251.98696598792
 20
225.2456364162706
 30
0.0
 10
251.9175065327029
 20
225.2416629412412
 30
0.0
 10
251.8518705705386
 20
225.2377314350792
 30
0.0
 10
251.7908114496545
 20
225.2339200195358
 30
0.0
 10
251.7342261556877
 20
225.2302567979416
 30
0.0
 10
251.6817954478639
 20
225.2267521121236
 30
0.0
 10
251.6317884726134
 20
225.2233066498709
 30
0.0
 10
251.5833279587575
 20
225.2198757648808
 30
0.0
 10
251.520896046797
 20
225.2153387309487
 30
0.0
 10
251.4452263412152
 20
225.2096353647484
 30
0.0
 10
251.3518356503372
 20
225.2022716463765
 30
0.0
 10
251.2567623202672
 20
225.1944279288794
 30
0.0
 10
251.1605005286244
 20
225.1861200369957
 30
0.0
 10
251.0754898207551
 20
225.1784748693114
 30
0.0
 10
251.001018257932
 20
225.1715494442165
 30
0.0
 10
250.9349133212616
 20
225.1652331246308
 30
0.0
 10
250.8679502376414
 20
225.1586673374027
 30
0.0
 10
250.7982658035323
 20
225.1516539208778
 30
0.0
 10
250.725414716505
 20
225.1441237641011
 30
0.0
 10
250.6493813737649
 20
225.1360485509866
 30
0.0
 10
250.5668426682733
 20
225.1270373873922
 30
0.0
 10
250.4775203087292
 20
225.1169920018804
 30
0.0
 10
250.3811384821504
 20
225.1058034125666
 30
0.0
 10
250.2807068201857
 20
225.0937640561937
 30
0.0
 10
250.1762089428464
 20
225.0808234424406
 30
0.0
 10
250.068315159469
 20
225.067016369112
 30
0.0
 10
249.9570602973342
 20
225.0523036246459
 30
0.0
 10
249.8424707096505
 20
225.0366455171719
 30
0.0
 10
249.7239030986446
 20
225.019894579437
 30
0.0
 10
249.6004761103088
 20
225.0018643987146
 30
0.0
 10
249.4721473566771
 20
224.9824806320765
 30
0.0
 10
249.3388968906501
 20
224.961666478076
 30
0.0
 10
249.2015777405844
 20
224.9394896120205
 30
0.0
 10
249.0608805043379
 20
224.9160015009555
 30
0.0
 10
248.9182646391679
 20
224.8914001217076
 30
0.0
 10
248.775183447323
 20
224.8659164802666
 30
0.0
 10
248.6133816629059
 20
224.8361908850871
 30
0.0
 10
248.4332304389206
 20
224.8018763944466
 30
0.0
 10
248.2352380567007
 20
224.7625971698616
 30
0.0
 10
248.0384714368773
 20
224.7219848818347
 30
0.0
 10
247.8431066600843
 20
224.6801030059858
 30
0.0
 10
247.650573598629
 20
224.6371927515596
 30
0.0
 10
247.4982190689606
 20
224.6023070319914
 30
0.0
 10
247.4111189169941
 20
224.581492046673
 30
0.0
 10
247.3862033667026
 20
224.5755377882498
 30
0.0
  0
SPLINE
  5
86
330
1F
100
AcDbEntity
  8
0
  6
Continuous
 62
     7
370
    30
100
AcDbSpline
210
0.0
220
0.0
230
1.0
 70
     8
 71
     3
 72
    51
 73
    47
 74
     0
 42
0.000000001
 43
0.00000001
 40
0.0
 40
0.0
 40
0.0
 40
0.0
 40
0.0127682872194581
 40
0.0410033770756607
 40
0.07119163467637
 40
0.103346363899036
 40
0.1287597734998471
 40
0.1552899670197264
 40
0.1619367843728585
 40
0.1678539187313116
 40
0.1730197185974427
 40
0.177508327774361
 40
0.1814331402313027
 40
0.1849631712627312
 40
0.1883832370598029
 40
0.1919387981180025
 40
0.2023194499828896
 40
0.2137480487062088
 40
0.2251655068246692
 40
0.2365499098971474
 40
0.2479075465042049
 40
0.2593510733594374
 40
0.2946174149518967
 40
0.3312905751273899
 40
0.3687752868554796
 40
0.4060222958603049
 40
0.4429617494177445
 40
0.4795435415018735
 40
0.4958047253946837
 40
0.5124227981881342
 40
0.5307294324603946
 40
0.5508146606970503
 40
0.5726750980304959
 40
0.5958661805643647
 40
0.620751441603766
 40
0.6473144044597153
 40
0.6755325102354685
 40
0.7095692154747947
 40
0.745649243047748
 40
0.7837026547200181
 40
0.8236439052841403
 40
0.8568896299898692
 40
0.891218632038751
 40
0.9265638013807741
 40
0.9628511325116457
 40
1.0
 40
1.0
 40
1.0
 40
1.0
 10
241.6126555183885
 20
222.4704586399702
 30
0.0
 10
241.6119506302704
 20
222.4701002310582
 30
0.0
 10
241.60968699124
 20
222.4689492563415
 30
0.0
 10
241.6057756588167
 20
222.4669537921238
 30
0.0
 10
241.5998943888658
 20
222.4639458163517
 30
0.0
 10
241.5937971478029
 20
222.4608115661608
 30
0.0
 10
241.5876964418296
 20
222.457656423187
 30
0.0
 10
241.5832917530032
 20
222.4553619316881
 30
0.0
 10
241.5804071891624
 20
222.453852001518
 30
0.0
 10
241.5783106920529
 20
222.4527495167673
 30
0.0
 10
241.5756659915438
 20
222.4513517582926
 30
0.0
 10
241.5724360846541
 20
222.4496346593886
 30
0.0
 10
241.5686041906472
 20
222.447583395
 30
0.0
 10
241.564049576615
 20
222.4451250328112
 30
0.0
 10
241.5588976298939
 20
222.4423168905447
 30
0.0
 10
241.5502021257585
 20
222.4375296245276
 30
0.0
 10
241.5367253908356
 20
222.4299581311055
 30
0.0
 10
241.5190794406152
 20
222.4197032316054
 30
0.0
 10
241.5010501260846
 20
222.4088624708136
 30
0.0
 10
241.4831937739286
 20
222.3977572174236
 30
0.0
 10
241.4654803172365
 20
222.3863683233708
 30
0.0
 10
241.4356854836635
 20
222.3665719411497
 30
0.0
 10
241.3937789287844
 20
222.3368293027569
 30
0.0
 10
241.3406994407092
 20
222.295233906478
 30
0.0
 10
241.2887953118497
 20
222.2502940445892
 30
0.0
 10
241.2390495037546
 20
222.2027387879482
 30
0.0
 10
241.1920732341364
 20
222.1532125780514
 30
0.0
 10
241.1559863630179
 20
222.1112694929037
 30
0.0
 10
241.1292250622994
 20
222.0778791470997
 30
0.0
 10
241.1100423597949
 20
222.0528514689069
 30
0.0
 10
241.0900512254189
 20
222.0254860299054
 30
0.0
 10
241.0689203251183
 20
221.9949673672258
 30
0.0
 10
241.0469971776565
 20
221.9613547197149
 30
0.0
 10
241.0245405135683
 20
221.9245811617758
 30
0.0
 10
241.0018293920623
 20
221.8845939711964
 30
0.0
 10
240.9790497212231
 20
221.8411146445971
 30
0.0
 10
240.9554200887297
 20
221.791754103097
 30
0.0
 10
240.9315206082953
 20
221.7360700449021
 30
0.0
 10
240.9080892121522
 20
221.6736644398868
 30
0.0
 10
240.886623798451
 20
221.6067205965718
 30
0.0
 10
240.8690732185799
 20
221.5404456026788
 30
0.0
 10
240.855226916851
 20
221.4756568054157
 30
0.0
 10
240.8447325482777
 20
221.4131059210412
 30
0.0
 10
240.8369571162002
 20
221.3482774710616
 30
0.0
 10
240.8318930979648
 20
221.2814171746732
 30
0.0
 10
240.8312573333523
 20
221.2361734837283
 30
0.0
 10
240.830935721725
 20
221.21328624404
 30
0.0
  0
SPLINE
  5
87
330
1F
100
AcDbEntity
  8
0
  6
Continuous
 62
     7
370
    30
100
AcDbSpline
210
0.0
220
0.0
230
1.0
 70
     8
 71
     3
 72
    21
 73
    17
 74
     0
 42
0.000000001
 43
0.00000001
 40
0.0
 40
0.0
 40
0.0
 40
0.0
 40
0.0945261146642662
 40
0.1862507841736095
 40
0.2746665961536647
 40
0.3593153291954482
 40
0.4397932957464271
 40
0.5157537678840981
 40
0.5869067285486632
 40
0.6530163602766405
 40
0.7138967794065393
 40
0.7694065512135149
 40
0.8396288234777717
 40
0.9077677622028609
 40
0.9771713505457363
 40
1.0
 40
1.0
 40
1.0
 40
1.0
 10
240.8326909052429
 20
214.1907103744384
 30
0.0
 10
240.8330536249485
 20
214.1735636647579
 30
0.0
 10
240.833768314533
 20
214.1397784178415
 30
0.0
 10
240.8394013384276
 20
214.0902207409591
 30
0.0
 10
240.8479101939208
 20
214.0429313860702
 30
0.0
 10
240.859144086036
 20
213.9983071803437
 30
0.0
 10
240.8725082882689
 20
213.9566499306217
 30
0.0
 10
240.8874929582922
 20
213.918167104231
 30
0.0
 10
240.9035663228452
 20
213.8829774844363
 30
0.0
 10
240.9202245175188
 20
213.8511226047771
 30
0.0
 10
240.9369934645541
 20
213.8225755975129
 30
0.0
 10
240.9554466853105
 20
213.7941991083084
 30
0.0
 10
240.9760135697421
 20
213.7656581281658
 30
0.0
 10
240.9997672739331
 20
213.7364069568985
 30
0.0
 10
241.0189882950346
 20
213.7145398073093
 30
0.0
 10
241.0309034612987
 20
213.7028004315854
 30
0.0
 10
241.0338526161748
 20
213.6998947870991
 30
0.0
  0
LINE
  5
88
330
1F
100
AcDbEntity
  8
0
  6
Continuous
 62
     7
370
    30
100
AcDbLine
 10
253.5137490406
 20
225.2879277871
 30
0.0
 11
253.476253714
 21
225.2879277871
 31
0.0
  0
LINE
  5
89
330
1F
100
AcDbEntity
  8
0
  6
Continuous
 62
     7
370
    30
100
AcDbLine
 10
264.8799142066
 20
211.1695719974
 30
0.0
 11
242.0799142066
 21
211.1695719974
 31
0.0
  0
LINE
  5
8A
330
1F
100
AcDbEntity
  8
0
  6
Continuous
 62
     7
370
    30
100
AcDbLine
 10
263.8799142066
 20
193.8129277871
 30
0.0
 11
243.0799142066
 21
193.8129277871
 31
0.0
  0
LINE
  5
8B
330
1F
100
AcDbEntity
  8
0
  6
Continuous
 62
     7
370
    30
100
AcDbLine
 10
239.219487107
 20
253.1870722129
 30
0.0
 11
267.819487107
 21
253.1870722129
 31
0.0
  0
LINE
  5
8C
330
1F
100
AcDbEntity
  8
0
  6
Continuous
 62
     7
370
    30
100
AcDbLine
 10
268.019487107
 20
252.9870722129
 30
0.0
 11
239.019487107
 21
252.9870722129
 31
0.0
  0
LINE
  5
8D
330
1F
100
AcDbEntity
  8
0
  6
Continuous
 62
     7
370
    30
100
AcDbLine
 10
264.4799142066
 20
211.1885503946
 30
0.0
 11
268.019487107
 21
211.1885503946
 31
0.0
  0
LINE
  5
8E
330
1F
100
AcDbEntity
  8
0
  6
Continuous
 62
     7
370
    30
100
AcDbLine
 10
239.019487107
 20
211.1885503946
 30
0.0
 11
242.4799142066
 21
211.1885503946
 31
0.0
  0
LINE
  5
8F
330
1F
100
AcDbEntity
  8
0
  6
Continuous
 62
     7
370
    30
100
AcDbLine
 10
242.0799142066
 20
210.6885503946
 30
0.0
 11
239.519487107
 21
210.6885503946
 31
0.0
  0
LINE
  5
90
330
1F
100
AcDbEntity
  8
0
  6
Continuous
 62
     7
370
    30
100
AcDbLine
 10
267.519487107
 20
210.6885503946
 30
0.0
 11
264.8799142066
 21
210.6885503946
 31
0.0
  0
LINE
  5
91
330
1F
100
AcDbEntity
  8
0
  6
Continuous
 62
     7
370
    30
100
AcDbLine
 10
240.7299142066
 20
212.1379277871
 30
0.0
 11
266.2299132083
 21
212.1379277871
 31
0.0
  0
LINE
  5
92
330
1F
100
AcDbEntity
  8
0
  6
Continuous
 62
     7
370
    30
100
AcDbLine
 10
266.2299132083
 20
213.6998947871
 30
0.0
 11
240.7299142066
 21
213.6998947871
 31
0.0
  0
LINE
  5
93
330
1F
100
AcDbEntity
  8
0
  6
Continuous
 62
     7
370
    30
100
AcDbLine
 10
266.2309172603
 20
212.1379277871
 30
0.0
 11
266.2309172603
 21
213.6998947871
 31
0.0
  0
LINE
  5
94
330
1F
100
AcDbEntity
  8
0
  6
Continuous
 62
     7
370
    30
100
AcDbLine
 10
266.2299132083
 20
212.1379277871
 30
0.0
 11
266.2309172603
 21
212.1379277871
 31
0.0
  0
LINE
  5
95
330
1F
100
AcDbEntity
  8
0
  6
Continuous
 62
     7
370
    30
100
AcDbLine
 10
266.2309172603
 20
213.6998947871
 30
0.0
 11
266.2299132083
 21
213.6998947871
 31
0.0
  0
LINE
  5
96
330
1F
100
AcDbEntity
  8
0
  6
Continuous
 62
     7
370
    30
100
AcDbLine
 10
240.8299151971
 20
214.1911058103
 30
0.0
 11
240.8422620847
 21
214.1892190163
 31
0.0
  0
LINE
  5
97
330
1F
100
AcDbEntity
  8
0
  6
Continuous
 62
     7
370
    30
100
AcDbLine
 10
240.8299151971
 20
221.2136416615
 30
0.0
 11
240.8299151971
 21
214.1911058103
 31
0.0
  0
LINE
  5
98
330
1F
100
AcDbEntity
  8
0
  6
Continuous
 62
     7
370
    30
100
AcDbLine
 10
266.1299132161
 20
221.2136416615
 30
0.0
 11
266.1299132161
 21
214.1911058103
 31
0.0
  0
SPLINE
  5
99
330
1F
100
AcDbEntity
  8
0
  6
Continuous
 62
     7
370
    30
100
AcDbSpline
210
0.0
220
0.0
230
1.0
 70
     8
 71
     3
 72
    25
 73
    21
 74
     0
 42
0.000000001
 43
0.00000001
 40
0.0
 40
0.0
 40
0.0
 40
0.0
 40
0.0028580667006856
 40
0.0641571380693746
 40
0.1268503258147877
 40
0.1914338704386449
 40
0.2447734785796172
 40
0.2998255275647896
 40
0.3567824205125947
 40
0.4158179367226805
 40
0.4770881686673312
 40
0.5478339256739932
 40
0.6145864895960219
 40
0.6774339015055533
 40
0.7364816729921722
 40
0.799484397504755
 40
0.8626756057983387
 40
0.9262316349146781
 40
0.9903258097541356
 40
1.0
 40
1.0
 40
1.0
 40
1.0
 10
241.6212997874586
 20
222.4747445354251
 30
0.0
 10
241.6216393864129
 20
222.4749171344893
 30
0.0
 10
241.6292626154288
 20
222.4787915933977
 30
0.0
 10
241.6868848990055
 20
222.5077949195871
 30
0.0
 10
241.7969989243664
 20
222.5626301846402
 30
0.0
 10
241.947357159028
 20
222.6364147899318
 30
0.0
 10
242.1213480654803
 20
222.7202289507342
 30
0.0
 10
242.3127609683189
 20
222.8106873486699
 30
0.0
 10
242.5344077520664
 20
222.9130818001869
 30
0.0
 10
242.7863926606523
 20
223.0264848600263
 30
0.0
 10
243.0814030123474
 20
223.155307132108
 30
0.0
 10
243.4059991041738
 20
223.2920394952306
 30
0.0
 10
243.7483381402188
 20
223.4305753659938
 30
0.0
 10
244.0877157970153
 20
223.5624456526637
 30
0.0
 10
244.4380836538789
 20
223.6931118057205
 30
0.0
 10
244.8096838009934
 20
223.8255461526729
 30
0.0
 10
245.2101623779893
 20
223.9615972996026
 30
0.0
 10
245.6346536235432
 20
224.0967439798647
 30
0.0
 10
245.9473447806068
 20
224.1938178655497
 30
0.0
 10
246.1258814179502
 20
224.2432634639486
 30
0.0
 10
246.1492952131931
 20
224.2497478983695
 30
0.0
  0
SPLINE
  5
9A
330
1F
100
AcDbEntity
  8
0
  6
Continuous
 62
     7
370
    30
100
AcDbSpline
210
0.0
220
0.0
230
1.0
 70
     8
 71
     3
 72
     9
 73
     5
 74
     0
 42
0.000000001
 43
0.00000001
 40
0.0
 40
0.0
 40
0.0
 40
0.0
 40
0.0063577603157342
 40
1.0
 40
1.0
 40
1.0
 40
1.0
 10
246.7171145468694
 20
224.4077893625381
 30
0.0
 10
246.7184782699803
 20
224.4081690531681
 30
0.0
 10
246.9329756783701
 20
224.4678898685368
 30
0.0
 10
247.1621424642745
 20
224.5224285860378
 30
0.0
 10
247.3898522626817
 20
224.576620559445
 30
0.0
  0
ARC
  5
9B
330
1F
100
AcDbEntity
  8
0
  6
Continuous
 62
     7
370
    30
100
AcDbCircle
 10
241.5299152242
 20
214.1911058054
 30
0.0
 40
0.7000000270952569
100
AcDbArc
 50
179.9999995994
 51
224.5916303494
  0
LINE
  5
9C
330
1F
100
AcDbEntity
  8
0
  6
Continuous
 62
     7
370
    30
100
AcDbLine
 10
455.3564675442
 20
211.1695719974
 30
0.0
 11
455.3564675442
 21
194.8129277871
 31
0.0
  0
LINE
  5
9D
330
1F
100
AcDbEntity
  8
0
  6
Continuous
 62
     7
370
    30
100
AcDbLine
 10
478.1564675442
 20
194.8129277871
 30
0.0
 11
478.1564675442
 21
211.1695719974
 31
0.0
  0
ARC
  5
9E
330
1F
100
AcDbEntity
  8
0
  6
Continuous
 62
     7
370
    30
100
AcDbCircle
 10
477.1564675442
 20
194.8129277871
 30
0.0
 40
1.0
100
AcDbArc
 50
270.0
 51
0.0
  0
ARC
  5
9F
330
1F
100
AcDbEntity
  8
0
  6
Continuous
 62
     7
370
    30
100
AcDbCircle
 10
456.3564675442
 20
194.8129277871
 30
0.0
 40
1.0
100
AcDbArc
 50
180.0
 51
270.0
  0
LINE
  5
A0
330
1F
100
AcDbEntity
  8
0
  6
Continuous
 62
     7
370
    30
100
AcDbLine
 10
381.2564030319
 20
252.9870722129
 30
0.0
 11
381.0564030322
 21
253.1870722129
 31
0.0
  0
LINE
  5
A1
330
1F
100
AcDbEntity
  8
0
  6
Continuous
 62
     7
370
    30
100
AcDbLine
 10
352.4564030322
 20
253.1870722129
 30
0.0
 11
352.2564030326
 21
252.9870722129
 31
0.0
  0
LINE
  5
A2
330
1F
100
AcDbEntity
  8
0
  6
Continuous
 62
     7
370
    30
100
AcDbLine
 10
352.2564030322
 20
211.1885503946
 30
0.0
 11
352.7564030313
 21
210.6885503946
 31
0.0
  0
LINE
  5
A3
330
1F
100
AcDbEntity
  8
0
  6
Continuous
 62
     7
370
    30
100
AcDbLine
 10
380.7564030331
 20
210.6885503946
 30
0.0
 11
381.2564030322
 21
211.1885503946
 31
0.0
  0
LINE
  5
A4
330
1F
100
AcDbEntity
  8
0
  6
Continuous
 62
     7
370
    30
100
AcDbLine
 10
381.2564030322
 20
211.1885503946
 30
0.0
 11
381.2564030322
 21
212.6879277871
 31
0.0
  0
LINE
  5
A5
330
1F
100
AcDbEntity
  8
0
  6
Continuous
 62
     7
370
    30
100
AcDbLine
 10
381.2564030322
 20
225.2879277871
 30
0.0
 11
381.2564030322
 21
252.9870722129
 31
0.0
  0
LINE
  5
A6
330
1F
100
AcDbEntity
  8
0
  6
Continuous
 62
     7
370
    30
100
AcDbLine
 10
352.2564030322
 20
252.9870722129
 30
0.0
 11
352.2564030322
 21
211.1885503946
 31
0.0
  0
LINE
  5
A7
330
1F
100
AcDbEntity
  8
0
  6
Continuous
 62
     7
370
    30
100
AcDbLine
 10
479.5064675442
 20
212.1379277871
 30
0.0
 11
479.5064675442
 21
213.6998947871
 31
0.0
  0
LINE
  5
A8
330
1F
100
AcDbEntity
  8
0
  6
Continuous
 62
     7
370
    30
100
AcDbLine
 10
453.7564675442
 20
212.7844470329
 30
0.0
 11
453.7564675442
 21
212.1379277871
 31
0.0
  0
LINE
  5
A9
330
1F
100
AcDbEntity
  8
0
  6
Continuous
 62
     7
370
    30
100
AcDbLine
 10
477.7564675442
 20
211.1695719974
 30
0.0
 11
477.7564675442
 21
212.1379277871
 31
0.0
  0
LINE
  5
AA
330
1F
100
AcDbEntity
  8
0
  6
Continuous
 62
     7
370
    30
100
AcDbLine
 10
455.7564675442
 20
212.1379277871
 30
0.0
 11
455.7564675442
 21
211.1695719974
 31
0.0
  0
LINE
  5
AB
330
1F
100
AcDbEntity
  8
0
  6
Continuous
 62
     7
370
    30
100
AcDbLine
 10
479.4064675442
 20
213.6998947871
 30
0.0
 11
479.4064675442
 21
221.8880469725
 31
0.0
  0
SPLINE
  5
AC
330
1F
100
AcDbEntity
  8
0
  6
Continuous
 62
     7
370
    30
100
AcDbSpline
210
0.0
220
0.0
230
1.0
 70
     8
 71
     3
 72
    84
 73
    80
 74
     0
 42
0.000000001
 43
0.00000001
 40
0.0
 40
0.0
 40
0.0
 40
0.0
 40
0.0214541781454061
 40
0.0427134926165501
 40
0.0637528269729378
 40
0.0845476517282496
 40
0.1050741266368216
 40
0.1253091935482034
 40
0.148753052544001
 40
0.171726720236285
 40
0.1941974828980302
 40
0.2161346685121986
 40
0.2378929475143851
 40
0.2590406251392464
 40
0.279552182860398
 40
0.2994044167780093
 40
0.3185763951913336
 40
0.3367257687591785
 40
0.3541851439916214
 40
0.3709406493213475
 40
0.3869801840501188
 40
0.4015496166621417
 40
0.415455343933297
 40
0.428690836535881
 40
0.4412506157615323
 40
0.4532192341398126
 40
0.4647696434922701
 40
0.4778482286403949
 40
0.4903453217498311
 40
0.5022580751547016
 40
0.5135842981269686
 40
0.5263008905749433
 40
0.5381822166152841
 40
0.5492273683029683
 40
0.5594386493618966
 40
0.5694656531744867
 40
0.5798118822041327
 40
0.5834406405623227
 40
0.5872754522955788
 40
0.5913535263725002
 40
0.5951986094734555
 40
0.5982566102548821
 40
0.6010998053529573
 40
0.604267962674969
 40
0.6091539694913689
 40
0.614652191743925
 40
0.6207610186788143
 40
0.6273582739406962
 40
0.6396280089962703
 40
0.6524912923596153
 40
0.6659412616209949
 40
0.6799701189727285
 40
0.6948728586416929
 40
0.7103586983178132
 40
0.7263673829671627
 40
0.7423363887223661
 40
0.7581061532412038
 40
0.7736742289805196
 40
0.7890384860510459
 40
0.8082950923946285
 40
0.8272155705860912
 40
0.8457975997077811
 40
0.8639896657683569
 40
0.8814259320341571
 40
0.8980430181526234
 40
0.9138536589458821
 40
0.9254866933391485
 40
0.9367072823615418
 40
0.9481406254014058
 40
0.9599605447536079
 40
0.9670705804124228
 40
0.9741312681703022
 40
0.9806421386833366
 40
0.9830425022125784
 40
0.9853545976233881
 40
0.987739561294711
 40
0.9909335319681574
 40
0.9950227246643247
 40
1.0
 40
1.0
 40
1.0
 40
1.0
 10
479.4064675650425
 20
221.8879299680904
 30
0.0
 10
479.4060962201142
 20
221.9261241213712
 30
0.0
 10
479.4053569031036
 20
222.0021655186735
 30
0.0
 10
479.3994226414288
 20
222.1155341127042
 30
0.0
 10
479.3900968267925
 20
222.2274799207358
 30
0.0
 10
479.3771782940647
 20
222.3377605732312
 30
0.0
 10
479.3609195613222
 20
222.4461480158026
 30
0.0
 10
479.3403462807518
 20
222.558597644199
 30
0.0
 10
479.3149971399966
 20
222.6745401627988
 30
0.0
 10
479.284447419677
 20
222.7933350552944
 30
0.0
 10
479.2504387581577
 20
222.9083906202499
 30
0.0
 10
479.2131244170529
 20
223.0201363834694
 30
0.0
 10
479.1728202607022
 20
223.1283282279414
 30
0.0
 10
479.1298599861267
 20
223.2327520061161
 30
0.0
 10
479.0849002650231
 20
223.3326188557049
 30
0.0
 10
479.0383432171731
 20
223.4278491300771
 30
0.0
 10
478.9908523373456
 20
223.517886967991
 30
0.0
 10
478.9428410191656
 20
223.6027844097467
 30
0.0
 10
478.894696657679
 20
223.6826210532645
 30
0.0
 10
478.8464505825726
 20
223.7579710360577
 30
0.0
 10
478.7991654466962
 20
223.8277926894942
 30
0.0
 10
478.7531617121105
 20
223.8923248724689
 30
0.0
 10
478.7087147082019
 20
223.9518126240507
 30
0.0
 10
478.6652122612164
 20
224.0075191795547
 30
0.0
 10
478.6227677680776
 20
224.0596581540051
 30
0.0
 10
478.5812654188673
 20
224.1086799671008
 30
0.0
 10
478.538255245103
 20
224.1576203350567
 30
0.0
 10
478.4936710211022
 20
224.2064151409245
 30
0.0
 10
478.4476715139725
 20
224.2547715682431
 30
0.0
 10
478.4029468111336
 20
224.3000183498786
 30
0.0
 10
478.3571244092292
 20
224.3447138479725
 30
0.0
 10
478.3105062040246
 20
224.3884986369013
 30
0.0
 10
478.2634226844982
 20
224.4310387599975
 30
0.0
 10
478.2189439254578
 20
224.4697939373861
 30
0.0
 10
478.1763495053829
 20
224.5056741251418
 30
0.0
 10
478.1341545684434
 20
224.540086275794
 30
0.0
 10
478.1006128071261
 20
224.566559080143
 30
0.0
 10
478.0755114338529
 20
224.5859270177343
 30
0.0
 10
478.0591711398789
 20
224.5983828866217
 30
0.0
 10
478.0424460372512
 20
224.6109685232287
 30
0.0
 10
478.0267530762072
 20
224.6226252362268
 30
0.0
 10
478.01276900702
 20
224.6328954111569
 30
0.0
 10
477.9997120499426
 20
224.6423918576075
 30
0.0
 10
477.9839696471293
 20
224.6537282040798
 30
0.0
 10
477.9643028580078
 20
224.6677025006881
 30
0.0
 10
477.9402307181534
 20
224.6845132870106
 30
0.0
 10
477.9134928100414
 20
224.7028253842591
 30
0.0
 10
477.876560267242
 20
224.7275817595476
 30
0.0
 10
477.829176386045
 20
224.7583361363395
 30
0.0
 10
477.7708322004317
 20
224.7945879320624
 30
0.0
 10
477.7090571554088
 20
224.8312241352473
 30
0.0
 10
477.6433432933524
 20
224.8683031966794
 30
0.0
 10
477.5736068198231
 20
224.9055890109397
 30
0.0
 10
477.4998527352978
 20
224.9427875047403
 30
0.0
 10
477.4234850235651
 20
224.9789633977658
 30
0.0
 10
477.3457708746128
 20
225.0134149210135
 30
0.0
 10
477.2679472436658
 20
225.0456186831242
 30
0.0
 10
477.1903594061606
 20
225.0755103317028
 30
0.0
 10
477.1062237634375
 20
225.1055985564335
 30
0.0
 10
477.0156227236051
 20
225.1352463753336
 30
0.0
 10
476.9186788298491
 20
225.163781993081
 30
0.0
 10
476.8227701118981
 20
225.1889687117548
 30
0.0
 10
476.7287488219306
 20
225.2107779683779
 30
0.0
 10
476.6375838848217
 20
225.2292530124892
 30
0.0
 10
476.5501350989692
 20
225.2445526025386
 30
0.0
 10
476.4725449390272
 20
225.2560993550463
 30
0.0
 10
476.4042590747807
 20
225.2647616167547
 30
0.0
 10
476.3435759526748
 20
225.2713551296349
 30
0.0
 10
476.2824538201699
 20
225.2768980224115
 30
0.0
 10
476.2285390263293
 20
225.2807961071597
 30
0.0
 10
476.1823460981811
 20
225.2834462296731
 30
0.0
 10
476.1455676134718
 20
225.2851458261484
 30
0.0
 10
476.1171521163072
 20
225.2861555471184
 30
0.0
 10
476.097180666424
 20
225.2867253373663
 30
0.0
 10
476.0845498425859
 20
225.2870388304376
 30
0.0
 10
476.0705055015034
 20
225.2873359479709
 30
0.0
 10
476.0532968509681
 20
225.2876225515294
 30
0.0
 10
476.0314722629851
 20
225.2878722274325
 30
0.0
 10
476.0153322911942
 20
225.2879080960747
 30
0.0
 10
476.006471830513
 20
225.2879277871062
 30
0.0
  0
LINE
  5
AD
330
1F
100
AcDbEntity
  8
0
  6
Continuous
 62
     7
370
    30
100
AcDbLine
 10
381.2564030322
 20
212.6879277871
 30
0.0
 11
453.1065777203
 21
212.6879277871
 31
0.0
  0
LINE
  5
AE
330
1F
100
AcDbEntity
  8
0
  6
Continuous
 62
     7
370
    30
100
AcDbLine
 10
476.0064718148
 20
225.2879277871
 30
0.0
 11
381.2564030322
 21
225.2879277871
 31
0.0
  0
LINE
  5
AF
330
1F
100
AcDbEntity
  8
0
  6
Continuous
 62
     7
370
    30
100
AcDbLine
 10
478.1564675442
 20
211.1695719974
 30
0.0
 11
455.3564675442
 21
211.1695719974
 31
0.0
  0
LINE
  5
B0
330
1F
100
AcDbEntity
  8
0
  6
Continuous
 62
     7
370
    30
100
AcDbLine
 10
466.7523519656
 20
193.8129277871
 30
0.0
 11
456.3564675442
 21
193.8129277871
 31
0.0
  0
LINE
  5
B1
330
1F
100
AcDbEntity
  8
0
  6
Continuous
 62
     7
370
    30
100
AcDbLine
 10
477.1564675442
 20
193.8129277871
 30
0.0
 11
466.7523519656
 21
193.8129277871
 31
0.0
  0
LINE
  5
B2
330
1F
100
AcDbEntity
  8
0
  6
Continuous
 62
     7
370
    30
100
AcDbLine
 10
352.4564030322
 20
253.1870722129
 30
0.0
 11
381.0564030322
 21
253.1870722129
 31
0.0
  0
LINE
  5
B3
330
1F
100
AcDbEntity
  8
0
  6
Continuous
 62
     7
370
    30
100
AcDbLine
 10
381.2564030319
 20
252.9870722129
 30
0.0
 11
352.2564030322
 21
252.9870722129
 31
0.0
  0
LINE
  5
B4
330
1F
100
AcDbEntity
  8
0
  6
Continuous
 62
     7
370
    30
100
AcDbLine
 10
352.2564030322
 20
211.1885503946
 30
0.0
 11
381.2564030322
 21
211.1885503946
 31
0.0
  0
LINE
  5
B5
330
1F
100
AcDbEntity
  8
0
  6
Continuous
 62
     7
370
    30
100
AcDbLine
 10
380.7564030322
 20
210.6885503946
 30
0.0
 11
352.7564030322
 21
210.6885503946
 31
0.0
  0
LINE
  5
B6
330
1F
100
AcDbEntity
  8
0
  6
Continuous
 62
     7
370
    30
100
AcDbLine
 10
479.5064675442
 20
213.6998947871
 30
0.0
 11
466.7514220031
 21
213.6998947871
 31
0.0
  0
LINE
  5
B7
330
1F
100
AcDbEntity
  8
0
  6
Continuous
 62
     7
370
    30
100
AcDbLine
 10
466.7514220031
 20
212.1379277871
 30
0.0
 11
479.5064675442
 21
212.1379277871
 31
0.0
  0
LINE
  5
B8
330
1F
100
AcDbEntity
  8
0
  6
Continuous
 62
     7
370
    30
100
AcDbLine
 10
464.2141993105
 20
213.6998947871
 30
0.0
 11
464.2141993105
 21
212.1379277871
 31
0.0
  0
LINE
  5
B9
330
1F
100
AcDbEntity
  8
0
  6
Continuous
 62
     7
370
    30
100
AcDbLine
 10
466.7514220031
 20
213.6998947871
 30
0.0
 11
464.2141993105
 21
213.6998947871
 31
0.0
  0
LINE
  5
BA
330
1F
100
AcDbEntity
  8
0
  6
Continuous
 62
     7
370
    30
100
AcDbLine
 10
464.2141993105
 20
212.1379277871
 30
0.0
 11
466.7514220031
 21
212.1379277871
 31
0.0
  0
LINE
  5
BB
330
1F
100
AcDbEntity
  8
0
  6
Continuous
 62
     7
370
    30
100
AcDbLine
 10
464.2141993105
 20
213.6998947871
 30
0.0
 11
463.0059284017
 21
213.6998947871
 31
0.0
  0
LINE
  5
BC
330
1F
100
AcDbEntity
  8
0
  6
Continuous
 62
     7
370
    30
100
AcDbLine
 10
464.2141993105
 20
212.1379277871
 30
0.0
 11
453.7564675442
 21
212.1379277871
 31
0.0
  0
LINE
  5
BD
330
1F
100
AcDbEntity
  8
0
  6
Continuous
 62
     7
370
    30
100
AcDbLine
 10
460.8728916333
 20
213.4379277871
 30
0.0
 11
459.548755423
 21
213.4379277871
 31
0.0
  0
SPLINE
  5
BE
330
1F
100
AcDbEntity
  8
0
  6
Continuous
 62
     7
370
    30
100
AcDbSpline
210
0.0
220
0.0
230
1.0
 70
     8
 71
     3
 72
    72
 73
    68
 74
     0
 42
0.000000001
 43
0.00000001
 40
0.0
 40
0.0
 40
0.0
 40
0.0
 40
0.0152972765093722
 40
0.0305963905561038
 40
0.0458955071708253
 40
0.0611927871824305
 40
0.0765491703139116
 40
0.0919074073363083
 40
0.107265646232107
 40
0.1226220319185359
 40
0.1383003818750021
 40
0.1539807012486474
 40
0.1696610217315556
 40
0.1853393732008438
 40
0.2010811440604181
 40
0.2168249068015011
 40
0.2325686696531041
 40
0.2483104406634112
 40
0.2624979464043186
 40
0.2766861811938266
 40
0.2908736866207901
 40
0.3050875306156289
 40
0.3193021081750692
 40
0.333515951570913
 40
0.351350459196232
 40
0.3691864176904989
 40
0.3870209230956451
 40
0.4049079965468025
 40
0.4227965367331645
 40
0.440683607207569
 40
0.4553085143818568
 40
0.4699342252784134
 40
0.4845591308776201
 40
0.4992131223934335
 40
0.5138679245039198
 40
0.5285219142619368
 40
0.5443834642320841
 40
0.5602460451122917
 40
0.5761075925061961
 40
0.5920064890583933
 40
0.6079064271786138
 40
0.6238053210516278
 40
0.6346185197801495
 40
0.6454317183450566
 40
0.6562501853311732
 40
0.6670686521551653
 40
0.6842657985590618
 40
0.7014656022053405
 40
0.7186654004407039
 40
0.7358625394649373
 40
0.7531455891098446
 40
0.770431347399915
 40
0.7877171009470666
 40
0.8050001441233426
 40
0.8212962311478489
 40
0.8375945963674373
 40
0.8538929587192156
 40
0.870189041832525
 40
0.8865586603054219
 40
0.9029305933584114
 40
0.9193025245760897
 40
0.9356721405459355
 40
0.9516022380654438
 40
0.9675323354318776
 40
0.9834795455389691
 40
0.9994267555924603
 40
0.9999999999999999
 40
0.9999999999999999
 40
0.9999999999999999
 40
0.9999999999999999
 10
459.5487554229716
 20
213.4379277870993
 30
0.0
 10
459.4889948385821
 20
213.4330687884276
 30
0.0
 10
459.3694664912504
 20
213.4233502074121
 30
0.0
 10
459.1924274333963
 20
213.4085083182473
 30
0.0
 10
459.0170924286242
 20
213.3934917328338
 30
0.0
 10
458.8434458579117
 20
213.3782758797522
 30
0.0
 10
458.6714891554889
 20
213.3628791316341
 30
0.0
 10
458.5012743735485
 20
213.3473140094096
 30
0.0
 10
458.3330657428306
 20
213.331616460305
 30
0.0
 10
458.165749856174
 20
213.3156916176154
 30
0.0
 10
457.9994118632848
 20
213.2995514293139
 30
0.0
 10
457.8341362792132
 20
213.2832093243394
 30
0.0
 10
457.6711163530068
 20
213.2667937074108
 30
0.0
 10
457.5101828736904
 20
213.2502995155716
 30
0.0
 10
457.3513819333867
 20
213.2337423645548
 30
0.0
 10
457.1947551309811
 20
213.2171382543965
 30
0.0
 10
457.0405608096624
 20
213.2005269384981
 30
0.0
 10
456.8938374784861
 20
213.1844722394457
 30
0.0
 10
456.7543417502824
 20
213.168987841685
 30
0.0
 10
456.6218254577343
 20
213.1540826387794
 30
0.0
 10
456.4913206266351
 20
213.1392141558136
 30
0.0
 10
456.3628594516331
 20
213.1243947812368
 30
0.0
 10
456.2364715431047
 20
213.1096367743556
 30
0.0
 10
456.1017159863202
 20
213.0937154058393
 30
0.0
 10
455.9593195183365
 20
213.0766727527414
 30
0.0
 10
455.8101072019163
 20
213.0585660085645
 30
0.0
 10
455.6643189559262
 20
213.0406379092958
 30
0.0
 10
455.5220179911557
 20
213.0229128553406
 30
0.0
 10
455.3832602908063
 20
213.005414325312
 30
0.0
 10
455.2564392262535
 20
212.9892299835639
 30
0.0
 10
455.1408436813406
 20
212.9743247275911
 30
0.0
 10
455.0357939143847
 20
212.9606563937649
 30
0.0
 10
454.9332458900688
 20
212.9471965115892
 30
0.0
 10
454.8332299645273
 20
212.9339576372261
 30
0.0
 10
454.7357730470368
 20
212.9209516338136
 30
0.0
 10
454.6383590936906
 20
212.9078483705854
 30
0.0
 10
454.5412733087139
 20
212.8946853442355
 30
0.0
 10
454.4448126387354
 20
212.8815030621265
 30
0.0
 10
454.3514572503183
 20
212.8686477067812
 30
0.0
 10
454.2612432739446
 20
212.856134011554
 30
0.0
 10
454.1742015269534
 20
212.8439753868229
 30
0.0
 10
454.0993585091726
 20
212.8334503769119
 30
0.0
 10
454.0356254441397
 20
212.8244397035899
 30
0.0
 10
453.9820495198801
 20
212.8168329772597
 30
0.0
 10
453.9300014312958
 20
212.8094129071162
 30
0.0
 10
453.8695603726377
 20
212.8007620830971
 30
0.0
 10
453.8019845156728
 20
212.7910418302921
 30
0.0
 10
453.728813496265
 20
212.7804559483516
 30
0.0
 10
453.6596054624484
 20
212.7703885218042
 30
0.0
 10
453.5942793531939
 20
212.7608369033233
 30
0.0
 10
453.5328814127698
 20
212.7518168269088
 30
0.0
 10
453.4754470771854
 20
212.7433407359576
 30
0.0
 10
453.4220987231831
 20
212.7354340211781
 30
0.0
 10
453.3737954831118
 20
212.728246779261
 30
0.0
 10
453.3302862232223
 20
212.7217505531688
 30
0.0
 10
453.2913127399824
 20
212.7159129334426
 30
0.0
 10
453.2560264335381
 20
212.7106117078684
 30
0.0
 10
453.2243929519311
 20
212.705846157601
 30
0.0
 10
453.1964443280053
 20
212.7016255322967
 30
0.0
 10
453.1722021455426
 20
212.6979558141047
 30
0.0
 10
453.1517184446798
 20
212.6948475893821
 30
0.0
 10
453.1351404548229
 20
212.6923260740386
 30
0.0
 10
453.1223995058285
 20
212.6903834154847
 30
0.0
 10
453.1132236097878
 20
212.6889794438144
 30
0.0
 10
453.1080722615025
 20
212.6881851585013
 30
0.0
 10
453.1058746862442
 20
212.6878427188841
 30
0.0
 10
453.1065119735636
 20
212.687934850878
 30
0.0
 10
453.106534086841
 20
212.6879380477725
 30
0.0
  0
SPLINE
  5
BF
330
1F
100
AcDbEntity
  8
0
  6
Continuous
 62
     7
370
    30
100
AcDbSpline
210
0.0
220
0.0
230
1.0
 70
     8
 71
     3
 72
    26
 73
    22
 74
     0
 42
0.000000001
 43
0.00000001
 40
0.0
 40
0.0
 40
0.0
 40
0.0
 40
0.0154621147445212
 40
0.0735998760980917
 40
0.1317376400033395
 40
0.1898664973679267
 40
0.2482826179153702
 40
0.3067077682641334
 40
0.3651329263801519
 40
0.4235490575209445
 40
0.4786135824008607
 40
0.5336856527542598
 40
0.5887577327553231
 40
0.6438222707929467
 40
0.6991297038466604
 40
0.7544447586652628
 40
0.8097598260898682
 40
0.8650672763359537
 40
0.9188759454642266
 40
0.9726846168962062
 40
1.0
 40
1.0
 40
1.0
 40
1.0
 10
453.107870334238
 20
212.6881309124094
 30
0.0
 10
453.1080059214399
 20
212.6881502366866
 30
0.0
 10
453.1086513183618
 20
212.6882422205086
 30
0.0
 10
453.113892883583
 20
212.6890265215228
 30
0.0
 10
453.1237215545529
 20
212.6905016683546
 30
0.0
 10
453.1379754633311
 20
212.6926455237972
 30
0.0
 10
453.1562734416106
 20
212.6953991850261
 30
0.0
 10
453.178737769699
 20
212.6987779248256
 30
0.0
 10
453.2052990582272
 20
212.7027680014521
 30
0.0
 10
453.2353703330148
 20
212.7072781437313
 30
0.0
 10
453.2686761842083
 20
212.7122643399453
 30
0.0
 10
453.3049423921638
 20
212.7176815684052
 30
0.0
 10
453.3448179615265
 20
212.7236225433669
 30
0.0
 10
453.3883542355137
 20
212.7300904198899
 30
0.0
 10
453.4355643813532
 20
212.7370825086623
 30
0.0
 10
453.4864468319502
 20
212.7445924010106
 30
0.0
 10
453.5409304262297
 20
212.7526031076834
 30
0.0
 10
453.598413410686
 20
212.7610213799195
 30
0.0
 10
453.6589917654183
 20
212.7698524284262
 30
0.0
 10
453.711423857708
 20
212.7774696115787
 30
0.0
 10
453.7451212519457
 20
212.7823336582821
 30
0.0
 10
453.7564675442196
 20
212.7839714376054
 30
0.0
  0
LINE
  5
C0
330
1F
100
AcDbEntity
  8
0
  6
Continuous
 62
     7
370
    30
100
AcDbLine
 10
28.8435324558
 20
211.1695719974
 30
0.0
 11
28.8435324558
 21
194.8129277871
 31
0.0
  0
LINE
  5
C1
330
1F
100
AcDbEntity
  8
0
  6
Continuous
 62
     7
370
    30
100
AcDbLine
 10
51.6435324558
 20
194.8129277871
 30
0.0
 11
51.6435324558
 21
211.1695719974
 31
0.0
  0
ARC
  5
C2
330
1F
100
AcDbEntity
  8
0
  6
Continuous
 62
     7
370
    30
100
AcDbCircle
 10
50.6435324558
 20
194.8129277871
 30
0.0
 40
1.0
100
AcDbArc
 50
270.0
 51
0.0
  0
ARC
  5
C3
330
1F
100
AcDbEntity
  8
0
  6
Continuous
 62
     7
370
    30
100
AcDbCircle
 10
29.8435324558
 20
194.8129277871
 30
0.0
 40
1.0
100
AcDbArc
 50
180.0
 51
270.0
  0
LINE
  5
C4
330
1F
100
AcDbEntity
  8
0
  6
Continuous
 62
     7
370
    30
100
AcDbLine
 10
154.7435969674
 20
252.9870722129
 30
0.0
 11
154.5435969678
 21
253.1870722129
 31
0.0
  0
LINE
  5
C5
330
1F
100
AcDbEntity
  8
0
  6
Continuous
 62
     7
370
    30
100
AcDbLine
 10
125.9435969678
 20
253.1870722129
 30
0.0
 11
125.7435969681
 21
252.9870722129
 31
0.0
  0
LINE
  5
C6
330
1F
100
AcDbEntity
  8
0
  6
Continuous
 62
     7
370
    30
100
AcDbLine
 10
125.7435969678
 20
211.1885503946
 30
0.0
 11
126.2435969669
 21
210.6885503946
 31
0.0
  0
LINE
  5
C7
330
1F
100
AcDbEntity
  8
0
  6
Continuous
 62
     7
370
    30
100
AcDbLine
 10
154.2435969687
 20
210.6885503946
 30
0.0
 11
154.7435969678
 21
211.1885503946
 31
0.0
  0
LINE
  5
C8
330
1F
100
AcDbEntity
  8
0
  6
Continuous
 62
     7
370
    30
100
AcDbLine
 10
154.7435969678
 20
211.1885503946
 30
0.0
 11
154.7435969678
 21
252.9870722129
 31
0.0
  0
LINE
  5
C9
330
1F
100
AcDbEntity
  8
0
  6
Continuous
 62
     7
370
    30
100
AcDbLine
 10
125.7435969678
 20
252.9870722129
 30
0.0
 11
125.7435969678
 21
225.2879277871
 31
0.0
  0
LINE
  5
CA
330
1F
100
AcDbEntity
  8
0
  6
Continuous
 62
     7
370
    30
100
AcDbLine
 10
125.7435969678
 20
212.6879277871
 30
0.0
 11
125.7435969678
 21
211.1885503946
 31
0.0
  0
LINE
  5
CB
330
1F
100
AcDbEntity
  8
0
  6
Continuous
 62
     7
370
    30
100
AcDbLine
 10
53.2435324558
 20
212.1379277871
 30
0.0
 11
53.2435324558
 21
212.783971442
 31
0.0
  0
LINE
  5
CC
330
1F
100
AcDbEntity
  8
0
  6
Continuous
 62
     7
370
    30
100
AcDbLine
 10
27.4935324558
 20
213.6998947871
 30
0.0
 11
27.4935324558
 21
212.1379277871
 31
0.0
  0
LINE
  5
CD
330
1F
100
AcDbEntity
  8
0
  6
Continuous
 62
     7
370
    30
100
AcDbLine
 10
51.2435324558
 20
211.1695719974
 30
0.0
 11
51.2435324558
 21
212.1379277871
 31
0.0
  0
LINE
  5
CE
330
1F
100
AcDbEntity
  8
0
  6
Continuous
 62
     7
370
    30
100
AcDbLine
 10
29.2435324558
 20
212.1379277871
 30
0.0
 11
29.2435324558
 21
211.1695719974
 31
0.0
  0
LINE
  5
CF
330
1F
100
AcDbEntity
  8
0
  6
Continuous
 62
     7
370
    30
100
AcDbLine
 10
27.5935324558
 20
221.8880469725
 30
0.0
 11
27.5935324558
 21
213.6998947871
 31
0.0
  0
SPLINE
  5
D0
330
1F
100
AcDbEntity
  8
0
  6
Continuous
 62
     7
370
    30
100
AcDbSpline
210
0.0
220
0.0
230
1.0
 70
     8
 71
     3
 72
    86
 73
    82
 74
     0
 42
0.000000001
 43
0.00000001
 40
0.0
 40
0.0
 40
0.0
 40
0.0
 40
0.0049299301071959
 40
0.0089902834099455
 40
0.0121741171041108
 40
0.0145508422595001
 40
0.0168347316902921
 40
0.0192050389715913
 40
0.0216621245477392
 40
0.0288695967226176
 40
0.0365171806074441
 40
0.0498540065114333
 40
0.062708209482979
 40
0.073921454878387
 40
0.0855301999103517
 40
0.0976089733687397
 40
0.1101638219291582
 40
0.1257388695306118
 40
0.1420065818646968
 40
0.1588161443910009
 40
0.1759145234029762
 40
0.1932970229399988
 40
0.2109617861117383
 40
0.2280847815620264
 40
0.2454602567025026
 40
0.2630851955885287
 40
0.2809525541232812
 40
0.2985105151061895
 40
0.3153514487968048
 40
0.3314602429795189
 40
0.3468235904329924
 40
0.3554852051407458
 40
0.3638841231054314
 40
0.3720184305440171
 40
0.3798621057964914
 40
0.3869943641863053
 40
0.3932605724824539
 40
0.3965465716285883
 40
0.3995305031677794
 40
0.4022266306091655
 40
0.405297279898034
 40
0.4090903235415763
 40
0.4130032978337699
 40
0.4166899003361723
 40
0.4201873796886891
 40
0.431236634990836
 40
0.4419239095909935
 40
0.4529924224060261
 40
0.4650168633147288
 40
0.4751350671902911
 40
0.4858425452158227
 40
0.4971382282715484
 40
0.5090205378380391
 40
0.5201237479139892
 40
0.5316909319708637
 40
0.5437196592486089
 40
0.5562069986095544
 40
0.5692929036380965
 40
0.58312782236705
 40
0.5977055806883415
 40
0.6130186686746408
 40
0.6293564446401799
 40
0.6464362418145893
 40
0.6642452372993524
 40
0.6827687006861002
 40
0.7019898777278112
 40
0.7215287247996766
 40
0.7417024236722529
 40
0.7624888945246727
 40
0.7838639027308015
 40
0.8024424654441175
 40
0.8214084297055448
 40
0.8407433483658844
 40
0.8604277022104859
 40
0.8804409400290195
 40
0.9007615303713735
 40
0.920182389837185
 40
0.9398370303250685
 40
0.9597053460789826
 40
0.9797666998351475
 40
1.0
 40
1.0
 40
1.0
 40
1.0
 10
30.99352816948686
 20
225.2879277871062
 30
0.0
 10
30.98475197523223
 20
225.2879084650648
 30
0.0
 10
30.96874759547548
 20
225.2878732291437
 30
0.0
 10
30.94707660339792
 20
225.2876274883928
 30
0.0
 10
30.92995192310966
 20
225.2873444595587
 30
0.0
 10
30.91599041737295
 20
225.2870510794262
 30
0.0
 10
30.90347786695044
 20
225.2867426581223
 30
0.0
 10
30.89082352122008
 20
225.2863843649288
 30
0.0
 10
30.86941025795656
 20
225.2856968545857
 30
0.0
 10
30.83861497823034
 20
225.2844740520674
 30
0.0
 10
30.78849338795236
 20
225.2818978837209
 30
0.0
 10
30.72838819484276
 20
225.2778144388473
 30
0.0
 10
30.66205719591705
 20
225.2719351537714
 30
0.0
 10
30.59890902597003
 20
225.2651328011687
 30
0.0
 10
30.53726227233926
 20
225.2573721167936
 30
0.0
 10
30.47340645110726
 20
225.24812356102
 30
0.0
 10
30.4027739681509
 20
225.2364942284224
 30
0.0
 10
30.32508257815422
 20
225.2219329832441
 30
0.0
 10
30.24037102174362
 20
225.2038521923245
 30
0.0
 10
30.15352020979374
 20
225.1829420353879
 30
0.0
 10
30.06534010448956
 20
225.159210727822
 30
0.0
 10
29.97637555399082
 20
225.1326649216365
 30
0.0
 10
29.88813320497467
 20
225.1036667744687
 30
0.0
 10
29.8007286234573
 20
225.0722732936723
 30
0.0
 10
29.71427225909276
 20
225.0385489875306
 30
0.0
 10
29.62755427867461
 20
225.0019456081189
 30
0.0
 10
29.5415941499431
 20
224.9628046228165
 30
0.0
 10
29.45801037291065
 20
224.9219011732921
 30
0.0
 10
29.37833691450673
 20
224.8802068658535
 30
0.0
 10
29.30318378533082
 20
224.8383660619159
 30
0.0
 10
29.24163213255314
 20
224.8020764707552
 30
0.0
 10
29.19247065261109
 20
224.7718275854067
 30
0.0
 10
29.15458816058611
 20
224.7478130135712
 30
0.0
 10
29.11824041308948
 20
224.7241041796208
 30
0.0
 10
29.08406615529704
 20
224.7011966806606
 30
0.0
 10
29.05290432686462
 20
224.6797730043796
 30
0.0
 10
29.02860703088335
 20
224.6626893927253
 30
0.0
 10
29.01044792408107
 20
224.6497169256738
 30
0.0
 10
28.99750606950972
 20
224.640374956184
 30
0.0
 10
28.98491586856747
 20
224.6312011184647
 30
0.0
 10
28.97120706572231
 20
224.6211168440246
 30
0.0
 10
28.95581477083198
 20
224.6096658006504
 30
0.0
 10
28.93961627236508
 20
224.5974620002785
 30
0.0
 10
28.92390925192638
 20
224.5854808495255
 30
0.0
 10
28.89821294608918
 20
224.5656496420706
 30
0.0
 10
28.86296453852928
 20
224.5377982686302
 30
0.0
 10
28.81776575490849
 20
224.5008140167595
 30
0.0
 10
28.77188061728471
 20
224.4619405027457
 30
0.0
 10
28.72746849742554
 20
224.4229095245286
 30
0.0
 10
28.68421812180937
 20
224.3835456282902
 30
0.0
 10
28.64256209672562
 20
224.3443681597969
 30
0.0
 10
28.59933887450425
 20
224.3022857025089
 30
0.0
 10
28.55639276446372
 20
224.2589225527171
 30
0.0
 10
28.51390296713614
 20
224.2144421426527
 30
0.0
 10
28.4720349328062
 20
224.1690203727088
 30
0.0
 10
28.42937938822838
 20
224.1209878644773
 30
0.0
 10
28.38590025412076
 20
224.0700869089061
 30
0.0
 10
28.34141291610594
 20
224.0158362107309
 30
0.0
 10
28.29578362175839
 20
223.9577296164521
 30
0.0
 10
28.24908315014647
 20
223.8954464241845
 30
0.0
 10
28.2012684629932
 20
223.8284567265632
 30
0.0
 10
28.15263599839214
 20
223.7566093450621
 30
0.0
 10
28.10351185982475
 20
223.6797656827013
 30
0.0
 10
28.05450566197666
 20
223.59826919904
 30
0.0
 10
28.00597343471718
 20
223.5120847155691
 30
0.0
 10
27.95858553499614
 20
223.421771279107
 30
0.0
 10
27.91268300781434
 20
223.3274148278148
 30
0.0
 10
27.86860442478602
 20
223.2291287193499
 30
0.0
 10
27.82646849973144
 20
223.1264503350468
 30
0.0
 10
27.78874521872006
 20
223.0250932268009
 30
0.0
 10
27.75525721337612
 20
222.9256798797952
 30
0.0
 10
27.72577195466211
 20
222.8287961660334
 30
0.0
 10
27.69869763771245
 20
222.7291691286646
 30
0.0
 10
27.67425485957292
 20
222.6269451466622
 30
0.0
 10
27.65265618102244
 20
222.5222896568982
 30
0.0
 10
27.6344619666169
 20
222.4174640265287
 30
0.0
 10
27.61964235214302
 20
222.3127557651889
 30
0.0
 10
27.60811405916115
 20
222.208441740509
 30
0.0
 10
27.59980309628965
 20
222.1026834478509
 30
0.0
 10
27.59452050814524
 20
221.9956854965348
 30
0.0
 10
27.59386272831846
 20
221.9239505140409
 30
0.0
 10
27.59353243495732
 20
221.8879299680904
 30
0.0
  0
LINE
  5
D1
330
1F
100
AcDbEntity
  8
0
  6
Continuous
 62
     7
370
    30
100
AcDbLine
 10
53.8934224141
 20
212.6879277871
 30
0.0
 11
125.7435969678
 21
212.6879277871
 31
0.0
  0
LINE
  5
D2
330
1F
100
AcDbEntity
  8
0
  6
Continuous
 62
     7
370
    30
100
AcDbLine
 10
125.7435969678
 20
225.2879277871
 30
0.0
 11
30.9935281852
 21
225.2879277871
 31
0.0
  0
LINE
  5
D3
330
1F
100
AcDbEntity
  8
0
  6
Continuous
 62
     7
370
    30
100
AcDbLine
 10
40.2390211484
 20
211.1695719974
 30
0.0
 11
28.8435324558
 21
211.1695719974
 31
0.0
  0
LINE
  5
D4
330
1F
100
AcDbEntity
  8
0
  6
Continuous
 62
     7
370
    30
100
AcDbLine
 10
51.6435324558
 20
211.1695719974
 30
0.0
 11
40.2390211484
 21
211.1695719974
 31
0.0
  0
LINE
  5
D5
330
1F
100
AcDbEntity
  8
0
  6
Continuous
 62
     7
370
    30
100
AcDbLine
 10
50.6435324558
 20
193.8129277871
 30
0.0
 11
29.8435324558
 21
193.8129277871
 31
0.0
  0
LINE
  5
D6
330
1F
100
AcDbEntity
  8
0
  6
Continuous
 62
     7
370
    30
100
AcDbLine
 10
125.9435969678
 20
253.1870722129
 30
0.0
 11
154.5435969678
 21
253.1870722129
 31
0.0
  0
LINE
  5
D7
330
1F
100
AcDbEntity
  8
0
  6
Continuous
 62
     7
370
    30
100
AcDbLine
 10
154.7435969678
 20
252.9870722129
 30
0.0
 11
125.7435969678
 21
252.9870722129
 31
0.0
  0
LINE
  5
D8
330
1F
100
AcDbEntity
  8
0
  6
Continuous
 62
     7
370
    30
100
AcDbLine
 10
125.7435969678
 20
211.1885503946
 30
0.0
 11
154.7435969678
 21
211.1885503946
 31
0.0
  0
LINE
  5
D9
330
1F
100
AcDbEntity
  8
0
  6
Continuous
 62
     7
370
    30
100
AcDbLine
 10
154.2435969678
 20
210.6885503946
 30
0.0
 11
126.2435969678
 21
210.6885503946
 31
0.0
  0
LINE
  5
DA
330
1F
100
AcDbEntity
  8
0
  6
Continuous
 62
     7
370
    30
100
AcDbLine
 10
42.7757096072
 20
212.1379277871
 30
0.0
 11
42.7757096072
 21
213.6998947871
 31
0.0
  0
LINE
  5
DB
330
1F
100
AcDbEntity
  8
0
  6
Continuous
 62
     7
370
    30
100
AcDbLine
 10
43.9842189742
 20
213.6998947871
 30
0.0
 11
42.7757096072
 21
213.6998947871
 31
0.0
  0
LINE
  5
DC
330
1F
100
AcDbEntity
  8
0
  6
Continuous
 62
     7
370
    30
100
AcDbLine
 10
53.2435324558
 20
212.1379277871
 30
0.0
 11
42.7757096072
 21
212.1379277871
 31
0.0
  0
LINE
  5
DD
330
1F
100
AcDbEntity
  8
0
  6
Continuous
 62
     7
370
    30
100
AcDbLine
 10
42.7757096072
 20
213.6998947871
 30
0.0
 11
40.2384869146
 21
213.6998947871
 31
0.0
  0
LINE
  5
DE
330
1F
100
AcDbEntity
  8
0
  6
Continuous
 62
     7
370
    30
100
AcDbLine
 10
40.2384869146
 20
212.1379277871
 30
0.0
 11
42.7757096072
 21
212.1379277871
 31
0.0
  0
LINE
  5
DF
330
1F
100
AcDbEntity
  8
0
  6
Continuous
 62
     7
370
    30
100
AcDbLine
 10
40.2384869146
 20
213.6998947871
 30
0.0
 11
27.4935324558
 21
213.6998947871
 31
0.0
  0
LINE
  5
E0
330
1F
100
AcDbEntity
  8
0
  6
Continuous
 62
     7
370
    30
100
AcDbLine
 10
27.4935324558
 20
212.1379277871
 30
0.0
 11
40.2384869146
 21
212.1379277871
 31
0.0
  0
SPLINE
  5
E1
330
1F
100
AcDbEntity
  8
0
  6
Continuous
 62
     7
370
    30
100
AcDbSpline
210
0.0
220
0.0
230
1.0
 70
     8
 71
     3
 72
    69
 73
    65
 74
     0
 42
0.000000001
 43
0.00000001
 40
0.0
 40
0.0
 40
0.0
 40
0.0
 40
0.0160515514622727
 40
0.0330654189652751
 40
0.0501001579739613
 40
0.0671348971884223
 40
0.0837125013624146
 40
0.1002925118804016
 40
0.1168725243846857
 40
0.1334501312676571
 40
0.1501052675474164
 40
0.1667628385992517
 40
0.1834204128488034
 40
0.2000755534897234
 40
0.2160221588474539
 40
0.2319708944373219
 40
0.2479196334911381
 40
0.2638662435730647
 40
0.2798813928215811
 40
0.295898691698895
 40
0.3119159946337806
 40
0.3279311494160906
 40
0.3449424097718712
 40
0.3619536711202914
 40
0.3789854860231854
 40
0.396017301937049
 40
0.4125888842657194
 40
0.4291628268197596
 40
0.4457367742775092
 40
0.4623083632940105
 40
0.478955901180552
 40
0.4956058213490626
 40
0.5122557461022351
 40
0.5289032902414863
 40
0.5448376200144714
 40
0.5607740306530355
 40
0.5767104445382493
 40
0.5926447787390604
 40
0.6086460690359188
 40
0.6246494600716808
 40
0.6406528535908688
 40
0.6566541472746659
 40
0.6723751326729944
 40
0.6880961183702823
 40
0.7038330297969368
 40
0.719569941436447
 40
0.7371628476692281
 40
0.7547571455754173
 40
0.7723500523034137
 40
0.7899932816414316
 40
0.8076379141121668
 40
0.8252811430831765
 40
0.8396532344899205
 40
0.8540260845821823
 40
0.8683981754841684
 40
0.8827976843515218
 40
0.8971979569522027
 40
0.9115974650144214
 40
0.9263161753954843
 40
0.9410357025947661
 40
0.9557544117945368
 40
0.970502667244593
 40
0.9852517460135384
 40
0.9999999999999999
 40
0.9999999999999999
 40
0.9999999999999999
 40
0.9999999999999999
 10
53.89342241409137
 20
212.6879443149204
 30
0.0
 10
53.89308746261278
 20
212.6879906755481
 30
0.0
 10
53.89239747878172
 20
212.6880861761969
 30
0.0
 10
53.88625973478727
 20
212.6890029288016
 30
0.0
 10
53.87624996274671
 20
212.6905058305509
 30
0.0
 10
53.86218567301623
 20
212.6926213229608
 30
0.0
 10
53.84431181051316
 20
212.695311082499
 30
0.0
 10
53.82273142194086
 20
212.6985569687009
 30
0.0
 10
53.797299155636
 20
212.7023778266854
 30
0.0
 10
53.76797492882268
 20
212.706776756449
 30
0.0
 10
53.73474128970446
 20
212.7117533580656
 30
0.0
 10
53.69759047447536
 20
212.7173038573733
 30
0.0
 10
53.65658876291707
 20
212.7234134437022
 30
0.0
 10
53.61238528557862
 20
212.7299807833167
 30
0.0
 10
53.5651755072402
 20
212.7369729838978
 30
0.0
 10
53.51515855545154
 20
212.744355672434
 30
0.0
 10
53.46166274754076
 20
212.7522224906077
 30
0.0
 10
53.40462287136723
 20
212.7605771054207
 30
0.0
 10
53.34403119625517
 20
212.7694145275356
 30
0.0
 10
53.2798885897888
 20
212.7787270654947
 30
0.0
 10
53.21230359520926
 20
212.7884915003769
 30
0.0
 10
53.13982465464976
 20
212.7989090814724
 30
0.0
 10
53.06221788122321
 20
212.8100014805701
 30
0.0
 10
52.97921716877334
 20
212.8217922042134
 30
0.0
 10
52.89238564416289
 20
212.834047633214
 30
0.0
 10
52.80256386476875
 20
212.8466388043197
 30
0.0
 10
52.70992431864894
 20
212.8595335765831
 30
0.0
 10
52.61461172732982
 20
212.872703724028
 30
0.0
 10
52.51581037976015
 20
212.8862516842473
 30
0.0
 10
52.41339634106633
 20
212.9001831450292
 30
0.0
 10
52.3073721380042
 20
212.9144858077632
 30
0.0
 10
52.19774934478301
 20
212.9291451101245
 30
0.0
 10
52.08472760387222
 20
212.9441217405825
 30
0.0
 10
51.97000586915233
 20
212.9591801420424
 30
0.0
 10
51.85377439832137
 20
212.9742902389217
 30
0.0
 10
51.73622257684668
 20
212.9894229815355
 30
0.0
 10
51.61567866326281
 20
213.004784012792
 30
0.0
 10
51.4920057067545
 20
213.0203787322133
 30
0.0
 10
51.36521315194012
 20
213.0361930867337
 30
0.0
 10
51.23531754903569
 20
213.0522117348735
 30
0.0
 10
51.1025365942625
 20
213.0683950638119
 30
0.0
 10
50.96770153899752
 20
213.084630282455
 30
0.0
 10
50.83090376465606
 20
213.1008978336206
 30
0.0
 10
50.69218380439883
 20
213.1171847527115
 30
0.0
 10
50.55076360778343
 20
213.1335709809929
 30
0.0
 10
50.40101250298262
 20
213.1506874077424
 30
0.0
 10
50.24263969051752
 20
213.1685211700115
 30
0.0
 10
50.07531794964346
 20
213.1870572970803
 30
0.0
 10
49.90470891300023
 20
213.2056401469466
 30
0.0
 10
49.73085251547595
 20
213.2242462982403
 30
0.0
 10
49.55379580973148
 20
213.2428520319722
 30
0.0
 10
49.38488507290674
 20
213.2602687884993
 30
0.0
 10
49.22477745530831
 20
213.2764858613827
 30
0.0
 10
49.07405047332163
 20
213.2915032246084
 30
0.0
 10
48.92134823594373
 20
213.3064612194659
 30
0.0
 10
48.76669695600837
 20
213.321346913945
 30
0.0
 10
48.61012580125423
 20
213.3361475380516
 30
0.0
 10
48.45059514030793
 20
213.350949584391
 30
0.0
 10
48.28809143213302
 20
213.3657373819488
 30
0.0
 10
48.12260262702005
 20
213.3804942567969
 30
0.0
 10
47.95524650492515
 20
213.395110475069
 30
0.0
 10
47.78601465046317
 20
213.4095674173062
 30
0.0
 10
47.61508882977558
 20
213.4238704615221
 30
0.0
 10
47.4997404353408
 20
213.4332420992545
 30
0.0
 10
47.44206785076642
 20
213.4379277870993
 30
0.0
  0
LINE
  5
E2
330
1F
100
AcDbEntity
  8
0
  6
Continuous
 62
     7
370
    30
100
AcDbLine
 10
47.4420678508
 20
213.4379277871
 30
0.0
 11
46.1179316405
 21
213.4379277871
 31
0.0
  0
CIRCLE
  5
E3
330
1F
100
AcDbEntity
  8
0
  6
Continuous
 62
     7
370
    30
100
AcDbCircle
 10
253.519487107
 20
125.2435969678
 30
0.0
 40
14.30000000000007
  0
CIRCLE
  5
E4
330
1F
100
AcDbEntity
  8
0
  6
Continuous
 62
     7
370
    30
100
AcDbCircle
 10
253.519487107
 20
125.2435969678
 30
0.0
 40
14.50000000000003
  0
ARC
  5
E5
330
1F
100
AcDbEntity
  8
0
  6
Continuous
 62
     7
370
    30
100
AcDbCircle
 10
253.4799142066
 20
25.2435324558
 30
0.0
 40
12.75000000000005
100
AcDbArc
 50
179.9773264141
 51
359.9773264141
  0
LINE
  5
E6
330
1F
100
AcDbEntity
  8
0
  6
Continuous
 62
     7
370
    30
100
AcDbLine
 10
240.729915205
 20
25.2485779969
 30
0.0
 11
240.7309192569
 21
27.7858006895
 31
0.0
  0
LWPOLYLINE
  5
E7
330
1F
100
AcDbEntity
  8
0
  6
Continuous
 62
     7
370
    30
100
AcDbPolyline
 90
        3
 70
   128
 43
0.0
 10
240.7309192569
 20
27.7858006895
 10
240.792492031
 20
28.0771376747
 10
240.830627899
 20
28.2427916821
  0
LWPOLYLINE
  5
E8
330
1F
100
AcDbEntity
  8
0
  6
Continuous
 62
     7
370
    30
100
AcDbPolyline
 90
        3
 70
   128
 43
0.0
 10
266.1313194407
 20
28.2338410692
 10
266.1695750863
 20
28.0670952334
 10
266.2309172603
 20
27.7757096072
  0
LINE
  5
E9
330
1F
100
AcDbEntity
  8
0
  6
Continuous
 62
     7
370
    30
100
AcDbLine
 10
266.2309172603
 20
27.7757096072
 30
0.0
 11
266.2299132083
 21
25.2384869146
 31
0.0
  0
SPLINE
  5
EA
330
1F
100
AcDbEntity
  8
0
  6
Continuous
 62
     7
370
    30
100
AcDbSpline
210
0.0
220
0.0
230
1.0
 70
     8
 71
     3
 72
    97
 73
    93
 74
     0
 42
0.000000001
 43
0.00000001
 40
0.0
 40
0.0
 40
0.0
 40
0.0
 40
0.0057513120289138
 40
0.0136317635350487
 40
0.0236415346572136
 40
0.0336954683116498
 40
0.045251915313306
 40
0.0583108393858596
 40
0.0714336609038798
 40
0.0826113300586296
 40
0.0931503855796266
 40
0.1047518025326137
 40
0.1154672707411768
 40
0.1252975935959091
 40
0.1342438208483159
 40
0.1427296900821423
 40
0.1522987781547411
 40
0.1629537358488692
 40
0.1746964680601385
 40
0.1875283845780158
 40
0.2014505535304658
 40
0.2179527295508787
 40
0.2325130382188978
 40
0.24513136920817
 40
0.2495574240077349
 40
0.2536837079761957
 40
0.2575102237880871
 40
0.2610369750935004
 40
0.2642639668564041
 40
0.2671912058661819
 40
0.2940287552392326
 40
0.3198248311444855
 40
0.344584831803408
 40
0.3683148733317188
 40
0.3910219149612717
 40
0.4215303208339836
 40
0.4520374369469844
 40
0.4788876346599718
 40
0.4819025268966711
 40
0.4849174708933187
 40
0.4879324698605018
 40
0.4909475270086318
 40
0.4939626455479341
 40
0.4969778286884389
 40
0.499993079639969
 40
0.5016839867228726
 40
0.5068589297503389
 40
0.5152003059361387
 40
0.5212547217495599
 40
0.5283021588442975
 40
0.5363426027242956
 40
0.5453760355801739
 40
0.5545759154616405
 40
0.5613695578797577
 40
0.5679377667746691
 40
0.5742805706651077
 40
0.5837922867813317
 40
0.5927476474161331
 40
0.6011468205015775
 40
0.6089900115821343
 40
0.6300963635594828
 40
0.6521186320161921
 40
0.6750625249013201
 40
0.7067623916760196
 40
0.7110354807229377
 40
0.7153364719895937
 40
0.7196653860404502
 40
0.7240222430443853
 40
0.7284070627845004
 40
0.7328198646676185
 40
0.7415338286921989
 40
0.7524648969830816
 40
0.7656130224055404
 40
0.7809780956852259
 40
0.7985599634873631
 40
0.8190062464588035
 40
0.8370185690744304
 40
0.852601278964564
 40
0.8657613060255039
 40
0.8814557941320018
 40
0.8997040308263061
 40
0.9059682112441361
 40
0.91248521250762
 40
0.9192551170864103
 40
0.926277998389878
 40
0.9335539220192349
 40
0.9499698291594219
 40
0.9642492045881206
 40
0.9763919291332479
 40
0.9863979346007447
 40
0.9942672329710588
 40
1.0
 40
1.0
 40
1.0
 40
1.0
 10
266.1299132161203
 20
25.23852648750434
 30
0.0
 10
266.1294748519007
 20
25.16222150355905
 30
0.0
 10
266.1284358407405
 20
24.98136338067189
 30
0.0
 10
266.1183852841032
 20
24.66785534790364
 30
0.0
 10
266.096645492142
 20
24.29775786203585
 30
0.0
 10
266.0586563116414
 20
23.87999010500468
 30
0.0
 10
266.0015164958157
 20
23.42360664817474
 30
0.0
 10
265.9201156047425
 20
22.92958706234235
 30
0.0
 10
265.8194760388319
 20
22.44427792409936
 30
0.0
 10
265.7083950002469
 20
21.99560522281512
 30
0.0
 10
265.5875634532558
 20
21.57037258757283
 30
0.0
 10
265.4538595599159
 20
21.15538632658386
 30
0.0
 10
265.3088648201339
 20
20.75418901121065
 30
0.0
 10
265.1640291443438
 20
20.39064224536191
 30
0.0
 10
265.0202931878408
 20
20.05872163618749
 30
0.0
 10
264.8690550568865
 20
19.73417896138778
 30
0.0
 10
264.6986784224691
 20
19.39411615462039
 30
0.0
 10
264.4972312680235
 20
19.02202719346147
 30
0.0
 10
264.2611721180863
 20
18.62037843647346
 30
0.0
 10
263.9867359627115
 20
18.19208783183848
 30
0.0
 10
263.658789088771
 20
17.72460884625249
 30
0.0
 10
263.2950565261997
 20
17.25530983316336
 30
0.0
 10
262.9201070045628
 20
16.81726667448279
 30
0.0
 10
262.6355676607969
 20
16.51212963278628
 30
0.0
 10
262.4396047975555
 20
16.31291060690364
 30
0.0
 10
262.3234620258809
 20
16.19795713324038
 30
0.0
 10
262.2144279744615
 20
16.0926941402538
 30
0.0
 10
262.1128140609339
 20
15.99682984361864
 30
0.0
 10
262.0189019060242
 20
15.91009013217599
 30
0.0
 10
261.6959790789834
 20
15.61754477955231
 30
0.0
 10
261.128602796697
 20
15.14976183143767
 30
0.0
 10
260.2865664795028
 20
14.56512092949243
 30
0.0
 10
259.4355420228744
 20
14.06931324777003
 30
0.0
 10
258.5854506093752
 20
13.65730026766325
 30
0.0
 10
257.6362131941179
 20
13.28005454205559
 30
0.0
 10
256.5715584847591
 20
12.95707908350636
 30
0.0
 10
255.4269757787417
 20
12.72685026509136
 30
0.0
 10
254.629641397238
 20
12.64022495136355
 30
0.0
 10
254.1942868588821
 20
12.61352971982158
 30
0.0
 10
254.0744616212276
 20
12.60732208467305
 30
0.0
 10
253.9545838071553
 20
12.6022513700655
 30
0.0
 10
253.834662761352
 20
12.59831786183072
 30
0.0
 10
253.7147110084691
 20
12.59552195485773
 30
0.0
 10
253.5947338343591
 20
12.59386390692331
 30
0.0
 10
253.4923276892174
 20
12.59341995131594
 30
0.0
 10
253.3612291634429
 20
12.5938221005085
 30
0.0
 10
253.1594826900154
 20
12.59662038451255
 30
0.0
 10
252.8999655462678
 20
12.6057418913043
 30
0.0
 10
252.6159419574836
 20
12.62217131701186
 30
0.0
 10
252.3362909223643
 20
12.64413868126127
 30
0.0
 10
252.0179156205339
 20
12.67676710786898
 30
0.0
 10
251.6722011045765
 20
12.7216089372528
 30
0.0
 10
251.3442518295312
 20
12.77375013433271
 30
0.0
 10
251.0498995762599
 20
12.82817494747906
 30
0.0
 10
250.7938723507205
 20
12.88110191884871
 30
0.0
 10
250.5038121184232
 20
12.94723434117709
 30
0.0
 10
250.1847596706938
 20
13.02839829630587
 30
0.0
 10
249.8419721469014
 20
13.12628603173009
 30
0.0
 10
249.5231057605385
 20
13.22683547053379
 30
0.0
 10
249.0544823741422
 20
13.38788158991237
 30
0.0
 10
248.4252418742718
 20
13.63670194610306
 30
0.0
 10
247.6337750953329
 20
14.01358448446104
 30
0.0
 10
246.7492919150026
 20
14.51422163127381
 30
0.0
 10
246.1049386884588
 20
14.95592513936501
 30
0.0
 10
245.683387948256
 20
15.2812881661188
 30
0.0
 10
245.5497612145598
 20
15.38731941342936
 30
0.0
 10
245.416749757458
 20
15.49582697285135
 30
0.0
 10
245.2844028949455
 20
15.6068264945258
 30
0.0
 10
245.1527747819024
 20
15.7203302029052
 30
0.0
 10
244.9796786124765
 20
15.8738018771767
 30
0.0
 10
244.7463243949127
 20
16.08943007530005
 30
0.0
 10
244.4375095641966
 20
16.39291570760965
 30
0.0
 10
244.0801266008635
 20
16.77164005699422
 30
0.0
 10
243.6826514613387
 20
17.23240442938018
 30
0.0
 10
243.2504268818843
 20
17.78904356503253
 30
0.0
 10
242.8320096025091
 20
18.39965820695182
 30
0.0
 10
242.4642398235722
 20
19.0124903533798
 30
0.0
 10
242.1740718821761
 20
19.5593889522311
 30
0.0
 10
241.9216717416663
 20
20.09186109179221
 30
0.0
 10
241.6797893496885
 20
20.66837108129672
 30
0.0
 10
241.4998520889514
 20
21.17090817605666
 30
0.0
 10
241.3761225600426
 20
21.56354700281553
 30
0.0
 10
241.3031526270367
 20
21.81245622516115
 30
0.0
 10
241.2327759453141
 20
22.07253640125627
 30
0.0
 10
241.165642490058
 20
22.34384360065184
 30
0.0
 10
241.0767012061642
 20
22.74142427830857
 30
0.0
 10
240.9850908904231
 20
23.23689434470637
 30
0.0
 10
240.9088706771304
 20
23.80013418648963
 30
0.0
 10
240.8639477379097
 20
24.28135809217973
 30
0.0
 10
240.8409449436383
 20
24.67894094180148
 30
0.0
 10
240.8311817068658
 20
24.99201439355875
 30
0.0
 10
240.8302907165571
 20
25.17247919211679
 30
0.0
 10
240.8299151971256
 20
25.24853842405629
 30
0.0
  0
LINE
  5
EB
330
1F
100
AcDbEntity
  8
0
  6
Continuous
 62
     7
370
    30
100
AcDbLine
 10
240.8299151971
 20
25.2485384241
 30
0.0
 11
240.8666839317
 21
118.1625224346
 31
0.0
  0
LINE
  5
EC
330
1F
100
AcDbEntity
  8
0
  6
Continuous
 62
     7
370
    30
100
AcDbLine
 10
266.1666817742
 20
118.1520644466
 30
0.0
 11
266.1299132161
 21
25.2385264875
 31
0.0
  0
LINE
  5
ED
330
1F
100
AcDbEntity
  8
0
  6
Continuous
 62
     7
370
    30
100
AcDbLine
 10
377.1955548097
 20
49.7153755635
 30
0.0
 11
377.1955548097
 21
38.8650379517
 31
0.0
  0
LINE
  5
EE
330
1F
100
AcDbEntity
  8
0
  6
Continuous
 62
     7
370
    30
100
AcDbLine
 10
399.9955548097
 20
38.8650379517
 30
0.0
 11
399.9955548097
 21
49.4045985846
 31
0.0
  0
SPLINE
  5
EF
330
1F
100
AcDbEntity
  8
0
  6
Continuous
 62
     7
370
    30
100
AcDbSpline
210
0.0
220
0.0
230
1.0
 70
     8
 71
     3
 72
   263
 73
   259
 74
     0
 42
0.000000001
 43
0.00000001
 40
0.0
 40
0.0
 40
0.0
 40
0.0
 40
0.0009757488219929
 40
0.0046687799769892
 40
0.0083617911416105
 40
0.0120552902630949
 40
0.0157498266034829
 40
0.0194459451168317
 40
0.0231441844475553
 40
0.0268450749401234
 40
0.0305491366654893
 40
0.0342568774682954
 40
0.0379687910399652
 40
0.0416853550235178
 40
0.0454070291573017
 40
0.0491342534659017
 40
0.0528674465077437
 40
0.0566070036900293
 40
0.0603532956630225
 40
0.0641066668064513
 40
0.0678674338220481
 40
0.0716358844465826
 40
0.0754122763004988
 40
0.0791968358871524
 40
0.0829897577574852
 40
0.0867912038543676
 40
0.0906013030496887
 40
0.0944201508858521
 40
0.0982478095312493
 40
0.1020843079570415
 40
0.105929642339735
 40
0.1097837766909304
 40
0.1136466437122473
 40
0.1175181458699577
 40
0.1213981566801473
 40
0.1252865221917063
 40
0.1291830626510275
 40
0.1330875743291806
 40
0.1369998314894358
 40
0.1409195884709361
 40
0.1448465818623201
 40
0.1487805327382234
 40
0.1527211489308575
 40
0.1566681273092548
 40
0.1606211560393376
 40
0.1645799167995094
 40
0.1685440869282889
 40
0.1725133414827528
 40
0.1764873551894202
 40
0.1804658042719294
 40
0.1844483681430221
 40
0.188434730951426
 40
0.1924245829772858
 40
0.1964176218726264
 40
0.2004135537462625
 40
0.2044120940946472
 40
0.2084129685829113
 40
0.2124159136815217
 40
0.2164206771660296
 40
0.2204270184884785
 40
0.2244347090296679
 40
0.2284435322425407
 40
0.2324532836967759
 40
0.2364637710352869
 40
0.2404748138527834
 40
0.2444862435066029
 40
0.2484979028693678
 40
0.2525096307272452
 40
0.2565212647485493
 40
0.2605326838598795
 40
0.2645437769659582
 40
0.2685544425375835
 40
0.2725645881818746
 40
0.2765741302066238
 40
0.2805829931829671
 40
0.2845911095102357
 40
0.2885984189860223
 40
0.2926048683842498
 40
0.2966104110433861
 40
0.3006150064665905
 40
0.3046186199352173
 40
0.3086212221367267
 40
0.3126227888078292
 40
0.3166233003933384
 40
0.3206227417210878
 40
0.3246211016929854
 40
0.3286183729922192
 40
0.3326145518063844
 40
0.3366096375663271
 40
0.3406036327002245
 40
0.3445965424026348
 40
0.3485883744177584
 40
0.3525791388366945
 40
0.3565688479078551
 40
0.3605575158601099
 40
0.3645451587380012
 40
0.3685317942484651
 40
0.3725174416184369
 40
0.3765021214627565
 40
0.3804858556618513
 40
0.3844686672485318
 40
0.3884505803034619
 40
0.3924316198586906
 40
0.3964118118088176
 40
0.4003911828292456
 40
0.4043697603011014
 40
0.4083475722423204
 40
0.4123246472445807
 40
0.4163010144155757
 40
0.4202767033263166
 40
0.4242517439630664
 40
0.4282261666836321
 40
0.4322000021775859
 40
0.4361732814302147
 40
0.4401460356898742
 40
0.4441182964384597
 40
0.4480900953647884
 40
0.4520614643405826
 40
0.4560324353988899
 40
0.4600030407146973
 40
0.4639733125875671
 40
0.4679432834260056
 40
0.4719129857335502
 40
0.4758824520961938
 40
0.4798517151711795
 40
0.4838208076768685
 40
0.4877897623835658
 40
0.491758612105182
 40
0.4957273896915541
 40
0.4996961280213063
 40
0.5036648599951011
 40
0.5076336138797561
 40
0.5116024162782445
 40
0.5155713001212134
 40
0.5195402983376037
 40
0.5235094438478668
 40
0.5274787695569114
 40
0.5314483083465397
 40
0.535418093067255
 40
0.5393881565292549
 40
0.5433585314925371
 40
0.5473292506558582
 40
0.5513003466444756
 40
0.5552718519964767
 40
0.559243799147501
 40
0.5632162204137022
 40
0.5671891479727488
 40
0.5711626138426409
 40
0.5751366498581658
 40
0.579111287644728
 40
0.5830865585893569
 40
0.5870624938085542
 40
0.591039124112862
 40
0.595016479967712
 40
0.5989945914503084
 40
0.6029734882022878
 40
0.6069531993777163
 40
0.6109337535861251
 40
0.6149151788301999
 40
0.6188975024377116
 40
0.6228807509872681
 40
0.6268649502274282
 40
0.6308501249887737
 40
0.6348362990883482
 40
0.6388234952260649
 40
0.6428117348724388
 40
0.646801038147204
 40
0.6507914236881416
 40
0.6547829085096297
 40
0.6587755078501918
 40
0.6627692350085934
 40
0.666764101167717
 40
0.6707601152056673
 40
0.6747572834935596
 40
0.6787556096792254
 40
0.6827550944564885
 40
0.6867557353192657
 40
0.6907575263001592
 40
0.6947604576930142
 40
0.6987645157592356
 40
0.7027696824174374
 40
0.7067759349164934
 40
0.7107832454919132
 40
0.7147915810058332
 40
0.7188009025709678
 40
0.722811165159298
 40
0.7268223171963424
 40
0.7308343001423893
 40
0.7348470480622545
 40
0.738860487185685
 40
0.7428745354608859
 40
0.7468891021042156
 40
0.7509040871496022
 40
0.7549193810019063
 40
0.7589348639989998
 40
0.7629503820787453
 40
0.7669657686045267
 40
0.7709808674425515
 40
0.7749955107579685
 40
0.7790095187297897
 40
0.7830226993271516
 40
0.7870348481510965
 40
0.7910457483523081
 40
0.7950551706354196
 40
0.7990628733607872
 40
0.8030686027547805
 40
0.8070720932391464
 40
0.8110730678897308
 40
0.8150712390340461
 40
0.8190663089958796
 40
0.8230579709939377
 40
0.8270459101995857
 40
0.831029804956589
 40
0.8350093281633617
 40
0.8389841488154488
 40
0.8429539337028414
 40
0.8469183492536733
 40
0.8508770635124977
 40
0.8548297482379128
 40
0.8587760811012957
 40
0.8627157479651807
 40
0.8666484452173236
 40
0.8705738821341046
 40
0.874491783245202
 40
0.8784018906704312
 40
0.8823039663990557
 40
0.8861977944822861
 40
0.8900831831104428
 40
0.8939599665481367
 40
0.8978280069029118
 40
0.9016871957057278
 40
0.9055374552851349
 40
0.9093787399202271
 40
0.9132110367619294
 40
0.9170343665156218
 40
0.9208487838823822
 40
0.9246543777597752
 40
0.9284512712065935
 40
0.9322396211792368
 40
0.9360196180500766
 40
0.9397914849203732
 40
0.9435554767422301
 40
0.9473118792652054
 40
0.9510610078240472
 40
0.9548032059843751
 40
0.9585388440630623
 40
0.9622683175395007
 40
0.9659920453733738
 40
0.9697104682434788
 40
0.9734240467209477
 40
0.9771332593889446
 40
0.980838600919678
 40
0.9845405801179861
 40
0.9882397179395721
 40
0.9919365454907612
 40
0.9956316020152599
 40
0.9993254328727317
 40
1.0
 40
1.0
 40
1.0
 40
1.0
 10
377.1957206521346
 20
38.86513569548502
 30
0.0
 10
377.19567119987
 20
38.85744865917693
 30
0.0
 10
377.1954345798119
 20
38.8206675938161
 30
0.0
 10
377.1967146033688
 20
38.75479386092974
 30
0.0
 10
377.1996161454518
 20
38.66754019922094
 30
0.0
 10
377.2043561761542
 20
38.58032702066071
 30
0.0
 10
377.2107641940773
 20
38.49316515077635
 30
0.0
 10
377.2188852110393
 20
38.40606464702
 30
0.0
 10
377.2287066567107
 20
38.31903569271946
 30
0.0
 10
377.2402315694704
 20
38.2320884789707
 30
0.0
 10
377.2534589612787
 20
38.14523326585422
 30
0.0
 10
377.2683890671477
 20
38.05848039554246
 30
0.0
 10
377.2850219173554
 20
37.97184031814387
 30
0.0
 10
377.3033576969633
 20
37.88532361380209
 30
0.0
 10
377.3233966220839
 20
37.79894101527772
 30
0.0
 10
377.3451389421585
 20
37.7127034296539
 30
0.0
 10
377.3685849048455
 20
37.62662195927199
 30
0.0
 10
377.3937347275184
 20
37.54070792158178
 30
0.0
 10
377.4205885637509
 20
37.45497286767754
 30
0.0
 10
377.4491464681511
 20
37.36942859924194
 30
0.0
 10
377.4794083589413
 20
37.28408718362113
 30
0.0
 10
377.5113739788027
 20
37.19896096674066
 30
0.0
 10
377.5450428542633
 20
37.11406258357671
 30
0.0
 10
377.5804142540323
 20
37.02940496590426
 30
0.0
 10
377.6174871467079
 20
36.9450013470619
 30
0.0
 10
377.6562601583279
 20
36.86086526349788
 30
0.0
 10
377.6967315302687
 20
36.77701055289772
 30
0.0
 10
377.7388990780182
 20
36.69345134873702
 30
0.0
 10
377.78276015137
 20
36.61020207115604
 30
0.0
 10
377.8283115965829
 20
36.52727741410868
 30
0.0
 10
377.875549721047
 20
36.44469232880716
 30
0.0
 10
377.9244702609749
 20
36.36246200354815
 30
0.0
 10
377.975068352598
 20
36.28060184008068
 30
0.0
 10
378.0273385073045
 20
36.19912742674283
 30
0.0
 10
378.0812745910932
 20
36.11805450866686
 30
0.0
 10
378.1368698086426
 20
36.03739895540993
 30
0.0
 10
378.1941166922214
 20
35.95717672642954
 30
0.0
 10
378.2530070955701
 20
35.87740383486342
 30
0.0
 10
378.3135321928004
 20
35.7980963101142
 30
0.0
 10
378.3756824822578
 20
35.71927015975896
 30
0.0
 10
378.4394477952108
 20
35.64094133131553
 30
0.0
 10
378.5048173091344
 20
35.56312567439344
 30
0.0
 10
378.5717795652827
 20
35.48583890373954
 30
0.0
 10
378.6403224901744
 20
35.40909656366128
 30
0.0
 10
378.7104334205551
 20
35.33291399426727
 30
0.0
 10
378.7820991313571
 20
35.25730629991699
 30
0.0
 10
378.8553058661461
 20
35.18228832021286
 30
0.0
 10
378.9300393695266
 20
35.10787460380458
 30
0.0
 10
379.0062849209735
 20
35.0340793852108
 30
0.0
 10
379.0840273695687
 20
34.96091656479527
 30
0.0
 10
379.1632511691402
 20
34.88839969196904
 30
0.0
 10
379.243940413334
 20
34.81654195162897
 30
0.0
 10
379.3260788701869
 20
34.74535615378389
 30
0.0
 10
379.4096500158149
 20
34.67485472626835
 30
0.0
 10
379.4946370668804
 20
34.60504971040091
 30
0.0
 10
379.5810230115553
 20
34.535952759403
 30
0.0
 10
379.6687906387485
 20
34.46757513936987
 30
0.0
 10
379.7579225654189
 20
34.3999277325584
 30
0.0
 10
379.8484012618459
 20
34.33302104274696
 30
0.0
 10
379.9402090747745
 20
34.26686520241035
 30
0.0
 10
380.0333282483968
 20
34.20146998145481
 30
0.0
 10
380.127740943167
 20
34.13684479726066
 30
0.0
 10
380.2234292524847
 20
34.07299872578833
 30
0.0
 10
380.3203752173038
 20
34.00994051351628
 30
0.0
 10
380.4185608387541
 20
33.94767858999435
 30
0.0
 10
380.517968088873
 20
33.88622108081262
 30
0.0
 10
380.618578791617
 20
33.82557589792994
 30
0.0
 10
380.7203745203944
 20
33.76575080686186
 30
0.0
 10
380.8233368525709
 20
33.7067532787639
 30
0.0
 10
380.9274475097904
 20
33.6485904327953
 30
0.0
 10
381.0326884766815
 20
33.59126900056591
 30
0.0
 10
381.13904174137
 20
33.53479549189634
 30
0.0
 10
381.246489296232
 20
33.47917620659708
 30
0.0
 10
381.355013137784
 20
33.42441724573236
 30
0.0
 10
381.4645952658821
 20
33.37052452229859
 30
0.0
 10
381.5752176823374
 20
33.3175037712918
 30
0.0
 10
381.6868623890487
 20
33.26536055914802
 30
0.0
 10
381.7995113857447
 20
33.21410029255023
 30
0.0
 10
381.9131466674189
 20
33.16372822660298
 30
0.0
 10
382.0277502215337
 20
33.1142494723827
 30
0.0
 10
382.1433040250607
 20
33.06566900387594
 30
0.0
 10
382.2597900414186
 20
33.01799166432431
 30
0.0
 10
382.3771902173614
 20
32.97122217199592
 30
0.0
 10
382.4954864798643
 20
32.92536512540799
 30
0.0
 10
382.6146607330468
 20
32.88042500802624
 30
0.0
 10
382.7346948551681
 20
32.8364061924678
 30
0.0
 10
382.8555706957257
 20
32.79331294423684
 30
0.0
 10
382.9772700726795
 20
32.7511494250202
 30
0.0
 10
383.0997747698236
 20
32.70991969557232
 30
0.0
 10
383.2230665343237
 20
32.66962771821817
 30
0.0
 10
383.3471270744284
 20
32.63027735900085
 30
0.0
 10
383.4719380573715
 20
32.59187238950257
 30
0.0
 10
383.5974811074659
 20
32.55441648836356
 30
0.0
 10
383.7237378044001
 20
32.51791324252581
 30
0.0
 10
383.8506896817348
 20
32.48236614822441
 30
0.0
 10
383.978318225606
 20
32.44777861175066
 30
0.0
 10
384.1066048736301
 20
32.41415395000784
 30
0.0
 10
384.2355310140116
 20
32.38149539088131
 30
0.0
 10
384.3650779848505
 20
32.34980607344126
 30
0.0
 10
384.4952270736449
 20
32.31908904799746
 30
0.0
 10
384.6259595169851
 20
32.28934727602228
 30
0.0
 10
384.7572565004332
 20
32.2605836299586
 30
0.0
 10
384.8890991585841
 20
32.23280089292719
 30
0.0
 10
385.0214685753007
 20
32.20600175834731
 30
0.0
 10
385.1543457841168
 20
32.18018882948361
 30
0.0
 10
385.2877117688026
 20
32.15536461893157
 30
0.0
 10
385.4215474640844
 20
32.1315315480512
 30
0.0
 10
385.5558337565136
 20
32.10869194636101
 30
0.0
 10
385.6905514854759
 20
32.08684805089995
 30
0.0
 10
385.825681444336
 20
32.06600200556716
 30
0.0
 10
385.9612043817097
 20
32.04615586044605
 30
0.0
 10
386.0971010028572
 20
32.02731157112201
 30
0.0
 10
386.2333519711905
 20
32.0094709979978
 30
0.0
 10
386.3699379098883
 20
31.99263590561537
 30
0.0
 10
386.506839403613
 20
31.97680796198703
 30
0.0
 10
386.644037000322
 20
31.96198873794331
 30
0.0
 10
386.7815112131679
 20
31.94817970650032
 30
0.0
 10
386.9192425224809
 20
31.93538224225215
 30
0.0
 10
387.0572113778279
 20
31.92359762079076
 30
0.0
 10
387.1953982001428
 20
31.91282701815778
 30
0.0
 10
387.3337833839209
 20
31.903071510331
 30
0.0
 10
387.4723472994733
 20
31.89433207274773
 30
0.0
 10
387.611070295235
 20
31.88660957986841
 30
0.0
 10
387.7499327001208
 20
31.87990480478176
 30
0.0
 10
387.8889148259256
 20
31.87421841885412
 30
0.0
 10
388.0279969697612
 20
31.86955099142392
 30
0.0
 10
388.1671594165273
 20
31.86590298954347
 30
0.0
 10
388.3063824414087
 20
31.8632747777687
 30
0.0
 10
388.4456463123965
 20
31.86166661799824
 30
0.0
 10
388.5849312928266
 20
31.86107866936257
 30
0.0
 10
388.7242175895403
 20
31.86151098799512
 30
0.0
 10
388.8634853359125
 20
31.86296352462766
 30
0.0
 10
389.0027146686035
 20
31.86543612296843
 30
0.0
 10
389.1418857846938
 20
31.86892852176363
 30
0.0
 10
389.2809789637706
 20
31.87344035798952
 30
0.0
 10
389.4199744965149
 20
31.87897116628443
 30
0.0
 10
389.5588526872307
 20
31.88552037920261
 30
0.0
 10
389.6975938563552
 20
31.89308732751882
 30
0.0
 10
389.8361783429445
 20
31.90167124058334
 30
0.0
 10
389.9745865071292
 20
31.91127124672461
 30
0.0
 10
390.1127987325341
 20
31.92188637370118
 30
0.0
 10
390.2507954286589
 20
31.93351554919898
 30
0.0
 10
390.3885570332115
 20
31.94615760137428
 30
0.0
 10
390.5260640143916
 20
31.95981125943901
 30
0.0
 10
390.6632968731174
 20
31.97447515428813
 30
0.0
 10
390.8002361451894
 20
31.99014781916446
 30
0.0
 10
390.9368624033876
 20
32.00682769036071
 30
0.0
 10
391.0731562594937
 20
32.02451310795378
 30
0.0
 10
391.2090983662342
 20
32.04320231656941
 30
0.0
 10
391.3446694191376
 20
32.06289346617226
 30
0.0
 10
391.4798501582989
 20
32.08358461287865
 30
0.0
 10
391.614621370045
 20
32.10527371978617
 30
0.0
 10
391.748963888497
 20
32.12795865781603
 30
0.0
 10
391.8828585970174
 20
32.15163720656202
 30
0.0
 10
392.016286429541
 20
32.1763070551409
 30
0.0
 10
392.1492283717782
 20
32.20196580303561
 30
0.0
 10
392.2816654622873
 20
32.22861096092716
 30
0.0
 10
392.4135787934043
 20
32.25623995150342
 30
0.0
 10
392.5449495120278
 20
32.28485011023943
 30
0.0
 10
392.6757588202477
 20
32.31443868613744
 30
0.0
 10
392.8059879758135
 20
32.34500284241727
 30
0.0
 10
392.9356182924326
 20
32.37653965714567
 30
0.0
 10
393.0646311398928
 20
32.40904612379202
 30
0.0
 10
393.1930079440029
 20
32.44251915169758
 30
0.0
 10
393.3207301863424
 20
32.47695556644356
 30
0.0
 10
393.4477794038168
 20
32.51235211010272
 30
0.0
 10
393.5741371880107
 20
32.54870544135792
 30
0.0
 10
393.6997851843338
 20
32.58601213546924
 30
0.0
 10
393.8247050909562
 20
32.62426868407123
 30
0.0
 10
393.9488786575286
 20
32.66347149477924
 30
0.0
 10
394.072287683684
 20
32.70361689058273
 30
0.0
 10
394.1949140173217
 20
32.74470110900342
 30
0.0
 10
394.3167395526707
 20
32.7867203009921
 30
0.0
 10
394.437746228137
 20
32.82967052953946
 30
0.0
 10
394.5579160239367
 20
32.87354776797307
 30
0.0
 10
394.6772309595219
 20
32.91834789791211
 30
0.0
 10
394.7956730908066
 20
32.96406670684942
 30
0.0
 10
394.9132245072071
 20
33.01069988533217
 30
0.0
 10
395.0298673285081
 20
33.05824302370632
 30
0.0
 10
395.1455837015765
 20
33.10669160839629
 30
0.0
 10
395.2603557969436
 20
33.15604101768434
 30
0.0
 10
395.374165805285
 20
33.20628651695882
 30
0.0
 10
395.4869959338301
 20
33.25742325339822
 30
0.0
 10
395.5988284027405
 20
33.30944625006097
 30
0.0
 10
395.7096454415017
 20
33.36235039934978
 30
0.0
 10
395.8194292853799
 20
33.4161304558243
 30
0.0
 10
395.9281621720025
 20
33.4707810283374
 30
0.0
 10
396.0358263381301
 20
33.52629657147368
 30
0.0
 10
396.1424040166923
 20
33.58267137627593
 30
0.0
 10
396.2478774341727
 20
33.63989956024857
 30
0.0
 10
396.3522288084338
 20
33.69797505663668
 30
0.0
 10
396.4554403470827
 20
33.75689160298587
 30
0.0
 10
396.5574942464863
 20
33.81664272900105
 30
0.0
 10
396.6583726915542
 20
33.87722174372928
 30
0.0
 10
396.7580576585652
 20
33.93862160024666
 30
0.0
 10
396.8565309163546
 20
34.00083486406976
 30
0.0
 10
396.9537742196758
 20
34.06385380323739
 30
0.0
 10
397.0497695023835
 20
34.12767050081824
 30
0.0
 10
397.1444988844635
 20
34.19227685589723
 30
0.0
 10
397.2379445010626
 20
34.25766445538878
 30
0.0
 10
397.3300885121467
 20
34.32382455888666
 30
0.0
 10
397.4209131141253
 20
34.39074808377673
 30
0.0
 10
397.5104005535147
 20
34.45842559078407
 30
0.0
 10
397.5985331427473
 20
34.52684727017608
 30
0.0
 10
397.6852932782089
 20
34.59600292886136
 30
0.0
 10
397.7706634605626
 20
34.66588197864297
 30
0.0
 10
397.8546263173863
 20
34.73647342589436
 30
0.0
 10
397.9371646281138
 20
34.80776586293951
 30
0.0
 10
398.0182613512258
 20
34.87974746141912
 30
0.0
 10
398.0978996535964
 20
34.9524059679257
 30
0.0
 10
398.176062941842
 20
35.02572870217958
 30
0.0
 10
398.2527348954746
 20
35.09970255800212
 30
0.0
 10
398.3278995015987
 20
35.17431400731859
 30
0.0
 10
398.4015410908401
 20
35.24954910738858
 30
0.0
 10
398.4736443741385
 20
35.32539351142108
 30
0.0
 10
398.5441944799838
 20
35.40183248268232
 30
0.0
 10
398.6131769916322
 20
35.47885091214599
 30
0.0
 10
398.680577983797
 20
35.5564333396725
 30
0.0
 10
398.7463840582819
 20
35.63456397863642
 30
0.0
 10
398.8105823780048
 20
35.71322674384798
 30
0.0
 10
398.8731606988554
 20
35.79240528254387
 30
0.0
 10
398.9341073988401
 20
35.87208300815103
 30
0.0
 10
398.9934115039874
 20
35.95224313646025
 30
0.0
 10
399.0510627105282
 20
36.03286872378613
 30
0.0
 10
399.1070514029169
 20
36.11394270663858
 30
0.0
 10
399.1613686673229
 20
36.19544794239032
 30
0.0
 10
399.2140063003015
 20
36.27736725039673
 30
0.0
 10
399.2649568124367
 20
36.35968345301068
 30
0.0
 10
399.3142134268418
 20
36.44237941593566
 30
0.0
 10
399.3617700724983
 20
36.52543808737346
 30
0.0
 10
399.407621372513
 20
36.6088425354559
 30
0.0
 10
399.4517626274594
 20
36.69257598348644
 30
0.0
 10
399.4941897940638
 20
36.77662184257512
 30
0.0
 10
399.5348994595709
 20
36.86096374130853
 30
0.0
 10
399.5738888121925
 20
36.94558555216725
 30
0.0
 10
399.6111556080987
 20
37.03047141447429
 30
0.0
 10
399.646698135453
 20
37.11560575373143
 30
0.0
 10
399.6805151760204
 20
37.20097329727376
 30
0.0
 10
399.7126059648908
 20
37.28655908624076
 30
0.0
 10
399.7429701488631
 20
37.37234848392589
 30
0.0
 10
399.7716077440236
 20
37.45832718062299
 30
0.0
 10
399.798519093024
 20
37.54448119513511
 30
0.0
 10
399.8237048225591
 20
37.63079687315023
 30
0.0
 10
399.8471658014166
 20
37.7172608827182
 30
0.0
 10
399.8689030997615
 20
37.8038602070817
 30
0.0
 10
399.8889179490296
 20
37.89058213512441
 30
0.0
 10
399.9072117063914
 20
37.97741424970973
 30
0.0
 10
399.9237858104444
 20
38.06434441413803
 30
0.0
 10
399.9386417790019
 20
38.15136075710523
 30
0.0
 10
399.9517810605371
 20
38.23845165588758
 30
0.0
 10
399.9632054419508
 20
38.3256057198675
 30
0.0
 10
399.9729153955966
 20
38.41281176749619
 30
0.0
 10
399.9809161174814
 20
38.50005882329271
 30
0.0
 10
399.9871949130232
 20
38.5873360364973
 30
0.0
 10
399.9918054062003
 20
38.67463288875665
 30
0.0
 10
399.9945534606827
 20
38.76193832162053
 30
0.0
 10
399.9957285812442
 20
38.82546311976847
 30
0.0
 10
399.9954677420785
 20
38.85987747636673
 30
0.0
 10
399.9954274633477
 20
38.86519173430485
 30
0.0
  0
LINE
  5
F0
330
1F
100
AcDbEntity
  8
0
  6
Continuous
 62
     7
370
    30
100
AcDbLine
 10
469.5889751593
 20
133.0888760595
 30
0.0
 11
469.4475308237
 21
133.1705566788
 31
0.0
  0
LINE
  5
F1
330
1F
100
AcDbEntity
  8
0
  6
Continuous
 62
     7
370
    30
100
AcDbLine
 10
449.2209907991
 20
133.1705566788
 30
0.0
 11
449.0795464635
 21
133.0888760595
 31
0.0
  0
LINE
  5
F2
330
1F
100
AcDbEntity
  8
0
  6
Continuous
 62
     7
370
    30
100
AcDbLine
 10
473.8342608114
 20
93.0406802375
 30
0.0
 11
473.8342608114
 21
127.1708791786
 31
0.0
  0
LINE
  5
F3
330
1F
100
AcDbEntity
  8
0
  6
Continuous
 62
     7
370
    30
100
AcDbLine
 10
444.8342608114
 20
127.1708791786
 30
0.0
 11
444.8342608114
 21
102.8626426838
 31
0.0
  0
LINE
  5
F4
330
1F
100
AcDbEntity
  8
0
  6
Continuous
 62
     7
370
    30
100
AcDbLine
 10
469.2353643206
 20
86.9184818081
 30
0.0
 11
469.5889751596
 21
87.1226833565
 31
0.0
  0
LINE
  5
F5
330
1F
100
AcDbEntity
  8
0
  6
Continuous
 62
     7
370
    30
100
AcDbLine
 10
375.8455548097
 20
54.2870173199
 30
0.0
 11
375.8455548097
 21
53.0116075176
 31
0.0
  0
SPLINE
  5
F6
330
1F
100
AcDbEntity
  8
0
  6
Continuous
 62
     7
370
    30
100
AcDbSpline
210
0.0
220
0.0
230
1.0
 70
     8
 71
     3
 72
   335
 73
   331
 74
     0
 42
0.000000001
 43
0.00000001
 40
0.0
 40
0.0
 40
0.0
 40
0.0
 40
0.0044874489079877
 40
0.0084340750781532
 40
0.01183994550214
 40
0.0147050884940219
 40
0.0170295074324841
 40
0.0189588172648548
 40
0.0209261433925356
 40
0.0266805679841495
 40
0.0329372230155826
 40
0.0396726558380847
 40
0.0468820945520028
 40
0.0498356801285338
 40
0.0525044294632534
 40
0.0547050391712238
 40
0.0564374100096072
 40
0.0578375406848654
 40
0.0588221133030964
 40
0.0600533597380595
 40
0.0615884276247351
 40
0.0634273760927574
 40
0.0655702784641436
 40
0.0680172234895952
 40
0.0707683166726268
 40
0.0771824922285632
 40
0.0841014326296352
 40
0.0915214475101293
 40
0.0942869252991188
 40
0.0971161770044869
 40
0.0997410495812117
 40
0.1018444049926165
 40
0.1034255065228629
 40
0.1045996223342833
 40
0.1068054409651714
 40
0.1095997875101619
 40
0.1129829932087338
 40
0.1163557880477601
 40
0.1197265124977359
 40
0.1230830589049017
 40
0.1264254325951775
 40
0.1297536383924577
 40
0.1327793261386115
 40
0.1348254919387084
 40
0.1363653995320097
 40
0.1379069758552017
 40
0.1398874166586078
 40
0.1423069290057014
 40
0.1451657687598316
 40
0.1483718263980447
 40
0.1568295064430128
 40
0.164577694855755
 40
0.1675032297977921
 40
0.1701284095487786
 40
0.172390048875152
 40
0.1742879348512963
 40
0.1758661179809815
 40
0.1779037536141442
 40
0.180686692821486
 40
0.1840891786915888
 40
0.1883172073782166
 40
0.192363409348674
 40
0.1962275987040067
 40
0.1998585580444446
 40
0.2029578596439129
 40
0.2048162559795337
 40
0.206378308774665
 40
0.2078202068950733
 40
0.2097745627182194
 40
0.2122983170999825
 40
0.2152870963185147
 40
0.2182710286588992
 40
0.222273265294476
 40
0.2261588261619308
 40
0.2299231041352481
 40
0.2332734258553436
 40
0.2356533328563396
 40
0.2376080342671682
 40
0.2392541314022385
 40
0.2413023199990003
 40
0.2438734818191062
 40
0.2468005131825928
 40
0.2515916930259509
 40
0.2565205400065457
 40
0.2608625567111588
 40
0.2647316611125867
 40
0.2690398953528285
 40
0.2731275985359948
 40
0.27698456019778
 40
0.280696851328036
 40
0.2843010021572611
 40
0.292641114805357
 40
0.300422839430956
 40
0.3075517581464939
 40
0.3154219647327621
 40
0.3226066139031343
 40
0.3257949531270636
 40
0.3294682700739671
 40
0.3331336993128982
 40
0.3362930538146645
 40
0.3392768167999926
 40
0.3416005873938458
 40
0.3439000962199237
 40
0.3461742354120901
 40
0.3484801072343451
 40
0.3512096502146099
 40
0.3534593027080601
 40
0.3559624862626433
 40
0.3584519486205735
 40
0.3604282341580581
 40
0.3618827748060719
 40
0.3632848282690742
 40
0.3650086917360665
 40
0.3670546536518414
 40
0.3694087787134865
 40
0.3726441003882746
 40
0.3754708233525763
 40
0.3778935423484898
 40
0.3804457158933895
 40
0.3834843519459569
 40
0.386619659040348
 40
0.3890189704731424
 40
0.3907915863006603
 40
0.3927422128500846
 40
0.3950018216213308
 40
0.3975165723135546
 40
0.4002849628874083
 40
0.4032997173313478
 40
0.4064908262841325
 40
0.4103730605359776
 40
0.4140431705948664
 40
0.4192868419599938
 40
0.4241009915389809
 40
0.4280233821244186
 40
0.4325249357471667
 40
0.4368698603790184
 40
0.4389197656977635
 40
0.4409023210908607
 40
0.4429630861941842
 40
0.4451147792465359
 40
0.4476812256800659
 40
0.4500885685857137
 40
0.4528403496608439
 40
0.4557344538365696
 40
0.4581184430949856
 40
0.4599490982301679
 40
0.4616662016889447
 40
0.4637920951509598
 40
0.4662969442609466
 40
0.4687321958306944
 40
0.470948242302783
 40
0.4729448188364682
 40
0.4747216919109174
 40
0.4764805303626835
 40
0.478087726341261
 40
0.4795431469824012
 40
0.4808499590722987
 40
0.4824332139867424
 40
0.4841908114149449
 40
0.4863471901253664
 40
0.4886797957679128
 40
0.4906738780636631
 40
0.4923084548210501
 40
0.4937591099127961
 40
0.4959573274054027
 40
0.4987381268240589
 40
0.5016752183273602
 40
0.5042308283274405
 40
0.5066242635121259
 40
0.5085462725279544
 40
0.5102640861570169
 40
0.5119327786790454
 40
0.5135523039207441
 40
0.5152064316521374
 40
0.5171751931051654
 40
0.5195927217757215
 40
0.5222158795159189
 40
0.5243371055247866
 40
0.5259256149698349
 40
0.5280904943521124
 40
0.5309129081988129
 40
0.5343150078737846
 40
0.5375109378317792
 40
0.540420230094988
 40
0.542911411726022
 40
0.5453482304039127
 40
0.547720486770478
 40
0.5502523188859152
 40
0.5530404369720145
 40
0.5558786748264405
 40
0.5577591240639146
 40
0.5593107999732022
 40
0.5609014025906263
 40
0.5629519428623514
 40
0.5655193711704793
 40
0.5684433614004253
 40
0.5711365352159448
 40
0.573522623603513
 40
0.5756034900955128
 40
0.5775816840846276
 40
0.5795895906132986
 40
0.5871198862266728
 40
0.5937516042791819
 40
0.6022617123637816
 40
0.6103988581704812
 40
0.6176364765298038
 40
0.6250979218569243
 40
0.6317758860313331
 40
0.641200497293127
 40
0.6432590549000528
 40
0.6451535086819291
 40
0.6469536754137052
 40
0.6486653532159075
 40
0.6505964463003523
 40
0.6528768531761695
 40
0.6555231729078078
 40
0.6579997924169186
 40
0.6600372825915888
 40
0.6625986316573731
 40
0.6659371092033468
 40
0.6696230359643354
 40
0.6727084495387554
 40
0.6752733647544369
 40
0.6769411018737558
 40
0.6785340737991336
 40
0.6804722050517206
 40
0.6828433845086304
 40
0.6855758712743579
 40
0.688029465202398
 40
0.6900529726442672
 40
0.6922883395286109
 40
0.6946539372207642
 40
0.697339553389947
 40
0.7006195077795092
 40
0.7043893999041068
 40
0.7074658575908195
 40
0.7098892775266069
 40
0.7123738070358018
 40
0.7151603936391326
 40
0.7178316459712398
 40
0.7208844783962269
 40
0.723642359260649
 40
0.7258951782573642
 40
0.727871940510836
 40
0.7303970048830094
 40
0.7333995442680521
 40
0.7371410302080634
 40
0.7406630265476258
 40
0.743576477792916
 40
0.7461562353809564
 40
0.7485845891870738
 40
0.7509578373834607
 40
0.7536256951568879
 40
0.7565440246034804
 40
0.7596930063881484
 40
0.7627999189646154
 40
0.7654309787414739
 40
0.7677329018025775
 40
0.7700297346575955
 40
0.772634669701899
 40
0.7756576960348673
 40
0.7788717698602792
 40
0.7820240895386212
 40
0.7850380696226944
 40
0.7877126609509069
 40
0.7901287665331176
 40
0.7925272096092578
 40
0.7952047981648428
 40
0.7984747847990683
 40
0.8018878119790914
 40
0.8049419436145094
 40
0.8081197665973359
 40
0.8109325992034918
 40
0.8136900231594654
 40
0.816681034752657
 40
0.8193198263834169
 40
0.8224321363985224
 40
0.8254444936104459
 40
0.8280178826737602
 40
0.8302461007344744
 40
0.8323264791118159
 40
0.8342977746174447
 40
0.8362231146227666
 40
0.8383061697369432
 40
0.8406164483420794
 40
0.8432480717732943
 40
0.8461568238100612
 40
0.8488147205332706
 40
0.8521236907054227
 40
0.8551951416435107
 40
0.858444072666339
 40
0.8621552264148131
 40
0.8655738524505807
 40
0.8686768685352265
 40
0.8716728409710073
 40
0.8766822957284337
 40
0.8821291270168318
 40
0.8885187343077113
 40
0.8946178370041578
 40
0.9006630385998426
 40
0.907348343391025
 40
0.9108721930958681
 40
0.9139533855293258
 40
0.9169019143169967
 40
0.9198479134800814
 40
0.9227945101946602
 40
0.9257417998361683
 40
0.9287704532385506
 40
0.9320939765441357
 40
0.9365435018783692
 40
0.9408472259381451
 40
0.9448755901280504
 40
0.9488657921463967
 40
0.9530810351805182
 40
0.9575024835666897
 40
0.9614439924406252
 40
0.9649335136092566
 40
0.969429352174818
 40
0.9739300536847967
 40
0.9784782931269655
 40
0.9808922295885879
 40
0.9836017034872929
 40
0.9865405087620313
 40
0.9877025746638124
 40
0.9888039604059474
 40
0.9901727203697995
 40
0.9919767253882735
 40
0.994215961607972
 40
0.9968904019908047
 40
1.0
 40
1.0
 40
1.0
 40
1.0
 10
379.9442258665104
 20
66.22911980978424
 30
0.0
 10
379.9335180708415
 20
66.22293305959224
 30
0.0
 10
379.9133929720508
 20
66.21130517999313
 30
0.0
 10
379.8853092541416
 20
66.19496552336018
 30
0.0
 10
379.8611622961499
 20
66.18085520502271
 30
0.0
 10
379.8409182233285
 20
66.16897646984162
 30
0.0
 10
379.8241953037579
 20
66.15913116885145
 30
0.0
 10
379.8096079542021
 20
66.15051944285614
 30
0.0
 10
379.7870234357912
 20
66.13715288397695
 30
0.0
 10
379.7544414968682
 20
66.11777257683455
 30
0.0
 10
379.7110252937001
 20
66.0917454766112
 30
0.0
 10
379.6645515568217
 20
66.06364843739438
 30
0.0
 10
379.6259640193562
 20
66.04010535299528
 30
0.0
 10
379.5968228741377
 20
66.02220674607452
 30
0.0
 10
379.5791131909787
 20
66.01128908929482
 30
0.0
 10
379.5642093481782
 20
66.00207166789826
 30
0.0
 10
379.5521947345503
 20
65.99462182514502
 30
0.0
 10
379.5429349082522
 20
65.98886825027827
 30
0.0
 10
379.5348047536034
 20
65.98380862837841
 30
0.0
 10
379.5263763635685
 20
65.978555708722
 30
0.0
 10
379.516041735016
 20
65.97210292811599
 30
0.0
 10
379.503682706414
 20
65.96436885936721
 30
0.0
 10
379.4893121801197
 20
65.95535222866943
 30
0.0
 10
379.4729446848941
 20
65.94505124868277
 30
0.0
 10
379.4471315635211
 20
65.9287493228662
 30
0.0
 10
379.4115572767846
 20
65.90614516037408
 30
0.0
 10
379.365978771209
 20
65.87692482038021
 30
0.0
 10
379.3287083757829
 20
65.85279956783363
 30
0.0
 10
379.3005095697984
 20
65.83442068971809
 30
0.0
 10
379.2827559822379
 20
65.82280577850652
 30
0.0
 10
379.2664827411388
 20
65.81211999111228
 30
0.0
 10
379.2529311802037
 20
65.80319282947252
 30
0.0
 10
379.242514695803
 20
65.79631373877383
 30
0.0
 10
379.2318836744295
 20
65.78927980430115
 30
0.0
 10
379.2186715543397
 20
65.7805179607627
 30
0.0
 10
379.2007795602865
 20
65.76861204169636
 30
0.0
 10
379.1804671074516
 20
65.75503829217239
 30
0.0
 10
379.1590112662398
 20
65.7406340083435
 30
0.0
 10
379.1376881112377
 20
65.72625241554994
 30
0.0
 10
379.1165057621996
 20
65.71189953616013
 30
0.0
 10
379.0954882126655
 20
65.69759240693715
 30
0.0
 10
379.0752357686816
 20
65.68374240902001
 30
0.0
 10
379.057751384626
 20
65.67173266263859
 30
0.0
 10
379.0440275694984
 20
65.6622727554868
 30
0.0
 10
379.0334026166829
 20
65.65493063675224
 30
0.0
 10
379.0229230558648
 20
65.64767343358261
 30
0.0
 10
379.0106425892131
 20
65.63914816481258
 30
0.0
 10
378.9956741992216
 20
65.6287249115704
 30
0.0
 10
378.9782297492915
 20
65.61653249316008
 30
0.0
 10
378.9484742121634
 20
65.59564687759654
 30
0.0
 10
378.9089546708849
 20
65.56767931666887
 30
0.0
 10
378.8703442783938
 20
65.54004026839127
 30
0.0
 10
378.8436495972402
 20
65.52078542860413
 30
0.0
 10
378.8280164254379
 20
65.50946450020864
 30
0.0
 10
378.8144761288248
 20
65.49962484281468
 30
0.0
 10
378.8030499593183
 20
65.49129674173942
 30
0.0
 10
378.7920866881934
 20
65.48328608256554
 30
0.0
 10
378.7793783189433
 20
65.47397614829039
 30
0.0
 10
378.7630884460943
 20
65.4620009479577
 30
0.0
 10
378.7425310214974
 20
65.44682090451907
 30
0.0
 10
378.7195747176248
 20
65.42977558511942
 30
0.0
 10
378.6958155995888
 20
65.41202782042946
 30
0.0
 10
378.6733185878772
 20
65.39512566042619
 30
0.0
 10
378.6527449811218
 20
65.37958358191767
 30
0.0
 10
378.6361303763921
 20
65.36697014149428
 30
0.0
 10
378.6235511257292
 20
65.35738536393747
 30
0.0
 10
378.6141858704539
 20
65.35023148427454
 30
0.0
 10
378.6046461278132
 20
65.34292814058776
 30
0.0
 10
378.5932707022701
 20
65.33419754577413
 30
0.0
 10
378.5789572183872
 20
65.32317547333268
 30
0.0
 10
378.5627203733753
 20
65.31062101710324
 30
0.0
 10
378.5437183487288
 20
65.29586300370686
 30
0.0
 10
378.5230840619639
 20
65.27975343883388
 30
0.0
 10
378.5010597393221
 20
65.26245668017413
 30
0.0
 10
378.4803469196438
 20
65.24609598934883
 30
0.0
 10
378.4625392536393
 20
65.23195425100378
 30
0.0
 10
378.4481702972377
 20
65.22049366671465
 30
0.0
 10
378.4370149780657
 20
65.21156698032568
 30
0.0
 10
378.4264860555027
 20
65.20311828743421
 30
0.0
 10
378.4151682381825
 20
65.19401113148373
 30
0.0
 10
378.4018112065709
 20
65.18322559514715
 30
0.0
 10
378.3835556262097
 20
65.16842581285131
 30
0.0
 10
378.358909172597
 20
65.14833325267266
 30
0.0
 10
378.3326097371738
 20
65.12671248654686
 30
0.0
 10
378.3086897465099
 20
65.10690561002286
 30
0.0
 10
378.2859099348953
 20
65.0879196215719
 30
0.0
 10
378.2638010227786
 20
65.06937293506168
 30
0.0
 10
378.2416391601403
 20
65.05065742605454
 30
0.0
 10
378.2205934958935
 20
65.03277033498294
 30
0.0
 10
378.2006074892383
 20
65.01568020731416
 30
0.0
 10
378.1726902964996
 20
64.99166743173636
 30
0.0
 10
378.1377335749264
 20
64.96130830219218
 30
0.0
 10
378.096892928119
 20
64.92537240064215
 30
0.0
 10
378.0571679541894
 20
64.88999048925074
 30
0.0
 10
378.0188020220277
 20
64.85539594543832
 30
0.0
 10
377.9874910263701
 20
64.82681049431629
 30
0.0
 10
377.9634464594056
 20
64.80466877684013
 30
0.0
 10
377.9455716591978
 20
64.78811421158201
 30
0.0
 10
377.9278245226445
 20
64.77157737323022
 30
0.0
 10
377.9112732352698
 20
64.75606665676999
 30
0.0
 10
377.8970254186112
 20
64.74264563811776
 30
0.0
 10
377.8842586740407
 20
64.7305659802876
 30
0.0
 10
377.8727122040294
 20
64.71959830564374
 30
0.0
 10
377.861224414912
 20
64.70864418651307
 30
0.0
 10
377.8490491653439
 20
64.69698952322425
 30
0.0
 10
377.8369433161899
 20
64.68535177243152
 30
0.0
 10
377.8245428516993
 20
64.67338030102354
 30
0.0
 10
377.8125715993671
 20
64.66177638169812
 30
0.0
 10
377.8010849477019
 20
64.65059472017842
 30
0.0
 10
377.7913513423072
 20
64.64108336393717
 30
0.0
 10
377.7834194463929
 20
64.63330980530496
 30
0.0
 10
377.7759099013619
 20
64.6259321354724
 30
0.0
 10
377.7674440781493
 20
64.61759264346078
 30
0.0
 10
377.7574402496547
 20
64.60770612227229
 30
0.0
 10
377.7449986170193
 20
64.59536372349068
 30
0.0
 10
377.7313283595867
 20
64.58173696336726
 30
0.0
 10
377.7175926960127
 20
64.5679730415446
 30
0.0
 10
377.7049971047651
 20
64.55529396228468
 30
0.0
 10
377.6920906202902
 20
64.54224562273919
 30
0.0
 10
377.6780797208459
 20
64.528011541451
 30
0.0
 10
377.6643628801898
 20
64.51400081604383
 30
0.0
 10
377.6527084876437
 20
64.50203886593748
 30
0.0
 10
377.6429609882198
 20
64.49199739908026
 30
0.0
 10
377.6334544083176
 20
64.48217196232261
 30
0.0
 10
377.6227941185999
 20
64.47111312591414
 30
0.0
 10
377.6108712832246
 20
64.45869224129159
 30
0.0
 10
377.5977903434304
 20
64.44500093298822
 30
0.0
 10
377.5836881344781
 20
64.43016464629181
 30
0.0
 10
377.5678903759924
 20
64.4134523344817
 30
0.0
 10
377.5511388226092
 20
64.39561858522553
 30
0.0
 10
377.5312538482075
 20
64.37430492146629
 30
0.0
 10
377.5100309555618
 20
64.35137348626039
 30
0.0
 10
377.4885478303251
 20
64.32794820694895
 30
0.0
 10
377.4682993812849
 20
64.30569267015946
 30
0.0
 10
377.4488584968232
 20
64.28415914460042
 30
0.0
 10
377.4323583801166
 20
64.26573344199896
 30
0.0
 10
377.4197139629845
 20
64.25152958950105
 30
0.0
 10
377.4105378166597
 20
64.2411830851781
 30
0.0
 10
377.4012308851831
 20
64.23064955261772
 30
0.0
 10
377.3910735601363
 20
64.21910829105651
 30
0.0
 10
377.3804222234804
 20
64.2069521777781
 30
0.0
 10
377.3689067495711
 20
64.19374833636557
 30
0.0
 10
377.3569404266498
 20
64.17996072619428
 30
0.0
 10
377.3450512817468
 20
64.1661887745983
 30
0.0
 10
377.3345603971439
 20
64.15397555773303
 30
0.0
 10
377.3258270443391
 20
64.14376758243773
 30
0.0
 10
377.3174868733096
 20
64.13398613272008
 30
0.0
 10
377.3081765848332
 20
64.12302670709768
 30
0.0
 10
377.2978429767396
 20
64.1108085529638
 30
0.0
 10
377.2874105993891
 20
64.09841484352532
 30
0.0
 10
377.2777472133275
 20
64.08688303677316
 30
0.0
 10
377.2690631793593
 20
64.07647758245237
 30
0.0
 10
377.2610588262062
 20
64.06685132827117
 30
0.0
 10
377.2536333618885
 20
64.05789045687236
 30
0.0
 10
377.2466877569758
 20
64.04948107964186
 30
0.0
 10
377.2404052923933
 20
64.0418517703009
 30
0.0
 10
377.2341685044231
 20
64.03425739196308
 30
0.0
 10
377.2275061352979
 20
64.02612172406516
 30
0.0
 10
377.219641212047
 20
64.0164858994989
 30
0.0
 10
377.2107269093176
 20
64.00552209488453
 30
0.0
 10
377.2015034061517
 20
63.99412742139136
 30
0.0
 10
377.1930466484886
 20
63.98363494140666
 30
0.0
 10
377.1858578768817
 20
63.97468334652129
 30
0.0
 10
377.1783918863208
 20
63.96535782851345
 30
0.0
 10
377.1693229224477
 20
63.95398856141618
 30
0.0
 10
377.158193526616
 20
63.9399661299036
 30
0.0
 10
377.1466083057612
 20
63.92528476869136
 30
0.0
 10
377.1356094988884
 20
63.91126860331794
 30
0.0
 10
377.1260607359716
 20
63.8990387562752
 30
0.0
 10
377.1177000507723
 20
63.88828320876301
 30
0.0
 10
377.1103654194727
 20
63.87881227747438
 30
0.0
 10
377.1034701437928
 20
63.86987806431411
 30
0.0
 10
377.0966828044552
 20
63.86105428295144
 30
0.0
 10
377.0895054886006
 20
63.85169243850397
 30
0.0
 10
377.0812564934081
 20
63.84089301116865
 30
0.0
 10
377.0717156749091
 20
63.82834639772028
 30
0.0
 10
377.0620043319908
 20
63.81550964610999
 30
0.0
 10
377.0534484074375
 20
63.80414513735394
 30
0.0
 10
377.045534459928
 20
63.79359330475084
 30
0.0
 10
377.0367007685192
 20
63.78176969260979
 30
0.0
 10
377.0254735662972
 20
63.76666515870345
 30
0.0
 10
377.0129276013795
 20
63.74967774633205
 30
0.0
 10
377.0003297362083
 20
63.73250326918811
 30
0.0
 10
376.9889919697991
 20
63.71694846248013
 30
0.0
 10
376.9786962118097
 20
63.70274363239707
 30
0.0
 10
376.9691439491895
 20
63.68949664181564
 30
0.0
 10
376.9595765617592
 20
63.67616177886076
 30
0.0
 10
376.9495904243916
 20
63.66217152556802
 30
0.0
 10
376.9390436921058
 20
63.64731302513349
 30
0.0
 10
376.9293830683919
 20
63.63362190611006
 30
0.0
 10
376.921344857636
 20
63.62217309736864
 30
0.0
 10
376.9149241835476
 20
63.61299481654478
 30
0.0
 10
376.9083024548153
 20
63.60349749167241
 30
0.0
 10
376.9004085482547
 20
63.59213156940899
 30
0.0
 10
376.8908558938967
 20
63.57830939618317
 30
0.0
 10
376.8805371000869
 20
63.56329067516606
 30
0.0
 10
376.870493358806
 20
63.54858385878093
 30
0.0
 10
376.8615450654264
 20
63.53540918473563
 30
0.0
 10
376.8535185376295
 20
63.52353444056774
 30
0.0
 10
376.8459883390266
 20
63.51234485007687
 30
0.0
 10
376.8317442791143
 20
63.49108680781103
 30
0.0
 10
376.8119078972211
 20
63.46117282752684
 30
0.0
 10
376.7844343566778
 20
63.41909065011808
 30
0.0
 10
376.7565939505525
 20
63.37572167547051
 30
0.0
 10
376.7284519817261
 20
63.33105240320899
 30
0.0
 10
376.7019127980046
 20
63.28818025332728
 30
0.0
 10
376.6774134846106
 20
63.24792384536965
 30
0.0
 10
376.6507524909871
 20
63.20338146905188
 30
0.0
 10
376.6305346198253
 20
63.16894979129312
 30
0.0
 10
376.6157460802476
 20
63.14341070967039
 30
0.0
 10
376.6093923029678
 20
63.13238447912106
 30
0.0
 10
376.6034244999614
 20
63.12197859091037
 30
0.0
 10
376.597413995487
 20
63.11145047994951
 30
0.0
 10
376.5908748327313
 20
63.0999414720097
 30
0.0
 10
376.5833248666034
 20
63.086579018854
 30
0.0
 10
376.5752077722649
 20
63.07211762433476
 30
0.0
 10
376.5673942948509
 20
63.05810005821117
 30
0.0
 10
376.559702183107
 20
63.04421453063799
 30
0.0
 10
376.5510841247595
 20
63.02855798652971
 30
0.0
 10
376.5407152493804
 20
63.00956353761372
 30
0.0
 10
376.5298571439246
 20
62.98947205719127
 30
0.0
 10
376.5198883702249
 20
62.97084381423529
 30
0.0
 10
376.5121007541093
 20
62.95616945520649
 30
0.0
 10
376.5059260243202
 20
62.94446037180087
 30
0.0
 10
376.5004280367664
 20
62.93398320675972
 30
0.0
 10
376.4942035965658
 20
62.92205781430443
 30
0.0
 10
376.4868114894123
 20
62.90780127382703
 30
0.0
 10
376.4789284022058
 20
62.89247709108875
 30
0.0
 10
376.4714416300445
 20
62.87780441930526
 30
0.0
 10
376.4644922809478
 20
62.86408788455883
 30
0.0
 10
376.4576222540821
 20
62.85043454210873
 30
0.0
 10
376.4501207879576
 20
62.83541382145988
 30
0.0
 10
376.4416046699938
 20
62.81821925766665
 30
0.0
 10
376.4317254581267
 20
62.79807347063071
 30
0.0
 10
376.4215539178695
 20
62.77708358683346
 30
0.0
 10
376.4122811569326
 20
62.75772298216565
 30
0.0
 10
376.4042661011664
 20
62.74082573650941
 30
0.0
 10
376.3966307648752
 20
62.72458757495347
 30
0.0
 10
376.3888157149091
 20
62.7078099247218
 30
0.0
 10
376.3804949189417
 20
62.68976888178568
 30
0.0
 10
376.3722735657095
 20
62.67175528413643
 30
0.0
 10
376.3645102440944
 20
62.65456069912057
 30
0.0
 10
376.3578040598775
 20
62.63956647408611
 30
0.0
 10
376.3513395295208
 20
62.62499491096912
 30
0.0
 10
376.3442257613059
 20
62.60881985983263
 30
0.0
 10
376.3354977130091
 20
62.58875934396152
 30
0.0
 10
376.3259232010286
 20
62.56645729243198
 30
0.0
 10
376.3165392846487
 20
62.5442773536305
 30
0.0
 10
376.3082996332585
 20
62.52454397025761
 30
0.0
 10
376.3011159007889
 20
62.50714208565733
 30
0.0
 10
376.2944731770345
 20
62.4908804858234
 30
0.0
 10
376.2877973274549
 20
62.47437001824196
 30
0.0
 10
376.2807423029414
 20
62.4567314689883
 30
0.0
 10
376.2730670337428
 20
62.43730721848665
 30
0.0
 10
376.2650854137746
 20
62.41683487971276
 30
0.0
 10
376.2574379423965
 20
62.39694234007912
 30
0.0
 10
376.2505904264665
 20
62.37889649681507
 30
0.0
 10
376.2444798972513
 20
62.36260899506858
 30
0.0
 10
376.2384002760722
 20
62.3462284035075
 30
0.0
 10
376.2317834008333
 20
62.32819068004719
 30
0.0
 10
376.2245425909786
 20
62.30818450274958
 30
0.0
 10
376.2169658529564
 20
62.28693319712305
 30
0.0
 10
376.2094973829848
 20
62.26565682512719
 30
0.0
 10
376.202552829765
 20
62.24556741272463
 30
0.0
 10
376.1962383715288
 20
62.22704227150047
 30
0.0
 10
376.1904467134911
 20
62.20983137517101
 30
0.0
 10
376.1847509529633
 20
62.19269708536671
 30
0.0
 10
376.1784886875902
 20
62.17361313627499
 30
0.0
 10
376.1715548868522
 20
62.15215524581282
 30
0.0
 10
376.1644546604913
 20
62.12979358551337
 30
0.0
 10
376.1575273697318
 20
62.10759751588197
 30
0.0
 10
376.1511267142646
 20
62.08674029626585
 30
0.0
 10
376.1450257549284
 20
62.0665301000361
 30
0.0
 10
376.1391361410222
 20
62.04671512323844
 30
0.0
 10
376.1334493222825
 20
62.02726937734145
 30
0.0
 10
376.1276060982643
 20
62.00696395502511
 30
0.0
 10
376.121836306518
 20
61.98657568440844
 30
0.0
 10
376.1162028447865
 20
61.9663059306433
 30
0.0
 10
376.1112180852585
 20
61.94806732907193
 30
0.0
 10
376.1068851268421
 20
61.93198035521944
 30
0.0
 10
376.1029787702524
 20
61.91728348199387
 30
0.0
 10
376.0993030968019
 20
61.90327880773038
 30
0.0
 10
376.0956665460665
 20
61.88925198887281
 30
0.0
 10
376.091868490729
 20
61.87441383916026
 30
0.0
 10
376.0877003015139
 20
61.85789718107772
 30
0.0
 10
376.0831105753178
 20
61.83941372177009
 30
0.0
 10
376.0783988191718
 20
61.82008621404574
 30
0.0
 10
376.0733820523396
 20
61.79911685691916
 30
0.0
 10
376.0683487609029
 20
61.77764130013956
 30
0.0
 10
376.063115637564
 20
61.75480152971468
 30
0.0
 10
376.0578309628669
 20
61.73122056704534
 30
0.0
 10
376.0522855980675
 20
61.70581661659896
 30
0.0
 10
376.0473417405317
 20
61.68256033905676
 30
0.0
 10
376.0426031141616
 20
61.65972971048438
 30
0.0
 10
376.0371529832827
 20
61.63281076047957
 30
0.0
 10
376.0308791144208
 20
61.6008014898877
 30
0.0
 10
376.0232895455825
 20
61.56035942770943
 30
0.0
 10
376.0156128166716
 20
61.51727240625673
 30
0.0
 10
376.0080996158254
 20
61.47261083339044
 30
0.0
 10
376.0008884710585
 20
61.42713465999582
 30
0.0
 10
375.9950451296863
 20
61.38778235064072
 30
0.0
 10
375.9905186730882
 20
61.35554786826113
 30
0.0
 10
375.9873819257431
 20
61.33235004196254
 30
0.0
 10
375.9845354016203
 20
61.3105330058327
 30
0.0
 10
375.9818284501183
 20
61.28902212020557
 30
0.0
 10
375.979218830309
 20
61.26749373013519
 30
0.0
 10
375.9766827965279
 20
61.24574381910426
 30
0.0
 10
375.9741432831245
 20
61.22305423485052
 30
0.0
 10
375.9713216426147
 20
61.19667427508232
 30
0.0
 10
375.9683424015645
 20
61.16714728588259
 30
0.0
 10
375.9653986324094
 20
61.13585873543687
 30
0.0
 10
375.9627529501671
 20
61.10566048722414
 30
0.0
 10
375.9603102047882
 20
61.07564811949793
 30
0.0
 10
375.9579833755594
 20
61.04463963421381
 30
0.0
 10
375.9558695306006
 20
61.01371909083616
 30
0.0
 10
375.9540639269488
 20
60.98455513634715
 30
0.0
 10
375.9524136478589
 20
60.95518498385332
 30
0.0
 10
375.9508735223518
 20
60.92441233403635
 30
0.0
 10
375.9494320922655
 20
60.89100132316796
 30
0.0
 10
375.9484074164334
 20
60.86270146560776
 30
0.0
 10
375.9476697073541
 20
60.83881300932381
 30
0.0
 10
375.9471324438957
 20
60.81888969519344
 30
0.0
 10
375.9467509395512
 20
60.80204911619851
 30
0.0
 10
375.9464997137967
 20
60.7891823442888
 30
0.0
 10
375.94633978124
 20
60.78019764726247
 30
0.0
 10
375.9461715288789
 20
60.76962517101097
 30
0.0
 10
375.9459905406427
 20
60.75623513819514
 30
0.0
 10
375.9458182419776
 20
60.73960831426164
 30
0.0
 10
375.9456803547641
 20
60.71974102670621
 30
0.0
 10
375.9456620415942
 20
60.70540740850828
 30
0.0
 10
375.9456521961207
 20
60.6977014101051
 30
0.0
  0
LINE
  5
F7
330
1F
100
AcDbEntity
  8
0
  6
Continuous
 62
     7
370
    30
100
AcDbLine
 10
375.9455548097
 20
60.6985111116
 30
0.0
 11
375.9455548097
 21
54.3618476661
 31
0.0
  0
LINE
  5
F8
330
1F
100
AcDbEntity
  8
0
  6
Continuous
 62
     7
370
    30
100
AcDbLine
 10
400.0505860873
 20
50.7354010884
 30
0.0
 11
462.8665834466
 21
86.9696152927
 31
0.0
  0
SPLINE
  5
F9
330
1F
100
AcDbEntity
  8
0
  6
Continuous
 62
     7
370
    30
100
AcDbSpline
210
0.0
220
0.0
230
1.0
 70
     8
 71
     3
 72
    20
 73
    16
 74
     0
 42
0.000000001
 43
0.00000001
 40
0.0
 40
0.0
 40
0.0
 40
0.0
 40
0.1140548535589436
 40
0.219656118285968
 40
0.316810660328086
 40
0.4055298095570625
 40
0.485831113832617
 40
0.5592014424262296
 40
0.6270051896092623
 40
0.6892464801252506
 40
0.7603496969694389
 40
0.8245988290154852
 40
0.8863493387047325
 40
0.9504055831695648
 40
0.9999999999999999
 40
0.9999999999999999
 40
0.9999999999999999
 40
0.9999999999999999
 10
375.94855014892
 20
54.39063242062063
 30
0.0
 10
375.9485789530112
 20
54.37231727065133
 30
0.0
 10
375.9486344262741
 20
54.33704446443092
 30
0.0
 10
375.9493403916923
 20
54.28673470353863
 30
0.0
 10
375.950349453089
 20
54.24096214983472
 30
0.0
 10
375.9515916709038
 20
54.19970172521451
 30
0.0
 10
375.9529527707357
 20
54.16294099394268
 30
0.0
 10
375.9544003383577
 20
54.12959249898633
 30
0.0
 10
375.9559306785728
 20
54.09857663306674
 30
0.0
 10
375.9576297352417
 20
54.06758389824643
 30
0.0
 10
375.959489982458
 20
54.03683661524929
 30
0.0
 10
375.9615166866786
 20
54.0062332402503
 30
0.0
 10
375.9636354657738
 20
53.97670615760377
 30
0.0
 10
375.9657168132309
 20
53.94947365405461
 30
0.0
 10
375.9671899428397
 20
53.93183690921714
 30
0.0
 10
375.9678327811921
 20
53.92414065769486
 30
0.0
  0
LINE
  5
FA
330
1F
100
AcDbEntity
  8
0
  6
Continuous
 62
     7
370
    30
100
AcDbLine
 10
444.8342608114
 20
103.6597031765
 30
0.0
 11
379.958028841
 21
66.2370817933
 31
0.0
  0
ARC
  5
FB
330
1F
100
AcDbEntity
  8
0
  6
Continuous
 62
     7
370
    30
100
AcDbCircle
 10
388.5955548097
 20
65.2574049051
 30
0.0
 40
19.61770907008442
100
AcDbArc
 50
264.0413791004
 51
275.9586208979
  0
LWPOLYLINE
  5
FC
330
1F
100
AcDbEntity
  8
0
  6
Continuous
 62
     7
370
    30
100
AcDbPolyline
 90
      241
 70
   128
 43
0.0
 10
469.4458877824
 20
133.1715053406
 10
469.1777312438
 20
133.322308209
 10
468.9028284824
 20
133.4690071185
 10
468.6213679025
 20
133.611501529
 10
468.3335424034
 20
133.7496937819
 10
468.0395492462
 20
133.8834891671
 10
467.7395899192
 20
134.012795988
 10
467.4338699994
 20
134.1375256242
 10
467.1225990121
 20
134.2575925921
 10
466.8059902869
 20
134.3729146039
 10
466.4842608114
 20
134.4834126236
 10
466.1576310831
 20
134.5890109215
 10
465.8263249577
 20
134.6896371256
 10
465.4905694958
 20
134.7852222719
 10
465.1505948074
 20
134.875700851
 10
464.8066338942
 20
134.9610108534
 10
464.4589224899
 20
135.041093812
 10
464.1076988985
 20
135.1158948419
 10
463.753203831
 20
135.1853626781
 10
463.3956802407
 20
135.249449711
 10
463.0353731564
 20
135.3081120184
 10
462.6725295146
 20
135.3613093961
 10
462.3073979901
 20
135.4090053853
 10
461.940228826
 20
135.4511672976
 10
461.5712736615
 20
135.4877662373
 10
461.2007853602
 20
135.5187771213
 10
460.8290178361
 20
135.5441786962
 10
460.4562258803
 20
135.5639535532
 10
460.0826649857
 20
135.5780881396
 10
459.7085911722
 20
135.5865727681
 10
459.3342608114
 20
135.5894016238
 10
458.9599304506
 20
135.5865727681
 10
458.5858566371
 20
135.5780881396
 10
458.2122957425
 20
135.5639535532
 10
457.8395037867
 20
135.5441786962
 10
457.4677362627
 20
135.5187771213
 10
457.0972479613
 20
135.4877662373
 10
456.7282927969
 20
135.4511672976
 10
456.3611236327
 20
135.4090053853
 10
455.9959921083
 20
135.3613093961
 10
455.6331484665
 20
135.3081120184
 10
455.2728413822
 20
135.249449711
 10
454.9153177919
 20
135.1853626781
 10
454.5608227244
 20
135.1158948419
 10
454.2095991329
 20
135.041093812
 10
453.8618877286
 20
134.9610108534
 10
453.5179268154
 20
134.875700851
 10
453.1779521271
 20
134.7852222719
 10
452.8421966651
 20
134.6896371256
 10
452.5108905397
 20
134.5890109215
 10
452.1842608114
 20
134.4834126236
 10
451.862531336
 20
134.3729146039
 10
451.5459226107
 20
134.2575925921
 10
451.2346516234
 20
134.1375256242
 10
450.9289317036
 20
134.012795988
 10
450.6289723766
 20
133.8834891671
 10
450.3349792194
 20
133.7496937819
 10
450.0471537203
 20
133.611501529
 10
449.7656931405
 20
133.4690071185
 10
449.490790379
 20
133.322308209
 10
449.2226338405
 20
133.1715053406
 10
448.9614073059
 20
133.0167018659
 10
448.7072898071
 20
132.8580038797
 10
448.4604555033
 20
132.6955201455
 10
448.2210735626
 20
132.5293620217
 10
447.9893080453
 20
132.3596433846
 10
447.7653177919
 20
132.186480551
 10
447.5492563141
 20
132.009992198
 10
447.3412716898
 20
131.8302992819
 10
447.1415064612
 20
131.6475249552
 10
446.9500975373
 20
131.4617944824
 10
446.7671761004
 20
131.2732351539
 10
446.5928675155
 20
131.0819761987
 10
446.4272912452
 20
130.8881486963
 10
446.2705607671
 20
130.6918854863
 10
446.1227834965
 20
130.4933210777
 10
445.9840607125
 20
130.2925915566
 10
445.8544874888
 20
130.0898344931
 10
445.7341526284
 20
129.8851888466
 10
445.6231386028
 20
129.6787948712
 10
445.5215214955
 20
129.4707940188
 10
445.4293709497
 20
129.261328843
 10
445.3467501209
 20
129.0505429006
 10
445.2737156333
 20
128.8385806539
 10
445.2103175409
 20
128.6255873711
 10
445.1565992938
 20
128.4117090273
 10
445.1125977077
 20
128.197092204
 10
445.078342939
 20
127.9818839887
 10
445.0538584644
 20
127.7662318745
 10
445.0391610643
 20
127.5502836586
 10
445.0342608114
 20
127.334187341
 10
445.0391610643
 20
127.1180910235
 10
445.0538584644
 20
126.9021428075
 10
445.078342939
 20
126.6864906934
 10
445.1125977077
 20
126.4712824781
 10
445.1565992938
 20
126.2566656547
 10
445.2103175409
 20
126.0427873109
 10
445.2737156333
 20
125.8297940281
 10
445.3467501209
 20
125.6178317814
 10
445.4293709497
 20
125.4070458391
 10
445.5215214955
 20
125.1975806632
 10
445.6231386028
 20
124.9895798109
 10
445.7341526284
 20
124.7831858354
 10
445.8544874888
 20
124.578540189
 10
445.9840607125
 20
124.3757831254
 10
446.1227834965
 20
124.1750536044
 10
446.2705607671
 20
123.9764891958
 10
446.4272912452
 20
123.7802259857
 10
446.5928675155
 20
123.5863984833
 10
446.7671761004
 20
123.3951395282
 10
446.9500975373
 20
123.2065801996
 10
447.1415064612
 20
123.0208497268
 10
447.3412716898
 20
122.8380754002
 10
447.5492563141
 20
122.6583824841
 10
447.7653177919
 20
122.4818941311
 10
447.9893080453
 20
122.3087312974
 10
448.2210735626
 20
122.1390126604
 10
448.4604555033
 20
121.9728545365
 10
448.7072898071
 20
121.8103708023
 10
448.9614073059
 20
121.6516728161
 10
449.2226338405
 20
121.4968693415
 10
449.490790379
 20
121.346066473
 10
449.7656931405
 20
121.1993675635
 10
450.0471537203
 20
121.0568731531
 10
450.3349792194
 20
120.9186809002
 10
450.6289723766
 20
120.7848855149
 10
450.9289317036
 20
120.655578694
 10
451.2346516234
 20
120.5308490579
 10
451.5459226107
 20
120.4107820899
 10
451.862531336
 20
120.2954600781
 10
452.1842608114
 20
120.1849620584
 10
452.5108905397
 20
120.0793637606
 10
452.8421966651
 20
119.9787375565
 10
453.1779521271
 20
119.8831524102
 10
453.5179268154
 20
119.7926738311
 10
453.8618877286
 20
119.7073638286
 10
454.2095991329
 20
119.62728087
 10
454.5608227244
 20
119.5524798402
 10
454.9153177919
 20
119.4830120039
 10
455.2728413822
 20
119.4189249711
 10
455.6331484665
 20
119.3602626637
 10
455.9959921083
 20
119.307065286
 10
456.3611236327
 20
119.2593692967
 10
456.7282927969
 20
119.2172073844
 10
457.0972479613
 20
119.1806084448
 10
457.4677362627
 20
119.1495975608
 10
457.8395037867
 20
119.1241959858
 10
458.2122957425
 20
119.1044211288
 10
458.5858566371
 20
119.0902865425
 10
458.9599304506
 20
119.081801914
 10
459.3342608114
 20
119.0789730582
 10
459.7085911722
 20
119.081801914
 10
460.0826649857
 20
119.0902865425
 10
460.4562258803
 20
119.1044211288
 10
460.8290178361
 20
119.1241959858
 10
461.2007853602
 20
119.1495975608
 10
461.5712736615
 20
119.1806084448
 10
461.940228826
 20
119.2172073844
 10
462.3073979901
 20
119.2593692967
 10
462.6725295146
 20
119.307065286
 10
463.0353731564
 20
119.3602626637
 10
463.3956802407
 20
119.4189249711
 10
463.753203831
 20
119.4830120039
 10
464.1076988985
 20
119.5524798402
 10
464.4589224899
 20
119.62728087
 10
464.8066338942
 20
119.7073638286
 10
465.1505948074
 20
119.7926738311
 10
465.4905694958
 20
119.8831524102
 10
465.8263249577
 20
119.9787375565
 10
466.1576310831
 20
120.0793637606
 10
466.4842608114
 20
120.1849620584
 10
466.8059902869
 20
120.2954600781
 10
467.1225990121
 20
120.4107820899
 10
467.4338699994
 20
120.5308490579
 10
467.7395899192
 20
120.655578694
 10
468.0395492462
 20
120.7848855149
 10
468.3335424034
 20
120.9186809002
 10
468.6213679025
 20
121.0568731531
 10
468.9028284824
 20
121.1993675635
 10
469.1777312438
 20
121.346066473
 10
469.4458877824
 20
121.4968693415
 10
469.7071143169
 20
121.6516728161
 10
469.9612318157
 20
121.8103708023
 10
470.2080661195
 20
121.9728545365
 10
470.4474480603
 20
122.1390126604
 10
470.6792135776
 20
122.3087312974
 10
470.903203831
 20
122.4818941311
 10
471.1192653087
 20
122.6583824841
 10
471.327249933
 20
122.8380754002
 10
471.5270151617
 20
123.0208497268
 10
471.7184240855
 20
123.2065801996
 10
471.9013455225
 20
123.3951395282
 10
472.0756541073
 20
123.5863984833
 10
472.2412303776
 20
123.7802259857
 10
472.3979608557
 20
123.9764891958
 10
472.5457381263
 20
124.1750536044
 10
472.6844609103
 20
124.3757831254
 10
472.814034134
 20
124.578540189
 10
472.9343689944
 20
124.7831858354
 10
473.04538302
 20
124.9895798109
 10
473.1470001274
 20
125.1975806632
 10
473.2391506731
 20
125.4070458391
 10
473.3217715019
 20
125.6178317814
 10
473.3948059896
 20
125.8297940281
 10
473.4582040819
 20
126.0427873109
 10
473.5119223291
 20
126.2566656547
 10
473.5559239152
 20
126.4712824781
 10
473.5901786838
 20
126.6864906934
 10
473.6146631584
 20
126.9021428075
 10
473.6293605586
 20
127.1180910235
 10
473.6342608114
 20
127.334187341
 10
473.6293605586
 20
127.5502836586
 10
473.6146631584
 20
127.7662318745
 10
473.5901786838
 20
127.9818839887
 10
473.5559239152
 20
128.197092204
 10
473.5119223291
 20
128.4117090273
 10
473.4582040819
 20
128.6255873711
 10
473.3948059896
 20
128.8385806539
 10
473.3217715019
 20
129.0505429006
 10
473.2391506731
 20
129.261328843
 10
473.1470001274
 20
129.4707940188
 10
473.04538302
 20
129.6787948712
 10
472.9343689944
 20
129.8851888466
 10
472.814034134
 20
130.0898344931
 10
472.6844609103
 20
130.2925915566
 10
472.5457381263
 20
130.4933210777
 10
472.3979608557
 20
130.6918854863
 10
472.2412303776
 20
130.8881486963
 10
472.0756541073
 20
131.0819761987
 10
471.9013455225
 20
131.2732351539
 10
471.7184240855
 20
131.4617944824
 10
471.5270151617
 20
131.6475249552
 10
471.327249933
 20
131.8302992819
 10
471.1192653087
 20
132.009992198
 10
470.903203831
 20
132.186480551
 10
470.6792135776
 20
132.3596433846
 10
470.4474480603
 20
132.5293620217
 10
470.2080661195
 20
132.6955201455
 10
469.9612318157
 20
132.8580038797
 10
469.7071143169
 20
133.0167018659
 10
469.4458877824
 20
133.1715053406
  0
LWPOLYLINE
  5
FD
330
1F
100
AcDbEntity
  8
0
  6
Continuous
 62
     7
370
    30
100
AcDbPolyline
 90
      181
 70
   128
 43
0.0
 10
469.5889751593
 20
133.0888760595
 10
469.8521891911
 20
132.9328694312
 10
470.1098607808
 20
132.7719518927
 10
470.3601473126
 20
132.6071956588
 10
470.6028772525
 20
132.4387136451
 10
470.8378842456
 20
132.2666213207
 10
471.0650072299
 20
132.0910366293
 10
471.2840905464
 20
131.9120799077
 10
471.4949840466
 20
131.729873804
 10
471.6975431946
 20
131.544543193
 10
471.8916291663
 20
131.3562150913
 10
472.077108945
 20
131.1650185693
 10
472.2538554122
 20
130.9710846637
 10
472.4217474345
 20
130.7745462872
 10
472.5806699472
 20
130.5755381371
 10
472.7305140328
 20
130.3741966039
 10
472.8711769956
 20
130.170659677
 10
473.0025624323
 20
129.9650668503
 10
473.1245802977
 20
129.757559027
 10
473.237146967
 20
129.5482784225
 10
473.3401852926
 20
129.3373684673
 10
473.4336246572
 20
129.1249737086
 10
473.5174010221
 20
128.9112397111
 10
473.5914569711
 20
128.6963129574
 10
473.6557417501
 20
128.4803407477
 10
473.7102113013
 20
128.2634710983
 10
473.7548282943
 20
128.0458526411
 10
473.7895621506
 20
127.8276345207
 10
473.8143890654
 20
127.608966293
 10
473.8292920236
 20
127.3899978223
 10
473.8342608114
 20
127.1708791786
 10
473.8292920236
 20
126.951760535
 10
473.8143890654
 20
126.7327920643
 10
473.7895621506
 20
126.5141238366
 10
473.7548282943
 20
126.2959057162
 10
473.7102113013
 20
126.078287259
 10
473.6557417501
 20
125.8614176096
 10
473.5914569711
 20
125.6454453998
 10
473.5174010221
 20
125.4305186462
 10
473.4336246572
 20
125.2167846487
 10
473.3401852926
 20
125.00438989
 10
473.237146967
 20
124.7934799348
 10
473.1245802977
 20
124.5841993303
 10
473.0025624323
 20
124.376691507
 10
472.8711769956
 20
124.1710986803
 10
472.7305140328
 20
123.9675617534
 10
472.5806699472
 20
123.7662202202
 10
472.4217474345
 20
123.5672120701
 10
472.2538554122
 20
123.3706736935
 10
472.077108945
 20
123.176739788
 10
471.8916291663
 20
122.985543266
 10
471.6975431946
 20
122.7972151642
 10
471.4949840466
 20
122.6118845533
 10
471.2840905464
 20
122.4296784496
 10
471.0650072299
 20
122.250721728
 10
470.8378842456
 20
122.0751370365
 10
470.6028772525
 20
121.9030447122
 10
470.3601473126
 20
121.7345626985
 10
470.1098607808
 20
121.5698064646
 10
469.8521891911
 20
121.4088889261
 10
469.5873091386
 20
121.2519203679
 10
469.315402159
 20
121.0990083685
 10
469.0366546036
 20
120.9502577259
 10
468.7512575122
 20
120.8057703867
 10
468.4594064816
 20
120.665645375
 10
468.161301532
 20
120.5299787256
 10
467.8571469697
 20
120.3988634177
 10
467.5471512468
 20
120.2723893111
 10
467.2315268191
 20
120.1506430849
 10
466.9104899998
 20
120.0337081778
 10
466.5842608114
 20
119.9216647312
 10
466.2530628352
 20
119.8145895341
 10
465.9171230576
 20
119.7125559705
 10
465.5766717151
 20
119.6156339691
 10
465.231942136
 20
119.5238899553
 10
464.8831705807
 20
119.4373868059
 10
464.5305960798
 20
119.356183806
 10
464.1744602703
 20
119.2803366079
 10
463.8150072299
 20
119.2098971935
 10
463.4524833096
 20
119.1449138385
 10
463.0871369654
 20
119.0854310793
 10
462.7192185873
 20
119.0314896823
 10
462.3489803283
 20
118.9831266163
 10
461.9766759311
 20
118.9403750269
 10
461.6025605545
 20
118.9032642139
 10
461.2268905986
 20
118.8718196113
 10
460.8499235288
 20
118.8460627695
 10
460.4719176995
 20
118.8260113411
 10
460.0931321769
 20
118.8116790682
 10
459.7138265619
 20
118.8030757736
 10
459.3342608114
 20
118.8002073534
 10
458.954695061
 20
118.8030757736
 10
458.5753894459
 20
118.8116790682
 10
458.1966039234
 20
118.8260113411
 10
457.818598094
 20
118.8460627695
 10
457.4416310242
 20
118.8718196113
 10
457.0659610683
 20
118.9032642139
 10
456.6918456918
 20
118.9403750269
 10
456.3195412946
 20
118.9831266163
 10
455.9493030355
 20
119.0314896823
 10
455.5813846574
 20
119.0854310793
 10
455.2160383132
 20
119.1449138385
 10
454.853514393
 20
119.2098971935
 10
454.4940613525
 20
119.2803366079
 10
454.137925543
 20
119.356183806
 10
453.7853510421
 20
119.4373868059
 10
453.4365794868
 20
119.5238899553
 10
453.0918499077
 20
119.6156339691
 10
452.7513985652
 20
119.7125559705
 10
452.4154587877
 20
119.8145895341
 10
452.0842608114
 20
119.9216647312
 10
451.758031623
 20
120.0337081778
 10
451.4369948037
 20
120.1506430849
 10
451.121370376
 20
120.2723893111
 10
450.8113746532
 20
120.3988634177
 10
450.5072200908
 20
120.5299787256
 10
450.2091151412
 20
120.665645375
 10
449.9172641106
 20
120.8057703867
 10
449.6318670192
 20
120.9502577259
 10
449.3531194639
 20
121.0990083685
 10
449.0812124842
 20
121.2519203679
 10
448.8163324317
 20
121.4088889261
 10
448.558660842
 20
121.5698064646
 10
448.3083743102
 20
121.7345626985
 10
448.0656443703
 20
121.9030447122
 10
447.8306373772
 20
122.0751370365
 10
447.603514393
 20
122.250721728
 10
447.3844310764
 20
122.4296784496
 10
447.1735375762
 20
122.6118845533
 10
446.9709784283
 20
122.7972151642
 10
446.7768924565
 20
122.985543266
 10
446.5914126778
 20
123.176739788
 10
446.4146662107
 20
123.3706736935
 10
446.2467741883
 20
123.5672120701
 10
446.0878516756
 20
123.7662202202
 10
445.93800759
 20
123.9675617534
 10
445.7973446272
 20
124.1710986803
 10
445.6659591906
 20
124.376691507
 10
445.5439413251
 20
124.5841993303
 10
445.4313746558
 20
124.7934799348
 10
445.3283363302
 20
125.00438989
 10
445.2348969657
 20
125.2167846487
 10
445.1511206008
 20
125.4305186462
 10
445.0770646517
 20
125.6454453998
 10
445.0127798728
 20
125.8614176096
 10
444.9583103215
 20
126.078287259
 10
444.9136933286
 20
126.2959057162
 10
444.8789594723
 20
126.5141238366
 10
444.8541325575
 20
126.7327920643
 10
444.8392295993
 20
126.951760535
 10
444.8342608114
 20
127.1708791786
 10
444.8392295993
 20
127.3899978223
 10
444.8541325575
 20
127.608966293
 10
444.8789594723
 20
127.8276345207
 10
444.9136933286
 20
128.0458526411
 10
444.9583103215
 20
128.2634710983
 10
445.0127798728
 20
128.4803407477
 10
445.0770646517
 20
128.6963129574
 10
445.1511206008
 20
128.9112397111
 10
445.2348969657
 20
129.1249737086
 10
445.3283363302
 20
129.3373684673
 10
445.4313746558
 20
129.5482784225
 10
445.5439413251
 20
129.757559027
 10
445.6659591906
 20
129.9650668503
 10
445.7973446272
 20
130.170659677
 10
445.93800759
 20
130.3741966039
 10
446.0878516756
 20
130.5755381371
 10
446.2467741883
 20
130.7745462872
 10
446.4146662107
 20
130.9710846637
 10
446.5914126778
 20
131.1650185693
 10
446.7768924565
 20
131.3562150913
 10
446.9709784283
 20
131.544543193
 10
447.1735375762
 20
131.729873804
 10
447.3844310764
 20
131.9120799077
 10
447.603514393
 20
132.0910366293
 10
447.8306373772
 20
132.2666213207
 10
448.0656443703
 20
132.4387136451
 10
448.3083743102
 20
132.6071956588
 10
448.558660842
 20
132.7719518927
 10
448.8163324317
 20
132.9328694312
 10
449.0795464635
 20
133.0888760595
  0
LWPOLYLINE
  5
FE
330
1F
100
AcDbEntity
  8
0
  6
Continuous
 62
     7
370
    30
100
AcDbPolyline
 90
       63
 70
   128
 43
0.0
 10
458.8868709797
 20
84.673993794
 10
458.954695061
 20
84.6728768324
 10
459.3342608114
 20
84.6700084122
 10
459.7138265619
 20
84.6728768324
 10
460.0931321769
 20
84.681480127
 10
460.4719176995
 20
84.6958123999
 10
460.8499235288
 20
84.7158638283
 10
461.2268905986
 20
84.7416206701
 10
461.6025605545
 20
84.7730652727
 10
461.9766759311
 20
84.8101760857
 10
462.3489803283
 20
84.8529276751
 10
462.7192185873
 20
84.9012907411
 10
463.0871369654
 20
84.9552321381
 10
463.4524833096
 20
85.0147148973
 10
463.8150072299
 20
85.0796982523
 10
464.1744602703
 20
85.1501376667
 10
464.5305960798
 20
85.2259848648
 10
464.8831705807
 20
85.3071878648
 10
465.231942136
 20
85.3936910141
 10
465.5766717151
 20
85.4854350279
 10
465.9171230576
 20
85.5823570293
 10
466.2530628352
 20
85.684390593
 10
466.5842608114
 20
85.7914657901
 10
466.9104899998
 20
85.9035092366
 10
467.2315268191
 20
86.0204441437
 10
467.5471512468
 20
86.1421903699
 10
467.8571469697
 20
86.2686644765
 10
468.161301532
 20
86.3997797844
 10
468.4594064816
 20
86.5354464338
 10
468.7512575122
 20
86.6755714455
 10
469.0366546036
 20
86.8200587848
 10
469.315402159
 20
86.9688094273
 10
469.5873091386
 20
87.1217214268
 10
469.8521891911
 20
87.2786899849
 10
470.1098607808
 20
87.4396075234
 10
470.3601473126
 20
87.6043637574
 10
470.6028772525
 20
87.7728457711
 10
470.8378842456
 20
87.9449380954
 10
471.0650072299
 20
88.1205227868
 10
471.2840905464
 20
88.2994795084
 10
471.4949840466
 20
88.4816856121
 10
471.6975431946
 20
88.6670162231
 10
471.8916291663
 20
88.8553443248
 10
472.077108945
 20
89.0465408468
 10
472.2538554122
 20
89.2404747524
 10
472.4217474345
 20
89.437013129
 10
472.5806699472
 20
89.636021279
 10
472.7305140328
 20
89.8373628122
 10
472.8711769956
 20
90.0408997391
 10
473.0025624323
 20
90.2464925658
 10
473.1245802977
 20
90.4540003891
 10
473.237146967
 20
90.6632809936
 10
473.3401852926
 20
90.8741909488
 10
473.4336246572
 20
91.0865857075
 10
473.5174010221
 20
91.300319705
 10
473.5914569711
 20
91.5152464587
 10
473.6557417501
 20
91.7312186685
 10
473.7102113013
 20
91.9480883178
 10
473.7548282943
 20
92.1657067751
 10
473.7895621506
 20
92.3839248954
 10
473.8143890654
 20
92.6025931231
 10
473.8292920236
 20
92.8215615938
 10
473.8342608114
 20
93.0406802375
  0
ARC
  5
FF
330
1F
100
AcDbEntity
  8
0
  6
Continuous
 62
     7
370
    30
100
AcDbCircle
 10
459.6574697235
 20
104.979340669
 30
0.0
 40
20.44335314243246
100
AcDbArc
 50
267.2805774415
 51
297.9375548732
  0
LWPOLYLINE
  5
100
330
1F
100
AcDbEntity
  8
0
  6
Continuous
 62
     7
370
    30
100
AcDbPolyline
 90
       91
 70
   128
 43
0.0
 10
375.8455548097
 20
53.0116075176
 10
375.8497928374
 20
52.8218459734
 10
375.8627651753
 20
52.6293017533
 10
375.8844639313
 20
52.4370195465
 10
375.914874234
 20
52.2451311336
 10
375.9539752417
 20
52.0537680253
 10
376.0017401566
 20
51.8630613724
 10
376.058136243
 20
51.6731418756
 10
376.1231248499
 20
51.4841396963
 10
376.1966614372
 20
51.2961843672
 10
376.2786956067
 20
51.1094047034
 10
376.3691711362
 20
50.9239287144
 10
376.4680260185
 20
50.7398835161
 10
376.5751925031
 20
50.557395244
 10
376.6905971437
 20
50.3765889665
 10
376.8141608475
 20
50.197588599
 10
376.9457989303
 20
50.0205168195
 10
377.0854211739
 20
49.8454949841
 10
377.2329318881
 20
49.6726430442
 10
377.3882299765
 20
49.5020794637
 10
377.5512090055
 20
49.3339211385
 10
377.7217572774
 20
49.1682833157
 10
377.899757907
 20
49.0052795154
 10
378.0850889016
 20
48.8450214522
 10
378.2776232444
 20
48.687618959
 10
378.4772289822
 20
48.5331799115
 10
378.6837693151
 20
48.3818101547
 10
378.8971026906
 20
48.2336134296
 10
379.1170829008
 20
48.0886913031
 10
379.3435591821
 20
47.9471430974
 10
379.5763763191
 20
47.8090658226
 10
379.8153747506
 20
47.6745541101
 10
380.0603906788
 20
47.5437001474
 10
380.3112561823
 20
47.4165936152
 10
380.5677993302
 20
47.2933216261
 10
380.8298443007
 20
47.1739686645
 10
381.0972115012
 20
47.058616529
 10
381.3697176918
 20
46.9473442762
 10
381.6471761101
 20
46.8402281664
 10
381.9293966002
 20
46.7373416119
 10
382.2161857421
 20
46.6387551257
 10
382.5073469849
 20
46.5445362743
 10
382.8026807812
 20
46.4547496304
 10
383.101984724
 20
46.3694567294
 10
383.4050536854
 20
46.2887160268
 10
383.7116799569
 20
46.2125828582
 10
384.0216533923
 20
46.1411094015
 10
384.3347615513
 20
46.074344641
 10
384.6507898451
 20
46.0123343339
 10
384.9695216838
 20
45.9551209791
 10
385.2907386245
 20
45.9027437877
 10
385.6142205212
 20
45.8552386563
 10
385.9397456754
 20
45.8126381427
 10
386.2670909885
 20
45.7749714432
 10
386.5960321145
 20
45.7422643725
 10
386.9263436134
 20
45.7145393465
 10
387.2577991063
 20
45.6918153665
 10
387.5901714301
 20
45.6741080064
 10
387.9232327934
 20
45.661429402
 10
388.2567549327
 20
45.6537882425
 10
388.5905092686
 20
45.6511897648
 10
388.9242670623
 20
45.6536357498
 10
389.2577995731
 20
45.6611245211
 10
389.5908782145
 20
45.6736509463
 10
389.9232747109
 20
45.6912064404
 10
390.2547612544
 20
45.7137789717
 10
390.5851106606
 20
45.7413530701
 10
390.9140965247
 20
45.7739098378
 10
391.2414933761
 20
45.811426962
 10
391.5670768334
 20
45.8538787302
 10
391.8906237579
 20
45.9012360482
 10
392.2119124067
 20
45.9534664597
 10
392.5307225847
 20
46.0105341685
 10
392.8468357953
 20
46.0724000632
 10
393.1600353902
 20
46.1390217441
 10
393.4701067181
 20
46.210353552
 10
393.7768372717
 20
46.2863465996
 10
394.080016833
 20
46.3669488052
 10
394.3794376181
 20
46.4521049279
 10
394.6748944187
 20
46.541756606
 10
394.9661847437
 20
46.6358423968
 10
395.2531089572
 20
46.7342978185
 10
395.5354704156
 20
46.8370553947
 10
395.8130756024
 20
46.9440447005
 10
396.0857342611
 20
47.0551924108
 10
396.3532595249
 20
47.1704223505
 10
396.6154680454
 20
47.2896555467
 10
396.872180118
 20
47.412810283
 10
397.123219805
 20
47.5398021552
 10
397.3684150564
 20
47.6705441295
 10
397.6075978275
 20
47.8049466019
  0
LWPOLYLINE
  5
101
330
1F
100
AcDbEntity
  8
0
  6
Continuous
 62
     7
370
    30
100
AcDbPolyline
 90
       96
 70
   128
 43
0.0
 10
397.6075978275
 20
49.0803564042
 10
397.3684150564
 20
48.9459539319
 10
397.123219805
 20
48.8152119576
 10
396.872180118
 20
48.6882200853
 10
396.6154680454
 20
48.565065349
 10
396.3532595249
 20
48.4458321528
 10
396.0857342611
 20
48.3306022132
 10
395.8130756024
 20
48.2194545029
 10
395.5354704156
 20
48.112465197
 10
395.2531089572
 20
48.0097076208
 10
394.9661847437
 20
47.9112521991
 10
394.6748944187
 20
47.8171664083
 10
394.3794376181
 20
47.7275147302
 10
394.080016833
 20
47.6423586075
 10
393.7768372717
 20
47.561756402
 10
393.4701067181
 20
47.4857633543
 10
393.1600353902
 20
47.4144315464
 10
392.8468357953
 20
47.3478098655
 10
392.5307225847
 20
47.2859439708
 10
392.2119124067
 20
47.228876262
 10
391.8906237579
 20
47.1766458505
 10
391.5670768334
 20
47.1292885325
 10
391.2414933761
 20
47.0868367643
 10
390.9140965247
 20
47.0493196401
 10
390.5851106606
 20
47.0167628724
 10
390.2547612544
 20
46.989188774
 10
389.9232747109
 20
46.9666162427
 10
389.5908782145
 20
46.9490607486
 10
389.2577995731
 20
46.9365343234
 10
388.9242670623
 20
46.9290455521
 10
388.5905092686
 20
46.9265995672
 10
388.2567549327
 20
46.9291980449
 10
387.9232327934
 20
46.9368392043
 10
387.5901714301
 20
46.9495178088
 10
387.2577991063
 20
46.9672251688
 10
386.9263436134
 20
46.9899491488
 10
386.5960321145
 20
47.0176741748
 10
386.2670909885
 20
47.0503812455
 10
385.9397456754
 20
47.0880479451
 10
385.6142205212
 20
47.1306484586
 10
385.2907386245
 20
47.17815359
 10
384.9695216838
 20
47.2305307814
 10
384.6507898451
 20
47.2877441362
 10
384.3347615513
 20
47.3497544433
 10
384.0216533923
 20
47.4165192038
 10
383.7116799569
 20
47.4879926605
 10
383.4050536853
 20
47.5641258291
 10
383.101984724
 20
47.6448665317
 10
382.8026807812
 20
47.7301594327
 10
382.5073469849
 20
47.8199460766
 10
382.2161857421
 20
47.914164928
 10
381.9293966002
 20
48.0127514142
 10
381.6471761101
 20
48.1156379688
 10
381.3697176918
 20
48.2227540785
 10
381.0972115012
 20
48.3340263313
 10
380.8298443007
 20
48.4493784668
 10
380.5677993302
 20
48.5687314284
 10
380.3112561823
 20
48.6920034175
 10
380.0603906788
 20
48.8191099497
 10
379.8153747506
 20
48.9499639124
 10
379.5763763191
 20
49.0844756249
 10
379.3435591821
 20
49.2225528997
 10
379.1170829008
 20
49.3641011054
 10
378.8971026906
 20
49.5090232319
 10
378.6837693151
 20
49.657219957
 10
378.4772289822
 20
49.8085897139
 10
378.2776232444
 20
49.9630287613
 10
378.0850889016
 20
50.1204312546
 10
377.899757907
 20
50.2806893178
 10
377.7217572774
 20
50.4436931181
 10
377.5512090055
 20
50.6093309408
 10
377.3882299765
 20
50.777489266
 10
377.2329318881
 20
50.9480528465
 10
377.0854211739
 20
51.1209047865
 10
376.9457989303
 20
51.2959266218
 10
376.8141608475
 20
51.4729984013
 10
376.6905971437
 20
51.6519987688
 10
376.5751925031
 20
51.8328050464
 10
376.4680260185
 20
52.0152933184
 10
376.3691711362
 20
52.1993385167
 10
376.2786956067
 20
52.3848145057
 10
376.1966614372
 20
52.5715941695
 10
376.1231248499
 20
52.7595494986
 10
376.058136243
 20
52.9485516779
 10
376.0017401566
 20
53.1384711747
 10
375.9539752417
 20
53.3291778276
 10
375.914874234
 20
53.5205409359
 10
375.8844639313
 20
53.7124293488
 10
375.8627651753
 20
53.9047115556
 10
375.8497928374
 20
54.0972557757
 10
375.845555808
 20
54.2899300488
 10
375.8500569911
 20
54.4826023258
 10
375.8632933018
 20
54.6751405585
 10
375.8852556685
 20
54.8674127909
 10
375.9159290393
 20
55.0592872493
 10
375.9455548097
 20
55.2070625364
  0
ARC
  5
102
330
1F
100
AcDbEntity
  8
0
  6
Continuous
 62
     7
370
    30
100
AcDbCircle
 10
394.0650630675
 20
56.3182412427
 30
0.0
 40
8.182862455335886
100
AcDbArc
 50
310.7120126799
 51
316.9446345155
  0
LINE
  5
103
330
1F
100
AcDbEntity
  8
0
  6
Continuous
 62
     7
370
    30
100
AcDbLine
 10
399.4023951708
 20
50.11565114
 30
0.0
 11
397.6075978275
 21
49.0803564042
 31
0.0
  0
LINE
  5
104
330
1F
100
AcDbEntity
  8
0
  6
Continuous
 62
     7
370
    30
100
AcDbLine
 10
399.4023951708
 20
48.8402413377
 30
0.0
 11
399.4023951708
 21
50.11565114
 31
0.0
  0
LINE
  5
105
330
1F
100
AcDbEntity
  8
0
  6
Continuous
 62
     7
370
    30
100
AcDbLine
 10
397.6075978275
 20
47.8049466019
 30
0.0
 11
399.4023951708
 21
48.8402413377
 31
0.0
  0
ARC
  5
106
330
1F
100
AcDbEntity
  8
0
  6
Continuous
 62
     7
370
    30
100
AcDbCircle
 10
395.2991648026
 20
53.8427776734
 30
0.0
 40
6.470074902563884
100
AcDbArc
 50
309.3596313771
 51
338.4457159596
  0
LINE
  5
107
330
1F
100
AcDbEntity
  8
0
  6
Continuous
 62
     7
370
    30
100
AcDbLine
 10
379.944227745
 20
66.2291208933
 30
0.0
 11
379.9540608917
 21
66.2346355475
 31
0.0
  0
LINE
  5
108
330
1F
100
AcDbEntity
  8
0
  6
Continuous
 62
     7
370
    30
100
AcDbLine
 10
397.4048505733
 20
49.2098338343
 30
0.0
 11
397.394637997
 21
49.2033928371
 31
0.0
  0
ENDSEC
  0
SECTION
  2
OBJECTS
  0
DICTIONARY
  5
C
330
0
100
AcDbDictionary
281
     1
  3
ACAD_GROUP
350
D
  3
ACAD_LAYOUT
350
1A
  3
ACAD_MLINESTYLE
350
17
  3
ACAD_PLOTSETTINGS
350
19
  3
ACAD_PLOTSTYLENAME
350
E
  3
ACAD_SCALELIST
350
47
  0
DICTIONARY
  5
D
102
{ACAD_REACTORS
330
C
102
}
330
C
100
AcDbDictionary
281
     1
  0
DICTIONARY
  5
1A
102
{ACAD_REACTORS
330
C
102
}
330
C
100
AcDbDictionary
281
     1
  3
Layout1
350
1E
  3
Layout2
350
26
  3
Model
350
22
  0
DICTIONARY
  5
17
102
{ACAD_REACTORS
330
C
102
}
330
C
100
AcDbDictionary
281
     1
  3
Standard
350
18
  0
DICTIONARY
  5
19
102
{ACAD_REACTORS
330
C
102
}
330
C
100
AcDbDictionary
281
     1
  0
ACDBDICTIONARYWDFLT
  5
E
102
{ACAD_REACTORS
330
C
102
}
330
C
100
AcDbDictionary
281
     1
  3
Normal
350
F
100
AcDbDictionaryWithDefault
340
F
  0
DICTIONARY
  5
47
102
{ACAD_REACTORS
330
C
102
}
330
C
100
AcDbDictionary
281
     1
  3
A0
350
48
  3
A1
350
49
  3
A2
350
4A
  3
A3
350
4B
  3
A4
350
4C
  3
A5
350
4D
  3
A6
350
4E
  3
A7
350
4F
  3
A8
350
50
  3
A9
350
51
  3
B0
350
52
  3
B1
350
53
  3
B2
350
54
  3
B3
350
55
  3
B4
350
56
  3
B5
350
57
  3
B6
350
58
  3
B7
350
59
  3
B8
350
5A
  3
B9
350
5B
  3
C0
350
5C
  3
C1
350
5D
  3
C2
350
5E
  3
C3
350
5F
  3
C4
350
60
  3
C5
350
61
  3
C6
350
62
  3
C7
350
63
  3
C8
350
64
  3
C9
350
65
  3
D0
350
66
  3
D1
350
67
  3
D2
350
68
  0
LAYOUT
  5
1E
102
{ACAD_REACTORS
330
1A
102
}
330
1A
100
AcDbPlotSettings
  1

  2
none_device
  4

  6

 40
0.0
 41
0.0
 42
0.0
 43
0.0
 44
0.0
 45
0.0
 46
0.0
 47
0.0
 48
0.0
 49
0.0
140
0.0
141
0.0
142
1.0
143
1.0
 70
   688
 72
     1
 73
     0
 74
     5
  7

 75
    16
147
1.0
148
0.0
149
0.0
100
AcDbLayout
  1
Layout1
 70
     1
 71
     1
 10
0.0
 20
0.0
 11
420.0
 21
297.0
 12
0.0
 22
0.0
 32
0.0
 14
1.0000000000E+20
 24
1.0000000000E+20
 34
1.0000000000E+20
 15
-1.0000000000E+20
 25
-1.0000000000E+20
 35
-1.0000000000E+20
146
0.0
 13
0.0
 23
0.0
 33
0.0
 16
1.0
 26
0.0
 36
0.0
 17
0.0
 27
1.0
 37
0.0
 76
     0
330
1B
  0
LAYOUT
  5
26
102
{ACAD_REACTORS
330
1A
102
}
330
1A
100
AcDbPlotSettings
  1

  2
none_device
  4

  6

 40
0.0
 41
0.0
 42
0.0
 43
0.0
 44
0.0
 45
0.0
 46
0.0
 47
0.0
 48
0.0
 49
0.0
140
0.0
141
0.0
142
1.0
143
1.0
 70
   688
 72
     1
 73
     0
 74
     5
  7

 75
    16
147
1.0
148
0.0
149
0.0
100
AcDbLayout
  1
Layout2
 70
     1
 71
     2
 10
0.0
 20
0.0
 11
0.0
 21
0.0
 12
0.0
 22
0.0
 32
0.0
 14
0.0
 24
0.0
 34
0.0
 15
0.0
 25
0.0
 35
0.0
146
0.0
 13
0.0
 23
0.0
 33
0.0
 16
1.0
 26
0.0
 36
0.0
 17
0.0
 27
1.0
 37
0.0
 76
     0
330
23
  0
LAYOUT
  5
22
102
{ACAD_REACTORS
330
1A
102
}
330
1A
100
AcDbPlotSettings
  1

  2
none_device
  4
Letter_(8.50_x_11.00_Inches)
  6

 40
6.35
 41
6.35
 42
6.35000508
 43
6.35000508
 44
215.9
 45
279.4
 46
0.0
 47
0.0
 48
0.0
 49
0.0
140
0.0
141
0.0
142
1.0
143
1.0
 70
  1712
 72
     1
 73
     0
 74
     0
  7

 75
     0
147
1.0
148
0.0
149
0.0
100
AcDbLayout
  1
Model
 70
     1
 71
     0
 10
0.0
 20
0.0
 11
507.0
 21
280.0
 12
0.0
 22
0.0
 32
0.0
 14
0.0
 24
0.0
 34
0.0
 15
507.0
 25
280.0
 35
0.0
146
0.0
 13
0.0
 23
0.0
 33
0.0
 16
1.0
 26
0.0
 36
0.0
 17
0.0
 27
1.0
 37
0.0
 76
     0
330
1F
331
29
  0
MLINESTYLE
  5
18
102
{ACAD_REACTORS
330
17
102
}
330
17
100
AcDbMlineStyle
  2
Standard
 70
     0
  3

 62
   256
 51
90.0
 52
90.0
 71
     2
 49
0.5
 62
   256
  6
BYLAYER
 49
-0.5
 62
   256
  6
BYLAYER
  0
ACDBPLACEHOLDER
  5
F
102
{ACAD_REACTORS
330
E
102
}
330
E
  0
SCALE
  5
48
102
{ACAD_REACTORS
330
47
102
}
330
47
100
AcDbScale
 70
     0
300
1:1
140
1.0
141
1.0
290
     1
  0
SCALE
  5
49
102
{ACAD_REACTORS
330
47
102
}
330
47
100
AcDbScale
 70
     0
300
1:2
140
1.0
141
2.0
290
     0
  0
SCALE
  5
4A
102
{ACAD_REACTORS
330
47
102
}
330
47
100
AcDbScale
 70
     0
300
1:4
140
1.0
141
4.0
290
     0
  0
SCALE
  5
4B
102
{ACAD_REACTORS
330
47
102
}
330
47
100
AcDbScale
 70
     0
300
1:5
140
1.0
141
5.0
290
     0
  0
SCALE
  5
4C
102
{ACAD_REACTORS
330
47
102
}
330
47
100
AcDbScale
 70
     0
300
1:8
140
1.0
141
8.0
290
     0
  0
SCALE
  5
4D
102
{ACAD_REACTORS
330
47
102
}
330
47
100
AcDbScale
 70
     0
300
1:10
140
1.0
141
10.0
290
     0
  0
SCALE
  5
4E
102
{ACAD_REACTORS
330
47
102
}
330
47
100
AcDbScale
 70
     0
300
1:16
140
1.0
141
16.0
290
     0
  0
SCALE
  5
4F
102
{ACAD_REACTORS
330
47
102
}
330
47
100
AcDbScale
 70
     0
300
1:20
140
1.0
141
20.0
290
     0
  0
SCALE
  5
50
102
{ACAD_REACTORS
330
47
102
}
330
47
100
AcDbScale
 70
     0
300
1:30
140
1.0
141
30.0
290
     0
  0
SCALE
  5
51
102
{ACAD_REACTORS
330
47
102
}
330
47
100
AcDbScale
 70
     0
300
1:40
140
1.0
141
40.0
290
     0
  0
SCALE
  5
52
102
{ACAD_REACTORS
330
47
102
}
330
47
100
AcDbScale
 70
     0
300
1:50
140
1.0
141
50.0
290
     0
  0
SCALE
  5
53
102
{ACAD_REACTORS
330
47
102
}
330
47
100
AcDbScale
 70
     0
300
1:100
140
1.0
141
100.0
290
     0
  0
SCALE
  5
54
102
{ACAD_REACTORS
330
47
102
}
330
47
100
AcDbScale
 70
     0
300
2:1
140
2.0
141
1.0
290
     0
  0
SCALE
  5
55
102
{ACAD_REACTORS
330
47
102
}
330
47
100
AcDbScale
 70
     0
300
4:1
140
4.0
141
1.0
290
     0
  0
SCALE
  5
56
102
{ACAD_REACTORS
330
47
102
}
330
47
100
AcDbScale
 70
     0
300
8:1
140
8.0
141
1.0
290
     0
  0
SCALE
  5
57
102
{ACAD_REACTORS
330
47
102
}
330
47
100
AcDbScale
 70
     0
300
10:1
140
10.0
141
1.0
290
     0
  0
SCALE
  5
58
102
{ACAD_REACTORS
330
47
102
}
330
47
100
AcDbScale
 70
     0
300
100:1
140
100.0
141
1.0
290
     0
  0
SCALE
  5
59
102
{ACAD_REACTORS
330
47
102
}
330
47
100
AcDbScale
 70
     0
300
1/128" = 1'-0"
140
0.0078125
141
12.0
290
     0
  0
SCALE
  5
5A
102
{ACAD_REACTORS
330
47
102
}
330
47
100
AcDbScale
 70
     0
300
1/64" = 1'-0"
140
0.015625
141
12.0
290
     0
  0
SCALE
  5
5B
102
{ACAD_REACTORS
330
47
102
}
330
47
100
AcDbScale
 70
     0
300
1/32" = 1'-0"
140
0.03125
141
12.0
290
     0
  0
SCALE
  5
5C
102
{ACAD_REACTORS
330
47
102
}
330
47
100
AcDbScale
 70
     0
300
1/16" = 1'-0"
140
0.0625
141
12.0
290
     0
  0
SCALE
  5
5D
102
{ACAD_REACTORS
330
47
102
}
330
47
100
AcDbScale
 70
     0
300
3/32" = 1'-0"
140
0.09375
141
12.0
290
     0
  0
SCALE
  5
5E
102
{ACAD_REACTORS
330
47
102
}
330
47
100
AcDbScale
 70
     0
300
1/8" = 1'-0"
140
0.125
141
12.0
290
     0
  0
SCALE
  5
5F
102
{ACAD_REACTORS
330
47
102
}
330
47
100
AcDbScale
 70
     0
300
3/16" = 1'-0"
140
0.1875
141
12.0
290
     0
  0
SCALE
  5
60
102
{ACAD_REACTORS
330
47
102
}
330
47
100
AcDbScale
 70
     0
300
1/4" = 1'-0"
140
0.25
141
12.0
290
     0
  0
SCALE
  5
61
102
{ACAD_REACTORS
330
47
102
}
330
47
100
AcDbScale
 70
     0
300
3/8" = 1'-0"
140
0.375
141
12.0
290
     0
  0
SCALE
  5
62
102
{ACAD_REACTORS
330
47
102
}
330
47
100
AcDbScale
 70
     0
300
1/2" = 1'-0"
140
0.5
141
12.0
290
     0
  0
SCALE
  5
63
102
{ACAD_REACTORS
330
47
102
}
330
47
100
AcDbScale
 70
     0
300
3/4" = 1'-0"
140
0.75
141
12.0
290
     0
  0
SCALE
  5
64
102
{ACAD_REACTORS
330
47
102
}
330
47
100
AcDbScale
 70
     0
300
1" = 1'-0"
140
1.0
141
12.0
290
     0
  0
SCALE
  5
65
102
{ACAD_REACTORS
330
47
102
}
330
47
100
AcDbScale
 70
     0
300
1-1/2" = 1'-0"
140
1.5
141
12.0
290
     0
  0
SCALE
  5
66
102
{ACAD_REACTORS
330
47
102
}
330
47
100
AcDbScale
 70
     0
300
3" = 1'-0"
140
3.0
141
12.0
290
     0
  0
SCALE
  5
67
102
{ACAD_REACTORS
330
47
102
}
330
47
100
AcDbScale
 70
     0
300
6" = 1'-0"
140
6.0
141
12.0
290
     0
  0
SCALE
  5
68
102
{ACAD_REACTORS
330
47
102
}
330
47
100
AcDbScale
 70
     0
300
1'-0" = 1'-0"
140
12.0
141
12.0
290
     0
  0
ENDSEC
  0
EOF
