  0
SECTION
  2
HEADER
  9
$ACADVER
  1
AC1015
  9
$ACADMAINTVER
 70
     6
  9
$DWGCODEPAGE
  3
ANSI_1252
  9
$INSBASE
 10
0.0
 20
0.0
 30
0.0
  9
$EXTMIN
 10
0.0
 20
0.0
 30
0.0
  9
$EXTMAX
 10
599.0
 20
429.0
 30
0.0
  9
$LIMMIN
 10
0.0
 20
0.0
  9
$LIMMAX
 10
599.0
 20
429.0
  9
$ORTHOMODE
 70
     0
  9
$REGENMODE
 70
     1
  9
$FILLMODE
 70
     1
  9
$QTEXTMODE
 70
     0
  9
$MIRRTEXT
 70
     1
  9
$LTSCALE
 40
1.0
  9
$ATTMODE
 70
     1
  9
$TEXTSIZE
 40
3.5
  9
$TRACEWID
 40
1.0
  9
$TEXTSTYLE
  7
Standard
  9
$CLAYER
  8
0
  9
$CELTYPE
  6
ByLayer
  9
$CECOLOR
 62
   256
  9
$CELTSCALE
 40
1.0
  9
$DISPSILH
 70
     0
  9
$DIMSCALE
 40
1.0
  9
$DIMASZ
 40
3.302
  9
$DIMEXO
 40
1.0
  9
$DIMDLI
 40
3.75
  9
$DIMRND
 40
0.0
  9
$DIMDLE
 40
0.0
  9
$DIMEXE
 40
1.0
  9
$DIMTP
 40
0.0
  9
$DIMTM
 40
0.0
  9
$DIMTXT
 40
2.8
  9
$DIMCEN
 40
2.5
  9
$DIMTSZ
 40
0.0
  9
$DIMTOL
 70
     0
  9
$DIMLIM
 70
     0
  9
$DIMTIH
 70
     1
  9
$DIMTOH
 70
     1
  9
$DIMSE1
 70
     0
  9
$DIMSE2
 70
     0
  9
$DIMTAD
 70
     1
  9
$DIMZIN
 70
     0
  9
$DIMBLK
  1

  9
$DIMASO
 70
     1
  9
$DIMSHO
 70
     1
  9
$DIMPOST
  1

  9
$DIMAPOST
  1

  9
$DIMALT
 70
     0
  9
$DIMALTD
 70
     3
  9
$DIMALTF
 40
0.0393700787
  9
$DIMLFAC
 40
1.0
  9
$DIMTOFL
 70
     1
  9
$DIMTVP
 40
0.0
  9
$DIMTIX
 70
     0
  9
$DIMSOXD
 70
     0
  9
$DIMSAH
 70
     0
  9
$DIMBLK1
  1

  9
$DIMBLK2
  1

  9
$DIMSTYLE
  2
ISO-25
  9
$DIMCLRD
 70
     0
  9
$DIMCLRE
 70
     0
  9
$DIMCLRT
 70
     0
  9
$DIMTFAC
 40
1.0
  9
$DIMGAP
 40
1.524
  9
$DIMJUST
 70
     0
  9
$DIMSD1
 70
     0
  9
$DIMSD2
 70
     0
  9
$DIMTOLJ
 70
     0
  9
$DIMTZIN
 70
     0
  9
$DIMALTZ
 70
     0
  9
$DIMALTTZ
 70
     0
  9
$DIMUPT
 70
     0
  9
$DIMDEC
 70
     2
  9
$DIMTDEC
 70
     2
  9
$DIMALTU
 70
     2
  9
$DIMALTTD
 70
     3
  9
$DIMTXSTY
  7
Standard
  9
$DIMAUNIT
 70
     0
  9
$DIMADEC
 70
     2
  9
$DIMALTRND
 40
0.0
  9
$DIMAZIN
 70
     0
  9
$DIMDSEP
 70
    44
  9
$DIMATFIT
 70
     3
  9
$DIMFRAC
 70
     0
  9
$DIMLDRBLK
  1

  9
$DIMLUNIT
 70
     2
  9
$DIMLWD
 70
    -2
  9
$DIMLWE
 70
    -2
  9
$DIMTMOVE
 70
     0
  9
$LUNITS
 70
     2
  9
$LUPREC
 70
     2
  9
$SKETCHINC
 40
1.0
  9
$FILLETRAD
 40
10.0
  9
$AUNITS
 70
     0
  9
$AUPREC
 70
     2
  9
$MENU
  1
.
  9
$ELEVATION
 40
0.0
  9
$PELEVATION
 40
0.0
  9
$THICKNESS
 40
0.0
  9
$LIMCHECK
 70
     0
  9
$CHAMFERA
 40
0.0
  9
$CHAMFERB
 40
0.0
  9
$CHAMFERC
 40
0.0
  9
$CHAMFERD
 40
0.0
  9
$SKPOLY
 70
     0
  9
$TDCREATE
 40
2458898.629749595
  9
$TDUCREATE
 40
2458898.546416262
  9
$TDUPDATE
 40
2458898.629750278
  9
$TDUUPDATE
 40
2458898.546416944
  9
$TDINDWG
 40
0.0000000116
  9
$TDUSRTIMER
 40
0.0000000116
  9
$USRTIMER
 70
     1
  9
$ANGBASE
 50
0.0
  9
$ANGDIR
 70
     0
  9
$PDMODE
 70
     0
  9
$PDSIZE
 40
-1.0
  9
$PLINEWID
 40
0.0
  9
$SPLFRAME
 70
     0
  9
$SPLINETYPE
 70
     6
  9
$SPLINESEGS
 70
     8
  9
$HANDSEED
  5
18C
  9
$SURFTAB1
 70
     6
  9
$SURFTAB2
 70
     6
  9
$SURFTYPE
 70
     6
  9
$SURFU
 70
     6
  9
$SURFV
 70
     6
  9
$UCSBASE
  2

  9
$UCSNAME
  2

  9
$UCSORG
 10
0.0
 20
0.0
 30
0.0
  9
$UCSXDIR
 10
1.0
 20
0.0
 30
0.0
  9
$UCSYDIR
 10
0.0
 20
1.0
 30
0.0
  9
$UCSORTHOREF
  2

  9
$UCSORTHOVIEW
 70
     0
  9
$UCSORGTOP
 10
0.0
 20
0.0
 30
0.0
  9
$UCSORGBOTTOM
 10
0.0
 20
0.0
 30
0.0
  9
$UCSORGLEFT
 10
0.0
 20
0.0
 30
0.0
  9
$UCSORGRIGHT
 10
0.0
 20
0.0
 30
0.0
  9
$UCSORGFRONT
 10
0.0
 20
0.0
 30
0.0
  9
$UCSORGBACK
 10
0.0
 20
0.0
 30
0.0
  9
$PUCSBASE
  2

  9
$PUCSNAME
  2

  9
$PUCSORG
 10
0.0
 20
0.0
 30
0.0
  9
$PUCSXDIR
 10
1.0
 20
0.0
 30
0.0
  9
$PUCSYDIR
 10
0.0
 20
1.0
 30
0.0
  9
$PUCSORTHOREF
  2

  9
$PUCSORTHOVIEW
 70
     0
  9
$PUCSORGTOP
 10
0.0
 20
0.0
 30
0.0
  9
$PUCSORGBOTTOM
 10
0.0
 20
0.0
 30
0.0
  9
$PUCSORGLEFT
 10
0.0
 20
0.0
 30
0.0
  9
$PUCSORGRIGHT
 10
0.0
 20
0.0
 30
0.0
  9
$PUCSORGFRONT
 10
0.0
 20
0.0
 30
0.0
  9
$PUCSORGBACK
 10
0.0
 20
0.0
 30
0.0
  9
$USERI1
 70
     0
  9
$USERI2
 70
     0
  9
$USERI3
 70
     0
  9
$USERI4
 70
     0
  9
$USERI5
 70
     0
  9
$USERR1
 40
0.0
  9
$USERR2
 40
0.0
  9
$USERR3
 40
0.0
  9
$USERR4
 40
0.0
  9
$USERR5
 40
0.0
  9
$WORLDVIEW
 70
     1
  9
$SHADEDGE
 70
     3
  9
$SHADEDIF
 70
    70
  9
$TILEMODE
 70
     1
  9
$MAXACTVP
 70
    64
  9
$PINSBASE
 10
0.0
 20
0.0
 30
0.0
  9
$PLIMCHECK
 70
     0
  9
$PEXTMIN
 10
1.0000000000E+20
 20
1.0000000000E+20
 30
1.0000000000E+20
  9
$PEXTMAX
 10
-1.0000000000E+20
 20
-1.0000000000E+20
 30
-1.0000000000E+20
  9
$PLIMMIN
 10
0.0
 20
0.0
  9
$PLIMMAX
 10
420.0
 20
297.0
  9
$UNITMODE
 70
     0
  9
$VISRETAIN
 70
     1
  9
$PLINEGEN
 70
     0
  9
$PSLTSCALE
 70
     1
  9
$TREEDEPTH
 70
  3020
  9
$CMLSTYLE
  2
Standard
  9
$CMLJUST
 70
     0
  9
$CMLSCALE
 40
20.0
  9
$PROXYGRAPHICS
 70
     1
  9
$MEASUREMENT
 70
     1
  9
$CELWEIGHT
370
    -1
  9
$ENDCAPS
280
     0
  9
$JOINSTYLE
280
     0
  9
$LWDISPLAY
290
     1
  9
$INSUNITS
 70
     4
  9
$HYPERLINKBASE
  1

  9
$STYLESHEET
  1

  9
$XEDIT
290
     1
  9
$CEPSNTYPE
380
     0
  9
$PSTYLEMODE
290
     1
  9
$FINGERPRINTGUID
  2
{014764BD-800E-42EA-A083-35DE11CCF788}
  9
$VERSIONGUID
  2
{FAEB1C32-E019-11D5-929B-00C0DF256EC4}
  9
$EXTNAMES
290
     1
  9
$PSVPSCALE
 40
0.0
  9
$OLESTARTUP
290
     0
  0
ENDSEC
  0
SECTION
  2
CLASSES
  0
CLASS
  1
ACDBDICTIONARYWDFLT
  2
AcDbDictionaryWithDefault
  3
ObjectDBX Classes
 90
        0
280
     0
281
     0
  0
CLASS
  1
VISUALSTYLE
  2
AcDbVisualStyle
  3
ObjectDBX Classes
 90
     4095
280
     0
281
     0
  0
CLASS
  1
MATERIAL
  2
AcDbMaterial
  3
ObjectDBX Classes
 90
     1153
280
     0
281
     0
  0
CLASS
  1
SCALE
  2
AcDbScale
  3
ObjectDBX Classes
 90
     1153
280
     0
281
     0
  0
CLASS
  1
TABLESTYLE
  2
AcDbTableStyle
  3
ObjectDBX Classes
 90
     4095
280
     0
281
     0
  0
CLASS
  1
MLEADERSTYLE
  2
AcDbMLeaderStyle
  3
ACDB_MLEADERSTYLE_CLASS
 90
     4095
280
     0
281
     0
  0
CLASS
  1
SUN
  2
AcDbSun
  3
SCENEOE
 90
     1153
280
     0
281
     0
  0
CLASS
  1
ACDBPLACEHOLDER
  2
AcDbPlaceHolder
  3
ObjectDBX Classes
 90
        0
280
     0
281
     0
  0
CLASS
  1
LAYOUT
  2
AcDbLayout
  3
ObjectDBX Classes
 90
        0
280
     0
281
     0
  0
ENDSEC
  0
SECTION
  2
TABLES
  0
TABLE
  2
VPORT
  5
8
330
0
100
AcDbSymbolTable
 70
     1
  0
VPORT
  5
29
330
8
100
AcDbSymbolTableRecord
100
AcDbViewportTableRecord
  2
*Active
 70
     0
 10
0.0
 20
0.0
 11
1.0
 21
1.0
 12
299.5
 22
214.5
 13
0.0
 23
0.0
 14
10.0
 24
10.0
 15
10.0
 25
10.0
 16
0.0
 26
0.0
 36
1.0
 17
0.0
 27
0.0
 37
0.0
 40
429.0
 41
1.3962703963
 42
50.0
 43
0.0
 44
0.0
 50
0.0
 51
0.0
 71
     0
 72
  2000
 73
     1
 74
     3
 75
     0
 76
     0
 77
     0
 78
     0
281
     0
 65
     1
110
0.0
120
0.0
130
0.0
111
1.0
121
0.0
131
0.0
112
0.0
122
1.0
132
0.0
 79
     0
146
0.0
  0
ENDTAB
  0
TABLE
  2
LTYPE
  5
5
330
0
100
AcDbSymbolTable
 70
     6
  0
LTYPE
  5
14
330
5
100
AcDbSymbolTableRecord
100
AcDbLinetypeTableRecord
  2
ByBlock
 70
     0
  3

 72
    65
 73
     0
 40
0.0
  0
LTYPE
  5
15
330
5
100
AcDbSymbolTableRecord
100
AcDbLinetypeTableRecord
  2
ByLayer
 70
     0
  3

 72
    65
 73
     0
 40
0.0
  0
LTYPE
  5
16
330
5
100
AcDbSymbolTableRecord
100
AcDbLinetypeTableRecord
  2
Continuous
 70
     0
  3
Solid line
 72
    65
 73
     0
 40
0.0
  0
LTYPE
  5
6E
330
5
100
AcDbSymbolTableRecord
100
AcDbLinetypeTableRecord
  2
HIDDEN
 70
     0
  3
Hidden __ __ __ __ __ __ __ __ __ __ __ __ __ __
 72
    65
 73
     2
 40
1.905
 49
1.27
 74
     0
 49
-0.635
 74
     0
  0
LTYPE
  5
6F
330
5
100
AcDbSymbolTableRecord
100
AcDbLinetypeTableRecord
  2
PHANTOM
 70
     0
  3
Phantom ______  __  __  ______  __  __  ______
 72
    65
 73
     6
 40
12.7
 49
6.35
 74
     0
 49
-1.27
 74
     0
 49
1.27
 74
     0
 49
-1.27
 74
     0
 49
1.27
 74
     0
 49
-1.27
 74
     0
  0
LTYPE
  5
70
330
5
100
AcDbSymbolTableRecord
100
AcDbLinetypeTableRecord
  2
CENTER
 70
     0
  3
Center ____ _ ____ _ ____ _ ____ _ ____ _ ____
 72
    65
 73
     4
 40
10.16
 49
6.35
 74
     0
 49
-1.27
 74
     0
 49
1.27
 74
     0
 49
-1.27
 74
     0
  0
LTYPE
  5
71
330
5
100
AcDbSymbolTableRecord
100
AcDbLinetypeTableRecord
  2
CENTERX2
 70
     0
  3
Center (2x) ________  __  ________  __  _____
 72
    65
 73
     4
 40
20.32
 49
12.7
 74
     0
 49
-2.54
 74
     0
 49
2.54
 74
     0
 49
-2.54
 74
     0
  0
LTYPE
  5
72
330
5
100
AcDbSymbolTableRecord
100
AcDbLinetypeTableRecord
  2
DOT2
 70
     0
  3
Dot (.5x) ........................................
 72
    65
 73
     2
 40
0.635
 49
0.0
 74
     0
 49
-0.635
 74
     0
  0
ENDTAB
  0
TABLE
  2
LAYER
  5
2
330
0
100
AcDbSymbolTable
 70
     2
  0
LAYER
  5
10
330
2
100
AcDbSymbolTableRecord
100
AcDbLayerTableRecord
  2
0
 70
     0
 62
     7
  6
Continuous
370
    -3
390
F
  0
LAYER
  5
73
330
2
100
AcDbSymbolTableRecord
100
AcDbLayerTableRecord
  2
FORMAT
 70
     0
 62
     7
  6
Continuous
370
    -3
390
F
  0
ENDTAB
  0
TABLE
  2
STYLE
  5
3
330
0
100
AcDbSymbolTable
 70
     2
  0
STYLE
  5
11
330
3
100
AcDbSymbolTableRecord
100
AcDbTextStyleTableRecord
  2
Standard
 70
     0
 40
0.0
 41
1.0
 50
0.0
 71
     0
 42
3.5
  3
txt
  4

  0
STYLE
  5
74
330
3
100
AcDbSymbolTableRecord
100
AcDbTextStyleTableRecord
  2
SLDTEXTSTYLE0
 70
     0
 40
0.0
 41
0.605
 50
0.0
 71
     0
 42
3.5
  3
TXT
  4

  0
ENDTAB
  0
TABLE
  2
VIEW
  5
6
330
0
100
AcDbSymbolTable
 70
     0
  0
ENDTAB
  0
TABLE
  2
UCS
  5
7
330
0
100
AcDbSymbolTable
 70
     0
  0
ENDTAB
  0
TABLE
  2
APPID
  5
9
330
0
100
AcDbSymbolTable
 70
     1
  0
APPID
  5
12
330
9
100
AcDbSymbolTableRecord
100
AcDbRegAppTableRecord
  2
ACAD
 70
     0
  0
ENDTAB
  0
TABLE
  2
DIMSTYLE
  5
A
330
0
100
AcDbSymbolTable
 70
     1
100
AcDbDimStyleTable
  0
DIMSTYLE
105
27
330
A
100
AcDbSymbolTableRecord
100
AcDbDimStyleTableRecord
  2
ISO-25
 70
     0
 41
2.5
 42
0.625
 43
3.75
 44
1.25
 73
     0
 74
     0
 77
     1
 78
     8
140
2.5
141
2.5
143
0.0393700787
147
0.625
171
     3
172
     1
178
     0
271
     2
272
     2
274
     3
278
    44
283
     0
284
     8
340
11
  0
ENDTAB
  0
TABLE
  2
BLOCK_RECORD
  5
1
330
0
100
AcDbSymbolTable
 70
     1
  0
BLOCK_RECORD
  5
1F
330
1
100
AcDbSymbolTableRecord
100
AcDbBlockTableRecord
  2
*Model_Space
340
22
  0
BLOCK_RECORD
  5
1B
330
1
100
AcDbSymbolTableRecord
100
AcDbBlockTableRecord
  2
*Paper_Space
340
1E
  0
BLOCK_RECORD
  5
23
330
1
100
AcDbSymbolTableRecord
100
AcDbBlockTableRecord
  2
*Paper_Space0
340
26
  0
ENDTAB
  0
ENDSEC
  0
SECTION
  2
BLOCKS
  0
BLOCK
  5
20
330
1F
100
AcDbEntity
  8
0
100
AcDbBlockBegin
  2
*Model_Space
 70
     0
 10
0.0
 20
0.0
 30
0.0
  3
*Model_Space
  1

  0
ENDBLK
  5
21
330
1F
100
AcDbEntity
  8
0
100
AcDbBlockEnd
  0
BLOCK
  5
1C
330
1B
100
AcDbEntity
 67
     1
  8
0
100
AcDbBlockBegin
  2
*Paper_Space
 70
     0
 10
0.0
 20
0.0
 30
0.0
  3
*Paper_Space
  1

  0
ENDBLK
  5
1D
330
1B
100
AcDbEntity
 67
     1
  8
0
100
AcDbBlockEnd
  0
BLOCK
  5
24
330
23
100
AcDbEntity
  8
0
100
AcDbBlockBegin
  2
*Paper_Space0
 70
     0
 10
0.0
 20
0.0
 30
0.0
  3
*Paper_Space0
  1

  0
ENDBLK
  5
25
330
23
100
AcDbEntity
  8
0
100
AcDbBlockEnd
  0
ENDSEC
  0
SECTION
  2
ENTITIES
  0
MTEXT
  5
75
330
1F
100
AcDbEntity
  8
0
  6
Continuous
 62
     7
370
     0
100
AcDbMText
 10
7.2782978723
 20
22.1884790273
 30
0.0
 40
10.0
 41
0.0
 71
     1
 72
     1
  1
1:1
  7
SLDTEXTSTYLE0
 73
     1
 44
1.0
  0
LINE
  5
76
330
1F
100
AcDbEntity
  8
0
  6
Continuous
 62
     7
370
    30
100
AcDbLine
 10
239.0
 20
353.5628963962
 30
0.0
 11
239.0
 21
344.6551346911
 31
0.0
  0
LINE
  5
77
330
1F
100
AcDbEntity
  8
0
  6
Continuous
 62
     7
370
    30
100
AcDbLine
 10
260.0
 20
344.6551346911
 30
0.0
 11
260.0
 21
353.5628963962
 31
0.0
  0
LINE
  5
78
330
1F
100
AcDbEntity
  8
0
  6
Continuous
 62
     7
370
    30
100
AcDbLine
 10
239.0225000031
 20
337.339006085
 30
0.0
 11
240.1845
 21
336.6551346911
 31
0.0
  0
LINE
  5
79
330
1F
100
AcDbEntity
  8
0
  6
Continuous
 62
     7
370
    30
100
AcDbLine
 10
258.8155
 20
336.6551346911
 30
0.0
 11
259.9774999969
 21
337.339006085
 31
0.0
  0
LINE
  5
7A
330
1F
100
AcDbEntity
  8
0
  6
Continuous
 62
     7
370
    30
100
AcDbLine
 10
239.0225
 20
344.6551346911
 30
0.0
 11
239.0225
 21
337.339006085
 31
0.0
  0
LINE
  5
7B
330
1F
100
AcDbEntity
  8
0
  6
Continuous
 62
     7
370
    30
100
AcDbLine
 10
259.9775
 20
337.339006085
 30
0.0
 11
259.9775
 21
344.6551346911
 31
0.0
  0
LINE
  5
7C
330
1F
100
AcDbEntity
  8
0
  6
Continuous
 62
     7
370
    30
100
AcDbLine
 10
241.3290852314
 20
344.6551346911
 30
0.0
 11
260.0
 21
344.6551346911
 31
0.0
  0
LINE
  5
7D
330
1F
100
AcDbEntity
  8
0
  6
Continuous
 62
     7
370
    30
100
AcDbLine
 10
239.0
 20
344.6551346911
 30
0.0
 11
241.3290852314
 21
344.6551346911
 31
0.0
  0
LINE
  5
7E
330
1F
100
AcDbEntity
  8
0
  6
Continuous
 62
     7
370
    30
100
AcDbLine
 10
241.3465943345
 20
337.339006085
 30
0.0
 11
259.9774999969
 21
337.339006085
 31
0.0
  0
LINE
  5
7F
330
1F
100
AcDbEntity
  8
0
  6
Continuous
 62
     7
370
    30
100
AcDbLine
 10
239.0225000031
 20
337.339006085
 30
0.0
 11
241.3465943345
 21
337.339006085
 31
0.0
  0
LINE
  5
80
330
1F
100
AcDbEntity
  8
0
  6
Continuous
 62
     7
370
    30
100
AcDbLine
 10
242.2508422355
 20
336.6551346911
 30
0.0
 11
258.8155
 21
336.6551346911
 31
0.0
  0
LINE
  5
81
330
1F
100
AcDbEntity
  8
0
  6
Continuous
 62
     7
370
    30
100
AcDbLine
 10
240.1845
 20
336.6551346911
 30
0.0
 11
242.2508422355
 21
336.6551346911
 31
0.0
  0
CIRCLE
  5
82
330
1F
100
AcDbEntity
  8
0
  6
Continuous
 62
     7
370
    30
100
AcDbCircle
 10
249.5
 20
364.275039039
 30
0.0
 40
14.99999999999994
  0
LINE
  5
83
330
1F
100
AcDbEntity
  8
0
  6
Continuous
 62
     7
370
    30
100
AcDbLine
 10
346.4999999996
 20
336.9060328459
 30
0.0
 11
346.4999999996
 21
280.225039039
 31
0.0
  0
LINE
  5
84
330
1F
100
AcDbEntity
  8
0
  6
Continuous
 62
     7
370
    30
100
AcDbLine
 10
352.4999999996
 20
280.225039039
 30
0.0
 11
352.4999999996
 21
336.9060328459
 31
0.0
  0
ARC
  5
85
330
1F
100
AcDbEntity
  8
0
  6
Continuous
 62
     7
370
    30
100
AcDbCircle
 10
342.4999999996
 20
336.9060328459
 30
0.0
 40
4.000000000000044
100
AcDbArc
 50
0.0
 51
75.6533670898
  0
ARC
  5
86
330
1F
100
AcDbEntity
  8
0
  6
Continuous
 62
     7
370
    30
100
AcDbCircle
 10
349.4999999996
 20
364.275039039
 30
0.0
 40
24.25000000000008
100
AcDbArc
 50
284.3466329102
 51
255.6533670898
  0
ARC
  5
87
330
1F
100
AcDbEntity
  8
0
  6
Continuous
 62
     7
370
    30
100
AcDbCircle
 10
356.4999999996
 20
336.9060328459
 30
0.0
 40
4.0
100
AcDbArc
 50
104.3466329102
 51
180.0
  0
LINE
  5
88
330
1F
100
AcDbEntity
  8
0
  6
Continuous
 62
     7
370
    30
100
AcDbLine
 10
347.4999999996
 20
279.225039039
 30
0.0
 11
351.4999999996
 21
279.225039039
 31
0.0
  0
ARC
  5
89
330
1F
100
AcDbEntity
  8
0
  6
Continuous
 62
     7
370
    30
100
AcDbCircle
 10
347.4999999996
 20
280.225039039
 30
0.0
 40
1.0
100
AcDbArc
 50
180.0
 51
270.0
  0
ARC
  5
8A
330
1F
100
AcDbEntity
  8
0
  6
Continuous
 62
     7
370
    30
100
AcDbCircle
 10
351.4999999996
 20
280.225039039
 30
0.0
 40
1.000000000000057
100
AcDbArc
 50
270.0
 51
360.0
  0
ARC
  5
8B
330
1F
100
AcDbEntity
  8
0
  6
Continuous
 62
     7
370
    30
100
AcDbCircle
 10
349.4999999996
 20
364.275039039
 30
0.0
 40
24.67150935257239
100
AcDbArc
 50
280.4689456475
 51
259.5303679693
  0
SPLINE
  5
8C
330
1F
100
AcDbEntity
  8
0
  6
Continuous
 62
     7
370
    30
100
AcDbSpline
210
0.0
220
0.0
230
1.0
 70
     8
 71
     3
 72
    26
 73
    22
 74
     0
 42
0.000000001
 43
0.00000001
 40
0.0
 40
0.0
 40
0.0
 40
0.0
 40
0.0573216343988703
 40
0.1137160353747886
 40
0.1691831794118202
 40
0.2237230434040267
 40
0.2773356046566962
 40
0.3300208408876836
 40
0.3817787302288695
 40
0.4326092512277485
 40
0.4825123828491683
 40
0.5314881044772295
 40
0.5795363959173676
 40
0.6266572373986417
 40
0.6819737483083956
 40
0.7359549705048435
 40
0.7886008578035074
 40
0.8399113652835549
 40
0.8898864492976772
 40
0.9504707410575766
 40
1.0
 40
1.0
 40
1.0
 40
1.0
 10
374.4
 20
364.2750390390206
 30
0.0
 10
374.384529298562
 20
363.6078564241375
 30
0.0
 10
374.3538381493922
 20
362.2842835248105
 30
0.0
 10
374.1091586111058
 20
360.3277484081275
 30
0.0
 10
373.7295440202712
 20
358.4275317958005
 30
0.0
 10
373.2105388898941
 20
356.5936375688115
 30
0.0
 10
372.5660319362992
 20
354.8347666333973
 30
0.0
 10
371.8055582909408
 20
353.1583424935124
 30
0.0
 10
370.9400586727042
 20
351.5705462237145
 30
0.0
 10
369.9802186489496
 20
350.0763634031217
 30
0.0
 10
368.9367575906621
 20
348.6796383231924
 30
0.0
 10
367.8202319460398
 20
347.3831408370208
 30
0.0
 10
366.6409488585471
 20
346.1886194666472
 30
0.0
 10
365.3294701865333
 20
345.0264742753611
 30
0.0
 10
363.8826341309356
 20
343.9190992692497
 30
0.0
 10
362.3014592701431
 20
342.890674589594
 30
0.0
 10
360.6888148904842
 20
342.0059749017798
 30
0.0
 10
359.0586730790584
 20
341.2595039733214
 30
0.0
 10
357.2926318734096
 20
340.6020298086964
 30
0.0
 10
355.5026116878628
 20
340.0730913789365
 30
0.0
 10
354.2416325259372
 20
339.8422936712814
 30
0.0
 10
353.6744419936761
 20
339.7384804770574
 30
0.0
  0
SPLINE
  5
8D
330
1F
100
AcDbEntity
  8
0
  6
Continuous
 62
     7
370
    30
100
AcDbSpline
210
0.0
220
0.0
230
1.0
 70
     8
 71
     3
 72
    27
 73
    23
 74
     0
 42
0.000000001
 43
0.00000001
 40
0.0
 40
0.0
 40
0.0
 40
0.0
 40
0.0194015451803717
 40
0.0714390643641372
 40
0.1261252336150278
 40
0.173724074326703
 40
0.2231624954645044
 40
0.2744404210742362
 40
0.3275577714858895
 40
0.3825144634015703
 40
0.4393104099692104
 40
0.4971289887760418
 40
0.5529309144637035
 40
0.6067160860372237
 40
0.6584844077774071
 40
0.7082357894425935
 40
0.755970146513005
 40
0.8105847163427711
 40
0.8622951511334496
 40
0.9111012763374117
 40
0.9570029370378565
 40
1.0
 40
1.0
 40
1.0
 40
1.0
 10
345.3209379350502
 20
339.7426799987685
 30
0.0
 10
345.0977962655684
 20
339.7770749401285
 30
0.0
 10
344.2761590227493
 20
339.9037216791781
 30
0.0
 10
342.8500541468363
 20
340.2608146554117
 30
0.0
 10
341.1358372478907
 20
340.7978785112207
 30
0.0
 10
339.4949063888838
 20
341.4529135133385
 30
0.0
 10
337.9375058900987
 20
342.1989352389274
 30
0.0
 10
336.3808143178932
 20
343.0853300869251
 30
0.0
 10
334.8396030091565
 20
344.1188817302082
 30
0.0
 10
333.3304535324651
 20
345.3059697624387
 30
0.0
 10
331.8784905309424
 20
346.6447165191028
 30
0.0
 10
330.5319289175344
 20
348.1029919638649
 30
0.0
 10
329.3274357642908
 20
349.6360910588692
 30
0.0
 10
328.2833815463992
 20
351.1984236878443
 30
0.0
 10
327.3924564851922
 20
352.7722386109455
 30
0.0
 10
326.646015527943
 20
354.3417063668923
 30
0.0
 10
325.9963443687865
 20
355.9891564958895
 30
0.0
 10
325.4596352949156
 20
357.7012032700351
 30
0.0
 10
325.0485230934809
 20
359.4603911786793
 30
0.0
 10
324.7804891758666
 20
361.1438017149798
 30
0.0
 10
324.6268507433977
 20
362.7402295790913
 30
0.0
 10
324.6087531462073
 20
363.77470236662
 30
0.0
 10
324.6
 20
364.2750390390207
 30
0.0
  0
SPLINE
  5
8E
330
1F
100
AcDbEntity
  8
0
  6
Continuous
 62
     7
370
    30
100
AcDbSpline
210
0.0
220
0.0
230
1.0
 70
     8
 71
     3
 72
    47
 73
    43
 74
     0
 42
0.000000001
 43
0.00000001
 40
0.0
 40
0.0
 40
0.0
 40
0.0
 40
0.0249998155263077
 40
0.0499996317368742
 40
0.0749994493245411
 40
0.09999926898215
 40
0.124999091402542
 40
0.1499989172785586
 40
0.1749987473030394
 40
0.1999985821688252
 40
0.2249984225687565
 40
0.2499982691956725
 40
0.2749981227424121
 40
0.2999979839018136
 40
0.3249978533667145
 40
0.3499977318299524
 40
0.3749976199843632
 40
0.399997518522783
 40
0.4249974281380459
 40
0.4499973495229863
 40
0.474997283370436
 40
0.4999972303732275
 40
0.5249971912241908
 40
0.5499971666161559
 40
0.5749971572419509
 40
0.5999971637944027
 40
0.624997186966337
 40
0.6499972274505785
 40
0.6749972859399495
 40
0.6999973631272717
 40
0.7249974597053646
 40
0.7499975763670464
 40
0.7749977138051342
 40
0.7999978727124422
 40
0.8249980537817836
 40
0.8499982577059696
 40
0.8749984851778092
 40
0.8999987368901102
 40
0.9249990135356777
 40
0.9499993158073148
 40
0.9749996443978225
 40
1.0
 40
1.0
 40
1.0
 40
1.0
 10
374.4
 20
364.2750390390204
 30
0.0
 10
374.3852126456174
 20
364.9269193841083
 30
0.0
 10
374.3556379364475
 20
366.2306800921264
 30
0.0
 10
374.1168978943494
 20
368.1742639668847
 30
0.0
 10
373.7374084947276
 20
370.093807821711
 30
0.0
 10
373.2055340673385
 20
371.9774770299881
 30
0.0
 10
372.5282984789676
 20
373.8136581442531
 30
0.0
 10
371.7088737273927
 20
375.5910304969651
 30
0.0
 10
370.7525806953129
 20
377.2986359961869
 30
0.0
 10
369.6652432077864
 20
378.9259466858675
 30
0.0
 10
368.4535843653971
 20
380.4629296541933
 30
0.0
 10
367.1250692759853
 20
381.9001088898266
 30
0.0
 10
365.687890063151
 20
383.228623704667
 30
0.0
 10
364.1509070437129
 20
384.4402833629413
 30
0.0
 10
362.5235963290032
 20
385.5276175798121
 30
0.0
 10
360.8159908044695
 20
386.4839225781685
 30
0.0
 10
359.0386184335672
 20
387.3033024196404
 30
0.0
 10
357.202437306496
 20
387.9807053550185
 30
0.0
 10
355.3187680914127
 20
388.5119549699668
 30
0.0
 10
353.3992242356671
 20
388.8937759340045
 30
0.0
 10
351.4556403658586
 20
389.1238141940058
 30
0.0
 10
349.4999993232053
 20
389.200651487719
 30
0.0
 10
347.5443582853978
 20
389.123814087822
 30
0.0
 10
345.6007744300763
 20
388.8937757226076
 30
0.0
 10
343.6812305983077
 20
388.5119546552879
 30
0.0
 10
341.7975614164409
 20
387.9807049399275
 30
0.0
 10
339.9613803314795
 20
387.3033019079154
 30
0.0
 10
338.1840080111409
 20
386.4839219744547
 30
0.0
 10
336.4764025450978
 20
385.5276168895712
 30
0.0
 10
334.8490918961962
 20
384.4402825923921
 30
0.0
 10
333.3121089491992
 20
383.2286228607173
 30
0.0
 10
331.8749298146839
 20
381.9001079799993
 30
0.0
 10
330.546414808662
 20
380.4629286865384
 30
0.0
 10
329.3347560538477
 20
378.9259456688979
 30
0.0
 10
328.2474186572439
 20
377.2986349386927
 30
0.0
 10
327.2911257182701
 20
375.5910294082631
 30
0.0
 10
326.4717010617471
 20
373.8136570327927
 30
0.0
 10
325.7944655671504
 20
371.9774759080777
 30
0.0
 10
325.2625912380215
 20
370.0938066873939
 30
0.0
 10
324.8831019212762
 20
368.1742628710912
 30
0.0
 10
324.6443619930483
 20
366.2306788875733
 30
0.0
 10
324.6147873363417
 20
364.9269192233131
 30
0.0
 10
324.6
 20
364.2750390390207
 30
0.0
  0
ELLIPSE
  5
8F
330
1F
100
AcDbEntity
  8
0
  6
Continuous
 62
     7
370
    30
100
AcDbEllipse
 10
214.000304656
 20
328.7753436951
 30
0.0
 11
1.41464437833767
 21
1.414644378337698
 31
0.0
210
0.0
220
0.0
230
1.0
 40
0.9996954599
 41
2.356346783452934
 42
3.926838523626675
  0
ELLIPSE
  5
90
330
1F
100
AcDbEntity
  8
0
  6
Continuous
 62
     7
370
    30
100
AcDbEllipse
 10
384.9996953439
 20
328.7753436951
 30
0.0
 11
1.414644378338721
 21
-1.414644378336732
 31
0.0
210
0.0
220
0.0
230
1.0
 40
0.9996954599
 41
5.497939437042047
 42
7.068431177315762
  0
ELLIPSE
  5
91
330
1F
100
AcDbEntity
  8
0
  6
Continuous
 62
     7
370
    30
100
AcDbEllipse
 10
384.9996953439
 20
399.7747343579
 30
0.0
 11
-1.414644378439675
 21
-1.414644378235607
 31
0.0
210
0.0
220
0.0
230
1.0
 40
0.9996954599
 41
2.356346783475085
 42
3.926838523648781
  0
ELLIPSE
  5
92
330
1F
100
AcDbEntity
  8
0
  6
Continuous
 62
     7
370
    30
100
AcDbEllipse
 10
214.000304656
 20
399.7747343825
 30
0.0
 11
-1.414644378235607
 21
1.414644378439675
 31
0.0
210
0.0
220
0.0
230
1.0
 40
0.9996954599
 41
5.497939436714937
 42
7.068431177388557
  0
LINE
  5
93
330
1F
100
AcDbEntity
  8
0
  6
Continuous
 62
     7
370
    30
100
AcDbLine
 10
385.0003046097
 20
326.775039039
 30
0.0
 11
352.4999999996
 21
326.775039039
 31
0.0
  0
LINE
  5
94
330
1F
100
AcDbEntity
  8
0
  6
Continuous
 62
     7
370
    30
100
AcDbLine
 10
346.4999999996
 20
326.775039039
 30
0.0
 11
213.99969539
 21
326.775039039
 31
0.0
  0
LINE
  5
95
330
1F
100
AcDbEntity
  8
0
  6
Continuous
 62
     7
370
    30
100
AcDbLine
 10
385.00030461
 20
401.7750390139
 30
0.0
 11
213.999695391
 21
401.7750390386
 31
0.0
  0
LINE
  5
96
330
1F
100
AcDbEntity
  8
0
  6
Continuous
 62
     7
370
    30
100
AcDbLine
 10
212.0
 20
328.7747344293
 30
0.0
 11
212.0
 21
399.7753436483
 31
0.0
  0
LINE
  5
97
330
1F
100
AcDbEntity
  8
0
  6
Continuous
 62
     7
370
    30
100
AcDbLine
 10
387.0
 20
399.7753436236
 30
0.0
 11
387.0
 21
328.7747344293
 31
0.0
  0
LINE
  5
98
330
1F
100
AcDbEntity
  8
0
  6
Continuous
 62
     7
370
    30
100
AcDbLine
 10
505.6095754931
 20
349.453170239
 30
0.0
 11
505.6095754931
 21
344.6551346911
 31
0.0
  0
LINE
  5
99
330
1F
100
AcDbEntity
  8
0
  6
Continuous
 62
     7
370
    30
100
AcDbLine
 10
526.6095754931
 20
344.6551346911
 30
0.0
 11
526.6095754931
 21
349.4531762132
 31
0.0
  0
LINE
  5
9A
330
1F
100
AcDbEntity
  8
0
  6
Continuous
 62
     7
370
    30
100
AcDbLine
 10
505.6320754962
 20
337.339006085
 30
0.0
 11
506.7940754931
 21
336.6551346911
 31
0.0
  0
LINE
  5
9B
330
1F
100
AcDbEntity
  8
0
  6
Continuous
 62
     7
370
    30
100
AcDbLine
 10
525.4250754931
 20
336.6551346911
 30
0.0
 11
526.58707549
 21
337.339006085
 31
0.0
  0
LINE
  5
9C
330
1F
100
AcDbEntity
  8
0
  6
Continuous
 62
     7
370
    30
100
AcDbLine
 10
505.6320754931
 20
344.6551346911
 30
0.0
 11
505.6320754931
 21
337.339006085
 31
0.0
  0
LINE
  5
9D
330
1F
100
AcDbEntity
  8
0
  6
Continuous
 62
     7
370
    30
100
AcDbLine
 10
526.5870754931
 20
337.339006085
 30
0.0
 11
526.5870754931
 21
344.6551346911
 31
0.0
  0
LINE
  5
9E
330
1F
100
AcDbEntity
  8
0
  6
Continuous
 62
     7
370
    30
100
AcDbLine
 10
526.8588562465
 20
349.275039039
 30
0.0
 11
530.1095754931
 21
349.275039039
 31
0.0
  0
LINE
  5
9F
330
1F
100
AcDbEntity
  8
0
  6
Continuous
 62
     7
370
    30
100
AcDbLine
 10
491.9094800873
 20
349.275039039
 30
0.0
 11
505.3596030387
 21
349.275039039
 31
0.0
  0
LINE
  5
A0
330
1F
100
AcDbEntity
  8
0
  6
Continuous
 62
     7
370
    30
100
AcDbLine
 10
483.1095754931
 20
349.275039039
 30
0.0
 11
486.709670899
 21
349.275039039
 31
0.0
  0
LINE
  5
A1
330
1F
100
AcDbEntity
  8
0
  6
Continuous
 62
     7
370
    30
100
AcDbLine
 10
530.1095754931
 20
379.275039039
 30
0.0
 11
483.1095754931
 21
379.275039039
 31
0.0
  0
ARC
  5
A2
330
1F
100
AcDbEntity
  8
0
  6
Continuous
 62
     7
370
    30
100
AcDbCircle
 10
530.1095754931
 20
350.275039039
 30
0.0
 40
1.0
100
AcDbArc
 50
270.0
 51
0.0
  0
ARC
  5
A3
330
1F
100
AcDbEntity
  8
0
  6
Continuous
 62
     7
370
    30
100
AcDbCircle
 10
530.1095754931
 20
378.275039039
 30
0.0
 40
1.0
100
AcDbArc
 50
360.0
 51
90.0
  0
LINE
  5
A4
330
1F
100
AcDbEntity
  8
0
  6
Continuous
 62
     7
370
    30
100
AcDbLine
 10
482.9254911598
 20
351.275039039
 30
0.0
 11
483.1095754931
 21
351.275039039
 31
0.0
  0
LINE
  5
A5
330
1F
100
AcDbEntity
  8
0
  6
Continuous
 62
     7
370
    30
100
AcDbLine
 10
483.1095754931
 20
377.275039039
 30
0.0
 11
482.9254911598
 21
377.275039039
 31
0.0
  0
LINE
  5
A6
330
1F
100
AcDbEntity
  8
0
  6
Continuous
 62
     7
370
    30
100
AcDbLine
 10
556.5919870673
 20
339.9608843995
 30
0.0
 11
556.6246162328
 21
340.087050468
 31
0.0
  0
LINE
  5
A7
330
1F
100
AcDbEntity
  8
0
  6
Continuous
 62
     7
370
    30
100
AcDbLine
 10
549.3034563128
 20
339.9047765076
 30
0.0
 11
555.5256714222
 21
339.9058888527
 31
0.0
  0
SPLINE
  5
A8
330
1F
100
AcDbEntity
  8
0
  6
Continuous
 62
     7
370
    30
100
AcDbSpline
210
0.0
220
0.0
230
1.0
 70
     8
 71
     3
 72
    18
 73
    14
 74
     0
 42
0.000000001
 43
0.00000001
 40
0.0
 40
0.0
 40
0.0
 40
0.0
 40
0.0074825923187285
 40
0.1121998619894916
 40
0.2167966393689556
 40
0.321272884597895
 40
0.4256284626327941
 40
0.5298630412093313
 40
0.6339760462275362
 40
0.7379666138959872
 40
0.8418335382488275
 40
0.9455752125383928
 40
1.0
 40
1.0
 40
1.0
 40
1.0
 10
555.5714829280472
 20
339.9058304794426
 30
0.0
 10
555.5734447561852
 20
339.9058527457188
 30
0.0
 10
555.6028619470392
 20
339.9061866237396
 30
0.0
 10
555.659710045982
 20
339.904960396904
 30
0.0
 10
555.7419303419545
 20
339.9020039820668
 30
0.0
 10
555.8239506861959
 20
339.8968392595715
 30
0.0
 10
555.9057176164569
 20
339.8897539862895
 30
0.0
 10
555.9871813185737
 20
339.8806883901804
 30
0.0
 10
556.068288710145
 20
339.869667240447
 30
0.0
 10
556.1489976482029
 20
339.8567329504136
 30
0.0
 10
556.2292269873908
 20
339.8417822666332
 30
0.0
 10
556.2964268139542
 20
339.8278925897019
 30
0.0
 10
556.3366808820588
 20
339.8182546110455
 30
0.0
 10
556.3505322325715
 20
339.8149382003847
 30
0.0
  0
SPLINE
  5
A9
330
1F
100
AcDbEntity
  8
0
  6
Continuous
 62
     7
370
    30
100
AcDbSpline
210
0.0
220
0.0
230
1.0
 70
     8
 71
     3
 72
    21
 73
    17
 74
     0
 42
0.000000001
 43
0.00000001
 40
0.0
 40
0.0
 40
0.0
 40
0.0
 40
0.0766811695179986
 40
0.1490278770799437
 40
0.2159499808063138
 40
0.2765598948038381
 40
0.3463995836396543
 40
0.4027714631709736
 40
0.4502785227539809
 40
0.5100908594232384
 40
0.5842939469848225
 40
0.6721871056662215
 40
0.7463123093920039
 40
0.8264778219442481
 40
0.9115103844356169
 40
1.0
 40
1.0
 40
1.0
 40
1.0
 10
556.3518609585532
 20
339.8150297883426
 30
0.0
 10
556.359631085862
 20
339.8134679996919
 30
0.0
 10
556.3747321280706
 20
339.8104327036926
 30
0.0
 10
556.3970717747222
 20
339.8092866436963
 30
0.0
 10
556.4177138877561
 20
339.810288465066
 30
0.0
 10
556.4379000270723
 20
339.8133240130049
 30
0.0
 10
556.4566326749862
 20
339.8181032975936
 30
0.0
 10
556.4735229280883
 20
339.8242253849581
 30
0.0
 10
556.4889212568238
 20
339.8312529944448
 30
0.0
 10
556.5053047110904
 20
339.8404458729896
 30
0.0
 10
556.5240746646709
 20
339.8537100454237
 30
0.0
 10
556.5421418069897
 20
339.8702440372755
 30
0.0
 10
556.5583900550495
 20
339.8893573760881
 30
0.0
 10
556.5720235764177
 20
339.9100512012111
 30
0.0
 10
556.5838026715928
 20
339.9336038930455
 30
0.0
 10
556.5889808777631
 20
339.9508008911561
 30
0.0
 10
556.5916215631122
 20
339.9595706966571
 30
0.0
  0
ARC
  5
AA
330
1F
100
AcDbEntity
  8
0
  6
Continuous
 62
     7
370
    30
100
AcDbCircle
 10
548.7712940076
 20
340.1419658741
 30
0.0
 40
0.2000000000000458
100
AcDbArc
 50
188.1696567863
 51
269.7900933293
  0
SPLINE
  5
AB
330
1F
100
AcDbEntity
  8
0
  6
Continuous
 62
     7
370
    30
100
AcDbSpline
210
0.0
220
0.0
230
1.0
 70
     8
 71
     3
 72
    21
 73
    17
 74
     0
 42
0.000000001
 43
0.00000001
 40
0.0
 40
0.0
 40
0.0
 40
0.0
 40
0.0519309306499664
 40
0.1401768322491554
 40
0.2234700346875443
 40
0.3080748307261437
 40
0.393957590977433
 40
0.4810825362740562
 40
0.5689134171108662
 40
0.6531294903512642
 40
0.7327786081007123
 40
0.8078953260013918
 40
0.8785700715957178
 40
0.9452764039295487
 40
0.9928435219375209
 40
1.0
 40
1.0
 40
1.0
 40
1.0
 10
548.9769523376134
 20
339.9395579163361
 30
0.0
 10
548.9849074809118
 20
339.939354483112
 30
0.0
 10
549.006380748841
 20
339.9388053570983
 30
0.0
 10
549.0395124708763
 20
339.9376570035819
 30
0.0
 10
549.0762817323945
 20
339.936284023349
 30
0.0
 10
549.1103604087964
 20
339.9348945125268
 30
0.0
 10
549.1425281506025
 20
339.9334408463635
 30
0.0
 10
549.1723043160054
 20
339.9319342499039
 30
0.0
 10
549.1988038862438
 20
339.9304234256488
 30
0.0
 10
549.2217256580676
 20
339.9289408870823
 30
0.0
 10
549.240773231633
 20
339.9275361754318
 30
0.0
 10
549.2559865691019
 20
339.9262590078654
 30
0.0
 10
549.2682388925404
 20
339.9250470601691
 30
0.0
 10
549.2745830634088
 20
339.9243357740989
 30
0.0
 10
549.2783179932426
 20
339.9238020082102
 30
0.0
 10
549.2778635677008
 20
339.9238843881739
 30
0.0
 10
549.2778041402023
 20
339.9238951614133
 30
0.0
  0
SPLINE
  5
AC
330
1F
100
AcDbEntity
  8
0
  6
Continuous
 62
     7
370
    30
100
AcDbSpline
210
0.0
220
0.0
230
1.0
 70
     8
 71
     3
 72
    12
 73
     8
 74
     0
 42
0.000000001
 43
0.00000001
 40
0.0
 40
0.0
 40
0.0
 40
0.0
 40
0.1118506745020527
 40
0.2972398967399718
 40
0.5073090878453392
 40
0.7417014345207208
 40
1.0
 40
1.0
 40
1.0
 40
1.0
 10
549.2022212086031
 20
339.93017024942
 30
0.0
 10
549.2057727298524
 20
339.9282846384023
 30
0.0
 10
549.2152107937186
 20
339.923273682262
 30
0.0
 10
549.232275688757
 20
339.916483851143
 30
0.0
 10
549.253835571432
 20
339.9100829118617
 30
0.0
 10
549.2781464174333
 20
339.9056109840723
 30
0.0
 10
549.2947335387637
 20
339.9050662972639
 30
0.0
 10
549.3034295173973
 20
339.9047807392847
 30
0.0
  0
ARC
  5
AD
330
1F
100
AcDbEntity
  8
0
  6
Continuous
 62
     7
370
    30
100
AcDbCircle
 10
548.6989146158
 20
340.1765561389
 30
0.0
 40
0.2000000000000329
100
AcDbArc
 50
201.1865534866
 51
256.025902073
  0
ARC
  5
AE
330
1F
100
AcDbEntity
  8
0
  6
Continuous
 62
     7
370
    30
100
AcDbCircle
 10
570.9291490707
 20
387.525039039
 30
0.0
 40
1.0
100
AcDbArc
 50
0.0
 51
90.0
  0
LINE
  5
AF
330
1F
100
AcDbEntity
  8
0
  6
Continuous
 62
     7
370
    30
100
AcDbLine
 10
543.1291490707
 20
340.025039039
 30
0.0
 11
548.0042963344
 21
340.025039039
 31
0.0
  0
LINE
  5
B0
330
1F
100
AcDbEntity
  8
0
  6
Continuous
 62
     7
370
    30
100
AcDbLine
 10
570.9291490707
 20
388.525039039
 30
0.0
 11
543.1291490707
 21
388.525039039
 31
0.0
  0
ARC
  5
B1
330
1F
100
AcDbEntity
  8
0
  6
Continuous
 62
     7
370
    30
100
AcDbCircle
 10
543.1291490707
 20
340.525039039
 30
0.0
 40
0.5000000000000042
100
AcDbArc
 50
194.3762133731
 51
270.0
  0
ARC
  5
B2
330
1F
100
AcDbEntity
  8
0
  6
Continuous
 62
     7
370
    30
100
AcDbCircle
 10
543.1291490707
 20
388.025039039
 30
0.0
 40
0.5000000000000042
100
AcDbArc
 50
90.0
 51
165.6237866269
  0
ARC
  5
B3
330
1F
100
AcDbEntity
  8
0
  6
Continuous
 62
     7
370
    30
100
AcDbCircle
 10
542.838543174
 20
340.4505527129
 30
0.0
 40
0.2000000000005593
100
AcDbArc
 50
180.0
 51
194.3762133726
  0
ARC
  5
B4
330
1F
100
AcDbEntity
  8
0
  6
Continuous
 62
     7
370
    30
100
AcDbCircle
 10
542.838543174
 20
388.0995253651
 30
0.0
 40
0.2000000000005593
100
AcDbArc
 50
165.6237866274
 51
180.0
  0
LINE
  5
B5
330
1F
100
AcDbEntity
  8
0
  6
Continuous
 62
     7
370
    30
100
AcDbLine
 10
542.638543174
 20
388.0995253651
 30
0.0
 11
542.638543174
 21
340.4505527129
 31
0.0
  0
ARC
  5
B6
330
1F
100
AcDbEntity
  8
0
  6
Continuous
 62
     7
370
    30
100
AcDbCircle
 10
556.9291490707
 20
339.025039039
 30
0.0
 40
1.0
100
AcDbArc
 50
0.0
 51
87.1102226702
  0
LINE
  5
B7
330
1F
100
AcDbEntity
  8
0
  6
Continuous
 62
     7
370
    30
100
AcDbLine
 10
548.0042846589
 20
340.0250390391
 30
0.0
 11
548.0355250204
 21
340.0274940067
 31
0.0
  0
SPLINE
  5
B8
330
1F
100
AcDbEntity
  8
0
  6
Continuous
 62
     7
370
    30
100
AcDbSpline
210
0.0
220
0.0
230
1.0
 70
     8
 71
     3
 72
   111
 73
   107
 74
     0
 42
0.000000001
 43
0.00000001
 40
0.0
 40
0.0
 40
0.0
 40
0.0
 40
0.0001511335718847
 40
0.01291132529285
 40
0.0254267297783133
 40
0.0377049903434095
 40
0.0497517245446287
 40
0.0615708693131941
 40
0.0731649871604855
 40
0.0845355351562296
 40
0.0975191178782849
 40
0.1101989923039334
 40
0.1225740837099524
 40
0.1346427443688234
 40
0.1464029979553243
 40
0.1578527336266618
 40
0.1702988356071579
 40
0.1823123606937165
 40
0.1938865076359642
 40
0.2050193272851489
 40
0.2157093947946528
 40
0.2259558043612235
 40
0.2346053813469222
 40
0.2429110505295527
 40
0.2508730414396164
 40
0.255404638179623
 40
0.2597784889048845
 40
0.2637167663196009
 40
0.2671660581483598
 40
0.2699233321539408
 40
0.2722621906253166
 40
0.2741827954729571
 40
0.2757796012599339
 40
0.2776092241206531
 40
0.2797628174777291
 40
0.2822245723488443
 40
0.2859993702245197
 40
0.2902130558962987
 40
0.2948655930626518
 40
0.2999569858221355
 40
0.3056047153233989
 40
0.311709551134197
 40
0.3182716480971184
 40
0.3252912062521008
 40
0.332768460530258
 40
0.3406369034395874
 40
0.3485073493737342
 40
0.3623792799909208
 40
0.3760574132309265
 40
0.3895412429071266
 40
0.4028300106205328
 40
0.4159228278258215
 40
0.4285902502159734
 40
0.4410669635727824
 40
0.4533522784863829
 40
0.4654456787506999
 40
0.4790301731905549
 40
0.4925665124747198
 40
0.5060557742786687
 40
0.519491173456537
 40
0.532873354153694
 40
0.5462045356008928
 40
0.559486656099103
 40
0.5727214438578561
 40
0.5859104865701511
 40
0.599040205185656
 40
0.6119816797213957
 40
0.6247063417090405
 40
0.6372156989092541
 40
0.6495112727688362
 40
0.6615946221552781
 40
0.6734673570120294
 40
0.6832357793361428
 40
0.6928590719725582
 40
0.7023382609746052
 40
0.7078572768584975
 40
0.7135323868561838
 40
0.7196341340486215
 40
0.7261652848674268
 40
0.733274330666346
 40
0.7408349142658028
 40
0.7488500090640733
 40
0.7573118716743384
 40
0.766207315272458
 40
0.7755361350747172
 40
0.785298371740889
 40
0.7943609749703711
 40
0.8037680851927657
 40
0.8135201323448634
 40
0.8236176798145113
 40
0.834061434367259
 40
0.8446565364258178
 40
0.8555874228006766
 40
0.8668552936225957
 40
0.878461600942496
 40
0.8885762358843663
 40
0.8989370944045398
 40
0.909545724578913
 40
0.9204039784428797
 40
0.9315140775674523
 40
0.9428786910048966
 40
0.9538299491919011
 40
0.9650135290657873
 40
0.9764332456119135
 40
0.988093620478184
 40
1.0
 40
1.0
 40
1.0
 40
1.0
 10
548.0355666049635
 20
340.0275014318459
 30
0.0
 10
548.0355521256713
 20
340.0274988559215
 30
0.0
 10
548.034315161264
 20
340.0272787949673
 30
0.0
 10
548.0387460104752
 20
340.0280686419363
 30
0.0
 10
548.0489059710201
 20
340.0298691120288
 30
0.0
 10
548.0664102661085
 20
340.0329316017768
 30
0.0
 10
548.0896089067217
 20
340.0369372284603
 30
0.0
 10
548.1183164896416
 20
340.0418292357579
 30
0.0
 10
548.1519960696533
 20
340.0474918141855
 30
0.0
 10
548.1922876672517
 20
340.0541744384192
 30
0.0
 10
548.2396463038226
 20
340.061913681897
 30
0.0
 10
548.2944546051544
 20
340.0707247319518
 30
0.0
 10
548.353669352426
 20
340.0800871653794
 30
0.0
 10
548.4167310884219
 20
340.0898911121371
 30
0.0
 10
548.483111439186
 20
340.1000361401809
 30
0.0
 10
548.5549492337865
 20
340.11082689814
 30
0.0
 10
548.6321157986422
 20
340.1222060707239
 30
0.0
 10
548.7144331366967
 20
340.1341066906992
 30
0.0
 10
548.7981937329185
 20
340.1459767126119
 30
0.0
 10
548.8828007011647
 20
340.1577285437649
 30
0.0
 10
548.9677060095808
 20
340.1692868851251
 30
0.0
 10
549.0492241511756
 20
340.1801626275597
 30
0.0
 10
549.1267751060751
 20
340.1903149245004
 30
0.0
 10
549.1999198355186
 20
340.1997212776568
 30
0.0
 10
549.2626543330408
 20
340.207653565162
 30
0.0
 10
549.3145279610462
 20
340.2141093717688
 30
0.0
 10
549.3545330039444
 20
340.2190176037668
 30
0.0
 10
549.3915986612593
 20
340.2235077532502
 30
0.0
 10
549.4238946278916
 20
340.2273749729272
 30
0.0
 10
549.451326129916
 20
340.2306276923187
 30
0.0
 10
549.4740020112829
 20
340.2332947781051
 30
0.0
 10
549.4930324534963
 20
340.2355178677358
 30
0.0
 10
549.5104863943509
 20
340.2375452659122
 30
0.0
 10
549.5287814672457
 20
340.2396586072904
 30
0.0
 10
549.55001898392
 20
340.242095976345
 30
0.0
 10
549.5778252917106
 20
340.2452631572755
 30
0.0
 10
549.6127231184248
 20
340.2491973009825
 30
0.0
 10
549.655339888029
 20
340.2539377559831
 30
0.0
 10
549.7028808061696
 20
340.2591468000364
 30
0.0
 10
549.7558834971185
 20
340.2648571745789
 30
0.0
 10
549.8145690948988
 20
340.2710610603897
 30
0.0
 10
549.8791708079474
 20
340.2777468466851
 30
0.0
 10
549.9495052075914
 20
340.2848568223807
 30
0.0
 10
550.0257388168769
 20
340.2923655803866
 30
0.0
 10
550.1077950008013
 20
340.3002193700685
 30
0.0
 10
550.1941341534102
 20
340.3082265466928
 30
0.0
 10
550.3057139242063
 20
340.3182311661962
 30
0.0
 10
550.4415178367029
 20
340.3298270360497
 30
0.0
 10
550.6020112988654
 20
340.3426384269086
 30
0.0
 10
550.763081641251
 20
340.3545915533298
 30
0.0
 10
550.924380493237
 20
340.3656455659232
 30
0.0
 10
551.0846413728743
 20
340.3757061340638
 30
0.0
 10
551.2435399548885
 20
340.3847611523367
 30
0.0
 10
551.40078398325
 20
340.39280548598
 30
0.0
 10
551.5570894932082
 20
340.3998753103091
 30
0.0
 10
551.7194050935886
 20
340.4062374789161
 30
0.0
 10
551.888305140584
 20
340.411746831648
 30
0.0
 10
552.0643129868793
 20
340.4162139294825
 30
0.0
 10
552.2405052176623
 20
340.4193588933969
 30
0.0
 10
552.4165816367305
 20
340.4211008973086
 30
0.0
 10
552.5922389521953
 20
340.4215066299182
 30
0.0
 10
552.7672226523512
 20
340.4206254674928
 30
0.0
 10
552.9412898110538
 20
340.4185114191787
 30
0.0
 10
553.1142015881693
 20
340.4152168950952
 30
0.0
 10
553.2856578520682
 20
340.4107959693921
 30
0.0
 10
553.4548019361201
 20
340.4053223545823
 30
0.0
 10
553.6206778245777
 20
340.3988911968371
 30
0.0
 10
553.7824338408062
 20
340.3916119897676
 30
0.0
 10
553.9398059796382
 20
340.3835751519188
 30
0.0
 10
554.0926793065198
 20
340.3748617308104
 30
0.0
 10
554.240957751294
 20
340.3655485462422
 30
0.0
 10
554.3769240683014
 20
340.3562317403946
 30
0.0
 10
554.5011581476367
 20
340.3470758418774
 30
0.0
 10
554.6142771105543
 20
340.338210711782
 30
0.0
 10
554.7093112706498
 20
340.3303219675928
 30
0.0
 10
554.788100142506
 20
340.3234926292785
 30
0.0
 10
554.8533676856317
 20
340.3176546802286
 30
0.0
 10
554.9217022819931
 20
340.3113417164217
 30
0.0
 10
554.9944917531375
 20
340.3043857007679
 30
0.0
 10
555.0715832277041
 20
340.2967499061449
 30
0.0
 10
555.1527867937099
 20
340.2884007835722
 30
0.0
 10
555.2373342798494
 20
340.2793523146022
 30
0.0
 10
555.3248431860062
 20
340.2696352896825
 30
0.0
 10
555.4149104095269
 20
340.2593274324649
 30
0.0
 10
555.5071303682709
 20
340.2484287012536
 30
0.0
 10
555.5974789601103
 20
340.2374084711528
 30
0.0
 10
555.6856160046652
 20
340.2263330589614
 30
0.0
 10
555.771249526482
 20
340.2152673830354
 30
0.0
 10
555.8573027065845
 20
340.2038350233814
 30
0.0
 10
555.9434197804528
 20
340.192076204438
 30
0.0
 10
556.0286874458042
 20
340.1801140066816
 30
0.0
 10
556.1127489266678
 20
340.1680056135177
 30
0.0
 10
556.195240080539
 20
340.1558139390265
 30
0.0
 10
556.2762204826133
 20
340.1435402469448
 30
0.0
 10
556.3510878599735
 20
340.1319105552193
 30
0.0
 10
556.4199800353578
 20
340.1209713967026
 30
0.0
 10
556.4830966831915
 20
340.1107498254549
 30
0.0
 10
556.5438524447243
 20
340.1007212978213
 30
0.0
 10
556.60192010746
 20
340.0909595592191
 30
0.0
 10
556.6569573687822
 20
340.08154516428
 30
0.0
 10
556.7075940357976
 20
340.0727417588197
 30
0.0
 10
556.7537374856174
 20
340.0646040797491
 30
0.0
 10
556.795358163784
 20
340.0571737148875
 30
0.0
 10
556.8328794555243
 20
340.0504101236096
 30
0.0
 10
556.8664334302996
 20
340.0443209694086
 30
0.0
 10
556.8844876078452
 20
340.041049466816
 30
0.0
 10
556.8936089270678
 20
340.0393966405155
 30
0.0
  0
SPLINE
  5
B9
330
1F
100
AcDbEntity
  8
0
  6
Continuous
 62
     7
370
    30
100
AcDbSpline
210
0.0
220
0.0
230
1.0
 70
     8
 71
     3
 72
    14
 73
    10
 74
     0
 42
0.000000001
 43
0.00000001
 40
0.0
 40
0.0
 40
0.0
 40
0.0
 40
0.0260359006581589
 40
0.1798528369027353
 40
0.3379143495047864
 40
0.497280889968827
 40
0.6607402025181218
 40
0.8283047090332606
 40
1.0
 40
1.0
 40
1.0
 40
1.0
 10
556.6245901628181
 20
340.0869496638907
 30
0.0
 10
556.6279183932879
 20
340.0863864331261
 30
0.0
 10
556.6509094048043
 20
340.0824957034683
 30
0.0
 10
556.6896118672547
 20
340.075789743225
 30
0.0
 10
556.7402047691954
 20
340.0669478462863
 30
0.0
 10
556.7861674157912
 20
340.0587862200065
 30
0.0
 10
556.8274794611327
 20
340.051371818829
 30
0.0
 10
556.8642873426162
 20
340.0447080589763
 30
0.0
 10
556.8837558937889
 20
340.0411814547134
 30
0.0
 10
556.8936086926855
 20
340.0393966828378
 30
0.0
  0
SPLINE
  5
BA
330
1F
100
AcDbEntity
  8
0
  6
Continuous
 62
     7
370
    30
100
AcDbSpline
210
0.0
220
0.0
230
1.0
 70
     8
 71
     3
 72
    11
 73
     7
 74
     0
 42
0.000000001
 43
0.00000001
 40
0.0
 40
0.0
 40
0.0
 40
0.0
 40
0.2503911836507069
 40
0.5004250953346212
 40
0.7502477571342794
 40
1.0
 40
1.0
 40
1.0
 40
1.0
 10
556.893609749978
 20
340.0393964919251
 30
0.0
 10
556.9029296071316
 20
340.0377002110434
 30
0.0
 10
556.921556023352
 20
340.0343100696272
 30
0.0
 10
556.9410289696008
 20
340.0306793520435
 30
0.0
 10
556.9549312153453
 20
340.0280774718353
 30
0.0
 10
556.9586687587989
 20
340.0274394984287
 30
0.0
 10
556.9605372671082
 20
340.027120556689
 30
0.0
  0
LINE
  5
BB
330
1F
100
AcDbEntity
  8
0
  6
Continuous
 62
     7
370
    30
100
AcDbLine
 10
556.960509977
 20
340.0271247224
 30
0.0
 11
556.9805086931
 21
340.0250732815
 31
0.0
  0
LINE
  5
BC
330
1F
100
AcDbEntity
  8
0
  6
Continuous
 62
     7
370
    30
100
AcDbLine
 10
482.8944787895
 20
339.6368055746
 30
0.0
 11
505.6320754931
 21
339.7360176857
 31
0.0
  0
LINE
  5
BD
330
1F
100
AcDbEntity
  8
0
  6
Continuous
 62
     7
370
    30
100
AcDbLine
 10
526.5870754931
 20
339.8274517021
 30
0.0
 11
540.5493010968
 21
339.8883737906
 31
0.0
  0
LINE
  5
BE
330
1F
100
AcDbEntity
  8
0
  6
Continuous
 62
     7
370
    30
100
AcDbLine
 10
540.5493010968
 20
388.6617042875
 30
0.0
 11
482.8949439169
 21
388.9132704739
 31
0.0
  0
ARC
  5
BF
330
1F
100
AcDbEntity
  8
0
  6
Continuous
 62
     7
370
    30
100
AcDbCircle
 10
540.5449377875
 20
340.8883642716
 30
0.0
 40
1.000000000000032
100
AcDbArc
 50
270.25
 51
301.4024765725
  0
ARC
  5
C0
330
1F
100
AcDbEntity
  8
0
  6
Continuous
 62
     7
370
    30
100
AcDbCircle
 10
540.5449377875
 20
387.6617138064
 30
0.0
 40
0.9999999999999887
100
AcDbArc
 50
58.5975234275
 51
89.75
  0
ARC
  5
C1
330
1F
100
AcDbEntity
  8
0
  6
Continuous
 62
     7
370
    30
100
AcDbCircle
 10
526.268262988
 20
364.275039039
 30
0.0
 40
28.40000000000003
100
AcDbArc
 50
54.800981616
 51
58.5975234275
  0
ARC
  5
C2
330
1F
100
AcDbEntity
  8
0
  6
Continuous
 62
     7
370
    30
100
AcDbCircle
 10
526.268262988
 20
364.275039039
 30
0.0
 40
28.40000000000003
100
AcDbArc
 50
301.4024765725
 51
305.199018384
  0
LINE
  5
C3
330
1F
100
AcDbEntity
  8
0
  6
Continuous
 62
     7
370
    30
100
AcDbLine
 10
522.7039785627
 20
344.6551346911
 30
0.0
 11
526.6095754931
 21
344.6551346911
 31
0.0
  0
LINE
  5
C4
330
1F
100
AcDbEntity
  8
0
  6
Continuous
 62
     7
370
    30
100
AcDbLine
 10
505.6095754931
 20
344.6551346911
 30
0.0
 11
522.7039785627
 21
344.6551346911
 31
0.0
  0
LINE
  5
C5
330
1F
100
AcDbEntity
  8
0
  6
Continuous
 62
     7
370
    30
100
AcDbLine
 10
522.689847699
 20
337.339006085
 30
0.0
 11
526.58707549
 21
337.339006085
 31
0.0
  0
LINE
  5
C6
330
1F
100
AcDbEntity
  8
0
  6
Continuous
 62
     7
370
    30
100
AcDbLine
 10
505.6320754962
 20
337.339006085
 30
0.0
 11
522.689847699
 21
337.339006085
 31
0.0
  0
LINE
  5
C7
330
1F
100
AcDbEntity
  8
0
  6
Continuous
 62
     7
370
    30
100
AcDbLine
 10
521.9600670926
 20
336.6551346911
 30
0.0
 11
525.4250754931
 21
336.6551346911
 31
0.0
  0
LINE
  5
C8
330
1F
100
AcDbEntity
  8
0
  6
Continuous
 62
     7
370
    30
100
AcDbLine
 10
506.7940754931
 20
336.6551346911
 30
0.0
 11
521.9600670926
 21
336.6551346911
 31
0.0
  0
SPLINE
  5
C9
330
1F
100
AcDbEntity
  8
0
  6
Continuous
 62
     7
370
    30
100
AcDbSpline
210
0.0
220
0.0
230
1.0
 70
     8
 71
     3
 72
    24
 73
    20
 74
     0
 42
0.000000001
 43
0.00000001
 40
0.0
 40
0.0
 40
0.0
 40
0.0
 40
0.0579488459061626
 40
0.1173371769812976
 40
0.1766766899034651
 40
0.2340170285375968
 40
0.2914013099023683
 40
0.3487420564755216
 40
0.4077237620960522
 40
0.4667526945112416
 40
0.5257349383894605
 40
0.5835251887505265
 40
0.6413592061229675
 40
0.6991498198880947
 40
0.7585780596833142
 40
0.8180534247343467
 40
0.8774817513720544
 40
0.9386378635323275
 40
1.0
 40
1.0
 40
1.0
 40
1.0
 10
486.7096708989736
 20
349.2750556152071
 30
0.0
 10
486.7104004354026
 20
349.2751829943164
 30
0.0
 10
486.7118776303967
 20
349.2754409167108
 30
0.0
 10
486.7245500438428
 20
349.2776332183187
 30
0.0
 10
486.7446908091544
 20
349.2810907029955
 30
0.0
 10
486.7726864733466
 20
349.285862200278
 30
0.0
 10
486.8078483879463
 20
349.2917786808832
 30
0.0
 10
486.8508466276035
 20
349.2989025451002
 30
0.0
 10
486.9018436504217
 20
349.3072023468833
 30
0.0
 10
486.9608504799548
 20
349.3165901599183
 30
0.0
 10
487.026750411245
 20
349.3268035462062
 30
0.0
 10
487.0992194948124
 20
349.3377095912082
 30
0.0
 10
487.1778127744923
 20
349.349147927765
 30
0.0
 10
487.2635894728587
 20
349.3611716797258
 30
0.0
 10
487.3565655872874
 20
349.3736557939033
 30
0.0
 10
487.4565636936086
 20
349.3864494585525
 30
0.0
 10
487.5635677149498
 20
349.3993906712068
 30
0.0
 10
487.6771097818081
 20
349.4123683207873
 30
0.0
 10
487.7581784861869
 20
349.4208107340769
 30
0.0
 10
487.7987810001556
 20
349.4250390390208
 30
0.0
  0
SPLINE
  5
CA
330
1F
100
AcDbEntity
  8
0
  6
Continuous
 62
     7
370
    30
100
AcDbSpline
210
0.0
220
0.0
230
1.0
 70
     8
 71
     3
 72
    25
 73
    21
 74
     0
 42
0.000000001
 43
0.00000001
 40
0.0
 40
0.0
 40
0.0
 40
0.0
 40
0.0585134827229849
 40
0.1170720193797548
 40
0.1755856634943858
 40
0.235795339782038
 40
0.2960539381202573
 40
0.3562634073861953
 40
0.415395127730276
 40
0.4747142896111872
 40
0.5323541407125347
 40
0.5900375588339416
 40
0.6476769190737649
 40
0.7069781074307617
 40
0.7663274493036877
 40
0.8256281706290551
 40
0.8832737573761309
 40
0.9409640949977636
 40
0.9986095185796405
 40
0.9999999999999999
 40
0.9999999999999999
 40
0.9999999999999999
 40
0.9999999999999999
 10
490.820369986098
 20
349.4250390390208
 30
0.0
 10
490.8591064896863
 20
349.4210088317695
 30
0.0
 10
490.9366093230122
 20
349.412945314107
 30
0.0
 10
491.0465545220238
 20
349.4004399251649
 30
0.0
 10
491.1524994168651
 20
349.3877044581021
 30
0.0
 10
491.2534578242905
 20
349.3748533995836
 30
0.0
 10
491.3490752443907
 20
349.3620655812824
 30
0.0
 10
491.4375231389012
 20
349.3496975625698
 30
0.0
 10
491.5186909951603
 20
349.3378959419142
 30
0.0
 10
491.5918010284057
 20
349.3268952173889
 30
0.0
 10
491.6572968877842
 20
349.3167457830249
 30
0.0
 10
491.7151507384435
 20
349.3075478308796
 30
0.0
 10
491.7663075340888
 20
349.299231008195
 30
0.0
 10
491.8102810605511
 20
349.2919508452421
 30
0.0
 10
491.8467579944839
 20
349.2858134203599
 30
0.0
 10
491.8748439001917
 20
349.2810250825952
 30
0.0
 10
491.8949607858151
 20
349.2775702879525
 30
0.0
 10
491.906150515657
 20
349.2756358698712
 30
0.0
 10
491.9108590489645
 20
349.2748160080159
 30
0.0
 10
491.9095118187919
 20
349.275050101567
 30
0.0
 10
491.90948008728
 20
349.2750556152071
 30
0.0
  0
SPLINE
  5
CB
330
1F
100
AcDbEntity
  8
0
  6
Continuous
 62
     7
370
    30
100
AcDbSpline
210
0.0
220
0.0
230
1.0
 70
     8
 71
     3
 72
    32
 73
    28
 74
     0
 42
0.000000001
 43
0.00000001
 40
0.0
 40
0.0
 40
0.0
 40
0.0
 40
0.0373153554043127
 40
0.0746635353170672
 40
0.1120124449152686
 40
0.1493287962169061
 40
0.1877255007118279
 40
0.2261565596954665
 40
0.264588060934618
 40
0.3029853690435552
 40
0.3529003706261994
 40
0.4028524781922733
 40
0.4527677924982259
 40
0.4912412875262317
 40
0.5297484560242552
 40
0.568255583806814
 40
0.6067290232651273
 40
0.6449326815945807
 40
0.6831695951931671
 40
0.7214062439589831
 40
0.7596095408380246
 40
0.798942489842978
 40
0.8383126780719349
 40
0.8776822188359241
 40
0.9170142840955334
 40
0.9585072554841148
 40
1.0
 40
1.0
 40
1.0
 40
1.0
 10
490.8203699856751
 20
349.4250390389236
 30
0.0
 10
490.7864273459299
 20
349.427921513867
 30
0.0
 10
490.7185122087455
 20
349.4336889993272
 30
0.0
 10
490.6134922685969
 20
349.4418348574826
 30
0.0
 10
490.5064387778149
 20
349.4495389655113
 30
0.0
 10
490.3962834699362
 20
349.4567792977765
 30
0.0
 10
490.2831801030767
 20
349.4634868118392
 30
0.0
 10
490.1672426138641
 20
349.4695999335959
 30
0.0
 10
490.0497942434082
 20
349.4750128267339
 30
0.0
 10
489.919214685774
 20
349.4801472137877
 30
0.0
 10
489.7752420346771
 20
349.484659248893
 30
0.0
 10
489.6179120505809
 20
349.4881767308589
 30
0.0
 10
489.4717574922934
 20
349.4901207033597
 30
0.0
 10
489.3373731217863
 20
349.4908050536432
 30
0.0
 10
489.2150201025236
 20
349.4905657129976
 30
0.0
 10
489.0928325215729
 20
349.4894703654221
 30
0.0
 10
488.9713424469712
 20
349.4875276721246
 30
0.0
 10
488.8507285815815
 20
349.4847455254929
 30
0.0
 10
488.7311568218757
 20
349.4811627558061
 30
0.0
 10
488.6125852073555
 20
349.4768031291518
 30
0.0
 10
488.4941024309726
 20
349.4716452453748
 30
0.0
 10
488.37593694033
 20
349.465688259889
 30
0.0
 10
488.2583325343831
 20
349.4589629984144
 30
0.0
 10
488.1426724556281
 20
349.4515873756669
 30
0.0
 10
488.0272258935863
 20
349.4434606943558
 30
0.0
 10
487.9121013078186
 20
349.4346434420846
 30
0.0
 10
487.8365543674799
 20
349.428240500809
 30
0.0
 10
487.7987810005786
 20
349.4250390389236
 30
0.0
  0
SPLINE
  5
CC
330
1F
100
AcDbEntity
  8
0
  6
Continuous
 62
     7
370
    30
100
AcDbSpline
210
0.0
220
0.0
230
1.0
 70
     8
 71
     3
 72
    39
 73
    35
 74
     0
 42
0.000000001
 43
0.00000001
 40
0.0
 40
0.0
 40
0.0
 40
0.0
 40
0.0144687239947805
 40
0.0450561822873291
 40
0.0756428378375292
 40
0.1062281224002547
 40
0.1368118476038904
 40
0.167394106968956
 40
0.1979751882560899
 40
0.2285554964677202
 40
0.2591354877716867
 40
0.2891695702305895
 40
0.3192041668198387
 40
0.349239586814358
 40
0.3792760443821327
 40
0.4117132472361695
 40
0.4441517831319521
 40
0.4765915113608915
 40
0.5090321791637559
 40
0.5414734578791766
 40
0.573914998046123
 40
0.6045031157016686
 40
0.6350919656786083
 40
0.6656818227486611
 40
0.6962727627543258
 40
0.7268646900147245
 40
0.7610081644541316
 40
0.79515210822048
 40
0.82929596765314
 40
0.8634391897608397
 40
0.8975813135497447
 40
0.9317220692261637
 40
0.9658614848449543
 40
1.0
 40
1.0
 40
1.0
 40
1.0
 10
526.8588562464906
 20
349.2755545080161
 30
0.0
 10
526.8590075401532
 20
349.2754460771592
 30
0.0
 10
526.8594786746393
 20
349.2751084191564
 30
0.0
 10
526.8540791623622
 20
349.2789779796484
 30
0.0
 10
526.842953649884
 20
349.2869479545303
 30
0.0
 10
526.8257683024796
 20
349.2992512153905
 30
0.0
 10
526.8029545540176
 20
349.3155689623765
 30
0.0
 10
526.7744418335031
 20
349.3359390061028
 30
0.0
 10
526.7403046272995
 20
349.3602921042952
 30
0.0
 10
526.7005883671834
 20
349.3885768022027
 30
0.0
 10
526.6556244998787
 20
349.4205352867509
 30
0.0
 10
526.6055921625558
 20
349.4560167427101
 30
0.0
 10
526.5506720383532
 20
349.4948678547158
 30
0.0
 10
526.4906360750095
 20
349.5372210565209
 30
0.0
 10
526.4238292649039
 20
349.5842080293691
 30
0.0
 10
526.3498598864526
 20
349.6360538892087
 30
0.0
 10
526.2683472555647
 20
349.6929632012908
 30
0.0
 10
526.1812715466236
 20
349.7534973717159
 30
0.0
 10
526.088745980467
 20
349.8175232048173
 30
0.0
 10
525.9908857269504
 20
349.8849030303497
 30
0.0
 10
525.8897699536213
 20
349.954151218377
 30
0.0
 10
525.7858490818561
 20
350.0249222808497
 30
0.0
 10
525.6795431147309
 20
350.0968986982384
 30
0.0
 10
525.5688878863314
 20
350.1713585685126
 30
0.0
 10
525.4539755857525
 20
350.2481772944344
 30
0.0
 10
525.3302903814096
 20
350.3302869768591
 30
0.0
 10
525.1973501158044
 20
350.4178554324377
 30
0.0
 10
525.0546787449005
 20
350.5110116936783
 30
0.0
 10
524.9071680333961
 20
350.6064308200835
 30
0.0
 10
524.7549222299511
 20
350.7039334176336
 30
0.0
 10
524.5980751682275
 20
350.803329673306
 30
0.0
 10
524.4366222776808
 20
350.9044653204389
 30
0.0
 10
524.2710446654526
 20
351.0070510819673
 30
0.0
 10
524.1569987688149
 20
351.076551073263
 30
0.0
 10
524.0999765725268
 20
351.1113006106206
 30
0.0
  0
SPLINE
  5
CD
330
1F
100
AcDbEntity
  8
0
  6
Continuous
 62
     7
370
    30
100
AcDbSpline
210
0.0
220
0.0
230
1.0
 70
     8
 71
     3
 72
   114
 73
   110
 74
     0
 42
0.000000001
 43
0.00000001
 40
0.0
 40
0.0
 40
0.0
 40
0.0
 40
0.0001076593515911
 40
0.0093242813775044
 40
0.0185409061794682
 40
0.0277876612785639
 40
0.0370344246141221
 40
0.0462509306116057
 40
0.055467449679721
 40
0.0647131277951671
 40
0.0739588235070442
 40
0.0836677645497169
 40
0.0933767314079858
 40
0.1031176255518325
 40
0.1128585492392289
 40
0.121990885688301
 40
0.1311232465830402
 40
0.1402798182133616
 40
0.1494364153046153
 40
0.1585683753322005
 40
0.1677003605673405
 40
0.1768541183459514
 40
0.1860079009601854
 40
0.1955138398887149
 40
0.2050198063432536
 40
0.2145476592358478
 40
0.2240755379819768
 40
0.2335953104316427
 40
0.2431151063040315
 40
0.2526544836234217
 40
0.2621938818578416
 40
0.2717902960764331
 40
0.2813867286490225
 40
0.2910012750198663
 40
0.3006158365172152
 40
0.312519889539099
 40
0.3244239684742119
 40
0.3363599946097408
 40
0.3482960350448588
 40
0.3602917115011517
 40
0.3722952954860192
 40
0.3841305784155895
 40
0.3959735187493738
 40
0.4042584835827217
 40
0.4125441169633479
 40
0.4208290550478131
 40
0.4291392207628906
 40
0.4374500982956553
 40
0.4457602186308999
 40
0.4549792572776328
 40
0.4641982682815707
 40
0.4734352437363153
 40
0.4826721836939295
 40
0.4918917450620663
 40
0.5011112631606536
 40
0.5103524589489995
 40
0.5195936029811657
 40
0.5291512893623335
 40
0.5387089081695944
 40
0.5482966128935748
 40
0.5578842432476089
 40
0.5671055424683002
 40
0.5763267769454335
 40
0.5855813236386149
 40
0.5948358089811103
 40
0.6040580087983416
 40
0.6132801587125168
 40
0.6225410574059721
 40
0.6318019224583611
 40
0.6383636207748971
 40
0.6449262326813676
 40
0.6514879212534862
 40
0.6580829704073389
 40
0.664678956663236
 40
0.6712740184825168
 40
0.6792516759279333
 40
0.6872293526058431
 40
0.6952323716895968
 40
0.7032354185231862
 40
0.7112126777615193
 40
0.7191899699655786
 40
0.7271897607385137
 40
0.735189587754532
 40
0.7435556641282682
 40
0.7519217843814473
 40
0.7603097790377973
 40
0.7686978160883158
 40
0.7760044964805978
 40
0.7833119781533013
 40
0.7906187352156206
 40
0.8016184426342023
 40
0.8126182440386441
 40
0.8236874431729617
 40
0.8347650327214376
 40
0.8456368432248641
 40
0.856515829710342
 40
0.8680416359134778
 40
0.8795674894802951
 40
0.8911239571331141
 40
0.9026804544996139
 40
0.9147625277509516
 40
0.9268446175598362
 40
0.9389593220607219
 40
0.951074026540207
 40
0.9632883121806313
 40
0.975502582703165
 40
0.9836681818289402
 40
0.9918344208288452
 40
1.0
 40
1.0
 40
1.0
 40
1.0
 10
505.3596030386782
 20
349.275058782711
 30
0.0
 10
505.3595938832829
 20
349.2750522204262
 30
0.0
 10
505.358800942573
 20
349.2744838667356
 30
0.0
 10
505.3619397341419
 20
349.2767338085271
 30
0.0
 10
505.3702490152406
 20
349.2826870768127
 30
0.0
 10
505.3849563339977
 20
349.2932201083672
 30
0.0
 10
505.4052895892636
 20
349.3077696175744
 30
0.0
 10
505.4313853102565
 20
349.3264236422156
 30
0.0
 10
505.4631514443283
 20
349.3491000868807
 30
0.0
 10
505.50061049493
 20
349.375798628858
 30
0.0
 10
505.5444326960903
 20
349.4069731640267
 30
0.0
 10
505.5948521271165
 20
349.4427630125269
 30
0.0
 10
505.6521744524604
 20
349.4833476352027
 30
0.0
 10
505.71552629131
 20
349.5280728000525
 30
0.0
 10
505.7833815036923
 20
349.575822777084
 30
0.0
 10
505.8551612830299
 20
349.6261617121318
 30
0.0
 10
505.930435812222
 20
349.6787603161729
 30
0.0
 10
506.0106948221672
 20
349.7346227849824
 30
0.0
 10
506.0957787156302
 20
349.7935923002771
 30
0.0
 10
506.1855118285369
 20
349.8555018878581
 30
0.0
 10
506.2798553870995
 20
349.9202751379991
 30
0.0
 10
506.3788119121505
 20
349.9878621531688
 30
0.0
 10
506.483622396921
 20
350.0590486188232
 30
0.0
 10
506.5943158721251
 20
350.1337776086989
 30
0.0
 10
506.7110754335957
 20
350.21208443735
 30
0.0
 10
506.8324308400769
 20
350.2929056096406
 30
0.0
 10
506.9582560382287
 20
350.3760801312803
 30
0.0
 10
507.0883595377347
 20
350.4614047293422
 30
0.0
 10
507.2227338733638
 20
350.548792257941
 30
0.0
 10
507.3613382573159
 20
350.6381308488728
 30
0.0
 10
507.5043791582947
 20
350.7294597684976
 30
0.0
 10
507.6517087900723
 20
350.8225859979486
 30
0.0
 10
507.803369751056
 20
350.9174295281813
 30
0.0
 10
507.9590045743475
 20
351.0136610772894
 30
0.0
 10
508.1312134868097
 20
351.1188659867219
 30
0.0
 10
508.3209488897548
 20
351.2331400737734
 30
0.0
 10
508.5294948337755
 20
351.3566271205895
 30
0.0
 10
508.7437684073366
 20
351.4812090674017
 30
0.0
 10
508.9640576114616
 20
351.6067867783067
 30
0.0
 10
509.1901674304387
 20
351.7329686351299
 30
0.0
 10
509.4209734330913
 20
351.8588375364473
 30
0.0
 10
509.6560006796753
 20
351.9838785293067
 30
0.0
 10
509.8711173692675
 20
352.0953288731706
 30
0.0
 10
510.0657676296167
 20
352.1937415621715
 30
0.0
 10
510.2384980140952
 20
352.2792328763631
 30
0.0
 10
510.4138452758704
 20
352.3640848893343
 30
0.0
 10
510.5918043112702
 20
352.4481672687274
 30
0.0
 10
510.7723708038066
 20
352.5313385259178
 30
0.0
 10
510.962021730788
 20
352.6163644070102
 30
0.0
 10
511.161054716725
 20
352.7029324332542
 30
0.0
 10
511.3699197848629
 20
352.7907193485037
 30
0.0
 10
511.5818377807704
 20
352.8765694440903
 30
0.0
 10
511.7966541530884
 20
352.960204660291
 30
0.0
 10
512.014194046817
 20
353.0413480909343
 30
0.0
 10
512.2345863064103
 20
353.1198334724146
 30
0.0
 10
512.4579311417657
 20
353.1954637998719
 30
0.0
 10
512.6867638757454
 20
353.2688134136886
 30
0.0
 10
512.9209545116673
 20
353.3394312234468
 30
0.0
 10
513.1607743953408
 20
353.4069694456974
 30
0.0
 10
513.4035189212312
 20
353.4703350117522
 30
0.0
 10
513.64594563353
 20
353.5284843022745
 30
0.0
 10
513.8875530010815
 20
353.581273181296
 30
0.0
 10
514.1283784243866
 20
353.6287355703989
 30
0.0
 10
514.3714258528515
 20
353.671295885608
 30
0.0
 10
514.6162284377407
 20
353.7086835192105
 30
0.0
 10
514.8622851341784
 20
353.7406507290422
 30
0.0
 10
515.1097105919919
 20
353.7670969896
 30
0.0
 10
515.3585600179624
 20
353.7878594785453
 30
0.0
 10
515.5842928133097
 20
353.8013565656877
 30
0.0
 10
515.786118782406
 20
353.809300768275
 30
0.0
 10
515.9637912406624
 20
353.8132856445418
 30
0.0
 10
516.1418464305495
 20
353.8142586973815
 30
0.0
 10
516.3201849687289
 20
353.8121862837937
 30
0.0
 10
516.4987054856604
 20
353.8070697250528
 30
0.0
 10
516.6894649278403
 20
353.7983588954656
 30
0.0
 10
516.8922770817924
 20
353.7852892312281
 30
0.0
 10
517.1071143363051
 20
353.7670729319963
 30
0.0
 10
517.3213756298352
 20
353.7445627476863
 30
0.0
 10
517.5346729152565
 20
353.7178810367726
 30
0.0
 10
517.7466345705116
 20
353.6871690659881
 30
0.0
 10
517.9573284491894
 20
353.6525439125619
 30
0.0
 10
518.1668508631593
 20
353.6140873534316
 30
0.0
 10
518.3782611121259
 20
353.5712976621306
 30
0.0
 10
518.5911710802815
 20
353.5241678579772
 30
0.0
 10
518.8055735696312
 20
353.4726484246783
 30
0.0
 10
519.0182136326332
 20
353.4176079549889
 30
0.0
 10
519.2199463548319
 20
353.3617397025907
 30
0.0
 10
519.4108220804218
 20
353.3057272429917
 30
0.0
 10
519.5910853411375
 20
353.2501235785701
 30
0.0
 10
519.7997566114594
 20
353.1827004631796
 30
0.0
 10
520.0356536086424
 20
353.1022466962515
 30
0.0
 10
520.2978624535501
 20
353.0073970302858
 30
0.0
 10
520.5566243382295
 20
352.9086385122773
 30
0.0
 10
520.8102655226772
 20
352.8069727607983
 30
0.0
 10
521.0583375896929
 20
352.70302692723
 30
0.0
 10
521.3056321570721
 20
352.595137572325
 30
0.0
 10
521.5533799741858
 20
352.4828348565541
 30
0.0
 10
521.8014108141144
 20
352.3662622470646
 30
0.0
 10
522.0449540307333
 20
352.2479235055293
 30
0.0
 10
522.2875791058646
 20
352.126345308074
 30
0.0
 10
522.5287755483449
 20
352.0019214705778
 30
0.0
 10
522.7684417052573
 20
351.8748503522407
 30
0.0
 10
523.002954235517
 20
351.7473240684236
 30
0.0
 10
523.2328575619039
 20
351.6193339293678
 30
0.0
 10
523.4578025671045
 20
351.4913430626956
 30
0.0
 10
523.6533852032248
 20
351.3777822622355
 30
0.0
 10
523.8208366782134
 20
351.2790041713093
 30
0.0
 10
523.9621010862253
 20
351.1947312268581
 30
0.0
 10
524.0540193149947
 20
351.1391100670013
 30
0.0
 10
524.0999765725654
 20
351.11130061066
 30
0.0
  0
LINE
  5
CE
330
1F
100
AcDbEntity
  8
0
  6
Continuous
 62
     7
370
    30
100
AcDbLine
 10
483.1095754931
 20
349.275039039
 30
0.0
 11
483.1095754931
 21
379.275039039
 31
0.0
  0
LINE
  5
CF
330
1F
100
AcDbEntity
  8
0
  6
Continuous
 62
     7
370
    30
100
AcDbLine
 10
531.1095754931
 20
350.275039039
 30
0.0
 11
531.1095754931
 21
378.275039039
 31
0.0
  0
SPLINE
  5
D0
330
1F
100
AcDbEntity
  8
0
  6
Continuous
 62
     7
370
    30
100
AcDbSpline
210
0.0
220
0.0
230
1.0
 70
     8
 71
     3
 72
    20
 73
    16
 74
     0
 42
0.000000001
 43
0.00000001
 40
0.0
 40
0.0
 40
0.0
 40
0.0
 40
0.0536611729109126
 40
0.1105315542751065
 40
0.1706246617156255
 40
0.2339519355733369
 40
0.3005231351861353
 40
0.3703466459912516
 40
0.4434297202055671
 40
0.5201333737192295
 40
0.6714994538840826
 40
0.7968425936958257
 40
0.8961537580504733
 40
0.959454167723392
 40
1.0
 40
1.0
 40
1.0
 40
1.0
 10
555.7745813663051
 20
340.1649903484261
 30
0.0
 10
555.8031721433515
 20
340.1612600947076
 30
0.0
 10
555.862063569935
 20
340.1535764993073
 30
0.0
 10
555.9468672001317
 20
340.1399675885492
 30
0.0
 10
556.0313492179615
 20
340.1247477530817
 30
0.0
 10
556.1140918378508
 20
340.1079987493472
 30
0.0
 10
556.1941808428974
 20
340.0900463115073
 30
0.0
 10
556.2704460487237
 20
340.0711456364263
 30
0.0
 10
556.3418329175546
 20
340.0516711861638
 30
0.0
 10
556.4271286166559
 20
340.0253576240119
 30
0.0
 10
556.5053221419091
 20
339.9989434335347
 30
0.0
 10
556.5600500174713
 20
339.9788031292698
 30
0.0
 10
556.5836406896143
 20
339.9681611734818
 30
0.0
 10
556.5915533745653
 20
339.9630024169891
 30
0.0
 10
556.5917574017532
 20
339.9615070539808
 30
0.0
 10
556.5918370623358
 20
339.9609232029276
 30
0.0
  0
LINE
  5
D1
330
1F
100
AcDbEntity
  8
0
  6
Continuous
 62
     7
370
    30
100
AcDbLine
 10
555.5704407646
 20
339.9059401447
 30
0.0
 11
555.5725155028
 21
339.9059405198
 31
0.0
  0
ELLIPSE
  5
D2
330
1F
100
AcDbEntity
  8
0
  6
Continuous
 62
     7
370
    30
100
AcDbEllipse
 10
555.5166593918
 20
364.1558876291
 30
0.0
 11
6.217113437440958
 21
24.25065800190914
 31
0.0
210
0.0
220
0.0
230
1.0
 40
0.0238461613
 41
3.147647233717514
 42
3.147710499221915
  0
LINE
  5
D3
330
1F
100
AcDbEntity
  8
0
  6
Continuous
 62
     7
370
    30
100
AcDbLine
 10
556.350653148
 20
339.8154604402
 30
0.0
 11
556.3506479936
 21
339.8154291168
 31
0.0
  0
SPLINE
  5
D4
330
1F
100
AcDbEntity
  8
0
  6
Continuous
 62
     7
370
    30
100
AcDbSpline
210
0.0
220
0.0
230
1.0
 70
    24
 71
     3
 72
   197
 73
   193
 74
     0
 42
0.000000001
 43
0.00000001
 40
0.0
 40
0.0
 40
0.0
 40
0.0
 40
0.0061669392882479
 40
0.0123266563688568
 40
0.0184810993194285
 40
0.0246322212285625
 40
0.030781978349027
 40
0.0369323282358926
 40
0.0410757474640745
 40
0.0452209204113254
 40
0.0493684435442257
 40
0.0535189123161154
 40
0.0576729209136137
 40
0.061976599642468
 40
0.0663383766844871
 40
0.0724389631326433
 40
0.0785344243333754
 40
0.0846266598773344
 40
0.0907175723731573
 40
0.096809065669198
 40
0.103512632355553
 40
0.1102217347272076
 40
0.1119801355745202
 40
0.1137391345168484
 40
0.1154987767533535
 40
0.1172591074336441
 40
0.1190201716543786
 40
0.1207820144558878
 40
0.127488470457237
 40
0.134185763545145
 40
0.1408763980723473
 40
0.1475628858732626
 40
0.1542477434567068
 40
0.1609334891723333
 40
0.1661888696049474
 40
0.1714475719427166
 40
0.1767108133820104
 40
0.1819798079734511
 40
0.1872964178013374
 40
0.1926576356637864
 40
0.1990836059033207
 40
0.2055035255679235
 40
0.2119196145838632
 40
0.2183340968545464
 40
0.2247491979543964
 40
0.231052502057132
 40
0.2373606543628886
 40
0.2436757551183686
 40
0.2499998976475412
 40
0.2558515109042822
 40
0.2616957311735394
 40
0.2675342195725323
 40
0.2733686421142406
 40
0.2792006682960801
 40
0.2850319696736952
 40
0.2908642184259291
 40
0.2972827649198541
 40
0.3037067014242429
 40
0.3101382437143526
 40
0.3165538279787443
 40
0.3228753610362552
 40
0.3291890775183082
 40
0.3354970773630228
 40
0.3418014662210106
 40
0.3481043533619286
 40
0.3544078495629434
 40
0.3590320523103248
 40
0.3636585487596913
 40
0.3682881690099885
 40
0.370107995353276
 40
0.3719284818252048
 40
0.3737496785154855
 40
0.3755716354552521
 40
0.3773944026130369
 40
0.3792180298907707
 40
0.3856974116563678
 40
0.3921685626579198
 40
0.3986337426711402
 40
0.4050952177364581
 40
0.4115552577931475
 40
0.4180161342929934
 40
0.4223689833064396
 40
0.4267239343874376
 40
0.4310816793471023
 40
0.4354429086669903
 40
0.4398083111752811
 40
0.4440258171021968
 40
0.4481769534275568
 40
0.4539834885816521
 40
0.4597856431755095
 40
0.4655850551982989
 40
0.4713833649634722
 40
0.4771822137198644
 40
0.4828796262230857
 40
0.4885806940835012
 40
0.4942869670434326
 40
0.4999999906093216
 40
0.5061662031947378
 40
0.5123253617139131
 40
0.5184794152934364
 40
0.5246303179129304
 40
0.5307800265555311
 40
0.5369304993440898
 40
0.5410740981314985
 40
0.5452195286354683
 40
0.5493673873703002
 40
0.5535182698034282
 40
0.55767277010212
 40
0.5619766090333284
 40
0.5663383860755645
 40
0.5724389725239626
 40
0.5785344337248645
 40
0.5846266692689213
 40
0.5907175817647697
 40
0.5968090750607641
 40
0.6035126417469847
 40
0.6102217441184179
 40
0.6119801449656582
 40
0.6137391439079081
 40
0.615498786144329
 40
0.6172591168245295
 40
0.619020181045168
 40
0.6207820238465749
 40
0.6274884798483473
 40
0.6341857729365802
 40
0.6408764074640085
 40
0.647562895265051
 40
0.6542477528485232
 40
0.6609334985640786
 40
0.6661888789965674
 40
0.6714475813341504
 40
0.6767108227731972
 40
0.6819798173643299
 40
0.6872964271921511
 40
0.6926576450548393
 40
0.6990836152945996
 40
0.7055035349593611
 40
0.7119196239753923
 40
0.7183341062460997
 40
0.7247492073459062
 40
0.731052511448533
 40
0.7373606637541156
 40
0.7436757645093564
 40
0.7499999070382246
 40
0.7558515202950647
 40
0.7616957405644017
 40
0.7675342289634549
 40
0.7733686515052041
 40
0.7792006776870649
 40
0.7850319790646816
 40
0.7908642278168969
 40
0.7972827743107792
 40
0.8037067108151014
 40
0.8101382531051207
 40
0.8165538373694546
 40
0.8228753704270849
 40
0.8291890869092297
 40
0.8354970867540088
 40
0.8418014756120337
 40
0.8481043627529613
 40
0.8544078589539588
 40
0.85903206170131
 40
0.8636585581506317
 40
0.8682881784008694
 40
0.8701080047441297
 40
0.8719284912160291
 40
0.8737496879062782
 40
0.8755716448460109
 40
0.8773944120037594
 40
0.8792180392814546
 40
0.8856974210473525
 40
0.8921685720491352
 40
0.8986337520625163
 40
0.9050952271279245
 40
0.9115552671846338
 40
0.918016143684429
 40
0.9223689926978016
 40
0.9267239437786942
 40
0.9310816887382216
 40
0.9354429180579409
 40
0.9398083205660313
 40
0.9440258264929202
 40
0.9481769628183285
 40
0.9539834979724775
 40
0.9597856525663729
 40
0.9655850645891841
 40
0.9713833743543633
 40
0.9771822231107452
 40
0.9828796356139401
 40
0.988580703474313
 40
0.9942869764341857
 40
1.0
 40
1.0
 40
1.0
 40
1.0
 10
571.9291490707303
 20
341.7501047384735
 30
0.0
 10
571.9291490707303
 20
341.7850287902097
 30
0.0
 10
571.9291490707303
 20
341.8548359935301
 30
0.0
 10
571.9291490707303
 20
341.9684948157354
 30
0.0
 10
571.9291490707304
 20
342.0886143621956
 30
0.0
 10
571.9291490707304
 20
342.2158407193682
 30
0.0
 10
571.9291490707303
 20
342.3500006850236
 30
0.0
 10
571.9291490707303
 20
342.4757716591434
 30
0.0
 10
571.9291490707304
 20
342.5907297014517
 30
0.0
 10
571.9291490707303
 20
342.6928615147841
 30
0.0
 10
571.9291490707304
 20
342.798154070468
 30
0.0
 10
571.9291490707304
 20
342.9066074499356
 30
0.0
 10
571.9291490707304
 20
343.0195254511121
 30
0.0
 10
571.9291490707303
 20
343.1375234993746
 30
0.0
 10
571.9291490707304
 20
343.2771871245906
 30
0.0
 10
571.9291490707304
 20
343.4388604635158
 30
0.0
 10
571.9291490707303
 20
343.6239090756769
 30
0.0
 10
571.9291490707304
 20
343.8152871480357
 30
0.0
 10
571.9291490707304
 20
344.0129944527584
 30
0.0
 10
571.9291490707303
 20
344.223836269236
 30
0.0
 10
571.9291490707303
 20
344.4485761197205
 30
0.0
 10
571.9291490707304
 20
344.6290168388197
 30
0.0
 10
571.9291490707303
 20
344.7530038441701
 30
0.0
 10
571.9291490707304
 20
344.8174867349628
 30
0.0
 10
571.9291490707303
 20
344.8824947525811
 30
0.0
 10
571.9291490707303
 20
344.9480279248751
 30
0.0
 10
571.9291490707303
 20
345.0140863386552
 30
0.0
 10
571.9291490707303
 20
345.1429473876477
 30
0.0
 10
571.9291490707303
 20
345.3374029555375
 30
0.0
 10
571.9291490707303
 20
345.6021387109465
 30
0.0
 10
571.9291490707303
 20
345.8736073400803
 30
0.0
 10
571.9291490707304
 20
346.1518080720483
 30
0.0
 10
571.9291490707304
 20
346.4367406744543
 30
0.0
 10
571.9291490707304
 20
346.7075594090437
 30
0.0
 10
571.9291490707303
 20
346.9626763996339
 30
0.0
 10
571.9291490707303
 20
347.2007021316261
 30
0.0
 10
571.9291490707304
 20
347.4428827577023
 30
0.0
 10
571.9291490707304
 20
347.6898528212388
 30
0.0
 10
571.9291490707303
 20
347.9422198910634
 30
0.0
 10
571.9291490707303
 20
348.2170239503508
 30
0.0
 10
571.9291490707303
 20
348.5143519269758
 30
0.0
 10
571.9291490707303
 20
348.834343104474
 30
0.0
 10
571.9291490707303
 20
349.1594757954464
 30
0.0
 10
571.9291490707303
 20
349.4897495636084
 30
0.0
 10
571.9291490707304
 20
349.8231666996844
 30
0.0
 10
571.9291490707303
 20
350.1596193218653
 30
0.0
 10
571.9291490707304
 20
350.4990053147831
 30
0.0
 10
571.9291490707303
 20
350.8433500709687
 30
0.0
 10
571.9291490707303
 20
351.1837492317694
 30
0.0
 10
571.9291490707304
 20
351.5194425977895
 30
0.0
 10
571.9291490707303
 20
351.8497206415141
 30
0.0
 10
571.9291490707303
 20
352.1832161567301
 30
0.0
 10
571.9291490707303
 20
352.5199294306879
 30
0.0
 10
571.9291490707303
 20
352.8598602551708
 30
0.0
 10
571.9291490707303
 20
353.2030087111578
 30
0.0
 10
571.9291490707304
 20
353.5609275971652
 30
0.0
 10
571.9291490707303
 20
353.9340085069963
 30
0.0
 10
571.9291490707303
 20
354.3226315082645
 30
0.0
 10
571.9291490707304
 20
354.7146238941054
 30
0.0
 10
571.9291490707303
 20
355.1077917569112
 30
0.0
 10
571.9291490707304
 20
355.5016174161793
 30
0.0
 10
571.9291490707304
 20
355.896139207564
 30
0.0
 10
571.9291490707303
 20
356.2930952009643
 30
0.0
 10
571.9291490707303
 20
356.6924857163217
 30
0.0
 10
571.9291490707303
 20
357.0943100705741
 30
0.0
 10
571.9291490707303
 20
357.4626166029808
 30
0.0
 10
571.9291490707303
 20
357.7966961623539
 30
0.0
 10
571.9291490707304
 20
358.0959848869186
 30
0.0
 10
571.9291490707303
 20
358.3356887213883
 30
0.0
 10
571.9291490707304
 20
358.5150991803914
 30
0.0
 10
571.9291490707303
 20
358.6337420306151
 30
0.0
 10
571.9291490707304
 20
358.7525868011969
 30
0.0
 10
571.9291490707303
 20
358.8716335210898
 30
0.0
 10
571.9291490707303
 20
358.9908823060401
 30
0.0
 10
571.9291490707303
 20
359.2119648650129
 30
0.0
 10
571.9291490707304
 20
359.5354221241309
 30
0.0
 10
571.9291490707303
 20
359.9621517562508
 30
0.0
 10
571.9291490707304
 20
360.389998442607
 30
0.0
 10
571.9291490707304
 20
360.8189609022642
 30
0.0
 10
571.9291490707303
 20
361.2490386757943
 30
0.0
 10
571.9291490707303
 20
361.6332741311782
 30
0.0
 10
571.9291490707304
 20
361.9712738567554
 30
0.0
 10
571.9291490707303
 20
362.2627762618071
 30
0.0
 10
571.9291490707303
 20
362.5547842655294
 30
0.0
 10
571.9291490707304
 20
362.8472981370371
 30
0.0
 10
571.9291490707303
 20
363.1369001293234
 30
0.0
 10
571.9291490707303
 20
363.4219730301942
 30
0.0
 10
571.9291490707303
 20
363.739447788804
 30
0.0
 10
571.9291490707303
 20
364.09254223827
 30
0.0
 10
571.9291490707303
 20
364.482616872721
 30
0.0
 10
571.9291490707303
 20
364.8724496275472
 30
0.0
 10
571.9291490707303
 20
365.2620399755764
 30
0.0
 10
571.9291490707304
 20
365.6490692393721
 30
0.0
 10
571.9291490707304
 20
366.033541357634
 30
0.0
 10
571.9291490707304
 20
366.4154647883716
 30
0.0
 10
571.9291490707303
 20
366.7971541830599
 30
0.0
 10
571.9291490707304
 20
367.1885102251237
 30
0.0
 10
571.9291490707303
 20
367.5890859039953
 30
0.0
 10
571.9291490707303
 20
367.9984068081048
 30
0.0
 10
571.9291490707304
 20
368.4062097528644
 30
0.0
 10
571.9291490707303
 20
368.8124945827053
 30
0.0
 10
571.9291490707304
 20
369.2172606769292
 30
0.0
 10
571.9291490707303
 20
369.5765955828228
 30
0.0
 10
571.9291490707304
 20
369.8910179865143
 30
0.0
 10
571.9291490707303
 20
370.1610256500685
 30
0.0
 10
571.9291490707303
 20
370.4303444674427
 30
0.0
 10
571.9291490707304
 20
370.6989747495504
 30
0.0
 10
571.9291490707303
 20
370.9700359663594
 30
0.0
 10
571.9291490707303
 20
371.2446278234555
 30
0.0
 10
571.9291490707303
 20
371.5596664289062
 30
0.0
 10
571.9291490707304
 20
371.9111889119283
 30
0.0
 10
571.9291490707303
 20
372.2970742586987
 30
0.0
 10
571.9291490707304
 20
372.6802600590466
 30
0.0
 10
571.9291490707303
 20
373.0607458114862
 30
0.0
 10
571.9291490707304
 20
373.4511319340688
 30
0.0
 10
571.9291490707303
 20
373.8511001608142
 30
0.0
 10
571.9291490707304
 20
374.1594939986261
 30
0.0
 10
571.9291490707303
 20
374.3661677922223
 30
0.0
 10
571.9291490707303
 20
374.4725548444031
 30
0.0
 10
571.9291490707303
 20
374.5787177770349
 30
0.0
 10
571.9291490707304
 20
374.6846566725125
 30
0.0
 10
571.9291490707303
 20
374.7903715823165
 30
0.0
 10
571.9291490707304
 20
374.9945314562509
 30
0.0
 10
571.9291490707304
 20
375.295332113837
 30
0.0
 10
571.9291490707303
 20
375.689766781258
 30
0.0
 10
571.9291490707303
 20
376.0795361749102
 30
0.0
 10
571.9291490707304
 20
376.4646387101872
 30
0.0
 10
571.9291490707303
 20
376.8450742409523
 30
0.0
 10
571.9291490707304
 20
377.1939857822003
 30
0.0
 10
571.9291490707303
 20
377.512461357933
 30
0.0
 10
571.9291490707304
 20
377.801532957813
 30
0.0
 10
571.9291490707303
 20
378.0877237103354
 30
0.0
 10
571.9291490707304
 20
378.3717614483847
 30
0.0
 10
571.9291490707303
 20
378.6542657926978
 30
0.0
 10
571.9291490707304
 20
378.9536330765183
 30
0.0
 10
571.9291490707303
 20
379.2679427049285
 30
0.0
 10
571.9291490707303
 20
379.5952912451794
 30
0.0
 10
571.9291490707304
 20
379.9171557765384
 30
0.0
 10
571.9291490707303
 20
380.2335359610856
 30
0.0
 10
571.9291490707304
 20
380.5425800947879
 30
0.0
 10
571.9291490707304
 20
380.8444008220225
 30
0.0
 10
571.9291490707304
 20
381.1391143471357
 30
0.0
 10
571.9291490707303
 20
381.4285370308952
 30
0.0
 10
571.9291490707304
 20
381.7054279324695
 30
0.0
 10
571.9291490707304
 20
381.9699837370628
 30
0.0
 10
571.9291490707303
 20
382.2223736090572
 30
0.0
 10
571.9291490707304
 20
382.4694028383657
 30
0.0
 10
571.9291490707303
 20
382.7110711241128
 30
0.0
 10
571.9291490707304
 20
382.947378443804
 30
0.0
 10
571.9291490707303
 20
383.1783247887004
 30
0.0
 10
571.9291490707303
 20
383.4114344837654
 30
0.0
 10
571.9291490707304
 20
383.646066653888
 30
0.0
 10
571.9291490707303
 20
383.8815379045747
 30
0.0
 10
571.9291490707303
 20
384.1102146558824
 30
0.0
 10
571.9291490707304
 20
384.3309133807254
 30
0.0
 10
571.9291490707303
 20
384.5435279278919
 30
0.0
 10
571.9291490707303
 20
384.7481990149138
 30
0.0
 10
571.9291490707304
 20
384.9458679030685
 30
0.0
 10
571.9291490707304
 20
385.1365339441043
 30
0.0
 10
571.9291490707304
 20
385.3201970503348
 30
0.0
 10
571.9291490707304
 20
385.4811462703497
 30
0.0
 10
571.9291490707303
 20
385.6213918143015
 30
0.0
 10
571.9291490707303
 20
385.7427175001224
 30
0.0
 10
571.9291490707304
 20
385.8364629087288
 30
0.0
 10
571.9291490707303
 20
385.9048567167538
 30
0.0
 10
571.9291490707303
 20
385.9494270164503
 30
0.0
 10
571.9291490707304
 20
385.9934162381045
 30
0.0
 10
571.9291490707303
 20
386.0368244238945
 30
0.0
 10
571.9291490707303
 20
386.0796515114853
 30
0.0
 10
571.9291490707303
 20
386.1578421300353
 30
0.0
 10
571.9291490707303
 20
386.2682246218101
 30
0.0
 10
571.9291490707304
 20
386.4056011953307
 30
0.0
 10
571.9291490707303
 20
386.5351118710277
 30
0.0
 10
571.9291490707303
 20
386.6567558005246
 30
0.0
 10
571.9291490707304
 20
386.7705330175111
 30
0.0
 10
571.9291490707303
 20
386.8649095610194
 30
0.0
 10
571.9291490707304
 20
386.942602770435
 30
0.0
 10
571.9291490707303
 20
387.0059244585524
 30
0.0
 10
571.9291490707303
 20
387.0656787047629
 30
0.0
 10
571.9291490707304
 20
387.1218657084491
 30
0.0
 10
571.9291490707303
 20
387.1738712889269
 30
0.0
 10
571.9291490707303
 20
387.2215740250065
 30
0.0
 10
571.9291490707304
 20
387.2708997155761
 30
0.0
 10
571.9291490707303
 20
387.3207239648117
 30
0.0
 10
571.9291490707304
 20
387.3692666490997
 30
0.0
 10
571.9291490707303
 20
387.4112747330877
 30
0.0
 10
571.9291490707303
 20
387.446751137887
 30
0.0
 10
571.9291490707304
 20
387.4755122930217
 30
0.0
 10
571.9291490707303
 20
387.497735056172
 30
0.0
 10
571.9291490707304
 20
387.5134007228694
 30
0.0
 10
571.9291490707303
 20
387.5232146209775
 30
0.0
 10
571.9291490707304
 20
387.5244306600491
 30
0.0
 10
571.9291490707303
 20
387.5250390390204
 30
0.0
  0
SPLINE
  5
D5
330
1F
100
AcDbEntity
  8
0
  6
Continuous
 62
     7
370
    30
100
AcDbSpline
210
0.0
220
0.0
230
1.0
 70
     8
 71
     3
 72
    41
 73
    37
 74
     0
 42
0.000000001
 43
0.00000001
 40
0.0
 40
0.0
 40
0.0
 40
0.0
 40
0.0498179450963287
 40
0.0956827657204889
 40
0.1375980079617642
 40
0.1755647417292423
 40
0.1974083007291051
 40
0.2176910030749042
 40
0.2364122025778103
 40
0.2560945516195114
 40
0.2838113529290681
 40
0.3500084565277121
 40
0.4117890908799428
 40
0.4250515599989699
 40
0.4380914708465424
 40
0.4509087950268202
 40
0.4635034975131078
 40
0.4758755374628348
 40
0.488024869048326
 40
0.4999514423055777
 40
0.5519085971747706
 40
0.6014301390992104
 40
0.6485199495673628
 40
0.6619317434497046
 40
0.675132859026837
 40
0.6881234014568094
 40
0.7009034824236069
 40
0.7134732217920103
 40
0.7258327493575092
 40
0.7379822067005904
 40
0.7499217491559638
 40
0.8068371746169344
 40
0.860244840752358
 40
0.9101946999307365
 40
0.9567513027715149
 40
1.0
 40
1.0
 40
1.0
 40
1.0
 10
556.9291490707304
 20
340.7812903599553
 30
0.0
 10
556.9503014817501
 20
340.7653843353536
 30
0.0
 10
556.9909278300288
 20
340.7348344517209
 30
0.0
 10
557.0493249860797
 20
340.6881050327551
 30
0.0
 10
557.1024874271238
 20
340.6436835620103
 30
0.0
 10
557.1452692992447
 20
340.6063356299791
 30
0.0
 10
557.178788297723
 20
340.5761094684905
 30
0.0
 10
557.2041624247303
 20
340.552697080032
 30
0.0
 10
557.2285543862055
 20
340.5297094033366
 30
0.0
 10
557.2559707043692
 20
340.5033431010072
 30
0.0
 10
557.3028816012677
 20
340.457042505605
 30
0.0
 10
557.3665118293437
 20
340.390804218802
 30
0.0
 10
557.4230747729731
 20
340.3270593006764
 30
0.0
 10
557.4578094217517
 20
340.285868034167
 30
0.0
 10
557.4731483821218
 20
340.2673453665397
 30
0.0
 10
557.4881374038029
 20
340.2489137491352
 30
0.0
 10
557.5027777582197
 20
340.2305803177877
 30
0.0
 10
557.5170710630349
 20
340.2123521007645
 30
0.0
 10
557.5310190171333
 20
340.1942361508108
 30
0.0
 10
557.5599309688588
 20
340.1559910718833
 30
0.0
 10
557.602283154254
 20
340.0971204677438
 30
0.0
 10
557.655744054174
 20
340.0158977081835
 30
0.0
 10
557.6936015186075
 20
339.9526052885865
 30
0.0
 10
557.7180877667945
 20
339.9087691538651
 30
0.0
 10
557.7310278029034
 20
339.8848638843201
 30
0.0
 10
557.7435400285636
 20
339.8609912781799
 30
0.0
 10
557.7556243217582
 20
339.8371580309938
 30
0.0
 10
557.7672808718493
 20
339.8133708811954
 30
0.0
 10
557.7785101520446
 20
339.7896365872703
 30
0.0
 10
557.7893129634513
 20
339.7659615554797
 30
0.0
 10
557.8127812415763
 20
339.7125712842399
 30
0.0
 10
557.8457617436607
 20
339.6285039922779
 30
0.0
 10
557.8823774572203
 20
339.5102357910423
 30
0.0
 10
557.9087422004632
 20
339.3915162924372
 30
0.0
 10
557.9257352000541
 20
339.2738304371265
 30
0.0
 10
557.9280394050138
 20
339.1918807699337
 30
0.0
 10
557.9291490707304
 20
339.152415211201
 30
0.0
  0
SPLINE
  5
D6
330
1F
100
AcDbEntity
  8
0
  6
Continuous
 62
     7
370
    30
100
AcDbSpline
210
0.0
220
0.0
230
1.0
 70
     8
 71
     3
 72
    55
 73
    51
 74
     0
 42
0.000000001
 43
0.00000001
 40
0.0
 40
0.0
 40
0.0
 40
0.0
 40
0.0291113292749803
 40
0.0586085873627066
 40
0.0885867475593293
 40
0.1191362983411263
 40
0.1423719711725424
 40
0.1660076249105331
 40
0.1900752678153048
 40
0.2225555262591486
 40
0.2268725057510551
 40
0.2312045599955396
 40
0.2355518276809664
 40
0.2399144460447822
 40
0.2442925508808788
 40
0.2486862765472496
 40
0.2786908636555914
 40
0.3103536394251108
 40
0.3437081192025003
 40
0.378782968272538
 40
0.4110919792533948
 40
0.4447670066899078
 40
0.4755415687082954
 40
0.4796511895050631
 40
0.4837792753710472
 40
0.4879258427164526
 40
0.4920909077330367
 40
0.4962744863977762
 40
0.5004765944764732
 40
0.5357168365515665
 40
0.5724314289668951
 40
0.6106290859996311
 40
0.6503175445457745
 40
0.6864823457486287
 40
0.7238112145588428
 40
0.730502025306688
 40
0.7372290351777109
 40
0.7439922637053611
 40
0.7507511714037535
 40
0.7544378693708417
 40
0.7700625680553596
 40
0.7881147047157949
 40
0.8081090909331567
 40
0.8300459136335033
 40
0.8539253120856841
 40
0.8797473920689627
 40
0.906999408025295
 40
0.9361254845828192
 40
0.967125669376056
 40
1.0
 40
1.0
 40
1.0
 40
1.0
 10
558.9291490707304
 20
338.7031387381373
 30
0.0
 10
558.9284774208006
 20
338.7380127552766
 30
0.0
 10
558.9271252168797
 20
338.8082231143051
 30
0.0
 10
558.9163220680615
 20
338.9118913575014
 30
0.0
 10
558.8991253012982
 20
339.0148764768296
 30
0.0
 10
558.8769879261586
 20
339.1080247059767
 30
0.0
 10
558.8519700527906
 20
339.1917575559629
 30
0.0
 10
558.8255827843843
 20
339.2665162458689
 30
0.0
 10
558.7920291405059
 20
339.348684576789
 30
0.0
 10
558.7634154379189
 20
339.4089307457167
 30
0.0
 10
558.7428285805315
 20
339.4486828258537
 30
0.0
 10
558.7362311854815
 20
339.4611736732109
 30
0.0
 10
558.729519031858
 20
339.4736373306746
 30
0.0
 10
558.7226921810553
 20
339.4860735354054
 30
0.0
 10
558.715750282435
 20
339.498481830244
 30
0.0
 10
558.6949943169371
 20
339.5349019696881
 30
0.0
 10
558.6578096971853
 20
339.5955077499222
 30
0.0
 10
558.6003820275189
 20
339.6790924249268
 30
0.0
 10
558.5362192197409
 20
339.7633447937497
 30
0.0
 10
558.4683573657583
 20
339.84430306509
 30
0.0
 10
558.3975246473208
 20
339.9218900162883
 30
0.0
 10
558.3274556947911
 20
339.99289702774
 30
0.0
 10
558.276446203717
 20
340.0410172113945
 30
0.0
 10
558.247047658876
 20
340.0677411302665
 30
0.0
 10
558.2376875308702
 20
340.0761754817665
 30
0.0
 10
558.2282579997432
 20
340.0845982524305
 30
0.0
 10
558.2187591176222
 20
340.0930090170302
 30
0.0
 10
558.2091906446041
 20
340.1014072281646
 30
0.0
 10
558.1758399923767
 20
340.1304264573997
 30
0.0
 10
558.1167872550859
 20
340.1796374835048
 30
0.0
 10
558.0294415369589
 20
340.2471025983008
 30
0.0
 10
557.9367384569196
 20
340.3133981030668
 30
0.0
 10
557.8428111915623
 20
340.3754556475821
 30
0.0
 10
557.7481752140353
 20
340.4333450283334
 30
0.0
 10
557.6802467265107
 20
340.4718725801316
 30
0.0
 10
557.6369565159256
 20
340.4953297660692
 30
0.0
 10
557.6197048560682
 20
340.5045465796812
 30
0.0
 10
557.6023587568093
 20
340.5136818726844
 30
0.0
 10
557.5875890404353
 20
340.5213507319413
 30
0.0
 10
557.5651715501995
 20
340.5328543345063
 30
0.0
 10
557.5329098033496
 20
340.5490316310454
 30
0.0
 10
557.4863421661233
 20
340.5715351285154
 30
0.0
 10
557.4340890442872
 20
340.5957857940885
 30
0.0
 10
557.3765720808107
 20
340.6213270973392
 30
0.0
 10
557.3137906134256
 20
340.6478798132059
 30
0.0
 10
557.2461948088758
 20
340.6749536639422
 30
0.0
 10
557.1738486455058
 20
340.7022393753774
 30
0.0
 10
557.0968129987193
 20
340.7293514567515
 30
0.0
 10
557.014704983446
 20
340.75626482842
 30
0.0
 10
556.9582201498857
 20
340.7727869241895
 30
0.0
 10
556.9291490707304
 20
340.7812903599553
 30
0.0
  0
SPLINE
  5
D7
330
1F
100
AcDbEntity
  8
0
  6
Continuous
 62
     7
370
    30
100
AcDbSpline
210
0.0
220
0.0
230
1.0
 70
    24
 71
     3
 72
    49
 73
    45
 74
     0
 42
0.000000001
 43
0.00000001
 40
0.0
 40
0.0
 40
0.0
 40
0.0
 40
0.0273697809603514
 40
0.0546192088000506
 40
0.0817832705300801
 40
0.1088972836241093
 40
0.1359967612346101
 40
0.1512131587892541
 40
0.1664424623563659
 40
0.1816909358757633
 40
0.1969648197020346
 40
0.2122703231089557
 40
0.2276136169819912
 40
0.2430008267402142
 40
0.2719606204975858
 40
0.3007794932404491
 40
0.3294988612517801
 40
0.3581605721719632
 40
0.386806726327016
 40
0.4149670624833624
 40
0.4431929101620642
 40
0.47152383419573
 40
0.499998961424569
 40
0.5289587670768013
 40
0.5577776465021167
 40
0.5864970174572024
 40
0.6151587290877016
 40
0.6438048832437696
 40
0.6598914407357008
 40
0.6759938246051763
 40
0.6921194559141319
 40
0.7082757236897803
 40
0.7244699750234541
 40
0.7407095054529833
 40
0.7570015496887045
 40
0.7843716966878554
 40
0.8116213309540908
 40
0.8387854843767324
 40
0.8658995201761268
 40
0.8929989977749611
 40
0.9196348992763589
 40
0.9463247797637769
 40
0.9731021013980065
 40
1.0
 40
1.0
 40
1.0
 40
1.0
 10
571.9291490707303
 20
336.9060328458828
 30
0.0
 10
571.9291490707303
 20
336.9662680096648
 30
0.0
 10
571.9291490707303
 20
337.086473465181
 30
0.0
 10
571.9291490707303
 20
337.2662342378042
 30
0.0
 10
571.9291490707303
 20
337.4449733793489
 30
0.0
 10
571.9291490707303
 20
337.6226887750385
 30
0.0
 10
571.9291490707304
 20
337.7735230458947
 30
0.0
 10
571.9291490707303
 20
337.8978893581028
 30
0.0
 10
571.9291490707304
 20
337.9962386137662
 30
0.0
 10
571.9291490707303
 20
338.094265121565
 30
0.0
 10
571.9291490707304
 20
338.1919692972057
 30
0.0
 10
571.9291490707303
 20
338.289350860729
 30
0.0
 10
571.9291490707303
 20
338.3864102547743
 30
0.0
 10
571.9291490707304
 20
338.5114797148308
 30
0.0
 10
571.9291490707303
 20
338.6633490398526
 30
0.0
 10
571.9291490707303
 20
338.8403669466525
 30
0.0
 10
571.9291490707304
 20
339.0139882809636
 30
0.0
 10
571.9291490707303
 20
339.1842102853414
 30
0.0
 10
571.9291490707303
 20
339.3500381878641
 30
0.0
 10
571.9291490707304
 20
339.5115378108562
 30
0.0
 10
571.9291490707303
 20
339.6687847738913
 30
0.0
 10
571.9291490707303
 20
339.8227489895172
 30
0.0
 10
571.9291490707304
 20
339.9739643193107
 30
0.0
 10
571.9291490707303
 20
340.1217505996951
 30
0.0
 10
571.9291490707303
 20
340.2653351632484
 30
0.0
 10
571.9291490707304
 20
340.4035778173163
 30
0.0
 10
571.9291490707304
 20
340.5364758748823
 30
0.0
 10
571.9291490707303
 20
340.6453599788478
 30
0.0
 10
571.9291490707304
 20
340.7325916308472
 30
0.0
 10
571.9291490707303
 20
340.8001212173955
 30
0.0
 10
571.9291490707303
 20
340.8659685747398
 30
0.0
 10
571.9291490707303
 20
340.9301340204022
 30
0.0
 10
571.9291490707303
 20
340.9926175501076
 30
0.0
 10
571.9291490707303
 20
341.0534187238291
 30
0.0
 10
571.9291490707303
 20
341.1258651232252
 30
0.0
 10
571.9291490707304
 20
341.2079476106003
 30
0.0
 10
571.9291490707303
 20
341.2970796162918
 30
0.0
 10
571.9291490707304
 20
341.3802636570675
 30
0.0
 10
571.9291490707303
 20
341.4575001836262
 30
0.0
 10
571.9291490707303
 20
341.5283539831819
 30
0.0
 10
571.9291490707303
 20
341.5929855516737
 30
0.0
 10
571.9291490707304
 20
341.6513756937777
 30
0.0
 10
571.9291490707303
 20
341.7044505825209
 30
0.0
 10
571.9291490707303
 20
341.7348639128076
 30
0.0
 10
571.9291490707303
 20
341.7501047384735
 30
0.0
  0
SPLINE
  5
D8
330
1F
100
AcDbEntity
  8
0
  6
Continuous
 62
     7
370
    30
100
AcDbSpline
210
0.0
220
0.0
230
1.0
 70
    24
 71
     3
 72
    19
 73
    15
 74
     0
 42
0.000000001
 43
0.00000001
 40
0.0
 40
0.0
 40
0.0
 40
0.0
 40
0.0835763635351979
 40
0.1668873861299471
 40
0.2500589135356576
 40
0.3332174248103213
 40
0.4164894583212152
 40
0.5000010364039157
 40
0.5835766902449236
 40
0.6668874636690904
 40
0.7500589673118382
 40
0.8332174429107904
 40
0.916489191455958
 40
1.0
 40
1.0
 40
1.0
 40
1.0
 10
557.9291490707304
 20
339.152415211201
 30
0.0
 10
557.9291490707304
 20
339.0941058661314
 30
0.0
 10
557.9291490707304
 20
338.9776722983857
 30
0.0
 10
557.9291490707304
 20
338.7991909330991
 30
0.0
 10
557.9291490707303
 20
338.618384628203
 30
0.0
 10
557.9291490707304
 20
338.434950235573
 30
0.0
 10
557.9291490707304
 20
338.2489706366174
 30
0.0
 10
557.9291490707304
 20
338.0606505862155
 30
0.0
 10
557.9291490707304
 20
337.8705785774839
 30
0.0
 10
557.9291490707304
 20
337.6793110004484
 30
0.0
 10
557.9291490707304
 20
337.4871930095367
 30
0.0
 10
557.9291490707304
 20
337.2942260064525
 30
0.0
 10
557.9291490707304
 20
337.1004112096635
 30
0.0
 10
557.9291490707304
 20
336.9708875186454
 30
0.0
 10
557.9291490707304
 20
336.9060328458828
 30
0.0
  0
LINE
  5
D9
330
1F
100
AcDbEntity
  8
0
  6
Continuous
 62
     7
370
    30
100
AcDbLine
 10
557.9291490707
 20
280.225039039
 30
0.0
 11
557.9291490707
 21
336.9060328459
 31
0.0
  0
LINE
  5
DA
330
1F
100
AcDbEntity
  8
0
  6
Continuous
 62
     7
370
    30
100
AcDbLine
 10
558.9291490707
 20
279.225039039
 30
0.0
 11
570.9291490707
 21
279.225039039
 31
0.0
  0
LINE
  5
DB
330
1F
100
AcDbEntity
  8
0
  6
Continuous
 62
     7
370
    30
100
AcDbLine
 10
571.9291490707
 20
280.225039039
 30
0.0
 11
571.9291490707
 21
336.9060328459
 31
0.0
  0
ARC
  5
DC
330
1F
100
AcDbEntity
  8
0
  6
Continuous
 62
     7
370
    30
100
AcDbCircle
 10
558.9291490707
 20
280.225039039
 30
0.0
 40
1.0
100
AcDbArc
 50
180.0
 51
270.0
  0
ARC
  5
DD
330
1F
100
AcDbEntity
  8
0
  6
Continuous
 62
     7
370
    30
100
AcDbCircle
 10
570.9291490707
 20
280.225039039
 30
0.0
 40
1.0
100
AcDbArc
 50
270.0
 51
0.0
  0
LINE
  5
DE
330
1F
100
AcDbEntity
  8
0
  6
Continuous
 62
     7
370
    30
100
AcDbLine
 10
471.068262988
 20
328.7747344293
 30
0.0
 11
471.068262988
 21
399.7753436483
 31
0.0
  0
LINE
  5
DF
330
1F
100
AcDbEntity
  8
0
  6
Continuous
 62
     7
370
    30
100
AcDbLine
 10
471.068262988
 20
401.7750390386
 30
0.0
 11
471.068262988
 21
399.7753436483
 31
0.0
  0
LINE
  5
E0
330
1F
100
AcDbEntity
  8
0
  6
Continuous
 62
     7
370
    30
100
AcDbLine
 10
481.686941959
 20
401.5896893077
 30
0.0
 11
471.068262988
 21
401.7750390386
 31
0.0
  0
LINE
  5
E1
330
1F
100
AcDbEntity
  8
0
  6
Continuous
 62
     7
370
    30
100
AcDbLine
 10
471.068262988
 20
326.775039039
 30
0.0
 11
481.6869366106
 21
326.9603886766
 31
0.0
  0
LINE
  5
E2
330
1F
100
AcDbEntity
  8
0
  6
Continuous
 62
     7
370
    30
100
AcDbLine
 10
471.068262988
 20
326.775039039
 30
0.0
 11
471.068262988
 21
328.7747344293
 31
0.0
  0
SPLINE
  5
E3
330
1F
100
AcDbEntity
  8
0
  6
Continuous
 62
     7
370
    30
100
AcDbSpline
210
0.0
220
0.0
230
1.0
 70
     8
 71
     3
 72
    16
 73
    12
 74
     0
 42
0.000000001
 43
0.00000001
 40
0.0
 40
0.0
 40
0.0
 40
0.0
 40
0.1190862068681091
 40
0.2381724137362177
 40
0.3572586206043269
 40
0.4763448274724362
 40
0.5954310343405455
 40
0.7145172412086545
 40
0.8336034480767633
 40
0.952689654944872
 40
0.9999999999999999
 40
0.9999999999999999
 40
0.9999999999999999
 40
0.9999999999999999
 10
482.8603978120339
 20
364.2750390390207
 30
0.0
 10
482.8632517613114
 20
365.1324226796701
 30
0.0
 10
482.8689596598666
 20
366.8471899609689
 30
0.0
 10
482.8775215076994
 20
369.3205346616951
 30
0.0
 10
482.8860833555321
 20
371.5998234102701
 30
0.0
 10
482.8946452033649
 20
373.5982262466889
 30
0.0
 10
482.9032070511976
 20
375.2360988383609
 30
0.0
 10
482.9117688990304
 20
376.4611241609714
 30
0.0
 10
482.9203307468632
 20
377.1865700072644
 30
0.0
 10
482.927172457038
 20
377.4630425609965
 30
0.0
 10
482.9311602179353
 20
377.3166591814775
 30
0.0
 10
482.932294029555
 20
377.2750390390206
 30
0.0
  0
SPLINE
  5
E4
330
1F
100
AcDbEntity
  8
0
  6
Continuous
 62
     7
370
    30
100
AcDbSpline
210
0.0
220
0.0
230
1.0
 70
     8
 71
     3
 72
    16
 73
    12
 74
     0
 42
0.000000001
 43
0.00000001
 40
0.0
 40
0.0
 40
0.0
 40
0.0
 40
0.1190862068681116
 40
0.2381724137362232
 40
0.3572586206043344
 40
0.4763448274724466
 40
0.5954310343405583
 40
0.7145172412086702
 40
0.8336034480767812
 40
0.9526896549448931
 40
1.0
 40
1.0
 40
1.0
 40
1.0
 10
482.8603978120339
 20
364.2750390390207
 30
0.0
 10
482.8632517613114
 20
363.4176553983712
 30
0.0
 10
482.8689596598666
 20
361.7028881170723
 30
0.0
 10
482.8775215076994
 20
359.2295434163461
 30
0.0
 10
482.8860833555321
 20
356.9502546677711
 30
0.0
 10
482.8946452033649
 20
354.9518518313524
 30
0.0
 10
482.9032070511976
 20
353.3139792396804
 30
0.0
 10
482.9117688990304
 20
352.0889539170698
 30
0.0
 10
482.9203307468632
 20
351.3635080707768
 30
0.0
 10
482.927172457038
 20
351.0870355170447
 30
0.0
 10
482.9311602179353
 20
351.2334188965636
 30
0.0
 10
482.932294029555
 20
351.2750390390206
 30
0.0
  0
SPLINE
  5
E5
330
1F
100
AcDbEntity
  8
0
  6
Continuous
 62
     7
370
    30
100
AcDbSpline
210
0.0
220
0.0
230
1.0
 70
     8
 71
     3
 72
    14
 73
    10
 74
     0
 42
0.000000001
 43
0.00000001
 40
0.0
 40
0.0
 40
0.0
 40
0.0
 40
0.1627634668600842
 40
0.3255268196892195
 40
0.4882901323043435
 40
0.6510534558434957
 40
0.813816821879517
 40
0.9765802454842621
 40
1.0
 40
1.0
 40
1.0
 40
1.0
 10
482.6931438881222
 20
400.6101051641206
 30
0.0
 10
482.718344159889
 20
399.3441904807472
 30
0.0
 10
482.7687446857674
 20
396.8123620008915
 30
0.0
 10
482.8342837803632
 20
393.0144300762626
 30
0.0
 10
482.8923063967273
 20
389.2163794736356
 30
0.0
 10
482.9422873969758
 20
385.4182122103477
 30
0.0
 10
482.9834266530707
 20
381.6199415912065
 30
0.0
 10
483.0089518100864
 20
378.9055408580249
 30
0.0
 10
483.0185238221122
 20
377.4572213771123
 30
0.0
 10
483.0197278738108
 20
377.2750390390206
 30
0.0
  0
SPLINE
  5
E6
330
1F
100
AcDbEntity
  8
0
  6
Continuous
 62
     7
370
    30
100
AcDbSpline
210
0.0
220
0.0
230
1.0
 70
     8
 71
     3
 72
    14
 73
    10
 74
     0
 42
0.000000001
 43
0.00000001
 40
0.0
 40
0.0
 40
0.0
 40
0.0
 40
0.0901858498211242
 40
0.2436485067059762
 40
0.3971111154871427
 40
0.5478332908147362
 40
0.6985554647067111
 40
0.8492776808626639
 40
1.0
 40
1.0
 40
1.0
 40
1.0
 10
483.0193155666616
 20
351.2750390390206
 30
0.0
 10
483.0142015983893
 20
350.573486336838
 30
0.0
 10
483.0003855647723
 20
348.6781527717458
 30
0.0
 10
482.96973640329
 20
345.5891054004062
 30
0.0
 10
482.928409412047
 20
342.0292261592953
 30
0.0
 10
482.8799660889918
 20
338.4907557167747
 30
0.0
 10
482.8248448463818
 20
334.9737048741238
 30
0.0
 10
482.7633089106428
 20
331.4567575072946
 30
0.0
 10
482.7165322850892
 20
329.1122347057621
 30
0.0
 10
482.6931439643222
 20
327.9399729045205
 30
0.0
  0
SPLINE
  5
E7
330
1F
100
AcDbEntity
  8
0
  6
Continuous
 62
     7
370
    30
100
AcDbSpline
210
0.0
220
0.0
230
1.0
 70
     8
 71
     3
 72
    26
 73
    22
 74
     0
 42
0.000000001
 43
0.00000001
 40
0.0
 40
0.0
 40
0.0
 40
0.0
 40
0.0522586350515437
 40
0.1045241995250903
 40
0.1567918084625117
 40
0.209059476713326
 40
0.2613268642103398
 40
0.3135943487265659
 40
0.3628771045388944
 40
0.4121605808501849
 40
0.4614447065953463
 40
0.5107291693293046
 40
0.5600135350496791
 40
0.6150146002418703
 40
0.6700147689518878
 40
0.7250141807863825
 40
0.7800133361861008
 40
0.8350127472290317
 40
0.8900122284015506
 40
0.9450097750505347
 40
0.9999999999999999
 40
0.9999999999999999
 40
0.9999999999999999
 40
0.9999999999999999
 10
481.7103975507222
 20
401.5892798765205
 30
0.0
 10
481.7370815773409
 20
401.5881979894044
 30
0.0
 10
481.7904531688429
 20
401.5860340717154
 30
0.0
 10
481.8698599665653
 20
401.5746888261255
 30
0.0
 10
481.9481454057033
 20
401.5574804865274
 30
0.0
 10
482.0247919978599
 20
401.5339336731099
 30
0.0
 10
482.0993082381999
 20
401.5043554461327
 30
0.0
 10
482.1698474705514
 20
401.4695697494969
 30
0.0
 10
482.2361467063404
 20
401.4301904311456
 30
0.0
 10
482.2980375938103
 20
401.3867953883923
 30
0.0
 10
482.3564794776198
 20
401.3388557547971
 30
0.0
 10
482.4111407579561
 20
401.2866449872793
 30
0.0
 10
482.4636638634788
 20
401.2282906306182
 30
0.0
 10
482.513153318607
 20
401.1635932480424
 30
0.0
 10
482.5585928457289
 20
401.0924988625986
 30
0.0
 10
482.5978860811472
 20
401.0178304741914
 30
0.0
 10
482.6307379196607
 20
400.9401171161381
 30
0.0
 10
482.6569591208981
 20
400.8599112867871
 30
0.0
 10
482.6761903799514
 20
400.7777813008519
 30
0.0
 10
482.6889432053919
 20
400.6943295231779
 30
0.0
 10
482.6914688131206
 20
400.6381755581816
 30
0.0
 10
482.6927315329222
 20
400.6101004447206
 30
0.0
  0
SPLINE
  5
E8
330
1F
100
AcDbEntity
  8
0
  6
Continuous
 62
     7
370
    30
100
AcDbSpline
210
0.0
220
0.0
230
1.0
 70
     8
 71
     3
 72
    10
 73
     6
 74
     0
 42
0.000000001
 43
0.00000001
 40
0.0
 40
0.0
 40
0.0
 40
0.0
 40
0.4122365475946843
 40
0.8244730869504722
 40
0.9999999999999999
 40
0.9999999999999999
 40
0.9999999999999999
 40
0.9999999999999999
 10
481.7103975507222
 20
401.5892798765205
 30
0.0
 10
481.7100264932942
 20
401.5892863545017
 30
0.0
 10
481.7092843784454
 20
401.589299310464
 30
0.0
 10
481.7050040434884
 20
401.5893740267748
 30
0.0
 10
481.700628808772
 20
401.5894503984171
 30
0.0
 10
481.699322209254
 20
401.5894732056851
 30
0.0
  0
SPLINE
  5
E9
330
1F
100
AcDbEntity
  8
0
  6
Continuous
 62
     7
370
    30
100
AcDbSpline
210
0.0
220
0.0
230
1.0
 70
     8
 71
     3
 72
    26
 73
    22
 74
     0
 42
0.000000001
 43
0.00000001
 40
0.0
 40
0.0
 40
0.0
 40
0.0
 40
0.0522586350663402
 40
0.1045241995516311
 40
0.1567918084973514
 40
0.2090594767529746
 40
0.261326864251502
 40
0.313594348766322
 40
0.3628771045750991
 40
0.4121605808811384
 40
0.4614447066198294
 40
0.5107291693465686
 40
0.5600135350594206
 40
0.6150146002433817
 40
0.6700147689459087
 40
0.7250141807742295
 40
0.7800133361696578
 40
0.835012747210847
 40
0.8900122283849095
 40
0.9450097750395957
 40
1.0
 40
1.0
 40
1.0
 40
1.0
 10
481.7103976268222
 20
326.9607981901206
 30
0.0
 10
481.7370816534836
 20
326.9618800772459
 30
0.0
 10
481.7904532450695
 20
326.9640439949532
 30
0.0
 10
481.8698600429123
 20
326.9753892405798
 30
0.0
 10
481.9481454821624
 20
326.9925975802238
 30
0.0
 10
482.0247920744212
 20
327.0161443936979
 30
0.0
 10
482.0993083148517
 20
327.0457226207429
 30
0.0
 10
482.1698475472795
 20
327.0805083174568
 30
0.0
 10
482.2361467831302
 20
327.1198876358953
 30
0.0
 10
482.2980376706469
 20
327.1632826787437
 30
0.0
 10
482.3564795544888
 20
327.2112223124429
 30
0.0
 10
482.4111408348422
 20
327.263433080073
 30
0.0
 10
482.4636639403661
 20
327.321787436858
 30
0.0
 10
482.5131533954765
 20
327.386484819569
 30
0.0
 10
482.5585929225584
 20
327.4575792051587
 30
0.0
 10
482.5978861579144
 20
327.5322475937153
 30
0.0
 10
482.6307379963429
 20
327.6099609519201
 30
0.0
 10
482.6569591974718
 20
327.6901667814225
 30
0.0
 10
482.6761904563924
 20
327.7722967675071
 30
0.0
 10
482.6889432816778
 20
327.8557485453284
 30
0.0
 10
482.6914688892825
 20
327.9119025104137
 30
0.0
 10
482.6927316090222
 20
327.9399776239206
 30
0.0
  0
SPLINE
  5
EA
330
1F
100
AcDbEntity
  8
0
  6
Continuous
 62
     7
370
    30
100
AcDbSpline
210
0.0
220
0.0
230
1.0
 70
    24
 71
     3
 72
    11
 73
     7
 74
     0
 42
0.000000001
 43
0.00000001
 40
0.0
 40
0.0
 40
0.0
 40
0.0
 40
0.2800000018160416
 40
0.5599999986602363
 40
0.7799999971578981
 40
1.0
 40
1.0
 40
1.0
 40
1.0
 10
481.6869366106222
 20
326.9603886765206
 30
0.0
 10
481.6909770977211
 20
326.9604592034975
 30
0.0
 10
481.6990580718471
 20
326.9606002574502
 30
0.0
 10
481.7058944759716
 20
326.9607195873417
 30
0.0
 10
481.7097768496079
 20
326.9607873544267
 30
0.0
 10
481.7101907010828
 20
326.9607945782226
 30
0.0
 10
481.7103976268222
 20
326.9607981901206
 30
0.0
  0
LINE
  5
EB
330
1F
100
AcDbEntity
  8
0
  6
Continuous
 62
     7
370
    30
100
AcDbLine
 10
72.4129245069
 20
339.8274517021
 30
0.0
 11
72.4129245069
 21
337.339006085
 31
0.0
  0
LINE
  5
EC
330
1F
100
AcDbEntity
  8
0
  6
Continuous
 62
     7
370
    30
100
AcDbLine
 10
93.3679245069
 20
337.339006085
 30
0.0
 11
93.3679245069
 21
339.7360176857
 31
0.0
  0
LINE
  5
ED
330
1F
100
AcDbEntity
  8
0
  6
Continuous
 62
     7
370
    30
100
AcDbLine
 10
72.41292451
 20
337.339006085
 30
0.0
 11
73.5749245069
 21
336.6551346911
 31
0.0
  0
LINE
  5
EE
330
1F
100
AcDbEntity
  8
0
  6
Continuous
 62
     7
370
    30
100
AcDbLine
 10
92.2059245069
 20
336.6551346911
 30
0.0
 11
93.3679245038
 21
337.339006085
 31
0.0
  0
LINE
  5
EF
330
1F
100
AcDbEntity
  8
0
  6
Continuous
 62
     7
370
    30
100
AcDbLine
 10
42.3754090419
 20
340.0869527388
 30
0.0
 11
42.4080129327
 21
339.9608843995
 31
0.0
  0
LINE
  5
F0
330
1F
100
AcDbEntity
  8
0
  6
Continuous
 62
     7
370
    30
100
AcDbLine
 10
43.4743285778
 20
339.9058888527
 30
0.0
 11
49.6965436872
 21
339.9047765076
 31
0.0
  0
SPLINE
  5
F1
330
1F
100
AcDbEntity
  8
0
  6
Continuous
 62
     7
370
    30
100
AcDbSpline
210
0.0
220
0.0
230
1.0
 70
     8
 71
     3
 72
    21
 73
    17
 74
     0
 42
0.000000001
 43
0.00000001
 40
0.0
 40
0.0
 40
0.0
 40
0.0
 40
0.0765802287672058
 40
0.1488318355100432
 40
0.2156671692858689
 40
0.2762004369727032
 40
0.3459555960144913
 40
0.4022650335268422
 40
0.4497331219300403
 40
0.5095319869539523
 40
0.5837559643869279
 40
0.6717112546160725
 40
0.7459132388972309
 40
0.8261831150365238
 40
0.9113485155847009
 40
1.0
 40
1.0
 40
1.0
 40
1.0
 10
42.4083784368875
 20
339.9595706966571
 30
0.0
 10
42.4106214978007
 20
339.9519733229614
 30
0.0
 10
42.41498083281766
 20
339.9372080096372
 30
0.0
 10
42.42438831241365
 20
339.9169247017774
 30
0.0
 10
42.4349041102234
 20
339.8991438918946
 30
0.0
 10
42.44700657871211
 20
339.8827145530506
 30
0.0
 10
42.45997391071007
 20
339.868383239642
 30
0.0
 10
42.47327072579593
 20
339.8563061132947
 30
0.0
 10
42.48667474944646
 20
339.8459688274027
 30
0.0
 10
42.50245223188743
 20
339.835772138028
 30
0.0
 10
42.52294663715737
 20
339.8253639818122
 30
0.0
 10
42.5460059098517
 20
339.817103124747
 30
0.0
 10
42.57049992110202
 20
339.8116535517468
 30
0.0
 10
42.59517414390405
 20
339.8092533703961
 30
0.0
 10
42.62151419489307
 20
339.8098275644696
 30
0.0
 10
42.63914621623529
 20
339.813272681878
 30
0.0
 10
42.64813904144648
 20
339.8150297883426
 30
0.0
  0
SPLINE
  5
F2
330
1F
100
AcDbEntity
  8
0
  6
Continuous
 62
     7
370
    30
100
AcDbSpline
210
0.0
220
0.0
230
1.0
 70
     8
 71
     3
 72
    17
 73
    13
 74
     0
 42
0.000000001
 43
0.00000001
 40
0.0
 40
0.0
 40
0.0
 40
0.0
 40
0.0804614381435319
 40
0.1862389413044647
 40
0.2918973521470791
 40
0.3974356598608008
 40
0.5028532580775649
 40
0.6081498456615251
 40
0.71332534261914
 40
0.8183798181673216
 40
0.9233134284270889
 40
1.0
 40
1.0
 40
1.0
 40
1.0
 10
42.64945208145213
 20
339.8149934714934
 30
0.0
 10
42.66995548464498
 20
339.8197981221554
 30
0.0
 10
42.71741339978892
 20
339.8309191395429
 30
0.0
 10
42.79235454460395
 20
339.8460121104716
 30
0.0
 10
42.87408265518603
 20
339.8606471907874
 30
0.0
 10
42.95609013978616
 20
339.873198570868
 30
0.0
 10
43.03830191596263
 20
339.8837469071398
 30
0.0
 10
43.1206695545547
 20
339.8922628417579
 30
0.0
 10
43.20313800931473
 20
339.8987764105088
 30
0.0
 10
43.28565472456354
 20
339.9031998751429
 30
0.0
 10
43.36079410831501
 20
339.9056278245212
 30
0.0
 10
43.40841783453313
 20
339.9056785348421
 30
0.0
 10
43.42852628422381
 20
339.9056999465631
 30
0.0
  0
ARC
  5
F3
330
1F
100
AcDbEntity
  8
0
  6
Continuous
 62
     7
370
    30
100
AcDbCircle
 10
50.3010853842
 20
340.1765561389
 30
0.0
 40
0.1999999999999881
100
AcDbArc
 50
270.6095117827
 51
338.8280290385
  0
ARC
  5
F4
330
1F
100
AcDbEntity
  8
0
  6
Continuous
 62
     7
370
    30
100
AcDbCircle
 10
50.3010853842
 20
340.1765561389
 30
0.0
 40
0.1999999999999631
100
AcDbArc
 50
270.29640395
 51
270.6095117827
  0
SPLINE
  5
F5
330
1F
100
AcDbEntity
  8
0
  6
Continuous
 62
     7
370
    30
100
AcDbSpline
210
0.0
220
0.0
230
1.0
 70
     8
 71
     3
 72
    26
 73
    22
 74
     0
 42
0.000000001
 43
0.00000001
 40
0.0
 40
0.0
 40
0.0
 40
0.0
 40
0.0120776733510816
 40
0.0513305192431463
 40
0.0880650438064017
 40
0.1337921724097084
 40
0.1825975079790953
 40
0.2362912563956704
 40
0.2929566827448055
 40
0.3445122173575949
 40
0.3900571964508619
 40
0.4320512893604689
 40
0.4791947394963874
 40
0.5322167208534296
 40
0.5910952331186023
 40
0.6568249397193392
 40
0.7301448473530256
 40
0.7903192061618031
 40
0.85515229856033
 40
0.9249203873058554
 40
1.0
 40
1.0
 40
1.0
 40
1.0
 10
49.78520992929867
 20
339.9509047825281
 30
0.0
 10
49.78522045421197
 20
339.9508973410693
 30
0.0
 10
49.78526518544862
 20
339.9508657146179
 30
0.0
 10
49.78807196714593
 20
339.951366261037
 30
0.0
 10
49.79362241461257
 20
339.9522313300387
 30
0.0
 10
49.80324316436558
 20
339.9535935975409
 30
0.0
 10
49.81725270639833
 20
339.9553150892765
 30
0.0
 10
49.83548642587652
 20
339.9572808131176
 30
0.0
 10
49.85708435754317
 20
339.9593198679197
 30
0.0
 10
49.87976222611911
 20
339.9612175290007
 30
0.0
 10
49.90203958563487
 20
339.9628984925321
 30
0.0
 10
49.92517743735078
 20
339.9644907357475
 30
0.0
 10
49.95159791904743
 20
339.9661499179994
 30
0.0
 10
49.98301535795217
 20
339.9679334149533
 30
0.0
 10
50.02024445105202
 20
339.9698426932968
 30
0.0
 10
50.0631455947003
 20
339.9717533730815
 30
0.0
 10
50.10770944386398
 20
339.973373171107
 30
0.0
 10
50.15330605860463
 20
339.9746916080184
 30
0.0
 10
50.19906844197382
 20
339.9756995557317
 30
0.0
 10
50.24921241339227
 20
339.9764796645339
 30
0.0
 10
50.28436165900852
 20
339.9766996924781
 30
0.0
 10
50.3025807382285
 20
339.9768137406313
 30
0.0
  0
SPLINE
  5
F6
330
1F
100
AcDbEntity
  8
0
  6
Continuous
 62
     7
370
    30
100
AcDbSpline
210
0.0
220
0.0
230
1.0
 70
     8
 71
     3
 72
    15
 73
    11
 74
     0
 42
0.000000001
 43
0.00000001
 40
0.0
 40
0.0
 40
0.0
 40
0.0
 40
0.1750062457471615
 40
0.3338151982762383
 40
0.4761443684529166
 40
0.6017520028803028
 40
0.7104500575342461
 40
0.8021072503273385
 40
0.876645754310084
 40
1.0
 40
1.0
 40
1.0
 40
1.0
 10
49.6965704826023
 20
339.9047807392847
 30
0.0
 10
49.7052672840368
 20
339.9050651173314
 30
0.0
 10
49.72185597481653
 20
339.9056075534807
 30
0.0
 10
49.74615624930179
 20
339.9100946412877
 30
0.0
 10
49.76775019888313
 20
339.9164467271312
 30
0.0
 10
49.78634372201009
 20
339.9240381220434
 30
0.0
 10
49.80178873812862
 20
339.9319669826535
 30
0.0
 10
49.81409035429429
 20
339.9395030462634
 30
0.0
 10
49.82624688709857
 20
339.9478989312299
 30
0.0
 10
49.83318108146646
 20
339.9537679837462
 30
0.0
 10
49.83750343444366
 20
339.9574263923906
 30
0.0
  0
SPLINE
  5
F7
330
1F
100
AcDbEntity
  8
0
  6
Continuous
 62
     7
370
    30
100
AcDbSpline
210
0.0
220
0.0
230
1.0
 70
     8
 71
     3
 72
    19
 73
    15
 74
     0
 42
0.000000001
 43
0.00000001
 40
0.0
 40
0.0
 40
0.0
 40
0.0
 40
0.0128563177859025
 40
0.0996669685822935
 40
0.1857798838774927
 40
0.2706650431583014
 40
0.3542870828627008
 40
0.4366127642369813
 40
0.5238336149782479
 40
0.623136685427558
 40
0.7058474083127987
 40
0.7959346240296755
 40
0.8938023622400932
 40
1.0
 40
1.0
 40
1.0
 40
1.0
 10
49.79777879139652
 20
339.93017024942
 30
0.0
 10
49.79895331715165
 20
339.9302467429436
 30
0.0
 10
49.80805867869326
 20
339.9308397492562
 30
0.0
 10
49.82786926727203
 20
339.9319337842435
 30
0.0
 10
49.85742679725844
 20
339.9334408367349
 30
0.0
 10
49.88964924373592
 20
339.9348949970722
 30
0.0
 10
49.92372359782124
 20
339.9362821380116
 30
0.0
 10
49.96045660633904
 20
339.9376641272405
 30
0.0
 10
50.00094951960197
 20
339.9390247388704
 30
0.0
 10
50.04247256689103
 20
339.9401267286566
 30
0.0
 10
50.08561413581693
 20
339.9410178412284
 30
0.0
 10
50.12951564419608
 20
339.9416845661824
 30
0.0
 10
50.17819654030483
 20
339.9421813338913
 30
0.0
 10
50.21264437536765
 20
339.9422946124255
 30
0.0
 10
50.23057136906867
 20
339.9423535636939
 30
0.0
  0
ARC
  5
F8
330
1F
100
AcDbEntity
  8
0
  6
Continuous
 62
     7
370
    30
100
AcDbCircle
 10
50.2287059924
 20
340.1419658741
 30
0.0
 40
0.2000000000000199
100
AcDbArc
 50
270.6095117827
 51
307.1123708762
  0
ARC
  5
F9
330
1F
100
AcDbEntity
  8
0
  6
Continuous
 62
     7
370
    30
100
AcDbCircle
 10
28.0708509293
 20
387.525039039
 30
0.0
 40
1.000000000000004
100
AcDbArc
 50
90.0
 51
180.0
  0
LINE
  5
FA
330
1F
100
AcDbEntity
  8
0
  6
Continuous
 62
     7
370
    30
100
AcDbLine
 10
55.8708509293
 20
388.525039039
 30
0.0
 11
28.0708509293
 21
388.525039039
 31
0.0
  0
LINE
  5
FB
330
1F
100
AcDbEntity
  8
0
  6
Continuous
 62
     7
370
    30
100
AcDbLine
 10
50.9957036656
 20
340.025039039
 30
0.0
 11
55.8708509293
 21
340.025039039
 31
0.0
  0
ARC
  5
FC
330
1F
100
AcDbEntity
  8
0
  6
Continuous
 62
     7
370
    30
100
AcDbCircle
 10
55.8708509293
 20
388.025039039
 30
0.0
 40
0.5000000000000042
100
AcDbArc
 50
14.3762133731
 51
90.0
  0
ARC
  5
FD
330
1F
100
AcDbEntity
  8
0
  6
Continuous
 62
     7
370
    30
100
AcDbCircle
 10
55.8708509293
 20
340.525039039
 30
0.0
 40
0.5000000000000568
100
AcDbArc
 50
270.0
 51
345.6237866269
  0
ARC
  5
FE
330
1F
100
AcDbEntity
  8
0
  6
Continuous
 62
     7
370
    30
100
AcDbCircle
 10
56.161456826
 20
388.0995253651
 30
0.0
 40
0.2000000000004422
100
AcDbArc
 50
0.0
 51
14.3762133726
  0
ARC
  5
FF
330
1F
100
AcDbEntity
  8
0
  6
Continuous
 62
     7
370
    30
100
AcDbCircle
 10
56.161456826
 20
340.4505527129
 30
0.0
 40
0.2000000000004422
100
AcDbArc
 50
345.6237866274
 51
0.0
  0
LINE
  5
100
330
1F
100
AcDbEntity
  8
0
  6
Continuous
 62
     7
370
    30
100
AcDbLine
 10
56.361456826
 20
340.4505527129
 30
0.0
 11
56.361456826
 21
388.0995253651
 31
0.0
  0
ARC
  5
101
330
1F
100
AcDbEntity
  8
0
  6
Continuous
 62
     7
370
    30
100
AcDbCircle
 10
42.0708509293
 20
339.025039039
 30
0.0
 40
1.00000000000001
100
AcDbArc
 50
92.8913274874
 51
180.0
  0
SPLINE
  5
102
330
1F
100
AcDbEntity
  8
0
  6
Continuous
 62
     7
370
    30
100
AcDbSpline
210
0.0
220
0.0
230
1.0
 70
     8
 71
     3
 72
   112
 73
   108
 74
     0
 42
0.000000001
 43
0.00000001
 40
0.0
 40
0.0
 40
0.0
 40
0.0
 40
0.0130113132267207
 40
0.0257038733049429
 40
0.0380796600064955
 40
0.0501396101653478
 40
0.0618838965788914
 40
0.0731108757020524
 40
0.0840323428945879
 40
0.0946474382416919
 40
0.1049552194243273
 40
0.1162942621278786
 40
0.1272339706455984
 40
0.1377732296985095
 40
0.1479111448653417
 40
0.1576470646504986
 40
0.1669805835482482
 40
0.1759115309145678
 40
0.1844399497407516
 40
0.1935141271109546
 40
0.2020842199275421
 40
0.210150959394881
 40
0.2177152037523688
 40
0.224796754782024
 40
0.2317601776310971
 40
0.2387452098346238
 40
0.2457519036660317
 40
0.2568077552343291
 40
0.2679271455227216
 40
0.2791127412856187
 40
0.2903660605264103
 40
0.3032373441039812
 40
0.3161985653333251
 40
0.3292501890811928
 40
0.3423921466749015
 40
0.3555888619274185
 40
0.3687896848191404
 40
0.381992840670522
 40
0.3951967286733362
 40
0.4099836293581802
 40
0.4247669610670134
 40
0.4395445273405457
 40
0.4543144629443088
 40
0.4659134983054043
 40
0.4775535401511383
 40
0.4893311671762395
 40
0.5012495195332229
 40
0.5135363641853944
 40
0.5259805191443958
 40
0.5385820409289275
 40
0.551340685088365
 40
0.5642559493824537
 40
0.5770923762909944
 40
0.5900783988724522
 40
0.6032094999742215
 40
0.6162656331403891
 40
0.6293490268114273
 40
0.6422198970987882
 40
0.6548780427374948
 40
0.6673236113573652
 40
0.6795570984707584
 40
0.6848730520402658
 40
0.690148190312977
 40
0.6953826152956234
 40
0.7005764398634406
 40
0.7056019865207461
 40
0.7099801056785091
 40
0.7137762844567114
 40
0.7169903088442725
 40
0.7196219566309519
 40
0.7215052243262041
 40
0.7229089716642614
 40
0.7240321625184591
 40
0.7255980143207278
 40
0.7277673909988688
 40
0.730248507888258
 40
0.7329681032814852
 40
0.7369843015826185
 40
0.7414291190617546
 40
0.7463032424507952
 40
0.7516075594917895
 40
0.7574646187954285
 40
0.7637713680319949
 40
0.770528403367004
 40
0.7777382097363515
 40
0.785408700277284
 40
0.7935407748784185
 40
0.8021343596348948
 40
0.8101789624388279
 40
0.8185891285114343
 40
0.827364167854057
 40
0.8365031630656323
 40
0.8460049722130178
 40
0.8556889667397075
 40
0.8657201912886697
 40
0.8760970941356073
 40
0.8868180896917404
 40
0.8980859630293255
 40
0.9097076157526487
 40
0.9216821106798633
 40
0.9340092003610074
 40
0.9466896507647083
 40
0.9569024090776345
 40
0.9673365049851197
 40
0.977994688948364
 40
0.988880802054407
 40
1.0
 40
1.0
 40
1.0
 40
1.0
 10
42.10639130731413
 20
340.0393966828378
 30
0.0
 10
42.11643212453168
 20
340.0412156043298
 30
0.0
 10
42.13626777748541
 20
340.0448088870959
 30
0.0
 10
42.17390264770011
 20
340.0516212107173
 30
0.0
 10
42.21615266079083
 20
340.0592019056081
 30
0.0
 10
42.26304068081079
 20
340.0675170866017
 30
0.0
 10
42.31358296603288
 20
340.0763550517323
 30
0.0
 10
42.36722511585985
 20
340.0855911841011
 30
0.0
 10
42.42340809751975
 20
340.0951072257445
 30
0.0
 10
42.48203315159672
 20
340.1048669279122
 30
0.0
 10
42.54531163788549
 20
340.1152141048024
 30
0.0
 10
42.6132197024119
 20
340.1261025666255
 30
0.0
 10
42.68567133808298
 20
340.13747212202
 30
0.0
 10
42.75917776211038
 20
340.1487567823999
 30
0.0
 10
42.8332601206253
 20
340.1598794316135
 30
0.0
 10
42.90747025823185
 20
340.1707734715842
 30
0.0
 10
42.98138914722042
 20
340.1813819307781
 30
0.0
 10
43.0546257761758
 20
340.191656665778
 30
0.0
 10
43.12949035330109
 20
340.2019243704525
 30
0.0
 10
43.20562868923773
 20
340.2121208895359
 30
0.0
 10
43.28264436649854
 20
340.2221798529097
 30
0.0
 10
43.35707824942585
 20
340.231664610731
 30
0.0
 10
43.42861895627806
 20
340.2405627675914
 30
0.0
 10
43.49816791924331
 20
340.2490113248904
 30
0.0
 10
43.56720351923538
 20
340.2572023019304
 30
0.0
 10
43.63730766514247
 20
340.2653202341577
 30
0.0
 10
43.72265001879752
 20
340.2749546086011
 30
0.0
 10
43.82437962688716
 20
340.286055081015
 30
0.0
 10
43.94372241199154
 20
340.2983345662507
 30
0.0
 10
44.06666700108129
 20
340.3102727701878
 30
0.0
 10
44.19890027160719
 20
340.3223551142253
 30
0.0
 10
44.34081308353246
 20
340.3344720149847
 30
0.0
 10
44.49273325692209
 20
340.3464879193555
 30
0.0
 10
44.64861290035787
 20
340.3578458188462
 30
0.0
 10
44.80810012691979
 20
340.3684766643511
 30
0.0
 10
44.97062537720578
 20
340.3783015359701
 30
0.0
 10
45.13558874631092
 20
340.3872488084947
 30
0.0
 10
45.30250792864727
 20
340.3952604288624
 30
0.0
 10
45.47784712337474
 20
340.4025724060047
 30
0.0
 10
45.66153821743698
 20
340.408991750756
 30
0.0
 10
45.85340668620547
 20
340.4143003446524
 30
0.0
 10
46.04626526774766
 20
340.4181990848328
 30
0.0
 10
46.22592766837256
 20
340.420453851903
 30
0.0
 10
46.39214204518333
 20
340.4213649676753
 30
0.0
 10
46.54530254124158
 20
340.4212215907917
 30
0.0
 10
46.69970273394068
 20
340.4200513258678
 30
0.0
 10
46.85656293732077
 20
340.4177533078334
 30
0.0
 10
47.01574954623499
 20
340.4143029206877
 30
0.0
 10
47.1771064407012
 20
340.4097211428115
 30
0.0
 10
47.33948095384412
 20
340.4040398884444
 30
0.0
 10
47.50262932443739
 20
340.3972847172126
 30
0.0
 10
47.66530304016433
 20
340.3895295385202
 30
0.0
 10
47.82724506745119
 20
340.3808261013529
 30
0.0
 10
47.98818488884637
 20
340.3712280048662
 30
0.0
 10
48.14789340003268
 20
340.3607802138181
 30
0.0
 10
48.30564527792637
 20
340.3495723107881
 30
0.0
 10
48.45981920591317
 20
340.3377747649373
 30
0.0
 10
48.60973396969747
 20
340.3255078889799
 30
0.0
 10
48.75438645402761
 20
340.3129326215926
 30
0.0
 10
48.89373663274692
 20
340.300130899308
 30
0.0
 10
49.00327687261941
 20
340.2895445112138
 30
0.0
 10
49.08524602845522
 20
340.2813494213938
 30
0.0
 10
49.1414892935281
 20
340.2756129468809
 30
0.0
 10
49.1967028734875
 20
340.2698714363347
 30
0.0
 10
49.25044429866859
 20
340.264177050354
 30
0.0
 10
49.30064530930947
 20
340.2587610605684
 30
0.0
 10
49.34556125661991
 20
340.2538357970927
 30
0.0
 10
49.3839477510969
 20
340.2495675544419
 30
0.0
 10
49.41617803960229
 20
340.2459413939699
 30
0.0
 10
49.44183147847795
 20
340.2430270225869
 30
0.0
 10
49.4613670676414
 20
340.2407911142977
 30
0.0
 10
49.47586392906752
 20
340.2391229541346
 30
0.0
 10
49.48927358404675
 20
340.2375735327385
 30
0.0
 10
49.50513644247297
 20
340.2357326328099
 30
0.0
 10
49.52533556674193
 20
340.2333743080587
 30
0.0
 10
49.5491401277857
 20
340.2305742016376
 30
0.0
 10
49.57870700748487
 20
340.2270673148736
 30
0.0
 10
49.6142514556317
 20
340.2228062590419
 30
0.0
 10
49.65615600250538
 20
340.2177156318203
 30
0.0
 10
49.7015064263256
 20
340.2121268338851
 30
0.0
 10
49.75050828148571
 20
340.2059909265242
 30
0.0
 10
49.80293113296102
 20
340.1993479590522
 30
0.0
 10
49.85858253069444
 20
340.1922020519438
 30
0.0
 10
49.91689459510639
 20
340.1846115331094
 30
0.0
 10
49.97760980978799
 20
340.1765948938234
 30
0.0
 10
50.04045260717599
 20
340.1681743989323
 30
0.0
 10
50.10509816506521
 20
340.1593801470666
 30
0.0
 10
50.16858378161346
 20
340.1506085834735
 30
0.0
 10
50.23058649790138
 20
340.1419131990617
 30
0.0
 10
50.29082299836658
 20
340.1333436079412
 30
0.0
 10
50.35122412407197
 20
340.1246250447759
 30
0.0
 10
50.41143250165671
 20
340.1158060629206
 30
0.0
 10
50.47069093246242
 20
340.1069971721981
 30
0.0
 10
50.52863503523245
 20
340.0982561564065
 30
0.0
 10
50.58488838747919
 20
340.089645207457
 30
0.0
 10
50.63934198425476
 20
340.0811867853806
 30
0.0
 10
50.6918599267091
 20
340.0729086848964
 30
0.0
 10
50.74186728481409
 20
340.0649090085134
 30
0.0
 10
50.78873607246022
 20
340.0572992413784
 30
0.0
 10
50.83158755609841
 20
340.0502380560803
 30
0.0
 10
50.86978927393152
 20
340.0438497277119
 30
0.0
 10
50.90023293608165
 20
340.0386836175536
 30
0.0
 10
50.92375357447968
 20
340.0346416369277
 30
0.0
 10
50.94131300635065
 20
340.031589520378
 30
0.0
 10
50.95429655528
 20
340.0293076143005
 30
0.0
 10
50.96279187780584
 20
340.0277963328135
 30
0.0
 10
50.96390980535696
 20
340.0275955216413
 30
0.0
 10
50.96447468979326
 20
340.0274940525384
 30
0.0
  0
LINE
  5
103
330
1F
100
AcDbEntity
  8
0
  6
Continuous
 62
     7
370
    30
100
AcDbLine
 10
50.9644749796
 20
340.0274940067
 30
0.0
 11
50.9957153411
 21
340.0250390391
 31
0.0
  0
LINE
  5
104
330
1F
100
AcDbEntity
  8
0
  6
Continuous
 62
     7
370
    30
100
AcDbLine
 10
42.0194913069
 20
340.0250732815
 30
0.0
 11
42.039490023
 21
340.0271247224
 31
0.0
  0
SPLINE
  5
105
330
1F
100
AcDbEntity
  8
0
  6
Continuous
 62
     7
370
    30
100
AcDbSpline
210
0.0
220
0.0
230
1.0
 70
     8
 71
     3
 72
    11
 73
     7
 74
     0
 42
0.000000001
 43
0.00000001
 40
0.0
 40
0.0
 40
0.0
 40
0.0
 40
0.2502881955273643
 40
0.5002942640489338
 40
0.7501538316525972
 40
1.0
 40
1.0
 40
1.0
 40
1.0
 10
42.03951726469505
 20
340.0271288885156
 30
0.0
 10
42.04140504406627
 20
340.0274520105613
 30
0.0
 10
42.04517847488761
 20
340.0280978904267
 30
0.0
 10
42.05910842503598
 20
340.0307049730977
 30
0.0
 10
42.07855682454417
 20
340.034330664569
 30
0.0
 10
42.09711331244286
 20
340.0377080403036
 30
0.0
 10
42.10639130760266
 20
340.03939668289
 30
0.0
  0
LINE
  5
106
330
1F
100
AcDbEntity
  8
0
  6
Continuous
 62
     7
370
    30
100
AcDbLine
 10
116.1707706043
 20
388.9135572094
 30
0.0
 11
58.4506989032
 21
388.6617042875
 31
0.0
  0
LINE
  5
107
330
1F
100
AcDbEntity
  8
0
  6
Continuous
 62
     7
370
    30
100
AcDbLine
 10
58.4506989032
 20
339.8883737906
 30
0.0
 11
116.1902979492
 21
339.636435664
 31
0.0
  0
ARC
  5
108
330
1F
100
AcDbEntity
  8
0
  6
Continuous
 62
     7
370
    30
100
AcDbCircle
 10
58.4550622125
 20
387.6617138064
 30
0.0
 40
0.9999999999999889
100
AcDbArc
 50
90.25
 51
121.4024765725
  0
ARC
  5
109
330
1F
100
AcDbEntity
  8
0
  6
Continuous
 62
     7
370
    30
100
AcDbCircle
 10
58.4550622125
 20
340.8883642716
 30
0.0
 40
0.9999999999999986
100
AcDbArc
 50
238.5975234275
 51
269.75
  0
ARC
  5
10A
330
1F
100
AcDbEntity
  8
0
  6
Continuous
 62
     7
370
    30
100
AcDbCircle
 10
72.731737012
 20
364.275039039
 30
0.0
 40
28.40000000000004
100
AcDbArc
 50
234.800981616
 51
238.5975234275
  0
ARC
  5
10B
330
1F
100
AcDbEntity
  8
0
  6
Continuous
 62
     7
370
    30
100
AcDbCircle
 10
72.731737012
 20
364.275039039
 30
0.0
 40
28.40000000000005
100
AcDbArc
 50
121.4024765725
 51
125.199018384
  0
LINE
  5
10C
330
1F
100
AcDbEntity
  8
0
  6
Continuous
 62
     7
370
    30
100
AcDbLine
 10
72.4129245069
 20
337.339006085
 30
0.0
 11
93.3679245069
 21
337.339006085
 31
0.0
  0
LINE
  5
10D
330
1F
100
AcDbEntity
  8
0
  6
Continuous
 62
     7
370
    30
100
AcDbLine
 10
73.5749245069
 20
336.6551346911
 30
0.0
 11
92.2059245069
 21
336.6551346911
 31
0.0
  0
SPLINE
  5
10E
330
1F
100
AcDbEntity
  8
0
  6
Continuous
 62
     7
370
    30
100
AcDbSpline
210
0.0
220
0.0
230
1.0
 70
     8
 71
     3
 72
     9
 73
     5
 74
     0
 42
0.000000001
 43
0.00000001
 40
0.0
 40
0.0
 40
0.0
 40
0.0
 40
0.5032343118540309
 40
1.0
 40
1.0
 40
1.0
 40
1.0
 10
43.34175002526929
 20
340.2205853671842
 30
0.0
 10
43.45733996027449
 20
340.2364611908122
 30
0.0
 10
43.68703402580694
 20
340.2680087686583
 30
0.0
 10
43.96158606048599
 20
340.2980773624139
 30
0.0
 10
44.09797409092521
 20
340.3130144080826
 30
0.0
  0
SPLINE
  5
10F
330
1F
100
AcDbEntity
  8
0
  6
Continuous
 62
     7
370
    30
100
AcDbSpline
210
0.0
220
0.0
230
1.0
 70
     8
 71
     3
 72
    18
 73
    14
 74
     0
 42
0.000000001
 43
0.00000001
 40
0.0
 40
0.0
 40
0.0
 40
0.0
 40
0.004072104510203
 40
0.0267065097861072
 40
0.0319756941985694
 40
0.0355372616751059
 40
0.0898689957282569
 40
0.1652943532828974
 40
0.2618125341046547
 40
0.3794197952195572
 40
0.5179195355230002
 40
0.775716490172833
 40
1.0
 40
1.0
 40
1.0
 40
1.0
 10
42.40816293766384
 20
339.9609232029276
 30
0.0
 10
42.40812680380109
 20
339.9608517014839
 30
0.0
 10
42.40788982330216
 20
339.9603827660725
 30
0.0
 10
42.40860515428036
 20
339.9601630257328
 30
0.0
 10
42.40926014935784
 20
339.9600026585301
 30
0.0
 10
42.41066575077972
 20
339.9603297148778
 30
0.0
 10
42.41552878408366
 20
339.9639397249033
 30
0.0
 10
42.43316647720101
 20
339.9732327061522
 30
0.0
 10
42.47143758845129
 20
339.9909150129644
 30
0.0
 10
42.54195441121652
 20
340.0192991892002
 30
0.0
 10
42.68621982124827
 20
340.0738150399088
 30
0.0
 10
42.93268321757628
 20
340.1509049283092
 30
0.0
 10
43.21186381543877
 20
340.1984605505661
 30
0.0
 10
43.34175002526928
 20
340.2205853671842
 30
0.0
  0
SPLINE
  5
110
330
1F
100
AcDbEntity
  8
0
  6
Continuous
 62
     7
370
    30
100
AcDbSpline
210
0.0
220
0.0
230
1.0
 70
     8
 71
     3
 72
     9
 73
     5
 74
     0
 42
0.000000001
 43
0.00000001
 40
0.0
 40
0.0
 40
0.0
 40
0.0
 40
0.5504001969511989
 40
1.0
 40
1.0
 40
1.0
 40
1.0
 10
50.22841826614263
 20
339.9422759805414
 30
0.0
 10
50.18932046243933
 20
339.9420497420061
 30
0.0
 10
50.11828523403666
 20
339.941638698303
 30
0.0
 10
50.05258601729395
 20
339.9402032800845
 30
0.0
 10
50.02304766238596
 20
339.9395579163361
 30
0.0
  0
LINE
  5
111
330
1F
100
AcDbEntity
  8
0
  6
Continuous
 62
     7
370
    30
100
AcDbLine
 10
43.4295592354
 20
339.9059401447
 30
0.0
 11
43.4274844972
 21
339.9059405198
 31
0.0
  0
ELLIPSE
  5
112
330
1F
100
AcDbEntity
  8
0
  6
Continuous
 62
     7
370
    30
100
AcDbEllipse
 10
43.4833406082
 20
364.1558876291
 30
0.0
 11
-6.217113437441
 21
24.2506580019093
 31
0.0
210
0.0
220
0.0
230
1.0
 40
0.0238461613
 41
3.135474807958312
 42
3.135538073462602
  0
LINE
  5
113
330
1F
100
AcDbEntity
  8
0
  6
Continuous
 62
     7
370
    30
100
AcDbLine
 10
42.6493468866
 20
339.8154602302
 30
0.0
 11
42.6493520071
 21
339.8154291128
 31
0.0
  0
LINE
  5
114
330
1F
100
AcDbEntity
  8
0
  6
Continuous
 62
     7
370
    30
100
AcDbLine
 10
50.3021180315
 20
339.9765588051
 30
0.0
 11
50.3013995656
 21
339.9771538983
 31
0.0
  0
SPLINE
  5
115
330
1F
100
AcDbEntity
  8
0
  6
Continuous
 62
     7
370
    30
100
AcDbSpline
210
0.0
220
0.0
230
1.0
 70
    24
 71
     3
 72
   197
 73
   193
 74
     0
 42
0.000000001
 43
0.00000001
 40
0.0
 40
0.0
 40
0.0
 40
0.0
 40
0.0061662123533529
 40
0.01232537064078
 40
0.0184794239887975
 40
0.024630326376954
 40
0.0307800347883129
 40
0.0369305073456512
 40
0.0410741059773142
 40
0.0452195363254921
 40
0.0493673949044637
 40
0.0535182771816404
 40
0.0576727773242673
 40
0.0619766160937106
 40
0.066338392971959
 40
0.0724389791909919
 40
0.0785344401627166
 40
0.0846266754777128
 40
0.0907175877445458
 40
0.0968090808114987
 40
0.1035126472456587
 40
0.110221749364818
 40
0.1119801501459387
 40
0.1137391490220461
 40
0.1154987911923
 40
0.1172591218063073
 40
0.1190201859607249
 40
0.120782028695881
 40
0.1274884844454728
 40
0.1341857772818744
 40
0.1408764115577264
 40
0.1475628991073529
 40
0.1542477564394746
 40
0.1609335019036506
 40
0.166188882138543
 40
0.1714475842784066
 40
0.1767108255195655
 40
0.1819798199125961
 40
0.1872964295403801
 40
0.1926576472012218
 40
0.1990836171991155
 40
0.2055035366223128
 40
0.2119196253969987
 40
0.2183341074264961
 40
0.2247492082851446
 40
0.231052512150889
 40
0.2373606642194789
 40
0.2436757647375377
 40
0.249999907028955
 40
0.2558515200656255
 40
0.2616957401150999
 40
0.2675342282945355
 40
0.2733686506168496
 40
0.279200676579395
 40
0.2850319777377535
 40
0.2908642262707053
 40
0.2972827725233168
 40
0.3037067087862021
 40
0.3101382508345353
 40
0.3165538348578128
 40
0.3228753676778922
 40
0.3291890839227485
 40
0.3354970835304224
 40
0.3418014721514463
 40
0.3481043590553979
 40
0.3544078550193648
 40
0.359032057592812
 40
0.3636585538681267
 40
0.3682881739442233
 40
0.370108000219027
 40
0.3719284866224423
 40
0.3737496832441781
 40
0.3755716401153663
 40
0.3773944072045374
 40
0.3792180344136201
 40
0.3856974159359453
 40
0.3921685666944532
 40
0.3986337464647721
 40
0.4050952212872457
 40
0.4115552611010622
 40
0.4180161373579216
 40
0.4223689862076153
 40
0.4267239371247442
 40
0.4310816819203974
 40
0.4354429110761056
 40
0.4398083134200222
 40
0.4440258191883938
 40
0.4481769553578089
 40
0.4539834902937322
 40
0.4597856446695369
 40
0.4655850564743312
 40
0.4713833660215053
 40
0.4771822145598328
 40
0.4828796268487596
 40
0.4885806944946992
 40
0.4942869672399151
 40
0.4999999905907908
 40
0.506166202944337
 40
0.5123253612319127
 40
0.5184794145800338
 40
0.5246303169682487
 40
0.5307800253796204
 40
0.5369304979369259
 40
0.5410740965685411
 40
0.5452195269166505
 40
0.5493673854955328
 40
0.5535182677725993
 40
0.5576727679150953
 40
0.5619766066843942
 40
0.5663383835625165
 40
0.5724389697814087
 40
0.5785344307530348
 40
0.5846266660679742
 40
0.5907175783347924
 40
0.5968090714017721
 40
0.6035126378360097
 40
0.6102217399552969
 40
0.6119801407364593
 40
0.613739139612612
 40
0.6154987817829144
 40
0.6172591123969737
 40
0.6190201765514465
 40
0.6207820192866613
 40
0.6274884750361173
 40
0.6341857678724141
 40
0.6408764021481931
 40
0.6475628896977782
 40
0.6542477470298909
 40
0.6609334924940901
 40
0.6661888727290234
 40
0.6714475748689482
 40
0.6767108161101886
 40
0.6819798105033208
 40
0.6872964201311612
 40
0.69265763779199
 40
0.6990836077898716
 40
0.7055035272130604
 40
0.7119196159877414
 40
0.7183340980172377
 40
0.7247491988758883
 40
0.7310525027416379
 40
0.7373606548102364
 40
0.7436757553283067
 40
0.7499998976197383
 40
0.7558515106562362
 40
0.761695730705572
 40
0.7675342188849026
 40
0.7733686412071459
 40
0.7792006671696546
 40
0.7850319683280104
 40
0.7908642168609935
 40
0.7972827631136786
 40
0.8037066993766785
 40
0.8101382414251671
 40
0.8165538254485594
 40
0.8228753582684961
 40
0.8291890745132425
 40
0.835497074120839
 40
0.8418014627418183
 40
0.8481043496457582
 40
0.8544078456097464
 40
0.8590320481832302
 40
0.8636585444585992
 40
0.868288164534768
 40
0.8701079908096049
 40
0.8719284772130562
 40
0.8737496738348306
 40
0.8755716307060603
 40
0.8773943977952754
 40
0.879218025004405
 40
0.8856974065265923
 40
0.8921685572849944
 40
0.89863373705524
 40
0.9050952118776722
 40
0.9115552516914794
 40
0.918016127948362
 40
0.9223689767980892
 40
0.9267239277152661
 40
0.9310816725109818
 40
0.935442901666767
 40
0.9398083040107751
 40
0.9440261806628897
 40
0.9481777767349083
 40
0.9539848243696888
 40
0.9597873384270768
 40
0.9655869570282413
 40
0.9713853207483758
 40
0.9771840712277625
 40
0.9828812395343997
 40
0.9885819174698827
 40
0.9942876555074434
 40
1.0
 40
1.0
 40
1.0
 40
1.0
 10
27.07085092926923
 20
387.5250390390204
 30
0.0
 10
27.07085092926923
 20
387.5243356696795
 30
0.0
 10
27.07085092926922
 20
387.5229297356431
 30
0.0
 10
27.07085092926924
 20
387.5114980179191
 30
0.0
 10
27.07085092926926
 20
387.4932383037864
 30
0.0
 10
27.07085092926924
 20
387.4674834891264
 30
0.0
 10
27.07085092926922
 20
387.4344122455831
 30
0.0
 10
27.07085092926923
 20
387.3983798215382
 30
0.0
 10
27.0708509292692
 20
387.3619411353722
 30
0.0
 10
27.07085092926927
 20
387.3272345610822
 30
0.0
 10
27.07085092926918
 20
387.289193075373
 30
0.0
 10
27.07085092926929
 20
387.2478166642897
 30
0.0
 10
27.07085092926922
 20
387.2025842810235
 30
0.0
 10
27.07085092926923
 20
387.1531576217077
 30
0.0
 10
27.0708509292692
 20
387.0921709302511
 30
0.0
 10
27.07085092926922
 20
387.0182876557561
 30
0.0
 10
27.07085092926924
 20
386.9296109544946
 30
0.0
 10
27.07085092926923
 20
386.8339306065877
 30
0.0
 10
27.07085092926922
 20
386.7312467087623
 30
0.0
 10
27.07085092926923
 20
386.6179008412541
 30
0.0
 10
27.07085092926919
 20
386.4930499968905
 30
0.0
 10
27.07085092926927
 20
386.3896282805566
 30
0.0
 10
27.0708509292692
 20
386.3172564747594
 30
0.0
 10
27.07085092926924
 20
386.2793429367267
 30
0.0
 10
27.07085092926924
 20
386.2408482997251
 30
0.0
 10
27.07085092926923
 20
386.201772556482
 30
0.0
 10
27.07085092926923
 20
386.1621156330436
 30
0.0
 10
27.07085092926924
 20
386.0842419513845
 30
0.0
 10
27.0708509292692
 20
385.9649090475429
 30
0.0
 10
27.07085092926927
 20
385.7986803341303
 30
0.0
 10
27.07085092926922
 20
385.6245536305482
 30
0.0
 10
27.0708509292692
 20
385.4425293119439
 30
0.0
 10
27.07085092926923
 20
385.2526075742172
 30
0.0
 10
27.07085092926922
 20
385.0689268289875
 30
0.0
 10
27.07085092926923
 20
384.8933466781117
 30
0.0
 10
27.07085092926924
 20
384.7275143677148
 30
0.0
 10
27.07085092926923
 20
384.5568076936384
 30
0.0
 10
27.07085092926922
 20
384.3807738832004
 30
0.0
 10
27.07085092926922
 20
384.1989601131097
 30
0.0
 10
27.07085092926923
 20
383.9989207437445
 30
0.0
 10
27.07085092926923
 20
383.7800891933385
 30
0.0
 10
27.0708509292692
 20
383.5418508105855
 30
0.0
 10
27.07085092926926
 20
383.2971013250736
 30
0.0
 10
27.07085092926922
 20
383.0458410886947
 30
0.0
 10
27.07085092926923
 20
382.7896053618014
 30
0.0
 10
27.07085092926923
 20
382.5285301582746
 30
0.0
 10
27.07085092926922
 20
382.2627466146296
 30
0.0
 10
27.07085092926927
 20
381.9906829605475
 30
0.0
 10
27.07085092926919
 20
381.7194351850785
 30
0.0
 10
27.07085092926929
 20
381.4498126082432
 30
0.0
 10
27.07085092926919
 20
381.1825670050669
 30
0.0
 10
27.07085092926927
 20
380.9107651508801
 30
0.0
 10
27.07085092926918
 20
380.6344066832908
 30
0.0
 10
27.07085092926926
 20
380.3534918048978
 30
0.0
 10
27.0708509292692
 20
380.0680204325398
 30
0.0
 10
27.07085092926923
 20
379.7683189103227
 30
0.0
 10
27.07085092926922
 20
379.4538355907849
 30
0.0
 10
27.07085092926923
 20
379.1240197337641
 30
0.0
 10
27.07085092926923
 20
378.7891376179054
 30
0.0
 10
27.07085092926926
 20
378.4510875739745
 30
0.0
 10
27.0708509292692
 20
378.1103607720218
 30
0.0
 10
27.07085092926926
 20
377.7669540195229
 30
0.0
 10
27.07085092926922
 20
377.4193643193896
 30
0.0
 10
27.07085092926924
 20
377.0675911897842
 30
0.0
 10
27.07085092926922
 20
376.71163529187
 30
0.0
 10
27.07085092926922
 20
376.3835245964112
 30
0.0
 10
27.07085092926922
 20
376.0844702892093
 30
0.0
 10
27.07085092926923
 20
375.8154817269262
 30
0.0
 10
27.07085092926924
 20
375.5991900914058
 30
0.0
 10
27.07085092926922
 20
375.4368604629656
 30
0.0
 10
27.07085092926923
 20
375.3293487042731
 30
0.0
 10
27.07085092926923
 20
375.221489905425
 30
0.0
 10
27.0708509292692
 20
375.1132840480021
 30
0.0
 10
27.07085092926924
 20
375.0047310006905
 30
0.0
 10
27.07085092926916
 20
374.803175950785
 30
0.0
 10
27.07085092926924
 20
374.5072858748985
 30
0.0
 10
27.07085092926924
 20
374.1148649915011
 30
0.0
 10
27.07085092926922
 20
373.7193626060407
 30
0.0
 10
27.07085092926927
 20
373.3207797875771
 30
0.0
 10
27.07085092926922
 20
372.919117003952
 30
0.0
 10
27.07085092926923
 20
372.5584513686303
 30
0.0
 10
27.0708509292692
 20
372.2398549280027
 30
0.0
 10
27.07085092926924
 20
371.9641666303582
 30
0.0
 10
27.07085092926922
 20
371.6870817926988
 30
0.0
 10
27.07085092926924
 20
371.4086001957522
 30
0.0
 10
27.07085092926922
 20
371.1319861994104
 30
0.0
 10
27.07085092926923
 20
370.8588266924994
 30
0.0
 10
27.07085092926923
 20
370.5536706462757
 30
0.0
 10
27.0708509292692
 20
370.2130194306005
 30
0.0
 10
27.07085092926926
 20
369.8350679265037
 30
0.0
 10
27.07085092926924
 20
369.4557264952622
 30
0.0
 10
27.07085092926923
 20
369.0749956386156
 30
0.0
 10
27.07085092926922
 20
368.695150995185
 30
0.0
 10
27.07085092926922
 20
368.3162224499062
 30
0.0
 10
27.07085092926923
 20
367.938235189021
 30
0.0
 10
27.07085092926927
 20
367.5589078177965
 30
0.0
 10
27.07085092926923
 20
367.168360561547
 30
0.0
 10
27.07085092926926
 20
366.7668933740606
 30
0.0
 10
27.07085092926919
 20
366.3548210833407
 30
0.0
 10
27.07085092926927
 20
365.9424301910146
 30
0.0
 10
27.0708509292692
 20
365.5297207174827
 30
0.0
 10
27.07085092926923
 20
365.1166933374728
 30
0.0
 10
27.07085092926923
 20
364.7483601088132
 30
0.0
 10
27.07085092926923
 20
364.4248373319608
 30
0.0
 10
27.07085092926922
 20
364.146161987632
 30
0.0
 10
27.07085092926926
 20
363.8673425945314
 30
0.0
 10
27.07085092926923
 20
363.5883788716465
 30
0.0
 10
27.07085092926922
 20
363.3060212125997
 30
0.0
 10
27.07085092926922
 20
363.0190854254128
 30
0.0
 10
27.07085092926926
 20
362.6888158600998
 30
0.0
 10
27.07085092926922
 20
362.3188415942652
 30
0.0
 10
27.07085092926922
 20
361.910809919453
 30
0.0
 10
27.07085092926926
 20
361.5037286838715
 30
0.0
 10
27.07085092926918
 20
361.0975984131576
 30
0.0
 10
27.07085092926924
 20
360.6789050269005
 30
0.0
 10
27.0708509292692
 20
360.2477562564847
 30
0.0
 10
27.07085092926927
 20
359.9135336358626
 30
0.0
 10
27.0708509292692
 20
359.6887855371796
 30
0.0
 10
27.07085092926923
 20
359.5729298687912
 30
0.0
 10
27.07085092926922
 20
359.4571531949277
 30
0.0
 10
27.07085092926923
 20
359.3414554313778
 30
0.0
 10
27.07085092926924
 20
359.2258365081918
 30
0.0
 10
27.0708509292692
 20
359.0022282777516
 30
0.0
 10
27.0708509292692
 20
358.6716251399552
 30
0.0
 10
27.07085092926924
 20
358.235676122491
 30
0.0
 10
27.07085092926926
 20
357.802419916143
 30
0.0
 10
27.07085092926924
 20
357.3718581992078
 30
0.0
 10
27.07085092926924
 20
356.9439911667466
 30
0.0
 10
27.0708509292692
 20
356.5492067639527
 30
0.0
 10
27.07085092926924
 20
356.1868813881683
 30
0.0
 10
27.0708509292692
 20
355.8563944368547
 30
0.0
 10
27.07085092926927
 20
355.5275709978419
 30
0.0
 10
27.07085092926922
 20
355.199570161734
 30
0.0
 10
27.07085092926923
 20
354.8716592186439
 30
0.0
 10
27.07085092926923
 20
354.5223336320032
 30
0.0
 10
27.07085092926924
 20
354.1533724972605
 30
0.0
 10
27.07085092926922
 20
353.7665257426964
 30
0.0
 10
27.07085092926924
 20
353.3835368988956
 30
0.0
 10
27.07085092926923
 20
353.0044063916602
 30
0.0
 10
27.07085092926923
 20
352.6313693445563
 30
0.0
 10
27.07085092926923
 20
352.2643470816339
 30
0.0
 10
27.07085092926924
 20
351.9032561488883
 30
0.0
 10
27.07085092926922
 20
351.545887647934
 30
0.0
 10
27.07085092926926
 20
351.2012546886172
 30
0.0
 10
27.07085092926923
 20
350.8693627072212
 30
0.0
 10
27.07085092926922
 20
350.5502302894283
 30
0.0
 10
27.07085092926923
 20
350.2353206254695
 30
0.0
 10
27.07085092926923
 20
349.9246339257156
 30
0.0
 10
27.07085092926923
 20
349.6181702632589
 30
0.0
 10
27.07085092926924
 20
349.3159296260692
 30
0.0
 10
27.07085092926923
 20
349.0079717675962
 30
0.0
 10
27.07085092926922
 20
348.6947997932157
 30
0.0
 10
27.07085092926923
 20
348.3769595542766
 30
0.0
 10
27.07085092926924
 20
348.0646485553108
 30
0.0
 10
27.07085092926926
 20
347.7595244170015
 30
0.0
 10
27.07085092926918
 20
347.4618159565263
 30
0.0
 10
27.07085092926927
 20
347.1713816590441
 30
0.0
 10
27.07085092926922
 20
346.8869049012434
 30
0.0
 10
27.07085092926923
 20
346.6083862110407
 30
0.0
 10
27.07085092926922
 20
346.3358258412427
 30
0.0
 10
27.07085092926924
 20
346.0929334840456
 30
0.0
 10
27.07085092926922
 20
345.8780014136891
 30
0.0
 10
27.07085092926927
 20
345.6894978913491
 30
0.0
 10
27.0708509292692
 20
345.5417353007176
 30
0.0
 10
27.07085092926926
 20
345.4328009092974
 30
0.0
 10
27.07085092926924
 20
345.3613803699918
 30
0.0
 10
27.07085092926923
 20
345.2904542381036
 30
0.0
 10
27.07085092926919
 20
345.2200224668543
 30
0.0
 10
27.07085092926924
 20
345.1500850857844
 30
0.0
 10
27.07085092926919
 20
345.0215576347803
 30
0.0
 10
27.07085092926924
 20
344.8372788591787
 30
0.0
 10
27.0708509292692
 20
344.6018981708116
 30
0.0
 10
27.07085092926927
 20
344.3736137986913
 30
0.0
 10
27.07085092926922
 20
344.1524268581793
 30
0.0
 10
27.07085092926924
 20
343.9383374324432
 30
0.0
 10
27.07085092926919
 20
343.7538874044278
 30
0.0
 10
27.07085092926926
 20
343.5966271703127
 30
0.0
 10
27.07085092926923
 20
343.4644544376835
 30
0.0
 10
27.07085092926923
 20
343.3355003732746
 30
0.0
 10
27.0708509292692
 20
343.2097647158153
 30
0.0
 10
27.07085092926924
 20
343.0886734518717
 30
0.0
 10
27.0708509292692
 20
342.9727437342468
 30
0.0
 10
27.07085092926924
 20
342.847195225034
 30
0.0
 10
27.07085092926922
 20
342.7122836468681
 30
0.0
 10
27.0708509292692
 20
342.5693404980735
 30
0.0
 10
27.07085092926924
 20
342.4325890054266
 30
0.0
 10
27.07085092926922
 20
342.3020264604947
 30
0.0
 10
27.07085092926923
 20
342.1784043686399
 30
0.0
 10
27.07085092926923
 20
342.0615545593755
 30
0.0
 10
27.07085092926927
 20
341.9514972285086
 30
0.0
 10
27.07085092926922
 20
341.8469749826381
 30
0.0
 10
27.07085092926923
 20
341.782407272731
 30
0.0
 10
27.07085092926923
 20
341.7501047384735
 30
0.0
  0
SPLINE
  5
116
330
1F
100
AcDbEntity
  8
0
  6
Continuous
 62
     7
370
    30
100
AcDbSpline
210
0.0
220
0.0
230
1.0
 70
    24
 71
     3
 72
    49
 73
    45
 74
     0
 42
0.000000001
 43
0.00000001
 40
0.0
 40
0.0
 40
0.0
 40
0.0
 40
0.0273697809606966
 40
0.054619208800653
 40
0.0817832705308519
 40
0.1088972836249645
 40
0.1359967612354629
 40
0.1512131587900674
 40
0.1664424623571139
 40
0.1816909358764187
 40
0.1969648197025717
 40
0.212270323109349
 40
0.227613616982215
 40
0.2430008267402433
 40
0.2719606204980073
 40
0.3007794932411675
 40
0.3294988612526958
 40
0.3581605721729765
 40
0.3868067263280259
 40
0.4149670624842686
 40
0.4431929101627679
 40
0.4715238341961318
 40
0.4999989614245712
 40
0.5289587670772149
 40
0.5577776465028363
 40
0.5864970174581259
 40
0.6151587290887245
 40
0.6438048832447887
 40
0.6598914407366729
 40
0.6759938246060695
 40
0.6921194559149142
 40
0.7082757236904208
 40
0.7244699750239214
 40
0.740709505453247
 40
0.7570015496887341
 40
0.7843716966882183
 40
0.811621330954705
 40
0.838785484377515
 40
0.8658995201769936
 40
0.8929989977758243
 40
0.9196348992771334
 40
0.9463247797643785
 40
0.9731021013983494
 40
1.0
 40
1.0
 40
1.0
 40
1.0
 10
27.07085092926923
 20
341.7501047384735
 30
0.0
 10
27.07085092926922
 20
341.7345854932065
 30
0.0
 10
27.0708509292692
 20
341.7036152454399
 30
0.0
 10
27.07085092926926
 20
341.6494279207112
 30
0.0
 10
27.07085092926922
 20
341.5897235229275
 30
0.0
 10
27.07085092926924
 20
341.5239451061838
 30
0.0
 10
27.07085092926923
 20
341.4627349345679
 30
0.0
 10
27.07085092926922
 20
341.4087445970288
 30
0.0
 10
27.07085092926922
 20
341.3640355647951
 30
0.0
 10
27.07085092926923
 20
341.317452012298
 30
0.0
 10
27.07085092926923
 20
341.268994121946
 30
0.0
 10
27.07085092926922
 20
341.2186619647618
 30
0.0
 10
27.07085092926922
 20
341.1664552858769
 30
0.0
 10
27.07085092926922
 20
341.0965351404025
 30
0.0
 10
27.07085092926927
 20
341.0069619266415
 30
0.0
 10
27.0708509292692
 20
340.8951696691856
 30
0.0
 10
27.07085092926923
 20
340.7779944907145
 30
0.0
 10
27.07085092926923
 20
340.6554377448999
 30
0.0
 10
27.07085092926922
 20
340.5282622412076
 30
0.0
 10
27.07085092926924
 20
340.3965835164321
 30
0.0
 10
27.07085092926922
 20
340.2605082805561
 30
0.0
 10
27.07085092926923
 20
340.1192446980007
 30
0.0
 10
27.07085092926927
 20
339.9722796454585
 30
0.0
 10
27.07085092926918
 20
339.8201866497984
 30
0.0
 10
27.07085092926922
 20
339.6634658353299
 30
0.0
 10
27.07085092926924
 20
339.5032955280397
 30
0.0
 10
27.07085092926922
 20
339.3396772911205
 30
0.0
 10
27.07085092926926
 20
339.1970633302048
 30
0.0
 10
27.07085092926922
 20
339.0770464470709
 30
0.0
 10
27.07085092926924
 20
338.9807380549045
 30
0.0
 10
27.07085092926924
 20
338.883345422633
 30
0.0
 10
27.07085092926919
 20
338.7848681400047
 30
0.0
 10
27.07085092926926
 20
338.6853065742202
 30
0.0
 10
27.0708509292692
 20
338.5846600655182
 30
0.0
 10
27.07085092926923
 20
338.4600013627867
 30
0.0
 10
27.07085092926922
 20
338.3110389889961
 30
0.0
 10
27.07085092926924
 20
338.1374279177174
 30
0.0
 10
27.07085092926923
 20
337.9627636755962
 30
0.0
 10
27.07085092926924
 20
337.7870477982116
 30
0.0
 10
27.0708509292692
 20
337.6113340729486
 30
0.0
 10
27.07085092926924
 20
337.4356488502023
 30
0.0
 10
27.07085092926924
 20
337.2600085524563
 30
0.0
 10
27.07085092926919
 20
337.0833570729672
 30
0.0
 10
27.07085092926923
 20
336.9652293762959
 30
0.0
 10
27.07085092926923
 20
336.9060328458827
 30
0.0
  0
SPLINE
  5
117
330
1F
100
AcDbEntity
  8
0
  6
Continuous
 62
     7
370
    30
100
AcDbSpline
210
0.0
220
0.0
230
1.0
 70
    24
 71
     3
 72
    19
 73
    15
 74
     0
 42
0.000000001
 43
0.00000001
 40
0.0
 40
0.0
 40
0.0
 40
0.0
 40
0.0835763635359848
 40
0.1668873861312014
 40
0.2500589135370709
 40
0.3332174248115755
 40
0.4164894583220061
 40
0.500001036403941
 40
0.5835766902457189
 40
0.666887463670349
 40
0.7500589673132544
 40
0.833217442912049
 40
0.9164891914567448
 40
1.0
 40
1.0
 40
1.0
 40
1.0
 10
41.07085092926921
 20
336.9060328458827
 30
0.0
 10
41.07085092926921
 20
336.9709384294557
 30
0.0
 10
41.07085092926923
 20
337.1005435322564
 30
0.0
 10
41.07085092926924
 20
337.2944501136066
 30
0.0
 10
41.07085092926919
 20
337.4874480123954
 30
0.0
 10
41.07085092926923
 20
337.6795358630345
 30
0.0
 10
41.07085092926921
 20
337.8707128069208
 30
0.0
 10
41.07085092926923
 20
338.0607477087343
 30
0.0
 10
41.07085092926918
 20
338.2490874692015
 30
0.0
 10
41.07085092926923
 20
338.4351491762243
 30
0.0
 10
41.07085092926921
 20
338.618610837867
 30
0.0
 10
41.07085092926923
 20
338.7993900527932
 30
0.0
 10
41.07085092926921
 20
338.9777900828719
 30
0.0
 10
41.07085092926921
 20
339.0941512391537
 30
0.0
 10
41.07085092926921
 20
339.152415211201
 30
0.0
  0
LINE
  5
118
330
1F
100
AcDbEntity
  8
0
  6
Continuous
 62
     7
370
    30
100
AcDbLine
 10
41.0708509293
 20
336.9060328459
 30
0.0
 11
41.0708509293
 21
280.225039039
 31
0.0
  0
LINE
  5
119
330
1F
100
AcDbEntity
  8
0
  6
Continuous
 62
     7
370
    30
100
AcDbLine
 10
27.0708509293
 20
336.9060328459
 30
0.0
 11
27.0708509293
 21
280.225039039
 31
0.0
  0
LINE
  5
11A
330
1F
100
AcDbEntity
  8
0
  6
Continuous
 62
     7
370
    30
100
AcDbLine
 10
28.0708509293
 20
279.225039039
 30
0.0
 11
40.0708509293
 21
279.225039039
 31
0.0
  0
ARC
  5
11B
330
1F
100
AcDbEntity
  8
0
  6
Continuous
 62
     7
370
    30
100
AcDbCircle
 10
40.0708509293
 20
280.225039039
 30
0.0
 40
1.000000000000057
100
AcDbArc
 50
270.0
 51
0.0
  0
ARC
  5
11C
330
1F
100
AcDbEntity
  8
0
  6
Continuous
 62
     7
370
    30
100
AcDbCircle
 10
28.0708509293
 20
280.225039039
 30
0.0
 40
1.000000000000057
100
AcDbArc
 50
180.0
 51
270.0
  0
LINE
  5
11D
330
1F
100
AcDbEntity
  8
0
  6
Continuous
 62
     7
370
    30
100
AcDbLine
 10
127.931737012
 20
326.775039039
 30
0.0
 11
127.931737012
 21
328.7747344293
 31
0.0
  0
LINE
  5
11E
330
1F
100
AcDbEntity
  8
0
  6
Continuous
 62
     7
370
    30
100
AcDbLine
 10
117.3130633878
 20
326.9603886766
 30
0.0
 11
127.931737012
 21
326.775039039
 31
0.0
  0
LINE
  5
11F
330
1F
100
AcDbEntity
  8
0
  6
Continuous
 62
     7
370
    30
100
AcDbLine
 10
127.931737012
 20
401.7750390139
 30
0.0
 11
117.3130633931
 21
401.5896893765
 31
0.0
  0
LINE
  5
120
330
1F
100
AcDbEntity
  8
0
  6
Continuous
 62
     7
370
    30
100
AcDbLine
 10
127.931737012
 20
401.775039014
 30
0.0
 11
127.931737012
 21
399.7753436236
 31
0.0
  0
LINE
  5
121
330
1F
100
AcDbEntity
  8
0
  6
Continuous
 62
     7
370
    30
100
AcDbLine
 10
127.931737012
 20
399.7753436236
 30
0.0
 11
127.931737012
 21
328.7747344293
 31
0.0
  0
SPLINE
  5
122
330
1F
100
AcDbEntity
  8
0
  6
Continuous
 62
     7
370
    30
100
AcDbSpline
210
0.0
220
0.0
230
1.0
 70
     8
 71
     3
 72
    22
 73
    18
 74
     0
 42
0.000000001
 43
0.00000001
 40
0.0
 40
0.0
 40
0.0
 40
0.0
 40
0.0764445386772509
 40
0.1510278740469349
 40
0.2237498474289535
 40
0.2946103042157511
 40
0.3636090938818744
 40
0.4307460699948057
 40
0.4960210902272854
 40
0.5594340163713923
 40
0.6410632869027262
 40
0.7193844839070621
 40
0.794397082407567
 40
0.8661005805553325
 40
0.934494499774011
 40
0.9995783849402317
 40
1.0
 40
1.0
 40
1.0
 40
1.0
 10
116.2247455872821
 20
364.2750390390206
 30
0.0
 10
116.2247138726703
 20
363.2783110475817
 30
0.0
 10
116.2246512156058
 20
361.3091225070422
 30
0.0
 10
116.2241296927118
 20
358.4333571491128
 30
0.0
 10
116.2232925668973
 20
355.706865973614
 30
0.0
 10
116.2221112718437
 20
353.157960703214
 30
0.0
 10
116.2205931799576
 20
350.8085533453494
 30
0.0
 10
116.2187364876942
 20
348.6745215318039
 30
0.0
 10
116.2165414460635
 20
346.7660641294541
 30
0.0
 10
116.213741601176
 20
344.9114212487546
 30
0.0
 10
116.2101851763923
 20
343.1966961830083
 30
0.0
 10
116.2056941005675
 20
341.7185398702783
 30
0.0
 10
116.2005747403825
 20
340.6249421138609
 30
0.0
 10
116.1949520850144
 20
339.8789685783497
 30
0.0
 10
116.1883926556241
 20
339.4816565578207
 30
0.0
 10
116.1842841033025
 20
339.3425951444103
 30
0.0
 10
116.1813728189185
 20
339.3754634242516
 30
0.0
 10
116.1813540809296
 20
339.3756749753691
 30
0.0
  0
SPLINE
  5
123
330
1F
100
AcDbEntity
  8
0
  6
Continuous
 62
     7
370
    30
100
AcDbSpline
210
0.0
220
0.0
230
1.0
 70
     8
 71
     3
 72
     9
 73
     5
 74
     0
 42
0.000000001
 43
0.00000001
 40
0.0
 40
0.0
 40
0.0
 40
0.0
 40
0.1990539880334121
 40
1.0
 40
1.0
 40
1.0
 40
1.0
 10
116.1761415128728
 20
339.4341759208482
 30
0.0
 10
116.175707529371
 20
339.438129286088
 30
0.0
 10
116.1735272992434
 20
339.4579900549115
 30
0.0
 10
116.1704713792632
 20
339.5571283955371
 30
0.0
 10
116.1680237523422
 20
339.6365328540942
 30
0.0
  0
SPLINE
  5
124
330
1F
100
AcDbEntity
  8
0
  6
Continuous
 62
     7
370
    30
100
AcDbSpline
210
0.0
220
0.0
230
1.0
 70
     8
 71
     3
 72
    21
 73
    17
 74
     0
 42
0.000000001
 43
0.00000001
 40
0.0
 40
0.0
 40
0.0
 40
0.0
 40
0.0764733479751476
 40
0.1529467017991086
 40
0.2294200673644078
 40
0.3058934505635704
 40
0.3823668572891163
 40
0.4588402934335607
 40
0.5353137648894106
 40
0.611787277549166
 40
0.688260837305316
 40
0.764734450050342
 40
0.8412081216767097
 40
0.9176818580768726
 40
0.9941556651432691
 40
0.9999999999999999
 40
0.9999999999999999
 40
0.9999999999999999
 40
0.9999999999999999
 10
116.2247455872821
 20
364.2750390390204
 30
0.0
 10
116.2246585887814
 20
365.3615047481293
 30
0.0
 10
116.2244845917733
 20
367.5344362494417
 30
0.0
 10
116.2230772241288
 20
370.7380641833001
 30
0.0
 10
116.2208306546697
 20
373.8311082750032
 30
0.0
 10
116.2176625742777
 20
376.7606441508705
 30
0.0
 10
116.2135950490639
 20
379.4765523431301
 30
0.0
 10
116.208622123722
 20
381.9323416041302
 30
0.0
 10
116.2027455533585
 20
384.0860721961174
 30
0.0
 10
116.1959642728564
 20
385.9005964889772
 30
0.0
 10
116.1882807875777
 20
387.3459747676918
 30
0.0
 10
116.1796861411835
 20
388.393343701386
 30
0.0
 10
116.1702136537021
 20
389.0402052577436
 30
0.0
 10
116.1597390012163
 20
389.2179329310941
 30
0.0
 10
116.1521165669369
 20
389.1628139359584
 30
0.0
 10
116.1477267535915
 20
388.9299854102435
 30
0.0
 10
116.1474150903475
 20
388.9134553011244
 30
0.0
  0
SPLINE
  5
125
330
1F
100
AcDbEntity
  8
0
  6
Continuous
 62
     7
370
    30
100
AcDbSpline
210
0.0
220
0.0
230
1.0
 70
     8
 71
     3
 72
    11
 73
     7
 74
     0
 42
0.000000001
 43
0.00000001
 40
0.0
 40
0.0
 40
0.0
 40
0.0
 40
0.3246966978086818
 40
0.6493931681371232
 40
0.9740895582426685
 40
1.0
 40
1.0
 40
1.0
 40
1.0
 10
116.3068561118774
 20
400.6101051641206
 30
0.0
 10
116.2816095830423
 20
399.3441911010009
 30
0.0
 10
116.2311165430596
 20
396.8123638616521
 30
0.0
 10
116.1662713038154
 20
393.0144226332271
 30
0.0
 10
116.1242182768173
 20
390.3813865124694
 30
0.0
 10
116.1063747501418
 20
389.0143004605196
 30
0.0
 10
116.1050560831432
 20
388.9132704739157
 30
0.0
  0
SPLINE
  5
126
330
1F
100
AcDbEntity
  8
0
  6
Continuous
 62
     7
370
    30
100
AcDbSpline
210
0.0
220
0.0
230
1.0
 70
     8
 71
     3
 72
    11
 73
     7
 74
     0
 42
0.000000001
 43
0.00000001
 40
0.0
 40
0.0
 40
0.0
 40
0.0
 40
0.0979725010999536
 40
0.3986482093791578
 40
0.6993240019707831
 40
1.0
 40
1.0
 40
1.0
 40
1.0
 10
116.1055212105422
 20
339.6368055746109
 30
0.0
 10
116.1106636946353
 20
339.2547935274528
 30
0.0
 10
116.1315883628071
 20
337.7003939066295
 30
0.0
 10
116.1754654416427
 20
334.9737091573555
 30
0.0
 10
116.2366135172797
 20
331.4567564364857
 30
0.0
 10
116.2834418575456
 20
329.1122343488257
 30
0.0
 10
116.3068560356774
 20
327.9399729045205
 30
0.0
  0
SPLINE
  5
127
330
1F
100
AcDbEntity
  8
0
  6
Continuous
 62
     7
370
    30
100
AcDbSpline
210
0.0
220
0.0
230
1.0
 70
     8
 71
     3
 72
    26
 73
    22
 74
     0
 42
0.000000001
 43
0.00000001
 40
0.0
 40
0.0
 40
0.0
 40
0.0
 40
0.0522586350663402
 40
0.1045241995516311
 40
0.1567918084973514
 40
0.2090594767529746
 40
0.261326864251502
 40
0.313594348766322
 40
0.3628771045750991
 40
0.4121605808811384
 40
0.4614447066198294
 40
0.5107291693465686
 40
0.5600135350594206
 40
0.6150146002433817
 40
0.6700147689459087
 40
0.7250141807742295
 40
0.7800133361696578
 40
0.835012747210847
 40
0.8900122283849095
 40
0.9450097750395957
 40
1.0
 40
1.0
 40
1.0
 40
1.0
 10
117.2896023731774
 20
326.9607981901206
 30
0.0
 10
117.262918346516
 20
326.9618800772459
 30
0.0
 10
117.2095467549301
 20
326.9640439949532
 30
0.0
 10
117.1301399570873
 20
326.9753892405798
 30
0.0
 10
117.0518545178372
 20
326.9925975802238
 30
0.0
 10
116.9752079255784
 20
327.0161443936979
 30
0.0
 10
116.9006916851479
 20
327.0457226207429
 30
0.0
 10
116.8301524527201
 20
327.0805083174568
 30
0.0
 10
116.7638532168694
 20
327.1198876358953
 30
0.0
 10
116.7019623293527
 20
327.1632826787437
 30
0.0
 10
116.6435204455108
 20
327.2112223124429
 30
0.0
 10
116.5888591651575
 20
327.263433080073
 30
0.0
 10
116.5363360596335
 20
327.321787436858
 30
0.0
 10
116.4868466045232
 20
327.386484819569
 30
0.0
 10
116.4414070774412
 20
327.4575792051587
 30
0.0
 10
116.4021138420852
 20
327.5322475937153
 30
0.0
 10
116.3692620036567
 20
327.6099609519201
 30
0.0
 10
116.3430408025278
 20
327.6901667814225
 30
0.0
 10
116.3238095436072
 20
327.7722967675071
 30
0.0
 10
116.3110567183219
 20
327.8557485453284
 30
0.0
 10
116.3085311107171
 20
327.9119025104137
 30
0.0
 10
116.3072683909774
 20
327.9399776239206
 30
0.0
  0
SPLINE
  5
128
330
1F
100
AcDbEntity
  8
0
  6
Continuous
 62
     7
370
    30
100
AcDbSpline
210
0.0
220
0.0
230
1.0
 70
    24
 71
     3
 72
    11
 73
     7
 74
     0
 42
0.000000001
 43
0.00000001
 40
0.0
 40
0.0
 40
0.0
 40
0.0
 40
0.2800000026186611
 40
0.5599999996412156
 40
0.7799999978410803
 40
1.0
 40
1.0
 40
1.0
 40
1.0
 10
117.2896023731774
 20
326.9607981901206
 30
0.0
 10
117.289941275746
 20
326.9607922745593
 30
0.0
 10
117.2906190808763
 20
326.9607804434368
 30
0.0
 10
117.2959824053164
 20
326.9606868262533
 30
0.0
 10
117.3033613195131
 20
326.9605580268088
 30
0.0
 10
117.3098293660033
 20
326.960445126617
 30
0.0
 10
117.3130633892774
 20
326.9603886765206
 30
0.0
  0
SPLINE
  5
129
330
1F
100
AcDbEntity
  8
0
  6
Continuous
 62
     7
370
    30
100
AcDbSpline
210
0.0
220
0.0
230
1.0
 70
     8
 71
     3
 72
    26
 73
    22
 74
     0
 42
0.000000001
 43
0.00000001
 40
0.0
 40
0.0
 40
0.0
 40
0.0
 40
0.0522586350515437
 40
0.1045241995250903
 40
0.1567918084625117
 40
0.209059476713326
 40
0.2613268642103398
 40
0.3135943487265659
 40
0.3628771045388944
 40
0.4121605808501849
 40
0.4614447065953463
 40
0.5107291693293046
 40
0.5600135350496791
 40
0.6150146002418703
 40
0.6700147689518878
 40
0.7250141807863825
 40
0.7800133361861008
 40
0.8350127472290317
 40
0.8900122284015506
 40
0.9450097750505347
 40
0.9999999999999999
 40
0.9999999999999999
 40
0.9999999999999999
 40
0.9999999999999999
 10
117.2896024492774
 20
401.5892798765205
 30
0.0
 10
117.2629184226587
 20
401.5881979894044
 30
0.0
 10
117.2095468311567
 20
401.5860340717154
 30
0.0
 10
117.1301400334343
 20
401.5746888261255
 30
0.0
 10
117.0518545942963
 20
401.5574804865274
 30
0.0
 10
116.9752080021396
 20
401.5339336731099
 30
0.0
 10
116.9006917617997
 20
401.5043554461327
 30
0.0
 10
116.8301525294483
 20
401.4695697494969
 30
0.0
 10
116.7638532936592
 20
401.4301904311456
 30
0.0
 10
116.7019624061893
 20
401.3867953883923
 30
0.0
 10
116.6435205223798
 20
401.3388557547971
 30
0.0
 10
116.5888592420435
 20
401.2866449872793
 30
0.0
 10
116.5363361365208
 20
401.2282906306182
 30
0.0
 10
116.4868466813927
 20
401.1635932480424
 30
0.0
 10
116.4414071542707
 20
401.0924988625986
 30
0.0
 10
116.4021139188525
 20
401.0178304741914
 30
0.0
 10
116.3692620803389
 20
400.9401171161381
 30
0.0
 10
116.3430408791015
 20
400.8599112867871
 30
0.0
 10
116.3238096200482
 20
400.7777813008519
 30
0.0
 10
116.3110567946078
 20
400.6943295231779
 30
0.0
 10
116.3085311868791
 20
400.6381755581816
 30
0.0
 10
116.3072684670774
 20
400.6101004447206
 30
0.0
  0
SPLINE
  5
12A
330
1F
100
AcDbEntity
  8
0
  6
Continuous
 62
     7
370
    30
100
AcDbSpline
210
0.0
220
0.0
230
1.0
 70
     8
 71
     3
 72
    11
 73
     7
 74
     0
 42
0.000000001
 43
0.00000001
 40
0.0
 40
0.0
 40
0.0
 40
0.0
 40
0.2800000018163118
 40
0.5599999986605882
 40
0.7799999971581549
 40
1.0
 40
1.0
 40
1.0
 40
1.0
 10
117.3130633930774
 20
401.5896893765205
 30
0.0
 10
117.3090229183807
 20
401.5896188509227
 30
0.0
 10
117.3009419690589
 20
401.5894777997282
 30
0.0
 10
117.2941055860048
 20
401.5893584734164
 30
0.0
 10
117.2902232244124
 20
401.5892907094916
 30
0.0
 10
117.2898093743238
 20
401.589283487511
 30
0.0
 10
117.2896024492774
 20
401.5892798765205
 30
0.0
  0
LINE
  5
12B
330
1F
100
AcDbEntity
  8
0
  6
Continuous
 62
     7
370
    30
100
AcDbLine
 10
234.5
 20
212.8904245069
 30
0.0
 11
234.5
 21
165.8904245069
 31
0.0
  0
LINE
  5
12C
330
1F
100
AcDbEntity
  8
0
  6
Continuous
 62
     7
370
    30
100
AcDbLine
 10
264.5
 20
165.8904245069
 30
0.0
 11
264.5
 21
212.8904245069
 31
0.0
  0
ARC
  5
12D
330
1F
100
AcDbEntity
  8
0
  6
Continuous
 62
     7
370
    30
100
AcDbCircle
 10
235.5
 20
165.8904245069
 30
0.0
 40
1.0
100
AcDbArc
 50
180.0
 51
270.0
  0
ARC
  5
12E
330
1F
100
AcDbEntity
  8
0
  6
Continuous
 62
     7
370
    30
100
AcDbCircle
 10
263.5
 20
165.8904245069
 30
0.0
 40
1.0
100
AcDbArc
 50
270.0
 51
0.0
  0
LINE
  5
12F
330
1F
100
AcDbEntity
  8
0
  6
Continuous
 62
     7
370
    30
100
AcDbLine
 10
236.5
 20
213.1345091384
 30
0.0
 11
236.5
 21
212.8904245069
 31
0.0
  0
LINE
  5
130
330
1F
100
AcDbEntity
  8
0
  6
Continuous
 62
     7
370
    30
100
AcDbLine
 10
262.5
 20
212.8904245069
 30
0.0
 11
262.5
 21
213.0077056722
 31
0.0
  0
ARC
  5
131
330
1F
100
AcDbEntity
  8
0
  6
Continuous
 62
     7
370
    30
100
AcDbCircle
 10
326.2499999996
 20
125.0708509293
 30
0.0
 40
1.0
100
AcDbArc
 50
180.0
 51
270.0
  0
ARC
  5
132
330
1F
100
AcDbEntity
  8
0
  6
Continuous
 62
     7
370
    30
100
AcDbCircle
 10
372.7499999996
 20
125.0708509293
 30
0.0
 40
1.0
100
AcDbArc
 50
270.0
 51
0.0
  0
LINE
  5
133
330
1F
100
AcDbEntity
  8
0
  6
Continuous
 62
     7
370
    30
100
AcDbLine
 10
325.2499999996
 20
152.8708509293
 30
0.0
 11
325.2499999996
 21
125.0708509293
 31
0.0
  0
LINE
  5
134
330
1F
100
AcDbEntity
  8
0
  6
Continuous
 62
     7
370
    30
100
AcDbLine
 10
373.7499999996
 20
125.0708509293
 30
0.0
 11
373.7499999996
 21
152.8708509293
 31
0.0
  0
ARC
  5
135
330
1F
100
AcDbEntity
  8
0
  6
Continuous
 62
     7
370
    30
100
AcDbCircle
 10
325.7499999996
 20
152.8708509293
 30
0.0
 40
0.5000000000000318
100
AcDbArc
 50
104.3762133731
 51
180.0
  0
ARC
  5
136
330
1F
100
AcDbEntity
  8
0
  6
Continuous
 62
     7
370
    30
100
AcDbCircle
 10
373.2499999996
 20
152.8708509293
 30
0.0
 40
0.5000000000000318
100
AcDbArc
 50
0.0
 51
75.6237866269
  0
ARC
  5
137
330
1F
100
AcDbEntity
  8
0
  6
Continuous
 62
     7
370
    30
100
AcDbCircle
 10
325.6755136735
 20
153.161456826
 30
0.0
 40
0.2000000000004767
100
AcDbArc
 50
90.0
 51
104.3762133726
  0
ARC
  5
138
330
1F
100
AcDbEntity
  8
0
  6
Continuous
 62
     7
370
    30
100
AcDbCircle
 10
373.3244863257
 20
153.161456826
 30
0.0
 40
0.2000000000004767
100
AcDbArc
 50
75.6237866274
 51
90.0
  0
LINE
  5
139
330
1F
100
AcDbEntity
  8
0
  6
Continuous
 62
     7
370
    30
100
AcDbLine
 10
373.3244863257
 20
153.361456826
 30
0.0
 11
325.6755136735
 21
153.361456826
 31
0.0
  0
LINE
  5
13A
330
1F
100
AcDbEntity
  8
0
  6
Continuous
 62
     7
370
    30
100
AcDbLine
 10
324.8622822294
 20
212.9873335478
 30
0.0
 11
325.1133347511
 21
155.4506989032
 31
0.0
  0
LINE
  5
13B
330
1F
100
AcDbEntity
  8
0
  6
Continuous
 62
     7
370
    30
100
AcDbLine
 10
373.8866652481
 20
155.4506989032
 30
0.0
 11
374.1387512615
 21
213.2241908905
 31
0.0
  0
ARC
  5
13C
330
1F
100
AcDbEntity
  8
0
  6
Continuous
 62
     7
370
    30
100
AcDbCircle
 10
326.1133252322
 20
155.4550622125
 30
0.0
 40
0.9999999999999915
100
AcDbArc
 50
180.25
 51
211.4024765725
  0
ARC
  5
13D
330
1F
100
AcDbEntity
  8
0
  6
Continuous
 62
     7
370
    30
100
AcDbCircle
 10
372.886674767
 20
155.4550622125
 30
0.0
 40
0.9999999999999915
100
AcDbArc
 50
328.5975234275
 51
359.75
  0
ARC
  5
13E
330
1F
100
AcDbEntity
  8
0
  6
Continuous
 62
     7
370
    30
100
AcDbCircle
 10
349.4999999996
 20
169.731737012
 30
0.0
 40
28.40000000000013
100
AcDbArc
 50
324.800981616
 51
328.5975234275
  0
ARC
  5
13F
330
1F
100
AcDbEntity
  8
0
  6
Continuous
 62
     7
370
    30
100
AcDbCircle
 10
349.4999999996
 20
169.731737012
 30
0.0
 40
28.40000000000014
100
AcDbArc
 50
211.4024765725
 51
215.199018384
  0
SPLINE
  5
140
330
1F
100
AcDbEntity
  8
0
  6
Continuous
 62
     7
370
    30
100
AcDbSpline
210
0.0
220
0.0
230
1.0
 70
     8
 71
     3
 72
    12
 73
     8
 74
     0
 42
0.000000001
 43
0.00000001
 40
0.0
 40
0.0
 40
0.0
 40
0.0
 40
0.1715855455565973
 40
0.3786888685310484
 40
0.5857922970878635
 40
0.7928959634900098
 40
1.0
 40
1.0
 40
1.0
 40
1.0
 10
262.6000015954785
 20
213.0030464929861
 30
0.0
 10
264.7104942459508
 20
212.9951328625013
 30
0.0
 10
269.368346230265
 20
212.9776674998769
 30
0.0
 10
276.5735835843153
 20
212.9579729836295
 30
0.0
 10
284.2157055294474
 20
212.9426609514967
 30
0.0
 10
291.8578466674923
 20
212.933190410203
 30
0.0
 10
296.9526140383848
 20
212.9320102851159
 30
0.0
 10
299.4999999999999
 20
212.931420222045
 30
0.0
  0
SPLINE
  5
141
330
1F
100
AcDbEntity
  8
0
  6
Continuous
 62
     7
370
    30
100
AcDbSpline
210
0.0
220
0.0
230
1.0
 70
     8
 71
     3
 72
    10
 73
     6
 74
     0
 42
0.000000001
 43
0.00000001
 40
0.0
 40
0.0
 40
0.0
 40
0.0
 40
0.3267021383483862
 40
0.6757054809362247
 40
1.0
 40
1.0
 40
1.0
 40
1.0
 10
213.1763449983237
 20
213.3212510320873
 30
0.0
 10
215.7053972343204
 20
213.2989441494009
 30
0.0
 10
220.9361388085143
 20
213.2528076809653
 30
0.0
 10
228.6773615169733
 20
213.1923426217901
 30
0.0
 10
233.8895475671364
 20
213.1568994001466
 30
0.0
 10
236.4000016539239
 20
213.1398281406469
 30
0.0
  0
SPLINE
  5
142
330
1F
100
AcDbEntity
  8
0
  6
Continuous
 62
     7
370
    30
100
AcDbSpline
210
0.0
220
0.0
230
1.0
 70
     8
 71
     3
 72
     9
 73
     5
 74
     0
 42
0.000000001
 43
0.00000001
 40
0.0
 40
0.0
 40
0.0
 40
0.0
 40
0.3763789801395683
 40
1.0
 40
1.0
 40
1.0
 40
1.0
 10
374.3999941444189
 20
213.2254969734198
 30
0.0
 10
375.8332104658568
 20
213.2365788951862
 30
0.0
 10
379.6411179130432
 20
213.2660224144876
 30
0.0
 10
383.4489875564867
 20
213.3000303968883
 30
0.0
 10
385.8236551070264
 20
213.3212384895564
 30
0.0
  0
SPLINE
  5
143
330
1F
100
AcDbEntity
  8
0
  6
Continuous
 62
     7
370
    30
100
AcDbSpline
210
0.0
220
0.0
230
1.0
 70
     8
 71
     3
 72
    11
 73
     7
 74
     0
 42
0.000000001
 43
0.00000001
 40
0.0
 40
0.0
 40
0.0
 40
0.0
 40
0.3229206850300237
 40
0.6458407712621339
 40
0.9687604906773588
 40
0.9999999999999999
 40
0.9999999999999999
 40
0.9999999999999999
 40
0.9999999999999999
 10
299.4999999999999
 20
212.931420222045
 30
0.0
 10
302.2017729419849
 20
212.9320438235754
 30
0.0
 10
307.6053138160063
 20
212.9332910254797
 30
0.0
 10
315.7106118326271
 20
212.9445465663151
 30
0.0
 10
321.3755072698344
 20
212.9549853045074
 30
0.0
 10
324.3386294915589
 20
212.9638763627075
 30
0.0
 10
324.5999991715178
 20
212.9646606209535
 30
0.0
  0
SPLINE
  5
144
330
1F
100
AcDbEntity
  8
0
  6
Continuous
 62
     7
370
    30
100
AcDbSpline
210
0.0
220
0.0
230
1.0
 70
     8
 71
     3
 72
    32
 73
    28
 74
     0
 42
0.000000001
 43
0.00000001
 40
0.0
 40
0.0
 40
0.0
 40
0.0
 40
0.038504720303739
 40
0.0793832796690548
 40
0.1181073350546647
 40
0.1557216517248865
 40
0.1922316183696322
 40
0.2365239207899741
 40
0.2805214494340902
 40
0.3244199854940811
 40
0.3682198021943214
 40
0.393207200109399
 40
0.4188465784030489
 40
0.4477722749922122
 40
0.4802448207637279
 40
0.5162638951082703
 40
0.5558290459197283
 40
0.5989397022719043
 40
0.6395715046125688
 40
0.6829174510611121
 40
0.7289774075827958
 40
0.7777514532641263
 40
0.8187288111382786
 40
0.861443734327055
 40
0.9058956142709408
 40
0.9520825297334017
 40
1.0
 40
1.0
 40
1.0
 40
1.0
 10
212.1857016427755
 20
214.3046735406832
 30
0.0
 10
212.1862810828171
 20
214.2848429053529
 30
0.0
 10
212.1874756857256
 20
214.2439590641505
 30
0.0
 10
212.1942803291931
 20
214.183441566032
 30
0.0
 10
212.2043539926533
 20
214.1238881861741
 30
0.0
 10
212.2175065486409
 20
214.0672335457251
 30
0.0
 10
212.2346658976514
 20
214.0086738190287
 30
0.0
 10
212.2565834772913
 20
213.9481899716023
 30
0.0
 10
212.2841134778806
 20
213.8858613030901
 30
0.0
 10
212.3156947871272
 20
213.8257717738722
 30
0.0
 10
212.3461403378752
 20
213.7763014115734
 30
0.0
 10
212.3738017752646
 20
213.7362850670992
 30
0.0
 10
212.3984071962126
 20
213.7035070596162
 30
0.0
 10
212.4268163639724
 20
213.668808595369
 30
0.0
 10
212.4604210814
 20
213.6315192574764
 30
0.0
 10
212.4998338121403
 20
213.5921814600711
 30
0.0
 10
212.5455776754789
 20
213.5515651926057
 30
0.0
 10
212.5957014307411
 20
213.5124827911354
 30
0.0
 10
212.6498512964493
 20
213.4756298167093
 30
0.0
 10
212.7075928120785
 20
213.4415894957407
 30
0.0
 10
212.7713062940749
 20
213.4097391612922
 30
0.0
 10
212.8360631089094
 20
213.3831019988733
 30
0.0
 10
212.900852793988
 20
213.3615791850563
 30
0.0
 10
212.9647502640048
 20
213.3448316742635
 30
0.0
 10
213.0322712998913
 20
213.332015493459
 30
0.0
 10
213.1031930486804
 20
213.3232701822349
 30
0.0
 10
213.1516629045059
 20
213.3218017457497
 30
0.0
 10
213.1763435063434
 20
213.3210540254275
 30
0.0
  0
SPLINE
  5
145
330
1F
100
AcDbEntity
  8
0
  6
Continuous
 62
     7
370
    30
100
AcDbSpline
210
0.0
220
0.0
230
1.0
 70
     8
 71
     3
 72
    35
 73
    31
 74
     0
 42
0.000000001
 43
0.00000001
 40
0.0
 40
0.0
 40
0.0
 40
0.0
 40
0.0543952800743086
 40
0.1060037492307667
 40
0.1548195538487113
 40
0.2008405676597845
 40
0.2440662625802758
 40
0.2844966313556487
 40
0.3221317171779067
 40
0.3569714622849277
 40
0.3933641115722014
 40
0.4261054513512311
 40
0.4552397014300007
 40
0.4832839146334566
 40
0.511691730526684
 40
0.5404630569777032
 40
0.5695977998716383
 40
0.6214484938390812
 40
0.6744110345300296
 40
0.7276167044171885
 40
0.7782711554129756
 40
0.8000724499939075
 40
0.8213189977419662
 40
0.8420107808409287
 40
0.8621477880863694
 40
0.8838851121464534
 40
0.9088561468640413
 40
0.9374155997827422
 40
0.9695618805867847
 40
1.0
 40
1.0
 40
1.0
 40
1.0
 10
385.8236564952221
 20
213.3210540255681
 30
0.0
 10
385.8516749010275
 20
213.3219827950584
 30
0.0
 10
385.9062762572261
 20
213.3237927507754
 30
0.0
 10
385.9853969997251
 20
213.3347337709871
 30
0.0
 10
386.0592331975824
 20
213.3504132410607
 30
0.0
 10
386.1275577657958
 20
213.3703635386592
 30
0.0
 10
386.1902824001029
 20
213.3934559159578
 30
0.0
 10
386.2474255860488
 20
213.4188073234758
 30
0.0
 10
386.299093230895
 20
213.4455680920056
 30
0.0
 10
386.3473856717664
 20
213.4741183131557
 30
0.0
 10
386.3919405269719
 20
213.5038830027202
 30
0.0
 10
386.4324841943944
 20
213.5342184034731
 30
0.0
 10
386.4682121686832
 20
213.5637142087416
 30
0.0
 10
386.5009454735228
 20
213.5932612329318
 30
0.0
 10
386.5322274050851
 20
213.6240752430557
 30
0.0
 10
386.5625022143962
 20
213.6566520744851
 30
0.0
 10
386.5991083170221
 20
213.6997534945675
 30
0.0
 10
386.6404433545101
 20
213.7550914361377
 30
0.0
 10
386.6837628727184
 20
213.8241018084858
 30
0.0
 10
386.720996316208
 20
213.8958842346503
 30
0.0
 10
386.7461189609267
 20
213.9556121774308
 30
0.0
 10
386.7623123136848
 20
214.0010849273384
 30
0.0
 10
386.7722924557784
 20
214.0323680138561
 30
0.0
 10
386.7810183946689
 20
214.0631327791301
 30
0.0
 10
386.7888306183557
 20
214.0944027167783
 30
0.0
 10
386.7960887997544
 20
214.1280649951603
 30
0.0
 10
386.8029004143242
 20
214.1662411792176
 30
0.0
 10
386.8087958741201
 20
214.2099842613162
 30
0.0
 10
386.8131130216048
 20
214.2567628906486
 30
0.0
 10
386.8139438835773
 20
214.288994524112
 30
0.0
 10
386.8143479759046
 20
214.3046704801783
 30
0.0
  0
LINE
  5
146
330
1F
100
AcDbEntity
  8
0
  6
Continuous
 62
     7
370
    30
100
AcDbLine
 10
249.5
 20
212.8904245069
 30
0.0
 11
264.5
 21
212.8904245069
 31
0.0
  0
LINE
  5
147
330
1F
100
AcDbEntity
  8
0
  6
Continuous
 62
     7
370
    30
100
AcDbLine
 10
234.5
 20
212.8904245069
 30
0.0
 11
249.5
 21
212.8904245069
 31
0.0
  0
LINE
  5
148
330
1F
100
AcDbEntity
  8
0
  6
Continuous
 62
     7
370
    30
100
AcDbLine
 10
249.5
 20
164.8904245069
 30
0.0
 11
263.5
 21
164.8904245069
 31
0.0
  0
LINE
  5
149
330
1F
100
AcDbEntity
  8
0
  6
Continuous
 62
     7
370
    30
100
AcDbLine
 10
235.5
 20
164.8904245069
 30
0.0
 11
249.5
 21
164.8904245069
 31
0.0
  0
SPLINE
  5
14A
330
1F
100
AcDbEntity
  8
0
  6
Continuous
 62
     7
370
    30
100
AcDbSpline
210
0.0
220
0.0
230
1.0
 70
    24
 71
     3
 72
   213
 73
   209
 74
     0
 42
0.000000001
 43
0.00000001
 40
0.0
 40
0.0
 40
0.0
 40
0.0
 40
0.0028426309320747
 40
0.0081798094763219
 40
0.0135159736167509
 40
0.0188526337889084
 40
0.0240959425330408
 40
0.0293426152895787
 40
0.034594078280945
 40
0.0398517538312978
 40
0.0455264976468477
 40
0.051194749629977
 40
0.0568583035550493
 40
0.0625189576626577
 40
0.0681785129575191
 40
0.0738387714932253
 40
0.0776521109243992
 40
0.0814671360778999
 40
0.0852843959237464
 40
0.0891044384685297
 40
0.0929278105223023
 40
0.0968886183958034
 40
0.1009027465096765
 40
0.1065170948214998
 40
0.1121267263860282
 40
0.1177333893898755
 40
0.123338834797097
 40
0.1289448147126556
 40
0.1351140836225094
 40
0.141288447004049
 40
0.1429066971365104
 40
0.1445254976937114
 40
0.1461448902722817
 40
0.1477649164232478
 40
0.1493856176489064
 40
0.1510070353997153
 40
0.1571789633365377
 40
0.1633424586761668
 40
0.1694998261656412
 40
0.1756533774373664
 40
0.1818054284255795
 40
0.1879582967586337
 40
0.1927948049384138
 40
0.197634370255801
 40
0.2024781128923454
 40
0.2073271501345765
 40
0.2122200075121305
 40
0.2171539175077187
 40
0.2230677153815113
 40
0.2289759449323538
 40
0.2348806491506051
 40
0.2407838746867701
 40
0.2466876697291847
 40
0.2524885783872015
 40
0.2582939488293942
 40
0.2641057139054371
 40
0.2699258000940369
 40
0.2753110192508952
 40
0.2806894346672839
 40
0.2860625750635537
 40
0.2914319736656069
 40
0.2967991669060597
 40
0.3021656931117086
 40
0.3075330911828781
 40
0.3134400570093765
 40
0.3193519832435784
 40
0.3252709090556815
 40
0.3311751487527163
 40
0.3369928334540881
 40
0.3428033245884558
 40
0.3486085547215059
 40
0.3544104616761108
 40
0.3602109866057382
 40
0.3660120720512116
 40
0.3702677096210943
 40
0.3745254580768558
 40
0.378786081355644
 40
0.3804608611566545
 40
0.3821362484717362
 40
0.3838122893982741
 40
0.3854890299797454
 40
0.3871665162020151
 40
0.3888447939896549
 40
0.3948077463036213
 40
0.4007631238742404
 40
0.4067130063651755
 40
0.4126594792054857
 40
0.4186046314123232
 40
0.424550553394799
 40
0.4285564650750224
 40
0.4325643112806118
 40
0.43657472868291
 40
0.4405883527296718
 40
0.444605817347055
 40
0.4484871732594773
 40
0.4523074494604356
 40
0.4576511833974901
 40
0.462990885920307
 40
0.4683280644645743
 40
0.4736642286050087
 40
0.4790008887771566
 40
0.4842441975212647
 40
0.4894908702777636
 40
0.4947423332690759
 40
0.5000000088193597
 40
0.5056747526347117
 40
0.511343004617689
 40
0.5170065585426556
 40
0.5226672126502047
 40
0.528326767945053
 40
0.5339870264807925
 40
0.5378003659120149
 40
0.541615391065585
 40
0.5454326509115219
 40
0.5492526934564165
 40
0.5530760655103213
 40
0.5570368733838761
 40
0.5610510014977621
 40
0.5666653498095999
 40
0.5722749813741383
 40
0.5778816443779912
 40
0.583487089785214
 40
0.5890930697007704
 40
0.5952623386106168
 40
0.6014367019921445
 40
0.603054952124602
 40
0.6046737526817989
 40
0.6062931452603649
 40
0.6079131714113264
 40
0.6095338726369799
 40
0.6111552903877834
 40
0.617327218324588
 40
0.6234907136642038
 40
0.6296480811536692
 40
0.6358016324253895
 40
0.6419536834136013
 40
0.6481065517466585
 40
0.652943059926443
 40
0.6577826252438365
 40
0.662626367880389
 40
0.6674754051226301
 40
0.6723682625000611
 40
0.6773021724954045
 40
0.6832159703689658
 40
0.6891241999196457
 40
0.6950289041378034
 40
0.7009321296739439
 40
0.7068359247164031
 40
0.7126368333745307
 40
0.7184422038169006
 40
0.7242539688931868
 40
0.7300740550820954
 40
0.7354592742388155
 40
0.7408376896550928
 40
0.7462108300512783
 40
0.7515802286532743
 40
0.7569474218936973
 40
0.762313948099344
 40
0.767681346170539
 40
0.7735883119970975
 40
0.7795002382313931
 40
0.7854191640436238
 40
0.7913234037408132
 40
0.7971410884423116
 40
0.8029515795767767
 40
0.808756809709895
 40
0.8145587166645394
 40
0.8203592415941772
 40
0.8261603270396318
 40
0.8304159646094823
 40
0.8346737130651961
 40
0.8389343363439214
 40
0.8406091161449029
 40
0.8422845034599531
 40
0.8439605443864573
 40
0.8456372849678925
 40
0.8473147711901237
 40
0.8489930489777227
 40
0.8549560012917357
 40
0.8609113788623907
 40
0.8668612613533508
 40
0.8728077341936753
 40
0.878752886400516
 40
0.8846988083829843
 40
0.888704720063196
 40
0.8927125662687683
 40
0.8967229836710443
 40
0.9007366077177789
 40
0.9047540723351293
 40
0.908635428247607
 40
0.9124557044486469
 40
0.9177994383857921
 40
0.9231391409086728
 40
0.9284763194529767
 40
0.9338124835934206
 40
0.9391491437655513
 40
0.9443924525096165
 40
0.9496391252660465
 40
0.9548905882572648
 40
0.960148263807429
 40
0.965823007622959
 40
0.9714912596060731
 40
0.9771548135311351
 40
0.9828154676387378
 40
0.9884750229335979
 40
0.9941352814693074
 40
0.9979486209004859
 40
1.0
 40
1.0
 40
1.0
 40
1.0
 10
326.2507149515117
 20
124.0708509292693
 30
0.0
 10
326.2505703965238
 20
124.0708509292693
 30
0.0
 10
326.2501544324794
 20
124.0708509292693
 30
0.0
 10
326.2566373756679
 20
124.0708509292693
 30
0.0
 10
326.2696587951436
 20
124.0708509292693
 30
0.0
 10
326.2894422780191
 20
124.0708509292693
 30
0.0
 10
326.3154401767761
 20
124.0708509292693
 30
0.0
 10
326.3476271844867
 20
124.0708509292693
 30
0.0
 10
326.3861314417959
 20
124.0708509292693
 30
0.0
 10
326.4321223723213
 20
124.0708509292693
 30
0.0
 10
326.486135100969
 20
124.0708509292693
 30
0.0
 10
326.5487545364199
 20
124.0708509292693
 30
0.0
 10
326.6185947271896
 20
124.0708509292693
 30
0.0
 10
326.695656243926
 20
124.0708509292693
 30
0.0
 10
326.7799387784892
 20
124.0708509292693
 30
0.0
 10
326.8614779850258
 20
124.0708509292693
 30
0.0
 10
326.9377765181702
 20
124.0708509292693
 30
0.0
 10
327.0067389554995
 20
124.0708509292693
 30
0.0
 10
327.0789760232739
 20
124.0708509292693
 30
0.0
 10
327.154487639961
 20
124.0708509292693
 30
0.0
 10
327.2341916037537
 20
124.0708509292693
 30
0.0
 10
327.3185672824243
 20
124.0708509292693
 30
0.0
 10
327.4196846648012
 20
124.0708509292693
 30
0.0
 10
327.5383920926831
 20
124.0708509292693
 30
0.0
 10
327.67633443097
 20
124.0708509292693
 30
0.0
 10
327.8209959113166
 20
124.0708509292693
 30
0.0
 10
327.9723763731413
 20
124.0708509292693
 30
0.0
 10
328.1357489381465
 20
124.0708509292693
 30
0.0
 10
328.3119232080411
 20
124.0708509292693
 30
0.0
 10
328.4549740902464
 20
124.0708509292694
 30
0.0
 10
328.5539280117859
 20
124.0708509292692
 30
0.0
 10
328.6055301177705
 20
124.0708509292694
 30
0.0
 10
328.6576897000395
 20
124.0708509292693
 30
0.0
 10
328.7104067762929
 20
124.0708509292693
 30
0.0
 10
328.7636814275469
 20
124.0708509292693
 30
0.0
 10
328.8678642355277
 20
124.0708509292693
 30
0.0
 10
329.0259961758861
 20
124.0708509292693
 30
0.0
 10
329.243178302764
 20
124.0708509292693
 30
0.0
 10
329.4677335714379
 20
124.0708509292693
 30
0.0
 10
329.6996614043686
 20
124.0708509292693
 30
0.0
 10
329.9389615857184
 20
124.0708509292693
 30
0.0
 10
330.1680040493778
 20
124.0708509292693
 30
0.0
 10
330.3850514581251
 20
124.0708509292693
 30
0.0
 10
330.5885734534265
 20
124.0708509292693
 30
0.0
 10
330.7966456925332
 20
124.0708509292693
 30
0.0
 10
331.0098161222776
 20
124.0708509292693
 30
0.0
 10
331.2286191213247
 20
124.0708509292693
 30
0.0
 10
331.4679138039031
 20
124.0708509292693
 30
0.0
 10
331.7280295025276
 20
124.0708509292693
 30
0.0
 10
332.0093461584289
 20
124.0708509292694
 30
0.0
 10
332.2965350849203
 20
124.0708509292693
 30
0.0
 10
332.5895958848049
 20
124.0708509292693
 30
0.0
 10
332.8867481378543
 20
124.0708509292693
 30
0.0
 10
333.1878689342034
 20
124.0708509292693
 30
0.0
 10
333.4928407278742
 20
124.0708509292694
 30
0.0
 10
333.8034762889085
 20
124.0708509292693
 30
0.0
 10
334.1117123318334
 20
124.0708509292693
 30
0.0
 10
334.416757906142
 20
124.0708509292693
 30
0.0
 10
334.7178765966161
 20
124.0708509292693
 30
0.0
 10
335.0229128109423
 20
124.0708509292693
 30
0.0
 10
335.3318668765044
 20
124.0708509292693
 30
0.0
 10
335.6447385862741
 20
124.0708509292693
 30
0.0
 10
335.9615280229691
 20
124.0708509292693
 30
0.0
 10
336.2929321392344
 20
124.0708509292693
 30
0.0
 10
336.6394262762151
 20
124.0708509292693
 30
0.0
 10
337.0014795092688
 20
124.0708509292693
 30
0.0
 10
337.3677838375045
 20
124.0708509292693
 30
0.0
 10
337.7362770003489
 20
124.0708509292693
 30
0.0
 10
338.1064505932248
 20
124.0708509292693
 30
0.0
 10
338.4783255440252
 20
124.0708509292693
 30
0.0
 10
338.8535351702775
 20
124.0708509292693
 30
0.0
 10
339.2320798760337
 20
124.0708509292693
 30
0.0
 10
339.6139589838791
 20
124.0708509292693
 30
0.0
 10
339.9649145398006
 20
124.0708509292693
 30
0.0
 10
340.2839788007432
 20
124.0708509292693
 30
0.0
 10
340.5703589520995
 20
124.0708509292693
 30
0.0
 10
340.800155311616
 20
124.0708509292693
 30
0.0
 10
340.972373311933
 20
124.0708509292693
 30
0.0
 10
341.0863426586416
 20
124.0708509292693
 30
0.0
 10
341.200588650922
 20
124.0708509292693
 30
0.0
 10
341.3151113126472
 20
124.0708509292693
 30
0.0
 10
341.429910768322
 20
124.0708509292693
 30
0.0
 10
341.6428966208314
 20
124.0708509292693
 30
0.0
 10
341.9550132365196
 20
124.0708509292693
 30
0.0
 10
342.3678195443737
 20
124.0708509292693
 30
0.0
 10
342.7827416911241
 20
124.0708509292693
 30
0.0
 10
343.1997784925039
 20
124.0708509292693
 30
0.0
 10
343.6189294812207
 20
124.0708509292693
 30
0.0
 10
343.9943182078835
 20
124.0708509292693
 30
0.0
 10
344.3252061631272
 20
124.0708509292693
 30
0.0
 10
344.6110387364918
 20
124.0708509292693
 30
0.0
 10
344.8978298819773
 20
124.0708509292693
 30
0.0
 10
345.1855798457037
 20
124.0708509292693
 30
0.0
 10
345.4709212173794
 20
124.0708509292693
 30
0.0
 10
345.7522393082669
 20
124.0708509292693
 30
0.0
 10
346.0660106101526
 20
124.0708509292693
 30
0.0
 10
346.4156198470223
 20
124.0708509292693
 30
0.0
 10
346.8026623118415
 20
124.0708509292693
 30
0.0
 10
347.1902833287697
 20
124.0708509292693
 30
0.0
 10
347.5784823792923
 20
124.0708509292693
 30
0.0
 10
347.9649441836009
 20
124.0708509292693
 30
0.0
 10
348.3496556662352
 20
124.0708509292693
 30
0.0
 10
348.7326083970963
 20
124.0708509292693
 30
0.0
 10
349.1161185278927
 20
124.0708509292693
 30
0.0
 10
349.5101543095389
 20
124.0708509292693
 30
0.0
 10
349.9143393135387
 20
124.0708509292694
 30
0.0
 10
350.3282758070366
 20
124.0708509292693
 30
0.0
 10
350.7416078909296
 20
124.0708509292693
 30
0.0
 10
351.1543354765392
 20
124.0708509292693
 30
0.0
 10
351.5664579110427
 20
124.0708509292693
 30
0.0
 10
351.9331621861111
 20
124.0708509292693
 30
0.0
 10
352.2546510817461
 20
124.0708509292693
 30
0.0
 10
352.5311568061232
 20
124.0708509292693
 30
0.0
 10
352.8073879829035
 20
124.0708509292693
 30
0.0
 10
353.0833449103849
 20
124.0708509292692
 30
0.0
 10
353.3622372488675
 20
124.0708509292693
 30
0.0
 10
353.6452159557176
 20
124.0708509292693
 30
0.0
 10
353.9704153889786
 20
124.0708509292693
 30
0.0
 10
354.3340096288424
 20
124.0708509292693
 30
0.0
 10
354.7340996589551
 20
124.0708509292693
 30
0.0
 10
355.1323502992682
 20
124.0708509292693
 30
0.0
 10
355.5287610321693
 20
124.0708509292693
 30
0.0
 10
355.9364921126868
 20
124.0708509292693
 30
0.0
 10
356.3553288618386
 20
124.0708509292693
 30
0.0
 10
356.6791718217594
 20
124.0708509292693
 30
0.0
 10
356.8965844646138
 20
124.0708509292693
 30
0.0
 10
357.008582437129
 20
124.0708509292693
 30
0.0
 10
357.1204276570068
 20
124.0708509292693
 30
0.0
 10
357.2321202082072
 20
124.0708509292693
 30
0.0
 10
357.3436601519243
 20
124.0708509292693
 30
0.0
 10
357.5592314888599
 20
124.0708509292693
 30
0.0
 10
357.8774238901297
 20
124.0708509292693
 30
0.0
 10
358.2958910906784
 20
124.0708509292693
 30
0.0
 10
358.7106502256186
 20
124.0708509292693
 30
0.0
 10
359.1216996506283
 20
124.0708509292693
 30
0.0
 10
359.5290391937633
 20
124.0708509292693
 30
0.0
 10
359.9038205935249
 20
124.0708509292693
 30
0.0
 10
360.2469064145681
 20
124.0708509292693
 30
0.0
 10
360.559129471464
 20
124.0708509292693
 30
0.0
 10
360.8690624237979
 20
124.0708509292693
 30
0.0
 10
361.1774958304426
 20
124.0708509292693
 30
0.0
 10
361.485111190831
 20
124.0708509292693
 30
0.0
 10
361.8120163245092
 20
124.0708509292693
 30
0.0
 10
362.1563467932692
 20
124.0708509292693
 30
0.0
 10
362.5162615063122
 20
124.0708509292693
 30
0.0
 10
362.8714684113438
 20
124.0708509292693
 30
0.0
 10
363.2219671234902
 20
124.0708509292693
 30
0.0
 10
363.5656981089053
 20
124.0708509292693
 30
0.0
 10
363.9027577823946
 20
124.0708509292693
 30
0.0
 10
364.2332467606643
 20
124.0708509292693
 30
0.0
 10
364.5591935504879
 20
124.0708509292693
 30
0.0
 10
364.8724070141897
 20
124.0708509292693
 30
0.0
 10
365.1729835305897
 20
124.0708509292693
 30
0.0
 10
365.4609989829785
 20
124.0708509292693
 30
0.0
 10
365.7441849364419
 20
124.0708509292693
 30
0.0
 10
366.0225411333403
 20
124.0708509292693
 30
0.0
 10
366.2960675255031
 20
124.0708509292693
 30
0.0
 10
366.564764114589
 20
124.0708509292693
 30
0.0
 10
366.8374320734572
 20
124.0708509292693
 30
0.0
 10
367.1134948995576
 20
124.0708509292693
 30
0.0
 10
367.3923331213425
 20
124.0708509292693
 30
0.0
 10
367.6649608638023
 20
124.0708509292693
 30
0.0
 10
367.9299463464561
 20
124.0708509292693
 30
0.0
 10
368.1871207638628
 20
124.0708509292694
 30
0.0
 10
368.4366263454432
 20
124.0708509292692
 30
0.0
 10
368.6796009394691
 20
124.0708509292694
 30
0.0
 10
368.9160439532175
 20
124.0708509292693
 30
0.0
 10
369.1459552150986
 20
124.0708509292693
 30
0.0
 10
369.3494689128696
 20
124.0708509292693
 30
0.0
 10
369.5284586794806
 20
124.0708509292693
 30
0.0
 10
369.6845953711628
 20
124.0708509292693
 30
0.0
 10
369.8063019728081
 20
124.0708509292693
 30
0.0
 10
369.8956655243194
 20
124.0708509292693
 30
0.0
 10
369.9541184570645
 20
124.0708509292694
 30
0.0
 10
370.0120294049441
 20
124.0708509292693
 30
0.0
 10
370.0693984127876
 20
124.0708509292693
 30
0.0
 10
370.1262254342949
 20
124.0708509292693
 30
0.0
 10
370.2303998460071
 20
124.0708509292693
 30
0.0
 10
370.3788927390078
 20
124.0708509292694
 30
0.0
 10
370.5667416704188
 20
124.0708509292693
 30
0.0
 10
370.747050477969
 20
124.0708509292693
 30
0.0
 10
370.9198181720413
 20
124.0708509292693
 30
0.0
 10
371.0850447277101
 20
124.0708509292693
 30
0.0
 10
371.2255578145309
 20
124.0708509292693
 30
0.0
 10
371.3439612846366
 20
124.0708509292693
 30
0.0
 10
371.442479601332
 20
124.0708509292693
 30
0.0
 10
371.5375780966072
 20
124.0708509292693
 30
0.0
 10
371.6292569992086
 20
124.0708509292693
 30
0.0
 10
371.716486442473
 20
124.0708509292693
 30
0.0
 10
371.798944330073
 20
124.0708509292693
 30
0.0
 10
371.8870649317822
 20
124.0708509292693
 30
0.0
 10
371.9801553555156
 20
124.0708509292693
 30
0.0
 10
372.0766484079682
 20
124.0708509292693
 30
0.0
 10
372.1667308855101
 20
124.0708509292693
 30
0.0
 10
372.2504026225284
 20
124.0708509292693
 30
0.0
 10
372.3272035226576
 20
124.0708509292693
 30
0.0
 10
372.3972663295842
 20
124.0708509292693
 30
0.0
 10
372.4607236432981
 20
124.0708509292693
 30
0.0
 10
372.5179968389421
 20
124.0708509292693
 30
0.0
 10
372.5704136057741
 20
124.0708509292693
 30
0.0
 10
372.617343202796
 20
124.0708509292693
 30
0.0
 10
372.658100084094
 20
124.0708509292693
 30
0.0
 10
372.6914908273849
 20
124.0708509292693
 30
0.0
 10
372.717488409643
 20
124.0708509292693
 30
0.0
 10
372.7361917208004
 20
124.0708509292693
 30
0.0
 10
372.7460297967229
 20
124.0708509292693
 30
0.0
 10
372.7499515511777
 20
124.0708509292693
 30
0.0
 10
372.7497424439919
 20
124.0708509292693
 30
0.0
 10
372.7496693018438
 20
124.0708509292693
 30
0.0
  0
LINE
  5
14B
330
1F
100
AcDbEntity
  8
0
  6
Continuous
 62
     7
370
    30
100
AcDbLine
 10
385.00030461
 20
224.931737012
 30
0.0
 11
213.999695391
 21
224.931737012
 31
0.0
  0
LINE
  5
14C
330
1F
100
AcDbEntity
  8
0
  6
Continuous
 62
     7
370
    30
100
AcDbLine
 10
213.999695391
 20
224.931737012
 30
0.0
 11
211.9999999999
 21
224.931737012
 31
0.0
  0
LINE
  5
14D
330
1F
100
AcDbEntity
  8
0
  6
Continuous
 62
     7
370
    30
100
AcDbLine
 10
212.1853495595
 20
214.313067887
 30
0.0
 11
212.0
 21
224.931737012
 31
0.0
  0
LINE
  5
14E
330
1F
100
AcDbEntity
  8
0
  6
Continuous
 62
     7
370
    30
100
AcDbLine
 10
385.00030461
 20
224.931737012
 30
0.0
 11
387.0
 21
224.931737012
 31
0.0
  0
LINE
  5
14F
330
1F
100
AcDbEntity
  8
0
  6
Continuous
 62
     7
370
    30
100
AcDbLine
 10
387.0
 20
224.931737012
 30
0.0
 11
386.8146504409
 21
214.3130678869
 31
0.0
  0
SPLINE
  5
150
330
1F
100
AcDbEntity
  8
0
  6
Continuous
 62
     7
370
    30
100
AcDbSpline
210
0.0
220
0.0
230
1.0
 70
     8
 71
     3
 72
    31
 73
    27
 74
     0
 42
0.000000001
 43
0.00000001
 40
0.0
 40
0.0
 40
0.0
 40
0.0
 40
0.0416666666666667
 40
0.0833333333333332
 40
0.1249999999999998
 40
0.1666666666666666
 40
0.2083333333333334
 40
0.2500000000000002
 40
0.2916666666666668
 40
0.3333333333333334
 40
0.3750000000000002
 40
0.4166666666666666
 40
0.4583333333333332
 40
0.4999999999999999
 40
0.5416666666666671
 40
0.5833333333333333
 40
0.625
 40
0.6666666666666664
 40
0.7083333333333333
 40
0.7500000000000001
 40
0.7916666666666664
 40
0.8333333333333329
 40
0.8749999999999998
 40
0.9166666666666667
 40
0.9583333333333333
 40
0.9999999999999999
 40
0.9999999999999999
 40
0.9999999999999999
 40
0.9999999999999999
 10
236.3999999999997
 20
213.1396021879659
 30
0.0
 10
236.4216300098483
 20
213.1376995551142
 30
0.0
 10
236.4648900295455
 20
213.1338942894107
 30
0.0
 10
236.8128737778349
 20
213.1281863908555
 30
0.0
 10
237.3618449127923
 20
213.1224784923004
 30
0.0
 10
238.1228153156068
 20
213.1167705937452
 30
0.0
 10
239.0772970873218
 20
213.11106269519
 30
0.0
 10
240.2104237882129
 20
213.1053547966348
 30
0.0
 10
241.5024147585624
 20
213.0996468980797
 30
0.0
 10
242.9312688574504
 20
213.0939389995245
 30
0.0
 10
244.4725098116343
 20
213.0882311009693
 30
0.0
 10
246.0997741121147
 20
213.0825232024141
 30
0.0
 10
247.785216794847
 20
213.076815303859
 30
0.0
 10
249.4999999999997
 20
213.0711074053038
 30
0.0
 10
251.2147832051526
 20
213.0653995067486
 30
0.0
 10
252.9002258878847
 20
213.0596916081934
 30
0.0
 10
254.5274901883652
 20
213.0539837096383
 30
0.0
 10
256.0687311425492
 20
213.0482758110831
 30
0.0
 10
257.4975852414371
 20
213.0425679125279
 30
0.0
 10
258.7895762117867
 20
213.0368600139728
 30
0.0
 10
259.9227029126776
 20
213.0311521154176
 30
0.0
 10
260.8771846843927
 20
213.0254442168624
 30
0.0
 10
261.6381550872071
 20
213.0197363183072
 30
0.0
 10
262.1871262221646
 20
213.014028419752
 30
0.0
 10
262.5351099704539
 20
213.0083205211969
 30
0.0
 10
262.5783699901511
 20
213.0045152554934
 30
0.0
 10
262.5999999999997
 20
213.0026126226417
 30
0.0
  0
SPLINE
  5
151
330
1F
100
AcDbEntity
  8
0
  6
Continuous
 62
     7
370
    30
100
AcDbSpline
210
0.0
220
0.0
230
1.0
 70
     8
 71
     3
 72
    47
 73
    43
 74
     0
 42
0.000000001
 43
0.00000001
 40
0.0
 40
0.0
 40
0.0
 40
0.0
 40
0.0249998155263077
 40
0.0499996317368742
 40
0.0749994493245411
 40
0.0999992689821499
 40
0.124999091402542
 40
0.1499989172785585
 40
0.1749987473030394
 40
0.1999985821688252
 40
0.2249984225687565
 40
0.2499982691956725
 40
0.274998122742412
 40
0.2999979839018135
 40
0.3249978533667144
 40
0.3499977318299523
 40
0.3749976199843631
 40
0.3999975185227828
 40
0.4249974281380458
 40
0.449997349522986
 40
0.4749972833704357
 40
0.4999972303732272
 40
0.5249971912241905
 40
0.5499971666161557
 40
0.5749971572419507
 40
0.5999971637944025
 40
0.6249971869663368
 40
0.6499972274505783
 40
0.6749972859399493
 40
0.6999973631272715
 40
0.7249974597053643
 40
0.7499975763670462
 40
0.7749977138051339
 40
0.7999978727124422
 40
0.8249980537817836
 40
0.8499982577059695
 40
0.8749984851778093
 40
0.8999987368901102
 40
0.9249990135356777
 40
0.9499993158073149
 40
0.9749996443978226
 40
1.0
 40
1.0
 40
1.0
 40
1.0
 10
374.4000000000001
 20
213.2247455872822
 30
0.0
 10
374.3852126456175
 20
213.2247142678196
 30
0.0
 10
374.3556379364475
 20
213.2246516288936
 30
0.0
 10
374.1168978943496
 20
213.2241449766197
 30
0.0
 10
373.7374084947276
 20
213.2233362114554
 30
0.0
 10
373.2055340673386
 20
213.2221957033107
 30
0.0
 10
372.5282984789676
 20
213.2207313915451
 30
0.0
 10
371.7088737273928
 20
213.2189411488133
 30
0.0
 10
370.752580695313
 20
213.2168255451358
 30
0.0
 10
369.6652432077865
 20
213.2143844277762
 30
0.0
 10
368.4535843653972
 20
213.21161783766
 30
0.0
 10
367.1250692759854
 20
213.2085257638212
 30
0.0
 10
365.687890063151
 20
213.2051082091982
 30
0.0
 10
364.1509070437129
 20
213.2013651730037
 30
0.0
 10
362.5235963290032
 20
213.1972966554486
 30
0.0
 10
360.8159908044695
 20
213.1929026564763
 30
0.0
 10
359.0386184335672
 20
213.1881831761021
 30
0.0
 10
357.202437306496
 20
213.1831382143219
 30
0.0
 10
355.3187680914127
 20
213.1777677711367
 30
0.0
 10
353.3992242356671
 20
213.1720718465463
 30
0.0
 10
351.4556403658586
 20
213.1660504405507
 30
0.0
 10
349.4999993232053
 20
213.15970355315
 30
0.0
 10
347.5443582853978
 20
213.1530311843442
 30
0.0
 10
345.6007744300763
 20
213.1460333341331
 30
0.0
 10
343.6812305983076
 20
213.1387100025169
 30
0.0
 10
341.7975614164409
 20
213.1310611894955
 30
0.0
 10
339.9613803314795
 20
213.1230868950691
 30
0.0
 10
338.1840080111408
 20
213.1147871192367
 30
0.0
 10
336.4764025450978
 20
213.1061618620023
 30
0.0
 10
334.8490918961962
 20
213.0972111233508
 30
0.0
 10
333.3121089491991
 20
213.0879349033387
 30
0.0
 10
331.8749298146839
 20
213.0783332017552
 30
0.0
 10
330.546414808662
 20
213.0684060193873
 30
0.0
 10
329.3347560538476
 20
213.058153353297
 30
0.0
 10
328.2474186572439
 20
213.0475752144496
 30
0.0
 10
327.29112571827
 20
213.0366715619219
 30
0.0
 10
326.471701061747
 20
213.025442548442
 30
0.0
 10
325.7944655671504
 20
213.0138876040195
 30
0.0
 10
325.2625912380215
 20
213.002008855891
 30
0.0
 10
324.8831019212761
 20
212.989798365089
 30
0.0
 10
324.6443619930482
 20
212.9772857602904
 30
0.0
 10
324.6147873363417
 20
212.9686689018911
 30
0.0
 10
324.6
 20
212.9643604703639
 30
0.0
  0
LINE
  5
152
330
1F
100
AcDbEntity
  8
0
  6
Continuous
 62
     7
370
    30
100
AcDbLine
 10
212.185349559
 20
214.313067887
 30
0.0
 11
212.1855155097
 21
214.3035605877
 31
0.0
  0
LINE
  5
153
330
1F
100
AcDbEntity
  8
0
  6
Continuous
 62
     7
370
    30
100
AcDbLine
 10
386.814650441
 20
214.313067887
 30
0.0
 11
386.8144844905
 21
214.3035605877
 31
0.0
  0
LINE
  5
154
330
1F
100
AcDbEntity
  8
0
  6
Continuous
 62
     7
370
    30
100
AcDbLine
 10
453.456266663
 20
159.5034329965
 30
0.0
 11
453.456266663
 21
164.2653676823
 31
0.0
  0
LINE
  5
155
330
1F
100
AcDbEntity
  8
0
  6
Continuous
 62
     7
370
    30
100
AcDbLine
 10
432.478766663
 20
157.5571125559
 30
0.0
 11
432.478766663
 21
153.5295154047
 31
0.0
  0
LINE
  5
156
330
1F
100
AcDbEntity
  8
0
  6
Continuous
 62
     7
370
    30
100
AcDbLine
 10
453.433766663
 20
153.5295154047
 30
0.0
 11
453.433766663
 21
159.1068259397
 31
0.0
  0
SPLINE
  5
157
330
1F
100
AcDbEntity
  8
0
  6
Continuous
 62
     7
370
    30
100
AcDbSpline
210
0.0
220
0.0
230
1.0
 70
     8
 71
     3
 72
   136
 73
   132
 74
     0
 42
0.000000001
 43
0.00000001
 40
0.0
 40
0.0
 40
0.0
 40
0.0
 40
0.0004158463400911
 40
0.0078896595241444
 40
0.0153632723558909
 40
0.0228378423620802
 40
0.0303147258766657
 40
0.0377952628262952
 40
0.0452807682475162
 40
0.0527725239692732
 40
0.060271770517566
 40
0.0677796992974836
 40
0.0752974451108151
 40
0.0828260790710847
 40
0.0903666019804236
 40
0.0979199382356315
 40
0.1054869303318461
 40
0.1130683340323306
 40
0.1206648142711346
 40
0.128276941851216
 40
0.1359051909946406
 40
0.1435499377923298
 40
0.1512114595898499
 40
0.1588899353318647
 40
0.1665854468723016
 40
0.174297981239928
 40
0.1820274338305557
 40
0.1897736124786053
 40
0.1975362423419289
 40
0.2053149715172803
 40
0.2131093772880959
 40
0.2209189728938875
 40
0.2287432147012549
 40
0.2365815096506831
 40
0.2444332228514768
 40
0.252297685199063
 40
0.2601742008944175
 40
0.2680620547543766
 40
0.2759605192129981
 40
0.2838688609281516
 40
0.2917863469223572
 40
0.2997122502031457
 40
0.3076458548241782
 40
0.3155864603636472
 40
0.3235333858114218
 40
0.3314859728689222
 40
0.3394435886776753
 40
0.3474056280014046
 40
0.355371514894647
 40
0.363340703896115
 40
0.3713126807891927
 40
0.3792869629740925
 40
0.3872630994970767
 40
0.3952406707816904
 40
0.4032192881056652
 40
0.4111985928648901
 40
0.4191782556632481
 40
0.4271579069148939
 40
0.4351372551949551
 40
0.4431160603952241
 40
0.4510941064556848
 40
0.4590712000470517
 40
0.4670471692437053
 40
0.4750218622066185
 40
0.4829951458887111
 40
0.4909669047725168
 40
0.4989370396483025
 40
0.5069054664384426
 40
0.5148721150727454
 40
0.5228369284175938
 40
0.5307998612609096
 40
0.5387608793538464
 40
0.5467199585092235
 40
0.5546770837562182
 40
0.5626322485501121
 40
0.5705854540356449
 40
0.5785367083620404
 40
0.5864860260476902
 40
0.5944334273922267
 40
0.6023789379335229
 40
0.6103225879473955
 40
0.6182644119874061
 40
0.6262044484624202
 40
0.6341427392495517
 40
0.6420793293401492
 40
0.6500142665166099
 40
0.657947601057883
 40
0.665879385471543
 40
0.67380967425054
 40
0.6817385236527771
 40
0.689665991501705
 40
0.6975921370063483
 40
0.7055170205991167
 40
0.7134407037900946
 40
0.7213632490362739
 40
0.7292847196246157
 40
0.7372051795676057
 40
0.7451246935102993
 40
0.7530433266477728
 40
0.7609611446519788
 40
0.7688782136072037
 40
0.776794599953095
 40
0.784710370434699
 40
0.7926255920585833
 40
0.8005403320543902
 40
0.8084546578411886
 40
0.8163686369980192
 40
0.8242823372379082
 40
0.8321958263849728
 40
0.8401091723539008
 40
0.848022443131397
 40
0.8559357067589604
 40
0.863849019414528
 40
0.871762438412015
 40
0.8796760318678658
 40
0.8875898678939564
 40
0.8955040145801785
 40
0.9034185399758854
 40
0.9113335120692746
 40
0.919248998764469
 40
0.9271650678554373
 40
0.9350817869964533
 40
0.9429992236682785
 40
0.9509174451395934
 40
0.9588365184229392
 40
0.9667565102244584
 40
0.974677486886705
 40
0.9825995143237141
 40
0.9905226579474736
 40
0.9980302031385399
 40
1.0
 40
1.0
 40
1.0
 40
1.0
 10
425.5585316682453
 20
182.8003307485207
 30
0.0
 10
425.5563783158714
 20
182.799119684575
 30
0.0
 10
425.5155237611296
 20
182.7761427306553
 30
0.0
 10
425.4374163625887
 20
182.7288791886669
 30
0.0
 10
425.3243765233221
 20
182.6583552723638
 30
0.0
 10
425.2131413299355
 20
182.5848543138582
 30
0.0
 10
425.1035081657887
 20
182.5087770614541
 30
0.0
 10
424.9955545730097
 20
182.4300314922891
 30
0.0
 10
424.8892829644178
 20
182.3486572330985
 30
0.0
 10
424.7847162097038
 20
182.2646584376055
 30
0.0
 10
424.6818720670818
 20
182.1780486909668
 30
0.0
 10
424.5807700914576
 20
182.0888390720157
 30
0.0
 10
424.4814298211841
 20
181.9970414713416
 30
0.0
 10
424.3838712931283
 20
181.9026678252825
 30
0.0
 10
424.2881149208576
 20
181.8057304531309
 30
0.0
 10
424.1941815311574
 20
181.7062421037712
 30
0.0
 10
424.1020923450083
 20
181.604216083947
 30
0.0
 10
424.0118689601668
 20
181.4996663661163
 30
0.0
 10
423.9235333199001
 20
181.3926077010111
 30
0.0
 10
423.8371076721282
 20
181.283055725748
 30
0.0
 10
423.752614518165
 20
181.171027067461
 30
0.0
 10
423.6700765518677
 20
181.056539439962
 30
0.0
 10
423.5895165898377
 20
180.9396117316492
 30
0.0
 10
423.5109574936366
 20
180.8202640828211
 30
0.0
 10
423.4344220851577
 20
180.6985179507791
 30
0.0
 10
423.3599330564963
 20
180.5743961613226
 30
0.0
 10
423.2875128758175
 20
180.4479229455365
 30
0.0
 10
423.2171836908503
 20
180.3191239611088
 30
0.0
 10
423.1489672317123
 20
180.1880262977841
 30
0.0
 10
423.0828847148051
 20
180.0546584669522
 30
0.0
 10
423.018956749489
 20
179.9190503757647
 30
0.0
 10
422.9572032491749
 20
179.7812332865553
 30
0.0
 10
422.8976433483344
 20
179.6412397626921
 30
0.0
 10
422.8402953267563
 20
179.4991036023004
 30
0.0
 10
422.785176542162
 20
179.3548597615462
 30
0.0
 10
422.7323033720468
 20
179.2085442693618
 30
0.0
 10
422.6816911653543
 20
179.0601941356097
 30
0.0
 10
422.6333542043227
 20
178.9098472547344
 30
0.0
 10
422.5873056765772
 20
178.7575423069179
 30
0.0
 10
422.5435576572983
 20
178.6033186586834
 30
0.0
 10
422.502121101068
 20
178.4472162647381
 30
0.0
 10
422.4630058428057
 20
178.2892755726705
 30
0.0
 10
422.4262206070472
 20
178.1295374318949
 30
0.0
 10
422.3917730246989
 20
177.9680430080011
 30
0.0
 10
422.3596696563202
 20
177.8048337034186
 30
0.0
 10
422.3299160209387
 20
177.6399510850594
 30
0.0
 10
422.3025166293946
 20
177.4734368193705
 30
0.0
 10
422.2774750212274
 20
177.3053326150061
 30
0.0
 10
422.2547938041615
 20
177.135680173139
 30
0.0
 10
422.2344746953107
 20
176.9645211452597
 30
0.0
 10
422.216518563299
 20
176.791897098175
 30
0.0
 10
422.2009254705823
 20
176.6178494858037
 30
0.0
 10
422.1876947153507
 20
176.4424196272839
 30
0.0
 10
422.1768248724803
 20
176.2656486908504
 30
0.0
 10
422.1683138331022
 20
176.0875776829006
 30
0.0
 10
422.1621588424397
 20
175.9082474416616
 30
0.0
 10
422.1583565465064
 20
175.7276991503354
 30
0.0
 10
422.1569029857723
 20
175.5459739683885
 30
0.0
 10
422.1577936183737
 20
175.3631128434815
 30
0.0
 10
422.1610233729641
 20
175.1791559876633
 30
0.0
 10
422.166586696846
 20
174.9941432683515
 30
0.0
 10
422.1744775810969
 20
174.8081144158675
 30
0.0
 10
422.184689581809
 20
174.6211090347238
 30
0.0
 10
422.197215839116
 20
174.4331666155016
 30
0.0
 10
422.2120490941202
 20
174.2443265470014
 30
0.0
 10
422.2291817038518
 20
174.0546281284142
 30
0.0
 10
422.2486056543922
 20
173.8641105813076
 30
0.0
 10
422.2703125723075
 20
173.6728130612493
 30
0.0
 10
422.2942937345307
 20
173.4807746689281
 30
0.0
 10
422.3205400768352
 20
173.2880344606569
 30
0.0
 10
422.3490422010377
 20
173.0946314581687
 30
0.0
 10
422.3797903810611
 20
172.9006046576412
 30
0.0
 10
422.4127745679871
 20
172.7059930379002
 30
0.0
 10
422.4479843942149
 20
172.510835567774
 30
0.0
 10
422.4854091768403
 20
172.3151712125814
 30
0.0
 10
422.5250379203593
 20
172.1190389397494
 30
0.0
 10
422.5668593187922
 20
171.922477723566
 30
0.0
 10
422.6108617573191
 20
171.725526549083
 30
0.0
 10
422.6570333135046
 20
171.5282244151885
 30
0.0
 10
422.7053617581899
 20
171.3306103368746
 30
0.0
 10
422.7558345561164
 20
171.1327233467312
 30
0.0
 10
422.808438866343
 20
170.934602495697
 30
0.0
 10
422.8631615425101
 20
170.7362868531044
 30
0.0
 10
422.9199891330007
 20
170.5378155060525
 30
0.0
 10
422.9789078810389
 20
170.3392275581472
 30
0.0
 10
423.0399037247681
 20
170.140562127645
 30
0.0
 10
423.1029622973383
 20
169.9418583450367
 30
0.0
 10
423.1680689270352
 20
169.7431553501101
 30
0.0
 10
423.2352086374758
 20
169.5444922885264
 30
0.0
 10
423.3043661478926
 20
169.3459083079443
 30
0.0
 10
423.3755258735259
 20
169.1474425537291
 30
0.0
 10
423.4486719261417
 20
168.9491341642776
 30
0.0
 10
423.5237881146869
 20
168.7510222659903
 30
0.0
 10
423.6008579460956
 20
168.5531459679238
 30
0.0
 10
423.6798646262561
 20
168.3555443561496
 30
0.0
 10
423.7607910611437
 20
168.1582564878499
 30
0.0
 10
423.8436198581296
 20
167.9613213851754
 30
0.0
 10
423.9283333274678
 20
167.7647780288915
 30
0.0
 10
424.0149134839638
 20
167.568665351837
 30
0.0
 10
424.1033420488292
 20
167.3730222322173
 30
0.0
 10
424.1936004517205
 20
167.177887486757
 30
0.0
 10
424.2856698329653
 20
166.9832998637296
 30
0.0
 10
424.3795310459736
 20
166.7892980358862
 30
0.0
 10
424.4751646598341
 20
166.5959205933022
 30
0.0
 10
424.5725509620919
 20
166.4032060361597
 30
0.0
 10
424.6716699617071
 20
166.2111927674841
 30
0.0
 10
424.7725013921893
 20
166.0199190858503
 30
0.0
 10
424.8750247149061
 20
165.8294231780758
 30
0.0
 10
424.9792191225588
 20
165.6397431119155
 30
0.0
 10
425.0850635428241
 20
165.4509168287738
 30
0.0
 10
425.192536642152
 20
165.2629821364485
 30
0.0
 10
425.3016167750334
 20
165.075976795673
 30
0.0
 10
425.4122819889128
 20
164.8899385015808
 30
0.0
 10
425.524510075724
 20
164.7049047896917
 30
0.0
 10
425.6382786347563
 20
164.5209129369782
 30
0.0
 10
425.7535650760308
 20
164.3379999661336
 30
0.0
 10
425.870346574637
 20
164.1562027233515
 30
0.0
 10
425.988600075468
 20
163.9755578716484
 30
0.0
 10
426.108302298104
 20
163.7961018843824
 30
0.0
 10
426.2294297416221
 20
163.6178710386691
 30
0.0
 10
426.3519586901064
 20
163.4409014098767
 30
0.0
 10
426.4758652159215
 20
163.2652288628414
 30
0.0
 10
426.6011251916532
 20
163.0908890561353
 30
0.0
 10
426.7277142699662
 20
162.9179173984708
 30
0.0
 10
426.8556079834103
 20
162.7463491846818
 30
0.0
 10
426.9847813966426
 20
162.5762190623747
 30
0.0
 10
427.1152104294017
 20
162.4075629980124
 30
0.0
 10
427.246866942974
 20
162.2404109143222
 30
0.0
 10
427.3774073321647
 20
162.077717760108
 30
0.0
 10
427.4754774253766
 20
161.9575973014299
 30
0.0
 10
427.5291930321248
 20
161.8926080046655
 30
0.0
 10
427.5403574316999
 20
161.8791004503232
 30
0.0
  0
SPLINE
  5
158
330
1F
100
AcDbEntity
  8
0
  6
Continuous
 62
     7
370
    30
100
AcDbSpline
210
0.0
220
0.0
230
1.0
 70
     8
 71
     3
 72
    97
 73
    93
 74
     0
 42
0.000000001
 43
0.00000001
 40
0.0
 40
0.0
 40
0.0
 40
0.0
 40
0.0060355860525801
 40
0.0174304462885793
 40
0.0288270712133287
 40
0.0402257312427326
 40
0.0516265134705539
 40
0.0630295031320732
 40
0.0744347833449931
 40
0.085842434828402
 40
0.0972525355918234
 40
0.1086651605918508
 40
0.1200803813535723
 40
0.1314982655542112
 40
0.1429188765655799
 40
0.1543422729527398
 40
0.1657685079252597
 40
0.1771976287376522
 40
0.1886296760359345
 40
0.2000646831461614
 40
0.2115026753018054
 40
0.2229436688060963
 40
0.2343876701258576
 40
0.2458346749134221
 40
0.2572846669532978
 40
0.2687376170306636
 40
0.2801934817192664
 40
0.2916522020863412
 40
0.303113702313862
 40
0.3145778882350372
 40
0.3260446457872269
 40
0.3375138393830657
 40
0.3489853102033561
 40
0.3604588744174237
 40
0.3719343213384859
 40
0.3834114115244306
 40
0.3948898748372167
 40
0.4063694084774844
 40
0.4178496750146861
 40
0.4293302943061134
 40
0.4408107137173918
 40
0.4522904666891339
 40
0.463769044189753
 40
0.475245893227292
 40
0.4867204156221857
 40
0.4981919670685827
 40
0.50965985654431
 40
0.5211233461337853
 40
0.5325816513305633
 40
0.5440339418881057
 40
0.5554793432867399
 40
0.5669169388830244
 40
0.5783457728028237
 40
0.5897648536326305
 40
0.6011731589530007
 40
0.6125696407458909
 40
0.6239532316909566
 40
0.6353228523472795
 40
0.6466774191960118
 40
0.658015853495628
 40
0.6693370908775919
 40
0.6806400915846144
 40
0.691923851229896
 40
0.7031874119329476
 40
0.7144298736676623
 40
0.7256504056425295
 40
0.7368482575217193
 40
0.7480227702902771
 40
0.7591733865669827
 40
0.7702996601753217
 40
0.7814012647954224
 40
0.7924780015381822
 40
0.8035298053054454
 40
0.814556749826771
 40
0.8255590512920602
 40
0.836537070529492
 40
0.8474913137080727
 40
0.8584224315725705
 40
0.8693312172450707
 40
0.8802186026499078
 40
0.8910856536384529
 40
0.9019335639049606
 40
0.9127636477959599
 40
0.9235773321224404
 40
0.9343761470875936
 40
0.9451617164428339
 40
0.9559357469827691
 40
0.966700017485115
 40
0.9774563671961329
 40
0.9882066839560112
 40
0.9989528920520924
 40
1.0
 40
1.0
 40
1.0
 40
1.0
 10
427.5403574316999
 20
161.8791004503232
 30
0.0
 10
427.5642013403246
 20
161.8503785090687
 30
0.0
 10
427.6330612596386
 20
161.7674310951841
 30
0.0
 10
427.7478012578744
 20
161.63152049138
 30
0.0
 10
427.884915899241
 20
161.4719365307754
 30
0.0
 10
428.0231284137759
 20
161.314075926964
 30
0.0
 10
428.1623937287721
 20
161.1579424245076
 30
0.0
 10
428.3026908171141
 20
161.0035760845803
 30
0.0
 10
428.443991836324
 20
160.8510071188269
 30
0.0
 10
428.5862706002064
 20
160.7002680330449
 30
0.0
 10
428.7295003127593
 20
160.5513903701234
 30
0.0
 10
428.8736541796542
 20
160.4044055811983
 30
0.0
 10
429.0187052479508
 20
160.2593447907323
 30
0.0
 10
429.1646264521179
 20
160.1162388584672
 30
0.0
 10
429.3113906041456
 20
159.9751183622044
 30
0.0
 10
429.4589703979644
 20
159.8360136021955
 30
0.0
 10
429.6073384092826
 20
159.698954600115
 30
0.0
 10
429.7564670958327
 20
159.5639710998373
 30
0.0
 10
429.9063287966098
 20
159.4310925680565
 30
0.0
 10
430.0568957304077
 20
159.3003481952385
 30
0.0
 10
430.2081399934836
 20
159.1717668967329
 30
0.0
 10
430.3600335563159
 20
159.045377314039
 30
0.0
 10
430.5125482593779
 20
158.9212078161658
 30
0.0
 10
430.665655807861
 20
158.7992865010287
 30
0.0
 10
430.8193277652819
 20
158.6796411968134
 30
0.0
 10
430.9735355459053
 20
158.5622994632251
 30
0.0
 10
431.1282504059211
 20
158.4472885925316
 30
0.0
 10
431.2834434333197
 20
158.3346356102925
 30
0.0
 10
431.4390855364124
 20
158.224367275655
 30
0.0
 10
431.5951474309578
 20
158.1165100810807
 30
0.0
 10
431.7515996258616
 20
158.0110902513508
 30
0.0
 10
431.9084124074394
 20
157.9081337416827
 30
0.0
 10
432.0655558222413
 20
157.8076662347713
 30
0.0
 10
432.2229996584671
 20
157.7097131365531
 30
0.0
 10
432.3807134260245
 20
157.6142995704725
 30
0.0
 10
432.5386663353109
 20
157.5214503700158
 30
0.0
 10
432.6968272748417
 20
157.4311900692612
 30
0.0
 10
432.8551647878825
 20
157.3435428911812
 30
0.0
 10
433.0136470200767
 20
157.2585327485635
 30
0.0
 10
433.1722410775903
 20
157.176183544797
 30
0.0
 10
433.3309135826094
 20
157.0965188014111
 30
0.0
 10
433.4896306762188
 20
157.0195616155916
 30
0.0
 10
433.6483586113306
 20
156.9453343566919
 30
0.0
 10
433.8070631464761
 20
156.8738589376429
 30
0.0
 10
433.9657095258838
 20
156.8051567788962
 30
0.0
 10
434.1242624622918
 20
156.7392487681381
 30
0.0
 10
434.2826861230695
 20
156.6761552157852
 30
0.0
 10
434.4409441204081
 20
156.6158958062854
 30
0.0
 10
434.5989995063757
 20
156.5584895453416
 30
0.0
 10
434.756814773649
 20
156.5039547032892
 30
0.0
 10
434.9143518627336
 20
156.4523087549798
 30
0.0
 10
435.0715721764544
 20
156.403568316662
 30
0.0
 10
435.2284366024436
 20
156.3577490804942
 30
0.0
 10
435.3849055442638
 20
156.3148657474761
 30
0.0
 10
435.5409389616783
 20
156.2749319597356
 30
0.0
 10
435.6964964204235
 20
156.2379602332494
 30
0.0
 10
435.8515371516431
 20
156.203961892213
 30
0.0
 10
436.0060201209144
 20
156.1729470063786
 30
0.0
 10
436.1599041065439
 20
156.1449243327696
 30
0.0
 10
436.313147786536
 20
156.1199012632194
 30
0.0
 10
436.4657098333468
 20
156.0978837791908
 30
0.0
 10
436.6175490152526
 20
156.0788764152861
 30
0.0
 10
436.7686243028914
 20
156.0628822327594
 30
0.0
 10
436.9188949792816
 20
156.049902804198
 30
0.0
 10
437.0683207514268
 20
156.0399382103353
 30
0.0
 10
437.2168618614508
 20
156.0329870497139
 30
0.0
 10
437.3644791951252
 20
156.0290464616326
 30
0.0
 10
437.5111343856279
 20
156.0281121624962
 30
0.0
 10
437.6567899104259
 20
156.0301784953582
 30
0.0
 10
437.8014091793088
 20
156.0352384921163
 30
0.0
 10
437.944956611795
 20
156.0432839474988
 30
0.0
 10
438.0873977023979
 20
156.0543055036851
 30
0.0
 10
438.2286990725487
 20
156.0682927441502
 30
0.0
 10
438.3688285083213
 20
156.0852342951097
 30
0.0
 10
438.5077549834702
 20
156.1051179327878
 30
0.0
 10
438.6454486676576
 20
156.1279306946444
 30
0.0
 10
438.7818809201211
 20
156.1536589926167
 30
0.0
 10
438.9170242692733
 20
156.1822887266123
 30
0.0
 10
439.0508523793603
 20
156.2138053959469
 30
0.0
 10
439.1833400042204
 20
156.2481942088208
 30
0.0
 10
439.3144629333363
 20
156.2854401815367
 30
0.0
 10
439.4441979169941
 20
156.3255282511157
 30
0.0
 10
439.5725226263639
 20
156.3684433068248
 30
0.0
 10
439.6994154477493
 20
156.4141704868107
 30
0.0
 10
439.8248558656347
 20
156.4626944460996
 30
0.0
 10
439.9488226311208
 20
156.5140024103471
 30
0.0
 10
440.0713001654028
 20
156.568073078379
 30
0.0
 10
440.1922542699078
 20
156.6249182032006
 30
0.0
 10
440.3117222289731
 20
156.6844277860974
 30
0.0
 10
440.4294764614922
 20
156.746947344935
 30
0.0
 10
440.5111480880102
 20
156.7918225763116
 30
0.0
 10
440.5530990048736
 20
156.8166339103274
 30
0.0
 10
440.5568237535622
 20
156.8188368653698
 30
0.0
  0
LINE
  5
159
330
1F
100
AcDbEntity
  8
0
  6
Continuous
 62
     7
370
    30
100
AcDbLine
 10
458.7913999473
 20
201.9853524027
 30
0.0
 11
425.5573812316
 21
182.7997617748
 31
0.0
  0
LINE
  5
15A
330
1F
100
AcDbEntity
  8
0
  6
Continuous
 62
     7
370
    30
100
AcDbLine
 10
451.6944844806
 20
163.2483124771
 30
0.0
 11
473.7901809369
 21
176.0038865313
 31
0.0
  0
LINE
  5
15B
330
1F
100
AcDbEntity
  8
0
  6
Continuous
 62
     7
370
    30
100
AcDbLine
 10
440.5561622211
 20
156.8182959034
 30
0.0
 11
449.2149940508
 21
161.8169331197
 31
0.0
  0
SPLINE
  5
15C
330
1F
100
AcDbEntity
  8
0
  6
Continuous
 62
     7
370
    30
100
AcDbSpline
210
0.0
220
0.0
230
1.0
 70
     8
 71
     3
 72
   145
 73
   141
 74
     0
 42
0.000000001
 43
0.00000001
 40
0.0
 40
0.0
 40
0.0
 40
0.0
 40
0.0056466541749096
 40
0.0126846541200155
 40
0.019727142889227
 40
0.026774706735178
 40
0.033827924510376
 40
0.0408873646757445
 40
0.0479535823559353
 40
0.0550271164569851
 40
0.0621084868674746
 40
0.0691981917654395
 40
0.0762967050522289
 40
0.0834044739345604
 40
0.0905219166751336
 40
0.0976494205312813
 40
0.1047873399002805
 40
0.1119359946880884
 40
0.1190956689168874
 40
0.1262666095846469
 40
0.1334490257877125
 40
0.140643088114699
 40
0.1478489283171814
 40
0.1550666392598246
 40
0.1622962751489783
 40
0.1695378520359554
 40
0.1767913485873401
 40
0.1840567071118125
 40
0.1913338348297318
 40
0.1986226053681234
 40
0.2059228604621235
 40
0.2132344118403201
 40
0.220557043270391
 40
0.2278905127393873
 40
0.235234554741819
 40
0.2425888826490173
 40
0.2499531911316724
 40
0.2573271586096053
 40
0.2647104497022423
 40
0.2721027176554561
 40
0.2795036067219527
 40
0.2869127544742751
 40
0.2943297940316053
 40
0.3017543561846294
 40
0.3091860714045018
 40
0.3166245717251039
 40
0.3240694924900405
 40
0.3315204739588194
 40
0.3389771627681976
 40
0.3464392132479679
 40
0.353906288591524
 40
0.3613780618840013
 40
0.368854216992316
 40
0.3763344493220711
 40
0.3838184664486024
 40
0.3913059886293049
 40
0.3987967492054281
 40
0.4062904949021196
 40
0.4137869860355096
 40
0.4212859966359531
 40
0.4287873144963525
 40
0.4362907411545953
 40
0.4437960918184692
 40
0.4513031952416627
 40
0.4588118935586714
 40
0.466322042085887
 40
0.4738335090965068
 40
0.4813461755751984
 40
0.4888599169977741
 40
0.4963746225332994
 40
0.5038902121463766
 40
0.5114066175590505
 40
0.5189237817694432
 40
0.5264416587988543
 40
0.5339602134565453
 40
0.5414794211238623
 40
0.5489992675605053
 40
0.556519748736442
 40
0.5640408706922271
 40
0.5715626494314098
 40
0.5790851108472586
 40
0.5866082906879586
 40
0.5941322345629377
 40
0.6016569979943068
 40
0.6091826465173372
 40
0.6167092558340691
 40
0.6242369120253506
 40
0.6317657118265716
 40
0.6392957629735546
 40
0.6468271846256674
 40
0.6543601078749535
 40
0.6618946763508416
 40
0.6694310469317298
 40
0.6769693905773104
 40
0.684509893297198
 40
0.6920527572744101
 40
0.6995982021664339
 40
0.7071464666097352
 40
0.7146978099598983
 40
0.7222525143051264
 40
0.7298108867993646
 40
0.7373732623703116
 40
0.7449400068709968
 40
0.7525115207577456
 40
0.7600882433977085
 40
0.7676706581336126
 40
0.7752592982655552
 40
0.7828547541509789
 40
0.7904576816780174
 40
0.7980688124397272
 40
0.8056889660310561
 40
0.8133190650207511
 40
0.8209601533253356
 40
0.8286134189566219
 40
0.8362802224562899
 40
0.8439621328178388
 40
0.8508650917367105
 40
0.8577669169459463
 40
0.8646669531969894
 40
0.8715650138985432
 40
0.8784608674056874
 40
0.8853542241272808
 40
0.8922447182141577
 40
0.8991318817466252
 40
0.9060151075396738
 40
0.9128935941932917
 40
0.9197662625651143
 40
0.9266316245527403
 40
0.9334875688706936
 40
0.9403309950055133
 40
0.9471571524641659
 40
0.9539583648500684
 40
0.9607213475422148
 40
0.9674209084595218
 40
0.9740027346417409
 40
0.9803244419358284
 40
0.9860864505158226
 40
0.990161345626394
 40
0.9946387561916397
 40
1.0
 40
1.0
 40
1.0
 40
1.0
 10
462.7797936960201
 20
133.3273964627587
 30
0.0
 10
462.7414858062754
 20
133.3051726177186
 30
0.0
 10
462.6554308936798
 20
133.2552489321486
 30
0.0
 10
462.5234876825352
 20
133.1743794766913
 30
0.0
 10
462.3836153874485
 20
133.085383831342
 30
0.0
 10
462.2453342031141
 20
132.9935693908325
 30
0.0
 10
462.1086022050634
 20
132.8990442533227
 30
0.0
 10
461.9734534339648
 20
132.8017856201356
 30
0.0
 10
461.8399018263272
 20
132.7018059590482
 30
0.0
 10
461.7079670107241
 20
132.5991084804752
 30
0.0
 10
461.5776674065317
 20
132.4936991386135
 30
0.0
 10
461.4490220905556
 20
132.3855834702503
 30
0.0
 10
461.3220503057516
 20
132.2747675050062
 30
0.0
 10
461.1967715973109
 20
132.1612575852158
 30
0.0
 10
461.0732057747804
 20
132.0450604800616
 30
0.0
 10
460.9513729151785
 20
131.9261834216281
 30
0.0
 10
460.831293349349
 20
131.8046341620887
 30
0.0
 10
460.7129876470687
 20
131.6804210246288
 30
0.0
 10
460.5964765968193
 20
131.553552954683
 30
0.0
 10
460.481781181471
 20
131.4240395689415
 30
0.0
 10
460.3689225497607
 20
131.2918912020326
 30
0.0
 10
460.2579219838918
 20
131.1571189501558
 30
0.0
 10
460.1488008635275
 20
131.0197347111436
 30
0.0
 10
460.0415806265393
 20
130.8797512204202
 30
0.0
 10
459.9362827269059
 20
130.7371820823968
 30
0.0
 10
459.8329285902105
 20
130.5920417968929
 30
0.0
 10
459.7315395672162
 20
130.4443457802485
 30
0.0
 10
459.6321368860319
 20
130.2941103808682
 30
0.0
 10
459.5347416034024
 20
130.1413528890214
 30
0.0
 10
459.4393745556648
 20
129.986091540809
 30
0.0
 10
459.3460563099205
 20
129.8283455162991
 30
0.0
 10
459.2548071159573
 20
129.6681349319178
 30
0.0
 10
459.1656468594406
 20
129.5054808272724
 30
0.0
 10
459.0785950168679
 20
129.3404051466616
 30
0.0
 10
458.9936706127345
 20
129.1729307156034
 30
0.0
 10
458.9108921793257
 20
129.0030812127789
 30
0.0
 10
458.8302777194866
 20
128.8308811378402
 30
0.0
 10
458.751844672675
 20
128.6563557755832
 30
0.0
 10
458.6756098845366
 20
128.4795311570134
 30
0.0
 10
458.6015895801801
 20
128.3004340178564
 30
0.0
 10
458.5297993412698
 20
128.1190917550704
 30
0.0
 10
458.4602540869915
 20
127.9355323819211
 30
0.0
 10
458.3929680588859
 20
127.7497844821587
 30
0.0
 10
458.327954809495
 20
127.5618771638201
 30
0.0
 10
458.2652271947102
 20
127.3718400131425
 30
0.0
 10
458.2047973696735
 20
127.1797030490398
 30
0.0
 10
458.1466767880405
 20
126.9854966785464
 30
0.0
 10
458.0908762043846
 20
126.7892516535871
 30
0.0
 10
458.0374056794999
 20
126.5909990293793
 30
0.0
 10
457.9862745883369
 20
126.3907701247249
 30
0.0
 10
457.9374916303005
 20
126.1885964843956
 30
0.0
 10
457.8910648416293
 20
125.9845098437658
 30
0.0
 10
457.8470016095777
 20
125.7785420958032
 30
0.0
 10
457.8053086881279
 20
125.5707252604772
 30
0.0
 10
457.7659922149662
 20
125.3610914566115
 30
0.0
 10
457.7290577294721
 20
125.1496728761628
 30
0.0
 10
457.6945101914824
 20
124.9365017608835
 30
0.0
 10
457.6623540006141
 20
124.7216103812931
 30
0.0
 10
457.632593015942
 20
124.505031017861
 30
0.0
 10
457.605230575856
 20
124.2867959442858
 30
0.0
 10
457.5802695179333
 20
124.066937412738
 30
0.0
 10
457.5577121986917
 20
123.8454876409264
 30
0.0
 10
457.5375605131015
 20
123.6224788008338
 30
0.0
 10
457.519815913758
 20
123.3979430089692
 30
0.0
 10
457.5044794296347
 20
123.1719123179759
 30
0.0
 10
457.4915516843522
 20
122.9444187094367
 30
0.0
 10
457.4810329139179
 20
122.7154940877221
 30
0.0
 10
457.4729229903671
 20
122.4851704582728
 30
0.0
 10
457.46722142742
 20
122.2534799134282
 30
0.0
 10
457.4639273840876
 20
122.0204544382452
 30
0.0
 10
457.4630396837339
 20
121.7861257163635
 30
0.0
 10
457.4645568406556
 20
121.550525137307
 30
0.0
 10
457.4684770791817
 20
121.313683988813
 30
0.0
 10
457.4747983473706
 20
121.0756334563629
 30
0.0
 10
457.4835183302148
 20
120.8364046203475
 30
0.0
 10
457.4946344624422
 20
120.5960284529958
 30
0.0
 10
457.5081439409672
 20
120.3545358149763
 30
0.0
 10
457.524043737058
 20
120.1119574515664
 30
0.0
 10
457.5423306082891
 20
119.8683239882743
 30
0.0
 10
457.5630011103524
 20
119.6236659258107
 30
0.0
 10
457.5860516088102
 20
119.3780136342903
 30
0.0
 10
457.6114782908745
 20
119.1313973465539
 30
0.0
 10
457.6392771773095
 20
118.8838471504833
 30
0.0
 10
457.6694441345571
 20
118.6353929801826
 30
0.0
 10
457.7019748871949
 20
118.3860646058851
 30
0.0
 10
457.7368650308497
 20
118.1358916224305
 30
0.0
 10
457.7741100456951
 20
117.8849034361452
 30
0.0
 10
457.8137053106805
 20
117.6331292499297
 30
0.0
 10
457.8556461186519
 20
117.3805980463447
 30
0.0
 10
457.8999276925459
 20
117.1273385684457
 30
0.0
 10
457.9465452028583
 20
116.8733792980862
 30
0.0
 10
457.9954937866196
 20
116.6187484313655
 30
0.0
 10
458.0467685681379
 20
116.3634738508421
 30
0.0
 10
458.1003646818122
 20
116.1075830940734
 30
0.0
 10
458.1562772973641
 20
115.851103317964
 30
0.0
 10
458.2145016478951
 20
115.5940612583108
 30
0.0
 10
458.2750330612404
 20
115.3364831838279
 30
0.0
 10
458.3378669951838
 20
115.0783948437844
 30
0.0
 10
458.4029990771902
 20
114.8198214082331
 30
0.0
 10
458.4704251494496
 20
114.5607873995896
 30
0.0
 10
458.5401413201762
 20
114.3013166140755
 30
0.0
 10
458.6121440223037
 20
114.0414320312088
 30
0.0
 10
458.6864300809644
 20
113.7811557091355
 30
0.0
 10
458.7629967914427
 20
113.5205086630835
 30
0.0
 10
458.8418420096846
 20
113.259510723589
 30
0.0
 10
458.9229642579428
 20
112.9981803703193
 30
0.0
 10
459.0063628487731
 20
112.7365345362716
 30
0.0
 10
459.092038031432
 20
112.4745883757407
 30
0.0
 10
459.179991165788
 20
112.2123549877104
 30
0.0
 10
459.2702249303826
 20
111.9498450837225
 30
0.0
 10
459.3627435728488
 20
111.6870665869326
 30
0.0
 10
459.4575532147708
 20
111.4240241415861
 30
0.0
 10
459.5546622217799
 20
111.1607185180948
 30
0.0
 10
459.6540816726427
 20
110.8971458462986
 30
0.0
 10
459.7558259004452
 20
110.6332967639739
 30
0.0
 10
459.8563189781722
 20
110.3782763158414
 30
0.0
 10
459.9552408651974
 20
110.1322605787487
 30
0.0
 10
460.0522701599637
 20
109.8954402207415
 30
0.0
 10
460.1509713921898
 20
109.6589462003347
 30
0.0
 10
460.2513265911194
 20
109.4228175883226
 30
0.0
 10
460.3533190883172
 20
109.1870892227564
 30
0.0
 10
460.4569309247913
 20
108.9517978500735
 30
0.0
 10
460.5621424872853
 20
108.7169827601125
 30
0.0
 10
460.6689320018658
 20
108.4826866640325
 30
0.0
 10
460.7772747963779
 20
108.2489569777493
 30
0.0
 10
460.88714220334
 20
108.015847733373
 30
0.0
 10
460.9984998762987
 20
107.7834225170026
 30
0.0
 10
461.11130511385
 20
107.5517591449012
 30
0.0
 10
461.2255024241956
 20
107.3209574239402
 30
0.0
 10
461.3410157971022
 20
107.091152696115
 30
0.0
 10
461.4577343714492
 20
106.8625409781822
 30
0.0
 10
461.5754837433776
 20
106.635429427554
 30
0.0
 10
461.6939622261695
 20
106.4103484016207
 30
0.0
 10
461.812578702338
 20
106.188338009171
 30
0.0
 10
461.9299414987243
 20
105.9718497452885
 30
0.0
 10
462.0429374198067
 20
105.7663247948133
 30
0.0
 10
462.1417526757493
 20
105.5889106563885
 30
0.0
 10
462.2300169948568
 20
105.4321321367713
 30
0.0
 10
462.3163633613124
 20
105.2800416226747
 30
0.0
 10
462.3780467538814
 20
105.1728460289931
 30
0.0
 10
462.4116590441329
 20
105.1144333954067
 30
0.0
  0
SPLINE
  5
15D
330
1F
100
AcDbEntity
  8
0
  6
Continuous
 62
     7
370
    30
100
AcDbSpline
210
0.0
220
0.0
230
1.0
 70
     8
 71
     3
 72
    57
 73
    53
 74
     0
 42
0.000000001
 43
0.00000001
 40
0.0
 40
0.0
 40
0.0
 40
0.0
 40
0.0048272409456767
 40
0.0257296584195036
 40
0.0466265135575652
 40
0.0675172143486724
 40
0.0884011589722134
 40
0.1092777378982422
 40
0.1301463362742266
 40
0.1510063366033057
 40
0.171857121717788
 40
0.1926980780448297
 40
0.2135285991599586
 40
0.2343480896184364
 40
0.2551559690499003
 40
0.2759516764968462
 40
0.2967346749731081
 40
0.317504456212044
 40
0.338260545570391
 40
0.3590025070487624
 40
0.3797299483839436
 40
0.4004425261662125
 40
0.421139950929447
 40
0.4418219921597565
 40
0.4624884831670537
 40
0.4831393257606235
 40
0.5037744946719404
 40
0.5243940416669847
 40
0.5449980992918789
 40
0.5655868841997368
 40
0.5861607000075604
 40
0.6067199396388603
 40
0.6272650871103652
 40
0.647796718728398
 40
0.668315503666269
 40
0.6888222038986129
 40
0.7093176734792452
 40
0.7298028571510023
 40
0.7502787882873063
 40
0.7707465861683857
 40
0.7912074526036398
 40
0.8116626679163185
 40
0.8321135863137493
 40
0.852561630669723
 40
0.8730082867526708
 40
0.8934550969355004
 40
0.9139036534290877
 40
0.9343555910819222
 40
0.9548125797957612
 40
0.9752763166050646
 40
0.9957485174746852
 40
1.0
 40
1.0
 40
1.0
 40
1.0
 10
478.7059415628294
 20
90.61945842392348
 30
0.0
 10
478.7206872773959
 20
90.61522922366007
 30
0.0
 10
478.7992833539573
 20
90.59268717958365
 30
0.0
 10
478.9413605526225
 20
90.55455091502608
 30
0.0
 10
479.1321126415126
 20
90.50518518462978
 30
0.0
 10
479.3223763794558
 20
90.45883135354013
 30
0.0
 10
479.5121627378677
 20
90.41520918049785
 30
0.0
 10
479.701435481437
 20
90.37440462801911
 30
0.0
 10
479.8901709197146
 20
90.336404966768
 30
0.0
 10
480.0783419222066
 20
90.30122326773687
 30
0.0
 10
480.2659222195279
 20
90.26886504554226
 30
0.0
 10
480.4528852741113
 20
90.23933717588129
 30
0.0
 10
480.6392046074244
 20
90.21264549340836
 30
0.0
 10
480.8248537393126
 20
90.18879542237529
 30
0.0
 10
481.009806233215
 20
90.16779179703455
 30
0.0
 10
481.1940357148506
 20
90.14963890113499
 30
0.0
 10
481.3775158995923
 20
90.13434045118007
 30
0.0
 10
481.5602206188207
 20
90.121899597435
 30
0.0
 10
481.7421238475332
 20
90.11231892312098
 30
0.0
 10
481.9231997322399
 20
90.10560044725068
 30
0.0
 10
482.1034226190078
 20
90.10174562983202
 30
0.0
 10
482.2827670812638
 20
90.10075537992316
 30
0.0
 10
482.4612079470127
 20
90.10263006650908
 30
0.0
 10
482.6387203250952
 20
90.1073695322549
 30
0.0
 10
482.8152796301156
 20
90.11497311011355
 30
0.0
 10
482.9908616056663
 20
90.12543964272754
 30
0.0
 10
483.1654423454914
 20
90.13876750451729
 30
0.0
 10
483.3389983122428
 20
90.15495462629698
 30
0.0
 10
483.5115063535174
 20
90.17399852221764
 30
0.0
 10
483.6829437148832
 20
90.19589631878726
 30
0.0
 10
483.8532880496525
 20
90.22064478568086
 30
0.0
 10
484.0225174251934
 20
90.2482403680119
 30
0.0
 10
484.1906103256258
 20
90.27867921970636
 30
0.0
 10
484.3575456507957
 20
90.31195723759284
 30
0.0
 10
484.5233027114747
 20
90.34807009579768
 30
0.0
 10
484.6878612207844
 20
90.38701328003116
 30
0.0
 10
484.8512012819124
 20
90.4287821213026
 30
0.0
 10
485.0133033721715
 20
90.47337182873822
 30
0.0
 10
485.174148323782
 20
90.52077752067885
 30
0.0
 10
485.3337173007345
 20
90.57099425510253
 30
0.0
 10
485.4919917751415
 20
90.62401705351188
 30
0.0
 10
485.6489534915622
 20
90.67984093826068
 30
0.0
 10
485.8045844636426
 20
90.7384609070277
 30
0.0
 10
485.9588668391579
 20
90.79987212741288
 30
0.0
 10
486.1117832467153
 20
90.86406929431234
 30
0.0
 10
486.2633153374313
 20
90.93104909430781
 30
0.0
 10
486.4134490574152
 20
91.00080105589855
 30
0.0
 10
486.5621547932784
 20
91.07334173077834
 30
0.0
 10
486.7094613147135
 20
91.14858710010361
 30
0.0
 10
486.8551795298424
 20
91.22682893983512
 30
0.0
 10
486.9616798650856
 20
91.28578099158771
 30
0.0
 10
487.0191121559266
 20
91.31948682164092
 30
0.0
 10
487.0289882078481
 20
91.32528287335309
 30
0.0
  0
SPLINE
  5
15E
330
1F
100
AcDbEntity
  8
0
  6
Continuous
 62
     7
370
    30
100
AcDbSpline
210
0.0
220
0.0
230
1.0
 70
     8
 71
     3
 72
    58
 73
    54
 74
     0
 42
0.000000001
 43
0.00000001
 40
0.0
 40
0.0
 40
0.0
 40
0.0
 40
0.0215914525409574
 40
0.0305301598102654
 40
0.0453509968766112
 40
0.0607771584023322
 40
0.0773525688220999
 40
0.0946736589332609
 40
0.1125772998836101
 40
0.1309334310778672
 40
0.149649660297265
 40
0.1686576264081469
 40
0.1879058089035003
 40
0.2073546209040197
 40
0.2269731139806098
 40
0.2467367123489585
 40
0.2666256249024627
 40
0.2866237114196656
 40
0.306717658844362
 40
0.3268963730913397
 40
0.3471505232266264
 40
0.3674721951071265
 40
0.3878546248288945
 40
0.4082919911754546
 40
0.4287792522484313
 40
0.4493120155798341
 40
0.4698864339021174
 40
0.4904991207830708
 40
0.5111470817898034
 40
0.5318276579017853
 40
0.5525384786666374
 40
0.5732774231670955
 40
0.5940425872946856
 40
0.6148322561531369
 40
0.6356448806588598
 40
0.6564790575973815
 40
0.6773335125422666
 40
0.6982070851559155
 40
0.7190987164842962
 40
0.7400074379273721
 40
0.7609323616248203
 40
0.7818726720413592
 40
0.8028276185740698
 40
0.8237965090318278
 40
0.8447787038632355
 40
0.8657736110276724
 40
0.8867806814212567
 40
0.9077994047823836
 40
0.9288293060132075
 40
0.9498699418621861
 40
0.9709208979209699
 40
0.9919817858947333
 40
1.0
 40
1.0
 40
1.0
 40
1.0
 10
462.4116590441329
 20
105.1144333954067
 30
0.0
 10
462.4577180626347
 20
105.0349824583402
 30
0.0
 10
462.5228451861062
 20
104.9226394003124
 30
0.0
 10
462.6206545500013
 20
104.7563971277775
 30
0.0
 10
462.7056495841309
 20
104.6130520195704
 30
0.0
 10
462.8080119078776
 20
104.4422787240555
 30
0.0
 10
462.9167059065084
 20
104.2629512796926
 30
0.0
 10
463.0318200117227
 20
104.0752631654851
 30
0.0
 10
463.1519118626313
 20
103.8818337474834
 30
0.0
 10
463.2761979202533
 20
103.6841367631123
 30
0.0
 10
463.4040815758696
 20
103.4832895238778
 30
0.0
 10
463.5351249810686
 20
103.2801162034159
 30
0.0
 10
463.6689961620502
 20
103.0752434612046
 30
0.0
 10
463.8054379504325
 20
102.8691579530975
 30
0.0
 10
463.944246807072
 20
102.6622454005343
 30
0.0
 10
464.0852584127923
 20
102.4548172932365
 30
0.0
 10
464.2283376371873
 20
102.2471295231048
 30
0.0
 10
464.3733714289028
 20
102.0393956361659
 30
0.0
 10
464.5202636855441
 20
101.8317964257553
 30
0.0
 10
464.6689314910275
 20
101.624486993245
 30
0.0
 10
464.819302313562
 20
101.4176020249199
 30
0.0
 10
464.9713118896403
 20
101.2112597916864
 30
0.0
 10
465.1249026053857
 20
101.0055652203078
 30
0.0
 10
465.2800222436196
 20
100.8006122800276
 30
0.0
 10
465.4366230034021
 20
100.5964858577031
 30
0.0
 10
465.5946607250599
 20
100.393263246097
 30
0.0
 10
465.75409427195
 20
100.1910153362643
 30
0.0
 10
465.9148850330327
 20
99.98980758119411
 30
0.0
 10
466.0769965194822
 20
99.78970078088821
 30
0.0
 10
466.240394035161
 20
99.59075172676447
 30
0.0
 10
466.4050444056141
 20
99.39301373429122
 30
0.0
 10
466.5709157537881
 20
99.19653708610976
 30
0.0
 10
466.7379773133428
 20
99.00136940293226
 30
0.0
 10
466.9061992724137
 20
98.80755595576046
 30
0.0
 10
467.0755526422034
 20
98.61513993011506
 30
0.0
 10
467.2460091459426
 20
98.42416265077586
 30
0.0
 10
467.4175411246561
 20
98.23466377384673
 30
0.0
 10
467.5901214568664
 20
98.04668145161453
 30
0.0
 10
467.7637234899302
 20
97.86025247471275
 30
0.0
 10
467.9383209810591
 20
97.6754123949988
 30
0.0
 10
468.1138880467113
 20
97.4921956329437
 30
0.0
 10
468.2903991182137
 20
97.31063556892546
 30
0.0
 10
468.4678289058025
 20
97.13076463190248
 30
0.0
 10
468.646152358107
 20
96.95261434442138
 30
0.0
 10
468.8253446615375
 20
96.77621548503494
 30
0.0
 10
469.0053811101484
 20
96.60159777290006
 30
0.0
 10
469.1862374760589
 20
96.42879130346498
 30
0.0
 10
469.3678885244897
 20
96.25782141414477
 30
0.0
 10
469.5503134712893
 20
96.08872806473671
 30
0.0
 10
469.733475520685
 20
95.92149363261015
 30
0.0
 10
469.9173982201827
 20
95.75631275120433
 30
0.0
 10
470.063769815333
 20
95.62640772477829
 30
0.0
 10
470.1490298910317
 20
95.55228984279923
 30
0.0
 10
470.1725393357087
 20
95.53185272458553
 30
0.0
  0
LINE
  5
15F
330
1F
100
AcDbEntity
  8
0
  6
Continuous
 62
     7
370
    30
100
AcDbLine
 10
482.4372064466
 20
144.6756654203
 30
0.0
 11
462.7796379296
 21
133.3275926659
 31
0.0
  0
LINE
  5
160
330
1F
100
AcDbEntity
  8
0
  6
Continuous
 62
     7
370
    30
100
AcDbLine
 10
487.0276671961
 20
91.3242228405
 30
0.0
 11
506.685235713
 21
102.6722955948
 31
0.0
  0
SPLINE
  5
161
330
1F
100
AcDbEntity
  8
0
  6
Continuous
 62
     7
370
    30
100
AcDbSpline
210
0.0
220
0.0
230
1.0
 70
     8
 71
     3
 72
   151
 73
   147
 74
     0
 42
0.000000001
 43
0.00000001
 40
0.0
 40
0.0
 40
0.0
 40
0.0
 40
0.0073152987015572
 40
0.0103361123721047
 40
0.0153457088484567
 40
0.0205587580617067
 40
0.026159456740581
 40
0.0320116612751737
 40
0.0380603638244724
 40
0.0442616984547377
 40
0.0505844968802629
 40
0.0570056923914265
 40
0.0635078962611584
 40
0.0700777437197002
 40
0.076704783119605
 40
0.0833807120384565
 40
0.0900988418595654
 40
0.096853715454875
 40
0.1036408294033198
 40
0.1104564288760575
 40
0.1172973539008866
 40
0.1241609225379398
 40
0.1310448409705636
 40
0.1379471334946502
 40
0.1448660874104932
 40
0.1518002092079913
 40
0.1587481894077759
 40
0.1657088741034902
 40
0.1726812417436263
 40
0.1796643840463695
 40
0.186657490202329
 40
0.1936598337129723
 40
0.2006707613583519
 40
0.2076896838963423
 40
0.2147160681788831
 40
0.2217494304359629
 40
0.228789330525962
 40
0.2358353669916578
 40
0.2428871727899876
 40
0.2499444115888814
 40
0.2570067745432653
 40
0.2640739774773532
 40
0.2711457584137229
 40
0.2782218753985161
 40
0.2853021045811145
 40
0.2923862385129917
 40
0.2994740846360194
 40
0.3065654639349833
 40
0.3136602097329556
 40
0.3207581666108335
 40
0.327859189436132
 40
0.3349631424866512
 40
0.342069898657919
 40
0.3491793387442809
 40
0.3562913507846341
 40
0.3634058294654834
 40
0.3705226755744684
 40
0.3776417954986464
 40
0.3847631007622369
 40
0.3918865075996718
 40
0.3990119365594278
 40
0.4061393121358635
 40
0.4132685624250298
 40
0.4203996188026043
 40
0.4275324156207214
 40
0.4346668899222384
 40
0.4418029811696026
 40
0.448940630987581
 40
0.4560797829174542
 40
0.4632203821819602
 40
0.4703623754593286
 40
0.4775057106657012
 40
0.48465033674473
 40
0.4917962034639734
 40
0.4989432612169224
 40
0.5060914608308217
 40
0.5132407533791327
 40
0.5203910899989889
 40
0.5275424217132961
 40
0.5346946992572708
 40
0.541847872909875
 40
0.5490018842617054
 40
0.5561566734117728
 40
0.5633121871583905
 40
0.5704683710950177
 40
0.577625169555934
 40
0.5847825254877158
 40
0.5919403803312546
 40
0.5990986739156933
 40
0.6062573443654125
 40
0.6134163280218562
 40
0.6205755593824854
 40
0.62773497105847
 40
0.6348944937536808
 40
0.6420540562674619
 40
0.6492135855236318
 40
0.6563730066283753
 40
0.6635322429600629
 40
0.6706912162934986
 40
0.6778498469619223
 40
0.6850080540592186
 40
0.6921657556854545
 40
0.699322869238332
 40
0.7064793117527879
 40
0.7136350002917199
 40
0.7207898523886596
 40
0.7279437865446552
 40
0.7350967227800667
 40
0.7422485832415074
 40
0.74939929286352
 40
0.7565487800840087
 40
0.7636969776112397
 40
0.7708438232394699
 40
0.7779892607089594
 40
0.7851332406056903
 40
0.7922757212940735
 40
0.7994166698756043
 40
0.8065560631649245
 40
0.8136938886734887
 40
0.8208301455905186
 40
0.8279648457493707
 40
0.835098014567069
 40
0.8422296919437894
 40
0.8493599331086304
 40
0.8564888093977425
 40
0.8636164089506573
 40
0.8707428373110203
 40
0.8778682179178369
 40
0.8849926924745058
 40
0.8921164211836423
 40
0.8992395828363942
 40
0.9063623747471434
 40
0.9134850125253472
 40
0.9206077296785466
 40
0.927730777042245
 40
0.9348544220349556
 40
0.9419789477382038
 40
0.9491046518043971
 40
0.9562318451973351
 40
0.9633608507724668
 40
0.9704920017066867
 40
0.9776256397892175
 40
0.9847621135876046
 40
0.9919017765046078
 40
0.9990449847436319
 40
1.0
 40
1.0
 40
1.0
 40
1.0
 10
506.8702104825525
 20
130.7798088379284
 30
0.0
 10
506.82400069729
 20
130.8595217434279
 30
0.0
 10
506.758708827108
 20
130.9721516690624
 30
0.0
 10
506.6607101002897
 20
131.1387346678405
 30
0.0
 10
506.5756575546088
 20
131.2822018340108
 30
0.0
 10
506.4732393453406
 20
131.4531127876021
 30
0.0
 10
506.3645084178456
 20
131.6325638214414
 30
0.0
 10
506.249372985003
 20
131.8203702085238
 30
0.0
 10
506.1292742534758
 20
132.0139158976222
 30
0.0
 10
506.0049952353044
 20
132.2117292707146
 30
0.0
 10
505.8771322726384
 20
132.4126943959226
 30
0.0
 10
505.7461231662958
 20
132.6159879483538
 30
0.0
 10
505.6122999749662
 20
132.8209837801016
 30
0.0
 10
505.475920040726
 20
133.0271955231254
 30
0.0
 10
505.3371871367805
 20
133.2342375939243
 30
0.0
 10
505.1962658592252
 20
133.4417985389421
 30
0.0
 10
505.0532916471824
 20
133.6496224326341
 30
0.0
 10
504.9083778854941
 20
133.8574956472183
 30
0.0
 10
504.7616210302894
 20
134.0652372745299
 30
0.0
 10
504.613104368698
 20
134.272692075944
 30
0.0
 10
504.462900818949
 20
134.4797252131953
 30
0.0
 10
504.3110750451174
 20
134.686218254355
 30
0.0
 10
504.1576850749454
 20
134.8920661068802
 30
0.0
 10
504.0027835522215
 20
135.097174634294
 30
0.0
 10
503.8464187168761
 20
135.3014587836481
 30
0.0
 10
503.6886351797077
 20
135.5048410993247
 30
0.0
 10
503.529474540454
 20
135.7072505323692
 30
0.0
 10
503.3689758851007
 20
135.9086214782999
 30
0.0
 10
503.207176189182
 20
136.108892993279
 30
0.0
 10
503.0441106472289
 20
136.3080081508118
 30
0.0
 10
502.8798129437047
 20
136.505913510104
 30
0.0
 10
502.7143154772074
 20
136.7025586738517
 30
0.0
 10
502.5476495470725
 20
136.8978959181963
 30
0.0
 10
502.3798455095083
 20
137.0918798813188
 30
0.0
 10
502.2109329088818
 20
137.2844672999962
 30
0.0
 10
502.0409405886156
 20
137.4756167856249
 30
0.0
 10
501.8698967852519
 20
137.6652886329177
 30
0.0
 10
501.6978292085491
 20
137.8534446557877
 30
0.0
 10
501.5247651099264
 20
138.0400480459772
 30
0.0
 10
501.3507313411394
 20
138.225063250807
 30
0.0
 10
501.175754404733
 20
138.4084558670668
 30
0.0
 10
500.9998604975374
 20
138.5901925486007
 30
0.0
 10
500.8230755482584
 20
138.7702409255497
 30
0.0
 10
500.6454252500332
 20
138.9485695335626
 30
0.0
 10
500.4669350886807
 20
139.1251477515569
 30
0.0
 10
500.2876303672581
 20
139.2999457468417
 30
0.0
 10
500.1075362274344
 20
139.4729344266001
 30
0.0
 10
499.9266776681187
 20
139.6440853948813
 30
0.0
 10
499.7450795617137
 20
139.8133709143786
 30
0.0
 10
499.5627666683063
 20
139.980763872381
 30
0.0
 10
499.3797636480671
 20
140.1462377503675
 30
0.0
 10
499.1960950720892
 20
140.3097665967959
 30
0.0
 10
499.0117854318672
 20
140.4713250026919
 30
0.0
 10
498.8268591475892
 20
140.6308880797056
 30
0.0
 10
498.64134057539
 20
140.788431440342
 30
0.0
 10
498.4552540136997
 20
140.9439311801133
 30
0.0
 10
498.2686237087995
 20
141.0973638613931
 30
0.0
 10
498.0814738596866
 20
141.2487064987795
 30
0.0
 10
497.8938286223375
 20
141.3979365458011
 30
0.0
 10
497.7057121134469
 20
141.5450318828171
 30
0.0
 10
497.5171484137107
 20
141.6899708059872
 30
0.0
 10
497.3281615707199
 20
141.8327320171926
 30
0.0
 10
497.1387756015137
 20
141.9732946148154
 30
0.0
 10
496.9490144948488
 20
142.1116380852849
 30
0.0
 10
496.7589022132219
 20
142.2477422953193
 30
0.0
 10
496.568462694693
 20
142.3815874847919
 30
0.0
 10
496.3777198545378
 20
142.5131542601676
 30
0.0
 10
496.186697586771
 20
142.6424235884552
 30
0.0
 10
495.9954197655599
 20
142.7693767916356
 30
0.0
 10
495.8039102465623
 20
142.8939955415237
 30
0.0
 10
495.6121928682102
 20
143.0162618550354
 30
0.0
 10
495.4202914529595
 20
143.1361580898288
 30
0.0
 10
495.2282298085258
 20
143.2536669402981
 30
0.0
 10
495.0360317291249
 20
143.3687714339006
 30
0.0
 10
494.843720996727
 20
143.4814549278026
 30
0.0
 10
494.6513213823446
 20
143.5917011058295
 30
0.0
 10
494.4588566473572
 20
143.6994939757148
 30
0.0
 10
494.2663505448854
 20
143.8048178666391
 30
0.0
 10
494.0738268212178
 20
143.9076574270579
 30
0.0
 10
493.8813092172933
 20
144.0079976228172
 30
0.0
 10
493.6888215426135
 20
144.1058236987757
 30
0.0
 10
493.4963876830799
 20
144.2011211795834
 30
0.0
 10
493.3040315339236
 20
144.2938759074572
 30
0.0
 10
493.1117769300998
 20
144.384074074268
 30
0.0
 10
492.9196476421194
 20
144.4717022193475
 30
0.0
 10
492.7276674465368
 20
144.5567471954936
 30
0.0
 10
492.5358601268555
 20
144.6391961696944
 30
0.0
 10
492.344249475133
 20
144.7190366238367
 30
0.0
 10
492.1528592935195
 20
144.7962563557616
 30
0.0
 10
491.9617133956993
 20
144.870843480675
 30
0.0
 10
491.7708356082066
 20
144.942786432916
 30
0.0
 10
491.5802497715772
 20
145.012073968086
 30
0.0
 10
491.3899797412958
 20
145.0786951655415
 30
0.0
 10
491.2000493884945
 20
145.1426394312453
 30
0.0
 10
491.0104826003563
 20
145.2038965009723
 30
0.0
 10
490.8213032801721
 20
145.2624564438587
 30
0.0
 10
490.6325353469994
 20
145.3183096662779
 30
0.0
 10
490.4442027348699
 20
145.3714469160237
 30
0.0
 10
490.2563293914884
 20
145.4218592867716
 30
0.0
 10
490.0689392763697
 20
145.4695382227833
 30
0.0
 10
489.8820563583573
 20
145.5144755238145
 30
0.0
 10
489.6957046124724
 20
145.5566633501725
 30
0.0
 10
489.5099080160436
 20
145.5960942278682
 30
0.0
 10
489.324690544071
 20
145.6327610537929
 30
0.0
 10
489.1400761637873
 20
145.6666571008467
 30
0.0
 10
488.9560888283849
 20
145.6977760229321
 30
0.0
 10
488.7727524698868
 20
145.7261118597219
 30
0.0
 10
488.5900909911507
 20
145.7516590411012
 30
0.0
 10
488.4081282570095
 20
145.7744123911777
 30
0.0
 10
488.226888084565
 20
145.7943671317484
 30
0.0
 10
488.0463942326672
 20
145.811518885106
 30
0.0
 10
487.8666703906302
 20
145.8258636760696
 30
0.0
 10
487.6877401662547
 20
145.8373979331209
 30
0.0
 10
487.5096270732436
 20
145.8461184885303
 30
0.0
 10
487.3323545181214
 20
145.8520225773642
 30
0.0
 10
487.1559457867841
 20
145.8551078352721
 30
0.0
 10
486.980424030828
 20
145.8553722949613
 30
0.0
 10
486.8058122538237
 20
145.8528143812856
 30
0.0
 10
486.6321332977171
 20
145.8474329048873
 30
0.0
 10
486.459409829558
 20
145.8392270543567
 30
0.0
 10
486.2876643287618
 20
145.8281963868948
 30
0.0
 10
486.1169190751261
 20
145.814340817491
 30
0.0
 10
485.9471961378227
 20
145.7976606066581
 30
0.0
 10
485.7785173655915
 20
145.7781563467971
 30
0.0
 10
485.6109043783516
 20
145.7558289472941
 30
0.0
 10
485.4443785604439
 20
145.7306796184876
 30
0.0
 10
485.2789610556988
 20
145.7027098546735
 30
0.0
 10
485.1146727645074
 20
145.6719214163491
 30
0.0
 10
484.9515343430475
 20
145.6383163119269
 30
0.0
 10
484.7895662047945
 20
145.6018967791683
 30
0.0
 10
484.6287885243877
 20
145.5626652666497
 30
0.0
 10
484.4692212439782
 20
145.5206244154434
 30
0.0
 10
484.3108840818142
 20
145.4757770417736
 30
0.0
 10
484.1537965439936
 20
145.4281261193184
 30
0.0
 10
483.997977935753
 20
145.3776747676678
 30
0.0
 10
483.8434473854524
 20
145.3244262242013
 30
0.0
 10
483.6902238315672
 20
145.2683838857964
 30
0.0
 10
483.538326157358
 20
145.2095510993202
 30
0.0
 10
483.3877727828714
 20
145.1479319007865
 30
0.0
 10
483.2385832902855
 20
145.0835282251094
 30
0.0
 10
483.0907724638718
 20
145.0163503062269
 30
0.0
 10
482.9443726564694
 20
144.9463778420772
 30
0.0
 10
482.7993503872278
 20
144.8737050197075
 30
0.0
 10
482.6559179116365
 20
144.7979989692684
 30
0.0
 10
482.5545583832782
 20
144.7429088142859
 30
0.0
 10
482.5014791451022
 20
144.7122560106463
 30
0.0
 10
482.4952195645556
 20
144.7086411567042
 30
0.0
  0
SPLINE
  5
162
330
1F
100
AcDbEntity
  8
0
  6
Continuous
 62
     7
370
    30
100
AcDbSpline
210
0.0
220
0.0
230
1.0
 70
     8
 71
     3
 72
   146
 73
   142
 74
     0
 42
0.000000001
 43
0.00000001
 40
0.0
 40
0.0
 40
0.0
 40
0.0
 40
0.0000987225647021
 40
0.0072516378488342
 40
0.0144090538146792
 40
0.0215713114692274
 40
0.0287387496216126
 40
0.0359116976048424
 40
0.0430904731806887
 40
0.0502753805222178
 40
0.0574667082950032
 40
0.0646647278573257
 40
0.0718696915990856
 40
0.0790818314370087
 40
0.0863013574821039
 40
0.093528456892648
 40
0.1007632929240516
 40
0.1080060041841151
 40
0.1152567040991648
 40
0.1225154805941701
 40
0.1297823959867014
 40
0.1370574870917908
 40
0.144340765532101
 40
0.1516322182446564
 40
0.1589318081738952
 40
0.1662394751372059
 40
0.1735551368484734
 40
0.1808786900824856
 40
0.1882100119624638
 40
0.1955489613516435
 40
0.2028953803296378
 40
0.2102490957334232
 40
0.2176099207440022
 40
0.2249776564993732
 40
0.232352093715706
 40
0.239733014299714
 40
0.2471201929361537
 40
0.254513398636338
 40
0.261912396234897
 40
0.2693169478236305
 40
0.276726814113519
 40
0.2841417557169979
 40
0.2915615343449683
 40
0.2989859139144848
 40
0.306414661564141
 40
0.3138475485767102
 40
0.3212843512084975
 40
0.3287248514273574
 40
0.3361688375613497
 40
0.3436161048614264
 40
0.3510664559821792
 40
0.3585197013849841
 40
0.3659756596687213
 40
0.3734341578330497
 40
0.3808950314800924
 40
0.3883581249597836
 40
0.3958232914646291
 40
0.4032903930793837
 40
0.4107593007910657
 40
0.4182298944644567
 40
0.4257020627883515
 40
0.4331757031969177
 40
0.4406507217712398
 40
0.4481270331248743
 40
0.4556045602776206
 40
0.4630832345212303
 40
0.4705629952804003
 40
0.4780437860497781
 40
0.4855255485715463
 40
0.4930082470036087
 40
0.5004918532072621
 40
0.5079763464605985
 40
0.5154617133507596
 40
0.5229479476823192
 40
0.5304350504018407
 40
0.5379230295411095
 40
0.5454119001803314
 40
0.5529016844340456
 40
0.560392411461375
 40
0.5678841175028548
 40
0.5753768459465725
 40
0.5828706474256526
 40
0.590365579950155
 40
0.5978617090764137
 40
0.6053591081173297
 40
0.6128578583972721
 40
0.6203580495563925
 40
0.6278597799089682
 40
0.6353631568620648
 40
0.6428682974006785
 40
0.6503753286475612
 40
0.6578843885065623
 40
0.6653956263998683
 40
0.6729092041115627
 40
0.6804252967520634
 40
0.6879440938600518
 40
0.6954658006624512
 40
0.7029906395159229
 40
0.7105188515586005
 40
0.7180506986060325
 40
0.7255864653322841
 40
0.7331264617855949
 40
0.7406710262989562
 40
0.7482205288687355
 40
0.7557753750916748
 40
0.7633360107718409
 40
0.7709029273359537
 40
0.77847666823118
 40
0.7860578365248619
 40
0.7936471039856258
 40
0.8012452220050361
 40
0.8088530348251177
 40
0.816471495682181
 40
0.8241016866747307
 40
0.8317448434394977
 40
0.83940238610851
 40
0.847075958577986
 40
0.85396600974526
 40
0.8608550986462958
 40
0.8677425273024983
 40
0.8746280824346904
 40
0.8815115006894333
 40
0.8883924539225942
 40
0.8952705281609563
 40
0.902145193680791
 40
0.9090157614560678
 40
0.9158813180775235
 40
0.9227406255155809
 40
0.9295919612257599
 40
0.9364328523603456
 40
0.943259611704048
 40
0.9500664776343388
 40
0.9568438978340925
 40
0.9635747651027805
 40
0.9702250598181374
 40
0.9767161008076772
 40
0.9828156087061368
 40
0.9878482501444767
 40
0.9920168290590939
 40
0.9970693551545172
 40
1.0
 40
1.0
 40
1.0
 40
1.0
 10
506.7471087426304
 20
102.7083906609227
 30
0.0
 10
506.7477560953367
 20
102.7087635216938
 30
0.0
 10
506.7953072038507
 20
102.7361519033464
 30
0.0
 10
506.8883535249971
 20
102.7930520785411
 30
0.0
 10
507.0261220416936
 20
102.8793140935346
 30
0.0
 10
507.1621683839765
 20
102.9686484643258
 30
0.0
 10
507.2967151687643
 20
103.0606327256323
 30
0.0
 10
507.4296787596954
 20
103.1553733102091
 30
0.0
 10
507.5610575117222
 20
103.2528344381844
 30
0.0
 10
507.6908276096403
 20
103.3530180845267
 30
0.0
 10
507.8189710020117
 20
103.4559156576377
 30
0.0
 10
507.9454679038995
 20
103.5615209164447
 30
0.0
 10
508.0702988094023
 20
103.6698264577214
 30
0.0
 10
508.1934439574067
 20
103.7808246109469
 30
0.0
 10
508.3148834853084
 20
103.8945071507867
 30
0.0
 10
508.4345974027492
 20
104.0108653276586
 30
0.0
 10
508.5525656181558
 20
104.1298898143965
 30
0.0
 10
508.6687679554338
 20
104.2515706774891
 30
0.0
 10
508.7831841773856
 20
104.3758973443649
 30
0.0
 10
508.8957940110944
 20
104.5028585749179
 30
0.0
 10
509.0065771761869
 20
104.6324424355682
 30
0.0
 10
509.1155134153116
 20
104.7646362767468
 30
0.0
 10
509.2225825265521
 20
104.8994267139314
 30
0.0
 10
509.3277643973586
 20
105.0367996124918
 30
0.0
 10
509.4310390395914
 20
105.1767400764908
 30
0.0
 10
509.5323866252564
 20
105.3192324415358
 30
0.0
 10
509.6317875225108
 20
105.4642602717073
 30
0.0
 10
509.7292223315244
 20
105.6118063605305
 30
0.0
 10
509.8246719197973
 20
105.7618527358931
 30
0.0
 10
509.9181174565561
 20
105.9143806687594
 30
0.0
 10
510.009540445877
 20
106.0693706854751
 30
0.0
 10
510.0989227582191
 20
106.2268025834154
 30
0.0
 10
510.1862466600887
 20
106.3866554496889
 30
0.0
 10
510.2714948415946
 20
106.5489076825823
 30
0.0
 10
510.3546504417013
 20
106.7135370154039
 30
0.0
 10
510.4356970710248
 20
106.8805205423731
 30
0.0
 10
510.5146188320663
 20
107.0498347461936
 30
0.0
 10
510.5914003368176
 20
107.2214555269478
 30
0.0
 10
510.6660267217141
 20
107.3953582319607
 30
0.0
 10
510.7384836599513
 20
107.571517686291
 30
0.0
 10
510.8087573712126
 20
107.7499082235245
 30
0.0
 10
510.8768346288879
 20
107.9305037165737
 30
0.0
 10
510.9427027648923
 20
108.1132776082055
 30
0.0
 10
511.0063496722116
 20
108.2982029410523
 30
0.0
 10
511.067763805323
 20
108.4852523868932
 30
0.0
 10
511.1269341786517
 20
108.6743982750171
 30
0.0
 10
511.1838503632346
 20
108.865612619519
 30
0.0
 10
511.2385024817644
 20
109.0588671453996
 30
0.0
 10
511.2908812021964
 20
109.2541333133809
 30
0.0
 10
511.3409777300894
 20
109.4513823433664
 30
0.0
 10
511.3887837998591
 20
109.6505852365064
 30
0.0
 10
511.4342916651061
 20
109.8517127958529
 30
0.0
 10
511.4774940881803
 20
110.0547356456021
 30
0.0
 10
511.5183843291278
 20
110.2596242489513
 30
0.0
 10
511.5569561341599
 20
110.4663489246028
 30
0.0
 10
511.5932037237698
 20
110.6748798619705
 30
0.0
 10
511.6271217806112
 20
110.8851871351459
 30
0.0
 10
511.6587054372388
 20
111.0972407156995
 30
0.0
 10
511.6879502638034
 20
111.3110104843912
 30
0.0
 10
511.7148522557765
 20
111.5264662418763
 30
0.0
 10
511.7394078217685
 20
111.7435777184907
 30
0.0
 10
511.7616137714995
 20
111.9623145832073
 30
0.0
 10
511.7814673039617
 20
112.1826464518489
 30
0.0
 10
511.798965995809
 20
112.4045428946535
 30
0.0
 10
511.8141077899999
 20
112.6279734432755
 30
0.0
 10
511.8268909847063
 20
112.8529075973122
 30
0.0
 10
511.8373142206767
 20
113.0793147908645
 30
0.0
 10
511.8453764695184
 20
113.3071642994831
 30
0.0
 10
511.8510770349956
 20
113.5364253913721
 30
0.0
 10
511.8544155423212
 20
113.7670673753586
 30
0.0
 10
511.8553919242731
 20
113.9990597076896
 30
0.0
 10
511.8540064063329
 20
114.2323718475987
 30
0.0
 10
511.8502594973771
 20
114.4669732609685
 30
0.0
 10
511.8441519805709
 20
114.7028334258825
 30
0.0
 10
511.8356849043878
 20
114.9399218384388
 30
0.0
 10
511.8248595737125
 20
115.1782080188721
 30
0.0
 10
511.811677540983
 20
115.4176615180603
 30
0.0
 10
511.7961405973252
 20
115.6582519244865
 30
0.0
 10
511.7782507636261
 20
115.8999488717327
 30
0.0
 10
511.7580102814884
 20
116.1427220465863
 30
0.0
 10
511.7354216040064
 20
116.3865411978425
 30
0.0
 10
511.7104873862953
 20
116.6313761458949
 30
0.0
 10
511.6832104756994
 20
116.8771967932109
 30
0.0
 10
511.6535939016007
 20
117.1239731358023
 30
0.0
 10
511.6216408647386
 20
117.3716752758085
 30
0.0
 10
511.5873547259436
 20
117.6202734353279
 30
0.0
 10
511.5507389941754
 20
117.8697379716448
 30
0.0
 10
511.5117973137455
 20
118.120039394025
 30
0.0
 10
511.4705334505863
 20
118.3711483822706
 30
0.0
 10
511.4269512774156
 20
118.6230358072578
 30
0.0
 10
511.381054757617
 20
118.8756727537113
 30
0.0
 10
511.3328479276403
 20
119.1290305455125
 30
0.0
 10
511.2823348776914
 20
119.3830807738814
 30
0.0
 10
511.2295197304441
 20
119.6377953288357
 30
0.0
 10
511.1744066174706
 20
119.8931464343923
 30
0.0
 10
511.1169996530279
 20
120.1491066880669
 30
0.0
 10
511.0573029047817
 20
120.4056491053188
 30
0.0
 10
510.9953203609721
 20
120.6627471697184
 30
0.0
 10
510.931055893433
 20
120.9203748897565
 30
0.0
 10
510.8645132157673
 20
121.1785068634015
 30
0.0
 10
510.7956958358391
 20
121.4371183517327
 30
0.0
 10
510.7246070015774
 20
121.6961853632559
 30
0.0
 10
510.6512496388699
 20
121.9556847508568
 30
0.0
 10
510.5756262800599
 20
122.2155943237813
 30
0.0
 10
510.4977389812265
 20
122.4758929775847
 30
0.0
 10
510.4175892259973
 20
122.7365608456893
 30
0.0
 10
510.3351778131021
 20
122.9975794770902
 30
0.0
 10
510.2505047241705
 20
123.2589320459079
 30
0.0
 10
510.1635689673552
 20
123.5206036000133
 30
0.0
 10
510.0743683911853
 20
123.7825813578868
 30
0.0
 10
509.9828994613672
 20
124.0448550657475
 30
0.0
 10
509.8891569914553
 20
124.3074174297002
 30
0.0
 10
509.7931338141045
 20
124.5702646456897
 30
0.0
 10
509.6948203805429
 20
124.8333970447623
 30
0.0
 10
509.5942042519296
 20
125.0968199252152
 30
0.0
 10
509.4912695073003
 20
125.3605444889689
 30
0.0
 10
509.3896606348932
 20
125.6153974525889
 30
0.0
 10
509.2897007393059
 20
125.8611953795244
 30
0.0
 10
509.1917151112248
 20
126.0977390198162
 30
0.0
 10
509.0920741048686
 20
126.3339570732887
 30
0.0
 10
508.9907961663263
 20
126.5698092433949
 30
0.0
 10
508.8878984301784
 20
126.8052595304635
 30
0.0
 10
508.7833994702795
 20
127.0402697962947
 30
0.0
 10
508.6773197183599
 20
127.274799033379
 30
0.0
 10
508.5696820537471
 20
127.5088023413648
 30
0.0
 10
508.460512670928
 20
127.7422294163245
 30
0.0
 10
508.3498423859651
 20
127.9750222731537
 30
0.0
 10
508.2377086697369
 20
128.2071116957086
 30
0.0
 10
508.1241589336053
 20
128.4384114922834
 30
0.0
 10
508.0092560840667
 20
128.6688087716396
 30
0.0
 10
507.8930884381487
 20
128.8981465577727
 30
0.0
 10
507.7757886711486
 20
129.1261905314124
 30
0.0
 10
507.6575732665402
 20
129.3525596299191
 30
0.0
 10
507.5388347949477
 20
129.5765636065193
 30
0.0
 10
507.4203954008014
 20
129.7967551924486
 30
0.0
 10
507.3044119405606
 20
130.0093294759653
 30
0.0
 10
507.1970420504358
 20
130.2034662516475
 30
0.0
 10
507.1029600213554
 20
130.3715727261184
 30
0.0
 10
507.014645654962
 20
130.527817207998
 30
0.0
 10
506.9388260503539
 20
130.660731272903
 30
0.0
 10
506.888635556242
 20
130.7478333988167
 30
0.0
 10
506.8702104825525
 20
130.7798088379284
 30
0.0
  0
SPLINE
  5
163
330
1F
100
AcDbEntity
  8
0
  6
Continuous
 62
     7
370
    30
100
AcDbSpline
210
0.0
220
0.0
230
1.0
 70
     8
 71
     3
 72
    26
 73
    22
 74
     0
 42
0.000000001
 43
0.00000001
 40
0.0
 40
0.0
 40
0.0
 40
0.0
 40
0.0625330258358452
 40
0.1365394385980779
 40
0.2000134741055059
 40
0.2602904770104383
 40
0.3177928302837627
 40
0.3729776199213989
 40
0.4262499028564279
 40
0.4779484922364556
 40
0.5283516468770106
 40
0.5776872140449607
 40
0.6261423887687085
 40
0.6738718580267201
 40
0.7210042642640594
 40
0.7676472461942877
 40
0.8191055952615213
 40
0.8649918468912553
 40
0.9157098098585462
 40
0.9662965119895449
 40
1.0
 40
1.0
 40
1.0
 40
1.0
 10
477.853662097122
 20
90.58460494461983
 30
0.0
 10
477.8648808456092
 20
90.5909207090799
 30
0.0
 10
477.8893767275808
 20
90.60471103702531
 30
0.0
 10
477.9274279502461
 20
90.62199929613058
 30
0.0
 10
477.9670307268868
 20
90.63736527871048
 30
0.0
 10
478.0054362745477
 20
90.64977395054343
 30
0.0
 10
478.0442248432665
 20
90.66010655579058
 30
0.0
 10
478.08362254612
 20
90.66853690761093
 30
0.0
 10
478.1238228205322
 20
90.67519616575797
 30
0.0
 10
478.1649872879808
 20
90.68015749580545
 30
0.0
 10
478.2072420589037
 20
90.68345675312031
 30
0.0
 10
478.25068312192
 20
90.68510191568585
 30
0.0
 10
478.2953809707363
 20
90.6850817795517
 30
0.0
 10
478.3413847356519
 20
90.68337217842533
 30
0.0
 10
478.3887264835508
 20
90.67993944253065
 30
0.0
 10
478.4392345459268
 20
90.67455387389174
 30
0.0
 10
478.4912644867056
 20
90.6671831248419
 30
0.0
 10
478.5466768246039
 20
90.6574692422127
 30
0.0
 10
478.6036656955558
 20
90.64551159838248
 30
0.0
 10
478.6574012465065
 20
90.63268406509812
 30
0.0
 10
478.6922167401041
 20
90.62286641920691
 30
0.0
 10
478.7061377381357
 20
90.61894082703505
 30
0.0
  0
SPLINE
  5
164
330
1F
100
AcDbEntity
  8
0
  6
Continuous
 62
     7
370
    30
100
AcDbSpline
210
0.0
220
0.0
230
1.0
 70
     8
 71
     3
 72
    42
 73
    38
 74
     0
 42
0.000000001
 43
0.00000001
 40
0.0
 40
0.0
 40
0.0
 40
0.0
 40
0.0337353359977071
 40
0.0473454700145582
 40
0.069949478199204
 40
0.093415263125139
 40
0.118585032614053
 40
0.1448518777477169
 40
0.1719700321999883
 40
0.1997426744503316
 40
0.2280290488628104
 40
0.25672421147341
 40
0.2857483492269409
 40
0.3150394840806195
 40
0.3445485696441155
 40
0.374236117719759
 40
0.4040698338186109
 40
0.4340229299091259
 40
0.4640729004981595
 40
0.4942006216216291
 40
0.5243896789363924
 40
0.5546258611845888
 40
0.5848967750523397
 40
0.6151915506306586
 40
0.6455006156399972
 40
0.675815522754408
 40
0.7061288186887328
 40
0.7364339467892063
 40
0.7667251770948744
 40
0.7969975594710162
 40
0.8272468966402364
 40
0.8574697348724728
 40
0.8876633708285134
 40
0.9178258736457087
 40
0.9479561218546266
 40
0.9780538551573816
 40
1.0
 40
1.0
 40
1.0
 40
1.0
 10
471.5880593840637
 20
93.77880279813377
 30
0.0
 10
471.6072966318984
 20
93.74515904039053
 30
0.0
 10
471.6342949265227
 20
93.69794209482583
 30
0.0
 10
471.673145002854
 20
93.6276410310285
 30
0.0
 10
471.7058240915707
 20
93.56743841467784
 30
0.0
 10
471.7440377513
 20
93.49522610175312
 30
0.0
 10
471.783338087156
 20
93.41895593822068
 30
0.0
 10
471.8235559270026
 20
93.33861871340595
 30
0.0
 10
471.8640165306539
 20
93.25528976819368
 30
0.0
 10
471.9043134253118
 20
93.16958612017878
 30
0.0
 10
471.9441341066273
 20
93.08199434394609
 30
0.0
 10
471.9832409666178
 20
92.99289073304489
 30
0.0
 10
472.0214480974382
 20
92.9025779852753
 30
0.0
 10
472.0586069337099
 20
92.8113068331997
 30
0.0
 10
472.0945965551697
 20
92.71929075333024
 30
0.0
 10
472.1293170372801
 20
92.62671596059715
 30
0.0
 10
472.1626848134664
 20
92.53374834441772
 30
0.0
 10
472.1946293788189
 20
92.44053836272099
 30
0.0
 10
472.2250909098499
 20
92.34722454999286
 30
0.0
 10
472.2540185200958
 20
92.2539360663821
 30
0.0
 10
472.2813689651837
 20
92.16079457159377
 30
0.0
 10
472.3071056707215
 20
92.06791561510126
 30
0.0
 10
472.3311979955447
 20
91.97540967419087
 30
0.0
 10
472.3536206689869
 20
91.88338293138544
 30
0.0
 10
472.3743533579799
 20
91.7919378563756
 30
0.0
 10
472.3933803334926
 20
91.70117363757304
 30
0.0
 10
472.4106902079783
 20
91.61118650168429
 30
0.0
 10
472.4262757445387
 20
91.52206992810892
 30
0.0
 10
472.4401336562624
 20
91.43391484285713
 30
0.0
 10
472.4522646395121
 20
91.34680955756656
 30
0.0
 10
472.4626726850793
 20
91.2608403885162
 30
0.0
 10
472.4713671938825
 20
91.17608951598785
 30
0.0
 10
472.4783547212833
 20
91.09264293920332
 30
0.0
 10
472.4836694282411
 20
91.01056064392576
 30
0.0
 10
472.4872593300198
 20
90.92998743494161
 30
0.0
 10
472.4892164882312
 20
90.85786592845766
 30
0.0
 10
472.4892617401028
 20
90.81332164151793
 30
0.0
 10
472.4892808221575
 20
90.79453796497562
 30
0.0
  0
SPLINE
  5
165
330
1F
100
AcDbEntity
  8
0
  6
Continuous
 62
     7
370
    30
100
AcDbSpline
210
0.0
220
0.0
230
1.0
 70
     8
 71
     3
 72
    31
 73
    27
 74
     0
 42
0.000000001
 43
0.00000001
 40
0.0
 40
0.0
 40
0.0
 40
0.0
 40
0.0162953158727452
 40
0.0606442557444234
 40
0.1050542756619834
 40
0.1495216138961239
 40
0.1940420365659503
 40
0.23861079016531
 40
0.2832225201584765
 40
0.327871142151186
 40
0.3725496439999818
 40
0.4172497833733059
 40
0.4619616208650062
 40
0.5066727839391203
 40
0.5513672707920326
 40
0.5960234283117766
 40
0.6406103601418368
 40
0.6850811383860551
 40
0.7293589308308649
 40
0.7733056288437378
 40
0.8166405305993499
 40
0.8586837218234864
 40
0.8972232008136293
 40
0.9273110016993708
 40
0.9553839066709862
 40
1.0
 40
1.0
 40
1.0
 40
1.0
 10
470.1724397358512
 20
95.53140119625374
 30
0.0
 10
470.1809322921032
 20
95.52405249757136
 30
0.0
 10
470.2125379852538
 20
95.49670375724848
 30
0.0
 10
470.2671007506921
 20
95.44738086591764
 30
0.0
 10
470.3360806119544
 20
95.38346214382523
 30
0.0
 10
470.4048221525293
 20
95.31754156201822
 30
0.0
 10
470.4732734627846
 20
95.24982237242446
 30
0.0
 10
470.5413652832295
 20
95.18031014866216
 30
0.0
 10
470.60903344183
 20
95.1090674235349
 30
0.0
 10
470.6762126731858
 20
95.03614560545273
 30
0.0
 10
470.7428380156356
 20
94.96160369413036
 30
0.0
 10
470.8088440163891
 20
94.88550396560646
 30
0.0
 10
470.8741642742413
 20
94.80791425940838
 30
0.0
 10
470.9387304772207
 20
94.72890919378064
 30
0.0
 10
471.002470858248
 20
94.64857287954938
 30
0.0
 10
471.0653074937523
 20
94.56700344007973
 30
0.0
 10
471.1271513645787
 20
94.48432133974623
 30
0.0
 10
471.1878926229609
 20
94.40068568193236
 30
0.0
 10
471.2473797292716
 20
94.31632927265399
 30
0.0
 10
471.305368127422
 20
94.23164367813213
 30
0.0
 10
471.3613714743358
 20
94.14742811299146
 30
0.0
 10
471.4140594658441
 20
94.06587514737058
 30
0.0
 10
471.4602725200024
 20
93.99236166055638
 30
0.0
 10
471.4999893121874
 20
93.92764209534575
 30
0.0
 10
471.5416568706341
 20
93.85847500317374
 30
0.0
 10
471.5704105434114
 20
93.80910551122498
 30
0.0
 10
471.5880593840637
 20
93.77880279813377
 30
0.0
  0
LINE
  5
166
330
1F
100
AcDbEntity
  8
0
  6
Continuous
 62
     7
370
    30
100
AcDbLine
 10
472.4894390005
 20
90.7944053276
 30
0.0
 11
472.4894390005
 21
44.512060626
 31
0.0
  0
LINE
  5
167
330
1F
100
AcDbEntity
  8
0
  6
Continuous
 62
     7
370
    30
100
AcDbLine
 10
485.8031474995
 20
47.7776930733
 30
0.0
 11
485.8031474995
 21
90.7384696269
 31
0.0
  0
SPLINE
  5
168
330
1F
100
AcDbEntity
  8
0
  6
Continuous
 62
     7
370
    30
100
AcDbSpline
210
0.0
220
0.0
230
1.0
 70
     8
 71
     3
 72
    19
 73
    15
 74
     0
 42
0.000000001
 43
0.00000001
 40
0.0
 40
0.0
 40
0.0
 40
0.0
 40
0.1100524724626891
 40
0.1546641290212768
 40
0.2288985034787048
 40
0.3063287004166724
 40
0.3897548529262004
 40
0.4772578666376948
 40
0.5680507065449427
 40
0.661487284188211
 40
0.7570849877565929
 40
0.8544659651444387
 40
0.9533277258920279
 40
1.0
 40
1.0
 40
1.0
 40
1.0
 10
476.3178661252231
 20
41.87924440239331
 30
0.0
 10
476.3370732573638
 20
41.87954582964383
 30
0.0
 10
476.3640663298233
 20
41.87996944559834
 30
0.0
 10
476.4039145378416
 20
41.88280392007293
 30
0.0
 10
476.4380006788853
 20
41.88621680795444
 30
0.0
 10
476.4786316661039
 20
41.89195381112598
 30
0.0
 10
476.5212654695242
 20
41.89980708034904
 30
0.0
 10
476.5657788281445
 20
41.91008771509858
 30
0.0
 10
476.6114490268212
 20
41.92290353007515
 30
0.0
 10
476.6577847673781
 20
41.93836206163272
 30
0.0
 10
476.7043911357962
 20
41.95647836153836
 30
0.0
 10
476.7508133905914
 20
41.9774390416965
 30
0.0
 10
476.7887415435033
 20
41.99645132268975
 30
0.0
 10
476.8106225189862
 20
42.00934716941686
 30
0.0
 10
476.8176396740214
 20
42.01348282396596
 30
0.0
  0
SPLINE
  5
169
330
1F
100
AcDbEntity
  8
0
  6
Continuous
 62
     7
370
    30
100
AcDbSpline
210
0.0
220
0.0
230
1.0
 70
     8
 71
     3
 72
    18
 73
    14
 74
     0
 42
0.000000001
 43
0.00000001
 40
0.0
 40
0.0
 40
0.0
 40
0.0
 40
0.0944603118066355
 40
0.1951093222765156
 40
0.2955042161176212
 40
0.3954928957445822
 40
0.4947893021068742
 40
0.5927914885983517
 40
0.6879960474351853
 40
0.7753315722215119
 40
0.8414527988444458
 40
0.9048404287830719
 40
1.0
 40
1.0
 40
1.0
 40
1.0
 10
475.8179703224303
 20
42.01325382363241
 30
0.0
 10
475.8323481946631
 20
42.00518729590058
 30
0.0
 10
475.8620459254188
 20
41.98852575065705
 30
0.0
 10
475.9086371941957
 20
41.96634882719867
 30
0.0
 10
475.9571157313446
 20
41.94607932644286
 30
0.0
 10
476.0063963317389
 20
41.92851373668005
 30
0.0
 10
476.0561176808455
 20
41.91364699261792
 30
0.0
 10
476.1057302202302
 20
41.90156750173013
 30
0.0
 10
476.1538371291988
 20
41.89240474614503
 30
0.0
 10
476.1968141345912
 20
41.88631958668557
 30
0.0
 10
476.2344685724633
 20
41.88255199626756
 30
0.0
 10
476.2735913122697
 20
41.87986344965682
 30
0.0
 10
476.3012596618759
 20
41.8794765927744
 30
0.0
 10
476.3178661252231
 20
41.87924440239331
 30
0.0
  0
LINE
  5
16A
330
1F
100
AcDbEntity
  8
0
  6
Continuous
 62
     7
370
    30
100
AcDbLine
 10
472.9894796342
 20
43.6460117637
 30
0.0
 11
475.8179067589
 21
42.01319554
 31
0.0
  0
LINE
  5
16B
330
1F
100
AcDbEntity
  8
0
  6
Continuous
 62
     7
370
    30
100
AcDbLine
 10
476.8178254915
 20
42.01319554
 30
0.0
 11
485.3031068658
 21
46.9116442109
 31
0.0
  0
SPLINE
  5
16C
330
1F
100
AcDbEntity
  8
0
  6
Continuous
 62
     7
370
    30
100
AcDbSpline
210
0.0
220
0.0
230
1.0
 70
     8
 71
     3
 72
    27
 73
    23
 74
     0
 42
0.000000001
 43
0.00000001
 40
0.0
 40
0.0
 40
0.0
 40
0.0
 40
0.0238212611641208
 40
0.0772792557362215
 40
0.1307937795080594
 40
0.1843666305778079
 40
0.2380007779336247
 40
0.2917004897145013
 40
0.3454715186477189
 40
0.3993213584393223
 40
0.4532595909370792
 40
0.5072983524374499
 40
0.5614529599551572
 40
0.6157427568980245
 40
0.6701922662552807
 40
0.724832784957286
 40
0.7797046280602697
 40
0.8348603601126401
 40
0.8903695828301689
 40
0.9463262898961082
 40
0.996775838990034
 40
1.0
 40
1.0
 40
1.0
 40
1.0
 10
472.4898254232131
 20
44.51204620768877
 30
0.0
 10
472.4897381316639
 20
44.50373047550561
 30
0.0
 10
472.4894549465752
 20
44.47675316353247
 30
0.0
 10
472.4923062120231
 20
44.43113832243571
 30
0.0
 10
472.4982613596565
 20
44.37540247555495
 30
0.0
 10
472.5075218288453
 20
44.32003497178157
 30
0.0
 10
472.5198400629456
 20
44.26520905908428
 30
0.0
 10
472.5352507425038
 20
44.21109563473028
 30
0.0
 10
472.5537019796801
 20
44.15786329668759
 30
0.0
 10
472.5751549417479
 20
44.10567767154315
 30
0.0
 10
472.5995578815313
 20
44.05470095246025
 30
0.0
 10
472.6268540760863
 20
44.00509142718537
 30
0.0
 10
472.6569808602684
 20
43.95700297415954
 30
0.0
 10
472.689871518889
 20
43.91058488052149
 30
0.0
 10
472.7254562898893
 20
43.86598064429423
 30
0.0
 10
472.763666308006
 20
43.82333086187365
 30
0.0
 10
472.8044298125587
 20
43.78276115571082
 30
0.0
 10
472.8477012174529
 20
43.74442680857462
 30
0.0
 10
472.8933726791532
 20
43.70834474569643
 30
0.0
 10
472.939890268067
 20
43.67623482145412
 30
0.0
 10
472.9721477044211
 20
43.6555514258279
 30
0.0
 10
472.9885983423536
 20
43.64658496298214
 30
0.0
 10
472.9895865264256
 20
43.64604635069229
 30
0.0
  0
SPLINE
  5
16D
330
1F
100
AcDbEntity
  8
0
  6
Continuous
 62
     7
370
    30
100
AcDbSpline
210
0.0
220
0.0
230
1.0
 70
     8
 71
     3
 72
    27
 73
    23
 74
     0
 42
0.000000001
 43
0.00000001
 40
0.0
 40
0.0
 40
0.0
 40
0.0
 40
0.0266697090018351
 40
0.0772275897594185
 40
0.1282179353108278
 40
0.1795715603510933
 40
0.231231181110596
 40
0.2831493944567099
 40
0.3352870057291485
 40
0.3876116343408806
 40
0.4400965510918819
 40
0.4927197126708529
 40
0.5454629645796554
 40
0.5983113873378288
 40
0.6512527638323508
 40
0.7042771485562387
 40
0.7573765223173089
 40
0.8105445187285344
 40
0.8637762113585633
 40
0.9170679527826041
 40
0.970417258938711
 40
1.0
 40
1.0
 40
1.0
 40
1.0
 10
485.3029563292554
 20
46.91195194461377
 30
0.0
 10
485.3110475137365
 20
46.91655731934423
 30
0.0
 10
485.334477191043
 20
46.92989312253385
 30
0.0
 10
485.3718060201513
 20
46.95465154232441
 30
0.0
 10
485.4149683273537
 20
46.98606209681095
 30
0.0
 10
485.4566093346507
 20
47.02010121824964
 30
0.0
 10
485.4966147843404
 20
47.05652220502367
 30
0.0
 10
485.534773893508
 20
47.09526214349948
 30
0.0
 10
485.5709220184385
 20
47.13619457928432
 30
0.0
 10
485.6049006775158
 20
47.17919810671294
 30
0.0
 10
485.6365671993332
 20
47.22413928092613
 30
0.0
 10
485.6657911674973
 20
47.27087846335161
 30
0.0
 10
485.6924546399939
 20
47.3192693274857
 30
0.0
 10
485.7164513738168
 20
47.36915995743691
 30
0.0
 10
485.7376869316903
 20
47.42039343326653
 30
0.0
 10
485.7560768264058
 20
47.47280849795187
 30
0.0
 10
485.7715521014396
 20
47.52624015228864
 30
0.0
 10
485.7840374191847
 20
47.58052027831615
 30
0.0
 10
485.7935321129225
 20
47.63547810266434
 30
0.0
 10
485.7998063902139
 20
47.69094119659368
 30
0.0
 10
485.8029811186304
 20
47.73842968067156
 30
0.0
 10
485.8028189308333
 20
47.76738044640589
 30
0.0
 10
485.8027610767255
 20
47.77770749167944
 30
0.0
  0
LINE
  5
16E
330
1F
100
AcDbEntity
  8
0
  6
Continuous
 62
     7
370
    30
100
AcDbLine
 10
526.5432170138
 20
170.5981462279
 30
0.0
 11
484.1555385403
 21
145.8253065362
 31
0.0
  0
LINE
  5
16F
330
1F
100
AcDbEntity
  8
0
  6
Continuous
 62
     7
370
    30
100
AcDbLine
 10
508.5401058657
 20
103.5854202285
 30
0.0
 11
551.2275659768
 21
127.9251467697
 31
0.0
  0
SPLINE
  5
170
330
1F
100
AcDbEntity
  8
0
  6
Continuous
 62
     7
370
    30
100
AcDbSpline
210
0.0
220
0.0
230
1.0
 70
     8
 71
     3
 72
    18
 73
    14
 74
     0
 42
0.000000001
 43
0.00000001
 40
0.0
 40
0.0
 40
0.0
 40
0.0
 40
0.0222222931371119
 40
0.1274293521990488
 40
0.232559671237194
 40
0.337620210660796
 40
0.4426182724094453
 40
0.5475614653512229
 40
0.65245766849494
 40
0.7573149922928358
 40
0.8621417383278122
 40
0.9669463576766979
 40
0.9999999999999999
 40
0.9999999999999999
 40
0.9999999999999999
 40
0.9999999999999999
 10
507.0975145341868
 20
102.9268442944294
 30
0.0
 10
507.1086985774726
 20
102.9307096495971
 30
0.0
 10
507.1728312654039
 20
102.9528747655907
 30
0.0
 10
507.2886043209231
 20
102.9961144465517
 30
0.0
 10
507.4447001366053
 20
103.0566758788875
 30
0.0
 10
507.5992249799727
 20
103.120260660006
 30
0.0
 10
507.7523023881122
 20
103.1865503880614
 30
0.0
 10
507.9038817278213
 20
103.2556132023312
 30
0.0
 10
508.0539472747423
 20
103.3274348399808
 30
0.0
 10
508.202519229352
 20
103.4019449828308
 30
0.0
 10
508.3494406353483
 20
103.4793802505215
 30
0.0
 10
508.4619657830309
 20
103.5406849578209
 30
0.0
 10
508.5249879999342
 20
103.577079131126
 30
0.0
 10
508.5400985474682
 20
103.5858051949287
 30
0.0
  0
SPLINE
  5
171
330
1F
100
AcDbEntity
  8
0
  6
Continuous
 62
     7
370
    30
100
AcDbSpline
210
0.0
220
0.0
230
1.0
 70
     8
 71
     3
 72
    18
 73
    14
 74
     0
 42
0.000000001
 43
0.00000001
 40
0.0
 40
0.0
 40
0.0
 40
0.0
 40
0.0084170123826141
 40
0.1131179795894656
 40
0.2178197483022897
 40
0.322530516284623
 40
0.4272588572867828
 40
0.5320132499760153
 40
0.636802035354594
 40
0.7416333751926689
 40
0.8465152117780824
 40
0.9514552292698455
 40
0.9999999999999999
 40
0.9999999999999999
 40
0.9999999999999999
 40
0.9999999999999999
 10
484.157340470481
 20
145.826225331311
 30
0.0
 10
484.1534815557852
 20
145.8240152609384
 30
0.0
 10
484.1016207987901
 20
145.7943136656541
 30
0.0
 10
484.0032273119496
 20
145.7345830308901
 30
0.0
 10
483.8623083253939
 20
145.6468467197582
 30
0.0
 10
483.7231731526061
 20
145.5561379032222
 30
0.0
 10
483.5856235532147
 20
145.462835546206
 30
0.0
 10
483.4497290608344
 20
145.3668533253185
 30
0.0
 10
483.3154983291744
 20
145.2682143832005
 30
0.0
 10
483.1829159422549
 20
145.1669693060404
 30
0.0
 10
483.0521243609442
 20
145.062949474174
 30
0.0
 10
482.9458770865074
 20
144.9758668474932
 30
0.0
 10
482.8839054064715
 20
144.9225213694243
 30
0.0
 10
482.8643047604794
 20
144.9056490524192
 30
0.0
  0
SPLINE
  5
172
330
1F
100
AcDbEntity
  8
0
  6
Continuous
 62
     7
370
    30
100
AcDbSpline
210
0.0
220
0.0
230
1.0
 70
     8
 71
     3
 72
    50
 73
    46
 74
     0
 42
0.000000001
 43
0.00000001
 40
0.0
 40
0.0
 40
0.0
 40
0.0
 40
0.0329323088471653
 40
0.0606477643454396
 40
0.083063472963491
 40
0.1002384876199108
 40
0.1155895467042409
 40
0.1449812817151409
 40
0.1719996810579889
 40
0.1853903504496458
 40
0.1967265024833265
 40
0.2104532133535024
 40
0.2296390124318757
 40
0.2521537512845634
 40
0.2705048926214539
 40
0.2882760120184122
 40
0.3111704789022225
 40
0.339701667833818
 40
0.3627995053256601
 40
0.3799241841167726
 40
0.3965323578321212
 40
0.4132688112834265
 40
0.4356951685686579
 40
0.4634457467755236
 40
0.4870289303166128
 40
0.5046108725009755
 40
0.531077865862916
 40
0.5634908277286044
 40
0.6031758761258186
 40
0.6392182112953246
 40
0.6693297806904216
 40
0.6970514148549465
 40
0.7275679121817492
 40
0.7633541804850368
 40
0.8019953647237369
 40
0.8371206344592415
 40
0.8675597883191772
 40
0.8788016465735349
 40
0.8897918870298784
 40
0.900761145104598
 40
0.9117134582799558
 40
0.9241334761389886
 40
0.9427987972007795
 40
0.9680846587623959
 40
1.0
 40
1.0
 40
1.0
 40
1.0
 10
562.4917125292105
 20
103.8275148001283
 30
0.0
 10
562.5065185965161
 20
103.8191275220902
 30
0.0
 10
562.5337852811873
 20
103.8036816065209
 30
0.0
 10
562.571511762356
 20
103.7838599317091
 30
0.0
 10
562.6022697990921
 20
103.7684304600126
 30
0.0
 10
562.6275914815508
 20
103.7562589116787
 30
0.0
 10
562.6563171265922
 20
103.7429293208349
 30
0.0
 10
562.6898555714538
 20
103.7281363402922
 30
0.0
 10
562.7227821869766
 20
103.7145630890969
 30
0.0
 10
562.7473081462053
 20
103.7049584128426
 30
0.0
 10
562.7656098923503
 20
103.6980208871295
 30
0.0
 10
562.7868392807128
 20
103.6902441786804
 30
0.0
 10
562.8135519201062
 20
103.6809068151511
 30
0.0
 10
562.8425939718093
 20
103.671370217957
 30
0.0
 10
562.8710451990288
 20
103.6626158381468
 30
0.0
 10
562.8998835903448
 20
103.6542688261851
 30
0.0
 10
562.9339904026435
 20
103.6451012598024
 30
0.0
 10
562.9708349790216
 20
103.6361616557753
 30
0.0
 10
563.0049244467247
 20
103.6287822390202
 30
0.0
 10
563.0332962763503
 20
103.6232210036429
 30
0.0
 10
563.05857194048
 20
103.6187020035647
 30
0.0
 10
563.0865894918974
 20
103.6141700308715
 30
0.0
 10
563.1203579524611
 20
103.6093862083831
 30
0.0
 10
563.1576093610017
 20
103.6050718264622
 30
0.0
 10
563.1924505156692
 20
103.6019579823814
 30
0.0
 10
563.2268844240052
 20
103.5996182505704
 30
0.0
 10
563.2658294321398
 20
103.5978704010649
 30
0.0
 10
563.316138699449
 20
103.5971746889765
 30
0.0
 10
563.3712601477158
 20
103.5985301581031
 30
0.0
 10
563.4251865029813
 20
103.6020655367144
 30
0.0
 10
563.4728212469307
 20
103.6069185952767
 30
0.0
 10
563.5177274479146
 20
103.612942908017
 30
0.0
 10
563.5653340422712
 20
103.6209148714764
 30
0.0
 10
563.617645796581
 20
103.6316738437701
 30
0.0
 10
563.6721027251175
 20
103.6452623413118
 30
0.0
 10
563.7232906976909
 20
103.6603378573695
 30
0.0
 10
563.7606229728166
 20
103.6728639684614
 30
0.0
 10
563.7859995449128
 20
103.6820571988445
 30
0.0
 10
563.8019478383338
 20
103.6880652878994
 30
0.0
 10
563.817756811628
 20
103.6942497515399
 30
0.0
 10
563.8342485951341
 20
103.7009443684122
 30
0.0
 10
563.8543473443965
 20
103.7094219053507
 30
0.0
 10
563.8807534269607
 20
103.7211389430309
 30
0.0
 10
563.9158218404608
 20
103.7376693523204
 30
0.0
 10
563.9416018248917
 20
103.7511894288176
 30
0.0
 10
563.9559857357177
 20
103.7587329389861
 30
0.0
  0
LINE
  5
173
330
1F
100
AcDbEntity
  8
0
  6
Continuous
 62
     7
370
    30
100
AcDbLine
 10
563.9557408533
 20
103.7585816579
 30
0.0
 11
571.6006588116
 21
107.8690216017
 31
0.0
  0
LWPOLYLINE
  5
174
330
1F
100
AcDbEntity
  8
0
  6
Continuous
 62
     7
370
    30
100
AcDbPolyline
 90
       56
 70
   128
 43
0.0
 10
535.8825821612
 20
119.1756754055
 10
536.4272343267
 20
118.8614438618
 10
537.6683092248
 20
118.1454330733
 10
538.900738115
 20
117.4344262849
 10
540.1245208058
 20
116.7284232908
 10
540.939184545
 20
116.2584506094
 10
541.7499274634
 20
115.7907467002
 10
542.5545106447
 20
115.3266030335
 10
543.3516751103
 20
114.8667457162
 10
544.1414207487
 20
114.411174632
 10
544.9237474494
 20
113.9598896659
 10
545.6986551026
 20
113.5128907039
 10
546.4661435996
 20
113.0701776329
 10
547.1022721083
 20
112.7032420927
 10
547.7332119518
 20
112.3393037125
 10
548.3589630682
 20
111.9783624275
 10
548.5685073802
 20
111.8574954968
 10
548.7774633317
 20
111.7369683979
 10
548.9858309205
 20
111.6167811282
 10
549.1950930183
 20
111.4960783624
 10
549.4111144509
 20
111.3714772839
 10
549.6344974059
 20
111.2426305994
 10
549.8652419163
 20
111.109538342
 10
550.1033480161
 20
110.972200546
 10
550.3488157407
 20
110.8306172468
 10
550.6016451263
 20
110.6847884806
 10
550.8618362103
 20
110.534714285
 10
551.1293890313
 20
110.3803946987
 10
551.4043036289
 20
110.2218297615
 10
551.686580044
 20
110.0590195141
 10
552.0055870499
 20
109.8750249589
 10
552.3335019629
 20
109.6858936868
 10
552.6703248422
 20
109.4916257567
 10
553.0160557484
 20
109.2922212294
 10
553.3706947439
 20
109.0876801672
 10
553.7008240447
 20
108.8972764772
 10
554.0383155049
 20
108.7026278192
 10
554.383169175
 20
108.5037342436
 10
554.7353851066
 20
108.3005958019
 10
555.0949633524
 20
108.0932125467
 10
555.4619039663
 20
107.881584532
 10
555.8362070034
 20
107.6657118125
 10
556.2564440102
 20
107.4233492542
 10
556.6855896937
 20
107.1758507474
 10
557.123644132
 20
106.9232163699
 10
557.5706074051
 20
106.6654462015
 10
558.0264795947
 20
106.4025403234
 10
558.4912607842
 20
106.1344988187
 10
558.9649510587
 20
105.8613217722
 10
559.4475505052
 20
105.5830092701
 10
559.9390592124
 20
105.2995614008
 10
560.4394772708
 20
105.010978254
 10
560.93963151
 20
104.7225499223
 10
561.4483799283
 20
104.4291682553
 10
561.9657226165
 20
104.130833343
 10
562.491659667
 20
103.8275452771
  0
SPLINE
  5
175
330
1F
100
AcDbEntity
  8
0
  6
Continuous
 62
     7
370
    30
100
AcDbSpline
210
0.0
220
0.0
230
1.0
 70
     8
 71
     3
 72
    67
 73
    63
 74
     0
 42
0.000000001
 43
0.00000001
 40
0.0
 40
0.0
 40
0.0
 40
0.0
 40
0.0212973586122401
 40
0.0440868118385861
 40
0.0670898266487731
 40
0.0947528214017149
 40
0.1227184827984358
 40
0.150986810838953
 40
0.1753180369401882
 40
0.1998691106488327
 40
0.2246400319649285
 40
0.2495831832081539
 40
0.2746414472495805
 40
0.2998147085110079
 40
0.3251029669923945
 40
0.3505062226937101
 40
0.3804593333940901
 40
0.4105707620448125
 40
0.4408405086458447
 40
0.452775510117119
 40
0.4647344786309318
 40
0.476588148487717
 40
0.4882352376981832
 40
0.4996757462623224
 40
0.5109096741801237
 40
0.5236223267759493
 40
0.5360596339948088
 40
0.5482215958366676
 40
0.5601082123014935
 40
0.5717194833892469
 40
0.5830554090998862
 40
0.59349137373876
 40
0.6036825619565962
 40
0.6136289737533592
 40
0.6233608904585728
 40
0.6331472609089159
 40
0.6479284931789459
 40
0.6629707075119461
 40
0.6782739039079034
 40
0.693838082366801
 40
0.709663242888615
 40
0.7257493854733188
 40
0.7507622815634051
 40
0.7758376867188135
 40
0.8009332486582711
 40
0.8260489673816968
 40
0.8511848428890078
 40
0.8763408751801245
 40
0.9015170642549653
 40
0.9077100296432279
 40
0.9139044367017808
 40
0.9202222874186767
 40
0.9267662146398588
 40
0.9335362183653233
 40
0.9404053860961038
 40
0.9474926282610019
 40
0.9547979448600042
 40
0.9623213358930948
 40
0.9715620912036664
 40
0.9811119089207672
 40
0.9909707890443632
 40
1.0
 40
1.0
 40
1.0
 40
1.0
 10
455.620972943826
 20
165.5150260185407
 30
0.0
 10
455.8431092792233
 20
165.3866826203188
 30
0.0
 10
456.3029448390915
 20
165.1210040753334
 30
0.0
 10
457.002713668277
 20
164.7167067759127
 30
0.0
 10
457.7688828314411
 20
164.2740512926514
 30
0.0
 10
458.5890481813456
 20
163.8002064525042
 30
0.0
 10
459.4641403004051
 20
163.2946360106471
 30
0.0
 10
460.3044870817
 20
162.8091469176539
 30
0.0
 10
461.1092235904666
 20
162.3442377103027
 30
0.0
 10
461.8774849815422
 20
161.9004069310773
 30
0.0
 10
462.6521345922783
 20
161.452891893808
 30
0.0
 10
463.4320801795693
 20
161.0023237272903
 30
0.0
 10
464.2162283339171
 20
160.5493341944994
 30
0.0
 10
465.0039820602638
 20
160.0942682583447
 30
0.0
 10
465.795340218721
 20
159.6371266614086
 30
0.0
 10
466.6365639376527
 20
159.1511863380995
 30
0.0
 10
467.5281064067983
 20
158.6361870030251
 30
0.0
 10
468.470420912278
 20
158.0918684460693
 30
0.0
 10
469.2247875024992
 20
157.6561235500074
 30
0.0
 10
469.7897999646091
 20
157.3297591942149
 30
0.0
 10
470.1627051625258
 20
157.1143619188948
 30
0.0
 10
470.5326081129933
 20
156.900700233877
 30
0.0
 10
470.8971037129364
 20
156.6901633124818
 30
0.0
 10
471.2551354014051
 20
156.4833613668017
 30
0.0
 10
471.6242837680161
 20
156.2701397009745
 30
0.0
 10
472.0038316125983
 20
156.0509127303413
 30
0.0
 10
472.3930617334465
 20
155.826094864726
 30
0.0
 10
472.7736760337486
 20
155.6062549864112
 30
0.0
 10
473.1456744490895
 20
155.391393030009
 30
0.0
 10
473.5090569166775
 20
155.1815089315676
 30
0.0
 10
473.8573074330803
 20
154.9803661118597
 30
0.0
 10
474.1907447637911
 20
154.7877802825401
 30
0.0
 10
474.5096876784968
 20
154.6035671663806
 30
0.0
 10
474.8212868896055
 20
154.423596600143
 30
0.0
 10
475.1286639013037
 20
154.2460656336376
 30
0.0
 10
475.486479262371
 20
154.0394042493794
 30
0.0
 10
475.899693910866
 20
153.8007478596163
 30
0.0
 10
476.3704632709674
 20
153.5288524272492
 30
0.0
 10
476.8494029794932
 20
153.2522405202462
 30
0.0
 10
477.3365131120487
 20
152.9709122157049
 30
0.0
 10
477.831793744171
 20
152.6848675927735
 30
0.0
 10
478.4256497481954
 20
152.3418947682689
 30
0.0
 10
479.1160125184055
 20
151.9431904681938
 30
0.0
 10
479.9003714028335
 20
151.4902070710936
 30
0.0
 10
480.685808739365
 20
151.0366072168085
 30
0.0
 10
481.4718826646721
 20
150.5826461030661
 30
0.0
 10
482.2585931917833
 20
150.1283237350041
 30
0.0
 10
483.0459403307731
 20
149.6736401195674
 30
0.0
 10
483.6356632613084
 20
149.3330869265065
 30
0.0
 10
484.0275628066782
 20
149.1067747636893
 30
0.0
 10
484.2227141737524
 20
148.9940801314847
 30
0.0
 10
484.4215276084681
 20
148.879271155617
 30
0.0
 10
484.6263468557615
 20
148.760994422583
 30
0.0
 10
484.8369185936754
 20
148.6393962576308
 30
0.0
 10
485.053159361138
 20
148.5145248925469
 30
0.0
 10
485.274985686174
 20
148.3864285655849
 30
0.0
 10
485.503638202779
 20
148.2543909010364
 30
0.0
 10
485.7547593069899
 20
148.1093791292373
 30
0.0
 10
486.0292984693246
 20
147.950845159665
 30
0.0
 10
486.3282052131661
 20
147.7782409413099
 30
0.0
 10
486.6249056786029
 20
147.6069115806888
 30
0.0
 10
486.821971044738
 20
147.493117212131
 30
0.0
 10
486.9161756287492
 20
147.438719266094
 30
0.0
  0
SPLINE
  5
176
330
1F
100
AcDbEntity
  8
0
  6
Continuous
 62
     7
370
    30
100
AcDbSpline
210
0.0
220
0.0
230
1.0
 70
     8
 71
     3
 72
    54
 73
    50
 74
     0
 42
0.000000001
 43
0.00000001
 40
0.0
 40
0.0
 40
0.0
 40
0.0
 40
0.0305892810890129
 40
0.0551601626436799
 40
0.0737200293938998
 40
0.0863385738883267
 40
0.0967420019603971
 40
0.1071599672207398
 40
0.1319819967415062
 40
0.1584564509208477
 40
0.1847470772744862
 40
0.2147231194299718
 40
0.2446411250602
 40
0.2725722520148371
 40
0.2996457012305478
 40
0.32394734375948
 40
0.3489000449368335
 40
0.3782420511412227
 40
0.4114327175673804
 40
0.4457926751988511
 40
0.4723709065729262
 40
0.4954928270500085
 40
0.5112066639239391
 40
0.5317975190739322
 40
0.5570264480244813
 40
0.5792511018984616
 40
0.596280897054755
 40
0.6106554843635793
 40
0.6247960248886235
 40
0.6385587585089443
 40
0.656499833772307
 40
0.6787678729001454
 40
0.6996339278806782
 40
0.7157010365028567
 40
0.7295543965944529
 40
0.7469201676005641
 40
0.7682783806082683
 40
0.7871450936173893
 40
0.8010935228985115
 40
0.8118263154485821
 40
0.8241298020007954
 40
0.8382898819147879
 40
0.8541795499307645
 40
0.8715036810494016
 40
0.8892282725970413
 40
0.9075403882293235
 40
0.9311471480530422
 40
0.9620086370336988
 40
1.0
 40
1.0
 40
1.0
 40
1.0
 10
441.3033307158342
 20
234.5456584987953
 30
0.0
 10
441.2901696584627
 20
234.537339529486
 30
0.0
 10
441.2664369638935
 20
234.5223383367875
 30
0.0
 10
441.2354482582639
 20
234.5009266444285
 30
0.0
 10
441.2123181528522
 20
234.4841642563901
 30
0.0
 10
441.195121418014
 20
234.4712105061406
 30
0.0
 10
441.1813922563406
 20
234.4605792519997
 30
0.0
 10
441.1629322630887
 20
234.4459230935651
 30
0.0
 10
441.1385617075379
 20
234.4257551528966
 30
0.0
 10
441.1086700291364
 20
234.3995063310419
 30
0.0
 10
441.0776756900191
 20
234.3705921897191
 30
0.0
 10
441.0463675478879
 20
234.3394571098149
 30
0.0
 10
441.0156085916713
 20
234.3067220752931
 30
0.0
 10
440.9870272283069
 20
234.2742620983233
 30
0.0
 10
440.961090917059
 20
234.2429208312198
 30
0.0
 10
440.9369762976269
 20
234.2120140696688
 30
0.0
 10
440.9131667956621
 20
234.1797241470728
 30
0.0
 10
440.8877307495216
 20
234.1429933420635
 30
0.0
 10
440.8609876280916
 20
234.1014267532176
 30
0.0
 10
440.8364814468152
 20
234.0601181141114
 30
0.0
 10
440.8157985647575
 20
234.0225303254339
 30
0.0
 10
440.8004954450443
 20
233.9929118760444
 30
0.0
 10
440.7871418019227
 20
233.9657310549142
 30
0.0
 10
440.7738885815771
 20
233.9374238000372
 30
0.0
 10
440.7599494666803
 20
233.9057383060327
 30
0.0
 10
440.7474401760628
 20
233.875334420809
 30
0.0
 10
440.7375419583873
 20
233.8498561655147
 30
0.0
 10
440.7294916931093
 20
233.828132951607
 30
0.0
 10
440.7222992900773
 20
233.807850712352
 30
0.0
 10
440.7148096886218
 20
233.785772483947
 30
0.0
 10
440.7064127750215
 20
233.7597022094475
 30
0.0
 10
440.6974679166851
 20
233.7299653998099
 30
0.0
 10
440.6893742194675
 20
233.7008955345618
 30
0.0
 10
440.6828611641535
 20
233.6758080441781
 30
0.0
 10
440.6771474446027
 20
233.6524551182809
 30
0.0
 10
440.6711780020327
 20
233.6264293580606
 30
0.0
 10
440.6651344636388
 20
233.5977456780453
 30
0.0
 10
440.6599302534826
 20
233.5705865667893
 30
0.0
 10
440.6560659676982
 20
233.548664432794
 30
0.0
 10
440.6530006964686
 20
233.5300768365218
 30
0.0
 10
440.6501102617115
 20
233.5113614939287
 30
0.0
 10
440.6470651542793
 20
233.4899986215977
 30
0.0
 10
440.6439666874267
 20
233.4660110815888
 30
0.0
 10
440.6410051951281
 20
233.4401629445719
 30
0.0
 10
440.6383088046337
 20
233.4130261261496
 30
0.0
 10
440.6357518910144
 20
233.3826051595865
 30
0.0
 10
440.6333052394306
 20
233.345492906034
 30
0.0
 10
440.6311552326382
 20
233.2981499211832
 30
0.0
 10
440.6308260757468
 20
233.2625754173166
 30
0.0
 10
440.6306444548179
 20
233.2429462538103
 30
0.0
  0
LINE
  5
177
330
1F
100
AcDbEntity
  8
0
  6
Continuous
 62
     7
370
    30
100
AcDbLine
 10
448.6856877894
 20
239.1102896869
 30
0.0
 11
441.3030764538
 21
234.5455216313
 31
0.0
  0
SPLINE
  5
178
330
1F
100
AcDbEntity
  8
0
  6
Continuous
 62
     7
370
    30
100
AcDbSpline
210
0.0
220
0.0
230
1.0
 70
     8
 71
     3
 72
   106
 73
   102
 74
     0
 42
0.000000001
 43
0.00000001
 40
0.0
 40
0.0
 40
0.0
 40
0.0
 40
0.012483434961351
 40
0.0247558169551158
 40
0.0368171459817254
 40
0.0486674220415626
 40
0.0603066451349681
 40
0.0717348152622397
 40
0.0823166398085937
 40
0.0927108425756728
 40
0.102917423563636
 40
0.1129363827726126
 40
0.1227677202027104
 40
0.1335186430680584
 40
0.144035861350126
 40
0.1543193750489645
 40
0.1643691841645959
 40
0.1741852886970141
 40
0.1837676886461897
 40
0.1931163840120707
 40
0.2022313747945839
 40
0.2111126609936394
 40
0.2197602426091317
 40
0.2281741196409398
 40
0.2363542920889331
 40
0.24430075995297
 40
0.2520135232329017
 40
0.2594925819285745
 40
0.2667379360398303
 40
0.2740776442731505
 40
0.2811608603998594
 40
0.287987584419779
 40
0.294557816332735
 40
0.3008715561385628
 40
0.3069288038371095
 40
0.3183227642177952
 40
0.3294929252786362
 40
0.3404407131765469
 40
0.3511661279113453
 40
0.3616691694828388
 40
0.3719498378908295
 40
0.3820081331351125
 40
0.3910328884615822
 40
0.3998707885598834
 40
0.4085218334298606
 40
0.416999636860625
 40
0.4255247674130503
 40
0.4341744681393777
 40
0.4453633416293259
 40
0.4567539982108519
 40
0.468346437883929
 40
0.4801406606485292
 40
0.4921366665046243
 40
0.5043495649570415
 40
0.5161297168349586
 40
0.5281759834446426
 40
0.5404883647860511
 40
0.5530668608591476
 40
0.5659114716639077
 40
0.5790221972003236
 40
0.5923990374684085
 40
0.6060419924682016
 40
0.6199510621997728
 40
0.6341262466632267
 40
0.6482779685615077
 40
0.6624646217469797
 40
0.676651274932917
 40
0.6908379281193188
 40
0.8078271883361523
 40
0.8151807989817291
 40
0.8225344096274299
 40
0.8298671722896449
 40
0.8370287810231134
 40
0.8439894519833336
 40
0.8507491851702882
 40
0.8573079805839537
 40
0.8642905724107975
 40
0.8710300295318747
 40
0.8775263519471312
 40
0.8837795396565086
 40
0.8897895926599455
 40
0.8943966938449955
 40
0.8988499520471382
 40
0.903149367266346
 40
0.9072949395025921
 40
0.9112866687558534
 40
0.9151245550261113
 40
0.9188119988881928
 40
0.922510386752209
 40
0.9285231931560203
 40
0.9347817322828009
 40
0.9412860041325178
 40
0.948036008705124
 40
0.9542704489215824
 40
0.9607007857601502
 40
0.9673263921553445
 40
0.9740859515287814
 40
0.9809389385159928
 40
0.9878853531169417
 40
0.9949251953315907
 40
1.0
 40
1.0
 40
1.0
 40
1.0
 10
440.630644427031
 20
233.2428892313453
 30
0.0
 10
440.6305650313577
 20
233.0691542206932
 30
0.0
 10
440.6304075823253
 20
232.7246214750414
 30
0.0
 10
440.6301788439105
 20
232.2122300008756
 30
0.0
 10
440.6299578578389
 20
231.7086515565872
 30
0.0
 10
440.6297447923995
 20
231.213886205887
 30
0.0
 10
440.6295393341661
 20
230.7279338595757
 30
0.0
 10
440.6293449701327
 20
230.2596358716826
 30
0.0
 10
440.6291611254428
 20
229.8086660156525
 30
0.0
 10
440.6289872633966
 20
229.3746980752145
 30
0.0
 10
440.6288194810831
 20
228.9485645340154
 30
0.0
 10
440.6286576165278
 20
228.5302653489622
 30
0.0
 10
440.628495650527
 20
228.1043915988502
 30
0.0
 10
440.6283340281583
 20
227.6715846993193
 30
0.0
 10
440.6281731793173
 20
227.2324860659085
 30
0.0
 10
440.6280188903202
 20
226.8031458126094
 30
0.0
 10
440.6278709586785
 20
226.3835638860927
 30
0.0
 10
440.6277291866699
 20
225.97374023439
 30
0.0
 10
440.6275933813246
 20
225.5736748068782
 30
0.0
 10
440.6274633544074
 20
225.1833675542693
 30
0.0
 10
440.6273389224062
 20
224.8028184285977
 30
0.0
 10
440.6272199065173
 20
224.4320273832098
 30
0.0
 10
440.6271061326344
 20
224.0709943727526
 30
0.0
 10
440.6269974313344
 20
223.719719353165
 30
0.0
 10
440.6268936378699
 20
223.3782022816665
 30
0.0
 10
440.6267945921564
 20
223.0464431167478
 30
0.0
 10
440.626700138764
 20
222.724441818167
 30
0.0
 10
440.6266101269075
 20
222.4121983469187
 30
0.0
 10
440.6265231167358
 20
222.1051473001569
 30
0.0
 10
440.6264391313383
 20
221.8036058045006
 30
0.0
 10
440.6263581877385
 20
221.5078909890549
 30
0.0
 10
440.6262814940887
 20
221.2228852818802
 30
0.0
 10
440.6262089042286
 20
220.9485886517834
 30
0.0
 10
440.6261402775307
 20
220.6850010400404
 30
0.0
 10
440.6260555341462
 20
220.3542872772846
 30
0.0
 10
440.6259557837798
 20
219.9559930866688
 30
0.0
 10
440.6258424854591
 20
219.4896439400403
 30
0.0
 10
440.6257348053255
 20
219.032600119913
 30
0.0
 10
440.6256325350058
 20
218.5848416625143
 30
0.0
 10
440.6255354752379
 20
218.1463685334079
 30
0.0
 10
440.6254434309995
 20
217.7171806781086
 30
0.0
 10
440.6253585561551
 20
217.3085659473597
 30
0.0
 10
440.6252803112022
 20
216.9200298737824
 30
0.0
 10
440.6252081957073
 20
216.5510779961257
 30
0.0
 10
440.6251396633983
 20
216.1897387372364
 30
0.0
 10
440.6250739838129
 20
215.8327533088637
 30
0.0
 10
440.6250103195608
 20
215.4757882196836
 30
0.0
 10
440.6249421735963
 20
215.0810994436726
 30
0.0
 10
440.6248699996244
 20
214.6465382684822
 30
0.0
 10
440.6247945815456
 20
214.1710308998366
 30
0.0
 10
440.6247215111998
 20
213.6871026434602
 30
0.0
 10
440.6246509818149
 20
213.1947535458511
 30
0.0
 10
440.6245831614972
 20
212.6937734127292
 30
0.0
 10
440.6245193806035
 20
212.1929916551202
 30
0.0
 10
440.6244594926384
 20
211.6915134054371
 30
0.0
 10
440.624403403918
 20
211.1886535569842
 30
0.0
 10
440.6243502181106
 20
210.6746877088275
 30
0.0
 10
440.6243002060385
 20
210.1496159233946
 30
0.0
 10
440.6242536443638
 20
209.6134382705303
 30
0.0
 10
440.6242108155943
 20
209.0661548199535
 30
0.0
 10
440.6241720080916
 20
208.5077656429999
 30
0.0
 10
440.624137516082
 20
207.938270813518
 30
0.0
 10
440.6241076396668
 20
207.3576704023742
 30
0.0
 10
440.6240828547676
 20
206.769993714156
 30
0.0
 10
440.6240634456612
 20
206.1784574092136
 30
0.0
 10
440.6240495735048
 20
205.5867646051267
 30
0.0
 10
440.6240412432679
 20
204.9945888249024
 30
0.0
 10
440.6240317588506
 20
202.9720364842777
 30
0.0
 10
440.6241062790183
 20
201.0446041183165
 30
0.0
 10
440.6242524640927
 20
199.2122849682195
 30
0.0
 10
440.6242784204213
 20
198.9056391374623
 30
0.0
 10
440.6243056272216
 20
198.6016654969989
 30
0.0
 10
440.6243337759093
 20
198.3031594677518
 30
0.0
 10
440.6243625301258
 20
198.0126266512877
 30
0.0
 10
440.6243917350299
 20
197.7304813998105
 30
0.0
 10
440.6244222161944
 20
197.4480317548934
 30
0.0
 10
440.6244539312801
 20
197.1658648399766
 30
0.0
 10
440.6244868260797
 20
196.8845677807547
 30
0.0
 10
440.6245197219585
 20
196.6134195404651
 30
0.0
 10
440.6245524881023
 20
196.3524200864619
 30
0.0
 10
440.6245829072901
 20
196.1177057359619
 30
0.0
 10
440.624610817976
 20
195.9080340195477
 30
0.0
 10
440.6246361180945
 20
195.7221624813804
 30
0.0
 10
440.6246610642474
 20
195.5427124989561
 30
0.0
 10
440.6246856016189
 20
195.3696840585307
 30
0.0
 10
440.6247096773485
 20
195.203077146975
 30
0.0
 10
440.6247332474915
 20
195.0428444401438
 30
0.0
 10
440.624756606467
 20
194.8866933117844
 30
0.0
 10
440.6247849479091
 20
194.7002839268675
 30
0.0
 10
440.6248194425108
 20
194.4781048110749
 30
0.0
 10
440.624861059674
 20
194.2168898721848
 30
0.0
 10
440.6249054587641
 20
193.9454197594064
 30
0.0
 10
440.6249509938215
 20
193.674285937131
 30
0.0
 10
440.6249975183565
 20
193.4041816440511
 30
0.0
 10
440.6250448715719
 20
193.1358088552986
 30
0.0
 10
440.6250947060974
 20
192.8601313009364
 30
0.0
 10
440.6251468564022
 20
192.5785746069813
 30
0.0
 10
440.6252011116553
 20
192.2925556485483
 30
0.0
 10
440.6252574820762
 20
192.0026382682954
 30
0.0
 10
440.6253101055092
 20
191.7374598084675
 30
0.0
 10
440.6253445701139
 20
191.5689208637617
 30
0.0
 10
440.6253590072773
 20
191.498320190737
 30
0.0
  0
LWPOLYLINE
  5
179
330
1F
100
AcDbEntity
  8
0
  6
Continuous
 62
     7
370
    30
100
AcDbPolyline
 90
      107
 70
   128
 43
0.0
 10
433.3127346648
 20
157.1056178689
 10
433.3570119581
 20
157.0471223454
 10
433.4716820959
 20
156.9029036706
 10
433.5928524941
 20
156.7604672687
 10
433.7204401088
 20
156.6199107585
 10
433.8543574976
 20
156.4813304704
 10
433.9945128803
 20
156.3448213804
 10
434.1408102014
 20
156.2104770451
 10
434.293149196
 20
156.0783895372
 10
434.4514254586
 20
155.9486493831
 10
434.6155305145
 20
155.8213455001
 10
434.7853518944
 20
155.6965651359
 10
434.9607732111
 20
155.5743938088
 10
435.1416742396
 20
155.4549152489
 10
435.3279309994
 20
155.3382113409
 10
435.5194158394
 20
155.2243620677
 10
435.7159975256
 20
155.113445456
 10
435.9175413305
 20
155.0055375224
 10
436.1239091262
 20
154.9007122217
 10
436.3349594784
 20
154.799041396
 10
436.5505477439
 20
154.7005947253
 10
436.7705261691
 20
154.60543968
 10
436.9947439918
 20
154.5136414746
 10
437.2230475445
 20
154.4252630231
 10
437.4552803591
 20
154.3403648957
 10
437.691283275
 20
154.2590052772
 10
437.9308945474
 20
154.1812399276
 10
438.173949959
 20
154.1071221432
 10
438.4202829315
 20
154.0367027207
 10
438.6697246406
 20
153.9700299221
 10
438.9221041316
 20
153.9071494415
 10
439.177248436
 20
153.8481043742
 10
439.4349826908
 20
153.7929351866
 10
439.6951302577
 20
153.741679689
 10
439.9575128446
 20
153.6943730092
 10
440.2219506276
 20
153.651047569
 10
440.4882623742
 20
153.6117330615
 10
440.7562655677
 20
153.5764564308
 10
441.025776532
 20
153.5452418538
 10
441.2966105578
 20
153.5181107233
 10
441.568582029
 20
153.4950816338
 10
441.84150455
 20
153.4761703682
 10
442.1151910732
 20
153.4613898873
 10
442.3894540276
 20
153.4507503209
 10
442.6641054471
 20
153.444258961
 10
442.9389570993
 20
153.4419202562
 10
443.2138206146
 20
153.4437358095
 10
443.4885076153
 20
153.4497043766
 10
443.7628298446
 20
153.4598218668
 10
444.0365992959
 20
153.4740813463
 10
444.309628341
 20
153.4924730422
 10
444.5817298597
 20
153.5149843498
 10
444.8527173672
 20
153.5415998409
 10
445.122405142
 20
153.5723012747
 10
445.3906083537
 20
153.60706761
 10
445.6571431892
 20
153.6458750195
 10
445.9218269789
 20
153.6886969067
 10
446.1844783217
 20
153.7355039235
 10
446.4449172094
 20
153.7862639908
 10
446.7029651503
 20
153.8409423202
 10
446.9584452912
 20
153.8995014378
 10
447.2111825388
 20
153.9619012102
 10
447.4610036796
 20
154.0280988717
 10
447.7077374987
 20
154.0980490537
 10
447.951214897
 20
154.1717038159
 10
448.1912690073
 20
154.2490126789
 10
448.4277353085
 20
154.3299226591
 10
448.6604517383
 20
154.4143783049
 10
448.8892588047
 20
154.5023217345
 10
449.1139996946
 20
154.593692676
 10
449.3345203818
 20
154.6884285083
 10
449.5506697326
 20
154.7864643041
 10
449.7622996089
 20
154.8877328747
 10
449.9692649701
 20
154.9921648156
 10
450.1714239727
 20
155.0996885543
 10
450.3686380668
 20
155.2102303995
 10
450.5607720919
 20
155.3237145913
 10
450.7476943687
 20
155.4400633534
 10
450.9292767902
 20
155.559196946
 10
451.1053949088
 20
155.681033721
 10
451.275928022
 20
155.8054901775
 10
451.4407592549
 20
155.9324810193
 10
451.5997756403
 20
156.0619192132
 10
451.7528681965
 20
156.1937160488
 10
451.8999320013
 20
156.327781199
 10
452.0408662647
 20
156.4640227823
 10
452.1755743973
 20
156.6023474256
 10
452.3039640769
 20
156.742660328
 10
452.4259473116
 20
156.8848653261
 10
452.5414405002
 20
157.0288649597
 10
452.6503644895
 20
157.1745605386
 10
452.7526446283
 20
157.3218522104
 10
452.8482108191
 20
157.4706390286
 10
452.9369975654
 20
157.6208190224
 10
453.0189440173
 20
157.7722892656
 10
453.0939940127
 20
157.9249459484
 10
453.1620961163
 20
158.0786844473
 10
453.2232036541
 20
158.2333993977
 10
453.2772747462
 20
158.3889847656
 10
453.3242723349
 20
158.5453339208
 10
453.3641642103
 20
158.7023397091
 10
453.3969230327
 20
158.8598945268
 10
453.4225263508
 20
159.0178903937
 10
453.4409566172
 20
159.1762190271
 10
453.4522012009
 20
159.3347719167
 10
453.4562523953
 20
159.4934403982
 10
453.456266663
 20
159.5034329965
  0
LWPOLYLINE
  5
17A
330
1F
100
AcDbEntity
  8
0
  6
Continuous
 62
     7
370
    30
100
AcDbPolyline
 90
      122
 70
   128
 43
0.0
 10
432.478766663
 20
153.5295154047
 10
432.4819191321
 20
153.381151279
 10
432.4922359588
 20
153.2229176491
 10
432.5097243095
 20
153.0648941459
 10
432.5343721984
 20
152.9071890709
 10
432.5661627333
 20
152.7499105073
 10
432.6050741263
 20
152.593166246
 10
432.6510797097
 20
152.4370637116
 10
432.7041479535
 20
152.281709889
 10
432.7642424873
 20
152.12721125
 10
432.8313221254
 20
151.9736736802
 10
432.9053408947
 20
151.8212024067
 10
432.9862480665
 20
151.6699019255
 10
433.073988191
 20
151.5198759305
 10
433.1685011355
 20
151.371227242
 10
433.2697221257
 20
151.2240577364
 10
433.3775817896
 20
151.0784682764
 10
433.4920062056
 20
150.9345586416
 10
433.6129169531
 20
150.7924274606
 10
433.7402311657
 20
150.6521721429
 10
433.8738615886
 20
150.5138888125
 10
434.0137166384
 20
150.377672242
 10
434.1597004652
 20
150.2436157874
 10
434.3117130191
 20
150.1118113242
 10
434.4696501183
 20
149.9823491847
 10
434.6334035205
 20
149.8553180957
 10
434.8028609974
 20
149.730805118
 10
434.9779064113
 20
149.6088955866
 10
435.1584197948
 20
149.4896730522
 10
435.344277433
 20
149.373219224
 10
435.5353519484
 20
149.2596139135
 10
435.731512388
 20
149.1489349802
 10
435.9326243133
 20
149.041258278
 10
436.1385498923
 20
148.936657603
 10
436.3491479938
 20
148.8352046433
 10
436.5642742844
 20
148.7369689297
 10
436.7837813273
 20
148.642017788
 10
437.0075186833
 20
148.5504162931
 10
437.235333014
 20
148.4622272241
 10
437.4670681869
 20
148.3775110212
 10
437.7025653822
 20
148.2963257448
 10
437.941663202
 20
148.2187270351
 10
438.1841977805
 20
148.1447680746
 10
438.4300028966
 20
148.0744995508
 10
438.6789100878
 20
148.0079696225
 10
438.9307487656
 20
147.9452238858
 10
439.1853463322
 20
147.8863053436
 10
439.4425282993
 20
147.8312543757
 10
439.7021184071
 20
147.7801087113
 10
439.9639387456
 20
147.732903403
 10
440.2278098762
 20
147.6896708031
 10
440.4935509548
 20
147.6504405409
 10
440.7609798557
 20
147.615239503
 10
441.0299132965
 20
147.5840918143
 10
441.3001669638
 20
147.557018822
 10
441.571555639
 20
147.5340390805
 10
441.843893326
 20
147.5151683391
 10
442.1169933781
 20
147.5004195306
 10
442.3906686261
 20
147.4898027634
 10
442.6647315069
 20
147.4833253134
 10
442.9389941912
 20
147.4809916202
 10
443.2132687133
 20
147.482803283
 10
443.487367099
 20
147.4887590603
 10
443.761101495
 20
147.4988548702
 10
444.0342842974
 20
147.5130837936
 10
444.3067282803
 20
147.5314360788
 10
444.5782467243
 20
147.5538991478
 10
444.8486535442
 20
147.5804576058
 10
445.1177634167
 20
147.6110932508
 10
445.3853919072
 20
147.6457850868
 10
445.6513555967
 20
147.6845093376
 10
445.9154722068
 20
147.7272394636
 10
446.1775607252
 20
147.7739461796
 10
446.4374415297
 20
147.8245974754
 10
446.6949365107
 20
147.8791586369
 10
446.9498691942
 20
147.9375922707
 10
447.202064862
 20
147.9998583293
 10
447.4513506717
 20
148.0659141387
 10
447.6975557755
 20
148.1357144274
 10
447.9405114365
 20
148.2092113579
 10
448.1800511451
 20
148.2863545591
 10
448.4160107328
 20
148.3670911608
 10
448.6482284846
 20
148.4513658302
 10
448.8765452501
 20
148.5391208096
 10
449.1008045523
 20
148.6302959563
 10
449.3208526953
 20
148.7248287832
 10
449.5365388689
 20
148.8226545023
 10
449.7477152526
 20
148.9237060688
 10
449.9542371166
 20
149.0279142269
 10
450.1559629213
 20
149.1352075577
 10
450.3527544138
 20
149.2455125275
 10
450.5444767231
 20
149.3587535389
 10
450.7309984522
 20
149.4748529821
 10
450.9121917685
 20
149.5937312885
 10
451.0879324912
 20
149.7153069847
 10
451.2581001762
 20
149.8394967488
 10
451.4225781993
 20
149.9662154673
 10
451.5812538354
 20
150.0953762937
 10
451.734018336
 20
150.2268907075
 10
451.8807670042
 20
150.3606685752
 10
452.0213992656
 20
150.4966182123
 10
452.1558187379
 20
150.6346464457
 10
452.2839332967
 20
150.7746586776
 10
452.4056551388
 20
150.9165589507
 10
452.520900842
 20
151.0602500136
 10
452.6295914227
 20
151.2056333877
 10
452.7316523898
 20
151.3526094345
 10
452.8270137959
 20
151.5010774238
 10
452.9156102849
 20
151.6509356033
 10
452.9973811372
 20
151.8020812675
 10
453.0722703113
 20
151.9544108287
 10
453.1402264818
 20
152.107819888
 10
453.2012030749
 20
152.2622033063
 10
453.2551583003
 20
152.4174552771
 10
453.3020551799
 20
152.5734693983
 10
453.3418615727
 20
152.7301387457
 10
453.3745501976
 20
152.887355946
 10
453.4000986514
 20
153.0450132502
 10
453.4184894244
 20
153.203002608
 10
453.4297099126
 20
153.3612157414
 10
453.4337524259
 20
153.519544219
 10
453.433766663
 20
153.5295154047
  0
LINE
  5
17B
330
1F
100
AcDbEntity
  8
0
  6
Continuous
 62
     7
370
    30
100
AcDbLine
 10
425.5573812316
 20
182.7997617748
 30
0.0
 11
425.5583614986
 21
182.8003275231
 31
0.0
  0
LWPOLYLINE
  5
17C
330
1F
100
AcDbEntity
  8
0
  6
Continuous
 62
     7
370
    30
100
AcDbPolyline
 90
       92
 70
   128
 43
0.0
 10
466.2907904421
 20
201.2427316453
 10
466.568438907
 20
201.0782514761
 10
466.8458970855
 20
200.9054897891
 10
467.1229748216
 20
200.7245649865
 10
467.3994822202
 20
200.5356010652
 10
467.6752297767
 20
200.3387275317
 10
467.9500285077
 20
200.1340793131
 10
468.2236900798
 20
199.9217966651
 10
468.4960269391
 20
199.7020250757
 10
468.7668524394
 20
199.4749151654
 10
469.0359809705
 20
199.2406225839
 10
469.3032280851
 20
198.9993079037
 10
469.5684106255
 20
198.7511365097
 10
469.8313468487
 20
198.4962784863
 10
470.0918565514
 20
198.2349085005
 10
470.3497611932
 20
197.9672056821
 10
470.6048840193
 20
197.6933535013
 10
470.8570501811
 20
197.4135396427
 10
471.1060868565
 20
197.1279558767
 10
471.3518233683
 20
196.8367979283
 10
471.594091301
 20
196.5402653424
 10
471.8327246162
 20
196.2385613478
 10
472.0675597665
 20
195.9318927173
 10
472.2984358077
 20
195.6204696262
 10
472.5251945088
 20
195.3045055084
 10
472.7476804608
 20
194.9842169098
 10
472.9657411829
 20
194.6598233404
 10
473.1792272272
 20
194.3315471232
 10
473.387992281
 20
193.9996132424
 10
473.5918932671
 20
193.6642491888
 10
473.7907904421
 20
193.3256848043
 10
473.9845474917
 20
192.984152124
 10
474.1730316246
 20
192.6398852172
 10
474.3561136631
 20
192.2931200274
 10
474.5336681319
 20
191.9440942101
 10
474.7055733441
 20
191.5930469701
 10
474.8717114844
 20
191.2402188977
 10
475.03196869
 20
190.8858518036
 10
475.1862351287
 20
190.5301885534
 10
475.334405074
 20
190.1734729008
 10
475.4763769775
 20
189.8159493209
 10
475.6120535389
 20
189.4578628426
 10
475.7413417721
 20
189.0994588804
 10
475.8641530696
 20
188.7409830665
 10
475.9804032624
 20
188.3826810823
 10
476.0900126787
 20
188.0247984902
 10
476.1929061975
 20
187.6675805649
 10
476.2890133008
 20
187.3112721257
 10
476.3782681216
 20
186.9561173688
 10
476.460609489
 20
186.6023596993
 10
476.5359809705
 20
186.2502415653
 10
476.6043309101
 20
185.9000042907
 10
476.6656124643
 20
185.5518879108
 10
476.7197836337
 20
185.2061310071
 10
476.7668072921
 20
184.8629705442
 10
476.8066512119
 20
184.5226417071
 10
476.8392880859
 20
184.1853777402
 10
476.8646955466
 20
183.8514097873
 10
476.8828561809
 20
183.5209667334
 10
476.8937575424
 20
183.1942750477
 10
476.8973921599
 20
182.8715586283
 10
476.8937575424
 20
182.553038649
 10
476.8828561809
 20
182.2389334074
 10
476.8646955466
 20
181.9294581755
 10
476.8392880859
 20
181.6248250523
 10
476.8066512119
 20
181.3252428181
 10
476.7668072921
 20
181.0309167915
 10
476.7197836337
 20
180.7420486889
 10
476.6656124643
 20
180.4588364862
 10
476.6043309101
 20
180.1814742827
 10
476.5359809705
 20
179.9101521687
 10
476.460609489
 20
179.6450560948
 10
476.3782681216
 20
179.3863677446
 10
476.2890133008
 20
179.1342644102
 10
476.1929061975
 20
178.8889188706
 10
476.0900126787
 20
178.6504992734
 10
475.9804032624
 20
178.4191690195
 10
475.8641530696
 20
178.1950866511
 10
475.7413417721
 20
177.978405743
 10
475.6120535389
 20
177.7692747976
 10
475.4763769775
 20
177.5678371426
 10
475.334405074
 20
177.3742308335
 10
475.1862351287
 20
177.1885885583
 10
475.03196869
 20
177.011037547
 10
474.8717114844
 20
176.8416994841
 10
474.7055733441
 20
176.6806904255
 10
474.5336681319
 20
176.5281207188
 10
474.3561136631
 20
176.3840949276
 10
474.1730316246
 20
176.24871176
 10
473.9845474917
 20
176.1220640009
 10
473.7907904421
 20
176.0042384483
 10
473.7901809369
 20
176.0038865313
  0
ARC
  5
17D
330
1F
100
AcDbEntity
  8
0
  6
Continuous
 62
     7
370
    30
100
AcDbCircle
 10
461.8962929911
 20
195.1024767755
 30
0.0
 40
7.550783913747082
100
AcDbArc
 50
54.4092132707
 51
114.2803283002
  0
SPLINE
  5
17E
330
1F
100
AcDbEntity
  8
0
  6
Continuous
 62
     7
370
    30
100
AcDbSpline
210
0.0
220
0.0
230
1.0
 70
     8
 71
     3
 72
    21
 73
    17
 74
     0
 42
0.000000001
 43
0.00000001
 40
0.0
 40
0.0
 40
0.0
 40
0.0
 40
0.0039730501555415
 40
0.0933835242224912
 40
0.1827929242998413
 40
0.2727971329097157
 40
0.3628006327079467
 40
0.4371307767278665
 40
0.5114608232800258
 40
0.5861585765983445
 40
0.6608564642495544
 40
0.7521554741370104
 40
0.8436180233100782
 40
0.9055731742181797
 40
0.9675404765606709
 40
1.0
 40
1.0
 40
1.0
 40
1.0
 10
449.2149917767375
 20
161.8169370655495
 30
0.0
 10
449.2187680487947
 20
161.8191153651147
 30
0.0
 10
449.3075264533769
 20
161.8703146407956
 30
0.0
 10
449.4784238409969
 20
161.9691717158222
 30
0.0
 10
449.7261430352585
 20
162.1125743813237
 30
0.0
 10
449.9690320481187
 20
162.2532557941571
 30
0.0
 10
450.1931566181568
 20
162.3830047138657
 30
0.0
 10
450.3985765300185
 20
162.5017940597848
 30
0.0
 10
450.5864762137822
 20
162.6103207201022
 30
0.0
 10
450.7700648440605
 20
162.716205622222
 30
0.0
 10
450.9623758853261
 20
162.8269776612727
 30
0.0
 10
451.1616052439701
 20
162.9415942718387
 30
0.0
 10
451.3440101501172
 20
163.0464696451803
 30
0.0
 10
451.4989167644808
 20
163.1355904748862
 30
0.0
 10
451.6087817403975
 20
163.1988456465881
 30
0.0
 10
451.6725528758255
 20
163.2356710680239
 30
0.0
 10
451.6944744076364
 20
163.2483299244491
 30
0.0
  0
LINE
  5
17F
330
1F
100
AcDbEntity
  8
0
  6
Continuous
 62
     7
370
    30
100
AcDbLine
 10
487.0290070606
 20
91.3249964988
 30
0.0
 11
487.0276671961
 21
91.3242228405
 31
0.0
  0
LINE
  5
180
330
1F
100
AcDbEntity
  8
0
  6
Continuous
 62
     7
370
    30
100
AcDbLine
 10
482.4928366361
 20
144.707486724
 30
0.0
 11
482.4372064466
 21
144.6756654203
 31
0.0
  0
LWPOLYLINE
  5
181
330
1F
100
AcDbEntity
  8
0
  6
Continuous
 62
     7
370
    30
100
AcDbPolyline
 90
        3
 70
   128
 43
0.0
 10
506.685235713
 20
102.6722955948
 10
506.6862210798
 20
102.6728645274
 10
506.744668854
 20
102.7069436048
  0
LINE
  5
182
330
1F
100
AcDbEntity
  8
0
  6
Continuous
 62
     7
370
    30
100
AcDbLine
 10
484.1555385403
 20
145.8253065362
 30
0.0
 11
484.1571507747
 21
145.8262485336
 31
0.0
  0
SPLINE
  5
183
330
1F
100
AcDbEntity
  8
0
  6
Continuous
 62
     7
370
    30
100
AcDbSpline
210
0.0
220
0.0
230
1.0
 70
     8
 71
     3
 72
    16
 73
    12
 74
     0
 42
0.000000001
 43
0.00000001
 40
0.0
 40
0.0
 40
0.0
 40
0.0
 40
0.1304314950782378
 40
0.2576873606837746
 40
0.3817673260728417
 40
0.5026711274503404
 40
0.6203985079861524
 40
0.7349492178336239
 40
0.8463230141505894
 40
0.9545196611233986
 40
1.0
 40
1.0
 40
1.0
 40
1.0
 10
554.8448281153636
 20
138.1464041046406
 30
0.0
 10
554.8203888004184
 20
137.3466189251308
 30
0.0
 10
554.7721051971264
 20
135.7665210208764
 30
0.0
 10
554.3906021105146
 20
133.6381340545958
 30
0.0
 10
553.8090596193194
 20
131.746944144858
 30
0.0
 10
553.0302316209147
 20
130.1140597307145
 30
0.0
 10
552.084300686601
 20
128.7413778716949
 30
0.0
 10
550.9987812623444
 20
127.6208778710995
 30
0.0
 10
549.787468245008
 20
126.7711813504547
 30
0.0
 10
548.7502364469025
 20
126.2171774237294
 30
0.0
 10
548.0698382601004
 20
126.0571929093272
 30
0.0
 10
547.8684760331166
 20
126.0098458723599
 30
0.0
  0
SPLINE
  5
184
330
1F
100
AcDbEntity
  8
0
  6
Continuous
 62
     7
370
    30
100
AcDbSpline
210
0.0
220
0.0
230
1.0
 70
     8
 71
     3
 72
    27
 73
    23
 74
     0
 42
0.000000001
 43
0.00000001
 40
0.0
 40
0.0
 40
0.0
 40
0.0
 40
0.0523732445750429
 40
0.1047464931556818
 40
0.1571197497774486
 40
0.2094930184758758
 40
0.2618663032864918
 40
0.3142396082448219
 40
0.3666129373863865
 40
0.4189862947466998
 40
0.47135968436127
 40
0.523733110265599
 40
0.5761065764951784
 40
0.6284800870854916
 40
0.6808536460720113
 40
0.7332272574901985
 40
0.7856009253755041
 40
0.8379746537633639
 40
0.8903484466892003
 40
0.9427223081884211
 40
0.9950962422964177
 40
1.0
 40
1.0
 40
1.0
 40
1.0
 10
554.8448281153636
 20
138.1464041046405
 30
0.0
 10
554.8156949400809
 20
139.0502948910012
 30
0.0
 10
554.7574285872873
 20
140.8580765328538
 30
0.0
 10
554.288728382095
 20
143.7433954246554
 30
0.0
 10
553.549299129598
 20
146.694021253535
 30
0.0
 10
552.5242821879579
 20
149.675250875065
 30
0.0
 10
551.2385416827673
 20
152.6318192764535
 30
0.0
 10
549.7120545714865
 20
155.5142446201199
 30
0.0
 10
547.9714080128264
 20
158.2728691638322
 30
0.0
 10
546.0461722462446
 20
160.8605323790176
 30
0.0
 10
543.9692442787023
 20
163.2328897690729
 30
0.0
 10
541.7760586488465
 20
165.3493006004857
 30
0.0
 10
539.5040369252409
 20
167.1734954511006
 30
0.0
 10
537.1919505996523
 20
168.6741791094233
 30
0.0
 10
534.879189155782
 20
169.8256645929119
 30
0.0
 10
532.6053570787969
 20
170.6079361453698
 30
0.0
 10
530.4085808520543
 20
171.0083992216208
 30
0.0
 10
528.3286470716222
 20
171.0168424514539
 30
0.0
 10
526.3921751457293
 20
170.6452190105012
 30
0.0
 10
524.6649576157355
 20
169.8542688960578
 30
0.0
 10
523.540567448586
 20
169.1375560354688
 30
0.0
 10
523.0729959612836
 20
168.5932340422647
 30
0.0
 10
523.032965415179
 20
168.5466325979156
 30
0.0
  0
ELLIPSE
  5
185
330
1F
100
AcDbEntity
  8
0
  6
Continuous
 62
     7
370
    30
100
AcDbEllipse
 10
570.6180375952
 20
167.5853568933
 30
0.0
 11
-0.9999186583269194
 21
1.732097767663731
 31
0.0
210
0.0
220
0.0
230
1.0
 40
0.5775574346
 41
3.927224423794215
 42
5.497716163968065
  0
LINE
  5
186
330
1F
100
AcDbEntity
  8
0
  6
Continuous
 62
     7
370
    30
100
AcDbLine
 10
570.6184684114
 20
169.2184385762
 30
0.0
 11
449.7027780456
 21
239.0215808429
 31
0.0
  0
LINE
  5
187
330
1F
100
AcDbEntity
  8
0
  6
Continuous
 62
     7
370
    30
100
AcDbLine
 10
572.032466582
 20
166.7693219099
 30
0.0
 11
572.032466582
 21
108.794426834
 31
0.0
  0
SPLINE
  5
188
330
1F
100
AcDbEntity
  8
0
  6
Continuous
 62
     7
370
    30
100
AcDbSpline
210
0.0
220
0.0
230
1.0
 70
     8
 71
     3
 72
     9
 73
     5
 74
     0
 42
0.000000001
 43
0.00000001
 40
0.0
 40
0.0
 40
0.0
 40
0.0
 40
0.7921401025896386
 40
1.0
 40
1.0
 40
1.0
 40
1.0
 10
525.2208699643409
 20
170.0490464499319
 30
0.0
 10
524.9041169529597
 20
169.8563705903046
 30
0.0
 10
524.5042470178995
 20
169.6131360172822
 30
0.0
 10
524.1829111789451
 20
169.2542607708437
 30
0.0
 10
524.1161183444258
 20
169.1796649989359
 30
0.0
  0
SPLINE
  5
189
330
1F
100
AcDbEntity
  8
0
  6
Continuous
 62
     7
370
    30
100
AcDbSpline
210
0.0
220
0.0
230
1.0
 70
     8
 71
     3
 72
     9
 73
     5
 74
     0
 42
0.000000001
 43
0.00000001
 40
0.0
 40
0.0
 40
0.0
 40
0.0
 40
0.8962544067281305
 40
0.9999999999999999
 40
0.9999999999999999
 40
0.9999999999999999
 40
0.9999999999999999
 10
550.2470818194633
 20
127.1388405417129
 30
0.0
 10
549.8515921746447
 20
126.9170114451571
 30
0.0
 10
549.4103227740708
 20
126.6695046045876
 30
0.0
 10
548.8953725505551
 20
126.5747366407328
 30
0.0
 10
548.8419487341109
 20
126.5649048820995
 30
0.0
  0
ELLIPSE
  5
18A
330
1F
100
AcDbEntity
  8
0
  6
Continuous
 62
     7
370
    30
100
AcDbEllipse
 10
570.6180375952
 20
109.6114567981
 30
0.0
 11
-1.00022341501051
 21
1.732625335833816
 31
0.0
210
0.0
220
0.0
230
1.0
 40
0.5772057094
 41
3.124143257728484
 42
3.926919738307313
  0
ELLIPSE
  5
18B
330
1F
100
AcDbEntity
  8
0
  6
Continuous
 62
     7
370
    30
100
AcDbEllipse
 10
449.7032088611
 20
237.3880017506
 30
0.0
 11
-1.000223415010566
 21
1.732625335833859
 31
0.0
210
0.0
220
0.0
230
1.0
 40
0.5772057094
 41
5.498020651223401
 42
6.300634702875261
  0
ENDSEC
  0
SECTION
  2
OBJECTS
  0
DICTIONARY
  5
C
330
0
100
AcDbDictionary
281
     1
  3
ACAD_GROUP
350
D
  3
ACAD_LAYOUT
350
1A
  3
ACAD_MLINESTYLE
350
17
  3
ACAD_PLOTSETTINGS
350
19
  3
ACAD_PLOTSTYLENAME
350
E
  3
ACAD_SCALELIST
350
47
  0
DICTIONARY
  5
D
102
{ACAD_REACTORS
330
C
102
}
330
C
100
AcDbDictionary
281
     1
  0
DICTIONARY
  5
1A
102
{ACAD_REACTORS
330
C
102
}
330
C
100
AcDbDictionary
281
     1
  3
Layout1
350
1E
  3
Layout2
350
26
  3
Model
350
22
  0
DICTIONARY
  5
17
102
{ACAD_REACTORS
330
C
102
}
330
C
100
AcDbDictionary
281
     1
  3
Standard
350
18
  0
DICTIONARY
  5
19
102
{ACAD_REACTORS
330
C
102
}
330
C
100
AcDbDictionary
281
     1
  0
ACDBDICTIONARYWDFLT
  5
E
102
{ACAD_REACTORS
330
C
102
}
330
C
100
AcDbDictionary
281
     1
  3
Normal
350
F
100
AcDbDictionaryWithDefault
340
F
  0
DICTIONARY
  5
47
102
{ACAD_REACTORS
330
C
102
}
330
C
100
AcDbDictionary
281
     1
  3
A0
350
48
  3
A1
350
49
  3
A2
350
4A
  3
A3
350
4B
  3
A4
350
4C
  3
A5
350
4D
  3
A6
350
4E
  3
A7
350
4F
  3
A8
350
50
  3
A9
350
51
  3
B0
350
52
  3
B1
350
53
  3
B2
350
54
  3
B3
350
55
  3
B4
350
56
  3
B5
350
57
  3
B6
350
58
  3
B7
350
59
  3
B8
350
5A
  3
B9
350
5B
  3
C0
350
5C
  3
C1
350
5D
  3
C2
350
5E
  3
C3
350
5F
  3
C4
350
60
  3
C5
350
61
  3
C6
350
62
  3
C7
350
63
  3
C8
350
64
  3
C9
350
65
  3
D0
350
66
  3
D1
350
67
  3
D2
350
68
  0
LAYOUT
  5
1E
102
{ACAD_REACTORS
330
1A
102
}
330
1A
100
AcDbPlotSettings
  1

  2
none_device
  4

  6

 40
0.0
 41
0.0
 42
0.0
 43
0.0
 44
0.0
 45
0.0
 46
0.0
 47
0.0
 48
0.0
 49
0.0
140
0.0
141
0.0
142
1.0
143
1.0
 70
   688
 72
     1
 73
     0
 74
     5
  7

 75
    16
147
1.0
148
0.0
149
0.0
100
AcDbLayout
  1
Layout1
 70
     1
 71
     1
 10
0.0
 20
0.0
 11
420.0
 21
297.0
 12
0.0
 22
0.0
 32
0.0
 14
1.0000000000E+20
 24
1.0000000000E+20
 34
1.0000000000E+20
 15
-1.0000000000E+20
 25
-1.0000000000E+20
 35
-1.0000000000E+20
146
0.0
 13
0.0
 23
0.0
 33
0.0
 16
1.0
 26
0.0
 36
0.0
 17
0.0
 27
1.0
 37
0.0
 76
     0
330
1B
  0
LAYOUT
  5
26
102
{ACAD_REACTORS
330
1A
102
}
330
1A
100
AcDbPlotSettings
  1

  2
none_device
  4

  6

 40
0.0
 41
0.0
 42
0.0
 43
0.0
 44
0.0
 45
0.0
 46
0.0
 47
0.0
 48
0.0
 49
0.0
140
0.0
141
0.0
142
1.0
143
1.0
 70
   688
 72
     1
 73
     0
 74
     5
  7

 75
    16
147
1.0
148
0.0
149
0.0
100
AcDbLayout
  1
Layout2
 70
     1
 71
     2
 10
0.0
 20
0.0
 11
0.0
 21
0.0
 12
0.0
 22
0.0
 32
0.0
 14
0.0
 24
0.0
 34
0.0
 15
0.0
 25
0.0
 35
0.0
146
0.0
 13
0.0
 23
0.0
 33
0.0
 16
1.0
 26
0.0
 36
0.0
 17
0.0
 27
1.0
 37
0.0
 76
     0
330
23
  0
LAYOUT
  5
22
102
{ACAD_REACTORS
330
1A
102
}
330
1A
100
AcDbPlotSettings
  1

  2
none_device
  4
Letter_(8.50_x_11.00_Inches)
  6

 40
6.35
 41
6.35
 42
6.35000508
 43
6.35000508
 44
215.9
 45
279.4
 46
0.0
 47
0.0
 48
0.0
 49
0.0
140
0.0
141
0.0
142
1.0
143
1.0
 70
  1712
 72
     1
 73
     0
 74
     0
  7

 75
     0
147
1.0
148
0.0
149
0.0
100
AcDbLayout
  1
Model
 70
     1
 71
     0
 10
0.0
 20
0.0
 11
599.0
 21
429.0
 12
0.0
 22
0.0
 32
0.0
 14
0.0
 24
0.0
 34
0.0
 15
599.0
 25
429.0
 35
0.0
146
0.0
 13
0.0
 23
0.0
 33
0.0
 16
1.0
 26
0.0
 36
0.0
 17
0.0
 27
1.0
 37
0.0
 76
     0
330
1F
331
29
  0
MLINESTYLE
  5
18
102
{ACAD_REACTORS
330
17
102
}
330
17
100
AcDbMlineStyle
  2
Standard
 70
     0
  3

 62
   256
 51
90.0
 52
90.0
 71
     2
 49
0.5
 62
   256
  6
BYLAYER
 49
-0.5
 62
   256
  6
BYLAYER
  0
ACDBPLACEHOLDER
  5
F
102
{ACAD_REACTORS
330
E
102
}
330
E
  0
SCALE
  5
48
102
{ACAD_REACTORS
330
47
102
}
330
47
100
AcDbScale
 70
     0
300
1:1
140
1.0
141
1.0
290
     1
  0
SCALE
  5
49
102
{ACAD_REACTORS
330
47
102
}
330
47
100
AcDbScale
 70
     0
300
1:2
140
1.0
141
2.0
290
     0
  0
SCALE
  5
4A
102
{ACAD_REACTORS
330
47
102
}
330
47
100
AcDbScale
 70
     0
300
1:4
140
1.0
141
4.0
290
     0
  0
SCALE
  5
4B
102
{ACAD_REACTORS
330
47
102
}
330
47
100
AcDbScale
 70
     0
300
1:5
140
1.0
141
5.0
290
     0
  0
SCALE
  5
4C
102
{ACAD_REACTORS
330
47
102
}
330
47
100
AcDbScale
 70
     0
300
1:8
140
1.0
141
8.0
290
     0
  0
SCALE
  5
4D
102
{ACAD_REACTORS
330
47
102
}
330
47
100
AcDbScale
 70
     0
300
1:10
140
1.0
141
10.0
290
     0
  0
SCALE
  5
4E
102
{ACAD_REACTORS
330
47
102
}
330
47
100
AcDbScale
 70
     0
300
1:16
140
1.0
141
16.0
290
     0
  0
SCALE
  5
4F
102
{ACAD_REACTORS
330
47
102
}
330
47
100
AcDbScale
 70
     0
300
1:20
140
1.0
141
20.0
290
     0
  0
SCALE
  5
50
102
{ACAD_REACTORS
330
47
102
}
330
47
100
AcDbScale
 70
     0
300
1:30
140
1.0
141
30.0
290
     0
  0
SCALE
  5
51
102
{ACAD_REACTORS
330
47
102
}
330
47
100
AcDbScale
 70
     0
300
1:40
140
1.0
141
40.0
290
     0
  0
SCALE
  5
52
102
{ACAD_REACTORS
330
47
102
}
330
47
100
AcDbScale
 70
     0
300
1:50
140
1.0
141
50.0
290
     0
  0
SCALE
  5
53
102
{ACAD_REACTORS
330
47
102
}
330
47
100
AcDbScale
 70
     0
300
1:100
140
1.0
141
100.0
290
     0
  0
SCALE
  5
54
102
{ACAD_REACTORS
330
47
102
}
330
47
100
AcDbScale
 70
     0
300
2:1
140
2.0
141
1.0
290
     0
  0
SCALE
  5
55
102
{ACAD_REACTORS
330
47
102
}
330
47
100
AcDbScale
 70
     0
300
4:1
140
4.0
141
1.0
290
     0
  0
SCALE
  5
56
102
{ACAD_REACTORS
330
47
102
}
330
47
100
AcDbScale
 70
     0
300
8:1
140
8.0
141
1.0
290
     0
  0
SCALE
  5
57
102
{ACAD_REACTORS
330
47
102
}
330
47
100
AcDbScale
 70
     0
300
10:1
140
10.0
141
1.0
290
     0
  0
SCALE
  5
58
102
{ACAD_REACTORS
330
47
102
}
330
47
100
AcDbScale
 70
     0
300
100:1
140
100.0
141
1.0
290
     0
  0
SCALE
  5
59
102
{ACAD_REACTORS
330
47
102
}
330
47
100
AcDbScale
 70
     0
300
1/128" = 1'-0"
140
0.0078125
141
12.0
290
     0
  0
SCALE
  5
5A
102
{ACAD_REACTORS
330
47
102
}
330
47
100
AcDbScale
 70
     0
300
1/64" = 1'-0"
140
0.015625
141
12.0
290
     0
  0
SCALE
  5
5B
102
{ACAD_REACTORS
330
47
102
}
330
47
100
AcDbScale
 70
     0
300
1/32" = 1'-0"
140
0.03125
141
12.0
290
     0
  0
SCALE
  5
5C
102
{ACAD_REACTORS
330
47
102
}
330
47
100
AcDbScale
 70
     0
300
1/16" = 1'-0"
140
0.0625
141
12.0
290
     0
  0
SCALE
  5
5D
102
{ACAD_REACTORS
330
47
102
}
330
47
100
AcDbScale
 70
     0
300
3/32" = 1'-0"
140
0.09375
141
12.0
290
     0
  0
SCALE
  5
5E
102
{ACAD_REACTORS
330
47
102
}
330
47
100
AcDbScale
 70
     0
300
1/8" = 1'-0"
140
0.125
141
12.0
290
     0
  0
SCALE
  5
5F
102
{ACAD_REACTORS
330
47
102
}
330
47
100
AcDbScale
 70
     0
300
3/16" = 1'-0"
140
0.1875
141
12.0
290
     0
  0
SCALE
  5
60
102
{ACAD_REACTORS
330
47
102
}
330
47
100
AcDbScale
 70
     0
300
1/4" = 1'-0"
140
0.25
141
12.0
290
     0
  0
SCALE
  5
61
102
{ACAD_REACTORS
330
47
102
}
330
47
100
AcDbScale
 70
     0
300
3/8" = 1'-0"
140
0.375
141
12.0
290
     0
  0
SCALE
  5
62
102
{ACAD_REACTORS
330
47
102
}
330
47
100
AcDbScale
 70
     0
300
1/2" = 1'-0"
140
0.5
141
12.0
290
     0
  0
SCALE
  5
63
102
{ACAD_REACTORS
330
47
102
}
330
47
100
AcDbScale
 70
     0
300
3/4" = 1'-0"
140
0.75
141
12.0
290
     0
  0
SCALE
  5
64
102
{ACAD_REACTORS
330
47
102
}
330
47
100
AcDbScale
 70
     0
300
1" = 1'-0"
140
1.0
141
12.0
290
     0
  0
SCALE
  5
65
102
{ACAD_REACTORS
330
47
102
}
330
47
100
AcDbScale
 70
     0
300
1-1/2" = 1'-0"
140
1.5
141
12.0
290
     0
  0
SCALE
  5
66
102
{ACAD_REACTORS
330
47
102
}
330
47
100
AcDbScale
 70
     0
300
3" = 1'-0"
140
3.0
141
12.0
290
     0
  0
SCALE
  5
67
102
{ACAD_REACTORS
330
47
102
}
330
47
100
AcDbScale
 70
     0
300
6" = 1'-0"
140
6.0
141
12.0
290
     0
  0
SCALE
  5
68
102
{ACAD_REACTORS
330
47
102
}
330
47
100
AcDbScale
 70
     0
300
1'-0" = 1'-0"
140
12.0
141
12.0
290
     0
  0
ENDSEC
  0
EOF
