  0
SECTION
  2
HEADER
  9
$ACADVER
  1
AC1015
  9
$ACADMAINTVER
 70
     6
  9
$DWGCODEPAGE
  3
ANSI_1252
  9
$INSBASE
 10
0.0
 20
0.0
 30
0.0
  9
$EXTMIN
 10
0.0
 20
0.0
 30
0.0
  9
$EXTMAX
 10
386.0
 20
409.0
 30
0.0
  9
$LIMMIN
 10
0.0
 20
0.0
  9
$LIMMAX
 10
386.0
 20
409.0
  9
$ORTHOMODE
 70
     0
  9
$REGENMODE
 70
     1
  9
$FILLMODE
 70
     1
  9
$QTEXTMODE
 70
     0
  9
$MIRRTEXT
 70
     1
  9
$LTSCALE
 40
1.0
  9
$ATTMODE
 70
     1
  9
$TEXTSIZE
 40
3.5
  9
$TRACEWID
 40
1.0
  9
$TEXTSTYLE
  7
Standard
  9
$CLAYER
  8
0
  9
$CELTYPE
  6
ByLayer
  9
$CECOLOR
 62
   256
  9
$CELTSCALE
 40
1.0
  9
$DISPSILH
 70
     0
  9
$DIMSCALE
 40
1.0
  9
$DIMASZ
 40
3.302
  9
$DIMEXO
 40
1.0
  9
$DIMDLI
 40
3.75
  9
$DIMRND
 40
0.0
  9
$DIMDLE
 40
0.0
  9
$DIMEXE
 40
1.0
  9
$DIMTP
 40
0.0
  9
$DIMTM
 40
0.0
  9
$DIMTXT
 40
2.8
  9
$DIMCEN
 40
2.5
  9
$DIMTSZ
 40
0.0
  9
$DIMTOL
 70
     0
  9
$DIMLIM
 70
     0
  9
$DIMTIH
 70
     1
  9
$DIMTOH
 70
     1
  9
$DIMSE1
 70
     0
  9
$DIMSE2
 70
     0
  9
$DIMTAD
 70
     1
  9
$DIMZIN
 70
     0
  9
$DIMBLK
  1

  9
$DIMASO
 70
     1
  9
$DIMSHO
 70
     1
  9
$DIMPOST
  1

  9
$DIMAPOST
  1

  9
$DIMALT
 70
     0
  9
$DIMALTD
 70
     3
  9
$DIMALTF
 40
0.0393700787
  9
$DIMLFAC
 40
1.0
  9
$DIMTOFL
 70
     1
  9
$DIMTVP
 40
0.0
  9
$DIMTIX
 70
     0
  9
$DIMSOXD
 70
     0
  9
$DIMSAH
 70
     0
  9
$DIMBLK1
  1

  9
$DIMBLK2
  1

  9
$DIMSTYLE
  2
ISO-25
  9
$DIMCLRD
 70
     0
  9
$DIMCLRE
 70
     0
  9
$DIMCLRT
 70
     0
  9
$DIMTFAC
 40
1.0
  9
$DIMGAP
 40
1.524
  9
$DIMJUST
 70
     0
  9
$DIMSD1
 70
     0
  9
$DIMSD2
 70
     0
  9
$DIMTOLJ
 70
     0
  9
$DIMTZIN
 70
     0
  9
$DIMALTZ
 70
     0
  9
$DIMALTTZ
 70
     0
  9
$DIMUPT
 70
     0
  9
$DIMDEC
 70
     2
  9
$DIMTDEC
 70
     2
  9
$DIMALTU
 70
     2
  9
$DIMALTTD
 70
     3
  9
$DIMTXSTY
  7
Standard
  9
$DIMAUNIT
 70
     0
  9
$DIMADEC
 70
     2
  9
$DIMALTRND
 40
0.0
  9
$DIMAZIN
 70
     0
  9
$DIMDSEP
 70
    44
  9
$DIMATFIT
 70
     3
  9
$DIMFRAC
 70
     0
  9
$DIMLDRBLK
  1

  9
$DIMLUNIT
 70
     2
  9
$DIMLWD
 70
    -2
  9
$DIMLWE
 70
    -2
  9
$DIMTMOVE
 70
     0
  9
$LUNITS
 70
     2
  9
$LUPREC
 70
     2
  9
$SKETCHINC
 40
1.0
  9
$FILLETRAD
 40
10.0
  9
$AUNITS
 70
     0
  9
$AUPREC
 70
     2
  9
$MENU
  1
.
  9
$ELEVATION
 40
0.0
  9
$PELEVATION
 40
0.0
  9
$THICKNESS
 40
0.0
  9
$LIMCHECK
 70
     0
  9
$CHAMFERA
 40
0.0
  9
$CHAMFERB
 40
0.0
  9
$CHAMFERC
 40
0.0
  9
$CHAMFERD
 40
0.0
  9
$SKPOLY
 70
     0
  9
$TDCREATE
 40
2458870.552077894
  9
$TDUCREATE
 40
2458870.46874456
  9
$TDUPDATE
 40
2458870.552078322
  9
$TDUUPDATE
 40
2458870.468744989
  9
$TDINDWG
 40
0.0000000116
  9
$TDUSRTIMER
 40
0.0000000116
  9
$USRTIMER
 70
     1
  9
$ANGBASE
 50
0.0
  9
$ANGDIR
 70
     0
  9
$PDMODE
 70
     0
  9
$PDSIZE
 40
-1.0
  9
$PLINEWID
 40
0.0
  9
$SPLFRAME
 70
     0
  9
$SPLINETYPE
 70
     6
  9
$SPLINESEGS
 70
     8
  9
$HANDSEED
  5
14D
  9
$SURFTAB1
 70
     6
  9
$SURFTAB2
 70
     6
  9
$SURFTYPE
 70
     6
  9
$SURFU
 70
     6
  9
$SURFV
 70
     6
  9
$UCSBASE
  2

  9
$UCSNAME
  2

  9
$UCSORG
 10
0.0
 20
0.0
 30
0.0
  9
$UCSXDIR
 10
1.0
 20
0.0
 30
0.0
  9
$UCSYDIR
 10
0.0
 20
1.0
 30
0.0
  9
$UCSORTHOREF
  2

  9
$UCSORTHOVIEW
 70
     0
  9
$UCSORGTOP
 10
0.0
 20
0.0
 30
0.0
  9
$UCSORGBOTTOM
 10
0.0
 20
0.0
 30
0.0
  9
$UCSORGLEFT
 10
0.0
 20
0.0
 30
0.0
  9
$UCSORGRIGHT
 10
0.0
 20
0.0
 30
0.0
  9
$UCSORGFRONT
 10
0.0
 20
0.0
 30
0.0
  9
$UCSORGBACK
 10
0.0
 20
0.0
 30
0.0
  9
$PUCSBASE
  2

  9
$PUCSNAME
  2

  9
$PUCSORG
 10
0.0
 20
0.0
 30
0.0
  9
$PUCSXDIR
 10
1.0
 20
0.0
 30
0.0
  9
$PUCSYDIR
 10
0.0
 20
1.0
 30
0.0
  9
$PUCSORTHOREF
  2

  9
$PUCSORTHOVIEW
 70
     0
  9
$PUCSORGTOP
 10
0.0
 20
0.0
 30
0.0
  9
$PUCSORGBOTTOM
 10
0.0
 20
0.0
 30
0.0
  9
$PUCSORGLEFT
 10
0.0
 20
0.0
 30
0.0
  9
$PUCSORGRIGHT
 10
0.0
 20
0.0
 30
0.0
  9
$PUCSORGFRONT
 10
0.0
 20
0.0
 30
0.0
  9
$PUCSORGBACK
 10
0.0
 20
0.0
 30
0.0
  9
$USERI1
 70
     0
  9
$USERI2
 70
     0
  9
$USERI3
 70
     0
  9
$USERI4
 70
     0
  9
$USERI5
 70
     0
  9
$USERR1
 40
0.0
  9
$USERR2
 40
0.0
  9
$USERR3
 40
0.0
  9
$USERR4
 40
0.0
  9
$USERR5
 40
0.0
  9
$WORLDVIEW
 70
     1
  9
$SHADEDGE
 70
     3
  9
$SHADEDIF
 70
    70
  9
$TILEMODE
 70
     1
  9
$MAXACTVP
 70
    64
  9
$PINSBASE
 10
0.0
 20
0.0
 30
0.0
  9
$PLIMCHECK
 70
     0
  9
$PEXTMIN
 10
1.0000000000E+20
 20
1.0000000000E+20
 30
1.0000000000E+20
  9
$PEXTMAX
 10
-1.0000000000E+20
 20
-1.0000000000E+20
 30
-1.0000000000E+20
  9
$PLIMMIN
 10
0.0
 20
0.0
  9
$PLIMMAX
 10
420.0
 20
297.0
  9
$UNITMODE
 70
     0
  9
$VISRETAIN
 70
     1
  9
$PLINEGEN
 70
     0
  9
$PSLTSCALE
 70
     1
  9
$TREEDEPTH
 70
  3020
  9
$CMLSTYLE
  2
Standard
  9
$CMLJUST
 70
     0
  9
$CMLSCALE
 40
20.0
  9
$PROXYGRAPHICS
 70
     1
  9
$MEASUREMENT
 70
     1
  9
$CELWEIGHT
370
    -1
  9
$ENDCAPS
280
     0
  9
$JOINSTYLE
280
     0
  9
$LWDISPLAY
290
     1
  9
$INSUNITS
 70
     4
  9
$HYPERLINKBASE
  1

  9
$STYLESHEET
  1

  9
$XEDIT
290
     1
  9
$CEPSNTYPE
380
     0
  9
$PSTYLEMODE
290
     1
  9
$FINGERPRINTGUID
  2
{9E375677-48CE-430B-A67E-842B12FCDDBF}
  9
$VERSIONGUID
  2
{FAEB1C32-E019-11D5-929B-00C0DF256EC4}
  9
$EXTNAMES
290
     1
  9
$PSVPSCALE
 40
0.0
  9
$OLESTARTUP
290
     0
  0
ENDSEC
  0
SECTION
  2
CLASSES
  0
CLASS
  1
ACDBDICTIONARYWDFLT
  2
AcDbDictionaryWithDefault
  3
ObjectDBX Classes
 90
        0
280
     0
281
     0
  0
CLASS
  1
VISUALSTYLE
  2
AcDbVisualStyle
  3
ObjectDBX Classes
 90
     4095
280
     0
281
     0
  0
CLASS
  1
MATERIAL
  2
AcDbMaterial
  3
ObjectDBX Classes
 90
     1153
280
     0
281
     0
  0
CLASS
  1
SCALE
  2
AcDbScale
  3
ObjectDBX Classes
 90
     1153
280
     0
281
     0
  0
CLASS
  1
TABLESTYLE
  2
AcDbTableStyle
  3
ObjectDBX Classes
 90
     4095
280
     0
281
     0
  0
CLASS
  1
MLEADERSTYLE
  2
AcDbMLeaderStyle
  3
ACDB_MLEADERSTYLE_CLASS
 90
     4095
280
     0
281
     0
  0
CLASS
  1
SUN
  2
AcDbSun
  3
SCENEOE
 90
     1153
280
     0
281
     0
  0
CLASS
  1
ACDBPLACEHOLDER
  2
AcDbPlaceHolder
  3
ObjectDBX Classes
 90
        0
280
     0
281
     0
  0
CLASS
  1
LAYOUT
  2
AcDbLayout
  3
ObjectDBX Classes
 90
        0
280
     0
281
     0
  0
ENDSEC
  0
SECTION
  2
TABLES
  0
TABLE
  2
VPORT
  5
8
330
0
100
AcDbSymbolTable
 70
     1
  0
VPORT
  5
29
330
8
100
AcDbSymbolTableRecord
100
AcDbViewportTableRecord
  2
*Active
 70
     0
 10
0.0
 20
0.0
 11
1.0
 21
1.0
 12
193.0
 22
204.5
 13
0.0
 23
0.0
 14
10.0
 24
10.0
 15
10.0
 25
10.0
 16
0.0
 26
0.0
 36
1.0
 17
0.0
 27
0.0
 37
0.0
 40
409.0
 41
0.9437652812
 42
50.0
 43
0.0
 44
0.0
 50
0.0
 51
0.0
 71
     0
 72
  2000
 73
     1
 74
     3
 75
     0
 76
     0
 77
     0
 78
     0
281
     0
 65
     1
110
0.0
120
0.0
130
0.0
111
1.0
121
0.0
131
0.0
112
0.0
122
1.0
132
0.0
 79
     0
146
0.0
  0
ENDTAB
  0
TABLE
  2
LTYPE
  5
5
330
0
100
AcDbSymbolTable
 70
     6
  0
LTYPE
  5
14
330
5
100
AcDbSymbolTableRecord
100
AcDbLinetypeTableRecord
  2
ByBlock
 70
     0
  3

 72
    65
 73
     0
 40
0.0
  0
LTYPE
  5
15
330
5
100
AcDbSymbolTableRecord
100
AcDbLinetypeTableRecord
  2
ByLayer
 70
     0
  3

 72
    65
 73
     0
 40
0.0
  0
LTYPE
  5
16
330
5
100
AcDbSymbolTableRecord
100
AcDbLinetypeTableRecord
  2
Continuous
 70
     0
  3
Solid line
 72
    65
 73
     0
 40
0.0
  0
LTYPE
  5
6E
330
5
100
AcDbSymbolTableRecord
100
AcDbLinetypeTableRecord
  2
HIDDEN
 70
     0
  3
Hidden __ __ __ __ __ __ __ __ __ __ __ __ __ __
 72
    65
 73
     2
 40
1.905
 49
1.27
 74
     0
 49
-0.635
 74
     0
  0
LTYPE
  5
6F
330
5
100
AcDbSymbolTableRecord
100
AcDbLinetypeTableRecord
  2
PHANTOM
 70
     0
  3
Phantom ______  __  __  ______  __  __  ______
 72
    65
 73
     6
 40
12.7
 49
6.35
 74
     0
 49
-1.27
 74
     0
 49
1.27
 74
     0
 49
-1.27
 74
     0
 49
1.27
 74
     0
 49
-1.27
 74
     0
  0
LTYPE
  5
70
330
5
100
AcDbSymbolTableRecord
100
AcDbLinetypeTableRecord
  2
CENTER
 70
     0
  3
Center ____ _ ____ _ ____ _ ____ _ ____ _ ____
 72
    65
 73
     4
 40
10.16
 49
6.35
 74
     0
 49
-1.27
 74
     0
 49
1.27
 74
     0
 49
-1.27
 74
     0
  0
LTYPE
  5
71
330
5
100
AcDbSymbolTableRecord
100
AcDbLinetypeTableRecord
  2
CENTERX2
 70
     0
  3
Center (2x) ________  __  ________  __  _____
 72
    65
 73
     4
 40
20.32
 49
12.7
 74
     0
 49
-2.54
 74
     0
 49
2.54
 74
     0
 49
-2.54
 74
     0
  0
LTYPE
  5
72
330
5
100
AcDbSymbolTableRecord
100
AcDbLinetypeTableRecord
  2
DOT2
 70
     0
  3
Dot (.5x) ........................................
 72
    65
 73
     2
 40
0.635
 49
0.0
 74
     0
 49
-0.635
 74
     0
  0
ENDTAB
  0
TABLE
  2
LAYER
  5
2
330
0
100
AcDbSymbolTable
 70
     2
  0
LAYER
  5
10
330
2
100
AcDbSymbolTableRecord
100
AcDbLayerTableRecord
  2
0
 70
     0
 62
     7
  6
Continuous
370
    -3
390
F
  0
LAYER
  5
73
330
2
100
AcDbSymbolTableRecord
100
AcDbLayerTableRecord
  2
FORMAT
 70
     0
 62
     7
  6
Continuous
370
    -3
390
F
  0
ENDTAB
  0
TABLE
  2
STYLE
  5
3
330
0
100
AcDbSymbolTable
 70
     2
  0
STYLE
  5
11
330
3
100
AcDbSymbolTableRecord
100
AcDbTextStyleTableRecord
  2
Standard
 70
     0
 40
0.0
 41
1.0
 50
0.0
 71
     0
 42
3.5
  3
txt
  4

  0
STYLE
  5
74
330
3
100
AcDbSymbolTableRecord
100
AcDbTextStyleTableRecord
  2
SLDTEXTSTYLE0
 70
     0
 40
0.0
 41
0.605
 50
0.0
 71
     0
 42
3.5
  3
TXT
  4

  0
ENDTAB
  0
TABLE
  2
VIEW
  5
6
330
0
100
AcDbSymbolTable
 70
     0
  0
ENDTAB
  0
TABLE
  2
UCS
  5
7
330
0
100
AcDbSymbolTable
 70
     0
  0
ENDTAB
  0
TABLE
  2
APPID
  5
9
330
0
100
AcDbSymbolTable
 70
     1
  0
APPID
  5
12
330
9
100
AcDbSymbolTableRecord
100
AcDbRegAppTableRecord
  2
ACAD
 70
     0
  0
ENDTAB
  0
TABLE
  2
DIMSTYLE
  5
A
330
0
100
AcDbSymbolTable
 70
     1
100
AcDbDimStyleTable
  0
DIMSTYLE
105
27
330
A
100
AcDbSymbolTableRecord
100
AcDbDimStyleTableRecord
  2
ISO-25
 70
     0
 41
2.5
 42
0.625
 43
3.75
 44
1.25
 73
     0
 74
     0
 77
     1
 78
     8
140
2.5
141
2.5
143
0.0393700787
147
0.625
171
     3
172
     1
178
     0
271
     2
272
     2
274
     3
278
    44
283
     0
284
     8
340
11
  0
ENDTAB
  0
TABLE
  2
BLOCK_RECORD
  5
1
330
0
100
AcDbSymbolTable
 70
     1
  0
BLOCK_RECORD
  5
1F
330
1
100
AcDbSymbolTableRecord
100
AcDbBlockTableRecord
  2
*Model_Space
340
22
  0
BLOCK_RECORD
  5
1B
330
1
100
AcDbSymbolTableRecord
100
AcDbBlockTableRecord
  2
*Paper_Space
340
1E
  0
BLOCK_RECORD
  5
23
330
1
100
AcDbSymbolTableRecord
100
AcDbBlockTableRecord
  2
*Paper_Space0
340
26
  0
ENDTAB
  0
ENDSEC
  0
SECTION
  2
BLOCKS
  0
BLOCK
  5
20
330
1F
100
AcDbEntity
  8
0
100
AcDbBlockBegin
  2
*Model_Space
 70
     0
 10
0.0
 20
0.0
 30
0.0
  3
*Model_Space
  1

  0
ENDBLK
  5
21
330
1F
100
AcDbEntity
  8
0
100
AcDbBlockEnd
  0
BLOCK
  5
1C
330
1B
100
AcDbEntity
 67
     1
  8
0
100
AcDbBlockBegin
  2
*Paper_Space
 70
     0
 10
0.0
 20
0.0
 30
0.0
  3
*Paper_Space
  1

  0
ENDBLK
  5
1D
330
1B
100
AcDbEntity
 67
     1
  8
0
100
AcDbBlockEnd
  0
BLOCK
  5
24
330
23
100
AcDbEntity
  8
0
100
AcDbBlockBegin
  2
*Paper_Space0
 70
     0
 10
0.0
 20
0.0
 30
0.0
  3
*Paper_Space0
  1

  0
ENDBLK
  5
25
330
23
100
AcDbEntity
  8
0
100
AcDbBlockEnd
  0
ENDSEC
  0
SECTION
  2
ENTITIES
  0
MTEXT
  5
75
330
1F
100
AcDbEntity
  8
0
  6
Continuous
 62
     7
370
     0
100
AcDbMText
 10
7.2782978723
 20
22.1884790273
 30
0.0
 40
10.0
 41
0.0
 71
     1
 72
     1
  1
1:1
  7
SLDTEXTSTYLE0
 73
     1
 44
1.0
  0
CIRCLE
  5
76
330
1F
100
AcDbEntity
  8
0
  6
Continuous
 62
     7
370
    30
100
AcDbCircle
 10
143.0000323056
 20
282.0000006184
 30
0.0
 40
4.303496576949158
  0
CIRCLE
  5
77
330
1F
100
AcDbEntity
  8
0
  6
Continuous
 62
     7
370
    30
100
AcDbCircle
 10
143.0000323056
 20
307.0000006184
 30
0.0
 40
4.303496576949215
  0
SPLINE
  5
78
330
1F
100
AcDbEntity
  8
0
  6
Continuous
 62
     7
370
    30
100
AcDbSpline
210
0.0
220
0.0
230
1.0
 70
    11
 71
     3
 72
   214
 73
   210
 74
     0
 42
0.000000001
 43
0.00000001
 40
0.0
 40
0.0
 40
0.0
 40
0.0
 40
0.0049533222671645
 40
0.0099090461838921
 40
0.0148647701002163
 40
0.0198180923668262
 40
0.0242915183655509
 40
0.0287658284729326
 40
0.0332392544714929
 40
0.0377775375635187
 40
0.0423167437988407
 40
0.0468550268907057
 40
0.0502746844669623
 40
0.0536943420432043
 40
0.0590031416476442
 40
0.0643163768503427
 40
0.0696310971478851
 40
0.0749443323495709
 40
0.0802531319531616
 40
0.0853257838222556
 40
0.0904010152851081
 40
0.0954762467477693
 40
0.1005488986166047
 40
0.1039685562994456
 40
0.1073882139822822
 40
0.1126970121329924
 40
0.1180102458799167
 40
0.1233249647214882
 40
0.1286381984683296
 40
0.1339469966189717
 40
0.1390196470716886
 40
0.1440948771163058
 40
0.1491701071610285
 40
0.1542427576138914
 40
0.1576624143264861
 40
0.1610820710390873
 40
0.1663908685921051
 40
0.1717041017385339
 40
0.1770188199791803
 40
0.1823320531264946
 40
0.1876408506802544
 40
0.193064630559222
 40
0.1984931408046873
 40
0.203923235144058
 40
0.2093517453908787
 40
0.2147755252709823
 40
0.2200843239329108
 40
0.225397558187396
 40
0.2307122775361146
 40
0.236025511792063
 40
0.2413343104552197
 40
0.2464069612929934
 40
0.2514821917194914
 40
0.2565574221464407
 40
0.2616300729848273
 40
0.2650497299096595
 40
0.2684693868345107
 40
0.2737781878259622
 40
0.2790914244114369
 40
0.2844061460916033
 40
0.2897193826784806
 40
0.2950281836711074
 40
0.3001008367259547
 40
0.3051760693704977
 40
0.3102513020153823
 40
0.3153239550707049
 40
0.3187436134877739
 40
0.3221632719048548
 40
0.327472075425507
 40
0.332785314543327
 40
0.3381000387565382
 40
0.3434132778750846
 40
0.3487220813963453
 40
0.3537947368979227
 40
0.3588699719915681
 40
0.3639452070853049
 40
0.3690178625870056
 40
0.3724375226692049
 40
0.3758571827514022
 40
0.3808105102101487
 40
0.3857662393220696
 40
0.3907219684339348
 40
0.3956752958926045
 40
0.4001487266027887
 40
0.4046230414227976
 40
0.4090964721329265
 40
0.4136347600196416
 40
0.4181739710507466
 40
0.4227122589373737
 40
0.4261319201278336
 40
0.4295515813182864
 40
0.4348603864608664
 40
0.4401736272062997
 40
0.4454883530480461
 40
0.4508015937923324
 40
0.4561103989339519
 40
0.4611830560980457
 40
0.4662582928588531
 40
0.4713335296192468
 40
0.4764061867827802
 40
0.4798258480389326
 40
0.4832455092950668
 40
0.4885543128195539
 40
0.4938675519469356
 40
0.4991822761704523
 40
0.5044955152963178
 40
0.509804318819528
 40
0.514876974470799
 40
0.5199522097190106
 40
0.5250274449667877
 40
0.5301001006174617
 40
0.5335197608679428
 40
0.5369394211184096
 40
0.5422482221143555
 40
0.5475614587110367
 40
0.5528761804032788
 40
0.5581894169987317
 40
0.5634982179936467
 40
0.5685708712238438
 40
0.5736461040494447
 40
0.5787213368747759
 40
0.583793990104604
 40
0.5872136487187999
 40
0.5906333073329897
 40
0.5959421059981073
 40
0.6012553402605321
 40
0.6065700596178079
 40
0.6118832938798341
 40
0.6171920925446187
 40
0.622264743506553
 40
0.6273399740612563
 40
0.632415204615971
 40
0.6374878555779238
 40
0.6409075126423363
 40
0.6443271697067524
 40
0.6496359672602563
 40
0.6549492004078794
 40
0.6602639186498122
 40
0.6655771517980436
 40
0.670885949352056
 40
0.6759585991926217
 40
0.6810338286233752
 40
0.686109058054421
 40
0.6911817078953854
 40
0.6946013641757205
 40
0.6980210204560701
 40
0.7033298186043455
 40
0.7086430523451899
 40
0.7139577711802113
 40
0.7192710049224021
 40
0.7245798030718053
 40
0.7296524534293434
 40
0.7347276833756772
 40
0.7398029133224552
 40
0.7448755636805947
 40
0.748295220286185
 40
0.7517148768917921
 40
0.7570236770805621
 40
0.7623369128626648
 40
0.7676516337392791
 40
0.7729648695228769
 40
0.7782736697129005
 40
0.783346321999182
 40
0.788421553874667
 40
0.7934967857505518
 40
0.7985694380373757
 40
0.801989095935009
 40
0.8054087538326564
 40
0.8107175566133802
 40
0.8160307949901892
 40
0.8213455184621599
 40
0.8266587568399524
 40
0.8319675596215089
 40
0.8370402144030231
 40
0.8421154487757656
 40
0.8471906831486874
 40
0.8522633379304473
 40
0.8556829975206622
 40
0.859102657110881
 40
0.8644114618990774
 40
0.8697247022868811
 40
0.8750394277705343
 40
0.8803526681583843
 40
0.8856614729466231
 40
0.8907341296963016
 40
0.8958093660399647
 40
0.9008846023835135
 40
0.9059572591330347
 40
0.9093769200745849
 40
0.9127965810161294
 40
0.9177499086427678
 40
0.9227056379233848
 40
0.9276613672037715
 40
0.932614694830094
 40
0.9370881257198896
 40
0.9415624407199142
 40
0.9460358716095866
 40
0.9505741597084525
 40
0.9551133709522397
 40
0.9596516590509531
 40
0.963071320410358
 40
0.9664909817697492
 40
0.9706506750815348
 40
0.9748103683932838
 40
0.9803944382213952
 40
0.9859802283988943
 40
0.9915642982265955
 40
0.9957821491133179
 40
0.9999999999999999
 40
0.9999999999999999
 40
0.9999999999999999
 40
0.9999999999999999
 10
139.7475826100272
 20
303.7470673265964
 30
0.0
 10
139.7816334333686
 20
303.7136301127174
 30
0.0
 10
139.8497515898077
 20
303.6467394727147
 30
0.0
 10
139.9558350082974
 20
303.5504905114994
 30
0.0
 10
140.0646353214264
 20
303.4573505682438
 30
0.0
 10
140.1727163646287
 20
303.3706114217322
 30
0.0
 10
140.279603984082
 20
303.2899012733228
 30
0.0
 10
140.3849526320643
 20
303.2149091185628
 30
0.0
 10
140.49288395263
 20
303.1425564375796
 30
0.0
 10
140.6033531158135
 20
303.0729595277965
 30
0.0
 10
140.716297860866
 20
303.0062203614855
 30
0.0
 10
140.8216675600727
 20
302.9479424512398
 30
0.0
 10
140.9188892665729
 20
302.8973065348762
 30
0.0
 10
141.0238304638107
 20
302.8454806914373
 30
0.0
 10
141.1467484083188
 20
302.7889318367238
 30
0.0
 10
141.2883179717712
 20
302.7294455674073
 30
0.0
 10
141.4318284874464
 20
302.6746862840425
 30
0.0
 10
141.5770408236526
 20
302.6247458205707
 30
0.0
 10
141.721609941587
 20
302.5803641819102
 30
0.0
 10
141.8653401334656
 20
302.5413470201424
 30
0.0
 10
142.0080502697031
 20
302.5074459813389
 30
0.0
 10
142.1517661233546
 20
302.4781019401727
 30
0.0
 10
142.2806222155142
 20
302.4560430595097
 30
0.0
 10
142.394220045184
 20
302.4397104971109
 30
0.0
 10
142.510400258661
 20
302.4255420671773
 30
0.0
 10
142.645107126516
 20
302.412867537399
 30
0.0
 10
142.7983865036514
 20
302.4035948683453
 30
0.0
 10
142.9519327534734
 20
302.3994252125922
 30
0.0
 10
143.1054898340695
 20
302.4003660361115
 30
0.0
 10
143.2565999519642
 20
302.4063394178745
 30
0.0
 10
143.4051427625365
 20
302.4170971824967
 30
0.0
 10
143.5510295532479
 20
302.4323450218482
 30
0.0
 10
143.6963569754056
 20
302.4522258708125
 30
0.0
 10
143.8252508731729
 20
302.4740625427838
 30
0.0
 10
143.9378511954872
 20
302.4962521634491
 30
0.0
 10
144.0521719967483
 20
302.5213387069328
 30
0.0
 10
144.1834805983102
 20
302.5539673511905
 30
0.0
 10
144.331188714571
 20
302.5959537314872
 30
0.0
 10
144.4774595629963
 20
302.6428436412812
 30
0.0
 10
144.6220489230365
 20
302.6945601086707
 30
0.0
 10
144.7658097779209
 20
302.7514584541213
 30
0.0
 10
144.9085763172473
 20
302.8136476417893
 30
0.0
 10
145.0501944469039
 20
302.8811701697999
 30
0.0
 10
145.1894762466658
 20
302.9534880201387
 30
0.0
 10
145.3261799089253
 20
303.0304756403083
 30
0.0
 10
145.4591819550193
 20
303.1114709287816
 30
0.0
 10
145.5884284895043
 20
303.1963233826724
 30
0.0
 10
145.713913257523
 20
303.2848347484944
 30
0.0
 10
145.8364175628642
 20
303.3774980742236
 30
0.0
 10
145.9557381245654
 20
303.4741586657472
 30
0.0
 10
146.0700040467138
 20
303.5732204654075
 30
0.0
 10
146.1792764835696
 20
303.6744144606579
 30
0.0
 10
146.2836699898635
 20
303.7774554276645
 30
0.0
 10
146.3847324961997
 20
303.8837647403489
 30
0.0
 10
146.4717407565423
 20
303.9813353976587
 30
0.0
 10
146.5458053566652
 20
304.0690031879573
 30
0.0
 10
146.6194037623169
 20
304.1600078911183
 30
0.0
 10
146.7015559588228
 20
304.2675141792682
 30
0.0
 10
146.7906683938629
 20
304.3925722994078
 30
0.0
 10
146.8755951862172
 20
304.5205616960129
 30
0.0
 10
146.9561942838721
 20
304.6512692158012
 30
0.0
 10
147.0312289433346
 20
304.782569466478
 30
0.0
 10
147.1008458137858
 20
304.9142288500377
 30
0.0
 10
147.1652474299627
 20
305.0460161371799
 30
0.0
 10
147.2254239745727
 20
305.1797849519726
 30
0.0
 10
147.2752310669997
 20
305.3006556842791
 30
0.0
 10
147.3161020486829
 20
305.4078973598993
 30
0.0
 10
147.3554285789755
 20
305.5181335331458
 30
0.0
 10
147.3973645976198
 20
305.6467724379211
 30
0.0
 10
147.4400587438581
 20
305.7942776436827
 30
0.0
 10
147.4778329250941
 20
305.9431634174759
 30
0.0
 10
147.5106236519906
 20
306.0931816015615
 30
0.0
 10
147.5379674132381
 20
306.2419172451175
 30
0.0
 10
147.5600799169656
 20
306.3891984593114
 30
0.0
 10
147.5772288062103
 20
306.5348740915713
 30
0.0
 10
147.5897349334376
 20
306.6810210235678
 30
0.0
 10
147.5967253530306
 20
306.8115646230276
 30
0.0
 10
147.5997950463469
 20
306.9262894859228
 30
0.0
 10
147.6003967386877
 20
307.0399042198644
 30
0.0
 10
147.5976907366322
 20
307.1683038937452
 30
0.0
 10
147.5902190159848
 20
307.3113361115343
 30
0.0
 10
147.5783083403765
 20
307.4540675231067
 30
0.0
 10
147.5624930920009
 20
307.5917430651982
 30
0.0
 10
147.543264003413
 20
307.7242931365228
 30
0.0
 10
147.5211130248358
 20
307.8516959282888
 30
0.0
 10
147.4952682781465
 20
307.9790386520713
 30
0.0
 10
147.4656816426595
 20
308.1062071103476
 30
0.0
 10
147.4323251786638
 20
308.233085021089
 30
0.0
 10
147.3984032035087
 20
308.3486203327839
 30
0.0
 10
147.3648991718902
 20
308.4529925189593
 30
0.0
 10
147.3267441592631
 20
308.5636396479294
 30
0.0
 10
147.2791309776252
 20
308.6902872080013
 30
0.0
 10
147.2203240686443
 20
308.8321404335528
 30
0.0
 10
147.1568128924963
 20
308.9719982556186
 30
0.0
 10
147.0887028640597
 20
309.1096272106179
 30
0.0
 10
147.0171406526367
 20
309.2428519889145
 30
0.0
 10
146.9424020707619
 20
309.3716731151853
 30
0.0
 10
146.8647905488963
 20
309.4961397599801
 30
0.0
 10
146.7832591756748
 20
309.6180741088493
 30
0.0
 10
146.7071681552517
 20
309.7243787098257
 30
0.0
 10
146.6378970991449
 20
309.8158814949939
 30
0.0
 10
146.565268200777
 20
309.9076619370636
 30
0.0
 10
146.4784179255224
 20
310.0114099028169
 30
0.0
 10
146.3759718299286
 20
310.1258012578182
 30
0.0
 10
146.2697471268604
 20
310.2367525300648
 30
0.0
 10
146.1599205875984
 20
310.34407834082
 30
0.0
 10
146.0482942761202
 20
310.4461055515127
 30
0.0
 10
145.9351282848079
 20
310.5429259548591
 30
0.0
 10
145.8206926631982
 20
310.6346863861244
 30
0.0
 10
145.7033963623694
 20
310.7227597779734
 30
0.0
 10
145.5964072698787
 20
310.7978852807627
 30
0.0
 10
145.5007531763133
 20
310.8613008139569
 30
0.0
 10
145.4018386286101
 20
310.9238668826266
 30
0.0
 10
145.2855430729826
 20
310.9930184886729
 30
0.0
 10
145.151007842127
 20
311.0670511936243
 30
0.0
 10
145.014045697561
 20
311.1365869995916
 30
0.0
 10
144.8748848071158
 20
311.2015094902548
 30
0.0
 10
144.7357794678992
 20
311.2608363377028
 30
0.0
 10
144.5969447265421
 20
311.3147402521823
 30
0.0
 10
144.4585868061276
 20
311.3634491795502
 30
0.0
 10
144.3187498992293
 20
311.4077320121806
 30
0.0
 10
144.1929249915784
 20
311.4432085925682
 30
0.0
 10
144.0816721769479
 20
311.4713872607315
 30
0.0
 10
143.9676238813562
 20
311.4976851228895
 30
0.0
 10
143.8349945223825
 20
311.5244440774596
 30
0.0
 10
143.6835380161813
 20
311.5497715446674
 30
0.0
 10
143.5312799049765
 20
311.5700522897407
 30
0.0
 10
143.3784740288081
 20
311.5852519838777
 30
0.0
 10
143.2275727628264
 20
311.595189859273
 30
0.0
 10
143.0787218630039
 20
311.6001000719538
 30
0.0
 10
142.9320404758379
 20
311.6002659791574
 30
0.0
 10
142.7854285377347
 20
311.595765746853
 30
0.0
 10
142.6549536390218
 20
311.587593733852
 30
0.0
 10
142.5406450308545
 20
311.5773586461721
 30
0.0
 10
142.4243210729175
 20
311.5644234570882
 30
0.0
 10
142.2903108603476
 20
311.5457729354311
 30
0.0
 10
142.1390086361667
 20
311.5195397334851
 30
0.0
 10
141.9886204884027
 20
311.488278965872
 30
0.0
 10
141.8393973106434
 20
311.4520422615153
 30
0.0
 10
141.6937130697785
 20
311.4114707924523
 30
0.0
 10
141.5516277982065
 20
311.3668337611549
 30
0.0
 10
141.413160132988
 20
311.3184379898053
 30
0.0
 10
141.2763025199778
 20
311.2656621056016
 30
0.0
 10
141.1558876584149
 20
311.2147628723481
 30
0.0
 10
141.0514106598281
 20
311.1672679927553
 30
0.0
 10
140.9459256525414
 20
311.1165581224815
 30
0.0
 10
140.8256431813111
 20
311.0546008492529
 30
0.0
 10
140.6915533683103
 20
310.9797645857785
 30
0.0
 10
140.5599902568308
 20
310.9004867311412
 30
0.0
 10
140.4311735076854
 20
310.8168990510729
 30
0.0
 10
140.3071310333421
 20
310.7303923702432
 30
0.0
 10
140.1878303744262
 20
310.6412405870018
 30
0.0
 10
140.0731875574315
 20
310.5497393965791
 30
0.0
 10
139.9615138736131
 20
310.4546379420794
 30
0.0
 10
139.8647348626838
 20
310.366749989785
 30
0.0
 10
139.781868419253
 20
310.2873500029676
 30
0.0
 10
139.6991149589353
 20
310.2045825921143
 30
0.0
 10
139.6061211272553
 20
310.106303756496
 30
0.0
 10
139.5043612976585
 20
309.9913016180128
 30
0.0
 10
139.4064559292277
 20
309.8729446166404
 30
0.0
 10
139.3125686850522
 20
309.7514297992669
 30
0.0
 10
139.2241527916825
 20
309.6287408388209
 30
0.0
 10
139.1410869575462
 20
309.5051254495418
 30
0.0
 10
139.0631940659933
 20
309.3808348623545
 30
0.0
 10
138.9892946428248
 20
309.254129760218
 30
0.0
 10
138.9270625570852
 20
309.1391617468459
 30
0.0
 10
138.8751492109466
 20
309.0368083607088
 30
0.0
 10
138.8244571129975
 20
308.9313147680422
 30
0.0
 10
138.769236269651
 20
308.8077945186247
 30
0.0
 10
138.711279081949
 20
308.6655920741923
 30
0.0
 10
138.6580695559603
 20
308.5214997302788
 30
0.0
 10
138.6096969054092
 20
308.3757575994728
 30
0.0
 10
138.566875830321
 20
308.230718559395
 30
0.0
 10
138.5294098816654
 20
308.0865762122839
 30
0.0
 10
138.4970487682011
 20
307.9435090004369
 30
0.0
 10
138.469255227638
 20
307.7994852411533
 30
0.0
 10
138.448586285122
 20
307.6703988948319
 30
0.0
 10
138.4334788937238
 20
307.5566316393338
 30
0.0
 10
138.4205633356424
 20
307.4403054384699
 30
0.0
 10
138.409341249487
 20
307.3054697224744
 30
0.0
 10
138.4017209841585
 20
307.1520992008209
 30
0.0
 10
138.3992063196251
 20
306.9985168166503
 30
0.0
 10
138.4018019618035
 20
306.8449786775188
 30
0.0
 10
138.4094035075591
 20
306.6939415966817
 30
0.0
 10
138.4217614950114
 20
306.5455232369861
 30
0.0
 10
138.4385806896439
 20
306.3998091350088
 30
0.0
 10
138.4600265658805
 20
306.2547042962086
 30
0.0
 10
138.4832511809567
 20
306.1260531262487
 30
0.0
 10
138.5066527733998
 20
306.0136983766657
 30
0.0
 10
138.532200837466
 20
305.9029916875771
 30
0.0
 10
138.5643687292931
 20
305.7786573422673
 30
0.0
 10
138.6045403232333
 20
305.6411790242344
 30
0.0
 10
138.6489626555106
 20
305.5050144926361
 30
0.0
 10
138.69602191511
 20
305.3746683902704
 30
0.0
 10
138.7452245179013
 20
305.2500955740365
 30
0.0
 10
138.7960866897313
 20
305.1312041103304
 30
0.0
 10
138.8505297650975
 20
305.0132207411697
 30
0.0
 10
138.9085743265869
 20
304.8962676771546
 30
0.0
 10
138.9702207432148
 20
304.7804644851188
 30
0.0
 10
139.0298086924007
 20
304.6758298973688
 30
0.0
 10
139.0864215526846
 20
304.5819627749263
 30
0.0
 10
139.1430863742486
 20
304.4924149605569
 30
0.0
 10
139.2058263111536
 20
304.3983060912523
 30
0.0
 10
139.2830171393302
 20
304.2888245236206
 30
0.0
 10
139.3718002294364
 20
304.1707705244438
 30
0.0
 10
139.4732755659718
 20
304.0452112469259
 30
0.0
 10
139.5705224780294
 20
303.9332878002684
 30
0.0
 10
139.6620367631555
 20
303.8339221811916
 30
0.0
 10
139.7190673277375
 20
303.7760189447951
 30
0.0
 10
139.7475826100284
 20
303.7470673265972
 30
0.0
  0
SPLINE
  5
79
330
1F
100
AcDbEntity
  8
0
  6
Continuous
 62
     7
370
    30
100
AcDbSpline
210
0.0
220
0.0
230
1.0
 70
    11
 71
     3
 72
   214
 73
   210
 74
     0
 42
0.000000001
 43
0.00000001
 40
0.0
 40
0.0
 40
0.0
 40
0.0
 40
0.0049533867054575
 40
0.0099091751405966
 40
0.0148649635903683
 40
0.0198183503157926
 40
0.0242918354829179
 40
0.0287662047808195
 40
0.0332396899538553
 40
0.0377780336324857
 40
0.0423173004697243
 40
0.0468556441541571
 40
0.0502753473749415
 40
0.0536950505962154
 40
0.0590039182802218
 40
0.0643172215474384
 40
0.0696320099241318
 40
0.0749453132278672
 40
0.0802541809425226
 40
0.0853268959786443
 40
0.0904021905766345
 40
0.095477485181465
 40
0.1005502002269204
 40
0.1039698996082445
 40
0.1073895989897267
 40
0.1126985190468964
 40
0.1180118747608715
 40
0.1233267155913548
 40
0.1286400713083451
 40
0.1339489913680474
 40
0.1390217574295501
 40
0.1440971031198588
 40
0.1491724488063232
 40
0.1542452148625811
 40
0.1576649491963862
 40
0.161084683529951
 40
0.1660381380541494
 40
0.1709939943100688
 40
0.1759498505579381
 40
0.1809033050711542
 40
0.1853768513778552
 40
0.189851281828296
 40
0.1943248281305743
 40
0.1988632343115119
 40
0.2034025636788646
 40
0.2079409698543931
 40
0.2113607205486312
 40
0.2147804712423297
 40
0.2200893730359414
 40
0.2254027106181796
 40
0.2307175333319215
 40
0.2360308708614672
 40
0.2413397726108518
 40
0.2464125249459463
 40
0.2514878570242622
 40
0.2565631890863571
 40
0.2616359413993256
 40
0.265055668184732
 40
0.2684753949695393
 40
0.2737842129299887
 40
0.2790974666263195
 40
0.284412205437686
 40
0.2897254590835368
 40
0.2950342770016118
 40
0.3001069495519822
 40
0.3051822018107677
 40
0.3102574540570732
 40
0.3153301265904142
 40
0.3187497996762998
 40
0.3221694727617875
 40
0.3274781996533481
 40
0.3327913621675582
 40
0.3381060097716616
 40
0.3434191722597262
 40
0.3487278991293376
 40
0.3538004835818618
 40
0.3588756476573699
 40
0.3639508117296054
 40
0.3690233961776601
 40
0.3724430093090439
 40
0.3758626224404066
 40
0.381171290939437
 40
0.3864843949370207
 40
0.3917989840016979
 40
0.3971120880089248
 40
0.402420756516048
 40
0.4074932831677273
 40
0.4125683893437798
 40
0.4176434955271985
 40
0.4227160221889251
 40
0.4261355953868003
 40
0.4295551685850423
 40
0.4348638369566842
 40
0.4401769407463076
 40
0.4454915295925607
 40
0.4508046334233883
 40
0.4561133018296181
 40
0.4611858263070526
 40
0.4662609302402835
 40
0.471336034188292
 40
0.4764085586858866
 40
0.4798281294710292
 40
0.4832477002567636
 40
0.4885564268204046
 40
0.4938695888002806
 40
0.499184235843248
 40
0.5044973978778362
 40
0.5098061244874013
 40
0.5148787033684126
 40
0.5199538616967297
 40
0.5250290200407574
 40
0.5301015989432076
 40
0.5335212058926003
 40
0.5369408128425478
 40
0.542249630415975
 40
0.5475628834834838
 40
0.5528776216346292
 40
0.5581908747463775
 40
0.5634996923569386
 40
0.5685723583778958
 40
0.5736476039014694
 40
0.5787228494348071
 40
0.5837955154690861
 40
0.5872151813113075
 40
0.5906348471538094
 40
0.5959437486714986
 40
0.6012570858065918
 40
0.6065719080509602
 40
0.6118852452004372
 40
0.6171941467301966
 40
0.6222668944401356
 40
0.6273422217475746
 40
0.6324175490545424
 40
0.6374902967638484
 40
0.6409100184189308
 40
0.6443297400738955
 40
0.649283194714561
 40
0.6542390510752479
 40
0.6591949074306507
 40
0.664148362064102
 40
0.6686219080267238
 40
0.6730963381270793
 40
0.6775698840863017
 40
0.6821082894404615
 40
0.6866476179731205
 40
0.69118602332279
 40
0.6946057732503473
 40
0.6980255231774382
 40
0.7033344434465914
 40
0.7086477995038175
 40
0.7139626406945928
 40
0.7192759967034158
 40
0.7245849169319389
 40
0.7296576865397698
 40
0.7347330358881262
 40
0.7398083852205611
 40
0.7448811548066716
 40
0.748300893073961
 40
0.7517206313406427
 40
0.7570294781952344
 40
0.7623427608104276
 40
0.7676575285471805
 40
0.7729708111085694
 40
0.7782796579179945
 40
0.7833523581340031
 40
0.7884276380759923
 40
0.7935029180036117
 40
0.798575618200013
 40
0.8019953099835515
 40
0.8054150017666051
 40
0.8107237553061959
 40
0.8160369445075943
 40
0.8213516188070207
 40
0.8266648079727887
 40
0.831973561482473
 40
0.8370461718672396
 40
0.8421213619051173
 40
0.84719655193647
 40
0.8522691623123382
 40
0.8556887931616339
 40
0.8591084240107807
 40
0.8644171052329601
 40
0.8697302219901236
 40
0.8750448238205657
 40
0.8803579405758919
 40
0.8856666217965299
 40
0.8907391612819157
 40
0.8958142803211545
 40
0.9008893993645746
 40
0.9059619388556674
 40
0.9093815210265748
 40
0.9128011031977373
 40
0.9181097647931389
 40
0.9234228618242621
 40
0.9287374439135336
 40
0.9340505409774155
 40
0.9393592026003132
 40
0.9447828419185821
 40
0.9502112113694594
 40
0.9556411648611182
 40
0.961069534361491
 40
0.9664931737213085
 40
0.9706525983069403
 40
0.9748120228938184
 40
0.9803957275898184
 40
0.9859811523251895
 40
0.9915648570360169
 40
0.9957824285173043
 40
0.9999999999999999
 40
0.9999999999999999
 40
0.9999999999999999
 40
0.9999999999999999
 10
139.7484774250353
 20
278.7461728904887
 30
0.0
 10
139.7150253668953
 20
278.7802099905794
 30
0.0
 10
139.648105030844
 20
278.8483006941993
 30
0.0
 10
139.551810046661
 20
278.9543446855274
 30
0.0
 10
139.458623054733
 20
279.0631068924292
 30
0.0
 10
139.3718373205915
 20
279.1711525020549
 30
0.0
 10
139.2910812261953
 20
279.278007196713
 30
0.0
 10
139.2160438974639
 20
279.3833252939096
 30
0.0
 10
139.1436450427586
 20
279.491227174887
 30
0.0
 10
139.074000977092
 20
279.601668054396
 30
0.0
 10
139.0072136969521
 20
279.7145857108819
 30
0.0
 10
138.9488909875175
 20
279.8199317816605
 30
0.0
 10
138.8982138017593
 20
279.9171329781594
 30
0.0
 10
138.8463434811054
 20
280.022053177753
 30
0.0
 10
138.7897426173397
 20
280.1449482144847
 30
0.0
 10
138.7301965516097
 20
280.2864936939704
 30
0.0
 10
138.6753767400771
 20
280.4299820720128
 30
0.0
 10
138.625375110218
 20
280.57517425548
 30
0.0
 10
138.5809326521584
 20
280.7197254868501
 30
0.0
 10
138.5418550882918
 20
280.8634399778297
 30
0.0
 10
138.507894131823
 20
281.006136497757
 30
0.0
 10
138.4784897967669
 20
281.1498406163693
 30
0.0
 10
138.456376894635
 20
281.2786879341173
 30
0.0
 10
138.4399967326515
 20
281.392279307605
 30
0.0
 10
138.4257795740551
 20
281.5084545020746
 30
0.0
 10
138.4130485675385
 20
281.6431575729586
 30
0.0
 10
138.4037117394942
 20
281.7964351742888
 30
0.0
 10
138.3994779543529
 20
281.9499817769793
 30
0.0
 10
138.4003547841659
 20
282.1035413410787
 30
0.0
 10
138.4062653303811
 20
282.2546560003442
 30
0.0
 10
138.4169614562381
 20
282.4032053065171
 30
0.0
 10
138.4321488971576
 20
282.5491004231383
 30
0.0
 10
138.4519696724643
 20
282.6944381022158
 30
0.0
 10
138.4737533082677
 20
282.8233428447655
 30
0.0
 10
138.4958963413193
 20
282.935953960074
 30
0.0
 10
138.5202042617024
 20
283.0469413172871
 30
0.0
 10
138.5509792875078
 20
283.1716299489968
 30
0.0
 10
138.5896106869091
 20
283.3095516810656
 30
0.0
 10
138.6325074276629
 20
283.4462072676925
 30
0.0
 10
138.6781061782638
 20
283.5770742117236
 30
0.0
 10
138.7259128654895
 20
283.7021921267608
 30
0.0
 10
138.7754426996206
 20
283.821647525236
 30
0.0
 10
138.8285635360993
 20
283.9402349514385
 30
0.0
 10
138.8852973094733
 20
284.0578324331369
 30
0.0
 10
138.9456458061821
 20
284.1743203854472
 30
0.0
 10
139.0040607393194
 20
284.2796172469295
 30
0.0
 10
139.0596218372727
 20
284.3741136252268
 30
0.0
 10
139.1210958412134
 20
284.4737131010394
 30
0.0
 10
139.1953043256598
 20
284.5868516620429
 30
0.0
 10
139.2837665674231
 20
284.7123735603172
 30
0.0
 10
139.3763816942176
 20
284.834917716167
 30
0.0
 10
139.4729956969605
 20
284.9542794254148
 30
0.0
 10
139.5720131078653
 20
285.0685874865482
 30
0.0
 10
139.6731649289457
 20
285.1779028382328
 30
0.0
 10
139.7761658709414
 20
285.282339936221
 30
0.0
 10
139.8824366933258
 20
285.3834472753373
 30
0.0
 10
139.9799744609412
 20
285.4704965616707
 30
0.0
 10
140.0676144485147
 20
285.5445979316158
 30
0.0
 10
140.1585910100747
 20
285.618233879799
 30
0.0
 10
140.2660654633157
 20
285.7004299086141
 30
0.0
 10
140.3910887016467
 20
285.7895929235997
 30
0.0
 10
140.5190450012778
 20
285.8745714650228
 30
0.0
 10
140.6497212632671
 20
285.955223383481
 30
0.0
 10
140.7809926008611
 20
286.0303110824684
 30
0.0
 10
140.9126253540142
 20
286.0999811055538
 30
0.0
 10
141.0443882054918
 20
286.1644358865569
 30
0.0
 10
141.1781343671801
 20
286.2246663325083
 30
0.0
 10
141.2989865315016
 20
286.274522071281
 30
0.0
 10
141.4062131172574
 20
286.3154361670191
 30
0.0
 10
141.5164340049969
 20
286.3548066549606
 30
0.0
 10
141.6450559171534
 20
286.3967937178637
 30
0.0
 10
141.7925431522195
 20
286.4395462612222
 30
0.0
 10
141.9414129420918
 20
286.4773794664475
 30
0.0
 10
142.0914171522217
 20
286.5102297399282
 30
0.0
 10
142.240141048707
 20
286.5376326102839
 30
0.0
 10
142.3874126554126
 20
286.5598037033287
 30
0.0
 10
142.5330807079004
 20
286.5770106077125
 30
0.0
 10
142.679221930705
 20
286.5895749491944
 30
0.0
 10
142.8097620960783
 20
286.5966175343819
 30
0.0
 10
142.924485237602
 20
286.5997327593524
 30
0.0
 10
143.0415232116507
 20
286.6004003413648
 30
0.0
 10
143.176791038996
 20
286.5974462710685
 30
0.0
 10
143.3301141080903
 20
286.5889701369919
 30
0.0
 10
143.4831134266117
 20
286.5753944443142
 30
0.0
 10
143.6355338049847
 20
286.5567413229543
 30
0.0
 10
143.7849428976765
 20
286.5333717717058
 30
0.0
 10
143.931249802809
 20
286.5055461883217
 30
0.0
 10
144.0744003629413
 20
286.4735671455485
 30
0.0
 10
144.2164606983121
 20
286.4370507433321
 30
0.0
 10
144.3419718591255
 20
286.4004878833275
 30
0.0
 10
144.4512578129312
 20
286.3654545303536
 30
0.0
 10
144.5619184577474
 20
286.3273451880054
 30
0.0
 10
144.6885828864596
 20
286.2797841962442
 30
0.0
 10
144.8304572683598
 20
286.2210360500202
 30
0.0
 10
144.9703381558707
 20
286.1575830126033
 30
0.0
 10
145.1079920762215
 20
286.0895304369419
 30
0.0
 10
145.2412432793837
 20
286.0180240875047
 30
0.0
 10
145.3700921868316
 20
285.9433397749039
 30
0.0
 10
145.4945878522951
 20
285.8657809418258
 30
0.0
 10
145.6165528757125
 20
285.7843014376175
 30
0.0
 10
145.7228862637859
 20
285.7082558763023
 30
0.0
 10
145.814415371532
 20
285.6390241345042
 30
0.0
 10
145.9062239816969
 20
285.5664344502616
 30
0.0
 10
146.0100061312944
 20
285.4796283552384
 30
0.0
 10
146.1244382428753
 20
285.3772308939941
 30
0.0
 10
146.2354318587622
 20
285.2710535721208
 30
0.0
 10
146.3428015411945
 20
285.1612730839492
 30
0.0
 10
146.4448734197095
 20
285.0496907990446
 30
0.0
 10
146.5417391909112
 20
284.9365668441791
 30
0.0
 10
146.6335455872134
 20
284.8221713218007
 30
0.0
 10
146.7216662107299
 20
284.7049137528819
 30
0.0
 10
146.7968348985442
 20
284.5979579364628
 30
0.0
 10
146.8602891216009
 20
284.5023321198818
 30
0.0
 10
146.9228957742126
 20
284.4034448294838
 30
0.0
 10
146.9920955546791
 20
284.287178854987
 30
0.0
 10
147.0661843298462
 20
284.1526748168033
 30
0.0
 10
147.1357772017894
 20
284.0157420655215
 30
0.0
 10
147.2007576689942
 20
283.8766087173047
 30
0.0
 10
147.2601424619668
 20
283.7375286772999
 30
0.0
 10
147.3141042129975
 20
283.5987170611078
 30
0.0
 10
147.362870789711
 20
283.4603801810374
 30
0.0
 10
147.4072119170012
 20
283.3205625260067
 30
0.0
 10
147.4427409790957
 20
283.1947531716727
 30
0.0
 10
147.4709660758764
 20
283.0835128191779
 30
0.0
 10
147.4973117526459
 20
282.9694753985065
 30
0.0
 10
147.5241264344567
 20
282.836856378504
 30
0.0
 10
147.5495175522942
 20
282.6854088768718
 30
0.0
 10
147.569862172387
 20
282.5331576706201
 30
0.0
 10
147.585125862676
 20
282.3803565847586
 30
0.0
 10
147.5951268306021
 20
282.2294579561071
 30
0.0
 10
147.6000991839817
 20
282.0806076377471
 30
0.0
 10
147.6003262238694
 20
281.9339248926322
 30
0.0
 10
147.5958870414399
 20
281.7873096530518
 30
0.0
 10
147.5877691510171
 20
281.6568300758963
 30
0.0
 10
147.5775817656277
 20
281.5425161056329
 30
0.0
 10
147.5650708575851
 20
281.4295892500398
 30
0.0
 10
147.5475683601513
 20
281.3023573131982
 30
0.0
 10
147.5236434938818
 20
281.1611399002384
 30
0.0
 10
147.4953438645685
 20
281.02073343967
 30
0.0
 10
147.4637489314102
 20
280.8857996632248
 30
0.0
 10
147.4293541952342
 20
280.756351090719
 30
0.0
 10
147.3926508521753
 20
280.6323526275718
 30
0.0
 10
147.352285195236
 20
280.5088400051845
 30
0.0
 10
147.3082225959069
 20
280.3859322144781
 30
0.0
 10
147.260448712725
 20
280.2637479892475
 30
0.0
 10
147.213421747533
 20
280.1528960650705
 30
0.0
 10
147.1680979182492
 20
280.0530846958173
 30
0.0
 10
147.1174300811017
 20
279.9475770014071
 30
0.0
 10
147.0555208699266
 20
279.827266915477
 30
0.0
 10
146.9807379596004
 20
279.693144154226
 30
0.0
 10
146.9015122451351
 20
279.5615462848413
 30
0.0
 10
146.8179753732746
 20
279.4326930605943
 30
0.0
 10
146.7315173599755
 20
279.3086129792558
 30
0.0
 10
146.6424121186741
 20
279.1892737039929
 30
0.0
 10
146.550955386843
 20
279.0745913893264
 30
0.0
 10
146.4558969799372
 20
278.9628768148721
 30
0.0
 10
146.368046085495
 20
278.8660601531956
 30
0.0
 10
146.2886776359989
 20
278.7831597978745
 30
0.0
 10
146.2059420962572
 20
278.7003716134256
 30
0.0
 10
146.1076993693962
 20
278.6073370812387
 30
0.0
 10
145.9927369651806
 20
278.5055300641326
 30
0.0
 10
145.8744180115474
 20
278.4075761785734
 30
0.0
 10
145.7529394912663
 20
278.3136391801377
 30
0.0
 10
145.6302844899418
 20
278.2251730985457
 30
0.0
 10
145.506700773961
 20
278.1420567536788
 30
0.0
 10
145.3824396528125
 20
278.0641131384471
 30
0.0
 10
145.2557622901697
 20
277.9901620964997
 30
0.0
 10
145.1408174226313
 20
277.9278832547051
 30
0.0
 10
145.038483174035
 20
277.8759283468358
 30
0.0
 10
144.9330089982871
 20
277.8251938886987
 30
0.0
 10
144.80951053978
 20
277.7699238080451
 30
0.0
 10
144.6673315525112
 20
277.7119101756401
 30
0.0
 10
144.5232607251899
 20
277.6586434048507
 30
0.0
 10
144.3775381377456
 20
277.6102128126586
 30
0.0
 10
144.2325163567183
 20
277.5673340350968
 30
0.0
 10
144.0883890652606
 20
277.5298107114839
 30
0.0
 10
143.9453348100022
 20
277.4973926290812
 30
0.0
 10
143.8013221548248
 20
277.4695417279785
 30
0.0
 10
143.6722440344748
 20
277.4488213668764
 30
0.0
 10
143.558482762481
 20
277.4336686567768
 30
0.0
 10
143.4421623986862
 20
277.4207068436577
 30
0.0
 10
143.3073325851868
 20
277.4094311421031
 30
0.0
 10
143.1539672732147
 20
277.4017497919063
 30
0.0
 10
143.0003880592219
 20
277.3991738131135
 30
0.0
 10
142.8468510474682
 20
277.4017080145138
 30
0.0
 10
142.6958130520533
 20
277.4092489777816
 30
0.0
 10
142.5473918352706
 20
277.4215472995541
 30
0.0
 10
142.4016730501835
 20
277.4383077729982
 30
0.0
 10
142.2565616778451
 20
277.4596950756481
 30
0.0
 10
142.1279030260461
 20
277.4828675101555
 30
0.0
 10
142.0155405206438
 20
277.5062237838786
 30
0.0
 10
141.9014879026475
 20
277.5324945523329
 30
0.0
 10
141.7705270794692
 20
277.5664830222381
 30
0.0
 10
141.6232651317027
 20
277.6099985440122
 30
0.0
 10
141.4774912310364
 20
277.6584022269614
 30
0.0
 10
141.3334487783662
 20
277.7116145689775
 30
0.0
 10
141.1902885480225
 20
277.7699996936207
 30
0.0
 10
141.0481774701333
 20
277.8336648511448
 30
0.0
 10
140.9072700428731
 20
277.9026508359498
 30
0.0
 10
140.7687485704248
 20
277.9764076992789
 30
0.0
 10
140.6328532598932
 20
278.0548060931842
 30
0.0
 10
140.5100993611048
 20
278.1313194510286
 30
0.0
 10
140.3999014113859
 20
278.2047234244552
 30
0.0
 10
140.2903941136033
 20
278.2818639014056
 30
0.0
 10
140.1723109584845
 20
278.370592641148
 30
0.0
 10
140.0467173151653
 20
278.4720091729879
 30
0.0
 10
139.9347603617733
 20
278.5692029434504
 30
0.0
 10
139.8353627148651
 20
278.6606694444371
 30
0.0
 10
139.7774391883152
 20
278.7176717418019
 30
0.0
 10
139.7484774250353
 20
278.7461728904887
 30
0.0
  0
LINE
  5
7A
330
1F
100
AcDbEntity
  8
0
  6
Continuous
 62
     7
370
    30
100
AcDbLine
 10
73.0
 20
243.0
 30
0.0
 11
73.0
 21
381.0
 31
0.0
  0
LINE
  5
7B
330
1F
100
AcDbEntity
  8
0
  6
Continuous
 62
     7
370
    30
100
AcDbLine
 10
213.0
 20
381.0
 30
0.0
 11
213.0
 21
243.0
 31
0.0
  0
LINE
  5
7C
330
1F
100
AcDbEntity
  8
0
  6
Continuous
 62
     7
370
    30
100
AcDbLine
 10
74.0
 20
382.0
 30
0.0
 11
212.0
 21
382.0
 31
0.0
  0
LINE
  5
7D
330
1F
100
AcDbEntity
  8
0
  6
Continuous
 62
     7
370
    30
100
AcDbLine
 10
212.0
 20
242.0
 30
0.0
 11
74.0
 21
242.0
 31
0.0
  0
ARC
  5
7E
330
1F
100
AcDbEntity
  8
0
  6
Continuous
 62
     7
370
    30
100
AcDbCircle
 10
212.0
 20
243.0
 30
0.0
 40
1.000000000000114
100
AcDbArc
 50
270.0
 51
0.0
  0
ARC
  5
7F
330
1F
100
AcDbEntity
  8
0
  6
Continuous
 62
     7
370
    30
100
AcDbCircle
 10
212.0
 20
381.0
 30
0.0
 40
1.000000000000114
100
AcDbArc
 50
0.0
 51
90.0
  0
ARC
  5
80
330
1F
100
AcDbEntity
  8
0
  6
Continuous
 62
     7
370
    30
100
AcDbCircle
 10
74.0
 20
243.0
 30
0.0
 40
1.000000000000114
100
AcDbArc
 50
180.0
 51
270.0
  0
ARC
  5
81
330
1F
100
AcDbEntity
  8
0
  6
Continuous
 62
     7
370
    30
100
AcDbCircle
 10
74.0
 20
381.0
 30
0.0
 40
1.000000000000114
100
AcDbArc
 50
90.0
 51
180.0
  0
CIRCLE
  5
82
330
1F
100
AcDbEntity
  8
0
  6
Continuous
 62
     8
370
     0
100
AcDbCircle
 10
143.0000323056
 20
282.0000006184
 30
0.0
 40
4.506866782170391
  0
CIRCLE
  5
83
330
1F
100
AcDbEntity
  8
0
  6
Continuous
 62
     8
370
     0
100
AcDbCircle
 10
143.0000323056
 20
282.0000006184
 30
0.0
 40
4.406927699468497
  0
CIRCLE
  5
84
330
1F
100
AcDbEntity
  8
0
  6
Continuous
 62
     8
370
     0
100
AcDbCircle
 10
143.0000323056
 20
307.0000006184
 30
0.0
 40
4.40692769946844
  0
CIRCLE
  5
85
330
1F
100
AcDbEntity
  8
0
  6
Continuous
 62
     8
370
     0
100
AcDbCircle
 10
143.0000323056
 20
307.0000006184
 30
0.0
 40
4.506866782170334
  0
LINE
  5
86
330
1F
100
AcDbEntity
  8
0
  6
Continuous
 62
     8
370
     0
100
AcDbLine
 10
212.0138027606
 20
381.0138027606
 30
0.0
 11
73.9861972394
 21
381.0138027606
 31
0.0
  0
LINE
  5
87
330
1F
100
AcDbEntity
  8
0
  6
Continuous
 62
     8
370
     0
100
AcDbLine
 10
212.0138027606
 20
242.9861972394
 30
0.0
 11
212.0138027606
 21
381.0138027606
 31
0.0
  0
LINE
  5
88
330
1F
100
AcDbEntity
  8
0
  6
Continuous
 62
     8
370
     0
100
AcDbLine
 10
73.9861972394
 20
242.9861972394
 30
0.0
 11
212.0138027606
 21
242.9861972394
 31
0.0
  0
LINE
  5
89
330
1F
100
AcDbEntity
  8
0
  6
Continuous
 62
     8
370
     0
100
AcDbLine
 10
73.9861972394
 20
381.0138027606
 30
0.0
 11
73.9861972394
 21
242.9861972394
 31
0.0
  0
ARC
  5
8A
330
1F
100
AcDbEntity
  8
0
  6
Continuous
 62
     8
370
     0
100
AcDbCircle
 10
73.7419299603
 20
260.7719175919
 30
0.0
 40
17.78739764436876
100
AcDbArc
 50
267.6094428031
 51
270.7868449547
  0
ARC
  5
8B
330
1F
100
AcDbEntity
  8
0
  6
Continuous
 62
     8
370
     0
100
AcDbCircle
 10
73.7419299603
 20
363.2280824078
 30
0.0
 40
17.78739764469589
100
AcDbArc
 50
89.2131550453
 51
92.3905571969
  0
ARC
  5
8C
330
1F
100
AcDbEntity
  8
0
  6
Continuous
 62
     8
370
     0
100
AcDbCircle
 10
212.2580700397
 20
260.7719175919
 30
0.0
 40
17.78739764438178
100
AcDbArc
 50
269.2131550453
 51
272.3905571969
  0
ARC
  5
8D
330
1F
100
AcDbEntity
  8
0
  6
Continuous
 62
     8
370
     0
100
AcDbCircle
 10
212.2580700397
 20
363.2280824084
 30
0.0
 40
17.78739764408734
100
AcDbArc
 50
87.6094428031
 51
90.7868449547
  0
ARC
  5
8E
330
1F
100
AcDbEntity
  8
0
  6
Continuous
 62
     8
370
     0
100
AcDbCircle
 10
194.2280824081
 20
381.2580700397
 30
0.0
 40
17.78739764437831
100
AcDbArc
 50
359.2131550453
 51
2.3905571969
  0
ARC
  5
8F
330
1F
100
AcDbEntity
  8
0
  6
Continuous
 62
     8
370
     0
100
AcDbCircle
 10
91.7719175921
 20
381.2580700397
 30
0.0
 40
17.78739764456404
100
AcDbArc
 50
177.6094428031
 51
180.7868449547
  0
ARC
  5
90
330
1F
100
AcDbEntity
  8
0
  6
Continuous
 62
     8
370
     0
100
AcDbCircle
 10
194.2280824086
 20
242.7419299603
 30
0.0
 40
17.78739764388463
100
AcDbArc
 50
357.6094428031
 51
0.7868449547
  0
ARC
  5
91
330
1F
100
AcDbEntity
  8
0
  6
Continuous
 62
     8
370
     0
100
AcDbCircle
 10
91.7719175919
 20
242.7419299603
 30
0.0
 40
17.78739764433323
100
AcDbArc
 50
179.2131550453
 51
182.3905571969
  0
LINE
  5
92
330
1F
100
AcDbEntity
  8
0
  6
Continuous
 62
     7
370
    30
100
AcDbLine
 10
258.030824996
 20
277.4904017691
 30
0.0
 11
258.1090611605
 21
277.4931338362
 31
0.0
  0
LINE
  5
93
330
1F
100
AcDbEntity
  8
0
  6
Continuous
 62
     7
370
    30
100
AcDbLine
 10
258.1090611605
 20
286.5068674005
 30
0.0
 11
258.0849298428
 21
286.5077100847
 31
0.0
  0
ARC
  5
94
330
1F
100
AcDbEntity
  8
0
  6
Continuous
 62
     7
370
    30
100
AcDbCircle
 10
258.1055712109
 20
277.5930729189
 30
0.0
 40
0.0999999999999793
100
AcDbArc
 50
271.9999999999
 51
0.0
  0
ARC
  5
95
330
1F
100
AcDbEntity
  8
0
  6
Continuous
 62
     7
370
    30
100
AcDbCircle
 10
258.1055712109
 20
286.4069283178
 30
0.0
 40
0.0999999999999793
100
AcDbArc
 50
0.0
 51
88.0000000001
  0
LINE
  5
96
330
1F
100
AcDbEntity
  8
0
  6
Continuous
 62
     7
370
    30
100
AcDbLine
 10
258.2055712109
 20
277.6965040414
 30
0.0
 11
258.3338984345
 21
277.6965040414
 31
0.0
  0
LINE
  5
97
330
1F
100
AcDbEntity
  8
0
  6
Continuous
 62
     7
370
    30
100
AcDbLine
 10
258.3338984345
 20
286.3034971953
 30
0.0
 11
258.2055712109
 21
286.303498432
 31
0.0
  0
SPLINE
  5
98
330
1F
100
AcDbEntity
  8
0
  6
Continuous
 62
     7
370
    30
100
AcDbSpline
210
0.0
220
0.0
230
1.0
 70
     8
 71
     3
 72
    19
 73
    15
 74
     0
 42
0.000000001
 43
0.00000001
 40
0.0
 40
0.0
 40
0.0
 40
0.0
 40
0.1494328145194704
 40
0.3446458335680279
 40
0.5398587619452172
 40
0.6042791898099505
 40
0.6686993070989761
 40
0.7331194471515305
 40
0.797540711220624
 40
0.8380378606462314
 40
0.8785326623116732
 40
0.9190212086252201
 40
0.9595093071532185
 40
1.0
 40
1.0
 40
1.0
 40
1.0
 10
258.3338068840397
 20
277.6965172008537
 30
0.0
 10
258.3645921572164
 20
277.9103315860563
 30
0.0
 10
258.4355940731591
 20
278.4034644849708
 30
0.0
 10
258.5452219643174
 20
279.1761429450439
 30
0.0
 10
258.6355632775947
 20
279.8274347189479
 30
0.0
 10
258.6973049902754
 20
280.2917989764817
 30
0.0
 10
258.7328501384904
 20
280.5689064610623
 30
0.0
 10
258.766643907832
 20
280.8462351110762
 30
0.0
 10
258.7938234831766
 20
281.0895240102988
 30
0.0
 10
258.8144791300559
 20
281.2987192269637
 30
0.0
 10
258.8293115158651
 20
281.473712734076
 30
0.0
 10
258.8407648067164
 20
281.6489451114321
 30
0.0
 10
258.8484783928799
 20
281.8243997569745
 30
0.0
 10
258.8494927869356
 20
281.941465747747
 30
0.0
 10
258.850000000212
 20
282.0000006183557
 30
0.0
  0
SPLINE
  5
99
330
1F
100
AcDbEntity
  8
0
  6
Continuous
 62
     7
370
    30
100
AcDbSpline
210
0.0
220
0.0
230
1.0
 70
     8
 71
     3
 72
    18
 73
    14
 74
     0
 42
0.000000001
 43
0.00000001
 40
0.0
 40
0.0
 40
0.0
 40
0.0
 40
0.0468580619870763
 40
0.0937127368195128
 40
0.1405714408479738
 40
0.1874373316482147
 40
0.2343008095710568
 40
0.2811620189036716
 40
0.3280230842340281
 40
0.4568907268288628
 40
0.5857588366371559
 40
0.8158803258967995
 40
1.0
 40
1.0
 40
1.0
 40
1.0
 10
258.850000000212
 20
282.0000006183557
 30
0.0
 10
258.8493214397454
 20
282.0677265843931
 30
0.0
 10
258.8479643678609
 20
282.2031736208679
 30
0.0
 10
258.8377421275372
 20
282.4061288834374
 30
0.0
 10
258.8228632771208
 20
282.6087695858834
 30
0.0
 10
258.8039736266856
 20
282.8110905195095
 30
0.0
 10
258.7825185953587
 20
283.0131512062217
 30
0.0
 10
258.759183024242
 20
283.2149956742966
 30
0.0
 10
258.7201242204755
 20
283.534323432737
 30
0.0
 10
258.6628276750067
 20
283.970816267189
 30
0.0
 10
258.5669537130544
 20
284.6693612898623
 30
0.0
 10
258.4570995672848
 20
285.4465872794726
 30
0.0
 10
258.3718161626933
 20
286.0391787770857
 30
0.0
 10
258.3339098558157
 20
286.3025706441109
 30
0.0
  0
ARC
  5
9A
330
1F
100
AcDbEntity
  8
0
  6
Continuous
 62
     7
370
    30
100
AcDbCircle
 10
258.1055712109
 20
302.5930729189
 30
0.0
 40
0.1000000000000891
100
AcDbArc
 50
290.7438963456
 51
0.0
  0
ARC
  5
9B
330
1F
100
AcDbEntity
  8
0
  6
Continuous
 62
     7
370
    30
100
AcDbCircle
 10
258.1055712109
 20
311.4069283178
 30
0.0
 40
0.1000000000000804
100
AcDbArc
 50
0.0
 51
63.6452795537
  0
LINE
  5
9C
330
1F
100
AcDbEntity
  8
0
  6
Continuous
 62
     7
370
    30
100
AcDbLine
 10
258.3338984345
 20
311.3034971953
 30
0.0
 11
258.2055712109
 21
311.3034971953
 31
0.0
  0
LINE
  5
9D
330
1F
100
AcDbEntity
  8
0
  6
Continuous
 62
     7
370
    30
100
AcDbLine
 10
258.2055712109
 20
302.6965028047
 30
0.0
 11
258.3338984345
 21
302.6965040414
 31
0.0
  0
SPLINE
  5
9E
330
1F
100
AcDbEntity
  8
0
  6
Continuous
 62
     7
370
    30
100
AcDbSpline
210
0.0
220
0.0
230
1.0
 70
     8
 71
     3
 72
    18
 73
    14
 74
     0
 42
0.000000001
 43
0.00000001
 40
0.0
 40
0.0
 40
0.0
 40
0.0
 40
0.0468481348703998
 40
0.0936928833037456
 40
0.1405416600795104
 40
0.1873976221045013
 40
0.2342511717632736
 40
0.2811024533124367
 40
0.3279535908898371
 40
0.4567939322248754
 40
0.5856347406743906
 40
0.8157074775363298
 40
1.0
 40
1.0
 40
1.0
 40
1.0
 10
258.8500000002123
 20
307.0000006183557
 30
0.0
 10
258.8493214397454
 20
307.0677265843931
 30
0.0
 10
258.8479643678614
 20
307.203173620868
 30
0.0
 10
258.8377421275361
 20
307.406128883437
 30
0.0
 10
258.822863277123
 20
307.6087695858839
 30
0.0
 10
258.803973626678
 20
307.8110905195084
 30
0.0
 10
258.782518595386
 20
308.0131512062257
 30
0.0
 10
258.7591830241394
 20
308.2149956742816
 30
0.0
 10
258.7201242211403
 20
308.5343234328327
 30
0.0
 10
258.6628276674012
 20
308.9708162660925
 30
0.0
 10
258.5669537497855
 20
309.669361295157
 30
0.0
 10
258.4570564692925
 20
310.446890488372
 30
0.0
 10
258.371729309113
 20
311.0397851000949
 30
0.0
 10
258.3337793187839
 20
311.303480091628
 30
0.0
  0
SPLINE
  5
9F
330
1F
100
AcDbEntity
  8
0
  6
Continuous
 62
     7
370
    30
100
AcDbSpline
210
0.0
220
0.0
230
1.0
 70
     8
 71
     3
 72
    19
 73
    15
 74
     0
 42
0.000000001
 43
0.00000001
 40
0.0
 40
0.0
 40
0.0
 40
0.0
 40
0.149252583107508
 40
0.344506966928481
 40
0.5397612600588869
 40
0.6041953383263938
 40
0.6686291059523902
 40
0.7330628963467452
 40
0.7974978109958013
 40
0.8380035415876542
 40
0.8785069239218617
 40
0.9190040495786927
 40
0.9595007273550938
 40
0.9999999999999999
 40
0.9999999999999999
 40
0.9999999999999999
 40
0.9999999999999999
 10
258.3339375461005
 20
302.6974266124851
 30
0.0
 10
258.3646791273084
 20
302.9109378801791
 30
0.0
 10
258.4356372888354
 20
303.4037676705038
 30
0.0
 10
258.5452219041014
 20
304.176142953644
 30
0.0
 10
258.635563282333
 20
304.827434718271
 30
0.0
 10
258.6973049895922
 20
305.2917989765793
 30
0.0
 10
258.7328501386734
 20
305.5689064610359
 30
0.0
 10
258.7666439077827
 20
305.8462351110834
 30
0.0
 10
258.7938234831846
 20
306.0895240102975
 30
0.0
 10
258.8144791300542
 20
306.2987192269638
 30
0.0
 10
258.829311515866
 20
306.4737127340761
 30
0.0
 10
258.8407648067152
 20
306.6489451114318
 30
0.0
 10
258.8484783928812
 20
306.8243997569749
 30
0.0
 10
258.8494927869356
 20
306.941465747747
 30
0.0
 10
258.850000000212
 20
307.0000006183556
 30
0.0
  0
ARC
  5
A0
330
1F
100
AcDbEntity
  8
0
  6
Continuous
 62
     7
370
    30
100
AcDbCircle
 10
256.6737820779
 20
381.0
 30
0.0
 40
0.9999999999998996
100
AcDbArc
 50
0.7908650386
 51
89.9999999932
  0
LWPOLYLINE
  5
A1
330
1F
100
AcDbEntity
  8
0
  6
Continuous
 62
     7
370
    30
100
AcDbPolyline
 90
        9
 70
   128
 43
0.0
 10
258.1499839535
 20
311.5994217967
 10
258.1499877144
 20
311.649494072
 10
258.1499909738
 20
311.6995663474
 10
258.1499937317
 20
311.7496386228
 10
258.1499959882
 20
311.7997108982
 10
258.1499977433
 20
311.8497831736
 10
258.1499989969
 20
311.8998554491
 10
258.1499997491
 20
311.9499277245
 10
258.1499999998
 20
312.0
  0
ARC
  5
A2
330
1F
100
AcDbEntity
  8
0
  6
Continuous
 62
     7
370
    30
100
AcDbCircle
 10
-4741.8500000002
 20
312.0
 30
0.0
 40
4999.999999999999
100
AcDbArc
 50
359.7089340097
 51
359.8899923917
  0
ARC
  5
A3
330
1F
100
AcDbEntity
  8
0
  6
Continuous
 62
     7
370
    30
100
AcDbCircle
 10
-4741.8500000002
 20
312.0
 30
0.0
 40
5000.000000000018
100
AcDbArc
 50
359.2091349613
 51
359.6035149028
  0
ARC
  5
A4
330
1F
100
AcDbEntity
  8
0
  6
Continuous
 62
     7
370
    30
100
AcDbCircle
 10
-4741.8500000002
 20
312.0
 30
0.0
 40
5000.000000000018
100
AcDbArc
 50
0.0
 51
0.7908650387
  0
ARC
  5
A5
330
1F
100
AcDbEntity
  8
0
  6
Continuous
 62
     7
370
    30
100
AcDbCircle
 10
256.6737820779
 20
243.0
 30
0.0
 40
1.0
100
AcDbArc
 50
270.0000000068
 51
359.2091349614
  0
LINE
  5
A6
330
1F
100
AcDbEntity
  8
0
  6
Continuous
 62
     7
370
    30
100
AcDbLine
 10
258.2055712109
 20
286.4069283178
 30
0.0
 11
258.2055712109
 21
277.5930729189
 31
0.0
  0
LINE
  5
A7
330
1F
100
AcDbEntity
  8
0
  6
Continuous
 62
     7
370
    30
100
AcDbLine
 10
258.3338984345
 20
277.6965040414
 30
0.0
 11
258.3338984345
 21
286.3034971953
 31
0.0
  0
LINE
  5
A8
330
1F
100
AcDbEntity
  8
0
  6
Continuous
 62
     7
370
    30
100
AcDbLine
 10
258.2055712109
 20
311.4069283178
 30
0.0
 11
258.2055712109
 21
302.5930729189
 31
0.0
  0
LINE
  5
A9
330
1F
100
AcDbEntity
  8
0
  6
Continuous
 62
     7
370
    30
100
AcDbLine
 10
258.3338984345
 20
302.6965040414
 30
0.0
 11
258.3338984345
 21
311.3034971953
 31
0.0
  0
LINE
  5
AA
330
1F
100
AcDbEntity
  8
0
  6
Continuous
 62
     7
370
    30
100
AcDbLine
 10
256.1975187815
 20
242.0
 30
0.0
 11
247.1499999998
 21
242.0
 31
0.0
  0
LINE
  5
AB
330
1F
100
AcDbEntity
  8
0
  6
Continuous
 62
     7
370
    30
100
AcDbLine
 10
247.1499999998
 20
242.0
 30
0.0
 11
247.1499999998
 21
243.0
 31
0.0
  0
LINE
  5
AC
330
1F
100
AcDbEntity
  8
0
  6
Continuous
 62
     7
370
    30
100
AcDbLine
 10
247.1499999998
 20
243.0
 30
0.0
 11
247.1499999998
 21
381.0
 31
0.0
  0
LINE
  5
AD
330
1F
100
AcDbEntity
  8
0
  6
Continuous
 62
     7
370
    30
100
AcDbLine
 10
247.1499999998
 20
382.0
 30
0.0
 11
256.1975187815
 21
382.0
 31
0.0
  0
LINE
  5
AE
330
1F
100
AcDbEntity
  8
0
  6
Continuous
 62
     7
370
    30
100
AcDbLine
 10
247.1499999998
 20
381.0
 30
0.0
 11
247.1499999998
 21
382.0
 31
0.0
  0
LINE
  5
AF
330
1F
100
AcDbEntity
  8
0
  6
Continuous
 62
     7
370
    30
100
AcDbLine
 10
256.1975187815
 20
382.0
 30
0.0
 11
256.6737820779
 21
382.0
 31
0.0
  0
SPLINE
  5
B0
330
1F
100
AcDbEntity
  8
0
  6
Continuous
 62
     7
370
    30
100
AcDbSpline
210
0.0
220
0.0
230
1.0
 70
     8
 71
     3
 72
    98
 73
    94
 74
     0
 42
0.000000001
 43
0.00000001
 40
0.0
 40
0.0
 40
0.0
 40
0.0
 40
0.0127088032574008
 40
0.0254176065216477
 40
0.0381758139925586
 40
0.050934021470316
 40
0.0595498273874265
 40
0.0681656333059248
 40
0.0767967760338729
 40
0.0854279187631872
 40
0.0941684336486356
 40
0.1029089485354597
 40
0.1116654772151371
 40
0.1204220058961464
 40
0.1292087548667986
 40
0.1379995613953578
 40
0.1493357073337583
 40
0.1606740313677051
 40
0.1720101773171442
 40
0.1834256403314443
 40
0.1948433274894458
 40
0.2062587905131613
 40
0.2192726728398404
 40
0.2322865551701286
 40
0.2453535010172259
 40
0.2584204468671079
 40
0.2672071860181067
 40
0.2759979826303123
 40
0.2873342402000832
 40
0.2986726758896435
 40
0.3100089334615228
 40
0.3214245093140551
 40
0.3328423093471513
 40
0.3442578851992486
 40
0.3572718980438194
 40
0.370285910887065
 40
0.3833529886365793
 40
0.3964200663838085
 40
0.4052068952966654
 40
0.413997781804624
 40
0.4267067593038273
 40
0.4394157367996608
 40
0.4521741185687559
 40
0.4649325003336995
 40
0.473548423955299
 40
0.4821643475759131
 40
0.4907956083071302
 40
0.4994268690372615
 40
0.5081675041332534
 40
0.5169081392280336
 40
0.5256647886809305
 40
0.5344214381325241
 40
0.5432083090139707
 40
0.5519992376465597
 40
0.5633354551358923
 40
0.5746738507887419
 40
0.5860100682638614
 40
0.5974256062191218
 40
0.608843368422297
 40
0.6202589063622341
 40
0.6332728828797932
 40
0.6462868593898187
 40
0.6593539031771666
 40
0.6724209469568733
 40
0.6812077563624868
 40
0.6899986235774124
 40
0.7013346619215455
 40
0.712672878403575
 40
0.7240089167332665
 40
0.7354242746104648
 40
0.7468418567096587
 40
0.7582572145730155
 40
0.771270986359554
 40
0.7842847581400045
 40
0.7973515964787748
 40
0.8104184348119744
 40
0.8192051062404782
 40
0.8279958354130865
 40
0.83933167956071
 40
0.8506697017991633
 40
0.8620055459384479
 40
0.8734207076741948
 40
0.8848380935752937
 40
0.8962532553047556
 40
0.909266801459584
 40
0.9222803476124221
 40
0.9353469585558413
 40
0.9484135694981943
 40
0.9572000869216365
 40
0.9659906619292021
 40
0.9773263819380251
 40
0.9886642799897661
 40
1.0
 40
1.0
 40
1.0
 40
1.0
 10
258.0383598117892
 20
278.7461728904887
 30
0.0
 10
258.03856368414
 20
278.7801508219266
 30
0.0
 10
258.0389714288416
 20
278.8481066848204
 30
0.0
 10
258.0396071634241
 20
278.9540599980927
 30
0.0
 10
258.0402600944906
 20
279.0628793472693
 30
0.0
 10
258.0408587270748
 20
279.1626491759641
 30
0.0
 10
258.0413954397247
 20
279.2520992630394
 30
0.0
 10
258.0418656261518
 20
279.3304619066383
 30
0.0
 10
258.0423432098962
 20
279.4100574207988
 30
0.0
 10
258.0428300417141
 20
279.4911942566384
 30
0.0
 10
258.0433257257417
 20
279.573806437051
 30
0.0
 10
258.0438304380699
 20
279.6579233123326
 30
0.0
 10
258.0443418904994
 20
279.7431635259787
 30
0.0
 10
258.0448604536296
 20
279.8295888426181
 30
0.0
 10
258.0453856876106
 20
279.9171259511402
 30
0.0
 10
258.045968693714
 20
280.0142915591618
 30
0.0
 10
258.0466107175665
 20
280.1212932592429
 30
0.0
 10
258.0473133253831
 20
280.238392093982
 30
0.0
 10
258.0480257043998
 20
280.3571194486422
 30
0.0
 10
258.0487473878572
 20
280.4773975333272
 30
0.0
 10
258.0494778567144
 20
280.5991398429393
 30
0.0
 10
258.0502492624403
 20
280.72770484711
 30
0.0
 10
258.051062024963
 20
280.8631625349221
 30
0.0
 10
258.0519175391893
 20
281.0057453925976
 30
0.0
 10
258.0527802857792
 20
281.1495336514847
 30
0.0
 10
258.0535545179505
 20
281.2785698268205
 30
0.0
 10
258.0542367418361
 20
281.3922716026454
 30
0.0
 10
258.0548822835607
 20
281.4998598249744
 30
0.0
 10
258.0555867398375
 20
281.6172669647002
 30
0.0
 10
258.0563499422135
 20
281.7444649583752
 30
0.0
 10
258.0571161055158
 20
281.8721564538902
 30
0.0
 10
258.0578846486816
 20
282.0002446101815
 30
0.0
 10
258.0586549747528
 20
282.1286299360252
 30
0.0
 10
258.0594606211664
 20
282.2629019020631
 30
0.0
 10
258.0603007490463
 20
282.4029207012766
 30
0.0
 10
258.0611754799105
 20
282.5487065915115
 30
0.0
 10
258.0620480472862
 20
282.6941319384541
 30
0.0
 10
258.0628226210879
 20
282.8232253378703
 30
0.0
 10
258.0634989603882
 20
282.9359466184685
 30
0.0
 10
258.0641644197727
 20
283.0468546336259
 30
0.0
 10
258.0649115410492
 20
283.1713727478057
 30
0.0
 10
258.0657385153715
 20
283.3091995082325
 30
0.0
 10
258.0665589388509
 20
283.4459345087546
 30
0.0
 10
258.067284001535
 20
283.5667763290832
 30
0.0
 10
258.0679149826202
 20
283.6719381531175
 30
0.0
 10
258.068454683964
 20
283.7618869431851
 30
0.0
 10
258.0689900030124
 20
283.8511053762103
 30
0.0
 10
258.0695229377916
 20
283.9399264492438
 30
0.0
 10
258.0700528546065
 20
284.0282445459655
 30
0.0
 10
258.0705797579463
 20
284.1160604168012
 30
0.0
 10
258.071101171828
 20
284.2029614050708
 30
0.0
 10
258.0716174414568
 20
284.2890050428244
 30
0.0
 10
258.0721280634668
 20
284.3741074328375
 30
0.0
 10
258.0726814909964
 20
284.4663439872388
 30
0.0
 10
258.0732744564411
 20
284.5651701064201
 30
0.0
 10
258.0739035672424
 20
284.6700203819024
 30
0.0
 10
258.0745218223779
 20
284.7730614234464
 30
0.0
 10
258.0751286137108
 20
284.8741918770022
 30
0.0
 10
258.0757233916482
 20
284.9733201433989
 30
0.0
 10
258.0763313915681
 20
285.0746520595482
 30
0.0
 10
258.0769496718556
 20
285.1776973639239
 30
0.0
 10
258.0775759111451
 20
285.2820691706042
 30
0.0
 10
258.078182957858
 20
285.3832422786197
 30
0.0
 10
258.0787060219416
 20
285.4704184860331
 30
0.0
 10
258.0791510781532
 20
285.5445935585864
 30
0.0
 10
258.0795602338395
 20
285.6127853039191
 30
0.0
 10
258.0799918389971
 20
285.684718585292
 30
0.0
 10
258.0804413807818
 20
285.759641280975
 30
0.0
 10
258.0808746182852
 20
285.8318466433496
 30
0.0
 10
258.0812910341772
 20
285.9012484518028
 30
0.0
 10
258.0816901987058
 20
285.9677750804736
 30
0.0
 10
258.0820885952637
 20
286.034173728541
 30
0.0
 10
258.0824826754989
 20
286.0998530110526
 30
0.0
 10
258.0828692240602
 20
286.1642770449121
 30
0.0
 10
258.0832308676399
 20
286.224550312621
 30
0.0
 10
258.0835304390641
 20
286.2744783504198
 30
0.0
 10
258.0837761764079
 20
286.3154341436882
 30
0.0
 10
258.083994930896
 20
286.3518928564805
 30
0.0
 10
258.0842165189061
 20
286.3888238236966
 30
0.0
 10
258.0844358141097
 20
286.4253726751724
 30
0.0
 10
258.0846351950435
 20
286.4586025280353
 30
0.0
 10
258.0848142933417
 20
286.4884519894364
 30
0.0
 10
258.0849728475976
 20
286.5148774905308
 30
0.0
 10
258.085116731162
 20
286.5388579159779
 30
0.0
 10
258.0852421888613
 20
286.5597674102239
 30
0.0
 10
258.085345474794
 20
286.5769816653925
 30
0.0
 10
258.0854209491614
 20
286.589560722279
 30
0.0
 10
258.085463268148
 20
286.5966139382456
 30
0.0
 10
258.085481971789
 20
286.5997312919658
 30
0.0
 10
258.085485733234
 20
286.6003583118593
 30
0.0
 10
258.0854720233336
 20
286.5980734832377
 30
0.0
 10
258.0854375581389
 20
286.5923294948741
 30
0.0
 10
258.0853967017604
 20
286.5855202774331
 30
0.0
 10
258.085376275534
 20
286.582115995762
 30
0.0
  0
SPLINE
  5
B1
330
1F
100
AcDbEntity
  8
0
  6
Continuous
 62
     7
370
    30
100
AcDbSpline
210
0.0
220
0.0
230
1.0
 70
     8
 71
     3
 72
    36
 73
    32
 74
     0
 42
0.000000001
 43
0.00000001
 40
0.0
 40
0.0
 40
0.0
 40
0.0
 40
0.0138064639449344
 40
0.0493620745011775
 40
0.0849107587220412
 40
0.1254370662478968
 40
0.1659633737783427
 40
0.2066549307333201
 40
0.2473464876959287
 40
0.2747091316517022
 40
0.3020844112953835
 40
0.3373859614271347
 40
0.3726942943308231
 40
0.4079958444876001
 40
0.4435443948945041
 40
0.4790998714824612
 40
0.5146484219215941
 40
0.5507098232304988
 40
0.5867784549423899
 40
0.6228398562913996
 40
0.6591646912496434
 40
0.6954969162563961
 40
0.7318217512609834
 40
0.7651007450198773
 40
0.7984024787988951
 40
0.8318775272054855
 40
0.8653525756226031
 40
0.8989205395818308
 40
0.932488503551943
 40
0.9662323983651802
 40
1.0
 40
1.0
 40
1.0
 40
1.0
 10
258.030285124726
 20
277.4004263485174
 30
0.0
 10
258.030284476425
 20
277.4003182830907
 30
0.0
 10
258.0302821585634
 20
277.3999319181481
 30
0.0
 10
258.0303005708184
 20
277.4030004443414
 30
0.0
 10
258.0303419306447
 20
277.409893439817
 30
0.0
 10
258.0304117510339
 20
277.421529741433
 30
0.0
 10
258.0305120238844
 20
277.4382413259933
 30
0.0
 10
258.0306404085952
 20
277.4596381108429
 30
0.0
 10
258.03077964929
 20
277.4828442028212
 30
0.0
 10
258.0309199172193
 20
277.5062215095966
 30
0.0
 10
258.0310659054628
 20
277.530552194198
 30
0.0
 10
258.0312417199075
 20
277.559853780466
 30
0.0
 10
258.0314522062383
 20
277.5949338704543
 30
0.0
 10
258.0316835161145
 20
277.633484471453
 30
0.0
 10
258.0319356831344
 20
277.6755111847937
 30
0.0
 10
258.0322086296232
 20
277.721001064612
 30
0.0
 10
258.0325029665203
 20
277.7700559315995
 30
0.0
 10
258.0328188465206
 20
277.8227012349158
 30
0.0
 10
258.0331563041729
 20
277.8789427334925
 30
0.0
 10
258.0335144348787
 20
277.9386296661662
 30
0.0
 10
258.0338931659405
 20
278.0017499186034
 30
0.0
 10
258.0342923074077
 20
278.0682718332368
 30
0.0
 10
258.034698933233
 20
278.1360411234991
 30
0.0
 10
258.0351109842083
 20
278.2047145909638
 30
0.0
 10
258.0355272026827
 20
278.2740826422741
 30
0.0
 10
258.0359596083521
 20
278.3461485012059
 30
0.0
 10
258.036408327226
 20
278.4209331744719
 30
0.0
 10
258.0368722758457
 20
278.4982560916813
 30
0.0
 10
258.03735233459
 20
278.5782639789454
 30
0.0
 10
258.037846712416
 20
278.6606583312987
 30
0.0
 10
258.0381887386305
 20
278.7176613651757
 30
0.0
 10
258.038359811789
 20
278.7461728904887
 30
0.0
  0
SPLINE
  5
B2
330
1F
100
AcDbEntity
  8
0
  6
Continuous
 62
     7
370
    30
100
AcDbSpline
210
0.0
220
0.0
230
1.0
 70
     8
 71
     3
 72
    42
 73
    38
 74
     0
 42
0.000000001
 43
0.00000001
 40
0.0
 40
0.0
 40
0.0
 40
0.0
 40
0.0337265931773477
 40
0.0674531863541978
 40
0.1013108856753776
 40
0.1351685849960576
 40
0.1580331855740802
 40
0.1808977861520037
 40
0.2038030871492496
 40
0.2267083881464037
 40
0.2499039379995216
 40
0.2730994878525244
 40
0.2963375350367648
 40
0.3195755822208887
 40
0.3428938279638182
 40
0.3662228417023548
 40
0.3963066832136454
 40
0.4263963050069111
 40
0.4564801465173865
 40
0.4867744826389215
 40
0.5170747212868457
 40
0.547369057407698
 40
0.5819052852621487
 40
0.6164415131163344
 40
0.6511185644068497
 40
0.6857956156971553
 40
0.7091138621635171
 40
0.7324428766326007
 40
0.7625267099208519
 40
0.7926163234892859
 40
0.8227001567773793
 40
0.852994484586888
 40
0.8832947149200565
 40
0.9135890427295951
 40
0.9481252609693951
 40
0.9826614792092863
 40
1.0
 40
1.0
 40
1.0
 40
1.0
 10
258.1421310819399
 20
303.7470673265964
 30
0.0
 10
258.1420976998052
 20
303.7136854631759
 30
0.0
 10
258.1420309355362
 20
303.6469217363354
 30
0.0
 10
258.141934740697
 20
303.5507277279517
 30
0.0
 10
258.1418415419616
 20
303.457529852952
 30
0.0
 10
258.1417614475714
 20
303.3774362448859
 30
0.0
 10
258.1416933839007
 20
303.3093732585899
 30
0.0
 10
258.141636326322
 20
303.2523162763957
 30
0.0
 10
258.1415809009986
 20
303.1968915650128
 30
0.0
 10
258.1415269084881
 20
303.1428996763979
 30
0.0
 10
258.1414744320036
 20
303.0904238092947
 30
0.0
 10
258.1414234890289
 20
303.0394814601542
 30
0.0
 10
258.1413743276353
 20
302.9903207071051
 30
0.0
 10
258.1413269186197
 20
302.9429123418412
 30
0.0
 10
258.1412813150932
 20
302.8973094416634
 30
0.0
 10
258.1412333208322
 20
302.849315915068
 30
0.0
 10
258.1411837080194
 20
302.7997038697076
 30
0.0
 10
258.1411333066985
 20
302.749303392495
 30
0.0
 10
258.1410860576998
 20
302.7020552402218
 30
0.0
 10
258.1410420318733
 20
302.6580302736398
 30
0.0
 10
258.1410012831342
 20
302.6172823969207
 30
0.0
 10
258.140962203419
 20
302.5782035860441
 30
0.0
 10
258.1409254146667
 20
302.5414157718506
 30
0.0
 10
258.1408915185446
 20
302.5075206267736
 30
0.0
 10
258.1408621485921
 20
302.4781516618858
 30
0.0
 10
258.1408400572935
 20
302.4560612475968
 30
0.0
 10
258.1408237061369
 20
302.4397108363123
 30
0.0
 10
258.140810586029
 20
302.4265914697352
 30
0.0
 10
258.140799194792
 20
302.4152010022378
 30
0.0
 10
258.1407904015111
 20
302.4064085567574
 30
0.0
 10
258.1407851225066
 20
302.4011303832115
 30
0.0
 10
258.1407833940246
 20
302.3994027348602
 30
0.0
 10
258.1407852564332
 20
302.4012659718933
 30
0.0
 10
258.1407908965317
 20
302.4069069307292
 30
0.0
 10
258.1408012108695
 20
302.4172221492932
 30
0.0
 10
258.1408132854592
 20
302.4292974965002
 30
0.0
 10
258.1408235476437
 20
302.4395601338369
 30
0.0
 10
258.1408269776584
 20
302.4429902995432
 30
0.0
  0
SPLINE
  5
B3
330
1F
100
AcDbEntity
  8
0
  6
Continuous
 62
     7
370
    30
100
AcDbSpline
210
0.0
220
0.0
230
1.0
 70
     8
 71
     3
 72
    94
 73
    90
 74
     0
 42
0.000000001
 43
0.00000001
 40
0.0
 40
0.0
 40
0.0
 40
0.0
 40
0.0062141163519633
 40
0.0197716530884698
 40
0.0333291898250009
 40
0.0424458237620256
 40
0.0515666676170811
 40
0.0633284145783642
 40
0.0750924214303877
 40
0.0868541683918062
 40
0.0986982114637025
 40
0.1105445622190541
 40
0.1223886052911635
 40
0.1358910819437993
 40
0.1493935585965667
 40
0.1629510923121422
 40
0.1765086260278697
 40
0.1856252578766179
 40
0.1947460996383912
 40
0.2065078479330559
 40
0.2182718561179563
 40
0.2300336044129851
 40
0.2418776487918812
 40
0.2537240008534141
 40
0.2655680452327218
 40
0.2790705232771385
 40
0.2925730013217684
 40
0.3061305363992832
 40
0.3196880714770147
 40
0.328804704194434
 40
0.3379255468221694
 40
0.3496872996449235
 40
0.361451312358388
 40
0.3732130651815722
 40
0.3850571141031734
 40
0.3969034707077896
 40
0.4087475196298228
 40
0.4222500028135023
 40
0.4357524859973842
 40
0.4493100262228233
 40
0.4628675664484551
 40
0.4719842026107895
 40
0.4811050486842369
 40
0.4928668072453339
 40
0.504630825698353
 40
0.5163925842597674
 40
0.5282366389688972
 40
0.5400830013624767
 40
0.5519270560718728
 40
0.565429545889981
 40
0.5789320357081966
 40
0.5924895826114399
 40
0.6060471295147641
 40
0.6151637701885003
 40
0.6242846207772773
 40
0.636046383772083
 40
0.6478104066602656
 40
0.6595721696551193
 40
0.6714162288601895
 40
0.683262595751536
 40
0.6951066549565792
 40
0.7086091499966998
 40
0.7221116450367695
 40
0.735669197221101
 40
0.7492267494053633
 40
0.7583433936798266
 40
0.7674642478746992
 40
0.7806502047287504
 40
0.7938361615827003
 40
0.8070733765419882
 40
0.8203105915011452
 40
0.8292498768528541
 40
0.838189162204538
 40
0.8471443600539319
 40
0.8560995579032992
 40
0.8651682333156681
 40
0.8742369087279926
 40
0.8833221991701542
 40
0.8924074896122683
 40
0.9015241349987465
 40
0.9106449903100575
 40
0.9217332955539791
 40
0.9328291784222768
 40
0.9439828150710947
 40
0.9551364517198137
 40
0.9663210508109077
 40
0.977505649901902
 40
0.9887488749691364
 40
1.0
 40
1.0
 40
1.0
 40
1.0
 10
258.149983421188
 20
311.5994213886618
 30
0.0
 10
258.1499835474079
 20
311.5995474627317
 30
0.0
 10
258.1499839490053
 20
311.5999485966387
 30
0.0
 10
258.1499796228945
 20
311.5956217101888
 30
0.0
 10
258.1499716338387
 20
311.5876318255433
 30
0.0
 10
258.1499613565561
 20
311.5773537787368
 30
0.0
 10
258.1499493848931
 20
311.5653814452677
 30
0.0
 10
258.1499334611199
 20
311.5494569063345
 30
0.0
 10
258.1499127608007
 20
311.5287557718527
 30
0.0
 10
258.1498885271869
 20
311.5045213437597
 30
0.0
 10
258.1498607439099
 20
311.4767372624074
 30
0.0
 10
258.1498294118669
 20
311.4454044190567
 30
0.0
 10
258.1497929959029
 20
311.4089876241629
 30
0.0
 10
258.1497509346173
 20
311.3669254699912
 30
0.0
 10
258.1497025960664
 20
311.3185860227262
 30
0.0
 10
258.1496497966777
 20
311.2657857556129
 30
0.0
 10
258.1495988229265
 20
311.214811240655
 30
0.0
 10
258.1495512842413
 20
311.1672718634766
 30
0.0
 10
258.149504321576
 20
311.1203085949621
 30
0.0
 10
258.1494506094406
 20
311.0665957762954
 30
0.0
 10
258.14938943087
 20
311.00541648619
 30
0.0
 10
258.1493250281717
 20
310.9410130791649
 30
0.0
 10
258.1492574189512
 20
310.8734031683142
 30
0.0
 10
258.1491866381429
 20
310.8026216828365
 30
0.0
 10
258.1491094560897
 20
310.7254389351483
 30
0.0
 10
258.1490254346197
 20
310.6414167485933
 30
0.0
 10
258.1489340200432
 20
310.5500014455332
 30
0.0
 10
258.1488388683697
 20
310.4548490754098
 30
0.0
 10
258.1487508516929
 20
310.3668318051389
 30
0.0
 10
258.148671376287
 20
310.2873558636336
 30
0.0
 10
258.148594725832
 20
310.2107049576965
 30
0.0
 10
258.1485092780289
 20
310.1252566435973
 30
0.0
 10
258.1484145194244
 20
310.0304975130442
 30
0.0
 10
258.1483172082848
 20
309.9331858669811
 30
0.0
 10
258.1482173955616
 20
309.8333726611244
 30
0.0
 10
258.1481151459202
 20
309.7311225601648
 30
0.0
 10
258.1480058994199
 20
309.6218755979104
 30
0.0
 10
258.1478893904865
 20
309.5053662027926
 30
0.0
 10
258.1477652061215
 20
309.3811813835368
 30
0.0
 10
258.147638429727
 20
309.2544045732867
 30
0.0
 10
258.1475232932751
 20
309.1392677852368
 30
0.0
 10
258.1474208413426
 20
309.0368155505784
 30
0.0
 10
258.1473231448024
 20
308.9391187792314
 30
0.0
 10
258.1472155948674
 20
308.8315685799996
 30
0.0
 10
258.1470979394826
 20
308.7139129410559
 30
0.0
 10
258.1469786909376
 20
308.5946641644779
 30
0.0
 10
258.1468579277741
 20
308.4739008037386
 30
0.0
 10
258.1467357371124
 20
308.3517099685996
 30
0.0
 10
258.1466067428113
 20
308.2227155138813
 30
0.0
 10
258.1464708818517
 20
308.0868544143136
 30
0.0
 10
258.1463279284739
 20
307.9439009265286
 30
0.0
 10
258.1461838203685
 20
307.7997927511173
 30
0.0
 10
258.14605454484
 20
307.6705172013301
 30
0.0
 10
258.1459406670123
 20
307.5566393478102
 30
0.0
 10
258.1458329388839
 20
307.4489112534251
 30
0.0
 10
258.1457154122231
 20
307.3313846164925
 30
0.0
 10
258.1455881247821
 20
307.2040972346489
 30
0.0
 10
258.1454603831701
 20
307.0763557082721
 30
0.0
 10
258.1453322846756
 20
306.9482573323809
 30
0.0
 10
258.1452039290388
 20
306.8199018408677
 30
0.0
 10
258.1450697300469
 20
306.6857030288479
 30
0.0
 10
258.1449298343299
 20
306.5458075223976
 30
0.0
 10
258.1447842288358
 20
306.4002022808911
 30
0.0
 10
258.1446390360882
 20
306.2550098285845
 30
0.0
 10
258.1445101963369
 20
306.1261703794787
 30
0.0
 10
258.1443977313964
 20
306.0137056945237
 30
0.0
 10
258.1442871035455
 20
305.9030781590387
 30
0.0
 10
258.1441629387991
 20
305.7789137485786
 30
0.0
 10
258.1440255545078
 20
305.6415298731395
 30
0.0
 10
258.143889310311
 20
305.5052861340562
 30
0.0
 10
258.1437689490058
 20
305.3849252647589
 30
0.0
 10
258.1436642401702
 20
305.2802168195141
 30
0.0
 10
258.1435747032517
 20
305.1906802494715
 30
0.0
 10
258.1434859179965
 20
305.1018953676356
 30
0.0
 10
258.143397553181
 20
305.0135309389111
 30
0.0
 10
258.1433097142915
 20
304.9256924394367
 30
0.0
 10
258.1432224009473
 20
304.8383795006508
 30
0.0
 10
258.1431360236086
 20
304.7520025884739
 30
0.0
 10
258.1430505251787
 20
304.666504603864
 30
0.0
 10
258.142965989143
 20
304.5819689962996
 30
0.0
 10
258.1428764526419
 20
304.4924330157527
 30
0.0
 10
258.1427823360909
 20
304.3983169751813
 30
0.0
 10
258.1426838889442
 20
304.2998704404872
 30
0.0
 10
258.1425871050287
 20
304.2030871247169
 30
0.0
 10
258.1424919997974
 20
304.1079825150019
 30
0.0
 10
258.1423987996303
 20
304.0147829923379
 30
0.0
 10
258.142307469937
 20
303.9234539642645
 30
0.0
 10
258.1422179463538
 20
303.8339310369308
 30
0.0
 10
258.1421600435229
 20
303.7760286751004
 30
0.0
 10
258.1421310819399
 20
303.7470673265972
 30
0.0
  0
LINE
  5
B4
330
1F
100
AcDbEntity
  8
0
  6
Continuous
 62
     7
370
    30
100
AcDbLine
 10
256.6737820779
 20
242.0
 30
0.0
 11
256.1975187815
 21
242.0
 31
0.0
  0
LINE
  5
B5
330
1F
100
AcDbEntity
  8
0
  6
Continuous
 62
     8
370
     0
100
AcDbLine
 10
258.1090611605
 20
277.4931338362
 30
0.0
 11
258.1090611605
 21
286.5068674005
 31
0.0
  0
ARC
  5
B6
330
1F
100
AcDbEntity
  8
0
  6
Continuous
 62
     8
370
     0
100
AcDbCircle
 10
256.1974720209
 20
242.9999508147
 30
0.0
 40
0.99995081582889
100
AcDbArc
 50
270.0026793189
 51
359.2119145731
  0
LINE
  5
B7
330
1F
100
AcDbEntity
  8
0
  6
Continuous
 62
     8
370
     0
100
AcDbLine
 10
256.1975187815
 20
243.0
 30
0.0
 11
256.1975187815
 21
242.0
 31
0.0
  0
LINE
  5
B8
330
1F
100
AcDbEntity
  8
0
  6
Continuous
 62
     8
370
     0
100
AcDbLine
 10
257.1973282471
 20
242.9861972394
 30
0.0
 11
256.1975187815
 21
243.0
 31
0.0
  0
LINE
  5
B9
330
1F
100
AcDbEntity
  8
0
  6
Continuous
 62
     8
370
     0
100
AcDbLine
 10
247.1499999998
 20
243.0
 30
0.0
 11
256.1975187815
 21
243.0
 31
0.0
  0
ARC
  5
BA
330
1F
100
AcDbEntity
  8
0
  6
Continuous
 62
     8
370
     0
100
AcDbCircle
 10
-4741.8500000002
 20
312.0
 30
0.0
 40
4999.523686815418
100
AcDbArc
 50
359.2090596094
 51
0.7909403906
  0
ARC
  5
BB
330
1F
100
AcDbEntity
  8
0
  6
Continuous
 62
     8
370
     0
100
AcDbCircle
 10
-4741.8500000002
 20
312.0
 30
0.0
 40
4998.523782078054
100
AcDbArc
 50
359.2090596094
 51
0.7909403906
  0
LINE
  5
BC
330
1F
100
AcDbEntity
  8
0
  6
Continuous
 62
     8
370
     0
100
AcDbLine
 10
257.1973282471
 20
381.0138027606
 30
0.0
 11
256.1975187815
 21
381.0
 31
0.0
  0
LINE
  5
BD
330
1F
100
AcDbEntity
  8
0
  6
Continuous
 62
     8
370
     0
100
AcDbLine
 10
256.1975187815
 20
381.0
 30
0.0
 11
247.1499999998
 21
381.0
 31
0.0
  0
LINE
  5
BE
330
1F
100
AcDbEntity
  8
0
  6
Continuous
 62
     8
370
     0
100
AcDbLine
 10
256.1975187815
 20
382.0
 30
0.0
 11
256.1975187815
 21
381.0
 31
0.0
  0
ARC
  5
BF
330
1F
100
AcDbEntity
  8
0
  6
Continuous
 62
     8
370
     0
100
AcDbCircle
 10
256.1974720209
 20
381.0000491853
 30
0.0
 40
0.9999508158293853
100
AcDbArc
 50
0.7880854269
 51
89.9973206811
  0
LINE
  5
C0
330
1F
100
AcDbEntity
  8
0
  6
Continuous
 62
     8
370
     0
100
AcDbLine
 10
257.6736868152
 20
381.0138027606
 30
0.0
 11
257.1973282471
 21
381.0138027606
 31
0.0
  0
LINE
  5
C1
330
1F
100
AcDbEntity
  8
0
  6
Continuous
 62
     8
370
     0
100
AcDbLine
 10
257.1973282471
 20
242.9861972394
 30
0.0
 11
257.6736868152
 21
242.9861972394
 31
0.0
  0
LINE
  5
C2
330
1F
100
AcDbEntity
  8
0
  6
Continuous
 62
     7
370
    30
100
AcDbLine
 10
27.9150701572
 20
286.5077100847
 30
0.0
 11
27.8909388395
 21
286.5068674005
 31
0.0
  0
LINE
  5
C3
330
1F
100
AcDbEntity
  8
0
  6
Continuous
 62
     7
370
    30
100
AcDbLine
 10
27.8909388395
 20
277.4931338362
 30
0.0
 11
27.969175004
 21
277.4904017691
 31
0.0
  0
ARC
  5
C4
330
1F
100
AcDbEntity
  8
0
  6
Continuous
 62
     7
370
    30
100
AcDbCircle
 10
27.8944287891
 20
286.4069283178
 30
0.0
 40
0.0999999999999872
100
AcDbArc
 50
91.9999999999
 51
180.0
  0
ARC
  5
C5
330
1F
100
AcDbEntity
  8
0
  6
Continuous
 62
     7
370
    30
100
AcDbCircle
 10
27.8944287891
 20
277.5930729189
 30
0.0
 40
0.0999999999999872
100
AcDbArc
 50
180.0
 51
268.0000000001
  0
LINE
  5
C6
330
1F
100
AcDbEntity
  8
0
  6
Continuous
 62
     7
370
    30
100
AcDbLine
 10
27.7944287891
 20
286.303498432
 30
0.0
 11
27.6661015655
 21
286.3034971953
 31
0.0
  0
LINE
  5
C7
330
1F
100
AcDbEntity
  8
0
  6
Continuous
 62
     7
370
    30
100
AcDbLine
 10
27.6661015655
 20
277.6965040414
 30
0.0
 11
27.7944287891
 21
277.6965040414
 31
0.0
  0
SPLINE
  5
C8
330
1F
100
AcDbEntity
  8
0
  6
Continuous
 62
     7
370
    30
100
AcDbSpline
210
0.0
220
0.0
230
1.0
 70
     8
 71
     3
 72
    19
 73
    15
 74
     0
 42
0.000000001
 43
0.00000001
 40
0.0
 40
0.0
 40
0.0
 40
0.0
 40
0.149252583107508
 40
0.344506966928481
 40
0.5397612600588869
 40
0.6041953383263938
 40
0.6686291059523902
 40
0.7330628963467452
 40
0.7974978109958013
 40
0.8380035415876542
 40
0.8785069239218617
 40
0.9190040495786927
 40
0.9595007273550938
 40
0.9999999999999999
 40
0.9999999999999999
 40
0.9999999999999999
 40
0.9999999999999999
 10
27.66606245390254
 20
286.3025746242262
 30
0.0
 10
27.63532087269457
 20
286.0890633565322
 30
0.0
 10
27.56436271116755
 20
285.5962335662073
 30
0.0
 10
27.45477809590166
 20
284.823858283068
 30
0.0
 10
27.36443671767005
 20
284.1725665184401
 30
0.0
 10
27.3026950104108
 20
283.708202260132
 30
0.0
 10
27.26714986132958
 20
283.4310947756753
 30
0.0
 10
27.2333560922203
 20
283.1537661256281
 30
0.0
 10
27.20617651681842
 20
282.9104772264134
 30
0.0
 10
27.18552086994882
 20
282.7012820097476
 30
0.0
 10
27.17068848413703
 20
282.5262885026352
 30
0.0
 10
27.15923519328775
 20
282.3510561252788
 30
0.0
 10
27.15152160712173
 20
282.1756014797366
 30
0.0
 10
27.15050721306741
 20
282.0585354889641
 30
0.0
 10
27.14999999979092
 20
282.0000006183557
 30
0.0
  0
SPLINE
  5
C9
330
1F
100
AcDbEntity
  8
0
  6
Continuous
 62
     7
370
    30
100
AcDbSpline
210
0.0
220
0.0
230
1.0
 70
     8
 71
     3
 72
    18
 73
    14
 74
     0
 42
0.000000001
 43
0.00000001
 40
0.0
 40
0.0
 40
0.0
 40
0.0
 40
0.0468481348703998
 40
0.0936928833037456
 40
0.1405416600795104
 40
0.1873976221045013
 40
0.2342511717632736
 40
0.2811024533124367
 40
0.3279535908898371
 40
0.4567939322248754
 40
0.5856347406743906
 40
0.8157074775363298
 40
1.0
 40
1.0
 40
1.0
 40
1.0
 10
27.1499999997907
 20
282.0000006183558
 30
0.0
 10
27.15067856025763
 20
281.9322746523185
 30
0.0
 10
27.15203563214161
 20
281.7968276158437
 30
0.0
 10
27.16225787246693
 20
281.5938723532741
 30
0.0
 10
27.17713672288
 20
281.3912316508276
 30
0.0
 10
27.19602637332494
 20
281.1889107172028
 30
0.0
 10
27.21748140461697
 20
280.9868500304858
 30
0.0
 10
27.24081697586364
 20
280.7850055624297
 30
0.0
 10
27.27987577886268
 20
280.4656778038782
 30
0.0
 10
27.33717233260177
 20
280.0291849706189
 30
0.0
 10
27.43304625021756
 20
279.3306399415544
 30
0.0
 10
27.54294353071049
 20
278.5531107483393
 30
0.0
 10
27.62827069088999
 20
277.9602161366166
 30
0.0
 10
27.66622068121913
 20
277.6965211450834
 30
0.0
  0
ARC
  5
CA
330
1F
100
AcDbEntity
  8
0
  6
Continuous
 62
     7
370
    30
100
AcDbCircle
 10
27.8944287891
 20
311.4069283178
 30
0.0
 40
0.1000000000001133
100
AcDbArc
 50
116.5695858977
 51
180.0
  0
ARC
  5
CB
330
1F
100
AcDbEntity
  8
0
  6
Continuous
 62
     7
370
    30
100
AcDbCircle
 10
27.8944287891
 20
302.5930729189
 30
0.0
 40
0.1000000000000225
100
AcDbArc
 50
180.0
 51
249.1314204527
  0
LINE
  5
CC
330
1F
100
AcDbEntity
  8
0
  6
Continuous
 62
     7
370
    30
100
AcDbLine
 10
27.6661015655
 20
302.6965040414
 30
0.0
 11
27.7944287891
 21
302.6965028047
 31
0.0
  0
LINE
  5
CD
330
1F
100
AcDbEntity
  8
0
  6
Continuous
 62
     7
370
    30
100
AcDbLine
 10
27.7944287891
 20
311.3034971953
 30
0.0
 11
27.6661015655
 21
311.3034971953
 31
0.0
  0
SPLINE
  5
CE
330
1F
100
AcDbEntity
  8
0
  6
Continuous
 62
     7
370
    30
100
AcDbSpline
210
0.0
220
0.0
230
1.0
 70
     8
 71
     3
 72
    18
 73
    14
 74
     0
 42
0.000000001
 43
0.00000001
 40
0.0
 40
0.0
 40
0.0
 40
0.0
 40
0.0468580619870763
 40
0.0937127368195128
 40
0.1405714408479738
 40
0.1874373316482147
 40
0.2343008095710568
 40
0.2811620189036716
 40
0.3280230842340281
 40
0.4568907268288628
 40
0.5857588366371559
 40
0.8158803258967995
 40
1.0
 40
1.0
 40
1.0
 40
1.0
 10
27.14999999979092
 20
307.0000006183556
 30
0.0
 10
27.15067856025763
 20
306.9322746523183
 30
0.0
 10
27.15203563214205
 20
306.7968276158434
 30
0.0
 10
27.16225787246582
 20
306.5938723532742
 30
0.0
 10
27.17713672288222
 20
306.3912316508275
 30
0.0
 10
27.19602637331739
 20
306.1889107172018
 30
0.0
 10
27.21748140464428
 20
305.9868500304894
 30
0.0
 10
27.24081697576106
 20
305.785005562415
 30
0.0
 10
27.27987577952748
 20
305.4656778039742
 30
0.0
 10
27.3371723249963
 20
305.0291849695224
 30
0.0
 10
27.43304628694862
 20
304.3306399468487
 30
0.0
 10
27.5429004327182
 20
303.5534139572386
 30
0.0
 10
27.62818383730967
 20
302.9608224596257
 30
0.0
 10
27.66609014418728
 20
302.6974305926004
 30
0.0
  0
SPLINE
  5
CF
330
1F
100
AcDbEntity
  8
0
  6
Continuous
 62
     7
370
    30
100
AcDbSpline
210
0.0
220
0.0
230
1.0
 70
     8
 71
     3
 72
    19
 73
    15
 74
     0
 42
0.000000001
 43
0.00000001
 40
0.0
 40
0.0
 40
0.0
 40
0.0
 40
0.1494328145194704
 40
0.3446458335680279
 40
0.5398587619452172
 40
0.6042791898099505
 40
0.6686993070989761
 40
0.7331194471515305
 40
0.797540711220624
 40
0.8380378606462314
 40
0.8785326623116732
 40
0.9190212086252201
 40
0.9595093071532185
 40
1.0
 40
1.0
 40
1.0
 40
1.0
 10
27.66619311596327
 20
311.3034840358575
 30
0.0
 10
27.63540784278659
 20
311.0896696506549
 30
0.0
 10
27.56440592684392
 20
310.59653675174
 30
0.0
 10
27.45477803568561
 20
309.823858291668
 30
0.0
 10
27.36443672240826
 20
309.1725665177633
 30
0.0
 10
27.30269500972757
 20
308.7082022602295
 30
0.0
 10
27.26714986151255
 20
308.4310947756489
 30
0.0
 10
27.23335609217101
 20
308.1537661256349
 30
0.0
 10
27.20617651682641
 20
307.9104772264122
 30
0.0
 10
27.18552086994705
 20
307.7012820097478
 30
0.0
 10
27.17068848413792
 20
307.5262885026349
 30
0.0
 10
27.15923519328664
 20
307.3510561252792
 30
0.0
 10
27.15152160712306
 20
307.1756014797364
 30
0.0
 10
27.15050721306741
 20
307.0585354889642
 30
0.0
 10
27.14999999979092
 20
307.0000006183556
 30
0.0
  0
ARC
  5
D0
330
1F
100
AcDbEntity
  8
0
  6
Continuous
 62
     7
370
    30
100
AcDbCircle
 10
29.3262179221
 20
243.0
 30
0.0
 40
1.0
100
AcDbArc
 50
180.7908650386
 51
269.9999999933
  0
ARC
  5
D1
330
1F
100
AcDbEntity
  8
0
  6
Continuous
 62
     7
370
    30
100
AcDbCircle
 10
5027.8500000002
 20
312.0
 30
0.0
 40
5000.000000000018
100
AcDbArc
 50
180.3964810787
 51
180.7908650387
  0
ARC
  5
D2
330
1F
100
AcDbEntity
  8
0
  6
Continuous
 62
     7
370
    30
100
AcDbCircle
 10
5027.8500000002
 20
312.0
 30
0.0
 40
5000.0
100
AcDbArc
 50
180.1100012343
 51
180.2910667365
  0
ARC
  5
D3
330
1F
100
AcDbEntity
  8
0
  6
Continuous
 62
     7
370
    30
100
AcDbCircle
 10
5027.8500000002
 20
312.0
 30
0.0
 40
5000.000000000018
100
AcDbArc
 50
179.2091349613
 51
180.0045922706
  0
ARC
  5
D4
330
1F
100
AcDbEntity
  8
0
  6
Continuous
 62
     7
370
    30
100
AcDbCircle
 10
29.3262179221
 20
381.0
 30
0.0
 40
0.999999999999889
100
AcDbArc
 50
90.0000000067
 51
179.2091349614
  0
LINE
  5
D5
330
1F
100
AcDbEntity
  8
0
  6
Continuous
 62
     7
370
    30
100
AcDbLine
 10
27.7944287891
 20
277.5930729189
 30
0.0
 11
27.7944287891
 21
286.4069283178
 31
0.0
  0
LINE
  5
D6
330
1F
100
AcDbEntity
  8
0
  6
Continuous
 62
     7
370
    30
100
AcDbLine
 10
27.6661015655
 20
286.3034971953
 30
0.0
 11
27.6661015655
 21
277.6965040414
 31
0.0
  0
LINE
  5
D7
330
1F
100
AcDbEntity
  8
0
  6
Continuous
 62
     7
370
    30
100
AcDbLine
 10
27.7944287891
 20
302.5930729189
 30
0.0
 11
27.7944287891
 21
311.4069283178
 31
0.0
  0
LINE
  5
D8
330
1F
100
AcDbEntity
  8
0
  6
Continuous
 62
     7
370
    30
100
AcDbLine
 10
27.6661015655
 20
311.3034971953
 30
0.0
 11
27.6661015655
 21
302.6965040414
 31
0.0
  0
LINE
  5
D9
330
1F
100
AcDbEntity
  8
0
  6
Continuous
 62
     7
370
    30
100
AcDbLine
 10
38.8500000002
 20
242.0
 30
0.0
 11
29.8024812185
 21
242.0
 31
0.0
  0
LINE
  5
DA
330
1F
100
AcDbEntity
  8
0
  6
Continuous
 62
     7
370
    30
100
AcDbLine
 10
38.8500000002
 20
243.0
 30
0.0
 11
38.8500000002
 21
242.0
 31
0.0
  0
LINE
  5
DB
330
1F
100
AcDbEntity
  8
0
  6
Continuous
 62
     7
370
    30
100
AcDbLine
 10
38.8500000002
 20
381.0
 30
0.0
 11
38.8500000002
 21
243.0
 31
0.0
  0
LINE
  5
DC
330
1F
100
AcDbEntity
  8
0
  6
Continuous
 62
     7
370
    30
100
AcDbLine
 10
29.8024812185
 20
382.0
 30
0.0
 11
38.8500000002
 21
382.0
 31
0.0
  0
LINE
  5
DD
330
1F
100
AcDbEntity
  8
0
  6
Continuous
 62
     7
370
    30
100
AcDbLine
 10
38.8500000002
 20
382.0
 30
0.0
 11
38.8500000002
 21
381.0
 31
0.0
  0
LINE
  5
DE
330
1F
100
AcDbEntity
  8
0
  6
Continuous
 62
     7
370
    30
100
AcDbLine
 10
29.8024812185
 20
242.0
 30
0.0
 11
29.3262179221
 21
242.0
 31
0.0
  0
SPLINE
  5
DF
330
1F
100
AcDbEntity
  8
0
  6
Continuous
 62
     7
370
    30
100
AcDbSpline
210
0.0
220
0.0
230
1.0
 70
     8
 71
     3
 72
   123
 73
   119
 74
     0
 42
0.000000001
 43
0.00000001
 40
0.0
 40
0.0
 40
0.0
 40
0.0
 40
0.0016139333797642
 40
0.0082247371346692
 40
0.0148355408896251
 40
0.0214577848076514
 40
0.0280800287258187
 40
0.0397741054939092
 40
0.0514681822645836
 40
0.0632259950246043
 40
0.074983807788753
 40
0.0834753224576965
 40
0.0919668371280951
 40
0.1004826446631147
 40
0.1089984521998655
 40
0.1156092562183456
 40
0.122220060237528
 40
0.1288423042536219
 40
0.13546454827049
 40
0.1471586232098864
 40
0.1588526981576079
 40
0.1706105076869811
 40
0.1823683172257113
 40
0.1908598273615799
 40
0.1993513375001487
 40
0.2078671397799186
 40
0.2163829420625225
 40
0.2229938188170374
 40
0.2296046955726079
 40
0.2362270123389599
 40
0.2428493291063795
 40
0.2545435312888875
 40
0.2662377334818188
 40
0.2779956701283228
 40
0.2897536067853124
 40
0.2982452074954328
 40
0.3067368082083213
 40
0.3152527009707831
 40
0.323768593735933
 40
0.3303795838237028
 40
0.3369905739124038
 40
0.343613004199721
 40
0.3502354344879282
 40
0.3619298372232984
 40
0.3736242399666183
 40
0.385382378371133
 40
0.3971405167826744
 40
0.4056322634817154
 40
0.4141240101823727
 40
0.4226400495128904
 40
0.4311560888447806
 40
0.4377671831968508
 40
0.4443782775493326
 40
0.4510008123798978
 40
0.4576233472107926
 40
0.4693179359203564
 40
0.4810125246319126
 40
0.4927708510188375
 40
0.504529177406245
 40
0.5130210615321954
 40
0.5215129456579071
 40
0.5300291234114387
 40
0.5385453011644141
 40
0.5484305243313486
 40
0.5583252961632792
 40
0.566630594732535
 40
0.574935893300712
 40
0.5832639142308202
 40
0.591591935159589
 40
0.5983451523416204
 40
0.6050983695229801
 40
0.6118637826874294
 40
0.6186291958511296
 40
0.6254497952793756
 40
0.6322703947067642
 40
0.6391035597147234
 40
0.6459367247217458
 40
0.6525478416134379
 40
0.6591589585042618
 40
0.6657815162306673
 40
0.6724040739561391
 40
0.6840987069618442
 40
0.6957933399580066
 40
0.7075517135802112
 40
0.7193100871921392
 40
0.7278020097156798
 40
0.7362939322363491
 40
0.744810149893032
 40
0.753326367546779
 40
0.7599373928309362
 40
0.7665484181140302
 40
0.773170884154024
 40
0.7797933501929607
 40
0.7914878220990136
 40
0.8031822939949956
 40
0.8149405061601936
 40
0.8266987183156059
 40
0.835190524975317
 40
0.8436823316325325
 40
0.8521984332749212
 40
0.8607145349149548
 40
0.8673254440947961
 40
0.8739363532738418
 40
0.8805587029780796
 40
0.8871810526815803
 40
0.8988753185897772
 40
0.9105695844917824
 40
0.9223275890931409
 40
0.9340855936895051
 40
0.9425772496414078
 40
0.9510689055922881
 40
0.9595848557628764
 40
0.9681008059327235
 40
0.9747116253975516
 40
0.981322444862211
 40
0.9879447045688629
 40
0.9945669642754337
 40
1.0
 40
1.0
 40
1.0
 40
1.0
 10
27.91451793395669
 20
286.5997470851536
 30
0.0
 10
27.91451744670623
 20
286.59982830095
 30
0.0
 10
27.91451496363803
 20
286.6002421833221
 30
0.0
 10
27.91452445117834
 20
286.5986610226058
 30
0.0
 10
27.91454419236658
 20
286.5953709686373
 30
0.0
 10
27.91457716518905
 20
286.5898756726023
 30
0.0
 10
27.91463310427619
 20
286.5805527410277
 30
0.0
 10
27.91472544704585
 20
286.5651626331472
 30
0.0
 10
27.91487053439265
 20
286.5409819023231
 30
0.0
 10
27.91505294258786
 20
286.5105811111023
 30
0.0
 10
27.9152522328022
 20
286.4773666707524
 30
0.0
 10
27.91545689454819
 20
286.4432569698254
 30
0.0
 10
27.91565744981325
 20
286.4098316571807
 30
0.0
 10
27.91587709781926
 20
286.3732242653879
 30
0.0
 10
27.91609793258595
 20
286.3364190745195
 30
0.0
 10
27.91631503776601
 20
286.3002354612374
 30
0.0
 10
27.91652436213207
 20
286.2653486248551
 30
0.0
 10
27.91674487236392
 20
286.2285975049886
 30
0.0
 10
27.91703561082878
 20
286.1801418603247
 30
0.0
 10
27.91740825081521
 20
286.11803617099
 30
0.0
 10
27.91787802668474
 20
286.0397414131955
 30
0.0
 10
27.91838160964097
 20
285.9558122228713
 30
0.0
 10
27.9188687513435
 20
285.8746231950878
 30
0.0
 10
27.91932838367259
 20
285.79801899005
 30
0.0
 10
27.91975239483721
 20
285.7273515530417
 30
0.0
 10
27.92019278514632
 20
285.6539543027934
 30
0.0
 10
27.92061524201225
 20
285.5835459146154
 30
0.0
 10
27.92101526811294
 20
285.5168759277034
 30
0.0
 10
27.92138955373011
 20
285.4544959564701
 30
0.0
 10
27.92177301732587
 20
285.3905863493858
 30
0.0
 10
27.92226569491349
 20
285.3084746944945
 30
0.0
 10
27.92287666320056
 20
285.2066482337918
 30
0.0
 10
27.92361815878549
 20
285.0830675710528
 30
0.0
 10
27.92438615208534
 20
284.9550707019823
 30
0.0
 10
27.92510623038544
 20
284.8350595513024
 30
0.0
 10
27.92576902060459
 20
284.724596271897
 30
0.0
 10
27.92636869036932
 20
284.6246529079462
 30
0.0
 10
27.92698017952441
 20
284.5227396868201
 30
0.0
 10
27.92755663707189
 20
284.4266649814719
 30
0.0
 10
27.92809449154218
 20
284.3370240221591
 30
0.0
 10
27.92859154769508
 20
284.2541826782534
 30
0.0
 10
27.92909473927438
 20
284.1703187874062
 30
0.0
 10
27.92973381952288
 20
284.0638071627643
 30
0.0
 10
27.93051424532641
 20
283.933738345972
 30
0.0
 10
27.93144387607324
 20
283.7788024707569
 30
0.0
 10
27.932389708026
 20
283.6211664621472
 30
0.0
 10
27.93326155227746
 20
283.4758615509996
 30
0.0
 10
27.93405278741087
 20
283.3439912815604
 30
0.0
 10
27.93476051798502
 20
283.2260382134666
 30
0.0
 10
27.93547417575723
 20
283.1070973110558
 30
0.0
 10
27.93613965156613
 20
282.9961866096691
 30
0.0
 10
27.93675470231646
 20
282.8936799456887
 30
0.0
 10
27.93731849466527
 20
282.7997162075403
 30
0.0
 10
27.93788468807276
 20
282.7053523103526
 30
0.0
 10
27.93859812556051
 20
282.5864481778156
 30
0.0
 10
27.93946002883305
 20
282.4428002057931
 30
0.0
 10
27.94047299382071
 20
282.2739757592379
 30
0.0
 10
27.94149003656074
 20
282.1044717282654
 30
0.0
 10
27.94241535932582
 20
281.9502541055443
 30
0.0
 10
27.94324583918181
 20
281.811843363406
 30
0.0
 10
27.94398184347532
 20
281.6891782702191
 30
0.0
 10
27.94471721623379
 20
281.5666184468741
 30
0.0
 10
27.94549076967931
 20
281.4376953115514
 30
0.0
 10
27.94630109770133
 20
281.3026432069831
 30
0.0
 10
27.94710156521538
 20
281.169234512913
 30
0.0
 10
27.94785299642774
 20
281.043998392242
 30
0.0
 10
27.94855610724131
 20
280.9268155295819
 30
0.0
 10
27.94925545817226
 20
280.8102593151648
 30
0.0
 10
27.94990675161299
 20
280.7017125382206
 30
0.0
 10
27.95050997613355
 20
280.6011770999033
 30
0.0
 10
27.95106625419805
 20
280.5084659245607
 30
0.0
 10
27.95161882893935
 20
280.4163719661939
 30
0.0
 10
27.95216893726979
 20
280.3246890758119
 30
0.0
 10
27.95271595298052
 20
280.2335216188462
 30
0.0
 10
27.9532599175579
 20
280.1428626808975
 30
0.0
 10
27.95379908776394
 20
280.0530027979109
 30
0.0
 10
27.95432742229362
 20
279.9649488317177
 30
0.0
 10
27.95484455085359
 20
279.8787624927211
 30
0.0
 10
27.95535075769093
 20
279.7943964102844
 30
0.0
 10
27.95585153644428
 20
279.7109349977515
 30
0.0
 10
27.95647305611801
 20
279.6073505180956
 30
0.0
 10
27.95720814752109
 20
279.484837818055
 30
0.0
 10
27.95804862719472
 20
279.3447607852455
 30
0.0
 10
27.95886897535013
 20
279.208038950681
 30
0.0
 10
27.95959399520095
 20
279.0872048466792
 30
0.0
 10
27.96022818284247
 20
278.98150913438
 30
0.0
 10
27.96077794605387
 20
278.8898838688708
 30
0.0
 10
27.96131489909012
 20
278.8003935941225
 30
0.0
 10
27.96179957751085
 20
278.7196155750925
 30
0.0
 10
27.9622345199427
 20
278.6471267113778
 30
0.0
 10
27.96262289454785
 20
278.5823989890399
 30
0.0
 10
27.96300262802051
 20
278.5191114283428
 30
0.0
 10
27.96346823157356
 20
278.44151249418
 30
0.0
 10
27.96400932618978
 20
278.351331987041
 30
0.0
 10
27.96461342834408
 20
278.2506504497984
 30
0.0
 10
27.96518804359724
 20
278.1548832913772
 30
0.0
 10
27.96568186242484
 20
278.072581913712
 30
0.0
 10
27.96610264269503
 20
278.0024533661332
 30
0.0
 10
27.96645888715629
 20
277.9430805538083
 30
0.0
 10
27.96679807908239
 20
277.8865497684176
 30
0.0
 10
27.96709593788269
 20
277.8369076875697
 30
0.0
 10
27.96735626013533
 20
277.7935215586349
 30
0.0
 10
27.96758301634647
 20
277.7557296491565
 30
0.0
 10
27.96779889340981
 20
277.7197508904451
 30
0.0
 10
27.9680560887475
 20
277.6768858909557
 30
0.0
 10
27.96834218412134
 20
277.6292043084115
 30
0.0
 10
27.96864180359212
 20
277.5792687389811
 30
0.0
 10
27.96890590582976
 20
277.5352525689113
 30
0.0
 10
27.96911285321832
 20
277.5007619968891
 30
0.0
 10
27.96927278980674
 20
277.4741063878961
 30
0.0
 10
27.96939535696383
 20
277.4536788851037
 30
0.0
 10
27.96949854528927
 20
277.436481111642
 30
0.0
 10
27.96957602705294
 20
277.4235676727097
 30
0.0
 10
27.9696323296866
 20
277.4141840112659
 30
0.0
 10
27.96967210395071
 20
277.4075550221959
 30
0.0
 10
27.969699059157
 20
277.403062492691
 30
0.0
 10
27.9697164596718
 20
277.4001623796295
 30
0.0
 10
27.96971393496558
 20
277.4005830913164
 30
0.0
 10
27.96971279714042
 20
277.4007726960951
 30
0.0
  0
SPLINE
  5
E0
330
1F
100
AcDbEntity
  8
0
  6
Continuous
 62
     7
370
    30
100
AcDbSpline
210
0.0
220
0.0
230
1.0
 70
     8
 71
     3
 72
   123
 73
   119
 74
     0
 42
0.000000001
 43
0.00000001
 40
0.0
 40
0.0
 40
0.0
 40
0.0
 40
0.0029628188041759
 40
0.0146571779876961
 40
0.0264152746330301
 40
0.0381733712784141
 40
0.0466650910052534
 40
0.0551568107321193
 40
0.0636728240250776
 40
0.072188837318063
 40
0.0787998001476118
 40
0.0854107629771727
 40
0.0920331662011516
 40
0.0986555694251495
 40
0.1075710598921369
 40
0.1164883000758395
 40
0.125403790543048
 40
0.134383014468902
 40
0.1433640259231015
 40
0.1523432498492235
 40
0.1591455322936967
 40
0.1659478147381963
 40
0.1727625620586686
 40
0.1795773093791724
 40
0.1861882735990924
 40
0.1927992378190418
 40
0.199421642431975
 40
0.2060440470449413
 40
0.2177384072762316
 40
0.2294327675078084
 40
0.2411908651364412
 40
0.2529489627653659
 40
0.2614406830919921
 40
0.2699324034187037
 40
0.2784484172779981
 40
0.2869644311373721
 40
0.2935753982609687
 40
0.3001863653845943
 40
0.3068087729049391
 40
0.3134311804253101
 40
0.3251255457799272
 40
0.3368199111348033
 40
0.3485780139084666
 40
0.3603361166823755
 40
0.3688278407175464
 40
0.3773195647527685
 40
0.3858355823307152
 40
0.3943515999087178
 40
0.4009625701767363
 40
0.4075735404447723
 40
0.4141959511167643
 40
0.4208183617887772
 40
0.4325127327357558
 40
0.4442071036828475
 40
0.4559652120994702
 40
0.4677233205161785
 40
0.4762150486613305
 40
0.4847067768064879
 40
0.4932227985193285
 40
0.5017388202321676
 40
0.5116237870753243
 40
0.5215183023246472
 40
0.5298233852536237
 40
0.538128468182592
 40
0.5464562727803588
 40
0.554784077378111
 40
0.5615371184925525
 40
0.56829015960699
 40
0.5750553962634399
 40
0.5818206329198805
 40
0.5886410538760882
 40
0.5954614748322761
 40
0.6022944608347448
 40
0.6091274468371828
 40
0.6157384191024246
 40
0.6223493913676511
 40
0.6289718040490415
 40
0.6355942167304105
 40
0.6472885913341707
 40
0.6589829659376926
 40
0.6707410781073301
 40
0.6824991902767009
 40
0.690990921254667
 40
0.6994826522325536
 40
0.7079986768270309
 40
0.7165147014214343
 40
0.7231256716641833
 40
0.7297366419069112
 40
0.7363590525654048
 40
0.7429814632238726
 40
0.7546758342894366
 40
0.7663702053547113
 40
0.7781283139896077
 40
0.7898864226242128
 40
0.7983781510835022
 40
0.8068698795427155
 40
0.8153859016210477
 40
0.8239019236993014
 40
0.8305128907933076
 40
0.8371238578872914
 40
0.8437462653918211
 40
0.8503686728963303
 40
0.8620630383898711
 40
0.8737574038831847
 40
0.8855155069125387
 40
0.8972736099416923
 40
0.9057653343448462
 40
0.9142570587479573
 40
0.9227730767540415
 40
0.931289094760087
 40
0.9379000589590638
 40
0.944511023158031
 40
0.951133427759784
 40
0.9577558323615275
 40
0.969450192691196
 40
0.9811445530208041
 40
0.9929026508304837
 40
1.0
 40
1.0
 40
1.0
 40
1.0
 10
27.85921542066058
 20
302.4005880332693
 30
0.0
 10
27.85921559686963
 20
302.4004119166158
 30
0.0
 10
27.85921646858211
 20
302.3995406607913
 30
0.0
 10
27.85921185122695
 20
302.4041588280994
 30
0.0
 10
27.85920130807126
 20
302.4147030602203
 30
0.0
 10
27.85918559289721
 20
302.4304191979262
 30
0.0
 10
27.85916721508949
 20
302.4487978575139
 30
0.0
 10
27.85914764846672
 20
302.468365225835
 30
0.0
 10
27.85912483163697
 20
302.4911828003605
 30
0.0
 10
27.85910070956907
 20
302.5153055541032
 30
0.0
 10
27.85907610634827
 20
302.5399093778245
 30
0.0
 10
27.85905172204481
 20
302.564294227261
 30
0.0
 10
27.85902540585602
 20
302.5906109659244
 30
0.0
 10
27.85899390787336
 20
302.6221095501249
 30
0.0
 10
27.85895640599331
 20
302.6596120853418
 30
0.0
 10
27.85891198478815
 20
302.7040339915058
 30
0.0
 10
27.8588640818985
 20
302.7519375710714
 30
0.0
 10
27.85881269908938
 20
302.8033210568776
 30
0.0
 10
27.85875785751876
 20
302.8581632932157
 30
0.0
 10
27.85870441926294
 20
302.9116021446084
 30
0.0
 10
27.85865328753897
 20
302.9627344001458
 30
0.0
 10
27.85860521238334
 20
303.0108100221554
 30
0.0
 10
27.85855528166467
 20
303.0607412123467
 30
0.0
 10
27.85850403161535
 20
303.1119917195321
 30
0.0
 10
27.85845157694008
 20
303.1644468209898
 30
0.0
 10
27.85839797106967
 20
303.2180531049726
 30
0.0
 10
27.85834269896412
 20
303.2733256254168
 30
0.0
 10
27.85827125341597
 20
303.3447716787076
 30
0.0
 10
27.85818195109555
 20
303.434074585693
 30
0.0
 10
27.85807255188363
 20
303.5434744541151
 30
0.0
 10
27.85795825428114
 20
303.6577726851002
 30
0.0
 10
27.85785021738793
 20
303.7658101197497
 30
0.0
 10
27.85775012217626
 20
303.8659057922069
 30
0.0
 10
27.85765908578539
 20
303.9569425736502
 30
0.0
 10
27.85756578895357
 20
304.0502397866825
 30
0.0
 10
27.8574774134431
 20
304.1386156383849
 30
0.0
 10
27.85739461603284
 20
304.2214133300789
 30
0.0
 10
27.85731783215225
 20
304.2981974589802
 30
0.0
 10
27.85723983566787
 20
304.3761941903174
 30
0.0
 10
27.85714044717888
 20
304.4755829726623
 30
0.0
 10
27.85701853508846
 20
304.5974953915041
 30
0.0
 10
27.85687251817523
 20
304.7435126543408
 30
0.0
 10
27.85672316778273
 20
304.8928633656328
 30
0.0
 10
27.85658479370609
 20
305.0312376992382
 30
0.0
 10
27.85645867371497
 20
305.1573578940205
 30
0.0
 10
27.85634546728008
 20
305.2705644889807
 30
0.0
 10
27.85623091783171
 20
305.3851140896789
 30
0.0
 10
27.85612373930743
 20
305.492292740103
 30
0.0
 10
27.85602438758303
 20
305.5916445492412
 30
0.0
 10
27.85593308250997
 20
305.6829496887742
 30
0.0
 10
27.8558411551367
 20
305.7748771276802
 30
0.0
 10
27.85572502898956
 20
305.8910033393583
 30
0.0
 10
27.85558425176901
 20
306.0317806121383
 30
0.0
 10
27.85541807942935
 20
306.1979529772995
 30
0.0
 10
27.85525051434287
 20
306.3655180583751
 30
0.0
 10
27.85509740369471
 20
306.5186286690924
 30
0.0
 10
27.85495947795388
 20
306.6565543484462
 30
0.0
 10
27.85483686469367
 20
306.7791675341043
 30
0.0
 10
27.85471397692526
 20
306.902055220067
 30
0.0
 10
27.85458430782692
 20
307.0317242159922
 30
0.0
 10
27.85444801727585
 20
307.1680146029781
 30
0.0
 10
27.85431289607429
 20
307.3031356492038
 30
0.0
 10
27.85418562513828
 20
307.4304064089187
 30
0.0
 10
27.85406616977246
 20
307.5498615926552
 30
0.0
 10
27.8539469814297
 20
307.6690497368633
 30
0.0
 10
27.85383563240548
 20
307.7803985610998
 30
0.0
 10
27.85373220276219
 20
307.8838280008088
 30
0.0
 10
27.85363657265658
 20
307.9794579072179
 30
0.0
 10
27.8535413269699
 20
308.0747033858055
 30
0.0
 10
27.85344625144623
 20
308.1697786889748
 30
0.0
 10
27.85335145153586
 20
308.2645783671827
 30
0.0
 10
27.85325691758852
 20
308.3591120672848
 30
0.0
 10
27.85316295110149
 20
308.4530783067192
 30
0.0
 10
27.8530706073262
 20
308.5454218281016
 30
0.0
 10
27.85297996080369
 20
308.6360680706267
 30
0.0
 10
27.85289097191831
 20
308.7250566706999
 30
0.0
 10
27.85280267724852
 20
308.81335105495
 30
0.0
 10
27.85269276384725
 20
308.9232640831973
 30
0.0
 10
27.85256220861329
 20
309.0538188455067
 30
0.0
 10
27.85241208968045
 20
309.2039371957944
 30
0.0
 10
27.8522646940321
 20
309.3513322343028
 30
0.0
 10
27.85213361175018
 20
309.4824139355611
 30
0.0
 10
27.85201830272341
 20
309.5977224186454
 30
0.0
 10
27.85191784886107
 20
309.6981757806906
 30
0.0
 10
27.85181922725707
 20
309.7967968809713
 30
0.0
 10
27.85172972365232
 20
309.8863000072042
 30
0.0
 10
27.85164899917988
 20
309.9670240133271
 30
0.0
 10
27.85157658639256
 20
310.0394363674153
 30
0.0
 10
27.85150544581158
 20
310.1105765148899
 30
0.0
 10
27.85141778237374
 20
310.1982393959249
 30
0.0
 10
27.85131516182745
 20
310.3008592553091
 30
0.0
 10
27.8511994418443
 20
310.4165784097646
 30
0.0
 10
27.85108815638901
 20
310.5278630142331
 30
0.0
 10
27.85099135553856
 20
310.6246630700246
 30
0.0
 10
27.85090791908126
 20
310.7080987970866
 30
0.0
 10
27.85083653327777
 20
310.7794839382839
 30
0.0
 10
27.85076777983705
 20
310.8482367169224
 30
0.0
 10
27.85070663978026
 20
310.9093761540732
 30
0.0
 10
27.8506525452574
 20
310.9634700801922
 30
0.0
 10
27.85060487263643
 20
311.0111421528145
 30
0.0
 10
27.85055890667496
 20
311.0571075698508
 30
0.0
 10
27.8505033765851
 20
311.1126369664024
 30
0.0
 10
27.85044026039349
 20
311.1757523106616
 30
0.0
 10
27.85037198588677
 20
311.2440258083207
 30
0.0
 10
27.85030935718988
 20
311.3066534838271
 30
0.0
 10
27.85025775130898
 20
311.3582584240008
 30
0.0
 10
27.85021559422293
 20
311.4004146549192
 30
0.0
 10
27.85018132466774
 20
311.4346834440561
 30
0.0
 10
27.85015019078205
 20
311.4658165666125
 30
0.0
 10
27.85012430736441
 20
311.49169927659
 30
0.0
 10
27.85010294137877
 20
311.5130645899409
 30
0.0
 10
27.85008538406716
 20
311.5306212878357
 30
0.0
 10
27.85006977330714
 20
311.5462314392392
 30
0.0
 10
27.85005264505078
 20
311.5633589282282
 30
0.0
 10
27.85003609608658
 20
311.5799069637457
 30
0.0
 10
27.85002318099158
 20
311.592820966265
 30
0.0
 10
27.85001648321569
 20
311.5995177935283
 30
0.0
 10
27.85001667815753
 20
311.5993222649675
 30
0.0
 10
27.85001675153528
 20
311.5992486663693
 30
0.0
  0
LINE
  5
E1
330
1F
100
AcDbEntity
  8
0
  6
Continuous
 62
     7
370
    30
100
AcDbLine
 10
29.3262179221
 20
382.0
 30
0.0
 11
29.8024812185
 21
382.0
 31
0.0
  0
LINE
  5
E2
330
1F
100
AcDbEntity
  8
0
  6
Continuous
 62
     8
370
     0
100
AcDbLine
 10
27.8909388395
 20
286.5068674005
 30
0.0
 11
27.8909388395
 21
277.4931338362
 31
0.0
  0
LINE
  5
E3
330
1F
100
AcDbEntity
  8
0
  6
Continuous
 62
     8
370
     0
100
AcDbLine
 10
29.8024812185
 20
243.0
 30
0.0
 11
38.8500000002
 21
243.0
 31
0.0
  0
LINE
  5
E4
330
1F
100
AcDbEntity
  8
0
  6
Continuous
 62
     8
370
     0
100
AcDbLine
 10
29.8024812185
 20
243.0
 30
0.0
 11
29.8024812185
 21
242.0
 31
0.0
  0
LINE
  5
E5
330
1F
100
AcDbEntity
  8
0
  6
Continuous
 62
     8
370
     0
100
AcDbLine
 10
38.8500000002
 20
381.0
 30
0.0
 11
29.8024812185
 21
381.0
 31
0.0
  0
ARC
  5
E6
330
1F
100
AcDbEntity
  8
0
  6
Continuous
 62
     8
370
     0
100
AcDbCircle
 10
5027.8500000002
 20
312.0
 30
0.0
 40
4998.523782078053
100
AcDbArc
 50
179.2090596094
 51
180.7909403906
  0
ARC
  5
E7
330
1F
100
AcDbEntity
  8
0
  6
Continuous
 62
     8
370
     0
100
AcDbCircle
 10
29.8025279791
 20
242.9999508147
 30
0.0
 40
0.9999508158292681
100
AcDbArc
 50
180.7880854269
 51
269.9973206811
  0
LINE
  5
E8
330
1F
100
AcDbEntity
  8
0
  6
Continuous
 62
     8
370
     0
100
AcDbLine
 10
29.8024812185
 20
243.0
 30
0.0
 11
28.8026717529
 21
242.9861972394
 31
0.0
  0
ARC
  5
E9
330
1F
100
AcDbEntity
  8
0
  6
Continuous
 62
     8
370
     0
100
AcDbCircle
 10
5027.8500000002
 20
312.0
 30
0.0
 40
4999.523686815417
100
AcDbArc
 50
179.2090596094
 51
180.7909403906
  0
LINE
  5
EA
330
1F
100
AcDbEntity
  8
0
  6
Continuous
 62
     8
370
     0
100
AcDbLine
 10
29.8024812185
 20
381.0
 30
0.0
 11
28.8026717529
 21
381.0138027606
 31
0.0
  0
ARC
  5
EB
330
1F
100
AcDbEntity
  8
0
  6
Continuous
 62
     8
370
     0
100
AcDbCircle
 10
29.8025279791
 20
381.0000491853
 30
0.0
 40
0.9999508158301244
100
AcDbArc
 50
90.002679319
 51
179.211914573
  0
LINE
  5
EC
330
1F
100
AcDbEntity
  8
0
  6
Continuous
 62
     8
370
     0
100
AcDbLine
 10
29.8024812185
 20
381.0
 30
0.0
 11
29.8024812185
 21
382.0
 31
0.0
  0
LINE
  5
ED
330
1F
100
AcDbEntity
  8
0
  6
Continuous
 62
     8
370
     0
100
AcDbLine
 10
28.3263131848
 20
242.9861972394
 30
0.0
 11
28.8026717529
 21
242.9861972394
 31
0.0
  0
LINE
  5
EE
330
1F
100
AcDbEntity
  8
0
  6
Continuous
 62
     8
370
     0
100
AcDbLine
 10
28.8026717529
 20
381.0138027606
 30
0.0
 11
28.3263131848
 21
381.0138027606
 31
0.0
  0
ARC
  5
EF
330
1F
100
AcDbEntity
  8
0
  6
Continuous
 62
     7
370
    30
100
AcDbCircle
 10
138.5931046061
 20
176.8944287891
 30
0.0
 40
0.1000000000000009
100
AcDbArc
 50
205.0912264099
 51
270.0
  0
ARC
  5
F0
330
1F
100
AcDbEntity
  8
0
  6
Continuous
 62
     7
370
    30
100
AcDbCircle
 10
147.4069600051
 20
176.8944287891
 30
0.0
 40
0.1000000000000061
100
AcDbArc
 50
270.0
 51
334.9088103743
  0
LINE
  5
F1
330
1F
100
AcDbEntity
  8
0
  6
Continuous
 62
     7
370
    30
100
AcDbLine
 10
147.3035295009
 20
176.6661015655
 30
0.0
 11
147.3035295009
 21
176.7944287891
 31
0.0
  0
LINE
  5
F2
330
1F
100
AcDbEntity
  8
0
  6
Continuous
 62
     7
370
    30
100
AcDbLine
 10
138.6965351103
 20
176.7944287891
 30
0.0
 11
138.6965351103
 21
176.6661015655
 31
0.0
  0
SPLINE
  5
F3
330
1F
100
AcDbEntity
  8
0
  6
Continuous
 62
     7
370
    30
100
AcDbSpline
210
0.0
220
0.0
230
1.0
 70
     8
 71
     3
 72
    18
 73
    14
 74
     0
 42
0.000000001
 43
0.00000001
 40
0.0
 40
0.0
 40
0.0
 40
0.0
 40
0.046855927427109
 40
0.0937084678538502
 40
0.1405650372930966
 40
0.1874287931767129
 40
0.2342901362928588
 40
0.2811492109221075
 40
0.3280081415556831
 40
0.4568699137474249
 40
0.5857321531313291
 40
0.8158431594964334
 40
1.0
 40
1.0
 40
1.0
 40
1.0
 10
143.000032305613
 20
176.1499999997927
 30
0.0
 10
143.0677582716503
 20
176.1506785602598
 30
0.0
 10
143.2032053081254
 20
176.1520356321434
 30
0.0
 10
143.4061605706945
 20
176.1622578724685
 30
0.0
 10
143.6088012731411
 20
176.1771367228827
 30
0.0
 10
143.8111222067668
 20
176.1960263733205
 30
0.0
 10
144.01318289348
 20
176.2174814046403
 30
0.0
 10
144.2150273615505
 20
176.240816975785
 30
0.0
 10
144.5343551200151
 20
176.2798757793865
 30
0.0
 10
144.9708479542105
 20
176.3371723266334
 30
0.0
 10
145.6693929782585
 20
176.4330462790503
 30
0.0
 10
146.4466841528216
 20
176.5429096982503
 30
0.0
 10
147.0393408161483
 20
176.6282025097419
 30
0.0
 10
147.3027978511236
 20
176.6661182080059
 30
0.0
  0
SPLINE
  5
F4
330
1F
100
AcDbEntity
  8
0
  6
Continuous
 62
     7
370
    30
100
AcDbSpline
210
0.0
220
0.0
230
1.0
 70
     8
 71
     3
 72
    19
 73
    15
 74
     0
 42
0.000000001
 43
0.00000001
 40
0.0
 40
0.0
 40
0.0
 40
0.0
 40
0.1493165580315303
 40
0.3445562590170214
 40
0.5397958693187398
 40
0.604225102240637
 40
0.6686540245443833
 40
0.733082969614776
 40
0.7975130388553404
 40
0.8380157234772658
 40
0.8785160600181438
 40
0.9190101403521382
 40
0.9595037728393931
 40
1.0
 40
1.0
 40
1.0
 40
1.0
 10
138.6971355391958
 20
176.6661088273581
 30
0.0
 10
138.9107543867474
 20
176.6353517393809
 30
0.0
 10
139.4036917537632
 20
176.5643780489119
 30
0.0
 10
140.1761746378476
 20
176.4547780745232
 30
0.0
 10
140.8274664057689
 20
176.3644367193536
 30
0.0
 10
141.2918306638021
 20
176.3026950101701
 30
0.0
 10
141.5689381483029
 20
176.2671498613958
 30
0.0
 10
141.8462667983382
 20
176.2333560922045
 30
0.0
 10
142.0895556975555
 20
176.2061765168233
 30
0.0
 10
142.298750914221
 20
176.1855208699497
 30
0.0
 10
142.4737444213335
 20
176.1706884841392
 30
0.0
 10
142.6489767986895
 20
176.1592351932886
 30
0.0
 10
142.8244314442323
 20
176.1515216071242
 30
0.0
 10
142.9414974350045
 20
176.1505072130692
 30
0.0
 10
143.000032305613
 20
176.1499999997927
 30
0.0
  0
ARC
  5
F5
330
1F
100
AcDbEntity
  8
0
  6
Continuous
 62
     7
370
    30
100
AcDbCircle
 10
212.0
 20
178.3262179221
 30
0.0
 40
1.000000000000114
100
AcDbArc
 50
270.7908650387
 51
359.9999999964
  0
ARC
  5
F6
330
1F
100
AcDbEntity
  8
0
  6
Continuous
 62
     7
370
    30
100
AcDbCircle
 10
143.0
 20
5176.8500000002
 30
0.0
 40
5000.000000000018
100
AcDbArc
 50
269.2091349613
 51
270.0
  0
ARC
  5
F7
330
1F
100
AcDbEntity
  8
0
  6
Continuous
 62
     7
370
    30
100
AcDbCircle
 10
143.0
 20
5176.8500000002
 30
0.0
 40
5000.000000000018
100
AcDbArc
 50
270.0
 51
270.7908650387
  0
ARC
  5
F8
330
1F
100
AcDbEntity
  8
0
  6
Continuous
 62
     7
370
    30
100
AcDbCircle
 10
74.0
 20
178.3262179221
 30
0.0
 40
1.0
100
AcDbArc
 50
180.0000000036
 51
269.2091349613
  0
LINE
  5
F9
330
1F
100
AcDbEntity
  8
0
  6
Continuous
 62
     7
370
    30
100
AcDbLine
 10
147.4069600051
 20
176.7944287891
 30
0.0
 11
138.5931046061
 21
176.7944287891
 31
0.0
  0
LINE
  5
FA
330
1F
100
AcDbEntity
  8
0
  6
Continuous
 62
     7
370
    30
100
AcDbLine
 10
143.0000323056
 20
176.6661015655
 30
0.0
 11
147.3035288826
 21
176.6661015655
 31
0.0
  0
LINE
  5
FB
330
1F
100
AcDbEntity
  8
0
  6
Continuous
 62
     7
370
    30
100
AcDbLine
 10
138.6965357287
 20
176.6661015655
 30
0.0
 11
143.0000323056
 21
176.6661015655
 31
0.0
  0
LINE
  5
FC
330
1F
100
AcDbEntity
  8
0
  6
Continuous
 62
     7
370
    30
100
AcDbLine
 10
74.0
 20
187.8500000002
 30
0.0
 11
212.0
 21
187.8500000002
 31
0.0
  0
LINE
  5
FD
330
1F
100
AcDbEntity
  8
0
  6
Continuous
 62
     7
370
    30
100
AcDbLine
 10
73.0
 20
178.8024812185
 30
0.0
 11
73.0
 21
187.8500000002
 31
0.0
  0
LINE
  5
FE
330
1F
100
AcDbEntity
  8
0
  6
Continuous
 62
     7
370
    30
100
AcDbLine
 10
73.0
 20
187.8500000002
 30
0.0
 11
74.0
 21
187.8500000002
 31
0.0
  0
LINE
  5
FF
330
1F
100
AcDbEntity
  8
0
  6
Continuous
 62
     7
370
    30
100
AcDbLine
 10
213.0
 20
187.8500000002
 30
0.0
 11
213.0
 21
178.8024812185
 31
0.0
  0
LINE
  5
100
330
1F
100
AcDbEntity
  8
0
  6
Continuous
 62
     7
370
    30
100
AcDbLine
 10
212.0
 20
187.8500000002
 30
0.0
 11
213.0
 21
187.8500000002
 31
0.0
  0
LINE
  5
101
330
1F
100
AcDbEntity
  8
0
  6
Continuous
 62
     7
370
    30
100
AcDbLine
 10
213.0
 20
178.8024812185
 30
0.0
 11
213.0
 21
178.3262179221
 31
0.0
  0
LINE
  5
102
330
1F
100
AcDbEntity
  8
0
  6
Continuous
 62
     7
370
    30
100
AcDbLine
 10
73.0
 20
178.3262179221
 30
0.0
 11
73.0
 21
178.8024812185
 31
0.0
  0
ARC
  5
103
330
1F
100
AcDbEntity
  8
0
  6
Continuous
 62
     8
370
     0
100
AcDbCircle
 10
73.9999508147
 20
178.8025279791
 30
0.0
 40
0.9999508158287513
100
AcDbArc
 50
180.0026793189
 51
269.2119145731
  0
LINE
  5
104
330
1F
100
AcDbEntity
  8
0
  6
Continuous
 62
     8
370
     0
100
AcDbLine
 10
74.0
 20
178.8024812185
 30
0.0
 11
73.0
 21
178.8024812185
 31
0.0
  0
LINE
  5
105
330
1F
100
AcDbEntity
  8
0
  6
Continuous
 62
     8
370
     0
100
AcDbLine
 10
74.0
 20
178.8024812185
 30
0.0
 11
73.9861972394
 21
177.8026717529
 31
0.0
  0
ARC
  5
106
330
1F
100
AcDbEntity
  8
0
  6
Continuous
 62
     8
370
     0
100
AcDbCircle
 10
212.0000491853
 20
178.8025279791
 30
0.0
 40
0.999950815829093
100
AcDbArc
 50
270.7880854269
 51
359.9973206811
  0
LINE
  5
107
330
1F
100
AcDbEntity
  8
0
  6
Continuous
 62
     8
370
     0
100
AcDbLine
 10
212.0
 20
178.8024812185
 30
0.0
 11
212.0138027606
 21
177.8026717529
 31
0.0
  0
LINE
  5
108
330
1F
100
AcDbEntity
  8
0
  6
Continuous
 62
     8
370
     0
100
AcDbLine
 10
213.0
 20
178.8024812185
 30
0.0
 11
212.0
 21
178.8024812185
 31
0.0
  0
LINE
  5
109
330
1F
100
AcDbEntity
  8
0
  6
Continuous
 62
     8
370
     0
100
AcDbLine
 10
74.0
 20
187.8500000002
 30
0.0
 11
74.0
 21
178.8024812185
 31
0.0
  0
LINE
  5
10A
330
1F
100
AcDbEntity
  8
0
  6
Continuous
 62
     8
370
     0
100
AcDbLine
 10
212.0
 20
178.8024812185
 30
0.0
 11
212.0
 21
187.8500000002
 31
0.0
  0
ARC
  5
10B
330
1F
100
AcDbEntity
  8
0
  6
Continuous
 62
     8
370
     0
100
AcDbCircle
 10
143.0
 20
5176.8500000002
 30
0.0
 40
4998.523782078051
100
AcDbArc
 50
269.2090596094
 51
270.7909403906
  0
ARC
  5
10C
330
1F
100
AcDbEntity
  8
0
  6
Continuous
 62
     8
370
     0
100
AcDbCircle
 10
143.0
 20
5176.8500000002
 30
0.0
 40
4999.523686815415
100
AcDbArc
 50
269.2090596094
 51
270.7909403906
  0
LINE
  5
10D
330
1F
100
AcDbEntity
  8
0
  6
Continuous
 62
     8
370
     0
100
AcDbLine
 10
212.0138027606
 20
177.3263131848
 30
0.0
 11
212.0138027606
 21
177.8026717529
 31
0.0
  0
LINE
  5
10E
330
1F
100
AcDbEntity
  8
0
  6
Continuous
 62
     8
370
     0
100
AcDbLine
 10
73.9861972394
 20
177.8026717529
 30
0.0
 11
73.9861972395
 21
177.3263131848
 31
0.0
  0
LINE
  5
10F
330
1F
100
AcDbEntity
  8
0
  6
Continuous
 62
     7
370
    30
100
AcDbLine
 10
310.043253645
 20
82.5831338074
 30
0.0
 11
309.5791555171
 21
82.2880725465
 31
0.0
  0
LINE
  5
110
330
1F
100
AcDbEntity
  8
0
  6
Continuous
 62
     7
370
    30
100
AcDbLine
 10
314.0842817308
 20
74.4841194753
 30
0.0
 11
314.5978838994
 21
74.7520253292
 31
0.0
  0
SPLINE
  5
111
330
1F
100
AcDbEntity
  8
0
  6
Continuous
 62
     7
370
    30
100
AcDbSpline
210
0.0
220
0.0
230
1.0
 70
     8
 71
     3
 72
    47
 73
    43
 74
     0
 42
0.000000001
 43
0.00000001
 40
0.0
 40
0.0
 40
0.0
 40
0.0
 40
0.0116266074728904
 40
0.0366755882418385
 40
0.061734923563204
 40
0.0868091610403995
 40
0.1119024924044798
 40
0.1370186665432533
 40
0.1621609194574304
 40
0.1873319232154607
 40
0.2125337550046264
 40
0.2377678863713586
 40
0.2630351917672705
 40
0.288335974640462
 40
0.3136700085843656
 40
0.3390365905302747
 40
0.3644346026669584
 40
0.3898625797001025
 40
0.4153187782068219
 40
0.4408012451648542
 40
0.466307883192467
 40
0.491836510570693
 40
0.5173849146843574
 40
0.5429508980608793
 40
0.5685323166764676
 40
0.5941271106091802
 40
0.6197333274391339
 40
0.6453491390238242
 40
0.6709728524208768
 40
0.6966029157987232
 40
0.7222379201862105
 40
0.747876597878873
 40
0.7735178182528961
 40
0.7991605816564478
 40
0.8248040049338464
 40
0.8504471043920607
 40
0.8760892592354735
 40
0.9017299431516594
 40
0.9273687155531469
 40
0.9530052131248506
 40
0.9786391418047171
 40
1.0
 40
1.0
 40
1.0
 40
1.0
 10
309.5387066918917
 20
82.26113459118613
 30
0.0
 10
309.5310433690063
 20
82.25599669256692
 30
0.0
 10
309.5068697762048
 20
82.23978943222635
 30
0.0
 10
309.467462449301
 20
82.21046347070806
 30
0.0
 10
309.4204589220294
 20
82.17326529759009
 30
0.0
 10
309.3747600427191
 20
82.13407671118559
 30
0.0
 10
309.3303025713113
 20
82.09305004551118
 30
0.0
 10
309.2871305340964
 20
82.05016580470051
 30
0.0
 10
309.2452592919631
 20
82.00545163249231
 30
0.0
 10
309.2047119810404
 20
81.95892378328843
 30
0.0
 10
309.1655096724199
 20
81.91060301848033
 30
0.0
 10
309.1276739121095
 20
81.86051051030555
 30
0.0
 10
309.09122590815
 20
81.80866907893095
 30
0.0
 10
309.0561865953768
 20
81.7551029601791
 30
0.0
 10
309.0225764512178
 20
81.69983792647209
 30
0.0
 10
308.9904153739468
 20
81.64290127116084
 30
0.0
 10
308.9597225481532
 20
81.58432178969746
 30
0.0
 10
308.9305163249546
 20
81.52412972591841
 30
0.0
 10
308.9028141153863
 20
81.46235669769267
 30
0.0
 10
308.8766323015481
 20
81.39903560485098
 30
0.0
 10
308.8519861666798
 20
81.33420052577925
 30
0.0
 10
308.8288898446486
 20
81.26788660798593
 30
0.0
 10
308.8073562880419
 20
81.20012995763251
 30
0.0
 10
308.7873972533221
 20
81.13096753220498
 30
0.0
 10
308.7690233008234
 20
81.0604370395798
 30
0.0
 10
308.7522438071145
 20
80.98857684582563
 30
0.0
 10
308.7370669870709
 20
80.9154258931786
 30
0.0
 10
308.7234999231248
 20
80.84102362883719
 30
0.0
 10
308.7115485992567
 20
80.76540994459761
 30
0.0
 10
308.7012179379439
 20
80.68862512672895
 30
0.0
 10
308.6925118372635
 20
80.61070981562271
 30
0.0
 10
308.6854332107146
 20
80.5317049725738
 30
0.0
 10
308.6799840139956
 20
80.45165185835504
 30
0.0
 10
308.6761653132019
 20
80.37059200780597
 30
0.0
 10
308.673977193801
 20
80.28856749690952
 30
0.0
 10
308.673419236304
 20
80.20562047988814
 30
0.0
 10
308.6744887713979
 20
80.1217938829967
 30
0.0
 10
308.6771875417332
 20
80.03712850652936
 30
0.0
 10
308.6814970201254
 20
79.95167318842458
 30
0.0
 10
308.6874706241799
 20
79.8654478886798
 30
0.0
 10
308.6944777119701
 20
79.783405032296
 30
0.0
 10
308.7002661234538
 20
79.72980135108246
 30
0.0
 10
308.7028971692592
 20
79.705436507463
 30
0.0
  0
SPLINE
  5
112
330
1F
100
AcDbEntity
  8
0
  6
Continuous
 62
     7
370
    30
100
AcDbSpline
210
0.0
220
0.0
230
1.0
 70
     8
 71
     3
 72
    14
 73
    10
 74
     0
 42
0.000000001
 43
0.00000001
 40
0.0
 40
0.0
 40
0.0
 40
0.0
 40
0.0465556926659124
 40
0.2246505544764173
 40
0.402768521395743
 40
0.5809084516305514
 40
0.7590688277945411
 40
0.9372477082700261
 40
1.0
 40
1.0
 40
1.0
 40
1.0
 10
311.4368949085985
 20
74.99694253996562
 30
0.0
 10
311.4430994013136
 20
74.99239249840697
 30
0.0
 10
311.4730386557613
 20
74.97043665798178
 30
0.0
 10
311.526949535054
 20
74.93278986779275
 30
0.0
 10
311.5985950347877
 20
74.88409293186152
 30
0.0
 10
311.6704269210215
 20
74.83729819667953
 30
0.0
 10
311.7423865735269
 20
74.79228347103343
 30
0.0
 10
311.7988822314217
 20
74.75836949020446
 30
0.0
 10
311.8313788889379
 20
74.73951711627649
 30
0.0
 10
311.8398428818453
 20
74.73460687714997
 30
0.0
  0
SPLINE
  5
113
330
1F
100
AcDbEntity
  8
0
  6
Continuous
 62
     7
370
    30
100
AcDbSpline
210
0.0
220
0.0
230
1.0
 70
     8
 71
     3
 72
    41
 73
    37
 74
     0
 42
0.000000001
 43
0.00000001
 40
0.0
 40
0.0
 40
0.0
 40
0.0
 40
0.0159566153210299
 40
0.046214118194505
 40
0.0764745412083963
 40
0.1067359715856018
 40
0.1369973842547854
 40
0.1672576853187251
 40
0.1975157313654224
 40
0.2277702236270533
 40
0.2580196996737287
 40
0.2882625271317263
 40
0.3184969001829074
 40
0.3487208397241177
 40
0.3789321981579745
 40
0.409128669849072
 40
0.4393078082960554
 40
0.4694670510185442
 40
0.4996037530247535
 40
0.5297152294885914
 40
0.5597988079178029
 40
0.589851889623625
 40
0.6198720197332606
 40
0.6498569643188412
 40
0.6798047925158758
 40
0.7097139608022474
 40
0.7395833959907393
 40
0.7694125730133348
 40
0.7992015833153924
 40
0.8289511896873332
 40
0.8586628636688713
 40
0.8883388022652412
 40
0.9179819215915164
 40
0.9475958261478297
 40
0.9771847536502378
 40
1.0
 40
1.0
 40
1.0
 40
1.0
 10
311.8398428818453
 20
74.73460687714997
 30
0.0
 10
311.8525203575902
 20
74.72734097017889
 30
0.0
 10
311.8892373148321
 20
74.70629719135694
 30
0.0
 10
311.9500198221384
 20
74.67290094768123
 30
0.0
 10
312.0221612758105
 20
74.63505271400963
 30
0.0
 10
312.0942649619698
 20
74.59913684401023
 30
0.0
 10
312.1662929263115
 20
74.56514240582138
 30
0.0
 10
312.2382091845935
 20
74.53309748748451
 30
0.0
 10
312.3099773422835
 20
74.50301838879928
 30
0.0
 10
312.3815609500954
 20
74.47492335018016
 30
0.0
 10
312.4529233062997
 20
74.44882887277952
 30
0.0
 10
312.5240274806299
 20
74.4247506594812
 30
0.0
 10
312.5948363043135
 20
74.40270330083045
 30
0.0
 10
312.6653123762771
 20
74.38270028983243
 30
0.0
 10
312.7354180743879
 20
74.36475394172096
 30
0.0
 10
312.8051155771226
 20
74.34887533317705
 30
0.0
 10
312.8743668966428
 20
74.3350742318725
 30
0.0
 10
312.9431339253072
 20
74.32335902635882
 30
0.0
 10
313.011378496983
 20
74.31373665655519
 30
0.0
 10
313.0790624641422
 20
74.30621254845596
 30
0.0
 10
313.1461477909475
 20
74.3007905563953
 30
0.0
 10
313.2125966616442
 20
74.29747291684922
 30
0.0
 10
313.2783716025209
 20
74.29626021768834
 30
0.0
 10
313.3434356142569
 20
74.29715138722217
 30
0.0
 10
313.4077523112861
 20
74.30014370499407
 30
0.0
 10
313.4712860598689
 20
74.30523284261439
 30
0.0
 10
313.5340021199252
 20
74.31241291502624
 30
0.0
 10
313.5958667420552
 20
74.32167662059977
 30
0.0
 10
313.6568473689811
 20
74.3330151760572
 30
0.0
 10
313.7169123539941
 20
74.34641913094134
 30
0.0
 10
313.7760323555593
 20
74.36187600256063
 30
0.0
 10
313.83417534181
 20
74.37937982434842
 30
0.0
 10
313.8913252384268
 20
74.39889634771616
 30
0.0
 10
313.9474123128811
 20
74.42049347480797
 30
0.0
 10
313.9983758980195
 20
74.44207854455834
 30
0.0
 10
314.0301455463542
 20
74.45738358562795
 30
0.0
 10
314.0439771231142
 20
74.46404695338529
 30
0.0
  0
LINE
  5
114
330
1F
100
AcDbEntity
  8
0
  6
Continuous
 62
     7
370
    30
100
AcDbLine
 10
309.6675544096
 20
82.1058670346
 30
0.0
 11
309.5768138874
 21
82.0534824272
 31
0.0
  0
LINE
  5
115
330
1F
100
AcDbEntity
  8
0
  6
Continuous
 62
     7
370
    30
100
AcDbLine
 10
313.879960821
 20
74.5994056409
 30
0.0
 11
313.9707018711
 21
74.6517893341
 31
0.0
  0
LINE
  5
116
330
1F
100
AcDbEntity
  8
0
  6
Continuous
 62
     7
370
    30
100
AcDbLine
 10
310.0024582673
 20
102.9707174871
 30
0.0
 11
309.5791555171
 21
102.7015928437
 31
0.0
  0
LINE
  5
117
330
1F
100
AcDbEntity
  8
0
  6
Continuous
 62
     7
370
    30
100
AcDbLine
 10
314.0842817308
 20
94.8976397725
 30
0.0
 11
314.5323039601
 21
95.1313377302
 31
0.0
  0
SPLINE
  5
118
330
1F
100
AcDbEntity
  8
0
  6
Continuous
 62
     7
370
    30
100
AcDbSpline
210
0.0
220
0.0
230
1.0
 70
     8
 71
     3
 72
    47
 73
    43
 74
     0
 42
0.000000001
 43
0.00000001
 40
0.0
 40
0.0
 40
0.0
 40
0.0
 40
0.0116187383077263
 40
0.036650765328906
 40
0.0616931398942767
 40
0.0867504065293607
 40
0.1118267541281448
 40
0.1369259290410567
 40
0.162051165078635
 40
0.1872051325007942
 40
0.2123899070889815
 40
0.2376069593936015
 40
0.2628571632744197
 40
0.2881408219741622
 40
0.3134577092394925
 40
0.3388071224775703
 40
0.3641879446337199
 40
0.389598711405373
 40
0.4150376805496244
 40
0.4405029003661158
 40
0.4659922748925734
 40
0.4915036238867762
 40
0.5170347362310326
 40
0.5425834159400779
 40
0.568147520441248
 40
0.5937249912068123
 40
0.6193138771383283
 40
0.6449123513306195
 40
0.6705187219871681
 40
0.6961314383266364
 40
0.7217490923315786
 40
0.7473704171555172
 40
0.7729942829398408
 40
0.79861969070939
 40
0.8242457579061113
 40
0.8498715015028733
 40
0.8754963011241435
 40
0.9011196308137455
 40
0.9267410502824088
 40
0.9523601964609463
 40
0.977976775486306
 40
1.0
 40
1.0
 40
1.0
 40
1.0
 10
309.5387066918912
 20
102.67465488833
 30
0.0
 10
309.5310433690056
 20
102.6695169897109
 30
0.0
 10
309.5068697762037
 20
102.6533097293704
 30
0.0
 10
309.4674624493007
 20
102.6239837678518
 30
0.0
 10
309.4204589220287
 20
102.5867855947339
 30
0.0
 10
309.3747600427185
 20
102.5475970083294
 30
0.0
 10
309.3303025713104
 20
102.5065703426549
 30
0.0
 10
309.2871305340958
 20
102.4636861018443
 30
0.0
 10
309.245259291963
 20
102.4189719296361
 30
0.0
 10
309.2047119810394
 20
102.3724440804318
 30
0.0
 10
309.1655096724195
 20
102.3241233156239
 30
0.0
 10
309.1276739121088
 20
102.2740308074494
 30
0.0
 10
309.0912259081495
 20
102.2221893760746
 30
0.0
 10
309.0561865953759
 20
102.1686232573228
 30
0.0
 10
309.022576451217
 20
102.1133582236155
 30
0.0
 10
308.9904153739463
 20
102.0564215683046
 30
0.0
 10
308.9597225481525
 20
101.997842086841
 30
0.0
 10
308.9305163249538
 20
101.937650023062
 30
0.0
 10
308.9028141153862
 20
101.8758769948363
 30
0.0
 10
308.8766323015475
 20
101.8125559019946
 30
0.0
 10
308.8519861666791
 20
101.7477208229227
 30
0.0
 10
308.8288898446478
 20
101.6814069051291
 30
0.0
 10
308.8073562880414
 20
101.613650254776
 30
0.0
 10
308.7873972533218
 20
101.5444878293484
 30
0.0
 10
308.7690233008229
 20
101.473957336723
 30
0.0
 10
308.7522438071142
 20
101.4020971429691
 30
0.0
 10
308.7370669870707
 20
101.3289461903222
 30
0.0
 10
308.7234999231241
 20
101.2545439259805
 30
0.0
 10
308.7115485992572
 20
101.1789302417408
 30
0.0
 10
308.7012179379404
 20
101.1021454238736
 30
0.0
 10
308.6925118372739
 20
101.0242301127617
 30
0.0
 10
308.6854332106736
 20
100.9452252697341
 30
0.0
 10
308.6799840141469
 20
100.8651721554354
 30
0.0
 10
308.6761653126345
 20
100.7841123051842
 30
0.0
 10
308.6739771959165
 20
100.7020877931766
 30
0.0
 10
308.6734192284059
 20
100.6191407803006
 30
0.0
 10
308.6744888008704
 20
100.5353141679408
 30
0.0
 10
308.6771874317493
 20
100.4506488491971
 30
0.0
 10
308.6814974305399
 20
100.3651933156889
 30
0.0
 10
308.6874690927029
 20
100.2789688197313
 30
0.0
 10
308.6945484287431
 20
100.1961580595749
 30
0.0
 10
308.7004233301188
 20
100.1417805796931
 30
0.0
 10
308.7031392160459
 20
100.1166426202776
 30
0.0
  0
SPLINE
  5
119
330
1F
100
AcDbEntity
  8
0
  6
Continuous
 62
     7
370
    30
100
AcDbSpline
210
0.0
220
0.0
230
1.0
 70
     8
 71
     3
 72
    14
 73
    10
 74
     0
 42
0.000000001
 43
0.00000001
 40
0.0
 40
0.0
 40
0.0
 40
0.0
 40
0.0873035136701179
 40
0.2577870472729854
 40
0.4282926985299291
 40
0.5988193744457432
 40
0.7693656224829494
 40
0.939929584003363
 40
1.0
 40
1.0
 40
1.0
 40
1.0
 10
311.4190397629976
 20
95.42351345873526
 30
0.0
 10
311.4311919770879
 20
95.41458387592897
 30
0.0
 10
311.4670746495776
 20
95.38821688692458
 30
0.0
 10
311.5269455401185
 20
95.34628082274169
 30
0.0
 10
311.5985961055835
 20
95.29762109384058
 30
0.0
 10
311.6704266334721
 20
95.25081638182256
 30
0.0
 10
311.7423866527494
 20
95.20580435005368
 30
0.0
 10
311.7988822255594
 20
95.17188974429594
 30
0.0
 10
311.8313788877264
 20
95.153037404524
 30
0.0
 10
311.8398428818448
 20
95.1481271742938
 30
0.0
  0
SPLINE
  5
11A
330
1F
100
AcDbEntity
  8
0
  6
Continuous
 62
     7
370
    30
100
AcDbSpline
210
0.0
220
0.0
230
1.0
 70
     8
 71
     3
 72
    41
 73
    37
 74
     0
 42
0.000000001
 43
0.00000001
 40
0.0
 40
0.0
 40
0.0
 40
0.0
 40
0.0159566153210299
 40
0.0462141181944053
 40
0.0764745412083463
 40
0.1067359715855353
 40
0.1369973842547519
 40
0.1672576853187741
 40
0.197515731365389
 40
0.2277702236270855
 40
0.2580196996737772
 40
0.2882625271317585
 40
0.3184969001829395
 40
0.3487208397241981
 40
0.3789321981580153
 40
0.4091286698491194
 40
0.4393078082961028
 40
0.4694670510186073
 40
0.4996037530247697
 40
0.5297152294886814
 40
0.5597988079178188
 40
0.5898518896236409
 40
0.6198720197332164
 40
0.6498569643188119
 40
0.6798047925159059
 40
0.709713960802216
 40
0.7395833959906937
 40
0.7694125730133489
 40
0.7992015833153785
 40
0.8289511896873055
 40
0.8586628636688514
 40
0.8883388022652078
 40
0.91798192159147
 40
0.9475958261478299
 40
0.9771847536502379
 40
1.0
 40
1.0
 40
1.0
 40
1.0
 10
311.8398428818448
 20
95.1481271742938
 30
0.0
 10
311.8525203575896
 20
95.14086126732249
 30
0.0
 10
311.8892373148316
 20
95.11981748850098
 30
0.0
 10
311.9500198221382
 20
95.08642124482505
 30
0.0
 10
312.0221612758105
 20
95.04857301115413
 30
0.0
 10
312.0942649619688
 20
95.01265714115407
 30
0.0
 10
312.166292926311
 20
94.97866270296542
 30
0.0
 10
312.2382091845929
 20
94.94661778462812
 30
0.0
 10
312.3099773422834
 20
94.91653868594332
 30
0.0
 10
312.3815609500949
 20
94.888443647324
 30
0.0
 10
312.4529233062996
 20
94.86234916992333
 30
0.0
 10
312.5240274806293
 20
94.83827095662504
 30
0.0
 10
312.5948363043127
 20
94.81622359797417
 30
0.0
 10
312.6653123762766
 20
94.79622058697637
 30
0.0
 10
312.7354180743877
 20
94.77827423886478
 30
0.0
 10
312.8051155771224
 20
94.76239563032077
 30
0.0
 10
312.8743668966424
 20
94.7485945290161
 30
0.0
 10
312.9431339253071
 20
94.73687932350252
 30
0.0
 10
313.0113784969828
 20
94.72725695369935
 30
0.0
 10
313.0790624641414
 20
94.71973284559978
 30
0.0
 10
313.1461477909466
 20
94.71431085353902
 30
0.0
 10
313.212596661644
 20
94.71099321399315
 30
0.0
 10
313.2783716025208
 20
94.70978051483227
 30
0.0
 10
313.3434356142562
 20
94.71067168436612
 30
0.0
 10
313.4077523112857
 20
94.71366400213813
 30
0.0
 10
313.4712860598685
 20
94.71875313975822
 30
0.0
 10
313.5340021199245
 20
94.72593321217018
 30
0.0
 10
313.5958667420545
 20
94.73519691774348
 30
0.0
 10
313.656847368981
 20
94.74653547320081
 30
0.0
 10
313.7169123539935
 20
94.7599394280855
 30
0.0
 10
313.7760323555593
 20
94.77539629970435
 30
0.0
 10
313.8341753418093
 20
94.79290012149258
 30
0.0
 10
313.8913252384264
 20
94.81241664485987
 30
0.0
 10
313.9474123128809
 20
94.83401377195213
 30
0.0
 10
313.9983758980188
 20
94.85559884170206
 30
0.0
 10
314.0301455463538
 20
94.87090388277188
 30
0.0
 10
314.043977123114
 20
94.87756725052934
 30
0.0
  0
LINE
  5
11B
330
1F
100
AcDbEntity
  8
0
  6
Continuous
 62
     7
370
    30
100
AcDbLine
 10
313.8799602933
 20
95.0129258425
 30
0.0
 11
313.9707018711
 21
95.0653086214
 31
0.0
  0
LINE
  5
11C
330
1F
100
AcDbEntity
  8
0
  6
Continuous
 62
     7
370
    30
100
AcDbLine
 10
309.6675544096
 20
102.5193863219
 30
0.0
 11
309.5768133596
 21
102.4670026288
 31
0.0
  0
ARC
  5
11D
330
1F
100
AcDbEntity
  8
0
  6
Continuous
 62
     7
370
    30
100
AcDbCircle
 10
362.0293806885
 20
19.1873639865
 30
0.0
 40
1.000000000000184
100
AcDbArc
 50
240.6829406127
 51
299.9973117337
  0
ARC
  5
11E
330
1F
100
AcDbEntity
  8
0
  6
Continuous
 62
     7
370
    30
100
AcDbCircle
 10
264.4486448848
 20
188.2021557425
 30
0.0
 40
1.0000000000002
100
AcDbArc
 50
119.9973117336
 51
179.319746129
  0
SPLINE
  5
11F
330
1F
100
AcDbEntity
  8
0
  6
Continuous
 62
     7
370
    30
100
AcDbSpline
210
0.0
220
0.0
230
1.0
 70
     8
 71
     3
 72
    49
 73
    45
 74
     0
 42
0.000000001
 43
0.00000001
 40
0.0
 40
0.0
 40
0.0
 40
0.0
 40
0.0128164520087458
 40
0.0371672651327004
 40
0.0615180779737686
 40
0.0858688904632749
 40
0.1102197025894206
 40
0.1345705143397315
 40
0.1589213257306547
 40
0.183272136727744
 40
0.2076229473553282
 40
0.2319737575926338
 40
0.2563245674395414
 40
0.2806753769001771
 40
0.305026185961939
 40
0.3293769946263812
 40
0.3537278028838296
 40
0.3780786107296291
 40
0.4024294181674243
 40
0.4267802251975149
 40
0.4511310317975843
 40
0.4754818379774877
 40
0.4998326437272934
 40
0.5241834490572107
 40
0.5485342539513574
 40
0.5728850583978098
 40
0.5972358624191934
 40
0.6215866659788781
 40
0.6459374691042191
 40
0.6702882717696519
 40
0.6946390739826198
 40
0.7189898757348014
 40
0.7433406770265945
 40
0.7676914778449812
 40
0.7920422782003324
 40
0.8163930780872231
 40
0.8407438774936326
 40
0.86509467641803
 40
0.8894454748664734
 40
0.9137962728176157
 40
0.9381470702912521
 40
0.9624978672665823
 40
0.9868486637460291
 40
1.0
 40
1.0
 40
1.0
 40
1.0
 10
263.9382967568787
 20
74.65955580265008
 30
0.0
 10
264.3495288531324
 20
74.41556217398995
 30
0.0
 10
265.5420876316552
 20
73.70798913576462
 30
0.0
 10
267.5172102058652
 20
72.5375321387566
 30
0.0
 10
269.8641950504655
 20
71.1484845216164
 30
0.0
 10
272.2128185637562
 20
69.76036071869632
 30
0.0
 10
274.5630518116114
 20
68.3731457068936
 30
0.0
 10
276.9149011993915
 20
66.98684430642946
 30
0.0
 10
279.2683636623384
 20
65.60145601998937
 30
0.0
 10
281.6234386732769
 20
64.21698177398929
 30
0.0
 10
283.9801250232774
 20
62.83342211334911
 30
0.0
 10
286.338421685948
 20
61.45077768422772
 30
0.0
 10
288.6983275847096
 20
60.06904910534197
 30
0.0
 10
291.0598416555932
 20
58.68823700218454
 30
0.0
 10
293.4229628304582
 20
57.30834199783744
 30
0.0
 10
295.7876900409244
 20
55.92936471575374
 30
0.0
 10
298.1540222178941
 20
54.55130577868342
 30
0.0
 10
300.521958291677
 20
53.1741658089592
 30
0.0
 10
302.8914971921658
 20
51.79794542830232
 30
0.0
 10
305.2626378479549
 20
50.42264525835274
 30
0.0
 10
307.6353791871215
 20
49.04826592021974
 30
0.0
 10
310.00972013668
 20
47.67480803478711
 30
0.0
 10
312.3856596239843
 20
46.3022722219141
 30
0.0
 10
314.7631965748258
 20
44.93065910152597
 30
0.0
 10
317.1423299142074
 20
43.55996929316822
 30
0.0
 10
319.523058566819
 20
42.19020341574012
 30
0.0
 10
321.905381455946
 20
40.82136208810863
 30
0.0
 10
324.289297505442
 20
39.45344592799152
 30
0.0
 10
326.6748056368588
 20
38.08645555358783
 30
0.0
 10
329.0619047724778
 20
36.72039158185972
 30
0.0
 10
331.4505938326739
 20
35.35525463000458
 30
0.0
 10
333.8408717380213
 20
33.99104531435995
 30
0.0
 10
336.2327374074533
 20
32.62776425107475
 30
0.0
 10
338.6261897607311
 20
31.26541205608605
 30
0.0
 10
341.0212277132402
 20
29.9039893429596
 30
0.0
 10
343.4178501926058
 20
28.5434967325017
 30
0.0
 10
345.8160560771225
 20
27.1839348166745
 30
0.0
 10
348.2158444247151
 20
25.82530429370769
 30
0.0
 10
350.6172136206384
 20
24.46760546262952
 30
0.0
 10
353.0201645567436
 20
23.11084011056466
 30
0.0
 10
355.4246887685044
 20
21.75500446802328
 30
0.0
 10
357.8308127039614
 20
20.40011550250212
 30
0.0
 10
359.8693269819559
 20
19.25369119733314
 30
0.0
 10
361.1060438289903
 20
18.559041762823
 30
0.0
 10
361.5397386063489
 20
18.31544046268321
 30
0.0
  0
SPLINE
  5
120
330
1F
100
AcDbEntity
  8
0
  6
Continuous
 62
     7
370
    30
100
AcDbSpline
210
0.0
220
0.0
230
1.0
 70
     8
 71
     3
 72
    49
 73
    45
 74
     0
 42
0.000000001
 43
0.00000001
 40
0.0
 40
0.0
 40
0.0
 40
0.0
 40
0.0128164272988672
 40
0.0371672239900015
 40
0.0615180216555743
 40
0.0858688198237656
 40
0.1102196184847058
 40
0.1345704176408573
 40
0.1589212172890106
 40
0.1832720174272479
 40
0.2076228180415544
 40
0.2319736191389236
 40
0.2563244207147989
 40
0.2806752227722771
 40
0.3050260253019149
 40
0.3293768282902716
 40
0.3537276317407413
 40
0.3780784356625957
 40
0.402429240037574
 40
0.4267800448681651
 40
0.4511308501437938
 40
0.4754816558687501
 40
0.4998324620261222
 40
0.5241832686332284
 40
0.5485340756811987
 40
0.5728848831472038
 40
0.5972356910439589
 40
0.6215864993751095
 40
0.6459373081189822
 40
0.6702881172870384
 40
0.6946389268611767
 40
0.7189897368509913
 40
0.7433405472396675
 40
0.7676913580318125
 40
0.7920421692258925
 40
0.8163929808111692
 40
0.8407437927929275
 40
0.8650946051453109
 40
0.8894454178927762
 40
0.9137962310221402
 40
0.9381470445227305
 40
0.962497858384228
 40
0.9868486726260054
 40
1.0
 40
1.0
 40
1.0
 40
1.0
 10
263.448715364046
 20
188.2140281333855
 30
0.0
 10
263.4430038834491
 20
187.7292640562166
 30
0.0
 10
263.426440774737
 20
186.3234639359264
 30
0.0
 10
263.4002469207301
 20
183.9973131052562
 30
0.0
 10
263.3706586673682
 20
181.2358717243514
 30
0.0
 10
263.3426898617792
 20
178.4753420207156
 30
0.0
 10
263.3163130267203
 20
175.7157098428146
 30
0.0
 10
263.2915355407334
 20
172.9569805687743
 30
0.0
 10
263.2683554418119
 20
170.1991543381989
 30
0.0
 10
263.2467732698346
 20
167.442232694376
 30
0.0
 10
263.2267888933804
 20
164.686216803737
 30
0.0
 10
263.2084023599904
 20
161.93110793317
 30
0.0
 10
263.1916136683312
 20
159.1769073215045
 30
0.0
 10
263.1764228292567
 20
156.4236162150177
 30
0.0
 10
263.1628298494427
 20
153.6712358579686
 30
0.0
 10
263.1508347357681
 20
150.9197674947122
 30
0.0
 10
263.1404374941368
 20
148.1692123683455
 30
0.0
 10
263.1316381298022
 20
145.4195717217731
 30
0.0
 10
263.1244366472766
 20
142.6708467975082
 30
0.0
 10
263.1188330503587
 20
139.9230388384011
 30
0.0
 10
263.1148273421188
 20
137.1761490860347
 30
0.0
 10
263.1124195249115
 20
134.4301787823086
 30
0.0
 10
263.1116096003616
 20
131.6851291676543
 30
0.0
 10
263.1123975693797
 20
128.9410014825844
 30
0.0
 10
263.114783432152
 20
126.1977969674168
 30
0.0
 10
263.1187671881433
 20
123.4555168622216
 30
0.0
 10
263.1243488360929
 20
120.7141624061806
 30
0.0
 10
263.1315283740255
 20
117.9737348380169
 30
0.0
 10
263.1403057992387
 20
115.2342353960763
 30
0.0
 10
263.150681108313
 20
112.4956653191062
 30
0.0
 10
263.1626542970883
 20
109.7580258442467
 30
0.0
 10
263.1762253607525
 20
107.0213182093201
 30
0.0
 10
263.1913942935186
 20
104.2855436507237
 30
0.0
 10
263.2081610898174
 20
101.5507034054076
 30
0.0
 10
263.2265257398503
 20
98.81679870759011
 30
0.0
 10
263.2464882462001
 20
96.08383079881402
 30
0.0
 10
263.2680485618088
 20
93.35180089209186
 30
0.0
 10
263.2912068214687
 20
90.62071030699029
 30
0.0
 10
263.3159624778828
 20
87.8905599591652
 30
0.0
 10
263.3423175259431
 20
85.1613522716991
 30
0.0
 10
263.3702644695487
 20
82.43308403904584
 30
0.0
 10
263.3998312300133
 20
79.70577306359874
 30
0.0
 10
263.4261483936226
 20
77.3973384980056
 30
0.0
 10
263.4428576874595
 20
75.9981548798159
 30
0.0
 10
263.4487173366412
 20
75.5074863199329
 30
0.0
  0
LINE
  5
121
330
1F
100
AcDbEntity
  8
0
  6
Continuous
 62
     7
370
    30
100
AcDbLine
 10
362.5293400548
 20
18.3213151242
 30
0.0
 11
368.9269019383
 21
22.0145489868
 31
0.0
  0
LINE
  5
122
330
1F
100
AcDbEntity
  8
0
  6
Continuous
 62
     7
370
    30
100
AcDbLine
 10
270.3462474019
 20
192.7614384675
 30
0.0
 11
263.9486855184
 21
189.0682046049
 31
0.0
  0
ARC
  5
123
330
1F
100
AcDbEntity
  8
0
  6
Continuous
 62
     7
370
    30
100
AcDbCircle
 10
264.4486448848
 20
75.5195237023
 30
0.0
 40
0.9999999999998893
100
AcDbArc
 50
180.689707862
 51
239.3129788554
  0
LWPOLYLINE
  5
124
330
1F
100
AcDbEntity
  8
0
  6
Continuous
 62
     7
370
    30
100
AcDbPolyline
 90
      241
 70
   128
 43
0.0
 10
311.7283870903
 20
74.8124633974
 10
311.6487298091
 20
74.8596527204
 10
311.569127121
 20
74.909218009
 10
311.4896335818
 20
74.9611252935
 10
311.4103036722
 20
75.0153389994
 10
311.3311917612
 20
75.0718219713
 10
311.2523520679
 20
75.1305354985
 10
311.1738386254
 20
75.1914393418
 10
311.0957052426
 20
75.2544917606
 10
311.0180054684
 20
75.319649542
 10
310.9407925542
 20
75.3868680302
 10
310.864119418
 20
75.4561011569
 10
310.7880386077
 20
75.5273014732
 10
310.7126022653
 20
75.6004201819
 10
310.637862091
 20
75.6754071712
 10
310.5638693081
 20
75.7522110487
 10
310.4906746275
 20
75.8307791769
 10
310.4183282133
 20
75.9110577091
 10
310.3468796479
 20
75.9929916264
 10
310.2763778987
 20
76.0765247753
 10
310.2068712841
 20
76.1615999066
 10
310.1384074405
 20
76.2481587138
 10
310.0710332894
 20
76.3361418739
 10
310.0047950059
 20
76.4254890876
 10
309.9397379863
 20
76.5161391209
 10
309.8759068175
 20
76.6080298468
 10
309.8133452461
 20
76.7010982878
 10
309.7520961487
 20
76.7952806596
 10
309.6922015024
 20
76.8905124143
 10
309.633702356
 20
76.9867282847
 10
309.5766388019
 20
77.0838623294
 10
309.5210499485
 20
77.1818479774
 10
309.4669738938
 20
77.2806180744
 10
309.4144476988
 20
77.3801049282
 10
309.3635073622
 20
77.4802403556
 10
309.314187796
 20
77.5809557286
 10
309.2665228015
 20
77.6821820221
 10
309.2205450458
 20
77.7838498605
 10
309.1762860397
 20
77.8858895658
 10
309.1337761162
 20
77.9882312051
 10
309.0930444095
 20
78.0908046386
 10
309.054118835
 20
78.1935395675
 10
309.0170260704
 20
78.2963655825
 10
308.9817915372
 20
78.3992122117
 10
308.9484393834
 20
78.5020089692
 10
308.9169924669
 20
78.6046854032
 10
308.8874723398
 20
78.7071711445
 10
308.8598992338
 20
78.8093959543
 10
308.8342920461
 20
78.9112897731
 10
308.8106683266
 20
79.0127827677
 10
308.7890442657
 20
79.11380538
 10
308.7694346836
 20
79.2142883742
 10
308.7518530197
 20
79.3141628841
 10
308.7363113236
 20
79.4133604609
 10
308.7228202467
 20
79.5118131194
 10
308.7113890352
 20
79.6094533851
 10
308.7020255235
 20
79.7062143402
 10
308.6947361289
 20
79.8020296697
 10
308.689525847
 20
79.8968337064
 10
308.6863982489
 20
79.9905614765
 10
308.685355478
 20
80.0831487436
 10
308.6863982489
 20
80.174532053
 10
308.689525847
 20
80.2646487751
 10
308.6947361289
 20
80.3534371485
 10
308.7020255235
 20
80.440836322
 10
308.7113890352
 20
80.5267863967
 10
308.7228202467
 20
80.6112284665
 10
308.7363113236
 20
80.6941046592
 10
308.7518530197
 20
80.7753581756
 10
308.7694346836
 20
80.8549333285
 10
308.7890442657
 20
80.9327755811
 10
308.8106683266
 20
81.0088315842
 10
308.8342920461
 20
81.0830492128
 10
308.8598992338
 20
81.1553776019
 10
308.8874723398
 20
81.2257671812
 10
308.9169924669
 20
81.2941697092
 10
308.9484393834
 20
81.3605383063
 10
308.9817915372
 20
81.4248274867
 10
309.0170260704
 20
81.4869931897
 10
309.054118835
 20
81.5469928103
 10
309.0930444095
 20
81.6047852275
 10
309.1337761162
 20
81.6603308334
 10
309.1762860397
 20
81.7135915598
 10
309.2205450458
 20
81.7645309044
 10
309.2665228015
 20
81.813113956
 10
309.314187796
 20
81.8593074182
 10
309.3635073622
 20
81.9030796322
 10
309.4144476988
 20
81.9444005989
 10
309.4669738938
 20
81.9832419987
 10
309.5210499485
 20
82.0195772119
 10
309.5766388019
 20
82.0533813361
 10
309.633702356
 20
82.0846312035
 10
309.6922015024
 20
82.1133053972
 10
309.7520961487
 20
82.1393842652
 10
309.8133452461
 20
82.1628499344
 10
309.8759068175
 20
82.1836863226
 10
309.9397379863
 20
82.2018791496
 10
310.0047950059
 20
82.2174159469
 10
310.0710332894
 20
82.2302860663
 10
310.1384074405
 20
82.2404806875
 10
310.2068712841
 20
82.2479928233
 10
310.2763778987
 20
82.2528173255
 10
310.3468796479
 20
82.2549508875
 10
310.4183282133
 20
82.2543920471
 10
310.4906746275
 20
82.2511411874
 10
310.5638693081
 20
82.2452005362
 10
310.637862091
 20
82.236574165
 10
310.7126022653
 20
82.2252679859
 10
310.7880386077
 20
82.2112897476
 10
310.864119418
 20
82.19464903
 10
310.9407925542
 20
82.175357238
 10
311.0180054684
 20
82.153427593
 10
311.0957052426
 20
82.1288751247
 10
311.1738386254
 20
82.10171666
 10
311.2523520679
 20
82.0719708119
 10
311.3311917612
 20
82.0396579669
 10
311.4103036722
 20
82.0048002705
 10
311.4896335818
 20
81.9674216125
 10
311.569127121
 20
81.9275476102
 10
311.6487298091
 20
81.8852055914
 10
311.7283870903
 20
81.8404245752
 10
311.8080443715
 20
81.7932352522
 10
311.8876470596
 20
81.7436699636
 10
311.9671405989
 20
81.691762679
 10
312.0464705084
 20
81.6375489731
 10
312.1255824195
 20
81.5810660013
 10
312.2044221127
 20
81.5223524741
 10
312.2829355553
 20
81.4614486308
 10
312.3610689381
 20
81.398396212
 10
312.4387687123
 20
81.3332384305
 10
312.5159816265
 20
81.2660199424
 10
312.5926547627
 20
81.1967868157
 10
312.668735573
 20
81.1255864994
 10
312.7441719154
 20
81.0524677906
 10
312.8189120897
 20
80.9774808013
 10
312.8929048726
 20
80.9006769238
 10
312.9660995531
 20
80.8221087956
 10
313.0384459674
 20
80.7418302635
 10
313.1098945328
 20
80.6598963462
 10
313.1803962819
 20
80.5763631972
 10
313.2499028965
 20
80.491288066
 10
313.3183667402
 20
80.4047292588
 10
313.3857408912
 20
80.3167460987
 10
313.4519791747
 20
80.2273988849
 10
313.5170361943
 20
80.1367488516
 10
313.5808673632
 20
80.0448581258
 10
313.6434289346
 20
79.9517896847
 10
313.704678032
 20
79.8576073129
 10
313.7645726783
 20
79.7623755583
 10
313.8230718247
 20
79.6661596879
 10
313.8801353788
 20
79.5690256432
 10
313.9357242321
 20
79.4710399952
 10
313.9898002868
 20
79.3722698982
 10
314.0423264819
 20
79.2727830443
 10
314.0932668185
 20
79.172647617
 10
314.1425863846
 20
79.071932244
 10
314.1902513792
 20
78.9707059505
 10
314.2362291349
 20
78.8690381121
 10
314.280488141
 20
78.7669984067
 10
314.3229980644
 20
78.6646567674
 10
314.3637297712
 20
78.5620833339
 10
314.4026553457
 20
78.459348405
 10
314.4397481103
 20
78.3565223901
 10
314.4749826435
 20
78.2536757609
 10
314.5083347973
 20
78.1508790034
 10
314.5397817138
 20
78.0482025694
 10
314.5693018409
 20
77.9457168281
 10
314.5968749469
 20
77.8434920182
 10
314.6224821346
 20
77.7415981995
 10
314.6461058541
 20
77.6401052049
 10
314.6677299149
 20
77.5390825926
 10
314.687339497
 20
77.4385995984
 10
314.7049211609
 20
77.3387250885
 10
314.7204628571
 20
77.2395275117
 10
314.7339539339
 20
77.1410748532
 10
314.7453851454
 20
77.0434345875
 10
314.7547486571
 20
76.9466736323
 10
314.7620380518
 20
76.8508583029
 10
314.7672483336
 20
76.7560542661
 10
314.7703759318
 20
76.662326496
 10
314.7714187027
 20
76.569739229
 10
314.7703759318
 20
76.4783559196
 10
314.7672483336
 20
76.3882391974
 10
314.7620380518
 20
76.2994508241
 10
314.7547486571
 20
76.2120516505
 10
314.7453851454
 20
76.1261015759
 10
314.7339539339
 20
76.041659506
 10
314.7204628571
 20
75.9587833133
 10
314.7049211609
 20
75.877529797
 10
314.687339497
 20
75.7979546441
 10
314.6677299149
 20
75.7201123915
 10
314.6461058541
 20
75.6440563884
 10
314.6224821346
 20
75.5698387598
 10
314.5968749469
 20
75.4975103707
 10
314.5693018409
 20
75.4271207913
 10
314.5397817138
 20
75.3587182633
 10
314.5083347973
 20
75.2923496663
 10
314.4749826435
 20
75.2280604859
 10
314.4397481103
 20
75.1658947828
 10
314.4026553457
 20
75.1058951623
 10
314.3637297712
 20
75.0481027451
 10
314.3229980644
 20
74.9925571392
 10
314.280488141
 20
74.9392964128
 10
314.2362291349
 20
74.8883570681
 10
314.1902513792
 20
74.8397740165
 10
314.1425863846
 20
74.7935805544
 10
314.0932668185
 20
74.7498083403
 10
314.0423264819
 20
74.7084873737
 10
313.9898002868
 20
74.6696459738
 10
313.9357242321
 20
74.6333107606
 10
313.8801353788
 20
74.5995066365
 10
313.8230718247
 20
74.568256769
 10
313.7645726783
 20
74.5395825754
 10
313.704678032
 20
74.5135037074
 10
313.6434289346
 20
74.4900380382
 10
313.5808673632
 20
74.46920165
 10
313.5170361943
 20
74.451008823
 10
313.4519791747
 20
74.4354720257
 10
313.3857408912
 20
74.4226019062
 10
313.3183667402
 20
74.4124072851
 10
313.2499028965
 20
74.4048951492
 10
313.1803962819
 20
74.4000706471
 10
313.1098945328
 20
74.397937085
 10
313.0384459674
 20
74.3984959254
 10
312.9660995531
 20
74.4017467852
 10
312.8929048726
 20
74.4076874364
 10
312.8189120897
 20
74.4163138076
 10
312.7441719154
 20
74.4276199867
 10
312.668735573
 20
74.441598225
 10
312.5926547627
 20
74.4582389425
 10
312.5159816265
 20
74.4775307346
 10
312.4387687123
 20
74.4994603795
 10
312.3610689381
 20
74.5240128479
 10
312.2829355553
 20
74.5511713126
 10
312.2044221127
 20
74.5809171606
 10
312.1255824195
 20
74.6132300056
 10
312.0464705084
 20
74.648087702
 10
311.9671405989
 20
74.6854663601
 10
311.8876470596
 20
74.7253403624
 10
311.8080443715
 20
74.7676823812
 10
311.7283870903
 20
74.8124633974
  0
LWPOLYLINE
  5
125
330
1F
100
AcDbEntity
  8
0
  6
Continuous
 62
     7
370
    30
100
AcDbPolyline
 90
        3
 70
   128
 43
0.0
 10
309.5402779788
 20
82.2625038231
 10
309.5757218463
 20
82.2858829822
 10
309.6169536473
 20
82.3113277921
  0
LWPOLYLINE
  5
126
330
1F
100
AcDbEntity
  8
0
  6
Continuous
 62
     7
370
    30
100
AcDbPolyline
 90
        3
 70
   128
 43
0.0
 10
314.123680647
 20
74.5054229224
 10
314.0810442377
 20
74.4824357186
 10
314.0457719176
 20
74.4647277763
  0
LWPOLYLINE
  5
127
330
1F
100
AcDbEntity
  8
0
  6
Continuous
 62
     7
370
    30
100
AcDbPolyline
 90
      122
 70
   128
 43
0.0
 10
309.6675544096
 20
82.1058670346
 10
309.724443105
 20
82.1370159416
 10
309.7829422598
 20
82.1656901394
 10
309.8428369147
 20
82.1917690111
 10
309.9040860209
 20
82.2152346837
 10
309.9666476013
 20
82.2360710749
 10
310.0304787793
 20
82.2542639045
 10
310.0955358083
 20
82.269800704
 10
310.1617741013
 20
82.2826708253
 10
310.229148262
 20
82.2928654479
 10
310.2976121155
 20
82.3003775849
 10
310.3671187401
 20
82.3052020877
 10
310.4376204994
 20
82.3073356501
 10
310.5090690751
 20
82.3067768096
 10
310.5814154997
 20
82.3035259494
 10
310.6546101908
 20
82.2975852973
 10
310.7286029843
 20
82.2889589249
 10
310.8033431693
 20
82.2776527442
 10
310.8787795226
 20
82.2636745039
 10
310.9548603438
 20
82.2470337839
 10
311.0315334911
 20
82.2277419891
 10
311.1087464163
 20
82.205812341
 10
311.1864462017
 20
82.1812598691
 10
311.2645795957
 20
82.1541014005
 10
311.3430930496
 20
82.1243555482
 10
311.4219327541
 20
82.0920426985
 10
311.5010446765
 20
82.0571849971
 10
311.5803745975
 20
82.0198063337
 10
311.6598681482
 20
81.9799323257
 10
311.7394708477
 20
81.9375903008
 10
311.8191281404
 20
81.8928092782
 10
311.898785433
 20
81.8456199484
 10
311.9783881326
 20
81.7960546527
 10
312.0578816832
 20
81.7441473607
 10
312.1372116042
 20
81.689933647
 10
312.2163235266
 20
81.633450667
 10
312.2951632311
 20
81.5747371313
 10
312.373676685
 20
81.5138332793
 10
312.451810079
 20
81.4507808514
 10
312.5295098644
 20
81.3856230606
 10
312.6067227897
 20
81.3184045628
 10
312.6833959369
 20
81.2491714262
 10
312.7594767581
 20
81.1779710996
 10
312.8349131114
 20
81.1048523804
 10
312.9096532964
 20
81.0298653803
 10
312.9836460899
 20
80.9530614918
 10
313.056840781
 20
80.8744933523
 10
313.1291872057
 20
80.7942148086
 10
313.2006357813
 20
80.7122808795
 10
313.2711375406
 20
80.6287477186
 10
313.3406441652
 20
80.5436725751
 10
313.4091080187
 20
80.4571137555
 10
313.4764821794
 20
80.3691305827
 10
313.5427204724
 20
80.2797833561
 10
313.6077775014
 20
80.1891333098
 10
313.6716086794
 20
80.0972425708
 10
313.7341702598
 20
80.0041741164
 10
313.795419366
 20
79.909991731
 10
313.8553140209
 20
79.8147599627
 10
313.9138131757
 20
79.7185440784
 10
313.970876738
 20
79.6214100198
 10
314.0264655993
 20
79.5234243577
 10
314.0805416618
 20
79.4246542465
 10
314.1330678644
 20
79.3251673784
 10
314.1840082083
 20
79.2250319367
 10
314.2333277815
 20
79.1243165492
 10
314.2809927829
 20
79.0230902412
 10
314.3269705453
 20
78.9214223881
 10
314.3712295577
 20
78.8193826681
 10
314.4137394873
 20
78.7170410141
 10
314.4544711999
 20
78.6144675659
 10
314.4933967799
 20
78.5117326222
 10
314.5304895499
 20
78.4089065925
 10
314.5657240881
 20
78.3060599485
 10
314.5990762467
 20
78.2032631762
 10
314.6305231678
 20
78.1005867275
 10
314.6600432991
 20
77.9981009715
 10
314.6876164091
 20
77.8958761469
 10
314.7132236004
 20
77.7939823135
 10
314.7368473234
 20
77.6924893043
 10
314.7584713873
 20
77.5914666775
 10
314.7780809722
 20
77.4909836689
 10
314.7956626386
 20
77.3911091446
 10
314.811204337
 20
77.2919115536
 10
314.8246954158
 20
77.193458881
 10
314.8361266289
 20
77.0958186012
 10
314.845490142
 20
76.9990576322
 10
314.8527795377
 20
76.9032422889
 10
314.8579898203
 20
76.8084382386
 10
314.8611174189
 20
76.714710455
 10
314.86216019
 20
76.6221231746
 10
314.8611174189
 20
76.5307398521
 10
314.8579898203
 20
76.440623117
 10
314.8527795377
 20
76.3518347309
 10
314.845490142
 20
76.2644355448
 10
314.8361266289
 20
76.1784854578
 10
314.8246954158
 20
76.0940433758
 10
314.811204337
 20
76.0111671712
 10
314.7956626386
 20
75.9299136432
 10
314.7780809722
 20
75.8503384789
 10
314.7584713873
 20
75.7724962151
 10
314.7368473234
 20
75.696440201
 10
314.7132236004
 20
75.6222225617
 10
314.6876164091
 20
75.5498941622
 10
314.6600432991
 20
75.4795045728
 10
314.6305231678
 20
75.411102035
 10
314.5990762467
 20
75.3447334284
 10
314.5657240881
 20
75.2804442388
 10
314.5304895499
 20
75.2182785268
 10
314.4933967799
 20
75.1582788976
 10
314.4544711999
 20
75.1004864721
 10
314.4137394873
 20
75.0449408582
 10
314.3712295577
 20
74.9916801241
 10
314.3269705453
 20
74.9407407722
 10
314.2809927829
 20
74.8921577136
 10
314.2333277815
 20
74.8459642448
 10
314.1840082083
 20
74.8021920245
 10
314.1330678644
 20
74.7608710519
 10
314.0805416618
 20
74.7220296465
 10
314.0264655993
 20
74.6856944281
 10
313.970876738
 20
74.651890299
 10
313.9707018711
 20
74.6517893341
  0
LWPOLYLINE
  5
128
330
1F
100
AcDbEntity
  8
0
  6
Continuous
 62
     7
370
    30
100
AcDbPolyline
 90
      241
 70
   128
 43
0.0
 10
311.7283870903
 20
102.2539448723
 10
311.8080443715
 20
102.2067555493
 10
311.8876470596
 20
102.1571902607
 10
311.9671405989
 20
102.1052829762
 10
312.0464705084
 20
102.0510692703
 10
312.1255824195
 20
101.9945862984
 10
312.2044221127
 20
101.9358727712
 10
312.2829355553
 20
101.874968928
 10
312.3610689381
 20
101.8119165091
 10
312.4387687123
 20
101.7467587277
 10
312.5159816265
 20
101.6795402395
 10
312.5926547627
 20
101.6103071128
 10
312.668735573
 20
101.5391067965
 10
312.7441719154
 20
101.4659880878
 10
312.8189120897
 20
101.3910010985
 10
312.8929048725
 20
101.314197221
 10
312.9660995531
 20
101.2356290928
 10
313.0384459674
 20
101.1553505606
 10
313.1098945328
 20
101.0734166433
 10
313.1803962819
 20
100.9898834944
 10
313.2499028965
 20
100.9048083632
 10
313.3183667402
 20
100.8182495559
 10
313.3857408912
 20
100.7302663958
 10
313.4519791747
 20
100.6409191821
 10
313.5170361943
 20
100.5502691488
 10
313.5808673632
 20
100.4583784229
 10
313.6434289346
 20
100.3653099819
 10
313.704678032
 20
100.2711276101
 10
313.7645726783
 20
100.1758958554
 10
313.8230718247
 20
100.079679985
 10
313.8801353788
 20
99.9825459403
 10
313.9357242321
 20
99.8845602923
 10
313.9898002868
 20
99.7857901953
 10
314.0423264819
 20
99.6863033415
 10
314.0932668185
 20
99.5861679141
 10
314.1425863846
 20
99.4854525411
 10
314.1902513792
 20
99.3842262477
 10
314.2362291349
 20
99.2825584092
 10
314.280488141
 20
99.1805187039
 10
314.3229980644
 20
99.0781770646
 10
314.3637297712
 20
98.9756036311
 10
314.4026553457
 20
98.8728687022
 10
314.4397481103
 20
98.7700426872
 10
314.4749826435
 20
98.667196058
 10
314.5083347973
 20
98.5643993005
 10
314.5397817138
 20
98.4617228665
 10
314.5693018409
 20
98.3592371252
 10
314.5968749469
 20
98.2570123154
 10
314.6224821346
 20
98.1551184966
 10
314.6461058541
 20
98.053625502
 10
314.6677299149
 20
97.9526028897
 10
314.687339497
 20
97.8521198956
 10
314.7049211609
 20
97.7522453856
 10
314.7204628571
 20
97.6530478088
 10
314.7339539339
 20
97.5545951503
 10
314.7453851454
 20
97.4569548846
 10
314.7547486571
 20
97.3601939295
 10
314.7620380518
 20
97.2643786
 10
314.7672483336
 20
97.1695745633
 10
314.7703759318
 20
97.0758467932
 10
314.7714187027
 20
96.9832595261
 10
314.7703759318
 20
96.8918762167
 10
314.7672483336
 20
96.8017594946
 10
314.7620380518
 20
96.7129711212
 10
314.7547486571
 20
96.6255719477
 10
314.7453851454
 20
96.539621873
 10
314.7339539339
 20
96.4551798032
 10
314.7204628571
 20
96.3723036105
 10
314.7049211609
 20
96.2910500941
 10
314.687339497
 20
96.2114749412
 10
314.6677299149
 20
96.1336326886
 10
314.6461058541
 20
96.0575766855
 10
314.6224821346
 20
95.9833590569
 10
314.5968749469
 20
95.9110306678
 10
314.5693018409
 20
95.8406410885
 10
314.5397817138
 20
95.7722385605
 10
314.5083347973
 20
95.7058699634
 10
314.4749826435
 20
95.641580783
 10
314.4397481103
 20
95.57941508
 10
314.4026553457
 20
95.5194154594
 10
314.3637297712
 20
95.4616230422
 10
314.3229980644
 20
95.4060774363
 10
314.280488141
 20
95.3528167099
 10
314.2362291349
 20
95.3018773653
 10
314.1902513792
 20
95.2532943137
 10
314.1425863846
 20
95.2071008515
 10
314.0932668185
 20
95.1633286375
 10
314.0423264819
 20
95.1220076708
 10
313.9898002868
 20
95.083166271
 10
313.9357242321
 20
95.0468310578
 10
313.8801353788
 20
95.0130269336
 10
313.8230718247
 20
94.9817770662
 10
313.7645726783
 20
94.9531028725
 10
313.704678032
 20
94.9270240045
 10
313.6434289346
 20
94.9035583353
 10
313.5808673632
 20
94.8827219471
 10
313.5170361943
 20
94.8645291201
 10
313.4519791747
 20
94.8489923228
 10
313.3857408912
 20
94.8361222034
 10
313.3183667402
 20
94.8259275823
 10
313.2499028965
 20
94.8184154464
 10
313.1803962819
 20
94.8135909442
 10
313.1098945328
 20
94.8114573822
 10
313.0384459674
 20
94.8120162226
 10
312.9660995531
 20
94.8152670823
 10
312.8929048725
 20
94.8212077335
 10
312.8189120897
 20
94.8298341047
 10
312.7441719154
 20
94.8411402838
 10
312.668735573
 20
94.8551185221
 10
312.5926547627
 20
94.8717592397
 10
312.5159816265
 20
94.8910510317
 10
312.4387687123
 20
94.9129806767
 10
312.3610689381
 20
94.937533145
 10
312.2829355553
 20
94.9646916097
 10
312.2044221127
 20
94.9944374578
 10
312.1255824195
 20
95.0267503028
 10
312.0464705084
 20
95.0616079992
 10
311.9671405989
 20
95.0989866572
 10
311.8876470596
 20
95.1388606595
 10
311.8080443715
 20
95.1812026783
 10
311.7283870903
 20
95.2259836945
 10
311.6487298091
 20
95.2731730175
 10
311.569127121
 20
95.3227383061
 10
311.4896335818
 20
95.3746455907
 10
311.4103036722
 20
95.4288592966
 10
311.3311917612
 20
95.4853422684
 10
311.2523520679
 20
95.5440557956
 10
311.1738386254
 20
95.6049596389
 10
311.0957052426
 20
95.6680120577
 10
311.0180054684
 20
95.7331698392
 10
310.9407925542
 20
95.8003883274
 10
310.864119418
 20
95.869621454
 10
310.7880386077
 20
95.9408217703
 10
310.7126022653
 20
96.0139404791
 10
310.637862091
 20
96.0889274684
 10
310.5638693081
 20
96.1657313459
 10
310.4906746275
 20
96.2442994741
 10
310.4183282133
 20
96.3245780062
 10
310.3468796479
 20
96.4065119235
 10
310.2763778987
 20
96.4900450725
 10
310.2068712841
 20
96.5751202037
 10
310.1384074405
 20
96.6616790109
 10
310.0710332894
 20
96.749662171
 10
310.0047950059
 20
96.8390093848
 10
309.9397379863
 20
96.9296594181
 10
309.8759068175
 20
97.0215501439
 10
309.8133452461
 20
97.114618585
 10
309.7520961487
 20
97.2088009568
 10
309.6922015024
 20
97.3040327114
 10
309.633702356
 20
97.4002485818
 10
309.5766388019
 20
97.4973826265
 10
309.5210499485
 20
97.5953682746
 10
309.4669738938
 20
97.6941383715
 10
309.4144476988
 20
97.7936252254
 10
309.3635073622
 20
97.8937606527
 10
309.314187796
 20
97.9944760257
 10
309.2665228015
 20
98.0957023192
 10
309.2205450458
 20
98.1973701576
 10
309.1762860397
 20
98.299409863
 10
309.1337761162
 20
98.4017515023
 10
309.0930444095
 20
98.5043249358
 10
309.054118835
 20
98.6070598647
 10
309.0170260704
 20
98.7098858796
 10
308.9817915372
 20
98.8127325088
 10
308.9484393834
 20
98.9155292663
 10
308.9169924669
 20
99.0182057003
 10
308.8874723398
 20
99.1206914416
 10
308.8598992338
 20
99.2229162515
 10
308.8342920461
 20
99.3248100702
 10
308.8106683266
 20
99.4263030648
 10
308.7890442657
 20
99.5273256772
 10
308.7694346836
 20
99.6278086713
 10
308.7518530197
 20
99.7276831812
 10
308.7363113236
 20
99.826880758
 10
308.7228202467
 20
99.9253334165
 10
308.7113890352
 20
100.0229736822
 10
308.7020255235
 20
100.1197346374
 10
308.6947361289
 20
100.2155499668
 10
308.689525847
 20
100.3103540036
 10
308.6863982489
 20
100.4040817737
 10
308.685355478
 20
100.4966690407
 10
308.6863982489
 20
100.5880523501
 10
308.689525847
 20
100.6781690723
 10
308.6947361289
 20
100.7669574456
 10
308.7020255235
 20
100.8543566192
 10
308.7113890352
 20
100.9403066938
 10
308.7228202467
 20
101.0247487637
 10
308.7363113236
 20
101.1076249564
 10
308.7518530197
 20
101.1888784727
 10
308.7694346836
 20
101.2684536256
 10
308.7890442657
 20
101.3462958782
 10
308.8106683266
 20
101.4223518813
 10
308.8342920461
 20
101.4965695099
 10
308.8598992338
 20
101.5688978991
 10
308.8874723398
 20
101.6392874784
 10
308.9169924669
 20
101.7076900064
 10
308.9484393834
 20
101.7740586034
 10
308.9817915372
 20
101.8383477838
 10
309.0170260704
 20
101.9005134869
 10
309.054118835
 20
101.9605131074
 10
309.0930444095
 20
102.0183055246
 10
309.1337761162
 20
102.0738511306
 10
309.1762860397
 20
102.1271118569
 10
309.2205450458
 20
102.1780512016
 10
309.2665228015
 20
102.2266342532
 10
309.314187796
 20
102.2728277153
 10
309.3635073622
 20
102.3165999294
 10
309.4144476988
 20
102.357920896
 10
309.4669738938
 20
102.3967622959
 10
309.5210499485
 20
102.4330975091
 10
309.5766388019
 20
102.4669016332
 10
309.633702356
 20
102.4981515007
 10
309.6922015024
 20
102.5268256943
 10
309.7520961487
 20
102.5529045623
 10
309.8133452461
 20
102.5763702315
 10
309.8759068175
 20
102.5972066197
 10
309.9397379863
 20
102.6153994467
 10
310.0047950059
 20
102.630936244
 10
310.0710332894
 20
102.6438063635
 10
310.1384074405
 20
102.6540009846
 10
310.2068712841
 20
102.6615131205
 10
310.2763778987
 20
102.6663376226
 10
310.3468796479
 20
102.6684711847
 10
310.4183282133
 20
102.6679123443
 10
310.4906746275
 20
102.6646614845
 10
310.5638693081
 20
102.6587208333
 10
310.637862091
 20
102.6500944621
 10
310.7126022653
 20
102.638788283
 10
310.7880386077
 20
102.6248100447
 10
310.864119418
 20
102.6081693272
 10
310.9407925542
 20
102.5888775351
 10
311.0180054684
 20
102.5669478902
 10
311.0957052426
 20
102.5423954218
 10
311.1738386254
 20
102.5152369571
 10
311.2523520679
 20
102.4854911091
 10
311.3311917612
 20
102.4531782641
 10
311.4103036722
 20
102.4183205677
 10
311.4896335818
 20
102.3809419096
 10
311.569127121
 20
102.3410679074
 10
311.6487298091
 20
102.2987258886
 10
311.7283870903
 20
102.2539448723
  0
LWPOLYLINE
  5
129
330
1F
100
AcDbEntity
  8
0
  6
Continuous
 62
     7
370
    30
100
AcDbPolyline
 90
        3
 70
   128
 43
0.0
 10
309.5402779788
 20
102.6760241202
 10
309.5757218463
 20
102.6994032793
 10
309.6169536473
 20
102.7248480893
  0
LWPOLYLINE
  5
12A
330
1F
100
AcDbEntity
  8
0
  6
Continuous
 62
     7
370
    30
100
AcDbPolyline
 90
        3
 70
   128
 43
0.0
 10
314.123680647
 20
94.9189432196
 10
314.0810442377
 20
94.8959560157
 10
314.0457719176
 20
94.8782480734
  0
ARC
  5
12B
330
1F
100
AcDbEntity
  8
0
  6
Continuous
 62
     7
370
    30
100
AcDbCircle
 10
310.5583476433
 20
100.5446905915
 30
0.0
 40
2.166318493010631
100
AcDbArc
 50
54.4092132707
 51
114.2803283002
  0
LWPOLYLINE
  5
12C
330
1F
100
AcDbEntity
  8
0
  6
Continuous
 62
     7
370
    30
100
AcDbPolyline
 90
       92
 70
   128
 43
0.0
 10
313.9707018711
 20
95.0653086214
 10
313.970876738
 20
95.0654095864
 10
314.0264655993
 20
95.0992137154
 10
314.0805416618
 20
95.1355489338
 10
314.1330678644
 20
95.1743903392
 10
314.1840082083
 20
95.2157113118
 10
314.2333277815
 20
95.2594835321
 10
314.2809927829
 20
95.3056770009
 10
314.3269705453
 20
95.3542600595
 10
314.3712295577
 20
95.4051994115
 10
314.4137394873
 20
95.4584601455
 10
314.4544711999
 20
95.5140057594
 10
314.4933967799
 20
95.5717981849
 10
314.5304895499
 20
95.6317978141
 10
314.5657240881
 20
95.6939635261
 10
314.5990762467
 20
95.7582527157
 10
314.6305231678
 20
95.8246213223
 10
314.6600432991
 20
95.8930238601
 10
314.6876164091
 20
95.9634134496
 10
314.7132236004
 20
96.0357418491
 10
314.7368473234
 20
96.1099594884
 10
314.7584713873
 20
96.1860155024
 10
314.7780809722
 20
96.2638577662
 10
314.7956626386
 20
96.3434329305
 10
314.811204337
 20
96.4246864585
 10
314.8246954158
 20
96.5075626631
 10
314.8361266289
 20
96.5920047451
 10
314.845490142
 20
96.6779548321
 10
314.8527795377
 20
96.7653540182
 10
314.8579898203
 20
96.8541424043
 10
314.8611174189
 20
96.9442591394
 10
314.86216019
 20
97.0356424619
 10
314.8611174189
 20
97.1282297423
 10
314.8579898203
 20
97.2219575259
 10
314.8527795377
 20
97.3167615762
 10
314.845490142
 20
97.4125769195
 10
314.8361266289
 20
97.5093378885
 10
314.8246954158
 20
97.6069781683
 10
314.811204337
 20
97.7054308409
 10
314.7956626386
 20
97.8046284319
 10
314.7780809722
 20
97.9045029562
 10
314.7584713873
 20
98.0049859648
 10
314.7368473234
 20
98.1060085916
 10
314.7132236004
 20
98.2075016009
 10
314.6876164091
 20
98.3093954342
 10
314.6600432991
 20
98.4116202588
 10
314.6305231678
 20
98.5141060148
 10
314.5990762467
 20
98.6167824635
 10
314.5657240881
 20
98.7195792358
 10
314.5304895499
 20
98.8224258798
 10
314.4933967799
 20
98.9252519095
 10
314.4544711999
 20
99.0279868532
 10
314.4137394873
 20
99.1305603014
 10
314.3712295577
 20
99.2329019554
 10
314.3269705453
 20
99.3349416754
 10
314.2809927829
 20
99.4366095285
 10
314.2333277815
 20
99.5378358365
 10
314.1840082083
 20
99.638551224
 10
314.1330678644
 20
99.7386866657
 10
314.0805416618
 20
99.8381735338
 10
314.0264655993
 20
99.936943645
 10
313.970876738
 20
100.0349293071
 10
313.9138131757
 20
100.1320633658
 10
313.8553140209
 20
100.22827925
 10
313.795419366
 20
100.3235110183
 10
313.7341702598
 20
100.4176934037
 10
313.6716086794
 20
100.5107618581
 10
313.6077775014
 20
100.6026525971
 10
313.5427204724
 20
100.6933026435
 10
313.4764821794
 20
100.7826498701
 10
313.4091080187
 20
100.8706330428
 10
313.3406441652
 20
100.9571918625
 10
313.2711375406
 20
101.0422670059
 10
313.2006357813
 20
101.1258001669
 10
313.1291872057
 20
101.2077340959
 10
313.056840781
 20
101.2880126396
 10
312.9836460899
 20
101.3665807791
 10
312.9096532964
 20
101.4433846676
 10
312.8349131114
 20
101.5183716677
 10
312.7594767581
 20
101.591490387
 10
312.6833959369
 20
101.6626907135
 10
312.6067227897
 20
101.7319238501
 10
312.5295098644
 20
101.799142348
 10
312.451810079
 20
101.8643001388
 10
312.373676685
 20
101.9273525667
 10
312.2951632311
 20
101.9882564187
 10
312.2163235266
 20
102.0469699543
 10
312.1372116042
 20
102.1034529343
 10
312.0578816832
 20
102.157666648
 10
311.9783881326
 20
102.20957394
 10
311.898785433
 20
102.2591392357
 10
311.8191281404
 20
102.3063285655
  0
ARC
  5
12D
330
1F
100
AcDbEntity
  8
0
  6
Continuous
 62
     7
370
    30
100
AcDbCircle
 10
367.6006234769
 20
135.0861985682
 30
0.0
 40
1.534969742535089
100
AcDbArc
 50
2.5699753968
 51
57.4300247488
  0
SPLINE
  5
12E
330
1F
100
AcDbEntity
  8
0
  6
Continuous
 62
     7
370
    30
100
AcDbSpline
210
0.0
220
0.0
230
1.0
 70
     8
 71
     3
 72
   131
 73
   127
 74
     0
 42
0.000000001
 43
0.00000001
 40
0.0
 40
0.0
 40
0.0
 40
0.0
 40
0.0009039820989319
 40
0.0093975952671585
 40
0.0178846954831331
 40
0.0270794004954855
 40
0.0362782453283664
 40
0.045472950331166
 40
0.0512742150845012
 40
0.0570754798370582
 40
0.0653373842959218
 40
0.0736022911647154
 40
0.0818641956081416
 40
0.0887124251730601
 40
0.09556236389623
 40
0.1024105934516374
 40
0.1116648950532761
 40
0.1209191966443445
 40
0.130228203657325
 40
0.1387152751304077
 40
0.1472088597321893
 40
0.1557024442858276
 40
0.1641895156932046
 40
0.1733841950097651
 40
0.1825830143122217
 40
0.1917776935847153
 40
0.1975789446056464
 40
0.2033801956246123
 40
0.2118671331113041
 40
0.2203605836501815
 40
0.2288540341425934
 40
0.2373409715658791
 40
0.246535506208649
 40
0.2557341807861244
 40
0.2649287153944049
 40
0.2707298752568022
 40
0.2765310351178856
 40
0.285017826877517
 40
0.2935111315312875
 40
0.3020044361606419
 40
0.3104912278869559
 40
0.3196856030962331
 40
0.3288841181157002
 40
0.3380784933151857
 40
0.3438795517593382
 40
0.349680610203405
 40
0.3581673083620304
 40
0.3666605192444956
 40
0.3751537301352891
 40
0.3836404283052843
 40
0.3928346991953124
 40
0.4020331097522707
 40
0.4112273806614876
 40
0.4170283718757413
 40
0.4228293630911776
 40
0.4313160607927137
 40
0.4398092711101704
 40
0.4483024814650503
 40
0.4567891792176592
 40
0.4659834466176464
 40
0.4751818535853358
 40
0.48437612102508
 40
0.490177108659445
 40
0.4959780962957405
 40
0.504464886881876
 40
0.5129581900856826
 40
0.5214514933396047
 40
0.5299382839941305
 40
0.5391326502598472
 40
0.5483311560815556
 40
0.5575255223901789
 40
0.5633265716615992
 40
0.5691276209348508
 40
0.5776145570422577
 40
0.586108005877981
 40
0.5946014547545476
 40
0.6030883909176952
 40
0.6122829150786845
 40
0.6214815788766036
 40
0.6306761030648427
 40
0.6364772521788206
 40
0.6422784012937336
 40
0.6507654717871597
 40
0.6592590551799614
 40
0.6677526385864383
 40
0.676239709098528
 40
0.6854343809898752
 40
0.6946331926562715
 40
0.7038278645472684
 40
0.7096291079553793
 40
0.7154303513631113
 40
0.7236922559231503
 40
0.7319571628807652
 40
0.740219067430774
 40
0.7470672965144107
 40
0.7539172347450067
 40
0.76076546382137
 40
0.7700197638727296
 40
0.7792740639153181
 40
0.7885830689203671
 40
0.7970701698836393
 40
0.8055637839761727
 40
0.8140573980245837
 40
0.8225444989276495
 40
0.8317392096333563
 40
0.8409380603212419
 40
0.8501327709838818
 40
0.8559340415741276
 40
0.8617353121623734
 40
0.8702222958497406
 40
0.8787157926244294
 40
0.8872092893497093
 40
0.8956962729696515
 40
0.9048908577417982
 40
0.9140895824743558
 40
0.9232841672070456
 40
0.9290853587680368
 40
0.9348865503274285
 40
0.9433733847477977
 40
0.95186673211662
 40
0.9603600794523968
 40
0.9688469138276762
 40
0.9780413359340615
 40
0.9872398978944855
 40
0.9964343199823147
 40
1.0
 40
1.0
 40
1.0
 40
1.0
 10
308.6740482279716
 20
80.17744505763383
 30
0.0
 10
308.6737775915589
 20
80.1827820612279
 30
0.0
 10
308.6709641160784
 20
80.23826435426875
 30
0.0
 10
308.6703048419877
 20
80.34136406170936
 30
0.0
 10
308.6725066197401
 20
80.49028625554259
 30
0.0
 10
308.6808097937314
 20
80.63947662756169
 30
0.0
 10
308.6949970319891
 20
80.78872345669
 30
0.0
 10
308.7125622234028
 20
80.91589588386641
 30
0.0
 10
308.7312065956386
 20
81.02244203517087
 30
0.0
 10
308.7516205620801
 20
81.12210163992454
 30
0.0
 10
308.7781077530564
 20
81.23114827046665
 30
0.0
 10
308.8120754532663
 20
81.34816038257766
 30
0.0
 10
308.8483611978237
 20
81.45452341834428
 30
0.0
 10
308.8860725271899
 20
81.55088163375405
 30
0.0
 10
308.9243832501641
 20
81.63793707756275
 30
0.0
 10
308.9705192135365
 20
81.73162393900694
 30
0.0
 10
309.0257789777281
 20
81.83037254557904
 30
0.0
 10
309.0916831089493
 20
81.93251943410854
 30
0.0
 10
309.1608111077274
 20
82.02563328101955
 30
0.0
 10
309.2325829862867
 20
82.11015901711119
 30
0.0
 10
309.306253688866
 20
82.18643600640709
 30
0.0
 10
309.3839239898671
 20
82.25698655743288
 30
0.0
 10
309.4677300254053
 20
82.32346877497667
 30
0.0
 10
309.5579564210205
 20
82.38517202516707
 30
0.0
 10
309.6548023101759
 20
82.44141614131797
 30
0.0
 10
309.7433123080853
 20
82.48443899699224
 30
0.0
 10
309.8217899391961
 20
82.51692795157919
 30
0.0
 10
309.8993304026176
 20
82.54494875709509
 30
0.0
 10
309.9896234865741
 20
82.57197518201679
 30
0.0
 10
310.093548106067
 20
82.59586163983093
 30
0.0
 10
310.2002700496442
 20
82.61339584118413
 30
0.0
 10
310.312641936591
 20
82.6248416318819
 30
0.0
 10
310.4307756569331
 20
82.62951192245508
 30
0.0
 10
310.5546964245561
 20
82.62678426462026
 30
0.0
 10
310.6655341318739
 20
82.61779559732055
 30
0.0
 10
310.7621771579821
 20
82.60544049779942
 30
0.0
 10
310.8564893515872
 20
82.59007023844158
 30
0.0
 10
310.9646966719449
 20
82.56782918035645
 30
0.0
 10
311.087157775988
 20
82.53663379118706
 30
0.0
 10
311.2108978024424
 20
82.4991764730966
 30
0.0
 10
311.3391651756996
 20
82.4542972460626
 30
0.0
 10
311.4718861773601
 20
82.40141000858506
 30
0.0
 10
311.6089093417579
 20
82.3400202268876
 30
0.0
 10
311.7295774885092
 20
82.28003539591258
 30
0.0
 10
311.8334891731885
 20
82.2242309309316
 30
0.0
 10
311.9339395181984
 20
82.16720408307701
 30
0.0
 10
312.0478611711746
 20
82.09820476007626
 30
0.0
 10
312.1750521240106
 20
82.01544635061889
 30
0.0
 10
312.301859482342
 20
81.92722231072038
 30
0.0
 10
312.4315612403472
 20
81.83107966920025
 30
0.0
 10
312.5639063974431
 20
81.7265993859845
 30
0.0
 10
312.6985839016465
 20
81.61347058623805
 30
0.0
 10
312.8154784008399
 20
81.50925403766443
 30
0.0
 10
312.9149438481195
 20
81.41629309546475
 30
0.0
 10
313.0102079382938
 20
81.3240398887153
 30
0.0
 10
313.1170010477947
 20
81.21606204681811
 30
0.0
 10
313.234583279906
 20
81.09107126744078
 30
0.0
 10
313.3501627083081
 20
80.9620272730516
 30
0.0
 10
313.4666773690686
 20
80.82546066081534
 30
0.0
 10
313.583727288571
 20
80.68116667675132
 30
0.0
 10
313.7008769055011
 20
80.52905313233919
 30
0.0
 10
313.8008202984599
 20
80.39235424446825
 30
0.0
 10
313.8846268818513
 20
80.27271716109178
 30
0.0
 10
313.9639656527117
 20
80.15563778686366
 30
0.0
 10
314.0515914367893
 20
80.02085403282902
 30
0.0
 10
314.1463098392101
 20
79.86772114624233
 30
0.0
 10
314.2376320200955
 20
79.71240434645868
 30
0.0
 10
314.3278248597703
 20
79.55080889807334
 30
0.0
 10
314.4163845019221
 20
79.38296740263465
 30
0.0
 10
314.502799974239
 20
79.20901673930028
 30
0.0
 10
314.5745256706957
 20
79.05524540170408
 30
0.0
 10
314.6332259048692
 20
78.92241866944596
 30
0.0
 10
314.6876952174454
 20
78.79371135667971
 30
0.0
 10
314.7462750189133
 20
78.64731580016618
 30
0.0
 10
314.8074510447346
 20
78.48330352062064
 30
0.0
 10
314.8642202589627
 20
78.31922285291907
 30
0.0
 10
314.9179228178337
 20
78.15081532107563
 30
0.0
 10
314.9680077736964
 20
77.97834720958866
 30
0.0
 10
315.0139463348826
 20
77.80216904167894
 30
0.0
 10
315.0493676431544
 20
77.6486600675608
 30
0.0
 10
315.076343309809
 20
77.51761741554378
 30
0.0
 10
315.0998016716141
 20
77.39179191777771
 30
0.0
 10
315.1227302459323
 20
77.25028878259835
 30
0.0
 10
315.1434656155965
 20
77.09388778120255
 30
0.0
 10
315.1592803523764
 20
76.9395417140201
 30
0.0
 10
315.1704367610973
 20
76.78330846119488
 30
0.0
 10
315.1763988932415
 20
76.62565799488688
 30
0.0
 10
315.1766797950931
 20
76.46711495346727
 30
0.0
 10
315.1718016869848
 20
76.33117540930559
 30
0.0
 10
315.1640104395267
 20
76.21669085997077
 30
0.0
 10
315.153925262775
 20
76.10915345317318
 30
0.0
 10
315.1389842013599
 20
75.99085682283038
 30
0.0
 10
315.1177334860741
 20
75.86307673644946
 30
0.0
 10
315.0933265869619
 20
75.74610431512099
 30
0.0
 10
315.0666623313415
 20
75.63939990771054
 30
0.0
 10
315.0385824074993
 20
75.54235326679873
 30
0.0
 10
315.0037461763223
 20
75.43716902071576
 30
0.0
 10
314.9607880181028
 20
75.3252949091762
 30
0.0
 10
314.9081248260348
 20
75.20824324690604
 30
0.0
 10
314.8516010213111
 20
75.10016802353638
 30
0.0
 10
314.7918030737068
 20
75.00069106777332
 30
0.0
 10
314.7294631154232
 20
74.90956990178779
 30
0.0
 10
314.662835342144
 20
74.82384240488851
 30
0.0
 10
314.5900614810279
 20
74.74144659858543
 30
0.0
 10
314.5108086463403
 20
74.66308396740398
 30
0.0
 10
314.4248271874809
 20
74.58943705046897
 30
0.0
 10
314.3454792848074
 20
74.53091112063461
 30
0.0
 10
314.2746073224002
 20
74.4849475770585
 30
0.0
 10
314.204208104625
 20
74.44380869004144
 30
0.0
 10
314.1217177530723
 20
74.40177534916617
 30
0.0
 10
314.0261127847045
 20
74.36096256892225
 30
0.0
 10
313.9272940151278
 20
74.32638186785049
 30
0.0
 10
313.8226013192252
 20
74.29732357901622
 30
0.0
 10
313.7118665057511
 20
74.27449074954708
 30
0.0
 10
313.595008862593
 20
74.25853184620814
 30
0.0
 10
313.4898890162655
 20
74.2511208445227
 30
0.0
 10
313.3978179918698
 20
74.24939314930104
 30
0.0
 10
313.3076642216891
 20
74.25117918134796
 30
0.0
 10
313.2038063245303
 20
74.25805526072973
 30
0.0
 10
313.0857159098152
 20
74.27215164384185
 30
0.0
 10
312.9658492174453
 20
74.29261212758878
 30
0.0
 10
312.8410411195183
 20
74.32017778279268
 30
0.0
 10
312.7113160315392
 20
74.35539990964004
 30
0.0
 10
312.5767374975962
 20
74.39910669515828
 30
0.0
 10
312.4687600155942
 20
74.4389947650789
 30
0.0
 10
312.405599425875
 20
74.46550037342828
 30
0.0
 10
312.3879498451108
 20
74.47290709457091
 30
0.0
  0
SPLINE
  5
12F
330
1F
100
AcDbEntity
  8
0
  6
Continuous
 62
     7
370
    30
100
AcDbSpline
210
0.0
220
0.0
230
1.0
 70
    11
 71
     3
 72
   175
 73
   171
 74
     0
 42
0.000000001
 43
0.00000001
 40
0.0
 40
0.0
 40
0.0
 40
0.0
 40
0.0060642332232487
 40
0.0121306702018024
 40
0.018194903424469
 40
0.0232214992702793
 40
0.028249349621847
 40
0.0332759454673927
 40
0.0400685951291291
 40
0.0468612447906376
 40
0.0536940473823704
 40
0.0599235993683913
 40
0.0661579319224484
 40
0.0723922644758185
 40
0.0786218164608986
 40
0.0853707530587456
 40
0.0921227283255411
 40
0.0988716649229924
 40
0.1031298081868277
 40
0.1073879514506536
 40
0.1136175017281452
 40
0.1198518325717039
 40
0.1260861634151973
 40
0.1323157136925989
 40
0.1390646484108221
 40
0.1458166217961018
 40
0.1525655565145206
 40
0.1568236985757754
 40
0.1610818406370438
 40
0.1677306783344167
 40
0.1743853298681884
 40
0.1810399814027331
 40
0.187688819101159
 40
0.1944573003776584
 40
0.2012319155133965
 40
0.2080065306503004
 40
0.2147750119283924
 40
0.221004562796422
 40
0.2272388942269478
 40
0.2334732256584557
 40
0.2397027765278248
 40
0.2464517117749745
 40
0.2532036856858137
 40
0.2599526209338595
 40
0.2642107632782913
 40
0.268468905622763
 40
0.2746984592236678
 40
0.2809327933886308
 40
0.2871671275545442
 40
0.2933966811567403
 40
0.3001456193548045
 40
0.3068975962176008
 40
0.3136465344163678
 40
0.3179046786201849
 40
0.32216282282403
 40
0.3283923793956492
 40
0.3346267165345549
 40
0.340861053673955
 40
0.347090610246255
 40
0.3538395516944954
 40
0.3605915318100079
 40
0.3673404732584451
 40
0.371598619529775
 40
0.3758567658011041
 40
0.3819210053832497
 40
0.3879874487242416
 40
0.3940516883063156
 40
0.3990782894438577
 40
0.4041061450888334
 40
0.409132746226286
 40
0.4159254030602262
 40
0.4227180598940395
 40
0.4295508697065965
 40
0.4357804281917544
 40
0.4420147672498656
 40
0.4482491063072137
 40
0.4544786647913285
 40
0.4612276084331347
 40
0.4679795907471612
 40
0.4747285343881569
 40
0.4789866821003509
 40
0.4832448298125079
 40
0.4894743864018647
 40
0.4957087235641331
 40
0.5019430607253828
 40
0.508172617313342
 40
0.5149215589371913
 40
0.5216735392334946
 40
0.5284224808564705
 40
0.5326806273105504
 40
0.5369387737645942
 40
0.5431683273862753
 40
0.5494026615786151
 40
0.5556369957701203
 40
0.5618665493906674
 40
0.5686154877944438
 40
0.5753674648690206
 40
0.5821164032722418
 40
0.5863745476901345
 40
0.590632692108008
 40
0.5968622429907574
 40
0.6030965744406722
 40
0.6093309058903124
 40
0.6155604567726808
 40
0.6223093921654909
 40
0.629061366226286
 40
0.6358103016191043
 40
0.640068444115116
 40
0.6443265866111346
 40
0.6505561361840461
 40
0.6567904663209376
 40
0.6630247964582269
 40
0.6692543460316829
 40
0.6760032799422167
 40
0.6827552525179885
 40
0.6895041864290898
 40
0.6937623279598042
 40
0.6980204694905515
 40
0.7042500197567697
 40
0.7104843505854734
 40
0.7167186814150769
 40
0.7229482316825226
 40
0.7296971662890835
 40
0.7364491395594115
 40
0.743198074166851
 40
0.7474562161119025
 40
0.7517143580569928
 40
0.7579439107158115
 40
0.7641782439379721
 40
0.7704125771611422
 40
0.7766421298213351
 40
0.7833910669971903
 40
0.7901430428372536
 40
0.7968919800139133
 40
0.8011501235713454
 40
0.8054082671288089
 40
0.8116378228309513
 40
0.8178721590992668
 40
0.8241064953682571
 40
0.8303360510713171
 40
0.8370849915637186
 40
0.8438369707224995
 40
0.8505859112152754
 40
0.8548440568764961
 40
0.8591022025377281
 40
0.8653317606001496
 40
0.8715660992323178
 40
0.8778004378645243
 40
0.8840299959270084
 40
0.8907789390297084
 40
0.897530920801733
 40
0.9042798639042183
 40
0.908538011238638
 40
0.9127961585730374
 40
0.9188603983649947
 40
0.9249268419164339
 40
0.9309910817080651
 40
0.9360176830453648
 40
0.941045538890658
 40
0.9460721402277584
 40
0.9528647973730192
 40
0.9596574545180598
 40
0.9664902646645191
 40
0.9706558530374629
 40
0.974821441410372
 40
0.9804056630668789
 40
0.9859916051394947
 40
0.9915758267955903
 40
0.9957879133978146
 40
0.9999999999999999
 40
0.9999999999999999
 40
0.9999999999999999
 40
0.9999999999999999
 10
309.5641578505123
 20
97.48975486084913
 30
0.0
 10
309.5937231347895
 20
97.43936230820141
 30
0.0
 10
309.6528644474309
 20
97.3385588901449
 30
0.0
 10
309.7456699602289
 20
97.19002521875922
 30
0.0
 10
309.8358494862538
 20
97.05205350899529
 30
0.0
 10
309.9230063107358
 20
96.92456152043353
 30
0.0
 10
310.006472016885
 20
96.80715368702866
 30
0.0
 10
310.1017800440627
 20
96.67823870795137
 30
0.0
 10
310.2096427222049
 20
96.53889065734347
 30
0.0
 10
310.3309825249428
 20
96.39017588155521
 30
0.0
 10
310.4517024127114
 20
96.24987863556537
 30
0.0
 10
310.5713626446328
 20
96.11780462375133
 30
0.0
 10
310.6892896200713
 20
95.99396384819906
 30
0.0
 10
310.8090080317573
 20
95.87443688959522
 30
0.0
 10
310.933678554245
 20
95.75625211953523
 30
0.0
 10
311.0632870329783
 20
95.64005555502911
 30
0.0
 10
311.1977380649575
 20
95.52650383277786
 30
0.0
 10
311.3167005767143
 20
95.43209931340671
 30
0.0
 10
311.4195354671715
 20
95.35472319932828
 30
0.0
 10
311.5192364434386
 20
95.28283436967402
 30
0.0
 10
311.6327172093472
 20
95.20538891710686
 30
0.0
 10
311.7599568906942
 20
95.12432723356181
 30
0.0
 10
311.8873527738953
 20
95.0489080752828
 30
0.0
 10
312.018214350862
 20
94.97734464365307
 30
0.0
 10
312.1523455414584
 20
94.91034694329927
 30
0.0
 10
312.2894836713878
 20
94.84859802164594
 30
0.0
 10
312.40908312484
 20
94.80069352978185
 30
0.0
 10
312.511254910269
 20
94.76397723209121
 30
0.0
 10
312.6122060762989
 20
94.73093814744196
 30
0.0
 10
312.7281885864251
 20
94.69784057265487
 30
0.0
 10
312.8584818744369
 20
94.6674177867395
 30
0.0
 10
312.9870410698402
 20
94.64421668637115
 30
0.0
 10
313.1143598317877
 20
94.6282041015201
 30
0.0
 10
313.240193924705
 20
94.61961107033193
 30
0.0
 10
313.3643183490501
 20
94.61855300935999
 30
0.0
 10
313.4857324094041
 20
94.62506737240531
 30
0.0
 10
313.601033257235
 20
94.63878312416055
 30
0.0
 10
313.7102977279097
 20
94.65903754504004
 30
0.0
 10
313.8136965942688
 20
94.68509620736113
 30
0.0
 10
313.9141118644943
 20
94.71747035064651
 30
0.0
 10
314.0140602061364
 20
94.75718824925019
 30
0.0
 10
314.1130650548423
 20
94.80485027472321
 30
0.0
 10
314.2106338120808
 20
94.8609667300966
 30
0.0
 10
314.2925038703355
 20
94.91641348007276
 30
0.0
 10
314.3601656013576
 20
94.96838417331368
 30
0.0
 10
314.4234652297305
 20
95.02176027470658
 30
0.0
 10
314.4922946800673
 20
95.08669683017781
 30
0.0
 10
314.5652254894352
 20
95.16502185783085
 30
0.0
 10
314.6340251849661
 20
95.2489281474788
 30
0.0
 10
314.700354295122
 20
95.34076014064478
 30
0.0
 10
314.7636703650748
 20
95.44095604873395
 30
0.0
 10
314.8234437854166
 20
95.54984677889536
 30
0.0
 10
314.8712011767541
 20
95.6504926844928
 30
0.0
 10
314.9089067570219
 20
95.74049202007942
 30
0.0
 10
314.9428168654562
 20
95.82996634477561
 30
0.0
 10
314.9777102231109
 20
95.93491063191398
 30
0.0
 10
315.0119514613215
 20
96.05667065493952
 30
0.0
 10
315.0413786733662
 20
96.1826495819639
 30
0.0
 10
315.06661049012
 20
96.3162423014691
 30
0.0
 10
315.0870993184948
 20
96.45767584716117
 30
0.0
 10
315.1023384061101
 20
96.60706428470581
 30
0.0
 10
315.1105987124153
 20
96.74156240699186
 30
0.0
 10
315.1140973459184
 20
96.8594435243251
 30
0.0
 10
315.1147860301335
 20
96.97363445481413
 30
0.0
 10
315.1119318810699
 20
97.10406550310371
 30
0.0
 10
315.1040495157508
 20
97.25135156151646
 30
0.0
 10
315.0921830590516
 20
97.39238102274042
 30
0.0
 10
315.0772273724752
 20
97.52653841678163
 30
0.0
 10
315.0600303386818
 20
97.65334647666171
 30
0.0
 10
315.0372586243932
 20
97.79629780109225
 30
0.0
 10
315.0074933473092
 20
97.95573452802512
 30
0.0
 10
314.9691053395524
 20
98.13221005379161
 30
0.0
 10
314.9262448162225
 20
98.30504055428804
 30
0.0
 10
314.8794980992197
 20
98.4738490643037
 30
0.0
 10
314.8295754509478
 20
98.63794812130014
 30
0.0
 10
314.7751176402728
 20
98.80232053007457
 30
0.0
 10
314.7145747594623
 20
98.97123995518945
 30
0.0
 10
314.647568024336
 20
99.1444605795401
 30
0.0
 10
314.5737985870342
 20
99.32165029044329
 30
0.0
 10
314.5048290196527
 20
99.47625473542158
 30
0.0
 10
314.4426307457557
 20
99.60838412720032
 30
0.0
 10
314.3804202665939
 20
99.73536575192225
 30
0.0
 10
314.3069418495884
 20
99.8783287335864
 30
0.0
 10
314.221034751104
 20
100.0365567032533
 30
0.0
 10
314.1315216032662
 20
100.1929217428006
 30
0.0
 10
314.0359719056772
 20
100.3514241258155
 30
0.0
 10
313.9341613456101
 20
100.5116104018682
 30
0.0
 10
313.8259528941054
 20
100.6729691648548
 30
0.0
 10
313.727957497845
 20
100.8115609392625
 30
0.0
 10
313.6416766282169
 20
100.9284500672583
 30
0.0
 10
313.5568633273426
 20
101.0396213856637
 30
0.0
 10
313.458701909265
 20
101.163141178966
 30
0.0
 10
313.3464952640194
 20
101.297659895841
 30
0.0
 10
313.2320188870684
 20
101.4283883318986
 30
0.0
 10
313.1122348837462
 20
101.5586037662361
 30
0.0
 10
312.987098925055
 20
101.6876958607085
 30
0.0
 10
312.8566511879868
 20
101.8150316786335
 30
0.0
 10
312.7406782454989
 20
101.9219855899798
 30
0.0
 10
312.6400423322643
 20
102.0104560766933
 30
0.0
 10
312.5421882975085
 20
102.093283363701
 30
0.0
 10
312.4304108634645
 20
102.1834340581269
 30
0.0
 10
312.3045551468454
 20
102.2790775785216
 30
0.0
 10
312.1780219100033
 20
102.3694307955818
 30
0.0
 10
312.0475083644155
 20
102.4566785063036
 30
0.0
 10
311.9131551622926
 20
102.5401222963612
 30
0.0
 10
311.7751751565517
 20
102.6190790578282
 30
0.0
 10
311.6542997566912
 20
102.6823368991521
 30
0.0
 10
311.5506547509036
 20
102.7324144011823
 30
0.0
 10
311.450792287299
 20
102.7775595449735
 30
0.0
 10
311.3380008914398
 20
102.8241773789217
 30
0.0
 10
311.2126853680414
 20
102.8701626751566
 30
0.0
 10
311.0883609190128
 20
102.9099540882931
 30
0.0
 10
310.9618322258578
 20
102.9443976156651
 30
0.0
 10
310.8334090641048
 20
102.9727855078583
 30
0.0
 10
310.7034529646159
 20
102.9944615009795
 30
0.0
 10
310.5913028679265
 20
103.0068914878563
 30
0.0
 10
310.4963339352079
 20
103.0129301967821
 30
0.0
 10
310.4057217516929
 20
103.0153034657267
 30
0.0
 10
310.3046327345949
 20
103.0131326709394
 30
0.0
 10
310.19398573825
 20
103.0042752854272
 30
0.0
 10
310.0858866736589
 20
102.9890187488755
 30
0.0
 10
309.9776079389518
 20
102.9667748802525
 30
0.0
 10
309.8695935079615
 20
102.9369063880818
 30
0.0
 10
309.7623128295605
 20
102.898857840796
 30
0.0
 10
309.6715320640716
 20
102.8590586120538
 30
0.0
 10
309.5959461920289
 20
102.82037772946
 30
0.0
 10
309.524800092145
 20
102.7797115623378
 30
0.0
 10
309.4468104415432
 20
102.7289968753551
 30
0.0
 10
309.3633065512231
 20
102.666295395285
 30
0.0
 10
309.2836201910584
 20
102.597710949188
 30
0.0
 10
309.2057989912996
 20
102.5212874900311
 30
0.0
 10
309.1303710696401
 20
102.4365300335094
 30
0.0
 10
309.0578608665097
 20
102.3430466005239
 30
0.0
 10
308.9986842514451
 20
102.2555051870694
 30
0.0
 10
308.9510031548339
 20
102.176465660415
 30
0.0
 10
308.9073443131905
 20
102.0973448254779
 30
0.0
 10
308.8612467702508
 20
102.0038038993123
 30
0.0
 10
308.8143004246111
 20
101.8943273884096
 30
0.0
 10
308.7720108121131
 20
101.7801473548447
 30
0.0
 10
308.7334209103393
 20
101.6581604133519
 30
0.0
 10
308.6990834400064
 20
101.5280696922934
 30
0.0
 10
308.6695187068657
 20
101.3896908576061
 30
0.0
 10
308.6486179764522
 20
101.2642768321402
 30
0.0
 10
308.6342173562971
 20
101.1537897179259
 30
0.0
 10
308.6229679999305
 20
101.0451344466505
 30
0.0
 10
308.613959744734
 20
100.9193132694073
 30
0.0
 10
308.608863827486
 20
100.7754043340379
 30
0.0
 10
308.6087388369818
 20
100.6285016068685
 30
0.0
 10
308.6137309932234
 20
100.4747042475845
 30
0.0
 10
308.624355317794
 20
100.3139469625897
 30
0.0
 10
308.6410692722002
 20
100.1462738647564
 30
0.0
 10
308.6608009705953
 20
99.99712663706376
 30
0.0
 10
308.6813041787295
 20
99.86764859113332
 30
0.0
 10
308.7034821079749
 20
99.7431205004016
 30
0.0
 10
308.7319373986273
 20
99.60209114454946
 30
0.0
 10
308.7680668895242
 20
99.44438444727501
 30
0.0
 10
308.8063666211264
 20
99.29481118179275
 30
0.0
 10
308.8459462111046
 20
99.15374415061143
 30
0.0
 10
308.885983161049
 20
99.02142130214078
 30
0.0
 10
308.9340211171364
 20
98.87337735940375
 30
0.0
 10
308.9913458670406
 20
98.70971081798288
 30
0.0
 10
309.0594637174012
 20
98.53036132672524
 30
0.0
 10
309.1232915652798
 20
98.37453884033934
 30
0.0
 10
309.1806839577454
 20
98.24224766374249
 30
0.0
 10
309.2353938418656
 20
98.12128578648397
 30
0.0
 10
309.2982865121082
 20
97.98864763868545
 30
0.0
 10
309.3701361468734
 20
97.84475340476831
 30
0.0
 10
309.4389591158494
 20
97.71376421475567
 30
0.0
 10
309.5036897924542
 20
97.59541286157294
 30
0.0
 10
309.5440018311602
 20
97.52497419442366
 30
0.0
 10
309.5641578505131
 20
97.48975486084923
 30
0.0
  0
LINE
  5
130
330
1F
100
AcDbEntity
  8
0
  6
Continuous
 62
     7
370
    30
100
AcDbLine
 10
369.1340493531
 20
135.1550258335
 30
0.0
 11
369.1340493531
 21
22.4723937933
 31
0.0
  0
LINE
  5
131
330
1F
100
AcDbEntity
  8
0
  6
Continuous
 62
     7
370
    30
100
AcDbLine
 10
270.8462067682
 20
192.7119304171
 30
0.0
 11
368.426942572
 21
136.3797707013
 31
0.0
  0
ARC
  5
132
330
1F
100
AcDbEntity
  8
0
  6
Continuous
 62
     7
370
    30
100
AcDbCircle
 10
368.6362360566
 20
22.421841245
 30
0.0
 40
0.5003734988760353
100
AcDbArc
 50
305.5137163071
 51
5.7984640863
  0
ARC
  5
133
330
1F
100
AcDbEntity
  8
0
  6
Continuous
 62
     7
370
    30
100
AcDbCircle
 10
270.5535924279
 20
192.3061363604
 30
0.0
 40
0.5002918834018587
100
AcDbArc
 50
54.2049753609
 51
114.48456621
  0
LWPOLYLINE
  5
134
330
1F
100
AcDbEntity
  8
0
  6
Continuous
 62
     8
370
     0
100
AcDbPolyline
 90
      123
 70
   128
 43
0.0
 10
309.6169536473
 20
82.3113277921
 10
309.6339376603
 20
82.3212845868
 10
309.6936978651
 20
82.3540112283
 10
309.7549615038
 20
82.3840404774
 10
309.8176865896
 20
82.4113517537
 10
309.8818301337
 20
82.4359263393
 10
309.9473481753
 20
82.4577473921
 10
310.0141958118
 20
82.4767999569
 10
310.0823272289
 20
82.4930709761
 10
310.151695733
 20
82.5065492985
 10
310.2222537822
 20
82.5172256865
 10
310.2939530196
 20
82.5250928231
 10
310.3667443062
 20
82.5301453166
 10
310.4405777543
 20
82.5323797043
 10
310.5154027623
 20
82.5317944548
 10
310.5911680489
 20
82.5283899693
 10
310.6678216882
 20
82.5221685809
 10
310.7453111458
 20
82.5131345536
 10
310.8235833141
 20
82.5012940787
 10
310.9025845495
 20
82.4866552712
 10
310.9822607083
 20
82.4692281638
 10
311.0625571845
 20
82.4490247001
 10
311.143418947
 20
82.4260587266
 10
311.2247905771
 20
82.4003459831
 10
311.3066163067
 20
82.3719040916
 10
311.3888400566
 20
82.340752545
 10
311.4714054748
 20
82.3069126928
 10
311.554255975
 20
82.2704077273
 10
311.6373347756
 20
82.2312626672
 10
311.7205849386
 20
82.1895043404
 10
311.8039494085
 20
82.1451613661
 10
311.8873710514
 20
82.0982641348
 10
311.9707926943
 20
82.0488447874
 10
312.0541571642
 20
81.9969371935
 10
312.1374073272
 20
81.942576928
 10
312.2204861278
 20
81.8858012467
 10
312.303336628
 20
81.8266490608
 10
312.3859020462
 20
81.7651609102
 10
312.4681257961
 20
81.7013789359
 10
312.5499515257
 20
81.6353468508
 10
312.6313231558
 20
81.5671099101
 10
312.7121849183
 20
81.4967148799
 10
312.7924813945
 20
81.4242100055
 10
312.8721575533
 20
81.3496449781
 10
312.9511587887
 20
81.2730709007
 10
313.029430957
 20
81.1945402536
 10
313.1069204146
 20
81.1141068576
 10
313.1835740539
 20
81.0318258378
 10
313.2593393405
 20
80.9477535855
 10
313.3341643485
 20
80.8619477196
 10
313.4079977966
 20
80.7744670472
 10
313.4807890832
 20
80.6853715232
 10
313.5524883206
 20
80.5947222091
 10
313.6230463698
 20
80.5025812315
 10
313.6924148739
 20
80.4090117392
 10
313.760546291
 20
80.31407786
 10
313.8273939275
 20
80.217844657
 10
313.8929119691
 20
80.1203780835
 10
313.9570555132
 20
80.0217449383
 10
314.019780599
 20
79.9220128195
 10
314.0810442377
 20
79.8212500787
 10
314.1408044425
 20
79.7195257734
 10
314.1990202565
 20
79.6169096206
 10
314.2556517817
 20
79.5134719482
 10
314.3106602055
 20
79.4092836472
 10
314.364007828
 20
79.3044161231
 10
314.4156580874
 20
79.1989412467
 10
314.4655755851
 20
79.0929313055
 10
314.5137261102
 20
78.9864589531
 10
314.5600766628
 20
78.8795971606
 10
314.6045954764
 20
78.7724191655
 10
314.6472520402
 20
78.6649984225
 10
314.6880171193
 20
78.5574085522
 10
314.7268627756
 20
78.4497232914
 10
314.763762386
 20
78.3420164422
 10
314.7986906615
 20
78.2343618215
 10
314.831623664
 20
78.1268332104
 10
314.8625388228
 20
78.0195043037
 10
314.8914149502
 20
77.9124486591
 10
314.918232256
 20
77.8057396473
 10
314.9429723609
 20
77.6994504014
 10
314.9656183094
 20
77.5936537666
 10
314.9861545809
 20
77.4884222507
 10
315.0045671009
 20
77.3838279741
 10
315.0208432505
 20
77.2799426205
 10
315.0349718748
 20
77.1768373877
 10
315.0469432907
 20
77.074582939
 10
315.0567492936
 20
76.9732493544
 10
315.0643831629
 20
76.8729060828
 10
315.0698396669
 20
76.7736218946
 10
315.0731150659
 20
76.6754648342
 10
315.074207115
 20
76.5785021735
 10
315.0731150659
 20
76.4828003659
 10
315.0698396669
 20
76.3884250006
 10
315.0643831629
 20
76.2954407577
 10
315.0567492936
 20
76.2039113642
 10
315.0469432907
 20
76.1138995495
 10
315.0349718748
 20
76.0254670033
 10
315.0208432505
 20
75.938674333
 10
315.0045671009
 20
75.8535810217
 10
314.9861545809
 20
75.7702453883
 10
314.9656183094
 20
75.6887245467
 10
314.9429723609
 20
75.6090743674
 10
314.918232256
 20
75.5313494386
 10
314.8914149502
 20
75.455603029
 10
314.8625388228
 20
75.3818870515
 10
314.831623664
 20
75.3102520274
 10
314.7986906615
 20
75.2407470516
 10
314.763762386
 20
75.1734197594
 10
314.7268627756
 20
75.1083162936
 10
314.6880171193
 20
75.0454812728
 10
314.6472520402
 20
74.9849577611
 10
314.6045954764
 20
74.9267872382
 10
314.5600766628
 20
74.8710095713
 10
314.5137261102
 20
74.8176629876
 10
314.4655755851
 20
74.7667840483
 10
314.4156580874
 20
74.7184076231
 10
314.364007828
 20
74.6725668669
 10
314.3106602055
 20
74.6292931966
 10
314.2556517817
 20
74.5886162699
 10
314.1990202565
 20
74.5505639646
 10
314.1408044425
 20
74.51516236
 10
314.123680647
 20
74.5054229224
  0
LWPOLYLINE
  5
135
330
1F
100
AcDbEntity
  8
0
  6
Continuous
 62
     8
370
     0
100
AcDbPolyline
 90
      169
 70
   128
 43
0.0
 10
312.321302849
 20
74.5375246853
 10
312.3870047373
 20
74.5128193252
 10
312.4670159939
 20
74.4850081284
 10
312.5465832205
 20
74.459865561
 10
312.6256518857
 20
74.4374088544
 10
312.7041677998
 20
74.4176533995
 10
312.782077152
 20
74.4006127355
 10
312.859326547
 20
74.3862985413
 10
312.935863042
 20
74.3747206272
 10
313.0116341826
 20
74.365886928
 10
313.0865880392
 20
74.359803498
 10
313.1606732421
 20
74.3564745064
 10
313.233839017
 20
74.3559022347
 10
313.3060352197
 20
74.3580870752
 10
313.3772123706
 20
74.3630275305
 10
313.4473216884
 20
74.3707202146
 10
313.5163151236
 20
74.3811598553
 10
313.5841453917
 20
74.3943392979
 10
313.6507660051
 20
74.4102495098
 10
313.7161313054
 20
74.4288795869
 10
313.7801964945
 20
74.4502167611
 10
313.8429176653
 20
74.474246409
 10
313.9042518318
 20
74.5009520619
 10
313.9641569588
 20
74.5303154171
 10
314.0225919901
 20
74.5623163503
 10
314.0795168774
 20
74.5969329297
 10
314.1348926071
 20
74.6341414309
 10
314.1886812275
 20
74.6739163529
 10
314.2408458747
 20
74.7162304362
 10
314.2913507974
 20
74.7610546806
 10
314.3401613822
 20
74.808358366
 10
314.3872441768
 20
74.8581090726
 10
314.4325669129
 20
74.910272704
 10
314.4760985287
 20
74.9648135096
 10
314.5178091896
 20
75.02169411
 10
314.5576703094
 20
75.0808755221
 10
314.5956545691
 20
75.1423171859
 10
314.6317359364
 20
75.2059769923
 10
314.6658896827
 20
75.271811312
 10
314.6980924009
 20
75.3397750256
 10
314.7283220207
 20
75.4098215541
 10
314.7565578245
 20
75.481902891
 10
314.7827804606
 20
75.5559696355
 10
314.8069719575
 20
75.6319710259
 10
314.8291157354
 20
75.7098549747
 10
314.8491966182
 20
75.789568104
 10
314.8672008435
 20
75.8710557825
 10
314.8831160719
 20
75.9542621625
 10
314.8969313961
 20
76.0391302187
 10
314.9086373477
 20
76.1256017867
 10
314.918225904
 20
76.2136176031
 10
314.9256904935
 20
76.3031173463
 10
314.9310260003
 20
76.3940396778
 10
314.9342287677
 20
76.4863222838
 10
314.9352966009
 20
76.5799019184
 10
314.9342287677
 20
76.6747144469
 10
314.9310260003
 20
76.7706948895
 10
314.9256904935
 20
76.867777466
 10
314.918225904
 20
76.9658956408
 10
314.9086373477
 20
77.0649821687
 10
314.8969313961
 20
77.1649691406
 10
314.8831160719
 20
77.2657880306
 10
314.8672008435
 20
77.3673697423
 10
314.8491966182
 20
77.4696446568
 10
314.8291157354
 20
77.5725426799
 10
314.8069719575
 20
77.6759932905
 10
314.7827804606
 20
77.7799255886
 10
314.7565578245
 20
77.8842683444
 10
314.7283220207
 20
77.9889500464
 10
314.6980924009
 20
78.093898951
 10
314.6658896827
 20
78.1990431316
 10
314.6317359364
 20
78.3043105275
 10
314.5956545691
 20
78.4096289938
 10
314.5576703094
 20
78.5149263503
 10
314.5178091896
 20
78.6201304317
 10
314.4760985287
 20
78.7251691362
 10
314.4325669129
 20
78.8299704755
 10
314.3872441768
 20
78.9344626241
 10
314.3401613822
 20
79.0385739683
 10
314.2913507974
 20
79.1422331554
 10
314.2408458747
 20
79.2453691424
 10
314.1886812275
 20
79.3479112452
 10
314.1348926071
 20
79.4497891866
 10
314.0795168774
 20
79.5509331444
 10
314.0225919901
 20
79.6512737997
 10
313.9641569588
 20
79.7507423839
 10
313.9042518318
 20
79.8492707264
 10
313.8429176653
 20
79.9467913007
 10
313.7801964945
 20
80.043237271
 10
313.7161313054
 20
80.1385425381
 10
313.6507660051
 20
80.2326417845
 10
313.5841453917
 20
80.3254705194
 10
313.5163151236
 20
80.4169651225
 10
313.4473216884
 20
80.507062888
 10
313.3772123706
 20
80.5957020674
 10
313.3060352197
 20
80.6828219118
 10
313.233839017
 20
80.7683627137
 10
313.1606732421
 20
80.8522658476
 10
313.0865880392
 20
80.9344738105
 10
313.0116341826
 20
81.0149302613
 10
312.935863042
 20
81.093580059
 10
312.859326547
 20
81.170369301
 10
312.782077152
 20
81.2452453598
 10
312.7041677998
 20
81.3181569192
 10
312.6256518857
 20
81.3890540091
 10
312.5465832205
 20
81.4578880402
 10
312.4670159939
 20
81.5246118372
 10
312.3870047373
 20
81.5891796709
 10
312.3066042865
 20
81.6515472896
 10
312.2258697438
 20
81.7116719498
 10
312.1448564408
 20
81.7695124451
 10
312.0636198999
 20
81.8250291343
 10
311.9822157966
 20
81.8781839693
 10
311.9006999211
 20
81.9289405202
 10
311.8191281404
 20
81.9772640011
 10
311.7375563596
 20
82.0231212935
 10
311.6560404842
 20
82.0664809691
 10
311.5746363808
 20
82.1073133113
 10
311.4933998399
 20
82.1455903357
 10
311.4123865369
 20
82.1812858092
 10
311.3316519943
 20
82.2143752678
 10
311.2512515434
 20
82.2448360336
 10
311.1712402869
 20
82.2726472305
 10
311.0916730603
 20
82.2977897979
 10
311.012604395
 20
82.3202465045
 10
310.9340884809
 20
82.3400019594
 10
310.8561791287
 20
82.3570426234
 10
310.7789297337
 20
82.3713568176
 10
310.7023932387
 20
82.3829347317
 10
310.6266220981
 20
82.3917684309
 10
310.5516682415
 20
82.3978518609
 10
310.4775830386
 20
82.4011808525
 10
310.4044172637
 20
82.4017531242
 10
310.332221061
 20
82.3995682837
 10
310.2610439101
 20
82.3946278284
 10
310.1909345923
 20
82.3869351443
 10
310.1219411571
 20
82.3764955036
 10
310.054110889
 20
82.363316061
 10
309.9874902756
 20
82.3474058491
 10
309.9221249753
 20
82.328775772
 10
309.8580597862
 20
82.3074385978
 10
309.7953386154
 20
82.2834089498
 10
309.7340044489
 20
82.256703297
 10
309.6740993219
 20
82.2273399418
 10
309.6156642906
 20
82.1953390086
 10
309.5587394034
 20
82.1607224292
 10
309.5033636736
 20
82.123513928
 10
309.4495750532
 20
82.0837390059
 10
309.3974104061
 20
82.0414249227
 10
309.3469054833
 20
81.9966006783
 10
309.2980948985
 20
81.9492969929
 10
309.2510121039
 20
81.8995462863
 10
309.2056893678
 20
81.8473826549
 10
309.162157752
 20
81.7928418493
 10
309.1204470911
 20
81.7359612488
 10
309.0805859713
 20
81.6767798368
 10
309.0426017116
 20
81.615338173
 10
309.0065203444
 20
81.5516783666
 10
308.972366598
 20
81.4858440469
 10
308.9401638799
 20
81.4178803333
 10
308.90993426
 20
81.3478338048
 10
308.8816984563
 20
81.2757524679
 10
308.8554758201
 20
81.2016857234
 10
308.8312843233
 20
81.125684333
 10
308.8091405453
 20
81.0478003842
 10
308.7890596625
 20
80.9680872549
 10
308.7710554372
 20
80.8865995764
 10
308.7551402088
 20
80.8033931963
 10
308.7437667227
 20
80.7346388546
  0
LWPOLYLINE
  5
136
330
1F
100
AcDbEntity
  8
0
  6
Continuous
 62
     8
370
     0
100
AcDbPolyline
 90
      123
 70
   128
 43
0.0
 10
309.6169536473
 20
102.7248480893
 10
309.6339376603
 20
102.7348048839
 10
309.693697865
 20
102.7675315254
 10
309.7549615038
 20
102.7975607746
 10
309.8176865896
 20
102.8248720508
 10
309.8818301337
 20
102.8494466364
 10
309.9473481753
 20
102.8712676892
 10
310.0141958118
 20
102.890320254
 10
310.0823272289
 20
102.9065912733
 10
310.151695733
 20
102.9200695956
 10
310.2222537822
 20
102.9307459836
 10
310.2939530196
 20
102.9386131202
 10
310.3667443062
 20
102.9436656138
 10
310.4405777543
 20
102.9459000015
 10
310.5154027623
 20
102.945314752
 10
310.5911680489
 20
102.9419102664
 10
310.6678216882
 20
102.9356888781
 10
310.7453111458
 20
102.9266548507
 10
310.8235833141
 20
102.9148143759
 10
310.9025845495
 20
102.9001755684
 10
310.9822607083
 20
102.882748461
 10
311.0625571845
 20
102.8625449973
 10
311.143418947
 20
102.8395790238
 10
311.2247905771
 20
102.8138662802
 10
311.3066163067
 20
102.7854243888
 10
311.3888400566
 20
102.7542728421
 10
311.4714054748
 20
102.72043299
 10
311.554255975
 20
102.6839280245
 10
311.6373347756
 20
102.6447829643
 10
311.7205849386
 20
102.6030246376
 10
311.8039494085
 20
102.5586816633
 10
311.8873710514
 20
102.5117844319
 10
311.9707926943
 20
102.4623650845
 10
312.0541571642
 20
102.4104574907
 10
312.1374073272
 20
102.3560972252
 10
312.2204861278
 20
102.2993215438
 10
312.303336628
 20
102.2401693579
 10
312.3859020462
 20
102.1786812073
 10
312.4681257961
 20
102.114899233
 10
312.5499515257
 20
102.048867148
 10
312.6313231558
 20
101.9806302073
 10
312.7121849183
 20
101.9102351771
 10
312.7924813945
 20
101.8377303027
 10
312.8721575533
 20
101.7631652752
 10
312.9511587887
 20
101.6865911979
 10
313.029430957
 20
101.6080605507
 10
313.1069204146
 20
101.5276271548
 10
313.1835740539
 20
101.445346135
 10
313.2593393405
 20
101.3612738827
 10
313.3341643485
 20
101.2754680168
 10
313.4079977966
 20
101.1879873444
 10
313.4807890832
 20
101.0988918203
 10
313.5524883206
 20
101.0082425062
 10
313.6230463698
 20
100.9161015286
 10
313.6924148739
 20
100.8225320363
 10
313.760546291
 20
100.7275981572
 10
313.8273939275
 20
100.6313649542
 10
313.8929119691
 20
100.5338983807
 10
313.9570555132
 20
100.4352652354
 10
314.019780599
 20
100.3355331167
 10
314.0810442377
 20
100.2347703758
 10
314.1408044425
 20
100.1330460706
 10
314.1990202565
 20
100.0304299178
 10
314.2556517817
 20
99.9269922454
 10
314.3106602055
 20
99.8228039444
 10
314.364007828
 20
99.7179364202
 10
314.4156580874
 20
99.6124615439
 10
314.4655755851
 20
99.5064516026
 10
314.5137261102
 20
99.3999792503
 10
314.5600766628
 20
99.2931174577
 10
314.6045954764
 20
99.1859394627
 10
314.6472520402
 20
99.0785187196
 10
314.6880171193
 20
98.9709288493
 10
314.7268627756
 20
98.8632435886
 10
314.763762386
 20
98.7555367394
 10
314.7986906615
 20
98.6478821187
 10
314.831623664
 20
98.5403535076
 10
314.8625388228
 20
98.4330246008
 10
314.8914149502
 20
98.3259689562
 10
314.918232256
 20
98.2192599445
 10
314.9429723609
 20
98.1129706985
 10
314.9656183094
 20
98.0071740637
 10
314.9861545809
 20
97.9019425478
 10
315.0045671009
 20
97.7973482712
 10
315.0208432505
 20
97.6934629176
 10
315.0349718748
 20
97.5903576849
 10
315.0469432907
 20
97.4881032361
 10
315.0567492936
 20
97.3867696515
 10
315.0643831629
 20
97.28642638
 10
315.0698396669
 20
97.1871421918
 10
315.0731150659
 20
97.0889851313
 10
315.074207115
 20
96.9920224706
 10
315.0731150659
 20
96.896320663
 10
315.0698396669
 20
96.8019452977
 10
315.0643831629
 20
96.7089610549
 10
315.0567492936
 20
96.6174316613
 10
315.0469432907
 20
96.5274198466
 10
315.0349718748
 20
96.4389873005
 10
315.0208432505
 20
96.3521946301
 10
315.0045671009
 20
96.2671013188
 10
314.9861545809
 20
96.1837656854
 10
314.9656183094
 20
96.1022448439
 10
314.9429723609
 20
96.0225946646
 10
314.918232256
 20
95.9448697357
 10
314.8914149502
 20
95.8691233262
 10
314.8625388228
 20
95.7954073487
 10
314.831623664
 20
95.7237723245
 10
314.7986906615
 20
95.6542673487
 10
314.763762386
 20
95.5869400565
 10
314.7268627756
 20
95.5218365907
 10
314.6880171193
 20
95.45900157
 10
314.6472520402
 20
95.3984780583
 10
314.6045954764
 20
95.3403075354
 10
314.5600766628
 20
95.2845298685
 10
314.5137261102
 20
95.2311832848
 10
314.4655755851
 20
95.1803043454
 10
314.4156580874
 20
95.1319279202
 10
314.364007828
 20
95.086087164
 10
314.3106602055
 20
95.0428134938
 10
314.2556517817
 20
95.002136567
 10
314.1990202565
 20
94.9640842618
 10
314.1408044425
 20
94.9286826572
 10
314.123680647
 20
94.9189432196
  0
LWPOLYLINE
  5
137
330
1F
100
AcDbEntity
  8
0
  6
Continuous
 62
     8
370
     0
100
AcDbPolyline
 90
      169
 70
   128
 43
0.0
 10
312.3211972627
 20
94.9510860293
 10
312.3870047373
 20
94.9263396224
 10
312.4670159939
 20
94.8985284255
 10
312.5465832205
 20
94.8733858581
 10
312.6256518857
 20
94.8509291516
 10
312.7041677998
 20
94.8311736966
 10
312.782077152
 20
94.8141330326
 10
312.859326547
 20
94.7998188385
 10
312.935863042
 20
94.7882409243
 10
313.0116341826
 20
94.7794072252
 10
313.0865880392
 20
94.7733237951
 10
313.1606732421
 20
94.7699948035
 10
313.233839017
 20
94.7694225319
 10
313.3060352197
 20
94.7716073724
 10
313.3772123706
 20
94.7765478276
 10
313.4473216884
 20
94.7842405117
 10
313.5163151236
 20
94.7946801524
 10
313.5841453917
 20
94.807859595
 10
313.6507660051
 20
94.8237698069
 10
313.7161313054
 20
94.842399884
 10
313.7801964945
 20
94.8637370583
 10
313.8429176653
 20
94.8877667062
 10
313.9042518318
 20
94.9144723591
 10
313.9641569588
 20
94.9438357142
 10
314.0225919901
 20
94.9758366474
 10
314.0795168774
 20
95.0104532268
 10
314.1348926071
 20
95.047661728
 10
314.1886812275
 20
95.0874366501
 10
314.2408458746
 20
95.1297507333
 10
314.2913507974
 20
95.1745749778
 10
314.3401613822
 20
95.2218786631
 10
314.3872441768
 20
95.2716293698
 10
314.4325669129
 20
95.3237930011
 10
314.4760985287
 20
95.3783338068
 10
314.5178091896
 20
95.4352144072
 10
314.5576703094
 20
95.4943958193
 10
314.5956545691
 20
95.555837483
 10
314.6317359364
 20
95.6194972894
 10
314.6658896827
 20
95.6853316092
 10
314.6980924009
 20
95.7532953227
 10
314.7283220207
 20
95.8233418512
 10
314.7565578245
 20
95.8954231882
 10
314.7827804606
 20
95.9694899327
 10
314.8069719575
 20
96.0454913231
 10
314.8291157354
 20
96.1233752718
 10
314.8491966182
 20
96.2030884011
 10
314.8672008435
 20
96.2845760796
 10
314.8831160719
 20
96.3677824597
 10
314.8969313961
 20
96.4526505159
 10
314.9086373477
 20
96.5391220838
 10
314.918225904
 20
96.6271379002
 10
314.9256904935
 20
96.7166376435
 10
314.9310260003
 20
96.8075599749
 10
314.9342287677
 20
96.8998425809
 10
314.9352966009
 20
96.9934222156
 10
314.9342287677
 20
97.0882347441
 10
314.9310260003
 20
97.1842151867
 10
314.9256904935
 20
97.2812977631
 10
314.918225904
 20
97.379415938
 10
314.9086373477
 20
97.4785024658
 10
314.8969313961
 20
97.5784894378
 10
314.8831160719
 20
97.6793083277
 10
314.8672008435
 20
97.7808900395
 10
314.8491966182
 20
97.883164954
 10
314.8291157354
 20
97.9860629771
 10
314.8069719575
 20
98.0895135876
 10
314.7827804606
 20
98.1934458858
 10
314.7565578245
 20
98.2977886415
 10
314.7283220207
 20
98.4024703435
 10
314.6980924009
 20
98.5074192482
 10
314.6658896827
 20
98.6125634287
 10
314.6317359364
 20
98.7178308247
 10
314.5956545691
 20
98.8231492909
 10
314.5576703094
 20
98.9284466475
 10
314.5178091896
 20
99.0336507288
 10
314.4760985287
 20
99.1386894333
 10
314.4325669129
 20
99.2434907727
 10
314.3872441768
 20
99.3479829213
 10
314.3401613822
 20
99.4520942655
 10
314.2913507974
 20
99.5557534525
 10
314.2408458746
 20
99.6588894395
 10
314.1886812275
 20
99.7614315424
 10
314.1348926071
 20
99.8633094837
 10
314.0795168774
 20
99.9644534415
 10
314.0225919901
 20
100.0647940968
 10
313.9641569588
 20
100.1642626811
 10
313.9042518318
 20
100.2627910236
 10
313.8429176653
 20
100.3603115978
 10
313.7801964945
 20
100.4567575681
 10
313.7161313054
 20
100.5520628352
 10
313.6507660051
 20
100.6461620817
 10
313.5841453917
 20
100.7389908165
 10
313.5163151236
 20
100.8304854196
 10
313.4473216884
 20
100.9205831851
 10
313.3772123706
 20
101.0092223645
 10
313.3060352197
 20
101.0963422089
 10
313.233839017
 20
101.1818830108
 10
313.1606732421
 20
101.2657861447
 10
313.0865880392
 20
101.3479941077
 10
313.0116341826
 20
101.4284505584
 10
312.935863042
 20
101.5071003561
 10
312.859326547
 20
101.5838895981
 10
312.782077152
 20
101.658765657
 10
312.7041677998
 20
101.7316772163
 10
312.6256518857
 20
101.8025743062
 10
312.5465832205
 20
101.8714083374
 10
312.4670159939
 20
101.9381321344
 10
312.3870047373
 20
102.002699968
 10
312.3066042865
 20
102.0650675868
 10
312.2258697438
 20
102.125192247
 10
312.1448564408
 20
102.1830327422
 10
312.0636198999
 20
102.2385494315
 10
311.9822157966
 20
102.2917042664
 10
311.9006999211
 20
102.3424608173
 10
311.8191281404
 20
102.3907842982
 10
311.7375563596
 20
102.4366415906
 10
311.6560404842
 20
102.4800012662
 10
311.5746363808
 20
102.5208336085
 10
311.4933998399
 20
102.5591106329
 10
311.4123865369
 20
102.5948061063
 10
311.3316519943
 20
102.6278955649
 10
311.2512515434
 20
102.6583563308
 10
311.1712402869
 20
102.6861675276
 10
311.0916730603
 20
102.7113100951
 10
311.012604395
 20
102.7337668016
 10
310.9340884809
 20
102.7535222566
 10
310.8561791287
 20
102.7705629205
 10
310.7789297337
 20
102.7848771147
 10
310.7023932387
 20
102.7964550288
 10
310.6266220981
 20
102.805288728
 10
310.5516682415
 20
102.811372158
 10
310.4775830386
 20
102.8147011496
 10
310.4044172637
 20
102.8152734213
 10
310.332221061
 20
102.8130885808
 10
310.2610439101
 20
102.8081481255
 10
310.1909345923
 20
102.8004554415
 10
310.1219411571
 20
102.7900158007
 10
310.054110889
 20
102.7768363582
 10
309.9874902756
 20
102.7609261463
 10
309.9221249753
 20
102.7422960692
 10
309.8580597862
 20
102.7209588949
 10
309.7953386154
 20
102.696929247
 10
309.7340044489
 20
102.6702235941
 10
309.6740993219
 20
102.640860239
 10
309.6156642906
 20
102.6088593058
 10
309.5587394034
 20
102.5742427263
 10
309.5033636736
 20
102.5370342252
 10
309.4495750532
 20
102.4972593031
 10
309.3974104061
 20
102.4549452198
 10
309.3469054833
 20
102.4101209754
 10
309.2980948985
 20
102.3628172901
 10
309.2510121039
 20
102.3130665834
 10
309.2056893678
 20
102.2609029521
 10
309.162157752
 20
102.2063621464
 10
309.1204470911
 20
102.149481546
 10
309.0805859713
 20
102.0903001339
 10
309.0426017116
 20
102.0288584701
 10
309.0065203444
 20
101.9651986638
 10
308.972366598
 20
101.899364344
 10
308.9401638799
 20
101.8314006304
 10
308.90993426
 20
101.761354102
 10
308.8816984563
 20
101.689272765
 10
308.8554758201
 20
101.6152060205
 10
308.8312843233
 20
101.5392046301
 10
308.8091405453
 20
101.4613206814
 10
308.7890596625
 20
101.3816075521
 10
308.7710554372
 20
101.3001198736
 10
308.7551402088
 20
101.2169134935
 10
308.7437545058
 20
101.1480798836
  0
ARC
  5
138
330
1F
100
AcDbEntity
  8
0
  6
Continuous
 62
     8
370
     0
100
AcDbCircle
 10
362.0399840299
 20
132.8547163343
 30
0.0
 40
1.557355233685497
100
AcDbArc
 50
242.9673387952
 51
296.5664088286
  0
ARC
  5
139
330
1F
100
AcDbEntity
  8
0
  6
Continuous
 62
     8
370
     0
100
AcDbCircle
 10
362.8872163557
 20
131.387009635
 30
0.0
 40
1.557129726398188
100
AcDbArc
 50
123.4293474552
 51
177.0367567004
  0
ARC
  5
13A
330
1F
100
AcDbEntity
  8
0
  6
Continuous
 62
     8
370
     0
100
AcDbCircle
 10
361.2030654878
 20
131.392966954
 30
0.0
 40
1.534965751228187
100
AcDbArc
 50
2.5698980718
 51
57.4301020738
  0
LWPOLYLINE
  5
13B
330
1F
100
AcDbEntity
  8
0
  6
Continuous
 62
     8
370
     0
100
AcDbPolyline
 90
       40
 70
   128
 43
0.0
 10
362.7364874697
 20
131.4617919709
 10
362.7028331914
 20
128.5532351705
 10
362.6709500923
 20
125.6456740623
 10
362.6408381885
 20
122.7391101033
 10
362.6124974951
 20
119.8335447503
 10
362.5859280262
 20
116.9289794594
 10
362.5611297951
 20
114.0254156862
 10
362.5381028144
 20
111.1228548858
 10
362.5168470954
 20
108.2212985129
 10
362.497362649
 20
105.3207480216
 10
362.4796494847
 20
102.4212048655
 10
362.4637076117
 20
99.5226704978
 10
362.4495370377
 20
96.6251463711
 10
362.4371377699
 20
93.7286339375
 10
362.4265098146
 20
90.8331346486
 10
362.417653177
 20
87.9386499555
 10
362.4105678616
 20
85.0451813088
 10
362.4052538719
 20
82.1527301585
 10
362.4017112107
 20
79.2612979543
 10
362.3999398796
 20
76.3708861452
 10
362.3999398796
 20
73.4814961797
 10
362.4017112107
 20
70.5931295059
 10
362.4052538719
 20
67.7057875713
 10
362.4105678616
 20
64.8194718229
 10
362.417653177
 20
61.9341837072
 10
362.4265098146
 20
59.0499246702
 10
362.4371377699
 20
56.1666961574
 10
362.4495370377
 20
53.2844996136
 10
362.4637076117
 20
50.4033364834
 10
362.4796494847
 20
47.5232082106
 10
362.497362649
 20
44.6441162386
 10
362.5168470954
 20
41.7660620103
 10
362.5381028144
 20
38.8890469681
 10
362.5611297951
 20
36.0130725538
 10
362.5859280262
 20
33.1381402087
 10
362.6124974951
 20
30.2642513736
 10
362.6408381885
 20
27.3914074888
 10
362.6709500923
 20
24.5196099939
 10
362.7028331914
 20
21.6488603283
 10
362.7364874697
 20
18.7791599306
  0
ARC
  5
13C
330
1F
100
AcDbEntity
  8
0
  6
Continuous
 62
     8
370
     0
100
AcDbCircle
 10
362.0181717344
 20
20.119086986
 30
0.0
 40
1.520322995060836
100
AcDbArc
 50
243.1778913409
 51
298.1951226897
  0
LWPOLYLINE
  5
13D
330
1F
100
AcDbEntity
  8
0
  6
Continuous
 62
     8
370
     0
100
AcDbPolyline
 90
       40
 70
   128
 43
0.0
 10
361.332168661
 20
18.7623328474
 10
361.2985076505
 20
21.6326073
 10
361.2666181736
 20
24.5039312304
 10
361.2365002462
 20
27.3763031996
 10
361.2081538835
 20
30.2497217682
 10
361.1815790996
 20
33.124185496
 10
361.1567759079
 20
35.9996929426
 10
361.1337443208
 20
38.8762426669
 10
361.1124843499
 20
41.7538332272
 10
361.0929960058
 20
44.6324631814
 10
361.0752792982
 20
47.512131087
 10
361.0593342361
 20
50.3928355007
 10
361.0451608275
 20
53.2745749788
 10
361.0327590793
 20
56.1573480772
 10
361.022128998
 20
59.0411533511
 10
361.0132705887
 20
61.9259893553
 10
361.006183856
 20
64.811854644
 10
361.0008688033
 20
67.6987477711
 10
360.9973254334
 20
70.5866672896
 10
360.995553748
 20
73.4756117522
 10
360.995553748
 20
76.3655797113
 10
360.9973254334
 20
79.2565697184
 10
361.0008688033
 20
82.1485803248
 10
361.006183856
 20
85.041610081
 10
361.0132705887
 20
87.9356575372
 10
361.022128998
 20
90.830721243
 10
361.0327590793
 20
93.7267997476
 10
361.0451608275
 20
96.6238915996
 10
361.0593342361
 20
99.5219953471
 10
361.0752792982
 20
102.4211095376
 10
361.0929960058
 20
105.3212327183
 10
361.1124843499
 20
108.2223634357
 10
361.1337443208
 20
111.124500236
 10
361.1567759079
 20
114.0276416647
 10
361.1815790996
 20
116.9317862668
 10
361.2081538835
 20
119.836932587
 10
361.2365002462
 20
122.7430791694
 10
361.2666181736
 20
125.6502245574
 10
361.2985076505
 20
128.5583672941
 10
361.332168661
 20
131.4675059222
  0
LWPOLYLINE
  5
13E
330
1F
100
AcDbEntity
  8
0
  6
Continuous
 62
     8
370
     0
100
AcDbPolyline
 90
       40
 70
   128
 43
0.0
 10
264.4486448848
 20
189.0186965544
 10
266.9169138347
 20
187.5549388168
 10
269.3869771617
 20
186.0921901675
 10
271.8588336278
 20
184.6304513395
 10
274.3324819942
 20
183.1697230654
 10
276.8079210213
 20
181.7100060772
 10
279.2851494684
 20
180.2513011065
 10
281.7641660941
 20
178.7936088843
 10
284.2449696561
 20
177.3369301412
 10
286.727558911
 20
175.8812656072
 10
289.2119326146
 20
174.4266160117
 10
291.698089522
 20
172.9729820839
 10
294.1860283872
 20
171.5203645521
 10
296.6757479633
 20
170.0687641445
 10
299.1672470026
 20
168.6181815884
 10
301.6605242564
 20
167.1686176108
 10
304.1555784753
 20
165.7200729382
 10
306.6524084088
 20
164.2725482966
 10
309.1510128056
 20
162.8260444113
 10
311.6513904136
 20
161.3805620074
 10
314.1535399796
 20
159.9361018091
 10
316.6574602496
 20
158.4926645405
 10
319.163149969
 20
157.0502509248
 10
321.6706078818
 20
155.6088616851
 10
324.1798327314
 20
154.1684975435
 10
326.6908232604
 20
152.7291592221
 10
329.2035782104
 20
151.290847442
 10
331.718096322
 20
149.8535629242
 10
334.2343763352
 20
148.4173063889
 10
336.7524169887
 20
146.982078556
 10
339.2722170208
 20
145.5478801446
 10
341.7937751686
 20
144.1147118736
 10
344.3170901685
 20
142.6825744612
 10
346.8421607557
 20
141.2514686251
 10
349.368985665
 20
139.8213950825
 10
351.8975636298
 20
138.3923545502
 10
354.4278933832
 20
136.9643477442
 10
356.9599736569
 20
135.5373753803
 10
359.4938031819
 20
134.1114381736
 10
362.0293806885
 20
132.6865368387
  0
LWPOLYLINE
  5
13F
330
1F
100
AcDbEntity
  8
0
  6
Continuous
 62
     8
370
     0
100
AcDbPolyline
 90
       40
 70
   128
 43
0.0
 10
361.332168661
 20
131.4675059222
 10
358.7960839375
 20
132.8926922944
 10
356.2617475452
 20
134.3189147457
 10
353.7291607541
 20
135.7461725611
 10
351.1983248336
 20
137.1744650256
 10
348.669241052
 20
138.6037914232
 10
346.1419106766
 20
140.0341510377
 10
343.6163349742
 20
141.4655431522
 10
341.0925152105
 20
142.8979670494
 10
338.5704526502
 20
144.3314220114
 10
336.0501485572
 20
145.7659073198
 10
333.5316041948
 20
147.2014222557
 10
331.014820825
 20
148.6379660998
 10
328.4997997091
 20
150.075538132
 10
325.9865421077
 20
151.514137632
 10
323.4750492801
 20
152.9537638787
 10
320.9653224851
 20
154.3944161507
 10
318.4573629803
 20
155.836093726
 10
315.9511720228
 20
157.278795882
 10
313.4467508685
 20
158.7225218959
 10
310.9441007725
 20
160.167271044
 10
308.443222989
 20
161.6130426022
 10
305.9441187713
 20
163.0598358462
 10
303.446789372
 20
164.5076500506
 10
300.9512360424
 20
165.9564844901
 10
298.4574600334
 20
167.4063384384
 10
295.9654625946
 20
168.8572111691
 10
293.475244975
 20
170.3091019549
 10
290.9868084225
 20
171.7620100683
 10
288.5001541843
 20
173.215934781
 10
286.0152835065
 20
174.6708753646
 10
283.5321976344
 20
176.1268310898
 10
281.0508978125
 20
177.5838012269
 10
278.5713852843
 20
179.0417850459
 10
276.0936612923
 20
180.5007818159
 10
273.6177270784
 20
181.9607908059
 10
271.1435838833
 20
183.4218112841
 10
268.6712329471
 20
184.8838425184
 10
266.2006755086
 20
186.346883776
 10
263.7319128061
 20
187.8109343237
  0
ARC
  5
140
330
1F
100
AcDbEntity
  8
0
  6
Continuous
 62
     8
370
     0
100
AcDbCircle
 10
265.2496949277
 20
187.7267738051
 30
0.0
 40
1.5201136673247
100
AcDbArc
 50
121.8007688424
 51
176.8262180139
  0
LINE
  5
141
330
1F
100
AcDbEntity
  8
0
  6
Continuous
 62
     8
370
     0
100
AcDbLine
 10
369.1340493531
 20
135.1550258335
 30
0.0
 11
362.7364874697
 21
131.4617919709
 31
0.0
  0
LINE
  5
142
330
1F
100
AcDbEntity
  8
0
  6
Continuous
 62
     8
370
     0
100
AcDbLine
 10
362.0293806885
 20
132.6865368387
 30
0.0
 11
368.426942572
 21
136.3797707013
 31
0.0
  0
LWPOLYLINE
  5
143
330
1F
100
AcDbEntity
  8
0
  6
Continuous
 62
     8
370
     0
100
AcDbPolyline
 90
       40
 70
   128
 43
0.0
 10
263.7319128061
 20
75.1057612488
 10
266.2006755086
 20
73.6417107011
 10
268.6712329471
 20
72.1786694435
 10
271.1435838833
 20
70.7166382093
 10
273.6177270784
 20
69.2556177311
 10
276.0936612923
 20
67.7956087411
 10
278.5713852843
 20
66.336611971
 10
281.0508978125
 20
64.8786281521
 10
283.5321976344
 20
63.4216580149
 10
286.0152835065
 20
61.9657022898
 10
288.5001541843
 20
60.5107617062
 10
290.9868084225
 20
59.0568369934
 10
293.475244975
 20
57.60392888
 10
295.9654625946
 20
56.1520380942
 10
298.4574600334
 20
54.7011653636
 10
300.9512360424
 20
53.2513114152
 10
303.446789372
 20
51.8024769758
 10
305.9441187713
 20
50.3546627713
 10
308.443222989
 20
48.9078695274
 10
310.9441007725
 20
47.4620979691
 10
313.4467508685
 20
46.017348821
 10
315.9511720228
 20
44.5736228072
 10
318.4573629803
 20
43.1309206511
 10
320.9653224851
 20
41.6892430758
 10
323.4750492801
 20
40.2485908038
 10
325.9865421077
 20
38.8089645571
 10
328.4997997091
 20
37.3703650572
 10
331.014820825
 20
35.932793025
 10
333.5316041948
 20
34.4962491809
 10
336.0501485572
 20
33.060734245
 10
338.5704526502
 20
31.6262489365
 10
341.0925152105
 20
30.1927939745
 10
343.6163349742
 20
28.7603700773
 10
346.1419106766
 20
27.3289779628
 10
348.669241052
 20
25.8986183484
 10
351.1983248336
 20
24.4692919507
 10
353.7291607541
 20
23.0409994863
 10
356.2617475452
 20
21.6137416708
 10
358.7960839375
 20
20.1875192196
 10
361.332168661
 20
18.7623328474
  0
LWPOLYLINE
  5
144
330
1F
100
AcDbEntity
  8
0
  6
Continuous
 62
     8
370
     0
100
AcDbPolyline
 90
       40
 70
   128
 43
0.0
 10
263.7319128061
 20
187.8109343237
 10
263.6982517956
 20
184.9017956956
 10
263.6663623187
 20
181.9936529588
 10
263.6362443913
 20
179.0865075708
 10
263.6078980286
 20
176.1803609885
 10
263.5813232447
 20
173.2752146683
 10
263.556520053
 20
170.3710700661
 10
263.5334884659
 20
167.4679286374
 10
263.512228495
 20
164.5657918372
 10
263.4927401509
 20
161.6646611197
 10
263.4750234433
 20
158.764537939
 10
263.4590783812
 20
155.8654237485
 10
263.4449049725
 20
152.9673200011
 10
263.4325032244
 20
150.0702281491
 10
263.4218731431
 20
147.1741496445
 10
263.4130147338
 20
144.2790859386
 10
263.4059280011
 20
141.3850384824
 10
263.4006129484
 20
138.4920087262
 10
263.3970695785
 20
135.5999981199
 10
263.3952978931
 20
132.7090081128
 10
263.3952978931
 20
129.8190401537
 10
263.3970695785
 20
126.930095691
 10
263.4006129484
 20
124.0421761725
 10
263.4059280011
 20
121.1552830455
 10
263.4130147338
 20
118.2694177567
 10
263.4218731431
 20
115.3845817525
 10
263.4325032244
 20
112.5007764786
 10
263.4449049725
 20
109.6180033802
 10
263.4590783812
 20
106.7362639021
 10
263.4750234433
 20
103.8555594884
 10
263.4927401509
 20
100.9758915829
 10
263.512228495
 20
98.0972616286
 10
263.5334884659
 20
95.2196710683
 10
263.556520053
 20
92.343121344
 10
263.5813232447
 20
89.4676138975
 10
263.6078980286
 20
86.5931501696
 10
263.6362443913
 20
83.719731601
 10
263.6663623187
 20
80.8473596318
 10
263.6982517956
 20
77.9760357014
 10
263.7319128061
 20
75.1057612488
  0
LINE
  5
145
330
1F
100
AcDbEntity
  8
0
  6
Continuous
 62
     8
370
     0
100
AcDbLine
 10
362.7364874697
 20
18.7791599306
 30
0.0
 11
369.1340493531
 21
22.4723937933
 31
0.0
  0
LINE
  5
146
330
1F
100
AcDbEntity
  8
0
  6
Continuous
 62
     8
370
     0
100
AcDbLine
 10
270.8462067682
 20
192.7119304171
 30
0.0
 11
264.4486448848
 21
189.0186965544
 31
0.0
  0
ARC
  5
147
330
1F
100
AcDbEntity
  8
0
  6
Continuous
 62
     8
370
     0
100
AcDbCircle
 10
362.2386741731
 20
18.7286073824
 30
0.0
 40
0.5003734988757587
100
AcDbArc
 50
305.5137163071
 51
5.7984640863
  0
ARC
  5
148
330
1F
100
AcDbEntity
  8
0
  6
Continuous
 62
     8
370
     0
100
AcDbCircle
 10
361.8209457061
 20
18.7177055075
 30
0.0
 40
0.4908101457826173
100
AcDbArc
 50
174.7831260221
 51
235.0441710461
  0
ARC
  5
149
330
1F
100
AcDbEntity
  8
0
  6
Continuous
 62
     8
370
     0
100
AcDbCircle
 10
263.9375678138
 20
188.2564476833
 30
0.0
 40
0.4906894494915102
100
AcDbArc
 50
184.9593459031
 51
245.2213123554
  0
ARC
  5
14A
330
1F
100
AcDbEntity
  8
0
  6
Continuous
 62
     8
370
     0
100
AcDbCircle
 10
264.1560305444
 20
188.6129024977
 30
0.0
 40
0.5002918834011613
100
AcDbArc
 50
54.2049753609
 51
114.48456621
  0
ARC
  5
14B
330
1F
100
AcDbEntity
  8
0
  6
Continuous
 62
     8
370
     0
100
AcDbCircle
 10
264.2279061552
 20
75.0643417272
 30
0.0
 40
0.497719779691554
100
AcDbArc
 50
175.2264072964
 51
234.418040963
  0
ARC
  5
14C
330
1F
100
AcDbEntity
  8
0
  6
Continuous
 62
     8
370
     0
100
AcDbCircle
 10
263.9439533079
 20
75.5559201806
 30
0.0
 40
0.4975984709482805
100
AcDbArc
 50
185.5853768484
 51
244.7779347027
  0
ENDSEC
  0
SECTION
  2
OBJECTS
  0
DICTIONARY
  5
C
330
0
100
AcDbDictionary
281
     1
  3
ACAD_GROUP
350
D
  3
ACAD_LAYOUT
350
1A
  3
ACAD_MLINESTYLE
350
17
  3
ACAD_PLOTSETTINGS
350
19
  3
ACAD_PLOTSTYLENAME
350
E
  3
ACAD_SCALELIST
350
47
  0
DICTIONARY
  5
D
102
{ACAD_REACTORS
330
C
102
}
330
C
100
AcDbDictionary
281
     1
  0
DICTIONARY
  5
1A
102
{ACAD_REACTORS
330
C
102
}
330
C
100
AcDbDictionary
281
     1
  3
Layout1
350
1E
  3
Layout2
350
26
  3
Model
350
22
  0
DICTIONARY
  5
17
102
{ACAD_REACTORS
330
C
102
}
330
C
100
AcDbDictionary
281
     1
  3
Standard
350
18
  0
DICTIONARY
  5
19
102
{ACAD_REACTORS
330
C
102
}
330
C
100
AcDbDictionary
281
     1
  0
ACDBDICTIONARYWDFLT
  5
E
102
{ACAD_REACTORS
330
C
102
}
330
C
100
AcDbDictionary
281
     1
  3
Normal
350
F
100
AcDbDictionaryWithDefault
340
F
  0
DICTIONARY
  5
47
102
{ACAD_REACTORS
330
C
102
}
330
C
100
AcDbDictionary
281
     1
  3
A0
350
48
  3
A1
350
49
  3
A2
350
4A
  3
A3
350
4B
  3
A4
350
4C
  3
A5
350
4D
  3
A6
350
4E
  3
A7
350
4F
  3
A8
350
50
  3
A9
350
51
  3
B0
350
52
  3
B1
350
53
  3
B2
350
54
  3
B3
350
55
  3
B4
350
56
  3
B5
350
57
  3
B6
350
58
  3
B7
350
59
  3
B8
350
5A
  3
B9
350
5B
  3
C0
350
5C
  3
C1
350
5D
  3
C2
350
5E
  3
C3
350
5F
  3
C4
350
60
  3
C5
350
61
  3
C6
350
62
  3
C7
350
63
  3
C8
350
64
  3
C9
350
65
  3
D0
350
66
  3
D1
350
67
  3
D2
350
68
  0
LAYOUT
  5
1E
102
{ACAD_REACTORS
330
1A
102
}
330
1A
100
AcDbPlotSettings
  1

  2
none_device
  4

  6

 40
0.0
 41
0.0
 42
0.0
 43
0.0
 44
0.0
 45
0.0
 46
0.0
 47
0.0
 48
0.0
 49
0.0
140
0.0
141
0.0
142
1.0
143
1.0
 70
   688
 72
     1
 73
     0
 74
     5
  7

 75
    16
147
1.0
148
0.0
149
0.0
100
AcDbLayout
  1
Layout1
 70
     1
 71
     1
 10
0.0
 20
0.0
 11
420.0
 21
297.0
 12
0.0
 22
0.0
 32
0.0
 14
1.0000000000E+20
 24
1.0000000000E+20
 34
1.0000000000E+20
 15
-1.0000000000E+20
 25
-1.0000000000E+20
 35
-1.0000000000E+20
146
0.0
 13
0.0
 23
0.0
 33
0.0
 16
1.0
 26
0.0
 36
0.0
 17
0.0
 27
1.0
 37
0.0
 76
     0
330
1B
  0
LAYOUT
  5
26
102
{ACAD_REACTORS
330
1A
102
}
330
1A
100
AcDbPlotSettings
  1

  2
none_device
  4

  6

 40
0.0
 41
0.0
 42
0.0
 43
0.0
 44
0.0
 45
0.0
 46
0.0
 47
0.0
 48
0.0
 49
0.0
140
0.0
141
0.0
142
1.0
143
1.0
 70
   688
 72
     1
 73
     0
 74
     5
  7

 75
    16
147
1.0
148
0.0
149
0.0
100
AcDbLayout
  1
Layout2
 70
     1
 71
     2
 10
0.0
 20
0.0
 11
0.0
 21
0.0
 12
0.0
 22
0.0
 32
0.0
 14
0.0
 24
0.0
 34
0.0
 15
0.0
 25
0.0
 35
0.0
146
0.0
 13
0.0
 23
0.0
 33
0.0
 16
1.0
 26
0.0
 36
0.0
 17
0.0
 27
1.0
 37
0.0
 76
     0
330
23
  0
LAYOUT
  5
22
102
{ACAD_REACTORS
330
1A
102
}
330
1A
100
AcDbPlotSettings
  1

  2
none_device
  4
Letter_(8.50_x_11.00_Inches)
  6

 40
6.35
 41
6.35
 42
6.35000508
 43
6.35000508
 44
215.9
 45
279.4
 46
0.0
 47
0.0
 48
0.0
 49
0.0
140
0.0
141
0.0
142
1.0
143
1.0
 70
  1712
 72
     1
 73
     0
 74
     0
  7

 75
     0
147
1.0
148
0.0
149
0.0
100
AcDbLayout
  1
Model
 70
     1
 71
     0
 10
0.0
 20
0.0
 11
386.0
 21
409.0
 12
0.0
 22
0.0
 32
0.0
 14
0.0
 24
0.0
 34
0.0
 15
386.0
 25
409.0
 35
0.0
146
0.0
 13
0.0
 23
0.0
 33
0.0
 16
1.0
 26
0.0
 36
0.0
 17
0.0
 27
1.0
 37
0.0
 76
     0
330
1F
331
29
  0
MLINESTYLE
  5
18
102
{ACAD_REACTORS
330
17
102
}
330
17
100
AcDbMlineStyle
  2
Standard
 70
     0
  3

 62
   256
 51
90.0
 52
90.0
 71
     2
 49
0.5
 62
   256
  6
BYLAYER
 49
-0.5
 62
   256
  6
BYLAYER
  0
ACDBPLACEHOLDER
  5
F
102
{ACAD_REACTORS
330
E
102
}
330
E
  0
SCALE
  5
48
102
{ACAD_REACTORS
330
47
102
}
330
47
100
AcDbScale
 70
     0
300
1:1
140
1.0
141
1.0
290
     1
  0
SCALE
  5
49
102
{ACAD_REACTORS
330
47
102
}
330
47
100
AcDbScale
 70
     0
300
1:2
140
1.0
141
2.0
290
     0
  0
SCALE
  5
4A
102
{ACAD_REACTORS
330
47
102
}
330
47
100
AcDbScale
 70
     0
300
1:4
140
1.0
141
4.0
290
     0
  0
SCALE
  5
4B
102
{ACAD_REACTORS
330
47
102
}
330
47
100
AcDbScale
 70
     0
300
1:5
140
1.0
141
5.0
290
     0
  0
SCALE
  5
4C
102
{ACAD_REACTORS
330
47
102
}
330
47
100
AcDbScale
 70
     0
300
1:8
140
1.0
141
8.0
290
     0
  0
SCALE
  5
4D
102
{ACAD_REACTORS
330
47
102
}
330
47
100
AcDbScale
 70
     0
300
1:10
140
1.0
141
10.0
290
     0
  0
SCALE
  5
4E
102
{ACAD_REACTORS
330
47
102
}
330
47
100
AcDbScale
 70
     0
300
1:16
140
1.0
141
16.0
290
     0
  0
SCALE
  5
4F
102
{ACAD_REACTORS
330
47
102
}
330
47
100
AcDbScale
 70
     0
300
1:20
140
1.0
141
20.0
290
     0
  0
SCALE
  5
50
102
{ACAD_REACTORS
330
47
102
}
330
47
100
AcDbScale
 70
     0
300
1:30
140
1.0
141
30.0
290
     0
  0
SCALE
  5
51
102
{ACAD_REACTORS
330
47
102
}
330
47
100
AcDbScale
 70
     0
300
1:40
140
1.0
141
40.0
290
     0
  0
SCALE
  5
52
102
{ACAD_REACTORS
330
47
102
}
330
47
100
AcDbScale
 70
     0
300
1:50
140
1.0
141
50.0
290
     0
  0
SCALE
  5
53
102
{ACAD_REACTORS
330
47
102
}
330
47
100
AcDbScale
 70
     0
300
1:100
140
1.0
141
100.0
290
     0
  0
SCALE
  5
54
102
{ACAD_REACTORS
330
47
102
}
330
47
100
AcDbScale
 70
     0
300
2:1
140
2.0
141
1.0
290
     0
  0
SCALE
  5
55
102
{ACAD_REACTORS
330
47
102
}
330
47
100
AcDbScale
 70
     0
300
4:1
140
4.0
141
1.0
290
     0
  0
SCALE
  5
56
102
{ACAD_REACTORS
330
47
102
}
330
47
100
AcDbScale
 70
     0
300
8:1
140
8.0
141
1.0
290
     0
  0
SCALE
  5
57
102
{ACAD_REACTORS
330
47
102
}
330
47
100
AcDbScale
 70
     0
300
10:1
140
10.0
141
1.0
290
     0
  0
SCALE
  5
58
102
{ACAD_REACTORS
330
47
102
}
330
47
100
AcDbScale
 70
     0
300
100:1
140
100.0
141
1.0
290
     0
  0
SCALE
  5
59
102
{ACAD_REACTORS
330
47
102
}
330
47
100
AcDbScale
 70
     0
300
1/128" = 1'-0"
140
0.0078125
141
12.0
290
     0
  0
SCALE
  5
5A
102
{ACAD_REACTORS
330
47
102
}
330
47
100
AcDbScale
 70
     0
300
1/64" = 1'-0"
140
0.015625
141
12.0
290
     0
  0
SCALE
  5
5B
102
{ACAD_REACTORS
330
47
102
}
330
47
100
AcDbScale
 70
     0
300
1/32" = 1'-0"
140
0.03125
141
12.0
290
     0
  0
SCALE
  5
5C
102
{ACAD_REACTORS
330
47
102
}
330
47
100
AcDbScale
 70
     0
300
1/16" = 1'-0"
140
0.0625
141
12.0
290
     0
  0
SCALE
  5
5D
102
{ACAD_REACTORS
330
47
102
}
330
47
100
AcDbScale
 70
     0
300
3/32" = 1'-0"
140
0.09375
141
12.0
290
     0
  0
SCALE
  5
5E
102
{ACAD_REACTORS
330
47
102
}
330
47
100
AcDbScale
 70
     0
300
1/8" = 1'-0"
140
0.125
141
12.0
290
     0
  0
SCALE
  5
5F
102
{ACAD_REACTORS
330
47
102
}
330
47
100
AcDbScale
 70
     0
300
3/16" = 1'-0"
140
0.1875
141
12.0
290
     0
  0
SCALE
  5
60
102
{ACAD_REACTORS
330
47
102
}
330
47
100
AcDbScale
 70
     0
300
1/4" = 1'-0"
140
0.25
141
12.0
290
     0
  0
SCALE
  5
61
102
{ACAD_REACTORS
330
47
102
}
330
47
100
AcDbScale
 70
     0
300
3/8" = 1'-0"
140
0.375
141
12.0
290
     0
  0
SCALE
  5
62
102
{ACAD_REACTORS
330
47
102
}
330
47
100
AcDbScale
 70
     0
300
1/2" = 1'-0"
140
0.5
141
12.0
290
     0
  0
SCALE
  5
63
102
{ACAD_REACTORS
330
47
102
}
330
47
100
AcDbScale
 70
     0
300
3/4" = 1'-0"
140
0.75
141
12.0
290
     0
  0
SCALE
  5
64
102
{ACAD_REACTORS
330
47
102
}
330
47
100
AcDbScale
 70
     0
300
1" = 1'-0"
140
1.0
141
12.0
290
     0
  0
SCALE
  5
65
102
{ACAD_REACTORS
330
47
102
}
330
47
100
AcDbScale
 70
     0
300
1-1/2" = 1'-0"
140
1.5
141
12.0
290
     0
  0
SCALE
  5
66
102
{ACAD_REACTORS
330
47
102
}
330
47
100
AcDbScale
 70
     0
300
3" = 1'-0"
140
3.0
141
12.0
290
     0
  0
SCALE
  5
67
102
{ACAD_REACTORS
330
47
102
}
330
47
100
AcDbScale
 70
     0
300
6" = 1'-0"
140
6.0
141
12.0
290
     0
  0
SCALE
  5
68
102
{ACAD_REACTORS
330
47
102
}
330
47
100
AcDbScale
 70
     0
300
1'-0" = 1'-0"
140
12.0
141
12.0
290
     0
  0
ENDSEC
  0
EOF
