  0
SECTION
  2
HEADER
  9
$ACADVER
  1
AC1015
  9
$ACADMAINTVER
 70
     6
  9
$DWGCODEPAGE
  3
ANSI_1252
  9
$INSBASE
 10
0.0
 20
0.0
 30
0.0
  9
$EXTMIN
 10
0.0
 20
0.0
 30
0.0
  9
$EXTMAX
 10
500.0
 20
400.0
 30
0.0
  9
$LIMMIN
 10
0.0
 20
0.0
  9
$LIMMAX
 10
500.0
 20
400.0
  9
$ORTHOMODE
 70
     0
  9
$REGENMODE
 70
     1
  9
$FILLMODE
 70
     1
  9
$QTEXTMODE
 70
     0
  9
$MIRRTEXT
 70
     1
  9
$LTSCALE
 40
1.0
  9
$ATTMODE
 70
     1
  9
$TEXTSIZE
 40
3.5
  9
$TRACEWID
 40
1.0
  9
$TEXTSTYLE
  7
Standard
  9
$CLAYER
  8
0
  9
$CELTYPE
  6
ByLayer
  9
$CECOLOR
 62
   256
  9
$CELTSCALE
 40
1.0
  9
$DISPSILH
 70
     0
  9
$DIMSCALE
 40
1.0
  9
$DIMASZ
 40
3.302
  9
$DIMEXO
 40
1.0
  9
$DIMDLI
 40
3.75
  9
$DIMRND
 40
0.0
  9
$DIMDLE
 40
0.0
  9
$DIMEXE
 40
1.0
  9
$DIMTP
 40
0.0
  9
$DIMTM
 40
0.0
  9
$DIMTXT
 40
2.8
  9
$DIMCEN
 40
2.5
  9
$DIMTSZ
 40
0.0
  9
$DIMTOL
 70
     0
  9
$DIMLIM
 70
     0
  9
$DIMTIH
 70
     1
  9
$DIMTOH
 70
     1
  9
$DIMSE1
 70
     0
  9
$DIMSE2
 70
     0
  9
$DIMTAD
 70
     1
  9
$DIMZIN
 70
     0
  9
$DIMBLK
  1

  9
$DIMASO
 70
     1
  9
$DIMSHO
 70
     1
  9
$DIMPOST
  1

  9
$DIMAPOST
  1

  9
$DIMALT
 70
     0
  9
$DIMALTD
 70
     3
  9
$DIMALTF
 40
0.0393700787
  9
$DIMLFAC
 40
1.0
  9
$DIMTOFL
 70
     1
  9
$DIMTVP
 40
0.0
  9
$DIMTIX
 70
     0
  9
$DIMSOXD
 70
     0
  9
$DIMSAH
 70
     0
  9
$DIMBLK1
  1

  9
$DIMBLK2
  1

  9
$DIMSTYLE
  2
ISO-25
  9
$DIMCLRD
 70
     0
  9
$DIMCLRE
 70
     0
  9
$DIMCLRT
 70
     0
  9
$DIMTFAC
 40
1.0
  9
$DIMGAP
 40
1.524
  9
$DIMJUST
 70
     0
  9
$DIMSD1
 70
     0
  9
$DIMSD2
 70
     0
  9
$DIMTOLJ
 70
     0
  9
$DIMTZIN
 70
     0
  9
$DIMALTZ
 70
     0
  9
$DIMALTTZ
 70
     0
  9
$DIMUPT
 70
     0
  9
$DIMDEC
 70
     2
  9
$DIMTDEC
 70
     2
  9
$DIMALTU
 70
     2
  9
$DIMALTTD
 70
     3
  9
$DIMTXSTY
  7
Standard
  9
$DIMAUNIT
 70
     0
  9
$DIMADEC
 70
     2
  9
$DIMALTRND
 40
0.0
  9
$DIMAZIN
 70
     0
  9
$DIMDSEP
 70
    44
  9
$DIMATFIT
 70
     3
  9
$DIMFRAC
 70
     0
  9
$DIMLDRBLK
  1

  9
$DIMLUNIT
 70
     2
  9
$DIMLWD
 70
    -2
  9
$DIMLWE
 70
    -2
  9
$DIMTMOVE
 70
     0
  9
$LUNITS
 70
     2
  9
$LUPREC
 70
     2
  9
$SKETCHINC
 40
1.0
  9
$FILLETRAD
 40
10.0
  9
$AUNITS
 70
     0
  9
$AUPREC
 70
     2
  9
$MENU
  1
.
  9
$ELEVATION
 40
0.0
  9
$PELEVATION
 40
0.0
  9
$THICKNESS
 40
0.0
  9
$LIMCHECK
 70
     0
  9
$CHAMFERA
 40
0.0
  9
$CHAMFERB
 40
0.0
  9
$CHAMFERC
 40
0.0
  9
$CHAMFERD
 40
0.0
  9
$SKPOLY
 70
     0
  9
$TDCREATE
 40
2458919.447487917
  9
$TDUCREATE
 40
2458919.364154583
  9
$TDUPDATE
 40
2458919.447488426
  9
$TDUUPDATE
 40
2458919.364155093
  9
$TDINDWG
 40
0.0000000116
  9
$TDUSRTIMER
 40
0.0000000116
  9
$USRTIMER
 70
     1
  9
$ANGBASE
 50
0.0
  9
$ANGDIR
 70
     0
  9
$PDMODE
 70
     0
  9
$PDSIZE
 40
-1.0
  9
$PLINEWID
 40
0.0
  9
$SPLFRAME
 70
     0
  9
$SPLINETYPE
 70
     6
  9
$SPLINESEGS
 70
     8
  9
$HANDSEED
  5
136
  9
$SURFTAB1
 70
     6
  9
$SURFTAB2
 70
     6
  9
$SURFTYPE
 70
     6
  9
$SURFU
 70
     6
  9
$SURFV
 70
     6
  9
$UCSBASE
  2

  9
$UCSNAME
  2

  9
$UCSORG
 10
0.0
 20
0.0
 30
0.0
  9
$UCSXDIR
 10
1.0
 20
0.0
 30
0.0
  9
$UCSYDIR
 10
0.0
 20
1.0
 30
0.0
  9
$UCSORTHOREF
  2

  9
$UCSORTHOVIEW
 70
     0
  9
$UCSORGTOP
 10
0.0
 20
0.0
 30
0.0
  9
$UCSORGBOTTOM
 10
0.0
 20
0.0
 30
0.0
  9
$UCSORGLEFT
 10
0.0
 20
0.0
 30
0.0
  9
$UCSORGRIGHT
 10
0.0
 20
0.0
 30
0.0
  9
$UCSORGFRONT
 10
0.0
 20
0.0
 30
0.0
  9
$UCSORGBACK
 10
0.0
 20
0.0
 30
0.0
  9
$PUCSBASE
  2

  9
$PUCSNAME
  2

  9
$PUCSORG
 10
0.0
 20
0.0
 30
0.0
  9
$PUCSXDIR
 10
1.0
 20
0.0
 30
0.0
  9
$PUCSYDIR
 10
0.0
 20
1.0
 30
0.0
  9
$PUCSORTHOREF
  2

  9
$PUCSORTHOVIEW
 70
     0
  9
$PUCSORGTOP
 10
0.0
 20
0.0
 30
0.0
  9
$PUCSORGBOTTOM
 10
0.0
 20
0.0
 30
0.0
  9
$PUCSORGLEFT
 10
0.0
 20
0.0
 30
0.0
  9
$PUCSORGRIGHT
 10
0.0
 20
0.0
 30
0.0
  9
$PUCSORGFRONT
 10
0.0
 20
0.0
 30
0.0
  9
$PUCSORGBACK
 10
0.0
 20
0.0
 30
0.0
  9
$USERI1
 70
     0
  9
$USERI2
 70
     0
  9
$USERI3
 70
     0
  9
$USERI4
 70
     0
  9
$USERI5
 70
     0
  9
$USERR1
 40
0.0
  9
$USERR2
 40
0.0
  9
$USERR3
 40
0.0
  9
$USERR4
 40
0.0
  9
$USERR5
 40
0.0
  9
$WORLDVIEW
 70
     1
  9
$SHADEDGE
 70
     3
  9
$SHADEDIF
 70
    70
  9
$TILEMODE
 70
     1
  9
$MAXACTVP
 70
    64
  9
$PINSBASE
 10
0.0
 20
0.0
 30
0.0
  9
$PLIMCHECK
 70
     0
  9
$PEXTMIN
 10
1.0000000000E+20
 20
1.0000000000E+20
 30
1.0000000000E+20
  9
$PEXTMAX
 10
-1.0000000000E+20
 20
-1.0000000000E+20
 30
-1.0000000000E+20
  9
$PLIMMIN
 10
0.0
 20
0.0
  9
$PLIMMAX
 10
420.0
 20
297.0
  9
$UNITMODE
 70
     0
  9
$VISRETAIN
 70
     1
  9
$PLINEGEN
 70
     0
  9
$PSLTSCALE
 70
     1
  9
$TREEDEPTH
 70
  3020
  9
$CMLSTYLE
  2
Standard
  9
$CMLJUST
 70
     0
  9
$CMLSCALE
 40
20.0
  9
$PROXYGRAPHICS
 70
     1
  9
$MEASUREMENT
 70
     1
  9
$CELWEIGHT
370
    -1
  9
$ENDCAPS
280
     0
  9
$JOINSTYLE
280
     0
  9
$LWDISPLAY
290
     1
  9
$INSUNITS
 70
     4
  9
$HYPERLINKBASE
  1

  9
$STYLESHEET
  1

  9
$XEDIT
290
     1
  9
$CEPSNTYPE
380
     0
  9
$PSTYLEMODE
290
     1
  9
$FINGERPRINTGUID
  2
{76E7569E-EE68-47EA-B215-7905CBBBC3A3}
  9
$VERSIONGUID
  2
{FAEB1C32-E019-11D5-929B-00C0DF256EC4}
  9
$EXTNAMES
290
     1
  9
$PSVPSCALE
 40
0.0
  9
$OLESTARTUP
290
     0
  0
ENDSEC
  0
SECTION
  2
CLASSES
  0
CLASS
  1
ACDBDICTIONARYWDFLT
  2
AcDbDictionaryWithDefault
  3
ObjectDBX Classes
 90
        0
280
     0
281
     0
  0
CLASS
  1
VISUALSTYLE
  2
AcDbVisualStyle
  3
ObjectDBX Classes
 90
     4095
280
     0
281
     0
  0
CLASS
  1
MATERIAL
  2
AcDbMaterial
  3
ObjectDBX Classes
 90
     1153
280
     0
281
     0
  0
CLASS
  1
SCALE
  2
AcDbScale
  3
ObjectDBX Classes
 90
     1153
280
     0
281
     0
  0
CLASS
  1
TABLESTYLE
  2
AcDbTableStyle
  3
ObjectDBX Classes
 90
     4095
280
     0
281
     0
  0
CLASS
  1
MLEADERSTYLE
  2
AcDbMLeaderStyle
  3
ACDB_MLEADERSTYLE_CLASS
 90
     4095
280
     0
281
     0
  0
CLASS
  1
SUN
  2
AcDbSun
  3
SCENEOE
 90
     1153
280
     0
281
     0
  0
CLASS
  1
ACDBPLACEHOLDER
  2
AcDbPlaceHolder
  3
ObjectDBX Classes
 90
        0
280
     0
281
     0
  0
CLASS
  1
LAYOUT
  2
AcDbLayout
  3
ObjectDBX Classes
 90
        0
280
     0
281
     0
  0
ENDSEC
  0
SECTION
  2
TABLES
  0
TABLE
  2
VPORT
  5
8
330
0
100
AcDbSymbolTable
 70
     1
  0
VPORT
  5
29
330
8
100
AcDbSymbolTableRecord
100
AcDbViewportTableRecord
  2
*Active
 70
     0
 10
0.0
 20
0.0
 11
1.0
 21
1.0
 12
250.0
 22
200.0
 13
0.0
 23
0.0
 14
10.0
 24
10.0
 15
10.0
 25
10.0
 16
0.0
 26
0.0
 36
1.0
 17
0.0
 27
0.0
 37
0.0
 40
400.0
 41
1.25
 42
50.0
 43
0.0
 44
0.0
 50
0.0
 51
0.0
 71
     0
 72
  2000
 73
     1
 74
     3
 75
     0
 76
     0
 77
     0
 78
     0
281
     0
 65
     1
110
0.0
120
0.0
130
0.0
111
1.0
121
0.0
131
0.0
112
0.0
122
1.0
132
0.0
 79
     0
146
0.0
  0
ENDTAB
  0
TABLE
  2
LTYPE
  5
5
330
0
100
AcDbSymbolTable
 70
     6
  0
LTYPE
  5
14
330
5
100
AcDbSymbolTableRecord
100
AcDbLinetypeTableRecord
  2
ByBlock
 70
     0
  3

 72
    65
 73
     0
 40
0.0
  0
LTYPE
  5
15
330
5
100
AcDbSymbolTableRecord
100
AcDbLinetypeTableRecord
  2
ByLayer
 70
     0
  3

 72
    65
 73
     0
 40
0.0
  0
LTYPE
  5
16
330
5
100
AcDbSymbolTableRecord
100
AcDbLinetypeTableRecord
  2
Continuous
 70
     0
  3
Solid line
 72
    65
 73
     0
 40
0.0
  0
LTYPE
  5
6E
330
5
100
AcDbSymbolTableRecord
100
AcDbLinetypeTableRecord
  2
HIDDEN
 70
     0
  3
Hidden __ __ __ __ __ __ __ __ __ __ __ __ __ __
 72
    65
 73
     2
 40
1.905
 49
1.27
 74
     0
 49
-0.635
 74
     0
  0
LTYPE
  5
6F
330
5
100
AcDbSymbolTableRecord
100
AcDbLinetypeTableRecord
  2
PHANTOM
 70
     0
  3
Phantom ______  __  __  ______  __  __  ______
 72
    65
 73
     6
 40
12.7
 49
6.35
 74
     0
 49
-1.27
 74
     0
 49
1.27
 74
     0
 49
-1.27
 74
     0
 49
1.27
 74
     0
 49
-1.27
 74
     0
  0
LTYPE
  5
70
330
5
100
AcDbSymbolTableRecord
100
AcDbLinetypeTableRecord
  2
CENTER
 70
     0
  3
Center ____ _ ____ _ ____ _ ____ _ ____ _ ____
 72
    65
 73
     4
 40
10.16
 49
6.35
 74
     0
 49
-1.27
 74
     0
 49
1.27
 74
     0
 49
-1.27
 74
     0
  0
LTYPE
  5
71
330
5
100
AcDbSymbolTableRecord
100
AcDbLinetypeTableRecord
  2
CENTERX2
 70
     0
  3
Center (2x) ________  __  ________  __  _____
 72
    65
 73
     4
 40
20.32
 49
12.7
 74
     0
 49
-2.54
 74
     0
 49
2.54
 74
     0
 49
-2.54
 74
     0
  0
LTYPE
  5
72
330
5
100
AcDbSymbolTableRecord
100
AcDbLinetypeTableRecord
  2
DOT2
 70
     0
  3
Dot (.5x) ........................................
 72
    65
 73
     2
 40
0.635
 49
0.0
 74
     0
 49
-0.635
 74
     0
  0
ENDTAB
  0
TABLE
  2
LAYER
  5
2
330
0
100
AcDbSymbolTable
 70
     2
  0
LAYER
  5
10
330
2
100
AcDbSymbolTableRecord
100
AcDbLayerTableRecord
  2
0
 70
     0
 62
     7
  6
Continuous
370
    -3
390
F
  0
LAYER
  5
73
330
2
100
AcDbSymbolTableRecord
100
AcDbLayerTableRecord
  2
FORMAT
 70
     0
 62
     7
  6
Continuous
370
    -3
390
F
  0
ENDTAB
  0
TABLE
  2
STYLE
  5
3
330
0
100
AcDbSymbolTable
 70
     2
  0
STYLE
  5
11
330
3
100
AcDbSymbolTableRecord
100
AcDbTextStyleTableRecord
  2
Standard
 70
     0
 40
0.0
 41
1.0
 50
0.0
 71
     0
 42
3.5
  3
txt
  4

  0
STYLE
  5
74
330
3
100
AcDbSymbolTableRecord
100
AcDbTextStyleTableRecord
  2
SLDTEXTSTYLE0
 70
     0
 40
0.0
 41
0.605
 50
0.0
 71
     0
 42
3.5
  3
TXT
  4

  0
ENDTAB
  0
TABLE
  2
VIEW
  5
6
330
0
100
AcDbSymbolTable
 70
     0
  0
ENDTAB
  0
TABLE
  2
UCS
  5
7
330
0
100
AcDbSymbolTable
 70
     0
  0
ENDTAB
  0
TABLE
  2
APPID
  5
9
330
0
100
AcDbSymbolTable
 70
     1
  0
APPID
  5
12
330
9
100
AcDbSymbolTableRecord
100
AcDbRegAppTableRecord
  2
ACAD
 70
     0
  0
ENDTAB
  0
TABLE
  2
DIMSTYLE
  5
A
330
0
100
AcDbSymbolTable
 70
     1
100
AcDbDimStyleTable
  0
DIMSTYLE
105
27
330
A
100
AcDbSymbolTableRecord
100
AcDbDimStyleTableRecord
  2
ISO-25
 70
     0
 41
2.5
 42
0.625
 43
3.75
 44
1.25
 73
     0
 74
     0
 77
     1
 78
     8
140
2.5
141
2.5
143
0.0393700787
147
0.625
171
     3
172
     1
178
     0
271
     2
272
     2
274
     3
278
    44
283
     0
284
     8
340
11
  0
ENDTAB
  0
TABLE
  2
BLOCK_RECORD
  5
1
330
0
100
AcDbSymbolTable
 70
     1
  0
BLOCK_RECORD
  5
1F
330
1
100
AcDbSymbolTableRecord
100
AcDbBlockTableRecord
  2
*Model_Space
340
22
  0
BLOCK_RECORD
  5
1B
330
1
100
AcDbSymbolTableRecord
100
AcDbBlockTableRecord
  2
*Paper_Space
340
1E
  0
BLOCK_RECORD
  5
23
330
1
100
AcDbSymbolTableRecord
100
AcDbBlockTableRecord
  2
*Paper_Space0
340
26
  0
ENDTAB
  0
ENDSEC
  0
SECTION
  2
BLOCKS
  0
BLOCK
  5
20
330
1F
100
AcDbEntity
  8
0
100
AcDbBlockBegin
  2
*Model_Space
 70
     0
 10
0.0
 20
0.0
 30
0.0
  3
*Model_Space
  1

  0
ENDBLK
  5
21
330
1F
100
AcDbEntity
  8
0
100
AcDbBlockEnd
  0
BLOCK
  5
1C
330
1B
100
AcDbEntity
 67
     1
  8
0
100
AcDbBlockBegin
  2
*Paper_Space
 70
     0
 10
0.0
 20
0.0
 30
0.0
  3
*Paper_Space
  1

  0
ENDBLK
  5
1D
330
1B
100
AcDbEntity
 67
     1
  8
0
100
AcDbBlockEnd
  0
BLOCK
  5
24
330
23
100
AcDbEntity
  8
0
100
AcDbBlockBegin
  2
*Paper_Space0
 70
     0
 10
0.0
 20
0.0
 30
0.0
  3
*Paper_Space0
  1

  0
ENDBLK
  5
25
330
23
100
AcDbEntity
  8
0
100
AcDbBlockEnd
  0
ENDSEC
  0
SECTION
  2
ENTITIES
  0
MTEXT
  5
75
330
1F
100
AcDbEntity
  8
0
  6
Continuous
 62
     7
370
     0
100
AcDbMText
 10
7.2782978723
 20
22.1884790273
 30
0.0
 40
10.0
 41
0.0
 71
     1
 72
     1
  1
1:1
  7
SLDTEXTSTYLE0
 73
     1
 44
1.0
  0
LINE
  5
76
330
1F
100
AcDbEntity
  8
0
  6
Continuous
 62
     7
370
    30
100
AcDbLine
 10
256.9887412676
 20
239.8185955515
 30
0.0
 11
253.7388259371
 21
381.9617064914
 31
0.0
  0
LINE
  5
77
330
1F
100
AcDbEntity
  8
0
  6
Continuous
 62
     7
370
    30
100
AcDbLine
 10
200.242511509
 20
381.9616825278
 30
0.0
 11
196.9925967264
 21
239.8185955515
 31
0.0
  0
SPLINE
  5
78
330
1F
100
AcDbEntity
  8
0
  6
Continuous
 62
     7
370
    30
100
AcDbSpline
210
0.0
220
0.0
230
1.0
 70
     8
 71
     3
 72
   150
 73
   146
 74
     0
 42
0.000000001
 43
0.00000001
 40
0.0
 40
0.0
 40
0.0
 40
0.0
 40
0.0008336975506761
 40
0.0081043308100846
 40
0.0153696678708413
 40
0.0226144148191039
 40
0.0298562028224015
 40
0.0370931027442333
 40
0.0443276132232585
 40
0.0515603779810607
 40
0.0587920391536506
 40
0.0660232368146052
 40
0.0732546089150711
 40
0.0804866657915464
 40
0.0877199552281979
 40
0.0949551091087636
 40
0.102192756927105
 40
0.1094335257494555
 40
0.1166780401679354
 40
0.1239269222561933
 40
0.1311807915271755
 40
0.1384334401795799
 40
0.1456893490592926
 40
0.1529424142968902
 40
0.1601872461561986
 40
0.1674251877168099
 40
0.1746575776505895
 40
0.1818857531705385
 40
0.1891110500051481
 40
0.1963348023707891
 40
0.2035583429406269
 40
0.2107827908204705
 40
0.2180092443270815
 40
0.2252390315037825
 40
0.2324734783625849
 40
0.2397139089321188
 40
0.2469616781272942
 40
0.2542206487272465
 40
0.2614704150084709
 40
0.268715983462693
 40
0.275958764366723
 40
0.2832001664540304
 40
0.2904415983498796
 40
0.2976841470982307
 40
0.3049292565202266
 40
0.3121856335389373
 40
0.3194057226423628
 40
0.3266474646605129
 40
0.3339027976400966
 40
0.3411637031974468
 40
0.3484208049664426
 40
0.3556647823266416
 40
0.3628875565524478
 40
0.3700656181485009
 40
0.3773242240616339
 40
0.3845744598188386
 40
0.3918177963892031
 40
0.3990556818784552
 40
0.4062895648976883
 40
0.4135208947197332
 40
0.4207511214466488
 40
0.4279816961820401
 40
0.4352136268830428
 40
0.4424483265984533
 40
0.4496872493921478
 40
0.4569318507081626
 40
0.4641835875832711
 40
0.4714439188562452
 40
0.478714631234123
 40
0.4860181696516753
 40
0.4932958374966909
 40
0.5005727023139999
 40
0.5078502406201932
 40
0.5151296170361459
 40
0.522412415969216
 40
0.5297002278114129
 40
0.5369951793715294
 40
0.5442805730717679
 40
0.5515510955905863
 40
0.5588473187163081
 40
0.5661615039196011
 40
0.5734859606140583
 40
0.5808129844083428
 40
0.5881328775375632
 40
0.5954395886452525
 40
0.6026926151702116
 40
0.6100500713605754
 40
0.6174064500890046
 40
0.6247635187956315
 40
0.6321227115681801
 40
0.6394859817020233
 40
0.6468553295406687
 40
0.6542328079278811
 40
0.6616205281327462
 40
0.6690206665040695
 40
0.6764354719505609
 40
0.6838672743560208
 40
0.6913184940526519
 40
0.6987916524879318
 40
0.706289497821787
 40
0.7138324638273044
 40
0.7213875973258606
 40
0.7289610603395021
 40
0.7365565324763332
 40
0.7441779527929437
 40
0.7518295522705151
 40
0.7595158919773805
 40
0.7672377703377757
 40
0.7750196064203256
 40
0.7827998659100063
 40
0.790644777640497
 40
0.7985594808631351
 40
0.806550503299624
 40
0.8146254517752017
 40
0.8227927590337915
 40
0.8309011069845417
 40
0.8393042048255825
 40
0.8477999275165788
 40
0.8563883187564094
 40
0.8650543252830077
 40
0.8737579401200467
 40
0.8823976295363782
 40
0.8908568373326223
 40
0.8981758936239229
 40
0.905111957722538
 40
0.9116663005397011
 40
0.9178608697321027
 40
0.9237272254192537
 40
0.9292998198496475
 40
0.9346124232236009
 40
0.9394854275433565
 40
0.9446476662340418
 40
0.9497914459688116
 40
0.9547232934180603
 40
0.9594690837328328
 40
0.9640549924543542
 40
0.9685040257584779
 40
0.9728363682014017
 40
0.9770697610081087
 40
0.9812198360921873
 40
0.985300407285822
 40
0.9893237276572208
 40
0.9933007234545546
 40
0.9972412144165766
 40
1.0
 40
1.0
 40
1.0
 40
1.0
 10
226.9906664977046
 20
386.7846378484828
 30
0.0
 10
226.9792921424762
 20
386.7846245824709
 30
0.0
 10
226.8687226230531
 20
386.7844956242556
 30
0.0
 10
226.6590265707698
 20
386.7836197664794
 30
0.0
 10
226.3619083402462
 20
386.7817812705858
 30
0.0
 10
226.0652649471205
 20
386.7788626279528
 30
0.0
 10
225.7691299431598
 20
386.7748997950114
 30
0.0
 10
225.4732932072373
 20
386.7699101556594
 30
0.0
 10
225.1777765434174
 20
386.7639185939213
 30
0.0
 10
224.8825666886396
 20
386.7569478066227
 30
0.0
 10
224.5876757263998
 20
386.7490213098973
 30
0.0
 10
224.2931158156347
 20
386.740162555173
 30
0.0
 10
223.9989009067001
 20
386.7303951097723
 30
0.0
 10
223.7050461915846
 20
386.7197426336778
 30
0.0
 10
223.4115669255422
 20
386.7082288598927
 30
0.0
 10
223.1184767347867
 20
386.6958775125505
 30
0.0
 10
222.8257881669046
 20
386.6827123024187
 30
0.0
 10
222.5335138563458
 20
386.6687569865342
 30
0.0
 10
222.2416665488131
 20
386.6540353067837
 30
0.0
 10
221.9502590145675
 20
386.638571222526
 30
0.0
 10
221.6593956208512
 20
386.6223931194061
 30
0.0
 10
221.3691273202562
 20
386.6055299366503
 30
0.0
 10
221.0795929785253
 20
386.5880066443456
 30
0.0
 10
220.7909257794556
 20
386.5698434533877
 30
0.0
 10
220.5032974715341
 20
386.5510662742096
 30
0.0
 10
220.2167802661034
 20
386.5316954595221
 30
0.0
 10
219.93135718499
 20
386.5117457605943
 30
0.0
 10
219.6470115582602
 20
386.4912318338061
 30
0.0
 10
219.3637269590961
 20
386.4701682814366
 30
0.0
 10
219.0814872209554
 20
386.4485696518778
 30
0.0
 10
218.8002791957488
 20
386.4264506699311
 30
0.0
 10
218.5200929478376
 20
386.4038262868938
 30
0.0
 10
218.2409187364112
 20
386.3807114935439
 30
0.0
 10
217.9627442320525
 20
386.357121000682
 30
0.0
 10
217.6855546584685
 20
386.3330695285894
 30
0.0
 10
217.4093341909692
 20
386.3085707966861
 30
0.0
 10
217.1340386278011
 20
386.2836392322627
 30
0.0
 10
216.8598842988796
 20
386.2583007328673
 30
0.0
 10
216.5870710033721
 20
386.2325745669371
 30
0.0
 10
216.3158042364903
 20
386.2064924161143
 30
0.0
 10
216.0460214790871
 20
386.1800579041791
 30
0.0
 10
215.7777042657996
 20
386.1532793323716
 30
0.0
 10
215.5108385204412
 20
386.1261652046694
 30
0.0
 10
215.24541112564
 20
386.0987235568423
 30
0.0
 10
214.9813160104331
 20
386.0709543211652
 30
0.0
 10
214.7190513360622
 20
386.0429139300758
 30
0.0
 10
214.4584191689251
 20
386.0145902585978
 30
0.0
 10
214.1994102656921
 20
385.9859920246365
 30
0.0
 10
213.9415612230662
 20
385.9570735287189
 30
0.0
 10
213.6852108508737
 20
385.9278776597936
 30
0.0
 10
213.4307095897789
 20
385.8984494989734
 30
0.0
 10
213.1784006106304
 20
385.8688355631895
 30
0.0
 10
212.928796390757
 20
385.8390999475473
 30
0.0
 10
212.6808298168692
 20
385.809134178122
 30
0.0
 10
212.4343653757544
 20
385.7789238660237
 30
0.0
 10
212.189035392553
 20
385.7484202769338
 30
0.0
 10
211.9458446601315
 20
385.7177494290464
 30
0.0
 10
211.7047745653603
 20
385.6869115017547
 30
0.0
 10
211.4658064453541
 20
385.6559066251585
 30
0.0
 10
211.2289223561643
 20
385.624734881577
 30
0.0
 10
210.9941048016811
 20
385.5933962983058
 30
0.0
 10
210.7613415801431
 20
385.5618914966928
 30
0.0
 10
210.5306212329645
 20
385.5302211215924
 30
0.0
 10
210.301932632084
 20
385.4983857848183
 30
0.0
 10
210.0752603135413
 20
385.4663854061979
 30
0.0
 10
209.8505891871776
 20
385.4342198007553
 30
0.0
 10
209.6279036551601
 20
385.4018887358967
 30
0.0
 10
209.4071891983701
 20
385.3693914547883
 30
0.0
 10
209.1882071329197
 20
385.3366957057386
 30
0.0
 10
208.9713419757807
 20
385.3038483587634
 30
0.0
 10
208.7567539319706
 20
385.2708715710871
 30
0.0
 10
208.5447765918969
 20
385.2378167963587
 30
0.0
 10
208.335166501604
 20
385.2046456414712
 30
0.0
 10
208.127910279972
 20
385.1713549609857
 30
0.0
 10
207.9229924754032
 20
385.137941118113
 30
0.0
 10
207.7203961620671
 20
385.1044001061498
 30
0.0
 10
207.5202467760118
 20
385.0707515399558
 30
0.0
 10
207.3227891937052
 20
385.0370294234337
 30
0.0
 10
207.1278544068817
 20
385.0032093343688
 30
0.0
 10
206.9352097402095
 20
384.9692495564819
 30
0.0
 10
206.7446643220278
 20
384.9351118089911
 30
0.0
 10
206.5564507764323
 20
384.900832037318
 30
0.0
 10
206.3708174714698
 20
384.8664502596128
 30
0.0
 10
206.1879739730627
 20
384.8320000025775
 30
0.0
 10
206.0084606803944
 20
384.7975805535589
 30
0.0
 10
205.8312905763983
 20
384.7630141724442
 30
0.0
 10
205.6564095351346
 20
384.7282781295164
 30
0.0
 10
205.4834461105952
 20
384.6932854638886
 30
0.0
 10
205.3132366670369
 20
384.658197153064
 30
0.0
 10
205.1457628478561
 20
384.6230042282497
 30
0.0
 10
204.9810052769843
 20
384.5876969809314
 30
0.0
 10
204.8189409415209
 20
384.5522643893387
 30
0.0
 10
204.6595468040281
 20
384.5166947869207
 30
0.0
 10
204.5027997371386
 20
384.4809757937995
 30
0.0
 10
204.3486764516855
 20
384.4450942262064
 30
0.0
 10
204.197153412431
 20
384.4090360113143
 30
0.0
 10
204.0482067627598
 20
384.3727860298297
 30
0.0
 10
203.901812172351
 20
384.3363281581826
 30
0.0
 10
203.7579441975431
 20
384.2996442970161
 30
0.0
 10
203.6164651546993
 20
384.2626877682902
 30
0.0
 10
203.477429122283
 20
384.2254500155187
 30
0.0
 10
203.3409572304693
 20
384.1879418845852
 30
0.0
 10
203.2072003734531
 20
384.1501880215922
 30
0.0
 10
203.0761017017496
 20
384.1121537555725
 30
0.0
 10
202.9476155172203
 20
384.0738048709194
 30
0.0
 10
202.8216902767904
 20
384.0351018586495
 30
0.0
 10
202.6983102807782
 20
383.9960130325422
 30
0.0
 10
202.5772913962833
 20
383.9564477370895
 30
0.0
 10
202.4588945609212
 20
383.9164479164567
 30
0.0
 10
202.3429840030543
 20
383.8759339774471
 30
0.0
 10
202.2295110687991
 20
383.8348455356351
 30
0.0
 10
202.1181220874616
 20
383.7929928529616
 30
0.0
 10
202.0087583615569
 20
383.7502753589098
 30
0.0
 10
201.9013315603925
 20
383.7065650293195
 30
0.0
 10
201.7964904137083
 20
383.6620194464223
 30
0.0
 10
201.6933847259238
 20
383.6161947631846
 30
0.0
 10
201.5918813837932
 20
383.5688684864006
 30
0.0
 10
201.4914767352802
 20
383.5195687052046
 30
0.0
 10
201.3930127748053
 20
383.4684724836584
 30
0.0
 10
201.2966476555411
 20
383.4154106859605
 30
0.0
 10
201.2028557907315
 20
383.3603753128646
 30
0.0
 10
201.1123882144495
 20
383.3035604430917
 30
0.0
 10
201.029036615919
 20
383.247313682518
 30
0.0
 10
200.9533361361901
 20
383.1924437871295
 30
0.0
 10
200.8854489403803
 20
383.1397133977903
 30
0.0
 10
200.8225241727694
 20
383.0872864288046
 30
0.0
 10
200.7641911864065
 20
383.0351045883425
 30
0.0
 10
200.7100476356563
 20
382.9830492816702
 30
0.0
 10
200.6596712641596
 20
382.930919969901
 30
0.0
 10
200.6134490874931
 20
382.8793647955413
 30
0.0
 10
200.5692740147483
 20
382.8262144404547
 30
0.0
 10
200.5267724073541
 20
382.7707393217855
 30
0.0
 10
200.4857090645839
 20
382.7120476747249
 30
0.0
 10
200.4475137301928
 20
382.6518787336069
 30
0.0
 10
200.4126613484963
 20
382.591017835051
 30
0.0
 10
200.3810545654775
 20
382.5293901665176
 30
0.0
 10
200.3526362755945
 20
382.4669411251021
 30
0.0
 10
200.3273855409656
 20
382.4036472895375
 30
0.0
 10
200.3053115576471
 20
382.3395190386553
 30
0.0
 10
200.2864396535882
 20
382.2745985949596
 30
0.0
 10
200.2708230088733
 20
382.2089648753364
 30
0.0
 10
200.2584640967341
 20
382.1427120324785
 30
0.0
 10
200.2495677750679
 20
382.0760196836192
 30
0.0
 10
200.2441648341261
 20
382.0154318028945
 30
0.0
 10
200.2432388318945
 20
381.9773498179186
 30
0.0
 10
200.242857500927
 20
381.9616675229086
 30
0.0
  0
SPLINE
  5
79
330
1F
100
AcDbEntity
  8
0
  6
Continuous
 62
     7
370
    30
100
AcDbSpline
210
0.0
220
0.0
230
1.0
 70
     8
 71
     3
 72
   151
 73
   147
 74
     0
 42
0.000000001
 43
0.00000001
 40
0.0
 40
0.0
 40
0.0
 40
0.0
 40
0.0005080190386031
 40
0.0044310240751323
 40
0.0083562199559264
 40
0.0122661452432711
 40
0.0162027653700099
 40
0.0201749320651637
 40
0.0241924241798124
 40
0.0282659287155723
 40
0.0324071733827246
 40
0.0366290601147371
 40
0.0409458070874777
 40
0.045373104611682
 40
0.0499282874825423
 40
0.0546305209777502
 40
0.0595009876552843
 40
0.064562154484823
 40
0.0695603883138398
 40
0.075124555154449
 40
0.0809513064548248
 40
0.0870869010789252
 40
0.093566744578948
 40
0.1004237334551193
 40
0.1076813639838683
 40
0.1153437288318966
 40
0.1233836338795396
 40
0.1317351921558396
 40
0.1403001994418891
 40
0.1489705558546656
 40
0.1576426234973
 40
0.1662530562544418
 40
0.1747778077821775
 40
0.1832116071267479
 40
0.1913483295055403
 40
0.1995575325858718
 40
0.2076686283787179
 40
0.2156901119027552
 40
0.2236303469782813
 40
0.2314965133478062
 40
0.2392941432429062
 40
0.2470567678044438
 40
0.254754959040824
 40
0.2624153356966168
 40
0.2700428791215479
 40
0.2776421713396375
 40
0.2852174542048733
 40
0.2927726695742479
 40
0.3003112856174838
 40
0.3078511443522086
 40
0.315338916665417
 40
0.3228038985722637
 40
0.3302487613474953
 40
0.3376760411887056
 40
0.3450881704657132
 40
0.3524874888123029
 40
0.3598762529375751
 40
0.3672566453211518
 40
0.3746307819222779
 40
0.3820007190230309
 40
0.3893684593087742
 40
0.396735957279452
 40
0.4041046948663256
 40
0.4114768390547798
 40
0.4187510893006305
 40
0.4260842968281857
 40
0.4334250420830631
 40
0.4407654662315665
 40
0.4480956903049865
 40
0.4554079969115061
 40
0.4626946942525438
 40
0.4699481002463174
 40
0.4772067715477847
 40
0.4844795004046849
 40
0.4917475077815432
 40
0.499012389035608
 40
0.5062757234866279
 40
0.5135390842066752
 40
0.5208036570592693
 40
0.5280706117079282
 40
0.5353667929959527
 40
0.5426322393126713
 40
0.5498894163162992
 40
0.5571397978793986
 40
0.5643848496497252
 40
0.5716260350034421
 40
0.5788648152577545
 40
0.5861026498734617
 40
0.5933409821444281
 40
0.6005807972800263
 40
0.6078235502416347
 40
0.6150706946698306
 40
0.6223236829206272
 40
0.6295839662363942
 40
0.6368529949120546
 40
0.6441330230937452
 40
0.6513377093708131
 40
0.658574910602091
 40
0.6658258181742557
 40
0.6730825547665354
 40
0.680335898639772
 40
0.6875763759013392
 40
0.6947959749254176
 40
0.7019898181387203
 40
0.7092248386963819
 40
0.7164554867247982
 40
0.7236855815820515
 40
0.7309163989222703
 40
0.7381489980033212
 40
0.7453847799527921
 40
0.7526251454440389
 40
0.7598707604653442
 40
0.7671310084926818
 40
0.7743811985550787
 40
0.7816258383323111
 40
0.7888662604332053
 40
0.796103797853623
 40
0.8033397852157071
 40
0.8105755587167727
 40
0.817812243193937
 40
0.8250509437697268
 40
0.8322930000904593
 40
0.8395397530792305
 40
0.8467925448055454
 40
0.854052718457974
 40
0.861321618320914
 40
0.8686005010357514
 40
0.8758742168951681
 40
0.8831270218415965
 40
0.8903754811564288
 40
0.8976202145526864
 40
0.9048618440601179
 40
0.9121009942567176
 40
0.9193382922247667
 40
0.9265743675045135
 40
0.9338098520455572
 40
0.9410453801557495
 40
0.9482815067205714
 40
0.9555187392243886
 40
0.9627577178419463
 40
0.9699990848628645
 40
0.9772434846084839
 40
0.984490741184669
 40
0.9917298761983078
 40
0.9989551373723385
 40
1.0
 40
1.0
 40
1.0
 40
1.0
 10
253.7386364568584
 20
381.9616877931392
 30
0.0
 10
253.7386317034997
 20
381.964579529784
 30
0.0
 10
253.7385902439371
 20
381.9898017236749
 30
0.0
 10
253.7352959498916
 20
382.0373156079995
 30
0.0
 10
253.7285757539584
 20
382.1036302955108
 30
0.0
 10
253.7183396856721
 20
382.1689281951486
 30
0.0
 10
253.7051232556405
 20
382.2331914625807
 30
0.0
 10
253.688882662106
 20
382.2964718594968
 30
0.0
 10
253.6697456317918
 20
382.35868693539
 30
0.0
 10
253.6477954034926
 20
382.4197783735154
 30
0.0
 10
253.623114198387
 20
382.4797190060734
 30
0.0
 10
253.5957643203272
 20
382.5385096545829
 30
0.0
 10
253.5657865072295
 20
382.5961782366608
 30
0.0
 10
253.5331936949449
 20
382.6527777813728
 30
0.0
 10
253.4979665001696
 20
382.7083847227635
 30
0.0
 10
253.460046770531
 20
382.7630964462492
 30
0.0
 10
253.4193394813499
 20
382.8170281839955
 30
0.0
 10
253.3764880718444
 20
382.8693283860867
 30
0.0
 10
253.3308935298224
 20
382.9209101206209
 30
0.0
 10
253.2818253691451
 20
382.9724712854866
 30
0.0
 10
253.2282350146386
 20
383.0247500705102
 30
0.0
 10
253.1706713668052
 20
383.0769776037696
 30
0.0
 10
253.108670756146
 20
383.1293584504049
 30
0.0
 10
253.0417581694333
 20
383.1820518615871
 30
0.0
 10
252.9694929497512
 20
383.2351438473901
 30
0.0
 10
252.8915624560357
 20
383.2886077400589
 30
0.0
 10
252.807904799525
 20
383.3422640871725
 30
0.0
 10
252.7187983090129
 20
383.3957815816535
 30
0.0
 10
252.6248493406086
 20
383.4487378599053
 30
0.0
 10
252.5268961692726
 20
383.5007019290114
 30
0.0
 10
252.4257755831349
 20
383.5513539099854
 30
0.0
 10
252.3221166970857
 20
383.6005498384624
 30
0.0
 10
252.2162674854408
 20
383.6483049018947
 30
0.0
 10
252.109162715541
 20
383.6943857826154
 30
0.0
 10
252.0001253244086
 20
383.739249708402
 30
0.0
 10
251.8893761069762
 20
383.7829411038673
 30
0.0
 10
251.7759256092954
 20
383.8259351266483
 30
0.0
 10
251.6605260638538
 20
383.8680307090717
 30
0.0
 10
251.5431075848374
 20
383.9093339588288
 30
0.0
 10
251.4236164536607
 20
383.9499316141018
 30
0.0
 10
251.3018520328969
 20
383.9899450392113
 30
0.0
 10
251.1778773334402
 20
384.0294044665809
 30
0.0
 10
251.0515047315752
 20
384.0684107291289
 30
0.0
 10
250.9227807333764
 20
384.1069833781843
 30
0.0
 10
250.7915327756138
 20
384.1452030321612
 30
0.0
 10
250.6577120522572
 20
384.1831079372415
 30
0.0
 10
250.5212743586608
 20
384.2207319605984
 30
0.0
 10
250.3821668985084
 20
384.258108045107
 30
0.0
 10
250.2402955397822
 20
384.295278414277
 30
0.0
 10
250.0958497113496
 20
384.3322114535559
 30
0.0
 10
249.9488842432192
 20
384.36890456941
 30
0.0
 10
249.7995788029816
 20
384.4053283745419
 30
0.0
 10
249.6477341291389
 20
384.441543872412
 30
0.0
 10
249.4933257785682
 20
384.4775673953346
 30
0.0
 10
249.3363296660727
 20
384.5134141208278
 30
0.0
 10
249.1767221660317
 20
384.5490981943502
 30
0.0
 10
249.0144799271258
 20
384.5846328533011
 30
0.0
 10
248.8495798140615
 20
384.6200305247299
 30
0.0
 10
248.6819988089894
 20
384.6553029099176
 30
0.0
 10
248.5117139993244
 20
384.6904610732031
 30
0.0
 10
248.3387023075353
 20
384.7255154628364
 30
0.0
 10
248.1629446217464
 20
384.7604754651847
 30
0.0
 10
247.9844173028103
 20
384.7953499612126
 30
0.0
 10
247.8039505903355
 20
384.8299870525616
 30
0.0
 10
247.6210411105959
 20
384.8644836067867
 30
0.0
 10
247.4357594808269
 20
384.8988345685079
 30
0.0
 10
247.247279257777
 20
384.9331957615283
 30
0.0
 10
247.0562110284087
 20
384.9674577478652
 30
0.0
 10
246.8627985074746
 20
385.0015806604939
 30
0.0
 10
246.6672921379271
 20
385.0355244326958
 30
0.0
 10
246.4699292728197
 20
385.0692529928747
 30
0.0
 10
246.270527692264
 20
385.1027995449018
 30
0.0
 10
246.0688037028365
 20
385.1362216959219
 30
0.0
 10
245.864489761573
 20
385.1695637664438
 30
0.0
 10
245.6576890035658
 20
385.2028083600666
 30
0.0
 10
245.4485738755533
 20
385.2359287135828
 30
0.0
 10
245.2371269274304
 20
385.2689288226317
 30
0.0
 10
245.0233346135384
 20
385.3018118859259
 30
0.0
 10
244.8071827876796
 20
385.3345812015241
 30
0.0
 10
244.5884195243935
 20
385.3672749260921
 30
0.0
 10
244.3673865994184
 20
385.3998483961221
 30
0.0
 10
244.144201016517
 20
385.4322797878807
 30
0.0
 10
243.9192700852078
 20
385.4645093402207
 30
0.0
 10
243.6923639648664
 20
385.4965686317096
 30
0.0
 10
243.4634683222885
 20
385.5284579200526
 30
0.0
 10
243.2325680165368
 20
385.5601774269732
 30
0.0
 10
242.9996474765984
 20
385.5917273219191
 30
0.0
 10
242.764690743749
 20
385.6231077061323
 30
0.0
 10
242.5276865012284
 20
385.6543179537922
 30
0.0
 10
242.2886231067852
 20
385.6853574062143
 30
0.0
 10
242.0474884932591
 20
385.716225389412
 30
0.0
 10
241.8042647471704
 20
385.7469218625183
 30
0.0
 10
241.558934173364
 20
385.777446697611
 30
0.0
 10
241.3114758781635
 20
385.8077998321651
 30
0.0
 10
241.0618693585563
 20
385.8379818050239
 30
0.0
 10
240.8110677196134
 20
385.8678741253577
 30
0.0
 10
240.5588353240722
 20
385.897492551425
 30
0.0
 10
240.3052032895093
 20
385.9268354890489
 30
0.0
 10
240.0492507603196
 20
385.9560023596133
 30
0.0
 10
239.7914282519209
 20
385.9849345830086
 30
0.0
 10
239.5320806796998
 20
386.0135866665702
 30
0.0
 10
239.2715608407021
 20
386.0419137220211
 30
0.0
 10
239.0101692730606
 20
386.0698771269267
 30
0.0
 10
238.7472981986111
 20
386.0975367695672
 30
0.0
 10
238.4827890553826
 20
386.1249048445819
 30
0.0
 10
238.2163558211805
 20
386.1519973545682
 30
0.0
 10
237.9485284682634
 20
386.1787504358599
 30
0.0
 10
237.6792654691105
 20
386.2051585445776
 30
0.0
 10
237.4085547712746
 20
386.2312129859714
 30
0.0
 10
237.1363837853269
 20
386.2569055663238
 30
0.0
 10
236.8627394867252
 20
386.2822257228143
 30
0.0
 10
236.5875268082552
 20
386.3071786671507
 30
0.0
 10
236.3109501238431
 20
386.3317384678081
 30
0.0
 10
236.0331802807945
 20
386.3558691759358
 30
0.0
 10
235.7544935765888
 20
386.3795316019426
 30
0.0
 10
235.4748349674333
 20
386.4027145827257
 30
0.0
 10
235.1941895340414
 20
386.4254037244843
 30
0.0
 10
234.9125421103445
 20
386.4475845496638
 30
0.0
 10
234.6298799984195
 20
386.4692423736886
 30
0.0
 10
234.346193320227
 20
386.4903622767882
 30
0.0
 10
234.0614720189647
 20
386.5109293577396
 30
0.0
 10
233.7757030450744
 20
386.5309289116878
 30
0.0
 10
233.4888700424889
 20
386.5503464178083
 30
0.0
 10
233.2009563711271
 20
386.5691672719396
 30
0.0
 10
232.9119452461061
 20
386.5873768908228
 30
0.0
 10
232.6218204432975
 20
386.6049602052612
 30
0.0
 10
232.3307869572606
 20
386.6218905281349
 30
0.0
 10
232.0392745751264
 20
386.6381258569467
 30
0.0
 10
231.7475130963833
 20
386.6536292222536
 30
0.0
 10
231.4555229852276
 20
386.6683787822205
 30
0.0
 10
231.1631034631418
 20
386.6823618697021
 30
0.0
 10
230.8702674295262
 20
386.6955546860358
 30
0.0
 10
230.5770276726095
 20
386.7079334167684
 30
0.0
 10
230.2833968935776
 20
386.7194742951199
 30
0.0
 10
229.98938770028
 20
386.7301535844007
 30
0.0
 10
229.6950126103335
 20
386.7399475812497
 30
0.0
 10
229.4002851614196
 20
386.7488325824951
 30
0.0
 10
229.1052205947452
 20
386.756784877105
 30
0.0
 10
228.8098340867938
 20
386.7637808526911
 30
0.0
 10
228.5141396388285
 20
386.7697968939799
 30
0.0
 10
228.2181493714431
 20
386.7748098220893
 30
0.0
 10
227.9218865966645
 20
386.7787950112543
 30
0.0
 10
227.6255328626602
 20
386.7817314334063
 30
0.0
 10
227.3293582133662
 20
386.7835858807318
 30
0.0
 10
227.1177585723565
 20
386.7844775466597
 30
0.0
 10
227.0049269861288
 20
386.784613692678
 30
0.0
 10
226.9906716363303
 20
386.784630893616
 30
0.0
  0
ARC
  5
7A
330
1F
100
AcDbEntity
  8
0
  6
Continuous
 62
     7
370
    30
100
AcDbCircle
 10
265.2438129939
 20
253.7831745062
 30
0.0
 40
0.5000000000000555
100
AcDbArc
 50
269.5
 51
359.2836446887
  0
LINE
  5
7B
330
1F
100
AcDbEntity
  8
0
  6
Continuous
 62
     7
370
    30
100
AcDbLine
 10
260.177914617
 20
269.2294013616
 30
0.0
 11
256.317072212
 21
269.1957083003
 31
0.0
  0
LINE
  5
7C
330
1F
100
AcDbEntity
  8
0
  6
Continuous
 62
     7
370
    30
100
AcDbLine
 10
256.6791829229
 20
253.3578978613
 30
0.0
 11
265.2394497261
 21
253.2831935447
 31
0.0
  0
ARC
  5
7D
330
1F
100
AcDbEntity
  8
0
  6
Continuous
 62
     7
370
    30
100
AcDbCircle
 10
-334.209331003
 20
261.278383127
 30
0.0
 40
600.0000000000007
100
AcDbArc
 50
359.2836446887
 51
1.8134824286
  0
SPLINE
  5
7E
330
1F
100
AcDbEntity
  8
0
  6
Continuous
 62
     7
370
    30
100
AcDbSpline
210
0.0
220
0.0
230
1.0
 70
     8
 71
     3
 72
    48
 73
    44
 74
     0
 42
0.000000001
 43
0.00000001
 40
0.0
 40
0.0
 40
0.0
 40
0.0
 40
0.0098596527208104
 40
0.0398191064100757
 40
0.0698207636426051
 40
0.0998218523963281
 40
0.1297900394688302
 40
0.1597009428418657
 40
0.1895359592011535
 40
0.219280449789432
 40
0.2489222460984132
 40
0.2784477502794053
 40
0.3078446533944902
 40
0.3371009004979669
 40
0.3662022907347269
 40
0.395131456462511
 40
0.4238667607982048
 40
0.4523811109070656
 40
0.4806407337668481
 40
0.5086040392449288
 40
0.536220805468761
 40
0.5634320515559196
 40
0.5903467498773465
 40
0.6176266286657536
 40
0.6440746286442627
 40
0.6698447482638871
 40
0.6948497880811628
 40
0.7190190500862111
 40
0.7423028427942534
 40
0.7646783627357387
 40
0.7861519280723
 40
0.8067576041303213
 40
0.826553221392798
 40
0.8456151748647064
 40
0.864033195032848
 40
0.8819058140183869
 40
0.8993368047942272
 40
0.9164325760751765
 40
0.9333003633039441
 40
0.9500470180215338
 40
0.966778213765126
 40
0.9835823947837357
 40
1.0
 40
1.0
 40
1.0
 40
1.0
 10
261.2918924820473
 20
270.8798079944154
 30
0.0
 10
261.2919998149767
 20
270.87129754287
 30
0.0
 10
261.2924332887978
 20
270.8369273084119
 30
0.0
 10
261.2897382750929
 20
270.7762291711597
 30
0.0
 10
261.2837211420882
 20
270.6980046642029
 30
0.0
 10
261.2740254435496
 20
270.619820371298
 30
0.0
 10
261.2609726584264
 20
270.5420187008179
 30
0.0
 10
261.2445270365732
 20
270.4648581227214
 30
0.0
 10
261.2247744829918
 20
270.388586611062
 30
0.0
 10
261.2017905023039
 20
270.3134282870558
 30
0.0
 10
261.1756739282241
 20
270.2395946159869
 30
0.0
 10
261.1465371821077
 20
270.1672853981731
 30
0.0
 10
261.1145087461141
 20
270.096690847739
 30
0.0
 10
261.0797323709669
 20
270.0279919398104
 30
0.0
 10
261.0423691410603
 20
269.9613635620245
 30
0.0
 10
261.0026003625622
 20
269.8969771139957
 30
0.0
 10
260.9606305245798
 20
269.8350013575218
 30
0.0
 10
260.9166914735574
 20
269.7756033099321
 30
0.0
 10
260.8710445127092
 20
269.7189461218592
 30
0.0
 10
260.8239913081362
 20
269.665194009172
 30
0.0
 10
260.7758511279522
 20
269.614485543705
 30
0.0
 10
260.726950874382
 20
269.5669128425931
 30
0.0
 10
260.6769203600412
 20
269.5219188424118
 30
0.0
 10
260.6262915069343
 20
269.4798597967815
 30
0.0
 10
260.57561709964
 20
269.440985897684
 30
0.0
 10
260.5259477985288
 20
269.4057715340761
 30
0.0
 10
260.4776293328862
 20
269.3740989815483
 30
0.0
 10
260.4311318358174
 20
269.3459078461914
 30
0.0
 10
260.3868699309407
 20
269.3210761966509
 30
0.0
 10
260.3451853658988
 20
269.2994276219966
 30
0.0
 10
260.3063376960953
 20
269.2807430955463
 30
0.0
 10
260.2705054104873
 20
269.2647760749991
 30
0.0
 10
260.23779561712
 20
269.2512679192865
 30
0.0
 10
260.2082586935029
 20
269.2399611510192
 30
0.0
 10
260.181904550997
 20
269.2306093386507
 30
0.0
 10
260.1587176957908
 20
269.222983360997
 30
0.0
 10
260.1386709797052
 20
269.2168747779321
 30
0.0
 10
260.121733311322
 20
269.2120962764997
 30
0.0
 10
260.1078870833719
 20
269.2084828102548
 30
0.0
 10
260.097098533467
 20
269.2058835604144
 30
0.0
 10
260.0894543102538
 20
269.2041843206553
 30
0.0
 10
260.0847233709374
 20
269.2032250713074
 30
0.0
 10
260.0841943965297
 20
269.2031289354802
 30
0.0
 10
260.0839329869554
 20
269.2030814268952
 30
0.0
  0
SPLINE
  5
7F
330
1F
100
AcDbEntity
  8
0
  6
Continuous
 62
     7
370
    30
100
AcDbSpline
210
0.0
220
0.0
230
1.0
 70
     8
 71
     3
 72
    95
 73
    91
 74
     0
 42
0.000000001
 43
0.00000001
 40
0.0
 40
0.0
 40
0.0
 40
0.0
 40
0.0139145130658174
 40
0.0266873169519496
 40
0.0383057015578692
 40
0.0487591875818639
 40
0.058039612131898
 40
0.0665150215022779
 40
0.0736859627887764
 40
0.079549835739987
 40
0.0841057254170361
 40
0.0876330794120996
 40
0.0916555745372816
 40
0.0964008770346556
 40
0.1018650493145914
 40
0.1097465926052173
 40
0.1182519015191061
 40
0.1263395489257019
 40
0.1339788049487255
 40
0.1410696466085481
 40
0.1481333813628075
 40
0.1541009592817671
 40
0.1616572658003327
 40
0.1703447776188937
 40
0.1788141355413616
 40
0.1870391959464229
 40
0.1955967572433298
 40
0.2012029785091663
 40
0.2070614203037769
 40
0.2131019386557357
 40
0.2182546012486113
 40
0.2221542989924153
 40
0.2247698447116707
 40
0.2268088129133804
 40
0.2291392727958851
 40
0.2317660462016631
 40
0.2376639412786057
 40
0.2446497644031068
 40
0.2527103404280619
 40
0.2619179704283254
 40
0.2725379025457225
 40
0.2845562514914821
 40
0.296254305056535
 40
0.3089761513482338
 40
0.3227955509038525
 40
0.3288249105124443
 40
0.333624289830312
 40
0.3371961430374891
 40
0.3395453344522127
 40
0.3415030960856658
 40
0.3464625668877089
 40
0.3526486512421476
 40
0.3600507570799977
 40
0.3686221140664065
 40
0.3771378843088687
 40
0.3849763383122276
 40
0.3921425403147346
 40
0.4009085293195318
 40
0.4084325672790202
 40
0.4147352131322929
 40
0.419837020828541
 40
0.4249426708372228
 40
0.4311082097145927
 40
0.4383880849290279
 40
0.4467390445201749
 40
0.4536983223274619
 40
0.4612057569009194
 40
0.4695574185658862
 40
0.4793406325252378
 40
0.4904338946713513
 40
0.502349187405387
 40
0.5148821420878015
 40
0.5276683048658596
 40
0.5410984729633862
 40
0.5615126827717888
 40
0.5833727751032722
 40
0.606679767129751
 40
0.6314347202543259
 40
0.6576387365153316
 40
0.683884361573921
 40
0.7114406335174015
 40
0.740308580366186
 40
0.7704892498186421
 40
0.8019837054668836
 40
0.8341956056824134
 40
0.867676853667831
 40
0.9024284787153262
 40
0.9384515089996103
 40
0.9765213549725298
 40
1.0
 40
1.0
 40
1.0
 40
1.0
 10
261.2916299669189
 20
278.1265348146718
 30
0.0
 10
261.2916647560427
 20
278.1256554690824
 30
0.0
 10
261.2917314797842
 20
278.1239689296871
 30
0.0
 10
261.2920075545416
 20
278.1159903396191
 30
0.0
 10
261.2923526593101
 20
278.1054738611288
 30
0.0
 10
261.2927423454935
 20
278.0930754454997
 30
0.0
 10
261.2931488908486
 20
278.0796181903045
 30
0.0
 10
261.2935496525111
 20
278.0658448172944
 30
0.0
 10
261.293924818141
 20
278.052474121552
 30
0.0
 10
261.294252016647
 20
278.0404092102976
 30
0.0
 10
261.2945246892688
 20
278.0300401470689
 30
0.0
 10
261.2947792158192
 20
278.0200879790083
 30
0.0
 10
261.2950431356277
 20
278.0094480725915
 30
0.0
 10
261.2953517023132
 20
277.9965347120412
 30
0.0
 10
261.2957449510589
 20
277.9792958856
 30
0.0
 10
261.2962165694282
 20
277.9572410177768
 30
0.0
 10
261.2967326409097
 20
277.9309052720585
 30
0.0
 10
261.2972257964256
 20
277.9031576650534
 30
0.0
 10
261.2976692409431
 20
277.8755170557167
 30
0.0
 10
261.2980705380133
 20
277.8477267544184
 30
0.0
 10
261.2984135212983
 20
277.820718718429
 30
0.0
 10
261.2987378434688
 20
277.7918250956201
 30
0.0
 10
261.2990580989166
 20
277.7590279798204
 30
0.0
 10
261.2993689936151
 20
277.7206649969127
 30
0.0
 10
261.2996362065915
 20
277.6793569096782
 30
0.0
 10
261.2998504797931
 20
277.6364109412567
 30
0.0
 10
261.2999937015174
 20
277.5967534106964
 30
0.0
 10
261.3000863601975
 20
277.5601302586163
 30
0.0
 10
261.3001423734867
 20
277.5273009353331
 30
0.0
 10
261.3001718142705
 20
277.4945148413035
 30
0.0
 10
261.3001771769302
 20
277.4648365784947
 30
0.0
 10
261.3001685613136
 20
277.4414984729774
 30
0.0
 10
261.3001556021838
 20
277.4241846604835
 30
0.0
 10
261.3001412493313
 20
277.409978037928
 30
0.0
 10
261.3001234005756
 20
277.3956882456247
 30
0.0
 10
261.3000896703285
 20
277.3733715697409
 30
0.0
 10
261.3000268763308
 20
277.3410947741873
 30
0.0
 10
261.299913207361
 20
277.2966441192674
 30
0.0
 10
261.2997438728748
 20
277.2439731981227
 30
0.0
 10
261.299501492861
 20
277.1818346527838
 30
0.0
 10
261.2991654136877
 20
277.1088293949771
 30
0.0
 10
261.2987352803127
 20
277.0276980381124
 30
0.0
 10
261.2982118030889
 20
276.9390641382444
 30
0.0
 10
261.2975984309887
 20
276.8434061249386
 30
0.0
 10
261.2970361459027
 20
276.7598656036822
 30
0.0
 10
261.2965968221906
 20
276.6956125849471
 30
0.0
 10
261.2963371800564
 20
276.6577871488126
 30
0.0
 10
261.2961427253509
 20
276.6294801010468
 30
0.0
 10
261.2959997340301
 20
276.6086579412613
 30
0.0
 10
261.2958319554645
 20
276.5842162349288
 30
0.0
 10
261.2955940409162
 20
276.5495094095618
 30
0.0
 10
261.2952568126771
 20
276.5000552936539
 30
0.0
 10
261.2948545887749
 20
276.4404398908635
 30
0.0
 10
261.2944136084001
 20
276.3738757346953
 30
0.0
 10
261.2939720941818
 20
276.3054072269993
 30
0.0
 10
261.2935655759776
 20
276.2401957537147
 30
0.0
 10
261.2931671674378
 20
276.1737694150151
 30
0.0
 10
261.2927899649126
 20
276.1077189338584
 30
0.0
 10
261.2924460687887
 20
276.0436740855446
 30
0.0
 10
261.2921741379263
 20
275.9897612480265
 30
0.0
 10
261.2919501728787
 20
275.942596897793
 30
0.0
 10
261.2917417907522
 20
275.8957630116644
 30
0.0
 10
261.2915228697474
 20
275.8424963366394
 30
0.0
 10
261.2912919416353
 20
275.7796658293389
 30
0.0
 10
261.2910869345436
 20
275.7142801742497
 30
0.0
 10
261.2909177373544
 20
275.6480415407942
 30
0.0
 10
261.2907857826227
 20
275.5816666778995
 30
0.0
 10
261.2906945658905
 20
275.5070383907938
 30
0.0
 10
261.2906517851835
 20
275.4219791519532
 30
0.0
 10
261.2906497512946
 20
275.3265463677456
 30
0.0
 10
261.2906840103888
 20
275.2231136288831
 30
0.0
 10
261.2907445214837
 20
275.1147558217793
 30
0.0
 10
261.2908169886016
 20
275.0019902819677
 30
0.0
 10
261.2909005164303
 20
274.8662884685896
 30
0.0
 10
261.2909987866676
 20
274.7041796041602
 30
0.0
 10
261.2911106818875
 20
274.5133267951907
 30
0.0
 10
261.2912259443467
 20
274.3098409544255
 30
0.0
 10
261.2913435977705
 20
274.0937128098501
 30
0.0
 10
261.2914606418487
 20
273.869032040172
 30
0.0
 10
261.2915763044785
 20
273.6361982949048
 30
0.0
 10
261.2916898853574
 20
273.3956114360686
 30
0.0
 10
261.2918024154907
 20
273.1435722668669
 30
0.0
 10
261.2919130938894
 20
272.8800716620987
 30
0.0
 10
261.2920204385476
 20
272.606838982764
 30
0.0
 10
261.292123790597
 20
272.3240004878176
 30
0.0
 10
261.2922224880174
 20
272.0316825376231
 30
0.0
 10
261.2923165279215
 20
271.7282730072812
 30
0.0
 10
261.2924053777647
 20
271.4115093039972
 30
0.0
 10
261.2924782349334
 20
271.127552522444
 30
0.0
 10
261.2925175421342
 20
270.9484313911968
 30
0.0
 10
261.2925325364876
 20
270.8801028036211
 30
0.0
  0
LINE
  5
80
330
1F
100
AcDbEntity
  8
0
  6
Continuous
 62
     7
370
    30
100
AcDbLine
 10
216.3612853949
 20
342.5463380854
 30
0.0
 11
217.4242237538
 21
342.0212670447
 31
0.0
  0
LINE
  5
81
330
1F
100
AcDbEntity
  8
0
  6
Continuous
 62
     7
370
    30
100
AcDbLine
 10
236.5571142297
 20
342.0212670447
 30
0.0
 11
237.6200525887
 21
342.5463380854
 31
0.0
  0
LINE
  5
82
330
1F
100
AcDbEntity
  8
0
  6
Continuous
 62
     7
370
    30
100
AcDbLine
 10
214.9906689918
 20
349.8531343135
 30
0.0
 11
214.9906689918
 21
346.9890632206
 31
0.0
  0
LINE
  5
83
330
1F
100
AcDbEntity
  8
0
  6
Continuous
 62
     7
370
    30
100
AcDbLine
 10
238.9906689918
 20
346.9890632206
 30
0.0
 11
238.9906689918
 21
349.8531343124
 31
0.0
  0
LINE
  5
84
330
1F
100
AcDbEntity
  8
0
  6
Continuous
 62
     7
370
    30
100
AcDbLine
 10
223.5909508877
 20
280.0348781407
 30
0.0
 11
223.5947291146
 21
280.0137112185
 31
0.0
  0
LINE
  5
85
330
1F
100
AcDbEntity
  8
0
  6
Continuous
 62
     7
370
    30
100
AcDbLine
 10
230.3866088794
 20
280.0137112185
 30
0.0
 11
230.3903871063
 21
280.0348781407
 31
0.0
  0
LINE
  5
86
330
1F
100
AcDbEntity
  8
0
  6
Continuous
 62
     7
370
    30
100
AcDbLine
 10
223.5909990238
 20
262.1236082062
 30
0.0
 11
223.5947291146
 21
262.1027109592
 31
0.0
  0
LINE
  5
87
330
1F
100
AcDbEntity
  8
0
  6
Continuous
 62
     7
370
    30
100
AcDbLine
 10
230.3866088794
 20
262.1027109592
 30
0.0
 11
230.3903389702
 21
262.1236082062
 31
0.0
  0
SPLINE
  5
88
330
1F
100
AcDbEntity
  8
0
  6
Continuous
 62
     7
370
    30
100
AcDbSpline
210
0.0
220
0.0
230
1.0
 70
    24
 71
     3
 72
    28
 73
    24
 74
     0
 42
0.000000001
 43
0.00000001
 40
0.0
 40
0.0
 40
0.0
 40
0.0
 40
0.0198769200226452
 40
0.0648254204934182
 40
0.109773920217329
 40
0.1558034792578682
 40
0.2018330365044816
 40
0.2510106257557164
 40
0.3001882115889792
 40
0.3507940263763134
 40
0.4013998364877049
 40
0.4505706929919616
 40
0.4997415450414904
 40
0.5503404737098125
 40
0.6009393976171117
 40
0.6501077863377503
 40
0.6992761714871788
 40
0.7498728342739858
 40
0.8004694942517132
 40
0.8496378772357149
 40
0.8988062590534824
 40
0.9494031293574867
 40
1.0
 40
1.0
 40
1.0
 40
1.0
 10
226.9906689969864
 20
360.8348119421529
 30
0.0
 10
226.9906689969838
 20
360.8316354392144
 30
0.0
 10
226.9906689969752
 20
360.8212757789424
 30
0.0
 10
226.9906689969915
 20
360.7999408151293
 30
0.0
 10
226.9906689969684
 20
360.7684092687565
 30
0.0
 10
226.9906689969892
 20
360.7312209550803
 30
0.0
 10
226.9906689969935
 20
360.687618311348
 30
0.0
 10
226.9906689969952
 20
360.6376735009718
 30
0.0
 10
226.990668996999
 20
360.5808430647426
 30
0.0
 10
226.9906689969952
 20
360.5183789808386
 30
0.0
 10
226.9906689969917
 20
360.4512668651569
 30
0.0
 10
226.9906689969962
 20
360.380688712563
 30
0.0
 10
226.9906689970003
 20
360.3065921799443
 30
0.0
 10
226.9906689969969
 20
360.2286646911437
 30
0.0
 10
226.9906689969948
 20
360.1481752681659
 30
0.0
 10
226.9906689969955
 20
360.0665015984118
 30
0.0
 10
226.9906689969953
 20
359.9834868179437
 30
0.0
 10
226.990668996996
 20
359.8988733858949
 30
0.0
 10
226.9906689969968
 20
359.8140770237256
 30
0.0
 10
226.9906689969959
 20
359.730498443041
 30
0.0
 10
226.990668996995
 20
359.6479608929423
 30
0.0
 10
226.9906689969959
 20
359.5660374700675
 30
0.0
 10
226.9906689969962
 20
359.5129002964737
 30
0.0
 10
226.9906689969963
 20
359.4863317095879
 30
0.0
  0
SPLINE
  5
89
330
1F
100
AcDbEntity
  8
0
  6
Continuous
 62
     7
370
    30
100
AcDbSpline
210
0.0
220
0.0
230
1.0
 70
    24
 71
     3
 72
    20
 73
    16
 74
     0
 42
0.000000001
 43
0.00000001
 40
0.0
 40
0.0
 40
0.0
 40
0.0
 40
0.0725634726654852
 40
0.1451267098444883
 40
0.2176899293368839
 40
0.2902536012457201
 40
0.3697452392537602
 40
0.4492363992086344
 40
0.5287276481739942
 40
0.608219207119429
 40
0.6877110499980827
 40
0.7657835778900746
 40
0.8438560004922551
 40
0.9219281514427301
 40
1.0
 40
1.0
 40
1.0
 40
1.0
 10
226.9906689969951
 20
359.4863317095879
 30
0.0
 10
226.9906689969951
 20
359.3279470683746
 30
0.0
 10
226.9906689969952
 20
359.0111782999454
 30
0.0
 10
226.9906689969952
 20
358.5421499789009
 30
0.0
 10
226.9906689969952
 20
358.0779364406789
 30
0.0
 10
226.9906689969952
 20
357.6046239303853
 30
0.0
 10
226.9906689969952
 20
357.1230100982937
 30
0.0
 10
226.9906689969952
 20
356.6341092898271
 30
0.0
 10
226.9906689969953
 20
356.1526195805425
 30
0.0
 10
226.9906689969952
 20
355.6788340784931
 30
0.0
 10
226.9906689969953
 20
355.215835027393
 30
0.0
 10
226.9906689969953
 20
354.7636859506666
 30
0.0
 10
226.9906689969953
 20
354.3227172237004
 30
0.0
 10
226.9906689969953
 20
353.8896545874621
 30
0.0
 10
226.9906689969953
 20
353.6084680470669
 30
0.0
 10
226.9906689969953
 20
353.4678750491465
 30
0.0
  0
SPLINE
  5
8A
330
1F
100
AcDbEntity
  8
0
  6
Continuous
 62
     7
370
    30
100
AcDbSpline
210
0.0
220
0.0
230
1.0
 70
     8
 71
     3
 72
    24
 73
    20
 74
     0
 42
0.000000001
 43
0.00000001
 40
0.0
 40
0.0
 40
0.0
 40
0.0
 40
0.0139273056493889
 40
0.0738287881813996
 40
0.1337302696995592
 40
0.1939924656159745
 40
0.2542546598169392
 40
0.3156470328529754
 40
0.3770394033636091
 40
0.4388205097852259
 40
0.5006016129910457
 40
0.5620170765807582
 40
0.6234325365067137
 40
0.6852375022640756
 40
0.7470424638264686
 40
0.8100709960680651
 40
0.8730995234106105
 40
0.9365497643452168
 40
0.9999999999999999
 40
0.9999999999999999
 40
0.9999999999999999
 40
0.9999999999999999
 10
226.9906689969954
 20
351.8584116122848
 30
0.0
 10
226.9906689975238
 20
351.8615700635823
 30
0.0
 10
226.9906690003254
 20
351.8783130458724
 30
0.0
 10
226.9906689942891
 20
351.912345006538
 30
0.0
 10
226.9906689977352
 20
351.9651904837719
 30
0.0
 10
226.9906689967959
 20
352.0254024366471
 30
0.0
 10
226.9906689970481
 20
352.0932750353375
 30
0.0
 10
226.9906689969847
 20
352.1687774531017
 30
0.0
 10
226.9906689969954
 20
352.2521007847458
 30
0.0
 10
226.9906689969967
 20
352.3427199155565
 30
0.0
 10
226.9906689970022
 20
352.4403338865113
 30
0.0
 10
226.9906689969974
 20
352.5445666950236
 30
0.0
 10
226.9906689969948
 20
352.6554276759531
 30
0.0
 10
226.9906689969957
 20
352.7730114767389
 30
0.0
 10
226.9906689969954
 20
352.8979926385476
 30
0.0
 10
226.9906689969963
 20
353.0300503623297
 30
0.0
 10
226.9906689969971
 20
353.1695370119536
 30
0.0
 10
226.990668996996
 20
353.3149245447331
 30
0.0
 10
226.9906689969956
 20
353.4168915490895
 30
0.0
 10
226.9906689969954
 20
353.4678750491464
 30
0.0
  0
LINE
  5
8B
330
1F
100
AcDbEntity
  8
0
  6
Continuous
 62
     7
370
    30
100
AcDbLine
 10
196.9925967264
 20
239.8185955515
 30
0.0
 11
256.9887412676
 21
239.8185955515
 31
0.0
  0
SPLINE
  5
8C
330
1F
100
AcDbEntity
  8
0
  6
Continuous
 62
     7
370
    30
100
AcDbSpline
210
0.0
220
0.0
230
1.0
 70
     8
 71
     3
 72
    10
 73
     6
 74
     0
 42
0.000000001
 43
0.00000001
 40
0.0
 40
0.0
 40
0.0
 40
0.0
 40
0.4820739422055017
 40
0.8549847450706375
 40
1.0
 40
1.0
 40
1.0
 40
1.0
 10
260.0307145267104
 20
269.2112811443179
 30
0.0
 10
260.051654789747
 20
269.2127816326944
 30
0.0
 10
260.0887935020618
 20
269.2154428316509
 30
0.0
 10
260.1276006973588
 20
269.2184249056199
 30
0.0
 10
260.144778459983
 20
269.2198040496363
 30
0.0
 10
260.1495880994838
 20
269.2201901991999
 30
0.0
  0
SPLINE
  5
8D
330
1F
100
AcDbEntity
  8
0
  6
Continuous
 62
     7
370
    30
100
AcDbSpline
210
0.0
220
0.0
230
1.0
 70
     8
 71
     3
 72
     9
 73
     5
 74
     0
 42
0.000000001
 43
0.00000001
 40
0.0
 40
0.0
 40
0.0
 40
0.0
 40
0.9220246414710731
 40
1.0
 40
1.0
 40
1.0
 40
1.0
 10
260.0307145263815
 20
269.2112811443329
 30
0.0
 10
260.0570385010928
 20
269.2101276469958
 30
0.0
 10
260.0855886867681
 20
269.2088765987208
 30
0.0
 10
260.1139908232827
 20
269.2105109891359
 30
0.0
 10
260.1162054900604
 20
269.2106384313144
 30
0.0
  0
SPLINE
  5
8E
330
1F
100
AcDbEntity
  8
0
  6
Continuous
 62
     7
370
    30
100
AcDbSpline
210
0.0
220
0.0
230
1.0
 70
     8
 71
     3
 72
    19
 73
    15
 74
     0
 42
0.000000001
 43
0.00000001
 40
0.0
 40
0.0
 40
0.0
 40
0.0
 40
0.0833333333332553
 40
0.166666666666496
 40
0.249999999999761
 40
0.3333333333330388
 40
0.416666666666352
 40
0.499999999999635
 40
0.5833333333330166
 40
0.6666666666663745
 40
0.7499999999997359
 40
0.8333333333331243
 40
0.9166666666665775
 40
1.0
 40
1.0
 40
1.0
 40
1.0
 10
264.97295450055
 20
280.7498279075405
 30
0.0
 10
264.9948319077276
 20
280.7497623749036
 30
0.0
 10
265.038586722083
 20
280.7496313096296
 30
0.0
 10
265.1034714414253
 20
280.7385523005601
 30
0.0
 10
265.1663920254308
 20
280.7196980696167
 30
0.0
 10
265.2262946403875
 20
280.6926109875888
 30
0.0
 10
265.2821430655555
 20
280.6579658709173
 30
0.0
 10
265.3329786396644
 20
280.6163018151923
 30
0.0
 10
265.3779314523321
 20
280.5683498207843
 30
0.0
 10
265.4162142651334
 20
280.5149292540805
 30
0.0
 10
265.4472254168103
 20
280.4569607991838
 30
0.0
 10
265.4702226673834
 20
280.395433501322
 30
0.0
 10
265.4855925436979
 20
280.3314292971775
 30
0.0
 10
265.4886333942898
 20
280.2877800797153
 30
0.0
 10
265.4901538195857
 20
280.2659554709841
 30
0.0
  0
SPLINE
  5
8F
330
1F
100
AcDbEntity
  8
0
  6
Continuous
 62
     7
370
    30
100
AcDbSpline
210
0.0
220
0.0
230
1.0
 70
     8
 71
     3
 72
    35
 73
    31
 74
     0
 42
0.000000001
 43
0.00000001
 40
0.0
 40
0.0
 40
0.0
 40
0.0
 40
0.0372401659075879
 40
0.076159106236127
 40
0.1163586161696991
 40
0.1576608531749403
 40
0.2043503063047233
 40
0.2519869407011111
 40
0.3003621995543264
 40
0.3492444322602862
 40
0.3885680922198189
 40
0.4279618601576652
 40
0.4673169985446436
 40
0.5065202764390959
 40
0.5454551683107961
 40
0.5935898658071233
 40
0.6409338219408193
 40
0.6872585096765782
 40
0.732323543128295
 40
0.7673297943327265
 40
0.8013019724657984
 40
0.8341318977136094
 40
0.8657002790776729
 40
0.8958582037135507
 40
0.9137403556597499
 40
0.9308745530880957
 40
0.9473456368322155
 40
0.9632101746091676
 40
0.9835465663659356
 40
1.0
 40
1.0
 40
1.0
 40
1.0
 10
264.972954490252
 20
280.7498279071808
 30
0.0
 10
264.9123509176212
 20
280.7479369964086
 30
0.0
 10
264.7884117832541
 20
280.7440699332287
 30
0.0
 10
264.5991758970474
 20
280.7338448593794
 30
0.0
 10
264.4041810521377
 20
280.7124524521149
 30
0.0
 10
264.1979318566189
 20
280.6799553004692
 30
0.0
 10
263.9818166836205
 20
280.6339796698201
 30
0.0
 10
263.7575801738394
 20
280.5726173199895
 30
0.0
 10
263.5340900934023
 20
280.4966210103402
 30
0.0
 10
263.3280222523888
 20
280.4126711252262
 30
0.0
 10
263.1399571641183
 20
280.3242128847379
 30
0.0
 10
262.9699932315471
 20
280.2342218043945
 30
0.0
 10
262.8047101015078
 20
280.136274952485
 30
0.0
 10
262.6451060250926
 20
280.0306680231279
 30
0.0
 10
262.4792585034402
 20
279.909034502869
 30
0.0
 10
262.309724572878
 20
279.7704368567714
 30
0.0
 10
262.1395219092512
 20
279.6142497688912
 30
0.0
 10
261.9819229283913
 20
279.452253746145
 30
0.0
 10
261.8470787129106
 20
279.2966410223157
 30
0.0
 10
261.7324631141229
 20
279.1504812767796
 30
0.0
 10
261.6357194542118
 20
279.0158292177434
 30
0.0
 10
261.5473390064797
 20
278.8821810919317
 30
0.0
 10
261.4681326945333
 20
278.7501740038761
 30
0.0
 10
261.4036028884215
 20
278.6376206683302
 30
0.0
 10
261.3598635546858
 20
278.5407821770648
 30
0.0
 10
261.3323694386331
 20
278.4614803728031
 30
0.0
 10
261.3122399306849
 20
278.3833882883785
 30
0.0
 10
261.2976261424734
 20
278.2988369286719
 30
0.0
 10
261.2895190994693
 20
278.2132503528818
 30
0.0
 10
261.2914103728805
 20
278.1533375048099
 30
0.0
 10
261.2922562029768
 20
278.1265428120082
 30
0.0
  0
LWPOLYLINE
  5
90
330
1F
100
AcDbEntity
  8
0
  6
Continuous
 62
     7
370
    30
100
AcDbPolyline
 90
      241
 70
   128
 43
0.0
 10
226.9906689918
 20
340.523299392
 10
227.2733800335
 20
340.5242572529
 10
227.5558973192
 20
340.5271301791
 10
227.8380272257
 20
340.5319162016
 10
228.1195763952
 20
340.5386120404
 10
228.4003518679
 20
340.5472131064
 10
228.6801612143
 20
340.5577135049
 10
228.9588126672
 20
340.5701060394
 10
229.2361152528
 20
340.5843822168
 10
229.5118789216
 20
340.6005322529
 10
229.7859146791
 20
340.6185450791
 10
230.0580347148
 20
340.6384083505
 10
230.3280525313
 20
340.6601084538
 10
230.5957830718
 20
340.6836305167
 10
230.8610428472
 20
340.7089584184
 10
231.1236500616
 20
340.7360748005
 10
231.3834247373
 20
340.7649610787
 10
231.6401888377
 20
340.7955974558
 10
231.8937663893
 20
340.8279629352
 10
232.143983603
 20
340.8620353352
 10
232.3906689922
 20
340.8977913043
 10
232.6336534911
 20
340.9352063371
 10
232.8727705704
 20
340.9742547912
 10
233.107856351
 20
341.0149099048
 10
233.338749717
 20
341.0571438148
 10
233.5652924256
 20
341.1009275764
 10
233.7873292156
 20
341.1462311822
 10
234.0047079143
 20
341.1930235834
 10
234.217279541
 20
341.2412727109
 10
234.4248984098
 20
341.2909454971
 10
234.6274222292
 20
341.3420078987
 10
234.8247121993
 20
341.3944249203
 10
235.0166331075
 20
341.4481606377
 10
235.2030534209
 20
341.5031782231
 10
235.3838453762
 20
341.5594399703
 10
235.5588850676
 20
341.6169073203
 10
235.7280525317
 20
341.6755408878
 10
235.8912318296
 20
341.7353004883
 10
236.0483111263
 20
341.7961451656
 10
236.1991827675
 20
341.8580332197
 10
236.3437433534
 20
341.9209222357
 10
236.4818938093
 20
341.9847691126
 10
236.6135394537
 20
342.0495300929
 10
236.7385900635
 20
342.1151607926
 10
236.8569599351
 20
342.1816162319
 10
236.9685679437
 20
342.2488508654
 10
237.0733375987
 20
342.3168186139
 10
237.1711970964
 20
342.3854728957
 10
237.2620793686
 20
342.4547666585
 10
237.3459221291
 20
342.5246524119
 10
237.4226679165
 20
342.5950822597
 10
237.4922641329
 20
342.6660079328
 10
237.5546630805
 20
342.7373808222
 10
237.6098219943
 20
342.8091520126
 10
237.657703071
 20
342.8812723156
 10
237.6982734954
 20
342.9536923035
 10
237.7315054626
 20
343.0263623432
 10
237.7573761969
 20
343.0992326304
 10
237.775867968
 20
343.1722532234
 10
237.7869681023
 20
343.2453740775
 10
237.7906689926
 20
343.3185450793
 10
237.7869681023
 20
343.3917160812
 10
237.775867968
 20
343.4648369353
 10
237.7573761969
 20
343.5378575283
 10
237.7315054626
 20
343.6107278155
 10
237.6982734954
 20
343.6833978552
 10
237.657703071
 20
343.7558178431
 10
237.6098219943
 20
343.827938146
 10
237.5546630805
 20
343.8997093364
 10
237.4922641329
 20
343.9710822259
 10
237.4226679165
 20
344.042007899
 10
237.3459221291
 20
344.1124377468
 10
237.2620793686
 20
344.1823235002
 10
237.1711970964
 20
344.251617263
 10
237.0733375987
 20
344.3202715448
 10
236.9685679437
 20
344.3882392933
 10
236.8569599351
 20
344.4554739268
 10
236.7385900635
 20
344.521929366
 10
236.6135394537
 20
344.5875600658
 10
236.4818938093
 20
344.6523210461
 10
236.3437433534
 20
344.716167923
 10
236.1991827675
 20
344.779056939
 10
236.0483111263
 20
344.8409449931
 10
235.8912318296
 20
344.9017896704
 10
235.7280525317
 20
344.9615492709
 10
235.5588850676
 20
345.0201828384
 10
235.3838453762
 20
345.0776501884
 10
235.2030534209
 20
345.1339119356
 10
235.0166331075
 20
345.188929521
 10
234.8247121993
 20
345.2426652384
 10
234.6274222292
 20
345.2950822599
 10
234.4248984098
 20
345.3461446616
 10
234.217279541
 20
345.3958174478
 10
234.0047079143
 20
345.4440665753
 10
233.7873292156
 20
345.4908589765
 10
233.5652924256
 20
345.5361625823
 10
233.338749717
 20
345.5799463438
 10
233.107856351
 20
345.6221802539
 10
232.8727705704
 20
345.6628353675
 10
232.6336534911
 20
345.7018838216
 10
232.3906689922
 20
345.7392988544
 10
232.143983603
 20
345.7750548234
 10
231.8937663893
 20
345.8091272234
 10
231.6401888377
 20
345.8414927029
 10
231.3834247373
 20
345.87212908
 10
231.1236500616
 20
345.9010153582
 10
230.8610428472
 20
345.9281317403
 10
230.5957830718
 20
345.953459642
 10
230.3280525313
 20
345.9769817049
 10
230.0580347148
 20
345.9986818081
 10
229.7859146791
 20
346.0185450795
 10
229.5118789216
 20
346.0365579058
 10
229.2361152528
 20
346.0527079419
 10
228.9588126672
 20
346.0669841192
 10
228.6801612143
 20
346.0793766538
 10
228.4003518679
 20
346.0898770523
 10
228.1195763952
 20
346.0984781183
 10
227.8380272257
 20
346.1051739571
 10
227.5558973192
 20
346.1099599796
 10
227.2733800335
 20
346.1128329058
 10
226.9906689918
 20
346.1137907667
 10
226.70795795
 20
346.1128329058
 10
226.4254406643
 20
346.1099599796
 10
226.1433107578
 20
346.1051739571
 10
225.8617615884
 20
346.0984781183
 10
225.5809861157
 20
346.0898770523
 10
225.3011767692
 20
346.0793766538
 10
225.0225253163
 20
346.0669841192
 10
224.7452227308
 20
346.0527079419
 10
224.4694590619
 20
346.0365579058
 10
224.1954233045
 20
346.0185450795
 10
223.9233032687
 20
345.9986818081
 10
223.6532854523
 20
345.9769817049
 10
223.3855549118
 20
345.953459642
 10
223.1202951364
 20
345.9281317403
 10
222.8576879219
 20
345.9010153582
 10
222.5979132462
 20
345.87212908
 10
222.3411491459
 20
345.8414927029
 10
222.0875715942
 20
345.8091272234
 10
221.8373543806
 20
345.7750548234
 10
221.5906689914
 20
345.7392988544
 10
221.3476844924
 20
345.7018838216
 10
221.1085674132
 20
345.6628353675
 10
220.8734816325
 20
345.6221802539
 10
220.6425882665
 20
345.5799463438
 10
220.416045558
 20
345.5361625823
 10
220.1940087679
 20
345.4908589765
 10
219.9766300693
 20
345.4440665753
 10
219.7640584425
 20
345.3958174478
 10
219.5564395737
 20
345.3461446616
 10
219.3539157544
 20
345.2950822599
 10
219.1566257842
 20
345.2426652384
 10
218.964704876
 20
345.188929521
 10
218.7782845627
 20
345.1339119356
 10
218.5974926074
 20
345.0776501884
 10
218.422452916
 20
345.0201828384
 10
218.2532854519
 20
344.9615492709
 10
218.090106154
 20
344.9017896704
 10
217.9330268573
 20
344.8409449931
 10
217.782155216
 20
344.779056939
 10
217.6375946302
 20
344.716167923
 10
217.4994441743
 20
344.6523210461
 10
217.3677985298
 20
344.5875600658
 10
217.24274792
 20
344.521929366
 10
217.1243780485
 20
344.4554739268
 10
217.0127700399
 20
344.3882392933
 10
216.9080003848
 20
344.3202715448
 10
216.8101408872
 20
344.251617263
 10
216.719258615
 20
344.1823235002
 10
216.6354158544
 20
344.1124377468
 10
216.5586700671
 20
344.042007899
 10
216.4890738507
 20
343.9710822259
 10
216.426674903
 20
343.8997093364
 10
216.3715159893
 20
343.827938146
 10
216.3236349125
 20
343.7558178431
 10
216.2830644881
 20
343.6833978552
 10
216.249832521
 20
343.6107278155
 10
216.2239617866
 20
343.5378575283
 10
216.2054700156
 20
343.4648369353
 10
216.1943698812
 20
343.3917160812
 10
216.1906689909
 20
343.3185450793
 10
216.1943698812
 20
343.2453740775
 10
216.2054700156
 20
343.1722532234
 10
216.2239617866
 20
343.0992326304
 10
216.249832521
 20
343.0263623432
 10
216.2830644881
 20
342.9536923035
 10
216.3236349125
 20
342.8812723156
 10
216.3715159893
 20
342.8091520126
 10
216.426674903
 20
342.7373808222
 10
216.4890738507
 20
342.6660079328
 10
216.5586700671
 20
342.5950822597
 10
216.6354158544
 20
342.5246524119
 10
216.719258615
 20
342.4547666585
 10
216.8101408872
 20
342.3854728957
 10
216.9080003848
 20
342.3168186139
 10
217.0127700399
 20
342.2488508654
 10
217.1243780485
 20
342.1816162319
 10
217.24274792
 20
342.1151607926
 10
217.3677985298
 20
342.0495300929
 10
217.4994441743
 20
341.9847691126
 10
217.6375946302
 20
341.9209222357
 10
217.782155216
 20
341.8580332197
 10
217.9330268573
 20
341.7961451656
 10
218.090106154
 20
341.7353004883
 10
218.2532854519
 20
341.6755408878
 10
218.422452916
 20
341.6169073203
 10
218.5974926074
 20
341.5594399703
 10
218.7782845627
 20
341.5031782231
 10
218.964704876
 20
341.4481606377
 10
219.1566257842
 20
341.3944249203
 10
219.3539157544
 20
341.3420078987
 10
219.5564395737
 20
341.2909454971
 10
219.7640584425
 20
341.2412727109
 10
219.9766300693
 20
341.1930235834
 10
220.1940087679
 20
341.1462311822
 10
220.416045558
 20
341.1009275764
 10
220.6425882665
 20
341.0571438148
 10
220.8734816325
 20
341.0149099048
 10
221.1085674132
 20
340.9742547912
 10
221.3476844924
 20
340.9352063371
 10
221.5906689914
 20
340.8977913043
 10
221.8373543806
 20
340.8620353352
 10
222.0875715942
 20
340.8279629352
 10
222.3411491459
 20
340.7955974558
 10
222.5979132462
 20
340.7649610787
 10
222.8576879219
 20
340.7360748005
 10
223.1202951364
 20
340.7089584184
 10
223.3855549118
 20
340.6836305167
 10
223.6532854523
 20
340.6601084538
 10
223.9233032687
 20
340.6384083505
 10
224.1954233045
 20
340.6185450791
 10
224.4694590619
 20
340.6005322529
 10
224.7452227308
 20
340.5843822168
 10
225.0225253163
 20
340.5701060394
 10
225.3011767692
 20
340.5577135049
 10
225.5809861157
 20
340.5472131064
 10
225.8617615884
 20
340.5386120404
 10
226.1433107578
 20
340.5319162016
 10
226.4254406643
 20
340.5271301791
 10
226.70795795
 20
340.5242572529
 10
226.9906689918
 20
340.523299392
  0
LWPOLYLINE
  5
91
330
1F
100
AcDbEntity
  8
0
  6
Continuous
 62
     7
370
    30
100
AcDbPolyline
 90
      121
 70
   128
 43
0.0
 10
237.9906689918
 20
345.229010659
 10
237.8959281489
 20
345.2838013784
 10
237.7971136891
 20
345.3381079658
 10
237.6942625243
 20
345.3919101354
 10
237.5874130741
 20
345.4451877895
 10
237.4766052517
 20
345.4979210264
 10
237.3618804489
 20
345.5500901479
 10
237.2432815206
 20
345.6016756664
 10
237.1208527692
 20
345.6526583124
 10
236.9946399273
 20
345.7030190414
 10
236.8646901412
 20
345.7527390414
 10
236.7310519533
 20
345.8017997397
 10
236.5937752835
 20
345.8501828098
 10
236.4529114109
 20
345.8978701785
 10
236.3085129548
 20
345.9448440324
 10
236.1606338546
 20
345.9910868245
 10
236.00932935
 20
346.0365812809
 10
235.8546559601
 20
346.0813104076
 10
235.6966714626
 20
346.1252574959
 10
235.5354348721
 20
346.1684061298
 10
235.3710064177
 20
346.2107401912
 10
235.2034475211
 20
346.2522438663
 10
235.0328207733
 20
346.2929016516
 10
234.8591899112
 20
346.3326983596
 10
234.682619794
 20
346.3716191244
 10
234.5031763787
 20
346.4096494072
 10
234.3209266956
 20
346.446775002
 10
234.1359388236
 20
346.4829820408
 10
233.948281864
 20
346.5182569984
 10
233.7580259154
 20
346.552586698
 10
233.5652420471
 20
346.585958316
 10
233.3700022729
 20
346.6183593865
 10
233.1723795236
 20
346.6497778062
 10
232.9724476207
 20
346.6802018389
 10
232.7702812478
 20
346.7096201198
 10
232.5659559233
 20
346.7380216598
 10
232.3595479723
 20
346.7653958497
 10
232.1511344976
 20
346.7917324639
 10
231.9407933513
 20
346.8170216644
 10
231.7286031053
 20
346.8412540046
 10
231.5146430227
 20
346.8644204326
 10
231.2989930273
 20
346.8865122947
 10
231.0817336743
 20
346.9075213386
 10
230.8629461201
 20
346.9274397163
 10
230.642712092
 20
346.9462599875
 10
230.4211138575
 20
346.9639751219
 10
230.1982341938
 20
346.9805785021
 10
229.9741563567
 20
346.996063926
 10
229.7489640495
 20
347.0104256091
 10
229.5227413921
 20
347.0236581865
 10
229.2955728889
 20
347.0357567154
 10
229.0675433979
 20
347.0467166764
 10
228.8387380986
 20
347.0565339754
 10
228.6092424604
 20
347.0652049452
 10
228.3791422103
 20
347.0727263467
 10
228.1485233016
 20
347.0790953705
 10
227.9174718809
 20
347.0843096374
 10
227.6860742566
 20
347.0883671996
 10
227.4544168664
 20
347.0912665415
 10
227.222586245
 20
347.0930065799
 10
226.9906689918
 20
347.0935866649
 10
226.7587517386
 20
347.0930065799
 10
226.5269211172
 20
347.0912665415
 10
226.295263727
 20
347.0883671996
 10
226.0638661027
 20
347.0843096374
 10
225.832814682
 20
347.0790953705
 10
225.6021957732
 20
347.0727263467
 10
225.3720955232
 20
347.0652049452
 10
225.1425998849
 20
347.0565339754
 10
224.9137945856
 20
347.0467166764
 10
224.6857650946
 20
347.0357567154
 10
224.4585965915
 20
347.0236581865
 10
224.232373934
 20
347.0104256091
 10
224.0071816269
 20
346.996063926
 10
223.7831037897
 20
346.9805785021
 10
223.560224126
 20
346.9639751219
 10
223.3386258915
 20
346.9462599875
 10
223.1183918634
 20
346.9274397163
 10
222.8996043093
 20
346.9075213386
 10
222.6823449563
 20
346.8865122947
 10
222.4666949609
 20
346.8644204326
 10
222.2527348782
 20
346.8412540046
 10
222.0405446323
 20
346.8170216644
 10
221.8302034859
 20
346.7917324639
 10
221.6217900112
 20
346.7653958497
 10
221.4153820602
 20
346.7380216598
 10
221.2110567358
 20
346.7096201198
 10
221.0088903629
 20
346.6802018389
 10
220.8089584599
 20
346.6497778062
 10
220.6113357107
 20
346.6183593865
 10
220.4160959364
 20
346.585958316
 10
220.2233120682
 20
346.552586698
 10
220.0330561195
 20
346.5182569984
 10
219.84539916
 20
346.4829820408
 10
219.6604112879
 20
346.446775002
 10
219.4781616049
 20
346.4096494072
 10
219.2987181896
 20
346.3716191244
 10
219.1221480723
 20
346.3326983596
 10
218.9485172102
 20
346.2929016516
 10
218.7778904624
 20
346.2522438663
 10
218.6103315659
 20
346.2107401912
 10
218.4459031115
 20
346.1684061298
 10
218.2846665209
 20
346.1252574959
 10
218.1266820234
 20
346.0813104076
 10
217.9720086336
 20
346.0365812809
 10
217.8207041289
 20
345.9910868245
 10
217.6728250287
 20
345.9448440324
 10
217.5284265726
 20
345.8978701785
 10
217.3875627001
 20
345.8501828098
 10
217.2502860302
 20
345.8017997397
 10
217.1166478423
 20
345.7527390414
 10
216.9866980563
 20
345.7030190414
 10
216.8604852144
 20
345.6526583124
 10
216.7380564629
 20
345.6016756664
 10
216.6194575347
 20
345.5500901479
 10
216.5047327319
 20
345.4979210264
 10
216.3939249094
 20
345.4451877895
 10
216.2870754592
 20
345.3919101354
 10
216.1842242944
 20
345.3381079658
 10
216.0854098347
 20
345.2838013784
 10
215.9906689918
 20
345.229010659
  0
SPLINE
  5
92
330
1F
100
AcDbEntity
  8
0
  6
Continuous
 62
     7
370
    30
100
AcDbSpline
210
0.0
220
0.0
230
1.0
 70
    24
 71
     3
 72
    28
 73
    24
 74
     0
 42
0.000000001
 43
0.00000001
 40
0.0
 40
0.0
 40
0.0
 40
0.0
 40
0.0553664812523859
 40
0.110732443732249
 40
0.1662867804618914
 40
0.2218485984186565
 40
0.2774010956718483
 40
0.332853544474799
 40
0.3883056209746947
 40
0.4309315965961841
 40
0.4735674596526765
 40
0.516203197106301
 40
0.5588290014113214
 40
0.597401996062593
 40
0.6359786476123447
 40
0.6745518682469196
 40
0.7151012814206535
 40
0.7556508220223458
 40
0.8098931530706686
 40
0.8641437465562851
 40
0.9183877863639903
 40
0.9591938175446276
 40
1.0
 40
1.0
 40
1.0
 40
1.0
 10
237.990668991774
 20
342.7465055883772
 30
0.0
 10
237.9906689917741
 20
342.7537980428932
 30
0.0
 10
237.9906689917741
 20
342.768382883596
 30
0.0
 10
237.9906689917741
 20
342.804609196518
 30
0.0
 10
237.9906689917741
 20
342.852306204734
 30
0.0
 10
237.9906689917741
 20
342.9131000742256
 30
0.0
 10
237.9906689917741
 20
342.9872048374565
 30
0.0
 10
237.9906689917741
 20
343.0752375505188
 30
0.0
 10
237.9906689917741
 20
343.1695652478326
 30
0.0
 10
237.9906689917741
 20
343.2669507694685
 30
0.0
 10
237.9906689917741
 20
343.3641132701617
 30
0.0
 10
237.9906689917741
 20
343.4698905287239
 30
0.0
 10
237.9906689917741
 20
343.5806447882501
 30
0.0
 10
237.9906689917741
 20
343.6954166437952
 30
0.0
 10
237.9906689917741
 20
343.8131584486362
 30
0.0
 10
237.9906689917741
 20
343.9397518080585
 30
0.0
 10
237.990668991774
 20
344.0754524684284
 30
0.0
 10
237.9906689917741
 20
344.2367358209883
 30
0.0
 10
237.9906689917741
 20
344.4241182309045
 30
0.0
 10
237.9906689917741
 20
344.6401822187664
 30
0.0
 10
237.9906689917741
 20
344.8484879056745
 30
0.0
 10
237.9906689917741
 20
345.0450645582789
 30
0.0
 10
237.990668991774
 20
345.1676952163579
 30
0.0
 10
237.990668991774
 20
345.2290106590499
 30
0.0
  0
ARC
  5
93
330
1F
100
AcDbEntity
  8
0
  6
Continuous
 62
     7
370
    30
100
AcDbCircle
 10
218.7959815589
 20
347.4974420047
 30
0.0
 40
5.517352211990874
100
AcDbArc
 50
239.439181024
 51
243.8144330806
  0
ARC
  5
94
330
1F
100
AcDbEntity
  8
0
  6
Continuous
 62
     7
370
    30
100
AcDbCircle
 10
235.1853564246
 20
347.4974420049
 30
0.0
 40
5.51735221217861
100
AcDbArc
 50
296.1855669194
 51
300.5608189759
  0
SPLINE
  5
95
330
1F
100
AcDbEntity
  8
0
  6
Continuous
 62
     7
370
    30
100
AcDbSpline
210
0.0
220
0.0
230
1.0
 70
    24
 71
     3
 72
    26
 73
    22
 74
     0
 42
0.000000001
 43
0.00000001
 40
0.0
 40
0.0
 40
0.0
 40
0.0
 40
0.0554165427850662
 40
0.1108468513252253
 40
0.1662742384186999
 40
0.2216867963849543
 40
0.2774214171744464
 40
0.3331555747654364
 40
0.3883280181187569
 40
0.4435002014572387
 40
0.4896977021725555
 40
0.535913771442268
 40
0.5821366050704156
 40
0.6283537384911447
 40
0.6745521320805936
 40
0.7286524839353479
 40
0.7827620001500987
 40
0.8368638954235386
 40
0.8912396204394365
 40
0.945622560459509
 40
1.0
 40
1.0
 40
1.0
 40
1.0
 10
215.990668991774
 20
345.2290106590499
 30
0.0
 10
215.990668991774
 20
345.1459857178949
 30
0.0
 10
215.990668991774
 20
344.9799152117609
 30
0.0
 10
215.990668991774
 20
344.7436054542591
 30
0.0
 10
215.990668991774
 20
344.5175746913258
 30
0.0
 10
215.990668991774
 20
344.3030484109224
 30
0.0
 10
215.990668991774
 20
344.1006301390461
 30
0.0
 10
215.990668991774
 20
343.9116566777632
 30
0.0
 10
215.990668991774
 20
343.7369893669446
 30
0.0
 10
215.990668991774
 20
343.5855031897868
 30
0.0
 10
215.990668991774
 20
343.454493671437
 30
0.0
 10
215.990668991774
 20
343.3415850187214
 30
0.0
 10
215.9906689917741
 20
343.2387608116607
 30
0.0
 10
215.990668991774
 20
343.1460208457141
 30
0.0
 10
215.9906689917741
 20
343.0586529173383
 30
0.0
 10
215.990668991774
 20
342.9786433872198
 30
0.0
 10
215.9906689917741
 20
342.9076745420332
 30
0.0
 10
215.990668991774
 20
342.8492386977758
 30
0.0
 10
215.9906689917741
 20
342.8031753867306
 30
0.0
 10
215.990668991774
 20
342.7679412767598
 30
0.0
 10
215.990668991774
 20
342.753650576924
 30
0.0
 10
215.990668991774
 20
342.7465055883772
 30
0.0
  0
LWPOLYLINE
  5
96
330
1F
100
AcDbEntity
  8
0
  6
Continuous
 62
     7
370
    30
100
AcDbPolyline
 90
       47
 70
   128
 43
0.0
 10
215.9906689918
 20
345.7478106853
 10
215.9067027859
 20
345.7988981688
 10
215.8262782077
 20
345.8503659424
 10
215.749420955
 20
345.9021975606
 10
215.6761555858
 20
345.9543764618
 10
215.6065055103
 20
346.0068859735
 10
215.5404929837
 20
346.0597093175
 10
215.4781390988
 20
346.1128296152
 10
215.4194637792
 20
346.1662298933
 10
215.3644857734
 20
346.219893089
 10
215.3132226483
 20
346.2738020554
 10
215.2656907839
 20
346.3279395671
 10
215.2219053679
 20
346.3822883257
 10
215.1818803909
 20
346.4368309654
 10
215.145628642
 20
346.4915500583
 10
215.1131617045
 20
346.5464281201
 10
215.0844899527
 20
346.6014476158
 10
215.0596225478
 20
346.6565909652
 10
215.0385674358
 20
346.7118405485
 10
215.0213313441
 20
346.7671787119
 10
215.0079197804
 20
346.8225877735
 10
214.9983370298
 20
346.8780500285
 10
214.9925861544
 20
346.9335477552
 10
214.9906689918
 20
346.9890632206
 10
214.9925861544
 20
347.044578686
 10
214.9983370298
 20
347.1000764128
 10
215.0079197804
 20
347.1555386677
 10
215.0213313441
 20
347.2109477293
 10
215.0385674358
 20
347.2662858928
 10
215.0596225478
 20
347.3215354761
 10
215.0844899527
 20
347.3766788255
 10
215.1131617045
 20
347.4316983212
 10
215.145628642
 20
347.486576383
 10
215.1818803909
 20
347.5412954758
 10
215.2219053679
 20
347.5958381155
 10
215.2656907839
 20
347.6501868741
 10
215.3132226483
 20
347.7043243859
 10
215.3644857734
 20
347.7582333522
 10
215.4194637792
 20
347.8118965479
 10
215.4781390988
 20
347.865296826
 10
215.5404929837
 20
347.9184171238
 10
215.6065055103
 20
347.9712404677
 10
215.6761555858
 20
348.0237499794
 10
215.749420955
 20
348.0759288807
 10
215.8262782077
 20
348.1277604989
 10
215.9067027859
 20
348.1792282724
 10
215.9906689918
 20
348.230315756
  0
LWPOLYLINE
  5
97
330
1F
100
AcDbEntity
  8
0
  6
Continuous
 62
     7
370
    30
100
AcDbPolyline
 90
       47
 70
   128
 43
0.0
 10
237.9906689918
 20
348.230315756
 10
238.0746351977
 20
348.1792282724
 10
238.1550597759
 20
348.1277604989
 10
238.2319170286
 20
348.0759288807
 10
238.3051823978
 20
348.0237499794
 10
238.3748324732
 20
347.9712404677
 10
238.4408449998
 20
347.9184171238
 10
238.5031988848
 20
347.865296826
 10
238.5618742044
 20
347.8118965479
 10
238.6168522102
 20
347.7582333522
 10
238.6681153352
 20
347.7043243859
 10
238.7156471997
 20
347.6501868741
 10
238.7594326157
 20
347.5958381155
 10
238.7994575927
 20
347.5412954758
 10
238.8357093416
 20
347.486576383
 10
238.868176279
 20
347.4316983212
 10
238.8968480308
 20
347.3766788255
 10
238.9217154357
 20
347.3215354761
 10
238.9427705478
 20
347.2662858928
 10
238.9600066394
 20
347.2109477293
 10
238.9734182032
 20
347.1555386677
 10
238.9830009537
 20
347.1000764128
 10
238.9887518291
 20
347.044578686
 10
238.9906689918
 20
346.9890632206
 10
238.9887518291
 20
346.9335477552
 10
238.9830009537
 20
346.8780500285
 10
238.9734182032
 20
346.8225877735
 10
238.9600066394
 20
346.7671787119
 10
238.9427705478
 20
346.7118405485
 10
238.9217154357
 20
346.6565909652
 10
238.8968480308
 20
346.6014476158
 10
238.868176279
 20
346.5464281201
 10
238.8357093416
 20
346.4915500583
 10
238.7994575927
 20
346.4368309654
 10
238.7594326157
 20
346.3822883257
 10
238.7156471997
 20
346.3279395671
 10
238.6681153352
 20
346.2738020554
 10
238.6168522102
 20
346.219893089
 10
238.5618742044
 20
346.1662298933
 10
238.5031988848
 20
346.1128296152
 10
238.4408449998
 20
346.0597093175
 10
238.3748324732
 20
346.0068859735
 10
238.3051823978
 20
345.9543764618
 10
238.2319170286
 20
345.9021975606
 10
238.1550597759
 20
345.8503659424
 10
238.0746351977
 20
345.7988981688
 10
237.9906689918
 20
345.7478106853
  0
LINE
  5
98
330
1F
100
AcDbEntity
  8
0
  6
Continuous
 62
     7
370
    30
100
AcDbLine
 10
237.9906689918
 20
345.229010659
 30
0.0
 11
237.9906689918
 21
348.230315756
 31
0.0
  0
LINE
  5
99
330
1F
100
AcDbEntity
  8
0
  6
Continuous
 62
     7
370
    30
100
AcDbLine
 10
215.9906689918
 20
348.230315756
 30
0.0
 11
215.9906689918
 21
345.229010659
 31
0.0
  0
CIRCLE
  5
9A
330
1F
100
AcDbEntity
  8
0
  6
Continuous
 62
     7
370
    30
100
AcDbCircle
 10
226.9791435551
 20
280.6142697285
 30
0.0
 40
3.437564058573489
  0
CIRCLE
  5
9B
330
1F
100
AcDbEntity
  8
0
  6
Continuous
 62
     7
370
    30
100
AcDbCircle
 10
226.9791435551
 20
262.7032694692
 30
0.0
 40
3.437564058573517
  0
LINE
  5
9C
330
1F
100
AcDbEntity
  8
0
  6
Continuous
 62
     7
370
    30
100
AcDbLine
 10
342.7605772323
 20
239.8185955515
 30
0.0
 11
344.7023342478
 21
259.2724920701
 31
0.0
  0
LINE
  5
9D
330
1F
100
AcDbEntity
  8
0
  6
Continuous
 62
     7
370
    30
100
AcDbLine
 10
345.387528705
 20
266.1372552512
 30
0.0
 11
346.4900897432
 21
277.1834923294
 31
0.0
  0
LINE
  5
9E
330
1F
100
AcDbEntity
  8
0
  6
Continuous
 62
     7
370
    30
100
AcDbLine
 10
347.1752842004
 20
284.0482555105
 30
0.0
 11
352.5260518084
 21
337.6560336778
 31
0.0
  0
LINE
  5
9F
330
1F
100
AcDbEntity
  8
0
  6
Continuous
 62
     7
370
    30
100
AcDbLine
 10
303.6287665255
 20
385.9284942292
 30
0.0
 11
282.3136374659
 21
239.8185955515
 31
0.0
  0
LINE
  5
A0
330
1F
100
AcDbEntity
  8
0
  6
Continuous
 62
     7
370
    30
100
AcDbLine
 10
414.3547003037
 20
347.184433545
 30
0.0
 11
416.0434511508
 21
340.8819295825
 31
0.0
  0
LINE
  5
A1
330
1F
100
AcDbEntity
  8
0
  6
Continuous
 62
     7
370
    30
100
AcDbLine
 10
439.2256709817
 20
347.0935866649
 30
0.0
 11
438.0164252273
 21
351.6065532594
 31
0.0
  0
LINE
  5
A2
330
1F
100
AcDbEntity
  8
0
  6
Continuous
 62
     7
370
    30
100
AcDbLine
 10
416.0434511508
 20
340.8819295825
 30
0.0
 11
417.3818772363
 21
340.523299392
 31
0.0
  0
LINE
  5
A3
330
1F
100
AcDbEntity
  8
0
  6
Continuous
 62
     7
370
    30
100
AcDbLine
 10
438.2458750858
 20
346.1137907667
 30
0.0
 11
439.2256709817
 21
347.0935866649
 31
0.0
  0
LINE
  5
A4
330
1F
100
AcDbEntity
  8
0
  6
Continuous
 62
     7
370
    30
100
AcDbLine
 10
346.4900897432
 20
277.1834923294
 30
0.0
 11
346.5099404078
 21
277.1818603077
 31
0.0
  0
LINE
  5
A5
330
1F
100
AcDbEntity
  8
0
  6
Continuous
 62
     7
370
    30
100
AcDbLine
 10
347.1950658159
 20
284.0459317047
 30
0.0
 11
347.1752842004
 21
284.0482555105
 31
0.0
  0
ARC
  5
A6
330
1F
100
AcDbEntity
  8
0
  6
Continuous
 62
     7
370
    30
100
AcDbCircle
 10
343.2504869199
 20
280.973425019
 30
0.0
 40
5.00000000000002
100
AcDbArc
 50
310.6843045103
 51
354.3
  0
ARC
  5
A7
330
1F
100
AcDbEntity
  8
0
  6
Continuous
 62
     7
370
    30
100
AcDbCircle
 10
343.2504869199
 20
280.973425019
 30
0.0
 40
5.000000000000255
100
AcDbArc
 50
354.3
 51
37.9156954897
  0
LINE
  5
A8
330
1F
100
AcDbEntity
  8
0
  6
Continuous
 62
     7
370
    30
100
AcDbLine
 10
344.7023342478
 20
259.2724920701
 30
0.0
 11
344.7221849124
 21
259.2708600484
 31
0.0
  0
LINE
  5
A9
330
1F
100
AcDbEntity
  8
0
  6
Continuous
 62
     7
370
    30
100
AcDbLine
 10
345.4073103205
 20
266.1349314454
 30
0.0
 11
345.387528705
 21
266.1372552512
 31
0.0
  0
ARC
  5
AA
330
1F
100
AcDbEntity
  8
0
  6
Continuous
 62
     7
370
    30
100
AcDbCircle
 10
341.4627314245
 20
263.0624247597
 30
0.0
 40
5.000000000000093
100
AcDbArc
 50
310.6843045103
 51
354.3
  0
ARC
  5
AB
330
1F
100
AcDbEntity
  8
0
  6
Continuous
 62
     7
370
    30
100
AcDbCircle
 10
341.4627314245
 20
263.0624247597
 30
0.0
 40
5.00000000000003
100
AcDbArc
 50
354.3
 51
37.9156954897
  0
LINE
  5
AC
330
1F
100
AcDbEntity
  8
0
  6
Continuous
 62
     7
370
    30
100
AcDbLine
 10
282.3136374659
 20
239.8185955515
 30
0.0
 11
342.7605772323
 21
239.8185955515
 31
0.0
  0
ARC
  5
AD
330
1F
100
AcDbEntity
  8
0
  6
Continuous
 62
     7
370
    30
100
AcDbCircle
 10
304.6182923145
 20
385.7841380282
 30
0.0
 40
1.000000000000084
100
AcDbArc
 50
87.6622714681
 51
171.7
  0
SPLINE
  5
AE
330
1F
100
AcDbEntity
  8
0
  6
Continuous
 62
     7
370
    30
100
AcDbSpline
210
0.0
220
0.0
230
1.0
 70
     8
 71
     3
 72
    80
 73
    76
 74
     0
 42
0.000000001
 43
0.00000001
 40
0.0
 40
0.0
 40
0.0
 40
0.0
 40
0.009505520454534
 40
0.0191011104983101
 40
0.0287862167148703
 40
0.038560274076882
 40
0.0484227065648953
 40
0.0583729277484632
 40
0.0684103413322244
 40
0.0776873838577892
 40
0.0870367103161593
 40
0.0964578416797748
 40
0.105950293234164
 40
0.1155135748427014
 40
0.1251471911940115
 40
0.134782783853078
 40
0.1444867466784718
 40
0.1542585808431041
 40
0.1640977833432899
 40
0.1740038471850424
 40
0.183976261561162
 40
0.1958139432174671
 40
0.2077422247128286
 40
0.2197602512821981
 40
0.2318671621081863
 40
0.2443118768246109
 40
0.2568473118841291
 40
0.2694725351232006
 40
0.2821866090596229
 40
0.2949885911650373
 40
0.3078775341232462
 40
0.3208524860749425
 40
0.3339124908497693
 40
0.3470565881865185
 40
0.3602838139422196
 40
0.3735932002908148
 40
0.3869837759120713
 40
0.4004545661713405
 40
0.4140045932907205
 40
0.4264942220152124
 40
0.439048850101579
 40
0.4516677181291924
 40
0.4643500648716489
 40
0.4770951273852511
 40
0.489902141093932
 40
0.503834804565034
 40
0.5178381926212684
 40
0.5319113295672424
 40
0.5460532379047232
 40
0.5602629384356546
 40
0.5745394503611391
 40
0.588060473278729
 40
0.601639192419131
 40
0.6152747822286367
 40
0.6289664161654084
 40
0.6427132667608851
 40
0.6603263310783688
 40
0.678026160319619
 40
0.6958110317026522
 40
0.7136792206695871
 40
0.731629001060303
 40
0.7496586452799162
 40
0.7677664244605229
 40
0.7859506086176281
 40
0.8042094668016411
 40
0.8225412672448249
 40
0.8409442775040277
 40
0.859416764599543
 40
0.8779569951503934
 40
0.8965632355063418
 40
0.917104270422661
 40
0.9377207716323444
 40
0.9584104316270973
 40
0.9791709432725425
 40
1.0
 40
1.0
 40
1.0
 40
1.0
 10
304.6590820549348
 20
386.7833057804057
 30
0.0
 10
305.1119553893068
 20
386.7641775419585
 30
0.0
 10
306.0219932607683
 20
386.7257398153798
 30
0.0
 10
307.3930890171656
 20
386.65949226837
 30
0.0
 10
308.7766702894223
 20
386.5866687058411
 30
0.0
 10
310.1726026239177
 20
386.506674322706
 30
0.0
 10
311.5807829940599
 20
386.4196972534024
 30
0.0
 10
313.0010990815984
 20
386.3257125686673
 30
0.0
 10
314.3931526826673
 20
386.2275926287869
 30
0.0
 10
315.7562231062331
 20
386.1259835479995
 30
0.0
 10
317.0895999266201
 20
386.0214967938623
 30
0.0
 10
318.4328148670123
 20
385.9111939948067
 30
0.0
 10
319.7857811090511
 20
385.7950902129288
 30
0.0
 10
321.1484115057615
 20
385.6732003218327
 30
0.0
 10
322.5173966980342
 20
385.5458388488451
 30
0.0
 10
323.8926071824465
 20
385.4130642545176
 30
0.0
 10
325.2739139901237
 20
385.2749337303464
 30
0.0
 10
326.6644056264343
 20
385.1311549271824
 30
0.0
 10
328.0639955185418
 20
384.9817419363216
 30
0.0
 10
329.4725969184094
 20
384.826708774378
 30
0.0
 10
330.975384054196
 20
384.6564072340563
 30
0.0
 10
332.5733530164107
 20
384.4697135235643
 30
0.0
 10
334.2674683263494
 20
384.2654591855064
 30
0.0
 10
335.9735724397984
 20
384.0534821967389
 30
0.0
 10
337.7033366019245
 20
383.8322941287786
 30
0.0
 10
339.4567669135935
 20
383.6017486354846
 30
0.0
 10
341.2338653742204
 20
383.3617019616734
 30
0.0
 10
343.0228403869696
 20
383.1137077635158
 30
0.0
 10
344.823538037933
 20
382.8577894281763
 30
0.0
 10
346.6358041515647
 20
382.5939702615016
 30
0.0
 10
348.459484293819
 20
382.3222734969279
 30
0.0
 10
350.2944237878477
 20
382.042722299766
 30
0.0
 10
352.1404677254108
 20
381.7553397721971
 30
0.0
 10
353.997460978398
 20
381.4601489575918
 30
0.0
 10
355.8652482101471
 20
381.1571728445381
 30
0.0
 10
357.7436738836178
 20
380.8464343706233
 30
0.0
 10
359.6325822788355
 20
380.5279564255561
 30
0.0
 10
361.531817472747
 20
380.2017618554534
 30
0.0
 10
363.3877375585849
 20
379.8772262765331
 30
0.0
 10
365.1997063567014
 20
379.5550219988397
 30
0.0
 10
366.9670976869561
 20
379.2357910154756
 30
0.0
 10
368.7426629577564
 20
378.9101491269145
 30
0.0
 10
370.5262815165028
 20
378.5781137903567
 30
0.0
 10
372.3178326104331
 20
378.2397024471302
 30
0.0
 10
374.167048133951
 20
377.8853803910577
 30
0.0
 10
376.0742002367862
 20
377.5146070045531
 30
0.0
 10
378.0395456414814
 20
377.1268337258847
 30
0.0
 10
380.0135961009757
 20
376.7316738150523
 30
0.0
 10
381.9961978607267
 20
376.3291492780033
 30
0.0
 10
383.9871970720167
 20
375.919282094348
 30
0.0
 10
385.9481005937841
 20
375.5100945827987
 30
0.0
 10
387.8784949899725
 20
375.1020327788526
 30
0.0
 10
389.7779743002773
 20
374.6955288011583
 30
0.0
 10
391.6843865685066
 20
374.2825730804533
 30
0.0
 10
393.5976025386382
 20
373.8631839590067
 30
0.0
 10
395.6949498896759
 20
373.3980223191395
 30
0.0
 10
397.9774790755874
 20
372.8851195556215
 30
0.0
 10
400.446148069869
 20
372.3223533467183
 30
0.0
 10
402.924927593288
 20
371.7492564187969
 30
0.0
 10
405.4135485985524
 20
371.1658667292733
 30
0.0
 10
407.9117419998537
 20
370.5722221800685
 30
0.0
 10
410.4192385689788
 20
369.9683606552418
 30
0.0
 10
412.9357689713622
 20
369.3543200114796
 30
0.0
 10
415.4610637645756
 20
368.7301380835925
 30
0.0
 10
417.9948534042462
 20
368.0958526767162
 30
0.0
 10
420.5368682562793
 20
367.4515015962045
 30
0.0
 10
423.0868385744831
 20
366.7971225387521
 30
0.0
 10
425.6444946093935
 20
366.1327535031591
 30
0.0
 10
428.2095662228053
 20
365.4584312506323
 30
0.0
 10
430.8679835934138
 20
364.7512672777771
 30
0.0
 10
433.6198261299946
 20
364.0102201856578
 30
0.0
 10
436.4651490221102
 20
363.2342920513563
 30
0.0
 10
439.3180233205799
 20
362.4463402473409
 30
0.0
 10
442.1783229919874
 20
361.6472356722176
 30
0.0
 10
444.0862415194433
 20
361.1059172401795
 30
0.0
 10
445.0417730335823
 20
360.8348119421528
 30
0.0
  0
SPLINE
  5
AF
330
1F
100
AcDbEntity
  8
0
  6
Continuous
 62
     7
370
    30
100
AcDbSpline
210
0.0
220
0.0
230
1.0
 70
     8
 71
     3
 72
    20
 73
    16
 74
     0
 42
0.000000001
 43
0.00000001
 40
0.0
 40
0.0
 40
0.0
 40
0.0
 40
0.0725634726654852
 40
0.1451267098444883
 40
0.2176899293368839
 40
0.2902536012457201
 40
0.3697452392537602
 40
0.4492363992086344
 40
0.5287276481739942
 40
0.608219207119429
 40
0.6877110499980827
 40
0.7657835778900746
 40
0.8438560004922551
 40
0.9219281514427301
 40
1.0
 40
1.0
 40
1.0
 40
1.0
 10
445.6903202586446
 20
359.4863317095879
 30
0.0
 10
445.6226633073712
 20
359.3279470683746
 30
0.0
 10
445.487349624388
 20
359.0111782999454
 30
0.0
 10
445.2704893316432
 20
358.5421499789009
 30
0.0
 10
445.0435816551965
 20
358.0779364406789
 30
0.0
 10
444.7981505363558
 20
357.6046239303853
 30
0.0
 10
444.533346105289
 20
357.1230100982937
 30
0.0
 10
444.2480471536317
 20
356.6341092898271
 30
0.0
 10
443.9504131363844
 20
356.1526195805425
 30
0.0
 10
443.6406581137155
 20
355.6788340784931
 30
0.0
 10
443.3208939060183
 20
355.215835027393
 30
0.0
 10
442.9916469130946
 20
354.7636859506666
 30
0.0
 10
442.6531045534115
 20
354.3227172237004
 30
0.0
 10
442.3044396966694
 20
353.8896545874621
 30
0.0
 10
442.0630124903021
 20
353.6084680470669
 30
0.0
 10
441.9422991208959
 20
353.4678750491465
 30
0.0
  0
SPLINE
  5
B0
330
1F
100
AcDbEntity
  8
0
  6
Continuous
 62
     7
370
    30
100
AcDbSpline
210
0.0
220
0.0
230
1.0
 70
     8
 71
     3
 72
    46
 73
    42
 74
     0
 42
0.000000001
 43
0.00000001
 40
0.0
 40
0.0
 40
0.0
 40
0.0
 40
0.0336696319673736
 40
0.0671799526672831
 40
0.1005252244771018
 40
0.1336997215197874
 40
0.1666977302624996
 40
0.1995135501523194
 40
0.2321414942919011
 40
0.2618805557802297
 40
0.2914526247158278
 40
0.3208533541790379
 40
0.3500784090219268
 40
0.3791234664598799
 40
0.4079842166997387
 40
0.4366563636073525
 40
0.4651356254173145
 40
0.4934177354875233
 40
0.521498443103517
 40
0.5493735143353167
 40
0.577038732951149
 40
0.6029271037570652
 40
0.6286216859458327
 40
0.65411899364312
 40
0.6794155582645895
 40
0.7045079294569144
 40
0.7271390979274217
 40
0.749596112400014
 40
0.7718764241366579
 40
0.7939774997329713
 40
0.8158968219210024
 40
0.837631890423745
 40
0.8591802228652038
 40
0.8787667162245983
 40
0.8981923464017997
 40
0.9174552453050241
 40
0.9365535603683317
 40
0.9554854553573167
 40
0.9742491142643781
 40
0.9928450849421019
 40
1.0
 40
1.0
 40
1.0
 40
1.0
 10
358.3369013308593
 20
343.0579952119765
 30
0.0
 10
358.9674303006651
 20
343.0751379620597
 30
0.0
 10
360.2255048287132
 20
343.1093423495711
 30
0.0
 10
362.1078910127853
 20
343.1655896195918
 30
0.0
 10
363.9808858811544
 20
343.2254010512253
 30
0.0
 10
365.8441465489248
 20
343.2891989909673
 30
0.0
 10
367.6973420114974
 20
343.3569588542846
 30
0.0
 10
369.5401380899709
 20
343.4287749136407
 30
0.0
 10
371.3217507957555
 20
343.5026187459359
 30
0.0
 10
373.0424680272202
 20
343.5781492744071
 30
0.0
 10
374.7026056008564
 20
343.6550139751354
 30
0.0
 10
376.3529306304827
 20
343.7355060107793
 30
0.0
 10
377.9931862489755
 20
343.8196787383436
 30
0.0
 10
379.6231155774768
 20
343.9075855440423
 30
0.0
 10
381.2424617423369
 20
343.999279804567
 30
0.0
 10
382.8509678706644
 20
344.0948148973189
 30
0.0
 10
384.4483770920996
 20
344.1942441974964
 30
0.0
 10
386.0344325369716
 20
344.2976210791719
 30
0.0
 10
387.6088773427393
 20
344.4049989134328
 30
0.0
 10
389.1714546312855
 20
344.5164310742486
 30
0.0
 10
390.6927112849691
 20
344.6297952060555
 30
0.0
 10
392.1728718378187
 20
344.7448504468287
 30
0.0
 10
393.6121773358417
 20
344.8613462368543
 30
0.0
 10
395.0400455143114
 20
344.9816307138209
 30
0.0
 10
396.4562610679495
 20
345.1057486183964
 30
0.0
 10
397.8185647866177
 20
345.2299126553066
 30
0.0
 10
399.1274765027154
 20
345.3537207997263
 30
0.0
 10
400.383537591931
 20
345.4767656115145
 30
0.0
 10
401.629288960499
 20
345.6031198616282
 30
0.0
 10
402.8645688757657
 20
345.7328171616568
 30
0.0
 10
404.089215593758
 20
345.8658911265354
 30
0.0
 10
405.3030673566316
 20
346.0023753215255
 30
0.0
 10
406.4729764739227
 20
346.1384663621031
 30
0.0
 10
407.5994060342864
 20
346.2738220875918
 30
0.0
 10
408.6828348452908
 20
346.4080979316034
 30
0.0
 10
409.7566726473677
 20
346.5453421370113
 30
0.0
 10
410.820790997261
 20
346.6856067687599
 30
0.0
 10
411.875079665814
 20
346.8288212964753
 30
0.0
 10
412.9194050699147
 20
346.9753728229986
 30
0.0
 10
413.7448644172274
 20
347.0939589097688
 30
0.0
 10
414.2219965978478
 20
347.16514643556
 30
0.0
 10
414.354568357079
 20
347.1849259765612
 30
0.0
  0
LINE
  5
B1
330
1F
100
AcDbEntity
  8
0
  6
Continuous
 62
     7
370
    30
100
AcDbLine
 10
438.0162294836
 20
351.6072837848
 30
0.0
 11
439.2058183481
 21
351.8584116123
 31
0.0
  0
ARC
  5
B2
330
1F
100
AcDbEntity
  8
0
  6
Continuous
 62
     7
370
    30
100
AcDbCircle
 10
358.4963852282
 20
337.0601151793
 30
0.0
 40
5.999999999999959
100
AcDbArc
 50
91.5231384292
 51
174.3
  0
SPLINE
  5
B3
330
1F
100
AcDbEntity
  8
0
  6
Continuous
 62
     7
370
    30
100
AcDbSpline
210
0.0
220
0.0
230
1.0
 70
     8
 71
     3
 72
    24
 73
    20
 74
     0
 42
0.000000001
 43
0.00000001
 40
0.0
 40
0.0
 40
0.0
 40
0.0
 40
0.0139273056493889
 40
0.0738287881813996
 40
0.1337302696995592
 40
0.1939924656159745
 40
0.2542546598169392
 40
0.3156470328529754
 40
0.3770394033636091
 40
0.4388205097852259
 40
0.5006016129910457
 40
0.5620170765807582
 40
0.6234325365067137
 40
0.6852375022640756
 40
0.7470424638264686
 40
0.8100709960680651
 40
0.8730995234106105
 40
0.9365497643452168
 40
0.9999999999999999
 40
0.9999999999999999
 40
0.9999999999999999
 40
0.9999999999999999
 10
439.2058183481001
 20
351.8584116122848
 30
0.0
 10
439.2204777030721
 20
351.8615700635823
 30
0.0
 10
439.2981870921204
 20
351.8783130458724
 30
0.0
 10
439.4381423426025
 20
351.912345006538
 30
0.0
 10
439.6247251521459
 20
351.9651904837719
 30
0.0
 10
439.8094788612679
 20
352.0254024366471
 30
0.0
 10
439.9932675970198
 20
352.0932750353375
 30
0.0
 10
440.1753774487928
 20
352.1687774531017
 30
0.0
 10
440.3558470794312
 20
352.2521007847458
 30
0.0
 10
440.5332370975603
 20
352.3427199155565
 30
0.0
 10
440.706904719959
 20
352.4403338865113
 30
0.0
 10
440.8762194028184
 20
352.5445666950236
 30
0.0
 10
441.0413009329187
 20
352.6554276759531
 30
0.0
 10
441.2021851596245
 20
352.7730114767389
 30
0.0
 10
441.3596139291478
 20
352.8979926385476
 30
0.0
 10
441.5129110544193
 20
353.0300503623297
 30
0.0
 10
441.6618928859681
 20
353.1695370119536
 30
0.0
 10
441.8058303409012
 20
353.3149245447331
 30
0.0
 10
441.8968095288261
 20
353.4168915490895
 30
0.0
 10
441.9422991208959
 20
353.4678750491464
 30
0.0
  0
SPLINE
  5
B4
330
1F
100
AcDbEntity
  8
0
  6
Continuous
 62
     7
370
    30
100
AcDbSpline
210
0.0
220
0.0
230
1.0
 70
     8
 71
     3
 72
    28
 73
    24
 74
     0
 42
0.000000001
 43
0.00000001
 40
0.0
 40
0.0
 40
0.0
 40
0.0
 40
0.0198769200226452
 40
0.0648254204934182
 40
0.109773920217329
 40
0.1558034792578682
 40
0.2018330365044816
 40
0.2510106257557164
 40
0.3001882115889792
 40
0.3507940263763134
 40
0.4013998364877049
 40
0.4505706929919616
 40
0.4997415450414904
 40
0.5503404737098125
 40
0.6009393976171117
 40
0.6501077863377503
 40
0.6992761714871788
 40
0.7498728342739858
 40
0.8004694942517132
 40
0.8496378772357149
 40
0.8988062590534824
 40
0.9494031293574867
 40
1.0
 40
1.0
 40
1.0
 40
1.0
 10
445.0417730335823
 20
360.8348119421529
 30
0.0
 10
445.0525116603555
 20
360.8316354392144
 30
0.0
 10
445.0875339875217
 20
360.8212757789424
 30
0.0
 10
445.1456616638276
 20
360.7999408151293
 30
0.0
 10
445.2155133190385
 20
360.7684092687565
 30
0.0
 10
445.2832418810373
 20
360.7312209550803
 30
0.0
 10
445.3498908841624
 20
360.687618311348
 30
0.0
 10
445.4142125291355
 20
360.6376735009718
 30
0.0
 10
445.4760888781558
 20
360.5808430647426
 30
0.0
 10
445.5334807537193
 20
360.5183789808386
 30
0.0
 10
445.5853544401555
 20
360.4512668651569
 30
0.0
 10
445.6309166998223
 20
360.380688712563
 30
0.0
 10
445.6704925273802
 20
360.3065921799443
 30
0.0
 10
445.7039725316095
 20
360.2286646911437
 30
0.0
 10
445.730708592127
 20
360.1481752681659
 30
0.0
 10
445.7503428295541
 20
360.0665015984118
 30
0.0
 10
445.7631631705408
 20
359.9834868179437
 30
0.0
 10
445.7689654431189
 20
359.8988733858949
 30
0.0
 10
445.7675464048058
 20
359.8140770237256
 30
0.0
 10
445.7590670949038
 20
359.730498443041
 30
0.0
 10
445.7435876947728
 20
359.6479608929423
 30
0.0
 10
445.7214358722625
 20
359.5660374700675
 30
0.0
 10
445.7006921298738
 20
359.5129002964737
 30
0.0
 10
445.6903202586446
 20
359.4863317095879
 30
0.0
  0
LINE
  5
B5
330
1F
100
AcDbEntity
  8
0
  6
Continuous
 62
     7
370
    30
100
AcDbLine
 10
422.1979462624
 20
345.7478106853
 30
0.0
 11
431.4627813162
 21
348.230315756
 31
0.0
  0
LINE
  5
B6
330
1F
100
AcDbEntity
  8
0
  6
Continuous
 62
     7
370
    30
100
AcDbLine
 10
423.0021435393
 20
342.7465055884
 30
0.0
 11
422.1979462624
 21
345.7478106853
 31
0.0
  0
LINE
  5
B7
330
1F
100
AcDbEntity
  8
0
  6
Continuous
 62
     7
370
    30
100
AcDbLine
 10
423.0021435393
 20
342.7465055884
 30
0.0
 11
416.0434511508
 21
340.8819295825
 31
0.0
  0
LINE
  5
B8
330
1F
100
AcDbEntity
  8
0
  6
Continuous
 62
     7
370
    30
100
AcDbLine
 10
439.2256709817
 20
347.0935866649
 30
0.0
 11
432.2669785931
 21
345.229010659
 31
0.0
  0
LINE
  5
B9
330
1F
100
AcDbEntity
  8
0
  6
Continuous
 62
     7
370
    30
100
AcDbLine
 10
431.4627813162
 20
348.230315756
 30
0.0
 11
432.2669785931
 21
345.229010659
 31
0.0
  0
LINE
  5
BA
330
1F
100
AcDbEntity
  8
0
  6
Continuous
 62
     7
370
    30
100
AcDbLine
 10
438.2458750858
 20
346.1137907667
 30
0.0
 11
417.3818772363
 21
340.523299392
 31
0.0
  0
SPLINE
  5
BB
330
1F
100
AcDbEntity
  8
0
  6
Continuous
 62
     7
370
    30
100
AcDbSpline
210
0.0
220
0.0
230
1.0
 70
     8
 71
     3
 72
    26
 73
    22
 74
     0
 42
0.000000001
 43
0.00000001
 40
0.0
 40
0.0
 40
0.0
 40
0.0
 40
0.0554165427850668
 40
0.1108468513252266
 40
0.1662742384187018
 40
0.2216867963849569
 40
0.2774214171744497
 40
0.3331555747654403
 40
0.3883280181187507
 40
0.4435002014572331
 40
0.4896977021725472
 40
0.5359137714422744
 40
0.5821366050704224
 40
0.6283537384911521
 40
0.6745521320806015
 40
0.7286524839353564
 40
0.7827620001501078
 40
0.8368638954235483
 40
0.8912396204394468
 40
0.9456225604595079
 40
1.0
 40
1.0
 40
1.0
 40
1.0
 10
432.2669785931366
 20
345.2290106590499
 30
0.0
 10
432.1085668805421
 20
345.1459857178949
 30
0.0
 10
431.7917041050662
 20
344.9799152117608
 30
0.0
 10
431.3098570625842
 20
344.7436054542592
 30
0.0
 10
430.8231438577916
 20
344.5175746913256
 30
0.0
 10
430.3301603272367
 20
344.3030484109224
 30
0.0
 10
429.8310135835508
 20
344.100630139046
 30
0.0
 10
429.3274438562396
 20
343.9116566777633
 30
0.0
 10
428.82065414659
 20
343.7369893669444
 30
0.0
 10
428.3386276974022
 20
343.5855031897867
 30
0.0
 10
427.8806568888517
 20
343.4544936714371
 30
0.0
 10
427.447679158072
 20
343.3415850187212
 30
0.0
 10
427.0121327397501
 20
343.2387608116609
 30
0.0
 10
426.5743864911522
 20
343.146020845714
 30
0.0
 10
426.1096420508594
 20
343.0586529173385
 30
0.0
 10
425.6177323127576
 20
342.9786433872197
 30
0.0
 10
425.0986866908515
 20
342.9076745420335
 30
0.0
 10
424.5771854807023
 20
342.8492386977755
 30
0.0
 10
424.053576393417
 20
342.8031753867309
 30
0.0
 10
423.5282139911145
 20
342.7679412767596
 30
0.0
 10
423.1774944441329
 20
342.753650576924
 30
0.0
 10
423.0021435393391
 20
342.7465055883772
 30
0.0
  0
LINE
  5
BC
330
1F
100
AcDbEntity
  8
0
  6
Continuous
 62
     7
370
    30
100
AcDbLine
 10
346.8525031118
 20
280.6138960062
 30
0.0
 11
347.1950658159
 21
284.0459317047
 31
0.0
  0
LINE
  5
BD
330
1F
100
AcDbEntity
  8
0
  6
Continuous
 62
     7
370
    30
100
AcDbLine
 10
346.5099404078
 20
277.1818603077
 30
0.0
 11
346.8525031118
 21
280.6138960062
 31
0.0
  0
LINE
  5
BE
330
1F
100
AcDbEntity
  8
0
  6
Continuous
 62
     7
370
    30
100
AcDbLine
 10
345.0647476165
 20
262.7028957469
 30
0.0
 11
345.4073103205
 21
266.1349314454
 31
0.0
  0
LINE
  5
BF
330
1F
100
AcDbEntity
  8
0
  6
Continuous
 62
     7
370
    30
100
AcDbLine
 10
344.7221849124
 20
259.2708600484
 30
0.0
 11
345.0647476165
 21
262.7028957469
 31
0.0
  0
LINE
  5
C0
330
1F
100
AcDbEntity
  8
0
  6
Continuous
 62
     7
370
    30
100
AcDbLine
 10
174.6863625341
 20
239.8185955515
 30
0.0
 11
153.3712334745
 21
385.9284942292
 31
0.0
  0
LINE
  5
C1
330
1F
100
AcDbEntity
  8
0
  6
Continuous
 62
     7
370
    30
100
AcDbLine
 10
104.4739481916
 20
337.6560336778
 30
0.0
 11
109.8247157996
 21
284.0482555105
 31
0.0
  0
LINE
  5
C2
330
1F
100
AcDbEntity
  8
0
  6
Continuous
 62
     7
370
    30
100
AcDbLine
 10
110.5099102568
 20
277.1834923294
 30
0.0
 11
111.612471295
 21
266.1372552512
 31
0.0
  0
LINE
  5
C3
330
1F
100
AcDbEntity
  8
0
  6
Continuous
 62
     7
370
    30
100
AcDbLine
 10
112.2976657522
 20
259.2724920701
 30
0.0
 11
114.2394227677
 21
239.8185955515
 31
0.0
  0
SPLINE
  5
C4
330
1F
100
AcDbEntity
  8
0
  6
Continuous
 62
     7
370
    30
100
AcDbSpline
210
0.0
220
0.0
230
1.0
 70
     8
 71
     3
 72
    65
 73
    61
 74
     0
 42
0.000000001
 43
0.00000001
 40
0.0
 40
0.0
 40
0.0
 40
0.0
 40
0.0321534544219368
 40
0.124654323010294
 40
0.217140531410702
 40
0.3095748379276455
 40
0.388770799739959
 40
0.4402110216853296
 40
0.4856088075543888
 40
0.5353004779641518
 40
0.5759821240408673
 40
0.611026300070951
 40
0.6303995394944497
 40
0.6379741676863562
 40
0.6438320174331912
 40
0.6493756946280379
 40
0.6545808544972403
 40
0.6595369024825509
 40
0.664304553337266
 40
0.6692579264205061
 40
0.6743310180599709
 40
0.6796957600130975
 40
0.6850788044977545
 40
0.6904796048484585
 40
0.6958964908533425
 40
0.7013275333811231
 40
0.7067705969142669
 40
0.7122234003845828
 40
0.7176835824657776
 40
0.7231487693720196
 40
0.728616340114817
 40
0.7340892676005462
 40
0.7395163486624896
 40
0.7449312961720647
 40
0.7503544676162702
 40
0.7557841976215987
 40
0.7612186110440952
 40
0.76665529398345
 40
0.772091587932084
 40
0.7775251753895676
 40
0.7829537465299445
 40
0.7883750665826854
 40
0.7937870411588148
 40
0.799190505687669
 40
0.8045757099300926
 40
0.8099673907170296
 40
0.8153754986842577
 40
0.8207897274850304
 40
0.8261978857994973
 40
0.8315799285399639
 40
0.8367313788662761
 40
0.8420398181054595
 40
0.8479308623336382
 40
0.8550001694408872
 40
0.8711856288469159
 40
0.8908695000208736
 40
0.9249184313989933
 40
0.959634613020315
 40
0.9953296121112274
 40
1.0
 40
1.0
 40
1.0
 40
1.0
 10
155.8778906014264
 20
268.891182792156
 30
0.0
 10
155.8778147716086
 20
269.0560263477955
 30
0.0
 10
155.8775207902998
 20
269.6951011284148
 30
0.0
 10
155.8769978689622
 20
270.8082867943322
 30
0.0
 10
155.8764971400551
 20
272.2304633955371
 30
0.0
 10
155.8758595825853
 20
273.5843722752377
 30
0.0
 10
155.8764965106554
 20
274.7278201930501
 30
0.0
 10
155.8753519532161
 20
275.6301281270579
 30
0.0
 10
155.8719983379682
 20
276.3811768656898
 30
0.0
 10
155.8656895471846
 20
277.0770415594062
 30
0.0
 10
155.8573123882732
 20
277.7197895010224
 30
0.0
 10
155.8488867140592
 20
278.2071264470785
 30
0.0
 10
155.8416028960254
 20
278.5247476338185
 30
0.0
 10
155.8377739343055
 20
278.6928499763785
 30
0.0
 10
155.8326759110898
 20
278.7899980910969
 30
0.0
 10
155.8255562887595
 20
278.874837675537
 30
0.0
 10
155.8160025744184
 20
278.9547889350163
 30
0.0
 10
155.8040682252969
 20
279.030397281147
 30
0.0
 10
155.7893894531545
 20
279.104210102751
 30
0.0
 10
155.7714559007317
 20
279.1779163488751
 30
0.0
 10
155.7499579974665
 20
279.2538466382587
 30
0.0
 10
155.7247702073706
 20
279.3309602415027
 30
0.0
 10
155.6959032581592
 20
279.408568197854
 30
0.0
 10
155.6638214951611
 20
279.4851942969005
 30
0.0
 10
155.6285730654975
 20
279.5606885684219
 30
0.0
 10
155.590213546605
 20
279.6348954742624
 30
0.0
 10
155.5488078111241
 20
279.7076595464569
 30
0.0
 10
155.5044289768173
 20
279.7788265361648
 30
0.0
 10
155.457158259551
 20
279.8482447004636
 30
0.0
 10
155.407085416764
 20
279.9157650011082
 30
0.0
 10
155.3542903022547
 20
279.9812636813385
 30
0.0
 10
155.2990226795405
 20
280.0444323574873
 30
0.0
 10
155.2414159412117
 20
280.1051046891213
 30
0.0
 10
155.1815938718516
 20
280.1632289920915
 30
0.0
 10
155.1194714454646
 20
280.2189095464284
 30
0.0
 10
155.0550820170174
 20
280.2721102220839
 30
0.0
 10
154.9885477107581
 20
280.3227185707005
 30
0.0
 10
154.920000271831
 20
280.3706249557251
 30
0.0
 10
154.8495788459055
 20
280.415724955346
 30
0.0
 10
154.7774274814536
 20
280.4579212855865
 30
0.0
 10
154.7036933595527
 20
280.4971247573848
 30
0.0
 10
154.6285271971959
 20
280.5332535270957
 30
0.0
 10
154.5520697072427
 20
280.5662404043236
 30
0.0
 10
154.4744991670343
 20
280.5960060212531
 30
0.0
 10
154.3958732341455
 20
280.622536361778
 30
0.0
 10
154.3162129758533
 20
280.645862095776
 30
0.0
 10
154.2355276030499
 20
280.6659747341454
 30
0.0
 10
154.1540078726836
 20
280.6828053855772
 30
0.0
 10
154.0720015303964
 20
280.696278959036
 30
0.0
 10
153.9908453424966
 20
280.7061878354156
 30
0.0
 10
153.9098797680259
 20
280.7128642674553
 30
0.0
 10
153.8261448420901
 20
280.7171428056757
 30
0.0
 10
153.7325060834758
 20
280.7196295942109
 30
0.0
 10
153.583085819842
 20
280.7217317796568
 30
0.0
 10
153.3630191546212
 20
280.7280922751828
 30
0.0
 10
153.0046103507068
 20
280.7352729859884
 30
0.0
 10
152.5511813411967
 20
280.7429123073636
 30
0.0
 10
152.0156222512443
 20
280.7481401983006
 30
0.0
 10
151.6306729561526
 20
280.7505229726069
 30
0.0
 10
151.4237138514943
 20
280.7508398567697
 30
0.0
 10
151.399768105691
 20
280.7508765211514
 30
0.0
  0
SPLINE
  5
C5
330
1F
100
AcDbEntity
  8
0
  6
Continuous
 62
     7
370
    30
100
AcDbSpline
210
0.0
220
0.0
230
1.0
 70
     8
 71
     3
 72
    64
 73
    60
 74
     0
 42
0.000000001
 43
0.00000001
 40
0.0
 40
0.0
 40
0.0
 40
0.0
 40
0.0305679972967107
 40
0.0651977929250042
 40
0.09833532064777
 40
0.1334244857526688
 40
0.1503565774554133
 40
0.1592407527522586
 40
0.1647678399682805
 40
0.1700200846446128
 40
0.1749357190713937
 40
0.1796226557771981
 40
0.1844106224067097
 40
0.189580549397127
 40
0.1949733480747391
 40
0.2003479004121662
 40
0.2057140918032972
 40
0.2110811153184394
 40
0.2164573240788722
 40
0.2218388876322536
 40
0.2272356398022186
 40
0.2326560123147699
 40
0.2380961663935094
 40
0.2435518766140655
 40
0.2490185833483056
 40
0.2544915021494794
 40
0.2599644051143798
 40
0.2654321496631573
 40
0.2708900787765131
 40
0.2763338360622942
 40
0.2817604168707782
 40
0.2871465862572328
 40
0.2925241317426772
 40
0.2979298764074843
 40
0.3033582743515975
 40
0.3088033005486639
 40
0.3142583725551831
 40
0.3197152619124251
 40
0.3251655563375221
 40
0.3306020410084866
 40
0.3360177338798599
 40
0.341406071078976
 40
0.3467610737424318
 40
0.3520972012907622
 40
0.3570065163173946
 40
0.3623144249961697
 40
0.3682510319679114
 40
0.3756295837023654
 40
0.3888622846809788
 40
0.4222786429114661
 40
0.4604183018671049
 40
0.5039697999497621
 40
0.5535404701629899
 40
0.6008616389534991
 40
0.658379163926644
 40
0.7357923788474832
 40
0.8255069860385801
 40
0.917907981322168
 40
1.0
 40
1.0
 40
1.0
 40
1.0
 10
151.3997589859859
 20
280.7508300719442
 30
0.0
 10
151.2430354925203
 20
280.7503108983477
 30
0.0
 10
150.9087634833247
 20
280.7492035646778
 30
0.0
 10
150.4046083878818
 20
280.7446917118096
 30
0.0
 10
149.8773103858335
 20
280.7371119506622
 30
0.0
 10
149.4407807815715
 20
280.7281485865265
 30
0.0
 10
149.128627365039
 20
280.7200542241984
 30
0.0
 10
148.9679790859272
 20
280.7156296183136
 30
0.0
 10
148.8673096129812
 20
280.7099536602796
 30
0.0
 10
148.7871326336944
 20
280.7029235978813
 30
0.0
 10
148.7115357194274
 20
280.6935135749893
 30
0.0
 10
148.6387237051554
 20
280.6814635363891
 30
0.0
 10
148.5651980206646
 20
280.666153256444
 30
0.0
 10
148.4887517779412
 20
280.6473609024504
 30
0.0
 10
148.4102309352179
 20
280.6246663722276
 30
0.0
 10
148.3317482915287
 20
280.5984678675892
 30
0.0
 10
148.2545282565275
 20
280.5691232397289
 30
0.0
 10
148.1785645146903
 20
280.5366449324904
 30
0.0
 10
148.1039148080363
 20
280.5010683781877
 30
0.0
 10
148.0306342191244
 20
280.4624247839829
 30
0.0
 10
147.9587731712523
 20
280.4207498039358
 30
0.0
 10
147.8883887302408
 20
280.3760648927479
 30
0.0
 10
147.8196026803698
 20
280.328424820356
 30
0.0
 10
147.7525897061431
 20
280.2779267062079
 30
0.0
 10
147.6875232201774
 20
280.2246795589314
 30
0.0
 10
147.6245786422234
 20
280.1688082339364
 30
0.0
 10
147.563926377333
 20
280.1104497674621
 30
0.0
 10
147.5057283010678
 20
280.0497509294211
 30
0.0
 10
147.4501315527483
 20
279.986860927507
 30
0.0
 10
147.3972682649953
 20
279.9219292280039
 30
0.0
 10
147.3473200403885
 20
279.8551887774074
 30
0.0
 10
147.3003422778403
 20
279.7867380721746
 30
0.0
 10
147.2562215610561
 20
279.7165398831856
 30
0.0
 10
147.2148429610076
 20
279.6444424245912
 30
0.0
 10
147.1762234770125
 20
279.5704406304035
 30
0.0
 10
147.1404886770127
 20
279.4947246121092
 30
0.0
 10
147.1077593575688
 20
279.4175037818314
 30
0.0
 10
147.0781486767218
 20
279.3390059507236
 30
0.0
 10
147.0517563060723
 20
279.2594691903803
 30
0.0
 10
147.0286667239888
 20
279.1791318076557
 30
0.0
 10
147.0089431193044
 20
279.0982292378757
 30
0.0
 10
146.9926512822171
 20
279.0169933216669
 30
0.0
 10
146.9797601969814
 20
278.9355603192267
 30
0.0
 10
146.9707197627161
 20
278.8560803678481
 30
0.0
 10
146.9647411848717
 20
278.7765682383222
 30
0.0
 10
146.9609897002933
 20
278.6938450484637
 30
0.0
 10
146.9589422807921
 20
278.5984134309069
 30
0.0
 10
146.9567337352956
 20
278.4623824977269
 30
0.0
 10
146.9500935166588
 20
278.1855610387827
 30
0.0
 10
146.9428724871427
 20
277.7510711306616
 30
0.0
 10
146.9348110920534
 20
277.1611729337533
 30
0.0
 10
146.9283220468088
 20
276.4884389169483
 30
0.0
 10
146.9244175709601
 20
275.768603739528
 30
0.0
 10
146.9230348971613
 20
274.9771550962021
 30
0.0
 10
146.9234198816622
 20
274.0429670289974
 30
0.0
 10
146.9233357997614
 20
272.8914363254762
 30
0.0
 10
146.9228257122193
 20
271.561036109338
 30
0.0
 10
146.9222481829758
 20
270.2066010232374
 30
0.0
 10
146.9218340293105
 20
269.3120406181834
 30
0.0
 10
146.9216391864932
 20
268.8911855489006
 30
0.0
  0
SPLINE
  5
C6
330
1F
100
AcDbEntity
  8
0
  6
Continuous
 62
     7
370
    30
100
AcDbSpline
210
0.0
220
0.0
230
1.0
 70
     8
 71
     3
 72
    29
 73
    25
 74
     0
 42
0.000000001
 43
0.00000001
 40
0.0
 40
0.0
 40
0.0
 40
0.0
 40
0.0113770096886736
 40
0.059122565451718
 40
0.1066888562468535
 40
0.1539295024164279
 40
0.2013073419326047
 40
0.2487859558914681
 40
0.296326529615659
 40
0.3438877628017248
 40
0.3914148818154162
 40
0.4388623374406966
 40
0.4861880175411964
 40
0.5334160972119943
 40
0.5808628149023723
 40
0.628504242679754
 40
0.6761671527843283
 40
0.723372144771622
 40
0.770388306925373
 40
0.8177655721743796
 40
0.8651024041571225
 40
0.9125437297488667
 40
0.9601636257985309
 40
1.0
 40
1.0
 40
1.0
 40
1.0
 10
156.5834063018094
 20
267.3658793023421
 30
0.0
 10
156.5783415923998
 20
267.3700750658441
 30
0.0
 10
156.552021968724
 20
267.3918790643512
 30
0.0
 10
156.5066918427517
 20
267.433758948049
 30
0.0
 10
156.4477936392339
 20
267.4914005955009
 30
0.0
 10
156.3916549904805
 20
267.5514735474014
 30
0.0
 10
156.3380009660025
 20
267.6136959261857
 30
0.0
 10
156.2868379031069
 20
267.6782075667072
 30
0.0
 10
156.2382842701352
 20
267.7448348569928
 30
0.0
 10
156.1924774781305
 20
267.8134134254736
 30
0.0
 10
156.1495409155642
 20
267.8837610561321
 30
0.0
 10
156.1095906316851
 20
267.9556902900641
 30
0.0
 10
156.0727045827049
 20
268.0290442669528
 30
0.0
 10
156.0388938866242
 20
268.1038647374203
 30
0.0
 10
156.0081381333068
 20
268.18018753221
 30
0.0
 10
155.9804190744038
 20
268.2579305069357
 30
0.0
 10
155.95591735583
 20
268.336600341948
 30
0.0
 10
155.9347700431716
 20
268.4158627218904
 30
0.0
 10
155.9169312022271
 20
268.4957645187774
 30
0.0
 10
155.9023481154204
 20
268.5764000247178
 30
0.0
 10
155.8910466775264
 20
268.6578119206865
 30
0.0
 10
155.883190510196
 20
268.739758617812
 30
0.0
 10
155.8786035071968
 20
268.8176294705544
 30
0.0
 10
155.8782630400191
 20
268.8681833564817
 30
0.0
 10
155.8781079570519
 20
268.8912106764367
 30
0.0
  0
SPLINE
  5
C7
330
1F
100
AcDbEntity
  8
0
  6
Continuous
 62
     7
370
    30
100
AcDbSpline
210
0.0
220
0.0
230
1.0
 70
     8
 71
     3
 72
    29
 73
    25
 74
     0
 42
0.000000001
 43
0.00000001
 40
0.0
 40
0.0
 40
0.0
 40
0.0
 40
0.0117624949706379
 40
0.0594721183026211
 40
0.1070124111821985
 40
0.1542252978125293
 40
0.2015770390846154
 40
0.2490319677668575
 40
0.2965519838378369
 40
0.3440964393555153
 40
0.3916125715277279
 40
0.439054048399692
 40
0.4863791199170283
 40
0.533608731498629
 40
0.5810592216303707
 40
0.6287034528047163
 40
0.676375713661297
 40
0.7235962480396736
 40
0.7706218431177406
 40
0.8180222748328817
 40
0.8653843502793482
 40
0.9128521715428185
 40
0.9605020835746417
 40
1.0
 40
1.0
 40
1.0
 40
1.0
 10
146.9213515581291
 20
268.8911843785937
 30
0.0
 10
146.9214388892582
 20
268.8843861169056
 30
0.0
 10
146.9218804424538
 20
268.8500135603713
 30
0.0
 10
146.9193318379465
 20
268.788171882694
 30
0.0
 10
146.9135608135543
 20
268.7060249863691
 30
0.0
 10
146.9041527934812
 20
268.6243993823875
 30
0.0
 10
146.8914964762223
 20
268.5432727420398
 30
0.0
 10
146.875481964726
 20
268.462556572647
 30
0.0
 10
146.8561641090627
 20
268.3824524559388
 30
0.0
 10
146.8335785712638
 20
268.3031697220392
 30
0.0
 10
146.8077836076618
 20
268.2249194690922
 30
0.0
 10
146.7788462433975
 20
268.1479107814731
 30
0.0
 10
146.7468358892831
 20
268.0723067711499
 30
0.0
 10
146.7117144256351
 20
267.9980901698106
 30
0.0
 10
146.6734680014178
 20
267.9252261758319
 30
0.0
 10
146.6321705682325
 20
267.853751500862
 30
0.0
 10
146.5880798820373
 20
267.7841212557085
 30
0.0
 10
146.541363849618
 20
267.7166584407991
 30
0.0
 10
146.4920127411756
 20
267.6512953938625
 30
0.0
 10
146.4399908822343
 20
267.5879320913767
 30
0.0
 10
146.3852456207589
 20
267.5265577070517
 30
0.0
 10
146.3278575611003
 20
267.4674592093917
 30
0.0
 10
146.2716130529244
 20
267.4136325536832
 30
0.0
 10
146.2334501929619
 20
267.3807389633716
 30
0.0
 10
146.2161536810462
 20
267.3658306368641
 30
0.0
  0
ARC
  5
C8
330
1F
100
AcDbEntity
  8
0
  6
Continuous
 62
     7
370
    30
100
AcDbCircle
 10
151.3997654245
 20
261.278383127
 30
0.0
 40
7.995208620767244
100
AcDbArc
 50
130.4151920168
 51
0.0
  0
ARC
  5
C9
330
1F
100
AcDbEntity
  8
0
  6
Continuous
 62
     7
370
    30
100
AcDbCircle
 10
151.3997654245
 20
261.278383127
 30
0.0
 40
7.995208620767244
100
AcDbArc
 50
0.0
 51
49.5848079832
  0
LINE
  5
CA
330
1F
100
AcDbEntity
  8
0
  6
Continuous
 62
     7
370
    30
100
AcDbLine
 10
18.9835747727
 20
351.6065532594
 30
0.0
 11
17.7743290183
 21
347.0935866649
 31
0.0
  0
LINE
  5
CB
330
1F
100
AcDbEntity
  8
0
  6
Continuous
 62
     7
370
    30
100
AcDbLine
 10
40.9565488492
 20
340.8819295825
 30
0.0
 11
42.6452996963
 21
347.184433545
 31
0.0
  0
LINE
  5
CC
330
1F
100
AcDbEntity
  8
0
  6
Continuous
 62
     7
370
    30
100
AcDbLine
 10
17.7743290183
 20
347.0935866649
 30
0.0
 11
18.7541249142
 21
346.1137907667
 31
0.0
  0
LINE
  5
CD
330
1F
100
AcDbEntity
  8
0
  6
Continuous
 62
     7
370
    30
100
AcDbLine
 10
39.6181227637
 20
340.523299392
 30
0.0
 11
40.9565488492
 21
340.8819295825
 31
0.0
  0
LINE
  5
CE
330
1F
100
AcDbEntity
  8
0
  6
Continuous
 62
     7
370
    30
100
AcDbLine
 10
109.8247157996
 20
284.0482555105
 30
0.0
 11
109.8049341841
 21
284.0459317047
 31
0.0
  0
LINE
  5
CF
330
1F
100
AcDbEntity
  8
0
  6
Continuous
 62
     7
370
    30
100
AcDbLine
 10
110.4900595922
 20
277.1818603077
 30
0.0
 11
110.5099102568
 21
277.1834923294
 31
0.0
  0
ARC
  5
D0
330
1F
100
AcDbEntity
  8
0
  6
Continuous
 62
     7
370
    30
100
AcDbCircle
 10
113.7495130801
 20
280.973425019
 30
0.0
 40
5.000000000000233
100
AcDbArc
 50
142.0843045103
 51
229.3156954897
  0
LINE
  5
D1
330
1F
100
AcDbEntity
  8
0
  6
Continuous
 62
     7
370
    30
100
AcDbLine
 10
111.612471295
 20
266.1372552512
 30
0.0
 11
111.5926896795
 21
266.1349314454
 31
0.0
  0
LINE
  5
D2
330
1F
100
AcDbEntity
  8
0
  6
Continuous
 62
     7
370
    30
100
AcDbLine
 10
112.2778150876
 20
259.2708600484
 30
0.0
 11
112.2976657522
 21
259.2724920701
 31
0.0
  0
ARC
  5
D3
330
1F
100
AcDbEntity
  8
0
  6
Continuous
 62
     7
370
    30
100
AcDbCircle
 10
115.5372685755
 20
263.0624247597
 30
0.0
 40
5.000000000000099
100
AcDbArc
 50
142.0843045103
 51
229.3156954897
  0
LINE
  5
D4
330
1F
100
AcDbEntity
  8
0
  6
Continuous
 62
     7
370
    30
100
AcDbLine
 10
114.2394227677
 20
239.8185955515
 30
0.0
 11
174.6863625341
 21
239.8185955515
 31
0.0
  0
ARC
  5
D5
330
1F
100
AcDbEntity
  8
0
  6
Continuous
 62
     7
370
    30
100
AcDbCircle
 10
152.3817076855
 20
385.7841380282
 30
0.0
 40
1.000000000000085
100
AcDbArc
 50
8.3
 51
92.3377285319
  0
SPLINE
  5
D6
330
1F
100
AcDbEntity
  8
0
  6
Continuous
 62
     7
370
    30
100
AcDbSpline
210
0.0
220
0.0
230
1.0
 70
     8
 71
     3
 72
    80
 73
    76
 74
     0
 42
0.000000001
 43
0.00000001
 40
0.0
 40
0.0
 40
0.0
 40
0.0
 40
0.009505520454534
 40
0.0191011104983101
 40
0.0287862167148703
 40
0.038560274076882
 40
0.0484227065648953
 40
0.0583729277484632
 40
0.0684103413322244
 40
0.0776873838577892
 40
0.0870367103161593
 40
0.0964578416797748
 40
0.105950293234164
 40
0.1155135748427014
 40
0.1251471911940115
 40
0.134782783853078
 40
0.1444867466784718
 40
0.1542585808431041
 40
0.1640977833432899
 40
0.1740038471850424
 40
0.183976261561162
 40
0.1958139432174671
 40
0.2077422247128286
 40
0.2197602512821981
 40
0.2318671621081863
 40
0.2443118768246109
 40
0.2568473118841291
 40
0.2694725351232006
 40
0.2821866090596229
 40
0.2949885911650373
 40
0.3078775341232462
 40
0.3208524860749425
 40
0.3339124908497693
 40
0.3470565881865185
 40
0.3602838139422196
 40
0.3735932002908148
 40
0.3869837759120713
 40
0.4004545661713405
 40
0.4140045932907205
 40
0.4264942220152124
 40
0.439048850101579
 40
0.4516677181291924
 40
0.4643500648716489
 40
0.4770951273852511
 40
0.489902141093932
 40
0.503834804565034
 40
0.5178381926212684
 40
0.5319113295672424
 40
0.5460532379047232
 40
0.5602629384356546
 40
0.5745394503611391
 40
0.588060473278729
 40
0.601639192419131
 40
0.6152747822286367
 40
0.6289664161654084
 40
0.6427132667608851
 40
0.6603263310783688
 40
0.678026160319619
 40
0.6958110317026522
 40
0.7136792206695871
 40
0.731629001060303
 40
0.7496586452799162
 40
0.7677664244605229
 40
0.7859506086176281
 40
0.8042094668016411
 40
0.8225412672448249
 40
0.8409442775040277
 40
0.859416764599543
 40
0.8779569951503934
 40
0.8965632355063418
 40
0.917104270422661
 40
0.9377207716323444
 40
0.9584104316270973
 40
0.9791709432725425
 40
1.0
 40
1.0
 40
1.0
 40
1.0
 10
152.3409179450644
 20
386.7833057804057
 30
0.0
 10
151.8880446106924
 20
386.7641775419585
 30
0.0
 10
150.9780067392309
 20
386.7257398153798
 30
0.0
 10
149.6069109828336
 20
386.65949226837
 30
0.0
 10
148.2233297105769
 20
386.5866687058411
 30
0.0
 10
146.8273973760815
 20
386.506674322706
 30
0.0
 10
145.4192170059393
 20
386.4196972534024
 30
0.0
 10
143.9989009184008
 20
386.3257125686673
 30
0.0
 10
142.6068473173319
 20
386.2275926287869
 30
0.0
 10
141.2437768937661
 20
386.1259835479995
 30
0.0
 10
139.9104000733791
 20
386.0214967938623
 30
0.0
 10
138.5671851329869
 20
385.9111939948067
 30
0.0
 10
137.2142188909481
 20
385.7950902129288
 30
0.0
 10
135.8515884942376
 20
385.6732003218327
 30
0.0
 10
134.4826033019649
 20
385.5458388488451
 30
0.0
 10
133.1073928175527
 20
385.4130642545176
 30
0.0
 10
131.7260860098754
 20
385.2749337303464
 30
0.0
 10
130.3355943735649
 20
385.1311549271824
 30
0.0
 10
128.9360044814574
 20
384.9817419363216
 30
0.0
 10
127.5274030815898
 20
384.826708774378
 30
0.0
 10
126.0246159458032
 20
384.6564072340563
 30
0.0
 10
124.4266469835885
 20
384.4697135235643
 30
0.0
 10
122.7325316736497
 20
384.2654591855064
 30
0.0
 10
121.0264275602008
 20
384.0534821967389
 30
0.0
 10
119.2966633980747
 20
383.8322941287786
 30
0.0
 10
117.5432330864057
 20
383.6017486354846
 30
0.0
 10
115.7661346257788
 20
383.3617019616734
 30
0.0
 10
113.9771596130296
 20
383.1137077635158
 30
0.0
 10
112.1764619620661
 20
382.8577894281763
 30
0.0
 10
110.3641958484345
 20
382.5939702615016
 30
0.0
 10
108.5405157061802
 20
382.3222734969279
 30
0.0
 10
106.7055762121515
 20
382.042722299766
 30
0.0
 10
104.8595322745884
 20
381.7553397721971
 30
0.0
 10
103.0025390216012
 20
381.4601489575918
 30
0.0
 10
101.1347517898521
 20
381.1571728445381
 30
0.0
 10
99.2563261163814
 20
380.8464343706233
 30
0.0
 10
97.36741772116373
 20
380.5279564255561
 30
0.0
 10
95.46818252725213
 20
380.2017618554534
 30
0.0
 10
93.61226244141423
 20
379.8772262765331
 30
0.0
 10
91.80029364329776
 20
379.5550219988397
 30
0.0
 10
90.03290231304311
 20
379.2357910154756
 30
0.0
 10
88.25733704224274
 20
378.9101491269145
 30
0.0
 10
86.47371848349637
 20
378.5781137903567
 30
0.0
 10
84.68216738956612
 20
378.2397024471302
 30
0.0
 10
82.83295186604815
 20
377.8853803910577
 30
0.0
 10
80.92579976321295
 20
377.5146070045531
 30
0.0
 10
78.96045435851782
 20
377.1268337258847
 30
0.0
 10
76.98640389902343
 20
376.7316738150523
 30
0.0
 10
75.00380213927248
 20
376.3291492780033
 30
0.0
 10
73.01280292798249
 20
375.919282094348
 30
0.0
 10
71.05189940621503
 20
375.5100945827987
 30
0.0
 10
69.12150501002667
 20
375.1020327788526
 30
0.0
 10
67.2220256997219
 20
374.6955288011583
 30
0.0
 10
65.3156134314926
 20
374.2825730804533
 30
0.0
 10
63.40239746136099
 20
373.8631839590067
 30
0.0
 10
61.30505011032332
 20
373.3980223191395
 30
0.0
 10
59.02252092441178
 20
372.8851195556215
 30
0.0
 10
56.55385193013022
 20
372.3223533467183
 30
0.0
 10
54.07507240671121
 20
371.7492564187969
 30
0.0
 10
51.58645140144673
 20
371.1658667292733
 30
0.0
 10
49.08825800014542
 20
370.5722221800685
 30
0.0
 10
46.58076143102034
 20
369.9683606552418
 30
0.0
 10
44.06423102863692
 20
369.3543200114796
 30
0.0
 10
41.53893623542363
 20
368.7301380835925
 30
0.0
 10
39.00514659575298
 20
368.0958526767162
 30
0.0
 10
36.46313174371988
 20
367.4515015962045
 30
0.0
 10
33.91316142551608
 20
366.7971225387521
 30
0.0
 10
31.35550539060565
 20
366.1327535031591
 30
0.0
 10
28.79043377719385
 20
365.4584312506323
 30
0.0
 10
26.1320164065854
 20
364.7512672777771
 30
0.0
 10
23.38017387000462
 20
364.0102201856578
 30
0.0
 10
20.53485097788903
 20
363.2342920513563
 30
0.0
 10
17.68197667941922
 20
362.4463402473409
 30
0.0
 10
14.82167700801178
 20
361.6472356722176
 30
0.0
 10
12.91375848055591
 20
361.1059172401795
 30
0.0
 10
11.95822696641684
 20
360.8348119421528
 30
0.0
  0
SPLINE
  5
D7
330
1F
100
AcDbEntity
  8
0
  6
Continuous
 62
     7
370
    30
100
AcDbSpline
210
0.0
220
0.0
230
1.0
 70
     8
 71
     3
 72
    20
 73
    16
 74
     0
 42
0.000000001
 43
0.00000001
 40
0.0
 40
0.0
 40
0.0
 40
0.0
 40
0.0725634726654852
 40
0.1451267098444883
 40
0.2176899293368839
 40
0.2902536012457201
 40
0.3697452392537602
 40
0.4492363992086344
 40
0.5287276481739942
 40
0.608219207119429
 40
0.6877110499980827
 40
0.7657835778900746
 40
0.8438560004922551
 40
0.9219281514427301
 40
1.0
 40
1.0
 40
1.0
 40
1.0
 10
11.30967974135459
 20
359.4863317095879
 30
0.0
 10
11.37733669262801
 20
359.3279470683746
 30
0.0
 10
11.51265037561115
 20
359.0111782999454
 30
0.0
 10
11.72951066835597
 20
358.5421499789009
 30
0.0
 10
11.9564183448027
 20
358.0779364406789
 30
0.0
 10
12.20184946364337
 20
357.6046239303853
 30
0.0
 10
12.46665389471018
 20
357.1230100982937
 30
0.0
 10
12.75195284636747
 20
356.6341092898271
 30
0.0
 10
13.04958686361472
 20
356.1526195805425
 30
0.0
 10
13.35934188628367
 20
355.6788340784931
 30
0.0
 10
13.67910609398086
 20
355.215835027393
 30
0.0
 10
14.00835308690455
 20
354.7636859506666
 30
0.0
 10
14.34689544658767
 20
354.3227172237004
 30
0.0
 10
14.69556030332979
 20
353.8896545874621
 30
0.0
 10
14.93698750969712
 20
353.6084680470669
 30
0.0
 10
15.05770087910323
 20
353.4678750491465
 30
0.0
  0
SPLINE
  5
D8
330
1F
100
AcDbEntity
  8
0
  6
Continuous
 62
     7
370
    30
100
AcDbSpline
210
0.0
220
0.0
230
1.0
 70
     8
 71
     3
 72
    46
 73
    42
 74
     0
 42
0.000000001
 43
0.00000001
 40
0.0
 40
0.0
 40
0.0
 40
0.0
 40
0.0336696319673736
 40
0.0671799526672831
 40
0.1005252244771018
 40
0.1336997215197874
 40
0.1666977302624996
 40
0.1995135501523194
 40
0.2321414942919011
 40
0.2618805557802297
 40
0.2914526247158278
 40
0.3208533541790379
 40
0.3500784090219268
 40
0.3791234664598799
 40
0.4079842166997387
 40
0.4366563636073525
 40
0.4651356254173145
 40
0.4934177354875233
 40
0.521498443103517
 40
0.5493735143353167
 40
0.577038732951149
 40
0.6029271037570652
 40
0.6286216859458327
 40
0.65411899364312
 40
0.6794155582645895
 40
0.7045079294569144
 40
0.7271390979274217
 40
0.749596112400014
 40
0.7718764241366579
 40
0.7939774997329713
 40
0.8158968219210024
 40
0.837631890423745
 40
0.8591802228652038
 40
0.8787667162245983
 40
0.8981923464017997
 40
0.9174552453050241
 40
0.9365535603683317
 40
0.9554854553573167
 40
0.9742491142643781
 40
0.9928450849421019
 40
1.0
 40
1.0
 40
1.0
 40
1.0
 10
98.66309866913984
 20
343.0579952119765
 30
0.0
 10
98.03256969933409
 20
343.0751379620597
 30
0.0
 10
96.77449517128605
 20
343.1093423495711
 30
0.0
 10
94.89210898721389
 20
343.1655896195918
 30
0.0
 10
93.01911411884477
 20
343.2254010512253
 30
0.0
 10
91.15585345107439
 20
343.2891989909673
 30
0.0
 10
89.30265798850184
 20
343.3569588542846
 30
0.0
 10
87.4598619100283
 20
343.4287749136407
 30
0.0
 10
85.67824920424364
 20
343.5026187459359
 30
0.0
 10
83.95753197277898
 20
343.5781492744071
 30
0.0
 10
82.29739439914273
 20
343.6550139751354
 30
0.0
 10
80.64706936951653
 20
343.7355060107793
 30
0.0
 10
79.00681375102363
 20
343.8196787383436
 30
0.0
 10
77.37688442252237
 20
343.9075855440423
 30
0.0
 10
75.75753825766228
 20
343.999279804567
 30
0.0
 10
74.14903212933481
 20
344.0948148973189
 30
0.0
 10
72.55162290789956
 20
344.1942441974964
 30
0.0
 10
70.96556746302755
 20
344.2976210791719
 30
0.0
 10
69.39112265725987
 20
344.4049989134328
 30
0.0
 10
67.82854536871362
 20
344.5164310742486
 30
0.0
 10
66.30728871503004
 20
344.6297952060555
 30
0.0
 10
64.82712816218043
 20
344.7448504468287
 30
0.0
 10
63.38782266415742
 20
344.8613462368543
 30
0.0
 10
61.95995448568774
 20
344.9816307138209
 30
0.0
 10
60.54373893204971
 20
345.1057486183964
 30
0.0
 10
59.18143521338147
 20
345.2299126553066
 30
0.0
 10
57.87252349728377
 20
345.3537207997263
 30
0.0
 10
56.61646240806821
 20
345.4767656115145
 30
0.0
 10
55.37071103950013
 20
345.6031198616282
 30
0.0
 10
54.13543112423346
 20
345.7328171616568
 30
0.0
 10
52.91078440624118
 20
345.8658911265354
 30
0.0
 10
51.69693264336754
 20
346.0023753215255
 30
0.0
 10
50.52702352607645
 20
346.1384663621031
 30
0.0
 10
49.40059396571277
 20
346.2738220875918
 30
0.0
 10
48.31716515470834
 20
346.4080979316034
 30
0.0
 10
47.24332735263141
 20
346.5453421370113
 30
0.0
 10
46.17920900273813
 20
346.6856067687599
 30
0.0
 10
45.12492033418518
 20
346.8288212964753
 30
0.0
 10
44.08059493008447
 20
346.9753728229986
 30
0.0
 10
43.25513558277176
 20
347.0939589097688
 30
0.0
 10
42.77800340215136
 20
347.16514643556
 30
0.0
 10
42.64543164292016
 20
347.1849259765612
 30
0.0
  0
LINE
  5
D9
330
1F
100
AcDbEntity
  8
0
  6
Continuous
 62
     7
370
    30
100
AcDbLine
 10
18.9837705164
 20
351.6072837848
 30
0.0
 11
17.7941816519
 21
351.8584116123
 31
0.0
  0
ARC
  5
DA
330
1F
100
AcDbEntity
  8
0
  6
Continuous
 62
     7
370
    30
100
AcDbCircle
 10
98.5036147718
 20
337.0601151793
 30
0.0
 40
5.999999999999973
100
AcDbArc
 50
5.7
 51
88.4768615708
  0
SPLINE
  5
DB
330
1F
100
AcDbEntity
  8
0
  6
Continuous
 62
     7
370
    30
100
AcDbSpline
210
0.0
220
0.0
230
1.0
 70
     8
 71
     3
 72
    24
 73
    20
 74
     0
 42
0.000000001
 43
0.00000001
 40
0.0
 40
0.0
 40
0.0
 40
0.0
 40
0.0139273056493889
 40
0.0738287881813996
 40
0.1337302696995592
 40
0.1939924656159745
 40
0.2542546598169392
 40
0.3156470328529754
 40
0.3770394033636091
 40
0.4388205097852259
 40
0.5006016129910457
 40
0.5620170765807582
 40
0.6234325365067137
 40
0.6852375022640756
 40
0.7470424638264686
 40
0.8100709960680651
 40
0.8730995234106105
 40
0.9365497643452168
 40
0.9999999999999999
 40
0.9999999999999999
 40
0.9999999999999999
 40
0.9999999999999999
 10
17.79418165189909
 20
351.8584116122848
 30
0.0
 10
17.77952229692707
 20
351.8615700635823
 30
0.0
 10
17.7018129078788
 20
351.8783130458724
 30
0.0
 10
17.56185765739664
 20
351.912345006538
 30
0.0
 10
17.37527484785333
 20
351.9651904837719
 30
0.0
 10
17.19052113873125
 20
352.0254024366471
 30
0.0
 10
17.00673240297938
 20
352.0932750353375
 30
0.0
 10
16.82462255120636
 20
352.1687774531017
 30
0.0
 10
16.64415292056802
 20
352.2521007847458
 30
0.0
 10
16.4667629024388
 20
352.3427199155565
 30
0.0
 10
16.29309528004012
 20
352.4403338865113
 30
0.0
 10
16.12378059718071
 20
352.5445666950236
 30
0.0
 10
15.95869906708051
 20
352.6554276759531
 30
0.0
 10
15.79781484037461
 20
352.7730114767389
 30
0.0
 10
15.64038607085143
 20
352.8979926385476
 30
0.0
 10
15.48708894557986
 20
353.0300503623297
 30
0.0
 10
15.33810711403109
 20
353.1695370119536
 30
0.0
 10
15.19416965909796
 20
353.3149245447331
 30
0.0
 10
15.10319047117308
 20
353.4168915490895
 30
0.0
 10
15.05770087910323
 20
353.4678750491464
 30
0.0
  0
SPLINE
  5
DC
330
1F
100
AcDbEntity
  8
0
  6
Continuous
 62
     7
370
    30
100
AcDbSpline
210
0.0
220
0.0
230
1.0
 70
     8
 71
     3
 72
    28
 73
    24
 74
     0
 42
0.000000001
 43
0.00000001
 40
0.0
 40
0.0
 40
0.0
 40
0.0
 40
0.0198769200226452
 40
0.0648254204934182
 40
0.109773920217329
 40
0.1558034792578682
 40
0.2018330365044816
 40
0.2510106257557164
 40
0.3001882115889792
 40
0.3507940263763134
 40
0.4013998364877049
 40
0.4505706929919616
 40
0.4997415450414904
 40
0.5503404737098125
 40
0.6009393976171117
 40
0.6501077863377503
 40
0.6992761714871788
 40
0.7498728342739858
 40
0.8004694942517132
 40
0.8496378772357149
 40
0.8988062590534824
 40
0.9494031293574867
 40
1.0
 40
1.0
 40
1.0
 40
1.0
 10
11.95822696641684
 20
360.8348119421529
 30
0.0
 10
11.94748833964369
 20
360.8316354392144
 30
0.0
 10
11.91246601247746
 20
360.8212757789424
 30
0.0
 10
11.8543383361716
 20
360.7999408151293
 30
0.0
 10
11.7844866809607
 20
360.7684092687565
 30
0.0
 10
11.71675811896182
 20
360.7312209550803
 30
0.0
 10
11.65010911583679
 20
360.687618311348
 30
0.0
 10
11.58578747086374
 20
360.6376735009718
 30
0.0
 10
11.5239111218433
 20
360.5808430647426
 30
0.0
 10
11.46651924627988
 20
360.5183789808386
 30
0.0
 10
11.41464555984366
 20
360.4512668651569
 30
0.0
 10
11.36908330017687
 20
360.380688712563
 30
0.0
 10
11.329507472619
 20
360.3065921799443
 30
0.0
 10
11.29602746838969
 20
360.2286646911437
 30
0.0
 10
11.26929140787218
 20
360.1481752681659
 30
0.0
 10
11.24965717044506
 20
360.0665015984118
 30
0.0
 10
11.23683682945835
 20
359.9834868179437
 30
0.0
 10
11.23103455688028
 20
359.8988733858949
 30
0.0
 10
11.23245359519336
 20
359.8140770237256
 30
0.0
 10
11.24093290509535
 20
359.730498443041
 30
0.0
 10
11.25641230522638
 20
359.6479608929423
 30
0.0
 10
11.27856412773669
 20
359.5660374700675
 30
0.0
 10
11.29930787012538
 20
359.5129002964737
 30
0.0
 10
11.30967974135459
 20
359.4863317095879
 30
0.0
  0
LINE
  5
DD
330
1F
100
AcDbEntity
  8
0
  6
Continuous
 62
     7
370
    30
100
AcDbLine
 10
40.9565488492
 20
340.8819295825
 30
0.0
 11
33.9978564607
 21
342.7465055884
 31
0.0
  0
LINE
  5
DE
330
1F
100
AcDbEntity
  8
0
  6
Continuous
 62
     7
370
    30
100
AcDbLine
 10
34.8020537376
 20
345.7478106853
 30
0.0
 11
33.9978564607
 21
342.7465055884
 31
0.0
  0
LINE
  5
DF
330
1F
100
AcDbEntity
  8
0
  6
Continuous
 62
     7
370
    30
100
AcDbLine
 10
25.5372186838
 20
348.230315756
 30
0.0
 11
34.8020537376
 21
345.7478106853
 31
0.0
  0
LINE
  5
E0
330
1F
100
AcDbEntity
  8
0
  6
Continuous
 62
     7
370
    30
100
AcDbLine
 10
24.7330214069
 20
345.229010659
 30
0.0
 11
25.5372186838
 21
348.230315756
 31
0.0
  0
LINE
  5
E1
330
1F
100
AcDbEntity
  8
0
  6
Continuous
 62
     7
370
    30
100
AcDbLine
 10
24.7330214069
 20
345.229010659
 30
0.0
 11
17.7743290183
 21
347.0935866649
 31
0.0
  0
LINE
  5
E2
330
1F
100
AcDbEntity
  8
0
  6
Continuous
 62
     7
370
    30
100
AcDbLine
 10
39.6181227637
 20
340.523299392
 30
0.0
 11
18.7541249142
 21
346.1137907667
 31
0.0
  0
SPLINE
  5
E3
330
1F
100
AcDbEntity
  8
0
  6
Continuous
 62
     7
370
    30
100
AcDbSpline
210
0.0
220
0.0
230
1.0
 70
     8
 71
     3
 72
    28
 73
    24
 74
     0
 42
0.000000001
 43
0.00000001
 40
0.0
 40
0.0
 40
0.0
 40
0.0
 40
0.0553664812523757
 40
0.1107324437322286
 40
0.1662867804618721
 40
0.2218485984186385
 40
0.2774010956718315
 40
0.3328535444747834
 40
0.3883056209746803
 40
0.4309315965961706
 40
0.4735674596526752
 40
0.5162031971062896
 40
0.558829001411311
 40
0.5974019960625944
 40
0.6359786476123469
 40
0.6745518682469335
 40
0.7151012814206535
 40
0.7556508220223402
 40
0.8098931530706642
 40
0.8641437465562924
 40
0.9183877863639885
 40
0.9591938175446266
 40
1.0
 40
1.0
 40
1.0
 40
1.0
 10
33.99785646065993
 20
342.7465055883772
 30
0.0
 10
33.81931593102587
 20
342.7537980428932
 30
0.0
 10
33.46223654464602
 20
342.7683828835961
 30
0.0
 10
32.92674383915488
 20
342.8046091965177
 30
0.0
 10
32.39154082621036
 20
342.8523062047341
 30
0.0
 10
31.85704386354963
 20
342.9131000742256
 30
0.0
 10
31.32456000796506
 20
342.9872048374567
 30
0.0
 10
30.79455538492597
 20
343.0752375505186
 30
0.0
 10
30.30806581209826
 20
343.1695652478327
 30
0.0
 10
29.86447393435602
 20
343.2669507694684
 30
0.0
 10
29.46327865839586
 20
343.3641132701619
 30
0.0
 10
29.06426926516119
 20
343.4698905287237
 30
0.0
 10
28.68024079335911
 20
343.58064478825
 30
0.0
 10
28.31109892751076
 20
343.6954166437952
 30
0.0
 10
27.95665051989164
 20
343.8131584486363
 30
0.0
 10
27.59849442182798
 20
343.9397518080586
 30
0.0
 10
27.23687751740637
 20
344.075452468428
 30
0.0
 10
26.83093474067726
 20
344.2367358209886
 30
0.0
 10
26.38787920016943
 20
344.4241182309044
 30
0.0
 10
25.9091311168133
 20
344.6401822187663
 30
0.0
 10
25.47461059174331
 20
344.8484879056747
 30
0.0
 10
25.08267365376175
 20
345.045064558279
 30
0.0
 10
24.84957229985278
 20
345.1676952163577
 30
0.0
 10
24.73302140686255
 20
345.2290106590499
 30
0.0
  0
LINE
  5
E4
330
1F
100
AcDbEntity
  8
0
  6
Continuous
 62
     7
370
    30
100
AcDbLine
 10
109.8049341841
 20
284.0459317047
 30
0.0
 11
110.4900595922
 21
277.1818603077
 31
0.0
  0
LINE
  5
E5
330
1F
100
AcDbEntity
  8
0
  6
Continuous
 62
     7
370
    30
100
AcDbLine
 10
111.5926896795
 20
266.1349314454
 30
0.0
 11
112.2778150876
 21
259.2708600484
 31
0.0
  0
SPLINE
  5
E6
330
1F
100
AcDbEntity
  8
0
  6
Continuous
 62
     7
370
    30
100
AcDbSpline
210
0.0
220
0.0
230
1.0
 70
     8
 71
     3
 72
    47
 73
    43
 74
     0
 42
0.000000001
 43
0.00000001
 40
0.0
 40
0.0
 40
0.0
 40
0.0
 40
0.0208641676687459
 40
0.0465858901019988
 40
0.0722200638985931
 40
0.0978747308062515
 40
0.1236267384689107
 40
0.1493515063595432
 40
0.1750538328485471
 40
0.2007384804954761
 40
0.2264102100121958
 40
0.2520737808308951
 40
0.2777339516819216
 40
0.3033954649406972
 40
0.3290615090069799
 40
0.3547368431334665
 40
0.3804262266922284
 40
0.4061344201656476
 40
0.431866185718885
 40
0.4576262877703822
 40
0.4834232623218812
 40
0.5092042369185357
 40
0.534953298171516
 40
0.5606939397282393
 40
0.5864310386181736
 40
0.6121694480162868
 40
0.6379124241671023
 40
0.6636648307339145
 40
0.6894399204111452
 40
0.7151239465687098
 40
0.740802186194554
 40
0.7665503522332343
 40
0.792338749773277
 40
0.8181375070697574
 40
0.8439074897339172
 40
0.8696177721261656
 40
0.8952325224464456
 40
0.9208213494986728
 40
0.9465874937862961
 40
0.9723258854633441
 40
0.9980412800473254
 40
1.0
 40
1.0
 40
1.0
 40
1.0
 10
248.2580966651718
 20
118.7928679585603
 30
0.0
 10
248.3072446988008
 20
118.8573075791985
 30
0.0
 10
248.4169833152518
 20
119.0011895270878
 30
0.0
 10
248.5838865202367
 20
119.2266357442132
 30
0.0
 10
248.7594298182522
 20
119.4687812454923
 30
0.0
 10
248.9322608629027
 20
119.7129855615054
 30
0.0
 10
249.1025675195253
 20
119.9593531960912
 30
0.0
 10
249.2701939314564
 20
120.2077447501644
 30
0.0
 10
249.4348738616821
 20
120.4577551607366
 30
0.0
 10
249.5966175817156
 20
120.7093992264315
 30
0.0
 10
249.7554368465532
 20
120.9626903861385
 30
0.0
 10
249.9113421164313
 20
121.2176429530908
 30
0.0
 10
250.0643432852634
 20
121.4742714895001
 30
0.0
 10
250.2144464469451
 20
121.7325857402552
 30
0.0
 10
250.3616572789322
 20
121.9925957055712
 30
0.0
 10
250.5059810509534
 20
122.2543117130266
 30
0.0
 10
250.6474254150763
 20
122.5177497699733
 30
0.0
 10
250.7859972415937
 20
122.7829263239377
 30
0.0
 10
250.9217029886285
 20
123.0498581413008
 30
0.0
 10
251.0545537963224
 20
123.3185758587594
 30
0.0
 10
251.1844666840645
 20
123.5889080221015
 30
0.0
 10
251.3113017934673
 20
123.8606211815785
 30
0.0
 10
251.4349716790745
 20
124.1335201336046
 30
0.0
 10
251.5554842690803
 20
124.4076130003547
 30
0.0
 10
251.6728778207138
 20
124.6829823887951
 30
0.0
 10
251.7871574404885
 20
124.9596397746216
 30
0.0
 10
251.8983281028749
 20
125.2375967685302
 30
0.0
 10
252.0064047582212
 20
125.5168955693702
 30
0.0
 10
252.1112461624809
 20
125.7971544666919
 30
0.0
 10
252.2127888366772
 20
126.0782925940374
 30
0.0
 10
252.3111222007922
 20
126.3604313175822
 30
0.0
 10
252.4064073673377
 20
126.6440143705652
 30
0.0
 10
252.4986445810197
 20
126.9290684215216
 30
0.0
 10
252.5876959650092
 20
127.2151972237372
 30
0.0
 10
252.6734313519624
 20
127.5019968504711
 30
0.0
 10
252.7557259583729
 20
127.789037850147
 30
0.0
 10
252.834569342731
 20
128.0762950306452
 30
0.0
 10
252.9102297752364
 20
128.3646045348888
 30
0.0
 10
252.9828627303509
 20
128.6541678415338
 30
0.0
 10
253.0519794289214
 20
128.945061291196
 30
0.0
 10
253.0984371487224
 20
129.1465902102654
 30
0.0
 10
253.1209090661701
 20
129.2513453215482
 30
0.0
 10
253.1224995847402
 20
129.2587596843941
 30
0.0
  0
SPLINE
  5
E7
330
1F
100
AcDbEntity
  8
0
  6
Continuous
 62
     7
370
    30
100
AcDbSpline
210
0.0
220
0.0
230
1.0
 70
     8
 71
     3
 72
    47
 73
    43
 74
     0
 42
0.000000001
 43
0.00000001
 40
0.0
 40
0.0
 40
0.0
 40
0.0
 40
0.0072840441081229
 40
0.0331228269174755
 40
0.0589828383929697
 40
0.0848688325132279
 40
0.1107855647473962
 40
0.1367672678215091
 40
0.1625137793544414
 40
0.1883565143015139
 40
0.2142523969264722
 40
0.2401714470443403
 40
0.2660785983894199
 40
0.2919385076403191
 40
0.3177213255095719
 40
0.3433909849147139
 40
0.3691916605310773
 40
0.3950028261078442
 40
0.420807358417944
 40
0.4466101247243832
 40
0.4724153802636077
 40
0.4982269658657689
 40
0.5240497397116689
 40
0.5498851830414275
 40
0.5757932879009088
 40
0.6016797263357381
 40
0.6275404277562006
 40
0.6533802015629002
 40
0.6792038566017126
 40
0.7050161987803801
 40
0.7308220316501548
 40
0.7566261569899428
 40
0.782432783995557
 40
0.8082457033042141
 40
0.8340697133448133
 40
0.8599096123334781
 40
0.8857701985521181
 40
0.911656270931379
 40
0.9375726296320874
 40
0.9635312894198246
 40
0.9893172266677203
 40
1.0
 40
1.0
 40
1.0
 40
1.0
 10
200.8700896522519
 20
129.2088626592952
 30
0.0
 10
200.8760752287716
 20
129.1814319501709
 30
0.0
 10
200.90329351742
 20
129.0566959358003
 30
0.0
 10
200.9550755777133
 20
128.8352915582749
 30
0.0
 10
201.0255348131853
 20
128.5446173614057
 30
0.0
 10
201.0995949940023
 20
128.254499233429
 30
0.0
 10
201.1769617641185
 20
127.9647410181273
 30
0.0
 10
201.2574910806251
 20
127.6763759478468
 30
0.0
 10
201.3412111586463
 20
127.3891964931624
 30
0.0
 10
201.4280593225897
 20
127.1032690784144
 30
0.0
 10
201.5183168542444
 20
126.8176769917893
 30
0.0
 10
201.6118567645713
 20
126.5328560932507
 30
0.0
 10
201.7085522027861
 20
126.2492113285719
 30
0.0
 10
201.8082648387248
 20
125.9671437311623
 30
0.0
 10
201.9108522229721
 20
125.6870561980042
 30
0.0
 10
202.0165198501743
 20
125.4083350698065
 30
0.0
 10
202.125342657746
 20
125.130685386203
 30
0.0
 10
202.2374843269825
 20
124.8537698535996
 30
0.0
 10
202.3527434284809
 20
124.5781001513013
 30
0.0
 10
202.4710940634892
 20
124.3037396157684
 30
0.0
 10
202.5925405729844
 20
124.0306765319081
 30
0.0
 10
202.7170873562105
 20
123.7588992629779
 30
0.0
 10
202.8447370859188
 20
123.4884069011034
 30
0.0
 10
202.9755783162394
 20
123.2190002748874
 30
0.0
 10
203.109540953266
 20
122.9508265826867
 30
0.0
 10
203.2465600401877
 20
122.6840611324723
 30
0.0
 10
203.3864536728965
 20
122.4190592246887
 30
0.0
 10
203.5292117305112
 20
122.1558340718862
 30
0.0
 10
203.6748400772622
 20
121.8943685555304
 30
0.0
 10
203.8233454040182
 20
121.6346460149326
 30
0.0
 10
203.9747350808202
 20
121.3766501860954
 30
0.0
 10
204.1290160232196
 20
121.1203671874278
 30
0.0
 10
204.2861936767167
 20
120.8657867926937
 30
0.0
 10
204.4462740268312
 20
120.6128991099853
 30
0.0
 10
204.6092643963943
 20
120.3616923220512
 30
0.0
 10
204.7751762776363
 20
120.1121527703006
 30
0.0
 10
204.9440165711355
 20
119.8642632747062
 30
0.0
 10
205.115812660918
 20
119.6180218172124
 30
0.0
 10
205.2905348825551
 20
119.3733490231091
 30
0.0
 10
205.4679298566643
 20
119.1310586190756
 30
0.0
 10
205.6122405219952
 20
118.9375303661496
 30
0.0
 10
205.6981857791248
 20
118.8257068276975
 30
0.0
 10
205.7233617090191
 20
118.7929503771543
 30
0.0
  0
LINE
  5
E8
330
1F
100
AcDbEntity
  8
0
  6
Continuous
 62
     7
370
    30
100
AcDbLine
 10
197.524686769
 20
146.7956631422
 30
0.0
 11
200.7045069619
 21
130.0132411635
 31
0.0
  0
LINE
  5
E9
330
1F
100
AcDbEntity
  8
0
  6
Continuous
 62
     7
370
    30
100
AcDbLine
 10
253.2768300694
 20
130.0132360827
 30
0.0
 11
256.456651225
 21
146.7956631422
 31
0.0
  0
SPLINE
  5
EA
330
1F
100
AcDbEntity
  8
0
  6
Continuous
 62
     7
370
    30
100
AcDbSpline
210
0.0
220
0.0
230
1.0
 70
     8
 71
     3
 72
    35
 73
    31
 74
     0
 42
0.000000001
 43
0.00000001
 40
0.0
 40
0.0
 40
0.0
 40
0.0
 40
0.0097100356270314
 40
0.0475062596609517
 40
0.0851844961376213
 40
0.1227669349593476
 40
0.160275953002369
 40
0.1977340553071963
 40
0.2351638531876621
 40
0.2725880414580583
 40
0.3100283240530026
 40
0.3475009082855479
 40
0.3850285571415203
 40
0.4226340175858618
 40
0.46033999418376
 40
0.4981366403299697
 40
0.5358509353008056
 40
0.57346149251892
 40
0.6109451048386407
 40
0.6483295810594109
 40
0.6856428399912635
 40
0.7229129012733644
 40
0.7601678555916226
 40
0.7974358340455985
 40
0.8347364537193981
 40
0.8720969042412511
 40
0.9095452056838492
 40
0.9471092844688698
 40
0.9848169437590037
 40
1.0
 40
1.0
 40
1.0
 40
1.0
 10
247.0318715963033
 20
115.3137392507554
 30
0.0
 10
247.0320416532156
 20
115.3257922853703
 30
0.0
 10
247.032873655089
 20
115.3847616459489
 30
0.0
 10
247.0376990165899
 20
115.4904926431872
 30
0.0
 10
247.0464566270948
 20
115.630714691958
 30
0.0
 10
247.058799835293
 20
115.7704007528404
 30
0.0
 10
247.0743850026495
 20
115.9095555167413
 30
0.0
 10
247.0932970122353
 20
116.0481847758258
 30
0.0
 10
247.1155090463967
 20
116.1862942080569
 30
0.0
 10
247.1410266587517
 20
116.3238882260106
 30
0.0
 10
247.1698476149334
 20
116.4609630336412
 30
0.0
 10
247.2019729843624
 20
116.5975146927515
 30
0.0
 10
247.2374048650583
 20
116.7335402137915
 30
0.0
 10
247.2761489398229
 20
116.8690443505934
 30
0.0
 10
247.3182022129001
 20
117.0039914231694
 30
0.0
 10
247.3634762551262
 20
117.1381183326644
 30
0.0
 10
247.4118537466073
 20
117.271104992283
 30
0.0
 10
247.4632306654949
 20
117.4026167530042
 30
0.0
 10
247.5175644367157
 20
117.5325624064485
 30
0.0
 10
247.5748324990153
 20
117.6609090720506
 30
0.0
 10
247.6350377884783
 20
117.7876825784541
 30
0.0
 10
247.6981864877513
 20
117.9129076486195
 30
0.0
 10
247.764287311637
 20
118.0366081430269
 30
0.0
 10
247.833347926543
 20
118.1587962906873
 30
0.0
 10
247.9053722039411
 20
118.2794860889789
 30
0.0
 10
247.9803842460386
 20
118.3986766390229
 30
0.0
 10
248.0583461885661
 20
118.5164265891571
 30
0.0
 10
248.1394845036784
 20
118.6325990228084
 30
0.0
 10
248.2062867165905
 20
118.7246810439263
 30
0.0
 10
248.2469679619316
 20
118.7773308831103
 30
0.0
 10
248.2586461105398
 20
118.7924447922602
 30
0.0
  0
LINE
  5
EB
330
1F
100
AcDbEntity
  8
0
  6
Continuous
 62
     7
370
    30
100
AcDbLine
 10
247.031344226
 20
115.2812997146
 30
0.0
 11
247.0318715963
 21
115.3137392508
 31
0.0
  0
LINE
  5
EC
330
1F
100
AcDbEntity
  8
0
  6
Continuous
 62
     7
370
    30
100
AcDbLine
 10
206.9495476687
 20
115.3097551726
 30
0.0
 11
206.94999212
 21
115.2812921806
 31
0.0
  0
SPLINE
  5
ED
330
1F
100
AcDbEntity
  8
0
  6
Continuous
 62
     7
370
    30
100
AcDbSpline
210
0.0
220
0.0
230
1.0
 70
     8
 71
     3
 72
    35
 73
    31
 74
     0
 42
0.000000001
 43
0.00000001
 40
0.0
 40
0.0
 40
0.0
 40
0.0
 40
0.0173150586033179
 40
0.0548398573753874
 40
0.0922544410726965
 40
0.1295835363633779
 40
0.1668520304824636
 40
0.2040848663414244
 40
0.2413070126988154
 40
0.2785434341606996
 40
0.3158108014925262
 40
0.3531339181307072
 40
0.3905375380841397
 40
0.4280462891142632
 40
0.4656846466417168
 40
0.5034593632272455
 40
0.5411788910489956
 40
0.5787427170184641
 40
0.6161960541591276
 40
0.6535680435359937
 40
0.6908878678934863
 40
0.728184708990842
 40
0.7654877152133619
 40
0.8028196731993443
 40
0.8402061813674043
 40
0.8776760807935271
 40
0.915258046615252
 40
0.952980563209726
 40
0.9908719010919433
 40
0.9999999999999999
 40
0.9999999999999999
 40
0.9999999999999999
 40
0.9999999999999999
 10
205.722684084118
 20
118.7924400253813
 30
0.0
 10
205.736005530062
 20
118.7751773011574
 30
0.0
 10
205.7781969088115
 20
118.7205031960313
 30
0.0
 10
205.8463279592264
 20
118.626439210544
 30
0.0
 10
205.9270749047819
 20
118.5105054413418
 30
0.0
 10
206.0047205617455
 20
118.3929134983682
 30
0.0
 10
206.0794662150756
 20
118.2737959135851
 30
0.0
 10
206.1512720472684
 20
118.1531057413807
 30
0.0
 10
206.2201599120766
 20
118.0308421353898
 30
0.0
 10
206.2861274153258
 20
117.9069994305649
 30
0.0
 10
206.3491753152031
 20
117.7815748200313
 30
0.0
 10
206.4093017563227
 20
117.6545640766863
 30
0.0
 10
206.4665075637745
 20
117.5259532357892
 30
0.0
 10
206.5207913230002
 20
117.3957274693351
 30
0.0
 10
206.5721400336284
 20
117.2638921399195
 30
0.0
 10
206.6204525259868
 20
117.1307061125272
 30
0.0
 10
206.6655904501682
 20
116.9965885361031
 30
0.0
 10
206.7074169295188
 20
116.8619037829515
 30
0.0
 10
206.7459091055128
 20
116.7267613194505
 30
0.0
 10
206.78108828786
 20
116.5911148524263
 30
0.0
 10
206.8129672287287
 20
116.4549364831781
 30
0.0
 10
206.8415550641903
 20
116.318197503508
 30
0.0
 10
206.8668568042643
 20
116.1808763625974
 30
0.0
 10
206.8888720556039
 20
116.0429554442607
 30
0.0
 10
206.9076065978723
 20
115.9044170802857
 30
0.0
 10
206.9230339155338
 20
115.7652360007536
 30
0.0
 10
206.9352403545732
 20
115.6253825129621
 30
0.0
 10
206.9438757756031
 20
115.4848287779649
 30
0.0
 10
206.9485993267538
 20
115.3795277723536
 30
0.0
 10
206.9493934934743
 20
115.3210983452513
 30
0.0
 10
206.949547668702
 20
115.3097551725947
 30
0.0
  0
SPLINE
  5
EE
330
1F
100
AcDbEntity
  8
0
  6
Continuous
 62
     7
370
    30
100
AcDbSpline
210
0.0
220
0.0
230
1.0
 70
     8
 71
     3
 72
    44
 73
    40
 74
     0
 42
0.000000001
 43
0.00000001
 40
0.0
 40
0.0
 40
0.0
 40
0.0
 40
0.0244961714024038
 40
0.0518329740378126
 40
0.0792478036996897
 40
0.1067413449343977
 40
0.1343141002189639
 40
0.1619664455022014
 40
0.1896986244401965
 40
0.217510742819282
 40
0.2454027630729183
 40
0.2733744989405311
 40
0.3014256103275954
 40
0.3295555984227767
 40
0.3577638011344914
 40
0.3860493889205192
 40
0.4144113610718151
 40
0.4428485425302308
 40
0.4713583731052902
 40
0.4999987339573496
 40
0.5286759179267241
 40
0.5573217820680212
 40
0.5859282355563623
 40
0.6144874964005149
 40
0.6429921218918856
 40
0.6714350547483758
 40
0.6998096625779283
 40
0.7281097703090139
 40
0.7563296854685476
 40
0.7844642163949779
 40
0.8125086836462063
 40
0.8404589250253992
 40
0.8683112947486572
 40
0.896062657376861
 40
0.9198993432086354
 40
0.9451503019193911
 40
0.9706024975304363
 40
0.9989193159435322
 40
1.0
 40
1.0
 40
1.0
 40
1.0
 10
210.0304186992456
 20
21.58282138580131
 30
0.0
 10
210.1658857528468
 20
21.54680628181732
 30
0.0
 10
210.4525289248324
 20
21.47059968123849
 30
0.0
 10
210.8917879833221
 20
21.35799388492326
 30
0.0
 10
211.3483796155075
 20
21.24403135226899
 30
0.0
 10
211.8070763002246
 20
21.13302653618082
 30
0.0
 10
212.2678425156187
 20
21.02490048088474
 30
0.0
 10
212.7306732213042
 20
20.91970003749294
 30
0.0
 10
213.1955521801543
 20
20.81743823912924
 30
0.0
 10
213.6624631293886
 20
20.71813716301601
 30
0.0
 10
214.1313866407382
 20
20.62181631930787
 30
0.0
 10
214.602300835233
 20
20.52849569510545
 30
0.0
 10
215.0751810640996
 20
20.43819484562765
 30
0.0
 10
215.5499998765607
 20
20.3509330589941
 30
0.0
 10
216.0267269059495
 20
20.26672917162103
 30
0.0
 10
216.5053288296255
 20
20.18560168148248
 30
0.0
 10
216.9857691572051
 20
20.10756799554653
 30
0.0
 10
217.4680018543241
 20
20.03264789486098
 30
0.0
 10
217.9523123459293
 20
19.96080297176789
 30
0.0
 10
218.438462576927
 20
19.89206870133403
 30
0.0
 10
218.925848806469
 20
19.8265663631913
 30
0.0
 10
219.4134877403364
 20
19.76443324807337
 30
0.0
 10
219.9008811667906
 20
19.70572557185185
 30
0.0
 10
220.3878742939464
 20
19.65044834094603
 30
0.0
 10
220.8743176701068
 20
19.59860190370061
 30
0.0
 10
221.3600678497849
 20
19.55018186266483
 30
0.0
 10
221.8449881281727
 20
19.50517931146861
 30
0.0
 10
222.328949143877
 20
19.46358104763241
 30
0.0
 10
222.8118293627824
 20
19.42536978168746
 30
0.0
 10
223.2935154479297
 20
19.39052458624407
 30
0.0
 10
223.7739024846275
 20
19.35902055519384
 30
0.0
 10
224.252894198884
 20
19.33083149155951
 30
0.0
 10
224.7304026862409
 20
19.30592140679127
 30
0.0
 10
225.1845618841036
 20
19.28526838576011
 30
0.0
 10
225.6239694301093
 20
19.26794439268181
 30
0.0
 10
226.0503472299547
 20
19.25420601517919
 30
0.0
 10
226.5024324884774
 20
19.24249478813483
 30
0.0
 10
226.8162643381153
 20
19.23548698221206
 30
0.0
 10
226.9844794255228
 20
19.23248157188079
 30
0.0
 10
226.9906631944741
 20
19.23237108973946
 30
0.0
  0
SPLINE
  5
EF
330
1F
100
AcDbEntity
  8
0
  6
Continuous
 62
     7
370
    30
100
AcDbSpline
210
0.0
220
0.0
230
1.0
 70
     8
 71
     3
 72
    44
 73
    40
 74
     0
 42
0.000000001
 43
0.00000001
 40
0.0
 40
0.0
 40
0.0
 40
0.0
 40
0.0228743665872737
 40
0.0498401621271436
 40
0.0742355551529962
 40
0.1003526789699422
 40
0.1253097745690039
 40
0.1529021088766075
 40
0.1805928664123936
 40
0.2083869385179781
 40
0.2362813724027434
 40
0.2642727409474914
 40
0.2923571133508771
 40
0.3205300512372918
 40
0.3487866099984693
 40
0.3771213460079119
 40
0.4055283301992031
 40
0.4340011683977786
 40
0.4625330286114213
 40
0.4911166753479075
 40
0.5197445107930503
 40
0.5484086224834426
 40
0.5771064478973147
 40
0.605649777724438
 40
0.6341206866200408
 40
0.662518047764576
 40
0.6908406253326146
 40
0.7190873620583608
 40
0.7472573766016511
 40
0.7753499600372832
 40
0.8033645718250224
 40
0.8313008353348723
 40
0.8591585329977443
 40
0.8869376011531165
 40
0.9146381246552038
 40
0.94226033129801
 40
0.9698045861123433
 40
0.9972713855901566
 40
1.0
 40
1.0
 40
1.0
 40
1.0
 10
226.9906727457585
 20
19.2325123902472
 30
0.0
 10
227.1215583258033
 20
19.23508165555282
 30
0.0
 10
227.4067403659112
 20
19.24067973840621
 30
0.0
 10
227.8314619096466
 20
19.25143610807795
 30
0.0
 10
228.2746694992635
 20
19.26501263937347
 30
0.0
 10
228.7062708962528
 20
19.28147381701556
 30
0.0
 10
229.1560300696787
 20
19.30141054672102
 30
0.0
 10
229.6146405961205
 20
19.32461394574253
 30
0.0
 10
230.0892823868891
 20
19.35177740319244
 30
0.0
 10
230.5654431826081
 20
19.38219979875883
 30
0.0
 10
231.0430896656008
 20
19.41591683568883
 30
0.0
 10
231.5221384316401
 20
19.45295803976182
 30
0.0
 10
232.0024977331059
 20
19.49335047858852
 30
0.0
 10
232.4840673945885
 20
19.53711799881536
 30
0.0
 10
232.9667388680494
 20
19.584281033108
 30
0.0
 10
233.4503954098604
 20
19.63485626571265
 30
0.0
 10
233.9349123607279
 20
19.68885636784762
 30
0.0
 10
234.4201575495682
 20
19.74628970260223
 30
0.0
 10
234.9059917885576
 20
19.80716022861767
 30
0.0
 10
235.3922695862271
 20
19.87146682341506
 30
0.0
 10
235.8788396002501
 20
19.93920495952933
 30
0.0
 10
236.3655783582209
 20
20.01036443517273
 30
0.0
 10
236.8513382825306
 20
20.08479533644764
 30
0.0
 10
237.3354796870936
 20
20.1624186390878
 30
0.0
 10
237.817378570498
 20
20.24311238578763
 30
0.0
 10
238.2974648565346
 20
20.32693665921131
 30
0.0
 10
238.7756993854906
 20
20.41387331848016
 30
0.0
 10
239.2520444673339
 20
20.50390375495942
 30
0.0
 10
239.7264655631244
 20
20.59700868425524
 30
0.0
 10
240.1989312075161
 20
20.69316832120666
 30
0.0
 10
240.6694128688538
 20
20.79236268250212
 30
0.0
 10
241.1378851182047
 20
20.89457070735507
 30
0.0
 10
241.604324580107
 20
20.9997739367565
 30
0.0
 10
242.0687133893861
 20
21.10794318352166
 30
0.0
 10
242.5310258751171
 20
21.21908840696768
 30
0.0
 10
242.9912775581972
 20
21.33307367986032
 30
0.0
 10
243.4493425612176
 20
21.45030511362383
 30
0.0
 10
243.769071381481
 20
21.53359880107059
 30
0.0
 10
243.9358567412914
 20
21.57874537528209
 30
0.0
 10
243.9509283325543
 20
21.58282505418335
 30
0.0
  0
SPLINE
  5
F0
330
1F
100
AcDbEntity
  8
0
  6
Continuous
 62
     7
370
    30
100
AcDbSpline
210
0.0
220
0.0
230
1.0
 70
     8
 71
     3
 72
    40
 73
    36
 74
     0
 42
0.000000001
 43
0.00000001
 40
0.0
 40
0.0
 40
0.0
 40
0.0
 40
0.0208678294333997
 40
0.052227407737761
 40
0.0836757857502142
 40
0.1152048767371785
 40
0.1468048834305561
 40
0.1784645007918189
 40
0.2101711663677479
 40
0.241909977169035
 40
0.2736634637428347
 40
0.3054172658446928
 40
0.3371572321908711
 40
0.368869778248129
 40
0.40054222673092
 40
0.4321631177321135
 40
0.463722478661914
 40
0.4952120468219406
 40
0.5263031918804979
 40
0.5572448878044243
 40
0.588389616413944
 40
0.6195947196746463
 40
0.6508606346932487
 40
0.6821856138535901
 40
0.7135662072679391
 40
0.7449973290093
 40
0.7764723708434847
 40
0.8079833643423125
 40
0.8395208268367127
 40
0.8710716370734308
 40
0.9026251282519605
 40
0.9341704604776804
 40
0.9656969525820064
 40
0.9971944094837341
 40
1.0
 40
1.0
 40
1.0
 40
1.0
 10
243.9505403702346
 20
21.58429370386899
 30
0.0
 10
243.968243979272
 20
21.58906710345826
 30
0.0
 10
244.0125520665397
 20
21.60101383167129
 30
0.0
 10
244.08249358987
 20
21.62378117379399
 30
0.0
 10
244.1604012108287
 20
21.6521091212008
 30
0.0
 10
244.2372728497741
 20
21.68371974998168
 30
0.0
 10
244.3129968293461
 20
21.71840829255916
 30
0.0
 10
244.3874051080892
 20
21.75616284572429
 30
0.0
 10
244.460342559169
 20
21.79690836009335
 30
0.0
 10
244.531648223792
 20
21.84057413050461
 30
0.0
 10
244.6011644211331
 20
21.88707662227046
 30
0.0
 10
244.668737784535
 20
21.93632562813735
 30
0.0
 10
244.7342220978064
 20
21.98822487869906
 30
0.0
 10
244.7974769082577
 20
22.04267157879797
 30
0.0
 10
244.8583685498292
 20
22.09955700595284
 30
0.0
 10
244.9167711184746
 20
22.15876765618824
 30
0.0
 10
244.9725667650412
 20
22.22018512261309
 30
0.0
 10
245.0254666229354
 20
22.28347413235138
 30
0.0
 10
245.0753630130016
 20
22.34842973178025
 30
0.0
 10
245.1223963524651
 20
22.41507277116345
 30
0.0
 10
245.1667303033657
 20
22.48361759053735
 30
0.0
 10
245.2083755338366
 20
22.55411467066099
 30
0.0
 10
245.2471860106093
 20
22.6263475185558
 30
0.0
 10
245.2830863518303
 20
22.7001986847179
 30
0.0
 10
245.3160033831235
 20
22.77554380233632
 30
0.0
 10
245.345867204681
 20
22.8522518006356
 30
0.0
 10
245.3726116541391
 20
22.93018513235362
 30
0.0
 10
245.3961760297812
 20
23.00919981048505
 30
0.0
 10
245.4165015448391
 20
23.08914362408026
 30
0.0
 10
245.4335474705094
 20
23.16985927785892
 30
0.0
 10
245.4472387254665
 20
23.25118593121506
 30
0.0
 10
245.4576650011663
 20
23.33296205127006
 30
0.0
 10
245.4643402814468
 20
23.41502664173206
 30
0.0
 10
245.467561030499
 20
23.4722870719743
 30
0.0
 10
245.4675659458244
 20
23.50214051549654
 30
0.0
 10
245.4675663478409
 20
23.50458218013956
 30
0.0
  0
SPLINE
  5
F1
330
1F
100
AcDbEntity
  8
0
  6
Continuous
 62
     7
370
    30
100
AcDbSpline
210
0.0
220
0.0
230
1.0
 70
     8
 71
     3
 72
    40
 73
    36
 74
     0
 42
0.000000001
 43
0.00000001
 40
0.0
 40
0.0
 40
0.0
 40
0.0
 40
0.0093894261478534
 40
0.0405438250736287
 40
0.071772843398417
 40
0.103071289848134
 40
0.1344326160993432
 40
0.1658491261504837
 40
0.1973122241578349
 40
0.2288126921305935
 40
0.2603409867407271
 40
0.2918849539742637
 40
0.3234351404130787
 40
0.3549831369845505
 40
0.3865214257421749
 40
0.4180435885808399
 40
0.4495444777350189
 40
0.4810203471854563
 40
0.5125061998589836
 40
0.5436517107114659
 40
0.574716490111702
 40
0.6058679450253657
 40
0.6371044009767713
 40
0.668423118254832
 40
0.6998195595333234
 40
0.7312875007066635
 40
0.7628191824169
 40
0.794405503840841
 40
0.8260362543837833
 40
0.857700135946068
 40
0.889381848303363
 40
0.9210695931407079
 40
0.9527517217481973
 40
0.9844170289989548
 40
1.0
 40
1.0
 40
1.0
 40
1.0
 10
208.5139012302149
 20
23.50424368192977
 30
0.0
 10
208.5139542385889
 20
23.49607225464229
 30
0.0
 10
208.5141831303453
 20
23.46078778535382
 30
0.0
 10
208.5179689169089
 20
23.39838586272175
 30
0.0
 10
208.525324350007
 20
23.31714862284723
 30
0.0
 10
208.5362696709583
 20
23.23609008754574
 30
0.0
 10
208.5504840500656
 20
23.15535830945464
 30
0.0
 10
208.5680369569033
 20
23.07510780569671
 30
0.0
 10
208.58888356235
 20
22.99549380603977
 30
0.0
 10
208.6130000961024
 20
22.91667254889179
 30
0.0
 10
208.6403466423731
 20
22.83880199559401
 30
0.0
 10
208.6708773275445
 20
22.76203870205801
 30
0.0
 10
208.704538098234
 20
22.6865362781597
 30
0.0
 10
208.7412690235334
 20
22.61244235775311
 30
0.0
 10
208.781004018127
 20
22.5398996680159
 30
0.0
 10
208.8236712843148
 20
22.46904570251823
 30
0.0
 10
208.8691941006022
 20
22.40001184045165
 30
0.0
 10
208.9175098321103
 20
22.33289749579054
 30
0.0
 10
208.9683699968896
 20
22.2680367985299
 30
0.0
 10
209.0216340060751
 20
22.20556635417209
 30
0.0
 10
209.0772022515151
 20
22.14549621376
 30
0.0
 10
209.1352205448135
 20
22.08763555362187
 30
0.0
 10
209.1956999217698
 20
22.03198261078337
 30
0.0
 10
209.258545322913
 20
21.97864283398515
 30
0.0
 10
209.3236544370179
 20
21.92772072008992
 30
0.0
 10
209.3909172624285
 20
21.87931955897465
 30
0.0
 10
209.4602161701914
 20
21.83354075187488
 30
0.0
 10
209.5314260159838
 20
21.79048246741339
 30
0.0
 10
209.6044148368104
 20
21.75024067858228
 30
0.0
 10
209.6790398612934
 20
21.712902785396
 30
0.0
 10
209.7551577304489
 20
21.67857020034164
 30
0.0
 10
209.8326002515442
 20
21.64726243233534
 30
0.0
 10
209.9112733568843
 20
21.61927018443827
 30
0.0
 10
209.9773587287812
 20
21.59813282208239
 30
0.0
 10
210.0175072644475
 20
21.58758121956555
 30
0.0
 10
210.0307486668894
 20
21.58410119188819
 30
0.0
  0
SPLINE
  5
F2
330
1F
100
AcDbEntity
  8
0
  6
Continuous
 62
     7
370
    30
100
AcDbSpline
210
0.0
220
0.0
230
1.0
 70
     8
 71
     3
 72
    21
 73
    17
 74
     0
 42
0.000000001
 43
0.00000001
 40
0.0
 40
0.0
 40
0.0
 40
0.0
 40
0.0929982981658503
 40
0.3226275782064012
 40
0.5711622223023085
 40
0.7081683736128682
 40
0.7412841174462991
 40
0.7622706467468656
 40
0.7734954625568508
 40
0.7844972159147677
 40
0.8205647897622199
 40
0.8571183611122325
 40
0.8946037945490942
 40
0.9330523542258133
 40
0.9724911289115896
 40
1.0
 40
1.0
 40
1.0
 40
1.0
 10
265.2080702947214
 20
163.8774675218151
 30
0.0
 10
265.2062275922268
 20
163.8774002116493
 30
0.0
 10
265.199834930695
 20
163.8771667007551
 30
0.0
 10
265.1847589040269
 20
163.8767333885534
 30
0.0
 10
265.1683933073195
 20
163.876358610442
 30
0.0
 10
265.1540076294041
 20
163.8761597602389
 30
0.0
 10
265.1490551034815
 20
163.8761038794889
 30
0.0
 10
265.1454162483119
 20
163.8760707378792
 30
0.0
 10
265.1467635286321
 20
163.876081543261
 30
0.0
 10
265.1478744490249
 20
163.8760835635829
 30
0.0
 10
265.1478404044664
 20
163.8760787596789
 30
0.0
 10
265.1444992197556
 20
163.8761106936232
 30
0.0
 10
265.1378962823441
 20
163.8761835924704
 30
0.0
 10
265.1277856573519
 20
163.8762085504338
 30
0.0
 10
265.1160618461858
 20
163.8761485678959
 30
0.0
 10
265.1063679053852
 20
163.8758126384807
 30
0.0
 10
265.1023846530283
 20
163.8756746046654
 30
0.0
  0
SPLINE
  5
F3
330
1F
100
AcDbEntity
  8
0
  6
Continuous
 62
     7
370
    30
100
AcDbSpline
210
0.0
220
0.0
230
1.0
 70
     8
 71
     3
 72
    20
 73
    16
 74
     0
 42
0.000000001
 43
0.00000001
 40
0.0
 40
0.0
 40
0.0
 40
0.0
 40
0.0210789567409693
 40
0.0610403297735378
 40
0.0999660663716023
 40
0.1378951765268544
 40
0.1748517532865439
 40
0.2108591534912141
 40
0.2459520721416122
 40
0.2530527912398954
 40
0.2600928272641355
 40
0.5133799733088599
 40
0.7700526148981698
 40
0.9825818270917909
 40
1.0
 40
1.0
 40
1.0
 40
1.0
 10
265.1025012417797
 20
154.9237248040978
 30
0.0
 10
265.1058657241113
 20
154.9235975271114
 30
0.0
 10
265.1156085739859
 20
154.9232289590979
 30
0.0
 10
265.127892656849
 20
154.9231960256979
 30
0.0
 10
265.1393622850401
 20
154.923251951778
 30
0.0
 10
265.1470467950824
 20
154.923373867981
 30
0.0
 10
265.1505783832466
 20
154.9234397722956
 30
0.0
 10
265.1523934110635
 20
154.9234215219863
 30
0.0
 10
265.1461503191914
 20
154.9234531046154
 30
0.0
 10
265.1482302227864
 20
154.9234340709111
 30
0.0
 10
265.1568166793979
 20
154.9233445981904
 30
0.0
 10
265.1737811049848
 20
154.9230763002642
 30
0.0
 10
265.1930863624271
 20
154.9225651187305
 30
0.0
 10
265.205569545788
 20
154.9221755634092
 30
0.0
 10
265.2098204564868
 20
154.9220093879398
 30
0.0
 10
265.2101424566588
 20
154.9219968003947
 30
0.0
  0
SPLINE
  5
F4
330
1F
100
AcDbEntity
  8
0
  6
Continuous
 62
     7
370
    30
100
AcDbSpline
210
0.0
220
0.0
230
1.0
 70
     8
 71
     3
 72
    55
 73
    51
 74
     0
 42
0.000000001
 43
0.00000001
 40
0.0
 40
0.0
 40
0.0
 40
0.0
 40
0.0109146778241315
 40
0.0504964189647239
 40
0.0879495884384887
 40
0.1235528500870528
 40
0.1574161562686533
 40
0.1896245528903693
 40
0.2202487124901408
 40
0.2521757691627642
 40
0.2823244984915555
 40
0.3107475170211732
 40
0.3374853086876551
 40
0.3625678285475814
 40
0.3873848761809483
 40
0.4103799172565442
 40
0.4315615505739027
 40
0.4516308647626594
 40
0.471925470762378
 40
0.4924899553014261
 40
0.5253822738301022
 40
0.5590294701184243
 40
0.5934927228403225
 40
0.6235561274573925
 40
0.6542994849548494
 40
0.6857685373561104
 40
0.7170224320181423
 40
0.7371011488684969
 40
0.7566328548010028
 40
0.7755543803451149
 40
0.7938196742491861
 40
0.8113970927452926
 40
0.8282441472283255
 40
0.8403800105891817
 40
0.852073014762544
 40
0.8632526808395874
 40
0.8735005514404109
 40
0.882815908747286
 40
0.8913182048699788
 40
0.899170400771279
 40
0.9065834438616184
 40
0.9138093036949743
 40
0.9211209115346899
 40
0.930373405231855
 40
0.940647302957008
 40
0.9523723497278859
 40
0.9655788601544869
 40
0.9802789801056225
 40
0.9972513218405136
 40
1.0
 40
1.0
 40
1.0
 40
1.0
 10
265.0854530195074
 20
163.8748023487128
 30
0.0
 10
265.0672134606614
 20
163.8741461844728
 30
0.0
 10
264.9828287064744
 20
163.8711104609358
 30
0.0
 10
264.8358573406087
 20
163.8659774418334
 30
0.0
 10
264.6476462682766
 20
163.8582754474512
 30
0.0
 10
264.4693914097879
 20
163.8440818786179
 30
0.0
 10
264.3003774298708
 20
163.8255802071918
 30
0.0
 10
264.1402434071114
 20
163.8031779408101
 30
0.0
 10
263.9840009655214
 20
163.7768663679006
 30
0.0
 10
263.8319282971149
 20
163.7469297009086
 30
0.0
 10
263.6843404681283
 20
163.713636129189
 30
0.0
 10
263.5460967291532
 20
163.6786340153112
 30
0.0
 10
263.4169283085245
 20
163.6425247411963
 30
0.0
 10
263.2944106942568
 20
163.6052061192625
 30
0.0
 10
263.1787089299621
 20
163.5671483744634
 30
0.0
 10
263.0700040812642
 20
163.5288394715674
 30
0.0
 10
262.9695273785376
 20
163.4911991971548
 30
0.0
 10
262.8739796718071
 20
163.4533862898867
 30
0.0
 10
262.7800729331501
 20
163.4142499079639
 30
0.0
 10
262.6672888756335
 20
163.3648065656985
 30
0.0
 10
262.5355037782903
 20
163.3032336087181
 30
0.0
 10
262.3848700971213
 20
163.2273395864202
 30
0.0
 10
262.2407383459011
 20
163.1491855665144
 30
0.0
 10
262.1031435799372
 20
163.0692999818903
 30
0.0
 10
261.9719849293654
 20
162.9883736497728
 30
0.0
 10
261.841681759929
 20
162.9024188587787
 30
0.0
 10
261.7277612398755
 20
162.8240018818361
 30
0.0
 10
261.6334961107985
 20
162.7520796374449
 30
0.0
 10
261.562951683088
 20
162.6839836858764
 30
0.0
 10
261.5009612127971
 20
162.6120531074964
 30
0.0
 10
261.4478975581457
 20
162.5372345248707
 30
0.0
 10
261.4036474217487
 20
162.4608869421767
 30
0.0
 10
261.370590736448
 20
162.3902661110909
 30
0.0
 10
261.3462600695868
 20
162.3266915757581
 30
0.0
 10
261.3286080827152
 20
162.2708496397499
 30
0.0
 10
261.3149479964818
 20
162.2171250684158
 30
0.0
 10
261.3050207219829
 20
162.1668932076563
 30
0.0
 10
261.2983422800518
 20
162.1214297922097
 30
0.0
 10
261.2942290432196
 20
162.0810998561124
 30
0.0
 10
261.2920049421634
 20
162.0461005021782
 30
0.0
 10
261.2910884749153
 20
162.0166160110935
 30
0.0
 10
261.2909798232163
 20
161.9928659490649
 30
0.0
 10
261.2912897438864
 20
161.9736367486128
 30
0.0
 10
261.2917089709703
 20
161.960793596567
 30
0.0
 10
261.2919545971908
 20
161.9544695727183
 30
0.0
 10
261.2922144700456
 20
161.9484570191803
 30
0.0
 10
261.2924038436918
 20
161.9443938951921
 30
0.0
 10
261.2925164551307
 20
161.9418197217344
 30
0.0
 10
261.2925487402467
 20
161.9408346705057
 30
0.0
 10
261.2925196613096
 20
161.9410813011919
 30
0.0
 10
261.2925156083428
 20
161.9411156761067
 30
0.0
  0
SPLINE
  5
F5
330
1F
100
AcDbEntity
  8
0
  6
Continuous
 62
     7
370
    30
100
AcDbSpline
210
0.0
220
0.0
230
1.0
 70
     8
 71
     3
 72
    65
 73
    61
 74
     0
 42
0.000000001
 43
0.00000001
 40
0.0
 40
0.0
 40
0.0
 40
0.0
 40
0.0008459175619148
 40
0.020987185414663
 40
0.0387283588709727
 40
0.0554263975342742
 40
0.0736391393994302
 40
0.0934906216421652
 40
0.1077156804159279
 40
0.1236287453216692
 40
0.1412509193475396
 40
0.160599174571418
 40
0.1800082821694935
 40
0.1964146167475106
 40
0.210107579325042
 40
0.2212728813281415
 40
0.2328867612876525
 40
0.2500750118553272
 40
0.2696138601247896
 40
0.2914886291190932
 40
0.3153745069310391
 40
0.338645132339073
 40
0.360837619403675
 40
0.3817712870371495
 40
0.3975715937422023
 40
0.4107480750163797
 40
0.4256652106540469
 40
0.4442357088904114
 40
0.4632345906738775
 40
0.480680831972104
 40
0.4983298023603927
 40
0.5175415184987023
 40
0.5391432786834441
 40
0.5592353647306455
 40
0.5767597623623406
 40
0.5941935472063476
 40
0.6143683484256242
 40
0.6354810712539328
 40
0.6563006464425895
 40
0.6785047535803073
 40
0.7027039585398381
 40
0.7284185942695731
 40
0.753722864677442
 40
0.7769799624237568
 40
0.7981065733171099
 40
0.8170052168930698
 40
0.8269311332163434
 40
0.8360431143003668
 40
0.8443410106022174
 40
0.85182474846776
 40
0.8584943075396663
 40
0.8656651482666531
 40
0.8737746787571988
 40
0.8843688000995517
 40
0.8974478499412288
 40
0.9130106895444453
 40
0.9310542555005953
 40
0.9515730717093631
 40
0.9745588091140795
 40
1.0
 40
1.0
 40
1.0
 40
1.0
 10
261.2917760714051
 20
161.9566740314114
 30
0.0
 10
261.2917760753419
 20
161.9566881609472
 30
0.0
 10
261.2917761730137
 20
161.9570387142453
 30
0.0
 10
261.2918234094219
 20
161.9555860223626
 30
0.0
 10
261.2919028392855
 20
161.9527530181303
 30
0.0
 10
261.2920356815941
 20
161.9479720216425
 30
0.0
 10
261.2922799568693
 20
161.9388257232034
 30
0.0
 10
261.2925810280182
 20
161.9265416293871
 30
0.0
 10
261.2928961230155
 20
161.912873709214
 30
0.0
 10
261.2932131825021
 20
161.8984527890766
 30
0.0
 10
261.2935847837829
 20
161.8806756242714
 30
0.0
 10
261.2940012458074
 20
161.8596330392879
 30
0.0
 10
261.2944267542464
 20
161.8368936504293
 30
0.0
 10
261.2948217060306
 20
161.8146230655155
 30
0.0
 10
261.2951569220294
 20
161.7948362500782
 30
0.0
 10
261.2954583006542
 20
161.7763390413269
 30
0.0
 10
261.2957841019164
 20
161.7556277689679
 30
0.0
 10
261.2961731180038
 20
161.7297259485788
 30
0.0
 10
261.2966357249967
 20
161.696956607502
 30
0.0
 10
261.2971392414473
 20
161.6585325486584
 30
0.0
 10
261.297653362749
 20
161.6155972327912
 30
0.0
 10
261.2981479356446
 20
161.5695602792274
 30
0.0
 10
261.298586446871
 20
161.522626795781
 30
0.0
 10
261.2989414095999
 20
161.4785965141373
 30
0.0
 10
261.2992114552633
 20
161.439961535825
 30
0.0
 10
261.299424740587
 20
161.4053088903218
 30
0.0
 10
261.2996260821113
 20
161.3677173689464
 30
0.0
 10
261.2998188103016
 20
161.3240779921617
 30
0.0
 10
261.2999782843921
 20
161.2767299420914
 30
0.0
 10
261.3000917695894
 20
161.2286712604585
 30
0.0
 10
261.300161458972
 20
161.1791637997619
 30
0.0
 10
261.300184882326
 20
161.1245018402002
 30
0.0
 10
261.3001472983818
 20
161.0657014723285
 30
0.0
 10
261.3000467513481
 20
161.0067422788406
 30
0.0
 10
261.299898868935
 20
160.9505880125344
 30
0.0
 10
261.2997000860036
 20
160.8931573112083
 30
0.0
 10
261.2994303985473
 20
160.8305889752842
 30
0.0
 10
261.2990788081648
 20
160.7627815823327
 30
0.0
 10
261.2986485216188
 20
160.6911110575053
 30
0.0
 10
261.2981303273859
 20
160.614317692351
 30
0.0
 10
261.2975001035319
 20
160.5299905247541
 30
0.0
 10
261.2968044186311
 20
160.4424910584014
 30
0.0
 10
261.2960919629101
 20
160.3542073550417
 30
0.0
 10
261.2953758637415
 20
160.2688984543269
 30
0.0
 10
261.2946907040603
 20
160.1896387316446
 30
0.0
 10
261.2941431026421
 20
160.1258569227853
 30
0.0
 10
261.2937483831112
 20
160.0773738090229
 30
0.0
 10
261.2934715064954
 20
160.0423576968915
 30
0.0
 10
261.293226598612
 20
160.0104291718927
 30
0.0
 10
261.2930116986815
 20
159.9816013148067
 30
0.0
 10
261.292813054761
 20
159.9542213460385
 30
0.0
 10
261.2926140937959
 20
159.9259949818983
 30
0.0
 10
261.2923869429239
 20
159.8925365413393
 30
0.0
 10
261.2921211861239
 20
159.8513314884076
 30
0.0
 10
261.2918158198509
 20
159.8003009346394
 30
0.0
 10
261.2914887789995
 20
159.7393980956159
 30
0.0
 10
261.2911633799239
 20
159.6685763810654
 30
0.0
 10
261.2908742162533
 20
159.5878133897185
 30
0.0
 10
261.2906493542802
 20
159.497126981032
 30
0.0
 10
261.2906171932726
 20
159.4332980766597
 30
0.0
 10
261.2906002974181
 20
159.399765424528
 30
0.0
  0
SPLINE
  5
F6
330
1F
100
AcDbEntity
  8
0
  6
Continuous
 62
     7
370
    30
100
AcDbSpline
210
0.0
220
0.0
230
1.0
 70
     8
 71
     3
 72
   118
 73
   114
 74
     0
 42
0.000000001
 43
0.00000001
 40
0.0
 40
0.0
 40
0.0
 40
0.0
 40
0.0105186082028642
 40
0.020021851020816
 40
0.0285049864328055
 40
0.0359645699606726
 40
0.0423983365367328
 40
0.0478050185101719
 40
0.0521841439365721
 40
0.055535851323355
 40
0.0591842005916226
 40
0.0628252240618224
 40
0.0670013478722154
 40
0.0717125208681012
 40
0.076958617315629
 40
0.0827372308843238
 40
0.0890139808809322
 40
0.0957705229132321
 40
0.1049262671970422
 40
0.1147703960545713
 40
0.1244811733034931
 40
0.1336542977539687
 40
0.1421218994973004
 40
0.1507517509235808
 40
0.1594708962577225
 40
0.1677862759702439
 40
0.1749837676774479
 40
0.1822328652397038
 40
0.1905427875776184
 40
0.1994761611274842
 40
0.2083380554282805
 40
0.2164324796681225
 40
0.224744075676332
 40
0.2336803310371519
 40
0.2387168815704605
 40
0.2430060803722945
 40
0.2467335382263817
 40
0.2508859926023098
 40
0.2556088081295999
 40
0.2657663578931702
 40
0.2766026840919137
 40
0.2880620988275329
 40
0.2990757576935907
 40
0.3087765386823557
 40
0.3171563431483596
 40
0.3217638228661789
 40
0.3261488144820599
 40
0.3314657427368335
 40
0.3378137278379137
 40
0.3451784396441166
 40
0.3551183977698102
 40
0.3639850906798526
 40
0.3717856844448975
 40
0.3790395087926487
 40
0.3856966582726239
 40
0.3918918612725323
 40
0.3976635975175254
 40
0.4037970745246311
 40
0.4086073024653656
 40
0.4137637799574059
 40
0.4192550356132815
 40
0.4251201789459058
 40
0.4317863184729736
 40
0.4393158204042918
 40
0.4475065460534901
 40
0.4584854387349716
 40
0.4686154795775835
 40
0.4776582932021458
 40
0.4858569159068175
 40
0.4943613158714034
 40
0.5019026323120107
 40
0.5084895211404374
 40
0.5128324855930718
 40
0.5168504348113911
 40
0.5206869839792467
 40
0.524480737083822
 40
0.5283744049174504
 40
0.5324995677350438
 40
0.5369663045863993
 40
0.5418596114901435
 40
0.5472418174802666
 40
0.553110314728792
 40
0.5592457285772429
 40
0.5656127794882336
 40
0.5744505783245172
 40
0.5836706095790107
 40
0.5932507902585218
 40
0.6032553517368117
 40
0.6135844348543078
 40
0.6242046266910891
 40
0.6351460208696105
 40
0.6463258301435488
 40
0.6678413813009427
 40
0.688723086891118
 40
0.7116464281927736
 40
0.733891558469679
 40
0.7555220765587173
 40
0.7655228936271274
 40
0.7754715737878534
 40
0.7860752554019365
 40
0.7975243588076985
 40
0.8098229783599304
 40
0.8238034755522949
 40
0.8387611571508152
 40
0.8547153387924823
 40
0.8716924440848579
 40
0.8897272299949252
 40
0.9088638429248396
 40
0.9279636541487613
 40
0.948144647633237
 40
0.9694734681013113
 40
0.9921157391035808
 40
1.0
 40
1.0
 40
1.0
 40
1.0
 10
261.2906002974181
 20
159.399765424528
 30
0.0
 10
261.290617184958
 20
159.3662405362727
 30
0.0
 10
261.2906493298767
 20
159.3024269304047
 30
0.0
 10
261.2908740824836
 20
159.2117629779557
 30
0.0
 10
261.2911631037446
 20
159.1310216202982
 30
0.0
 10
261.2914883375148
 20
159.0602206873274
 30
0.0
 10
261.2918152029048
 20
158.9993378891887
 30
0.0
 10
261.292120394143
 20
158.9483264219212
 30
0.0
 10
261.2923859751526
 20
158.9071402535991
 30
0.0
 10
261.2926275048799
 20
158.8715573600838
 30
0.0
 10
261.2928614535075
 20
158.8384918778852
 30
0.0
 10
261.2931224978976
 20
158.8028870530636
 30
0.0
 10
261.2934177063614
 20
158.7640117853371
 30
0.0
 10
261.2937630114487
 20
158.7202268415657
 30
0.0
 10
261.2941610079365
 20
158.6716140650791
 30
0.0
 10
261.2946187269091
 20
158.618238472946
 30
0.0
 10
261.2951141647375
 20
158.5609849044793
 30
0.0
 10
261.2956799760672
 20
158.4945694225533
 30
0.0
 10
261.2963071479629
 20
158.4189549146698
 30
0.0
 10
261.2969618962074
 20
158.337218587933
 30
0.0
 10
261.297602355841
 20
158.2562460571284
 30
0.0
 10
261.2981724480326
 20
158.1790435504977
 30
0.0
 10
261.2986597778597
 20
158.1065509220754
 30
0.0
 10
261.299078610166
 20
158.0367844482745
 30
0.0
 10
261.2994299342147
 20
157.9690304423502
 30
0.0
 10
261.2996991886455
 20
157.9065921102691
 30
0.0
 10
261.2998979201265
 20
157.8492501943303
 30
0.0
 10
261.3000460571861
 20
157.7931106329137
 30
0.0
 10
261.3001469424011
 20
157.7341354619074
 30
0.0
 10
261.3001862205464
 20
157.6731841560245
 30
0.0
 10
261.3001580193082
 20
157.6147424618151
 30
0.0
 10
261.3000706694464
 20
157.5592599985067
 30
0.0
 10
261.299927260873
 20
157.5053068603337
 30
0.0
 10
261.2997528773823
 20
157.459601564003
 30
0.0
 10
261.299580294943
 20
157.4233036281628
 30
0.0
 10
261.2994432887573
 20
157.3978859998443
 30
0.0
 10
261.299304673925
 20
157.3745536871926
 30
0.0
 10
261.2991496125971
 20
157.3506504473061
 30
0.0
 10
261.2988975005546
 20
157.3151743337964
 30
0.0
 10
261.2985196358652
 20
157.2688752579554
 30
0.0
 10
261.2979897952601
 20
157.2142158857287
 30
0.0
 10
261.2974026285263
 20
157.1622414407606
 30
0.0
 10
261.2968108856099
 20
157.1154089972772
 30
0.0
 10
261.2962584273023
 20
157.0755684702731
 30
0.0
 10
261.2958175719066
 20
157.0460517699255
 30
0.0
 10
261.2954752896249
 20
157.0242630951419
 30
0.0
 10
261.2951893407753
 20
157.0066612902574
 30
0.0
 10
261.2948734984424
 20
156.9879226158091
 30
0.0
 10
261.2945051341106
 20
156.966987108181
 30
0.0
 10
261.2940603387456
 20
156.9429366246459
 30
0.0
 10
261.2935901903462
 20
156.919030339105
 30
0.0
 10
261.2931402137315
 20
156.897634579425
 30
0.0
 10
261.2927644080435
 20
156.8808184469114
 30
0.0
 10
261.2924416584701
 20
156.8672171568533
 30
0.0
 10
261.2921908980958
 20
156.8573254015145
 30
0.0
 10
261.2920082851221
 20
156.8505840582757
 30
0.0
 10
261.2919073197124
 20
156.8469311309017
 30
0.0
 10
261.2918413746294
 20
156.8445572832939
 30
0.0
 10
261.2917925122483
 20
156.843043233453
 30
0.0
 10
261.2917647509833
 20
156.8425041770025
 30
0.0
 10
261.2917587798238
 20
156.8430021024583
 30
0.0
 10
261.2917862018107
 20
156.8452294467671
 30
0.0
 10
261.2918513391161
 20
156.847496422158
 30
0.0
 10
261.2919526214313
 20
156.8499431943357
 30
0.0
 10
261.2921035336743
 20
156.8528020787883
 30
0.0
 10
261.2922661922578
 20
156.8553231504107
 30
0.0
 10
261.2924011810088
 20
156.8570125182346
 30
0.0
 10
261.2924633020502
 20
156.8573880166435
 30
0.0
 10
261.2924357791974
 20
156.8562702189528
 30
0.0
 10
261.2923152706978
 20
156.8534674742727
 30
0.0
 10
261.2921039092016
 20
156.8487664702366
 30
0.0
 10
261.2918456753003
 20
156.8424373639082
 30
0.0
 10
261.2916032454982
 20
156.8357354582997
 30
0.0
 10
261.2912475169912
 20
156.8237605476501
 30
0.0
 10
261.2909762931539
 20
156.8059701815281
 30
0.0
 10
261.2910995065109
 20
156.7822821233597
 30
0.0
 10
261.2920320526282
 20
156.7528581755177
 30
0.0
 10
261.2942733618067
 20
156.7178929568803
 30
0.0
 10
261.2984071939384
 20
156.6775772230842
 30
0.0
 10
261.3051118727159
 20
156.632106879641
 30
0.0
 10
261.3150722968706
 20
156.5818547674997
 30
0.0
 10
261.3287730326211
 20
156.5281045094875
 30
0.0
 10
261.3464655416753
 20
156.47225557149
 30
0.0
 10
261.3708411957038
 20
156.4086846800939
 30
0.0
 10
261.4039485958303
 20
156.338075894191
 30
0.0
 10
261.448255278621
 20
156.2617510176488
 30
0.0
 10
261.5015223919868
 20
156.1867562422572
 30
0.0
 10
261.5639355572159
 20
156.1144844757107
 30
0.0
 10
261.6352059012458
 20
156.0459675141606
 30
0.0
 10
261.7162191352185
 20
155.9844193160717
 30
0.0
 10
261.8017520511474
 20
155.9247855912639
 30
0.0
 10
261.9167464157182
 20
155.8468037871286
 30
0.0
 10
262.0607460221149
 20
155.7552785617751
 30
0.0
 10
262.2401750380774
 20
155.6500717947325
 30
0.0
 10
262.4254907399459
 20
155.5505975836786
 30
0.0
 10
262.616587056045
 20
155.4572123314224
 30
0.0
 10
262.7734212011391
 20
155.3877109618436
 30
0.0
 10
262.8958367146241
 20
155.3373696552004
 30
0.0
 10
262.9863988948596
 20
155.3019129111113
 30
0.0
 10
263.0819187911627
 20
155.2664271909852
 30
0.0
 10
263.1851707849613
 20
155.2302450715096
 30
0.0
 10
263.2993651954367
 20
155.1927654816223
 30
0.0
 10
263.4250819159702
 20
155.1545745159116
 30
0.0
 10
263.5629446023373
 20
155.1163676426298
 30
0.0
 10
263.7110501352894
 20
155.0794867316013
 30
0.0
 10
263.86972638637
 20
155.0446558946232
 30
0.0
 10
264.0393449531687
 20
155.0126362266712
 30
0.0
 10
264.216582801692
 20
154.9848672085695
 30
0.0
 10
264.4014336113443
 20
154.9621047250471
 30
0.0
 10
264.5939101128275
 20
154.944682390405
 30
0.0
 10
264.7982079177809
 20
154.9344904254855
 30
0.0
 10
264.9634371403037
 20
154.9291568858456
 30
0.0
 10
265.0606952449198
 20
154.9256301510861
 30
0.0
 10
265.0858146483827
 20
154.9247192812549
 30
0.0
  0
ARC
  5
F7
330
1F
100
AcDbEntity
  8
0
  6
Continuous
 62
     7
370
    30
100
AcDbCircle
 10
-334.209331003
 20
159.3997654245
 30
0.0
 40
600.0000000000011
100
AcDbArc
 50
359.2836446887
 51
0.7163553113
  0
LINE
  5
F8
330
1F
100
AcDbEntity
  8
0
  6
Continuous
 62
     7
370
    30
100
AcDbLine
 10
265.2394497261
 20
167.3949550068
 30
0.0
 11
250.8851750601
 21
167.2696871496
 31
0.0
  0
LINE
  5
F9
330
1F
100
AcDbEntity
  8
0
  6
Continuous
 62
     7
370
    30
100
AcDbLine
 10
256.4523511484
 20
151.4812596898
 30
0.0
 11
265.2394497261
 21
151.4045758422
 31
0.0
  0
ARC
  5
FA
330
1F
100
AcDbEntity
  8
0
  6
Continuous
 62
     7
370
    30
100
AcDbCircle
 10
265.2438129939
 20
151.9045568038
 30
0.0
 40
0.5000000000000555
100
AcDbArc
 50
269.5
 51
359.2836446887
  0
ARC
  5
FB
330
1F
100
AcDbEntity
  8
0
  6
Continuous
 62
     7
370
    30
100
AcDbCircle
 10
265.2438129939
 20
166.8949740453
 30
0.0
 40
0.5000000000000552
100
AcDbArc
 50
0.7163553113
 51
90.5
  0
SPLINE
  5
FC
330
1F
100
AcDbEntity
  8
0
  6
Continuous
 62
     7
370
    30
100
AcDbSpline
210
0.0
220
0.0
230
1.0
 70
     8
 71
     3
 72
    11
 73
     7
 74
     0
 42
0.000000001
 43
0.00000001
 40
0.0
 40
0.0
 40
0.0
 40
0.0
 40
0.1052766722571438
 40
0.3753156044128969
 40
0.7593627527235233
 40
0.9999999999999999
 40
0.9999999999999999
 40
0.9999999999999999
 40
0.9999999999999999
 10
253.4135299271761
 20
130.8045291112832
 30
0.0
 10
253.4051139450548
 20
130.749991669651
 30
0.0
 10
253.3751106276164
 20
130.5555634793362
 30
0.0
 10
253.305907317536
 20
130.1635217818702
 30
0.0
 10
253.2188419363716
 20
129.7025342098225
 30
0.0
 10
253.148189991425
 20
129.3826664124782
 30
0.0
 10
253.1209738649029
 20
129.259448821661
 30
0.0
  0
SPLINE
  5
FD
330
1F
100
AcDbEntity
  8
0
  6
Continuous
 62
     7
370
    30
100
AcDbSpline
210
0.0
220
0.0
230
1.0
 70
     8
 71
     3
 72
    11
 73
     7
 74
     0
 42
0.000000001
 43
0.00000001
 40
0.0
 40
0.0
 40
0.0
 40
0.0
 40
0.1380100047656722
 40
0.4330977556597172
 40
0.7281390369088057
 40
0.9999999999999999
 40
0.9999999999999999
 40
0.9999999999999999
 40
0.9999999999999999
 10
200.870833794694
 20
129.2094154539167
 30
0.0
 10
200.8546922776333
 20
129.2811389705567
 30
0.0
 10
200.8040375818101
 20
129.5062189865854
 30
0.0
 10
200.7279147374993
 20
129.8865185194234
 30
0.0
 10
200.6430195692804
 20
130.3377011032066
 30
0.0
 10
200.5952442549296
 20
130.635774640594
 30
0.0
 10
200.5723333507992
 20
130.7787173785265
 30
0.0
  0
ELLIPSE
  5
FE
330
1F
100
AcDbEntity
  8
0
  6
Continuous
 62
     7
370
    30
100
AcDbEllipse
 10
226.990668997
 20
152.4628926509
 30
0.0
 11
0.0
 21
30.22346988318458
 31
0.0
210
0.0
220
0.0
230
1.0
 40
0.9925422986
 41
0.0
 42
1.75942379192723
  0
ELLIPSE
  5
FF
330
1F
100
AcDbEntity
  8
0
  6
Continuous
 62
     7
370
    30
100
AcDbEllipse
 10
226.990668997
 20
152.4628926509
 30
0.0
 11
0.0
 21
30.22346988318458
 31
0.0
210
0.0
220
0.0
230
1.0
 40
0.9925422986
 41
4.52376151525237
 42
4.679753758490376
  0
ELLIPSE
  5
100
330
1F
100
AcDbEntity
  8
0
  6
Continuous
 62
     7
370
    30
100
AcDbEllipse
 10
226.990668997
 20
152.4628926509
 30
0.0
 11
0.0
 21
30.22346988318458
 31
0.0
210
0.0
220
0.0
230
1.0
 40
0.9925422986
 41
5.225120121299035
 42
6.283185307179586
  0
SPLINE
  5
101
330
1F
100
AcDbEntity
  8
0
  6
Continuous
 62
     7
370
    30
100
AcDbSpline
210
0.0
220
0.0
230
1.0
 70
     8
 71
     3
 72
    39
 73
    35
 74
     0
 42
0.000000001
 43
0.00000001
 40
0.0
 40
0.0
 40
0.0
 40
0.0
 40
0.0311928731176731
 40
0.0623858233446148
 40
0.093578694496824
 40
0.1247744164712782
 40
0.1559702181908689
 40
0.1871659375299188
 40
0.2138328730558376
 40
0.2404998605409629
 40
0.2671667942675791
 40
0.2938356656367158
 40
0.3205045913460115
 40
0.3471734604840278
 40
0.3823190536989501
 40
0.4174646445739637
 40
0.4526124215046446
 40
0.4877601956263609
 40
0.5207288444691988
 40
0.5536977472244891
 40
0.5866666343983941
 40
0.6196352619937239
 40
0.6526125700878767
 40
0.6855901719475935
 40
0.7185677515721542
 40
0.7515450293453666
 40
0.7825966541674803
 40
0.8136485706050361
 40
0.844700461687401
 40
0.8757520519339226
 40
0.9068138823816699
 40
0.9378760704639487
 40
0.9689382208951853
 40
1.0
 40
1.0
 40
1.0
 40
1.0
 10
208.5126563627085
 20
23.50529178698863
 30
0.0
 10
208.4965120295752
 20
24.44713040241592
 30
0.0
 10
208.4642233233995
 20
26.33080996151011
 30
0.0
 10
208.4157614416755
 20
29.15945577720497
 30
0.0
 10
208.3672774285775
 20
31.99045841503417
 30
0.0
 10
208.3187695554569
 20
34.82402830162673
 30
0.0
 10
208.2702387299392
 20
37.66009294758116
 30
0.0
 10
208.224036117118
 20
40.36121296374312
 30
0.0
 10
208.1801655365614
 20
42.92698051569827
 30
0.0
 10
208.1386303336376
 20
45.35702847574014
 30
0.0
 10
208.097079304839
 20
47.78887304822638
 30
0.0
 10
208.0555126743662
 20
50.22250754361885
 30
0.0
 10
208.0139306556141
 20
52.65792714976253
 30
0.0
 10
207.9679273599903
 20
55.35328273517731
 30
0.0
 10
207.9174973861338
 20
58.30926207606662
 30
0.0
 10
207.8626337637268
 20
61.52670342819583
 30
0.0
 10
207.8077458614806
 20
64.7471700843743
 30
0.0
 10
207.753969021839
 20
67.90403846037779
 30
0.0
 10
207.7013064067677
 20
70.99702902705386
 30
0.0
 10
207.6497599893237
 20
74.02593571001026
 30
0.0
 10
207.598195118029
 20
77.0574240694249
 30
0.0
 10
207.5466079140436
 20
80.09174713342748
 30
0.0
 10
207.4949987719099
 20
83.12890659327432
 30
0.0
 10
207.4433680832695
 20
86.16891211602257
 30
0.0
 10
207.3917211058677
 20
89.2114871458598
 30
0.0
 10
207.341064196704
 20
92.19734710665412
 30
0.0
 10
207.2913988944968
 20
95.12632166170964
 30
0.0
 10
207.2427265738048
 20
97.99825665386358
 30
0.0
 10
207.1940421485772
 20
100.8724617683605
 30
0.0
 10
207.1453410817126
 20
103.74924478973
 30
0.0
 10
207.0966239626525
 20
106.6285953781253
 30
0.0
 10
207.0478912221574
 20
109.5105809461261
 30
0.0
 10
206.9991498967608
 20
112.3946684459335
 30
0.0
 10
206.9666490176782
 20
114.3192954406889
 30
0.0
 10
206.9503986752688
 20
115.2816031861376
 30
0.0
  0
SPLINE
  5
102
330
1F
100
AcDbEntity
  8
0
  6
Continuous
 62
     7
370
    30
100
AcDbSpline
210
0.0
220
0.0
230
1.0
 70
     8
 71
     3
 72
    40
 73
    36
 74
     0
 42
0.000000001
 43
0.00000001
 40
0.0
 40
0.0
 40
0.0
 40
0.0
 40
0.0214245332542893
 40
0.0428491325480253
 40
0.0642736717831935
 40
0.0857003814636146
 40
0.1071271496986939
 40
0.1285538642121765
 40
0.1550650693439095
 40
0.18157654458484
 40
0.2080881294460575
 40
0.2345996417130881
 40
0.2611108778992884
 40
0.2942605988053945
 40
0.327410621418818
 40
0.3605606659272296
 40
0.3937104166904061
 40
0.4283602784425961
 40
0.4630104367191437
 40
0.4976606132097364
 40
0.5323104997994726
 40
0.566969345498102
 40
0.6016284534616115
 40
0.6362875741391941
 40
0.670946437175328
 40
0.7061660476336102
 40
0.7413856599633123
 40
0.7766072661310215
 40
0.811828873846855
 40
0.8431892372199952
 40
0.8745496843234161
 40
0.9059100503940914
 40
0.9372733394620181
 40
0.9686367089215584
 40
1.0
 40
1.0
 40
1.0
 40
1.0
 10
247.0309393187221
 20
115.2816031861377
 30
0.0
 10
247.0197306759166
 20
114.6178158904216
 30
0.0
 10
246.9973133557556
 20
113.290239252917
 30
0.0
 10
246.9636920533145
 20
111.3002352239427
 30
0.0
 10
246.9300734337465
 20
109.3111618462985
 30
0.0
 10
246.8964581046421
 20
107.3231171994213
 30
0.0
 10
246.8628462622849
 20
105.3360770905362
 30
0.0
 10
246.8265810633685
 20
103.1930299142117
 30
0.0
 10
246.7876641342909
 20
100.8942831768252
 30
0.0
 10
246.7460975315841
 20
98.44018575225056
 30
0.0
 10
246.7045395323543
 20
95.98773475713706
 30
0.0
 10
246.6629908156777
 20
93.53694804972618
 30
0.0
 10
246.6179846563576
 20
90.88340693617353
 30
0.0
 10
246.5695242458577
 20
88.02761376613711
 30
0.0
 10
246.5176135384943
 20
84.97013922637525
 30
0.0
 10
246.4657195248847
 20
81.91526202211486
 30
0.0
 10
246.4130604214155
 20
78.81695185132826
 30
0.0
 10
246.3596375461185
 20
75.67533723310343
 30
0.0
 10
246.3054523536105
 20
72.4905607123551
 30
0.0
 10
246.2512878208223
 20
69.30863853068891
 30
0.0
 10
246.1971399788983
 20
66.12930984192805
 30
0.0
 10
246.1430092085247
 20
62.95257006812128
 30
0.0
 10
246.0888959173661
 20
59.7784231662955
 30
0.0
 10
246.0348054271447
 20
56.60716075334177
 30
0.0
 10
245.9804467783632
 20
53.42171158301328
 30
0.0
 10
245.9258208996894
 20
50.22213907136614
 30
0.0
 10
245.8709276172724
 20
47.00844574804536
 30
0.0
 10
245.8160588807145
 20
43.79771454925302
 30
0.0
 10
245.763219330937
 20
40.70718091205833
 30
0.0
 10
245.7124071599778
 20
37.73653839977092
 30
0.0
 10
245.6636196718491
 20
34.88544638780383
 30
0.0
 10
245.6148523644822
 20
32.03669962318217
 30
0.0
 10
245.5661061596615
 20
29.19037181676282
 30
0.0
 10
245.5173793172769
 20
26.34625089025639
 30
0.0
 10
245.4849141797582
 20
24.45227736586303
 30
0.0
 10
245.4686816312826
 20
23.50529178698863
 30
0.0
  0
SPLINE
  5
103
330
1F
100
AcDbEntity
  8
0
  6
Continuous
 62
     7
370
    30
100
AcDbSpline
210
0.0
220
0.0
230
1.0
 70
    24
 71
     3
 72
    24
 73
    20
 74
     0
 42
0.000000001
 43
0.00000001
 40
0.0
 40
0.0
 40
0.0
 40
0.0
 40
0.0259709547580292
 40
0.0845306719121228
 40
0.1434295829909756
 40
0.2033892574424427
 40
0.2637132378876874
 40
0.3277460885726877
 40
0.3922233579640274
 40
0.4581023547544131
 40
0.5244657411734205
 40
0.5884898209442397
 40
0.6529582660709804
 40
0.7188282884130767
 40
0.7851826545891047
 40
0.8492034769551396
 40
0.9136687320945278
 40
0.9795357654507556
 40
0.9999999999999999
 40
0.9999999999999999
 40
0.9999999999999999
 40
0.9999999999999999
 10
226.9906689969864
 20
19.95822696641864
 30
0.0
 10
226.9906689969838
 20
19.94748839762045
 30
0.0
 10
226.9906689969752
 20
19.91253633504381
 30
0.0
 10
226.9906689969915
 20
19.85440339622763
 30
0.0
 10
226.9906689969653
 20
19.78462433158029
 30
0.0
 10
226.9906689970022
 20
19.71682113465617
 30
0.0
 10
226.990668996991
 20
19.65025440269758
 30
0.0
 10
226.9906689969907
 20
19.5858535084969
 30
0.0
 10
226.9906689969983
 20
19.52405733725166
 30
0.0
 10
226.9906689970028
 20
19.46657692022474
 30
0.0
 10
226.9906689969912
 20
19.41476608013987
 30
0.0
 10
226.9906689969912
 20
19.36912147583586
 30
0.0
 10
226.9906689970036
 20
19.32960184336224
 30
0.0
 10
226.9906689969891
 20
19.2960460839709
 30
0.0
 10
226.9906689969965
 20
19.26937572694326
 30
0.0
 10
226.990668996996
 20
19.24957907265462
 30
0.0
 10
226.9906689969948
 20
19.23718857719342
 30
0.0
 10
226.9906689969969
 20
19.23151285418162
 30
0.0
 10
226.9906689969967
 20
19.23246730885658
 30
0.0
 10
226.9906689969966
 20
19.23269355578677
 30
0.0
  0
ARC
  5
104
330
1F
100
AcDbEntity
  8
0
  6
Continuous
 62
     7
370
    30
100
AcDbCircle
 10
265.229112353
 20
155.4216143847
 30
0.0
 40
0.4999811290539561
100
AcDbArc
 50
267.8617820641
 51
359.6218540897
  0
SPLINE
  5
105
330
1F
100
AcDbEntity
  8
0
  6
Continuous
 62
     7
370
    30
100
AcDbSpline
210
0.0
220
0.0
230
1.0
 70
     8
 71
     3
 72
    66
 73
    62
 74
     0
 42
0.000000001
 43
0.00000001
 40
0.0
 40
0.0
 40
0.0
 40
0.0
 40
0.003563882662246
 40
0.0272666475168255
 40
0.0477204288275564
 40
0.066254225295188
 40
0.0833988586940779
 40
0.0994816302245403
 40
0.114718202717501
 40
0.1308712893267519
 40
0.1462235651152078
 40
0.1608924852729589
 40
0.1749880591287158
 40
0.1885926851955594
 40
0.2017719518205334
 40
0.2142949190953449
 40
0.2271578605194055
 40
0.2400306661411072
 40
0.2529139187081246
 40
0.2658080114118228
 40
0.2787133381038513
 40
0.2916302931957185
 40
0.3045592716697949
 40
0.3175006690898608
 40
0.33045488161162
 40
0.3434223059933806
 40
0.3563982341364674
 40
0.3702999523200076
 40
0.3844112201733895
 40
0.3987428477259366
 40
0.4133093104372093
 40
0.4281267312699699
 40
0.4432131987286429
 40
0.4585891328403576
 40
0.4742777447618547
 40
0.4903056207617297
 40
0.5067035203658493
 40
0.5235021406650563
 40
0.5404779978798587
 40
0.55772346591065
 40
0.57525366756289
 40
0.5930863576881783
 40
0.611241424073288
 40
0.6297412885243754
 40
0.6486113972279862
 40
0.66788070391081
 40
0.6876251764862603
 40
0.7077343706353645
 40
0.7281178298276303
 40
0.7487925170148009
 40
0.7697760836867333
 40
0.7910880819544978
 40
0.8127502615370722
 40
0.8347869430550094
 40
0.8572254775827556
 40
0.8800968184336775
 40
0.9034362407781364
 40
0.9272842589196746
 40
0.9516878122556564
 40
0.9767018620012601
 40
1.0
 40
1.0
 40
1.0
 40
1.0
 10
354.5416792766912
 20
72.79771786654148
 30
0.0
 10
354.6162224431858
 20
72.82164694885431
 30
0.0
 10
355.186539268465
 20
73.0047242032602
 30
0.0
 10
356.1850428346152
 20
73.32889363787602
 30
0.0
 10
357.4970723344358
 20
73.75637926983119
 30
0.0
 10
358.6730411885571
 20
74.14273840840134
 30
0.0
 10
359.7583193760585
 20
74.50236000539807
 30
0.0
 10
360.7753575750594
 20
74.84259855526957
 30
0.0
 10
361.7724565340143
 20
75.17956333004992
 30
0.0
 10
362.755123278238
 20
75.51540990619755
 30
0.0
 10
363.7268083925543
 20
75.85165311860696
 30
0.0
 10
364.6560940856452
 20
76.17736707812674
 30
0.0
 10
365.5494454126978
 20
76.49462429119478
 30
0.0
 10
366.4121474835839
 20
76.80511061061331
 30
0.0
 10
367.2426654102868
 20
77.10815604301273
 30
0.0
 10
368.0580604352621
 20
77.40988591576824
 30
0.0
 10
368.8675020796362
 20
77.71345333772405
 30
0.0
 10
369.6850876443762
 20
78.0242189626872
 30
0.0
 10
370.5038392485184
 20
78.33956377657285
 30
0.0
 10
371.3237711684033
 20
78.6594976224663
 30
0.0
 10
372.144893666075
 20
78.98402730287795
 30
0.0
 10
372.9672176418817
 20
79.31316045438973
 30
0.0
 10
373.7907518004811
 20
79.64690404859059
 30
0.0
 10
374.6155133630022
 20
79.98526804410548
 30
0.0
 10
375.4414879954907
 20
80.32825226176003
 30
0.0
 10
376.268671019601
 20
80.6758496781708
 30
0.0
 10
377.1161169217646
 20
81.03619889109952
 30
0.0
 10
377.9879820010423
 20
81.41077606934759
 30
0.0
 10
378.8890214964202
 20
81.8019789716247
 30
0.0
 10
379.8044588072374
 20
82.20349864090436
 30
0.0
 10
380.7351840553736
 20
82.61578921022199
 30
0.0
 10
381.6822183113007
 20
83.03936214458972
 30
0.0
 10
382.6467160347527
 20
83.47479757605073
 30
0.0
 10
383.629981490221
 20
83.92275090321826
 30
0.0
 10
384.6334990478091
 20
84.38396751610976
 30
0.0
 10
385.6589797500372
 20
84.85931004918599
 30
0.0
 10
386.708269925378
 20
85.34970095977283
 30
0.0
 10
387.7779885359288
 20
85.85365999709153
 30
0.0
 10
388.8659599783997
 20
86.37027724931933
 30
0.0
 10
389.9697090796613
 20
86.89841766292099
 30
0.0
 10
391.0918959182974
 20
87.43940856801784
 30
0.0
 10
392.2336375556939
 20
87.99384847749107
 30
0.0
 10
393.3962064321078
 20
88.56241816086212
 30
0.0
 10
394.5810383156883
 20
89.1458857959142
 30
0.0
 10
395.7897665426604
 20
89.74512183174848
 30
0.0
 10
397.0251514986094
 20
90.36157766044776
 30
0.0
 10
398.2870775636988
 20
90.99522666339186
 30
0.0
 10
399.5729128232939
 20
91.64488455133339
 30
0.0
 10
400.8787123736911
 20
92.30864581133356
 30
0.0
 10
402.2032787904462
 20
92.98595907952004
 30
0.0
 10
403.5477591099287
 20
93.67746346051429
 30
0.0
 10
404.9134037024749
 20
94.38385685004273
 30
0.0
 10
406.3016050941243
 20
95.10591671274597
 30
0.0
 10
407.713922444976
 20
95.84451354520506
 30
0.0
 10
409.1521114596656
 20
96.60062843599208
 30
0.0
 10
410.6181616560722
 20
97.37537069698759
 30
0.0
 10
412.11434399351
 20
98.17001680564223
 30
0.0
 10
413.6432692059756
 20
98.98599561826798
 30
0.0
 10
415.2079741534602
 20
99.82511950205395
 30
0.0
 10
416.7609237206202
 20
100.6614152378731
 30
0.0
 10
417.7927336103313
 20
101.2202430263632
 30
0.0
 10
418.2903150762373
 20
101.489732932361
 30
0.0
  0
SPLINE
  5
106
330
1F
100
AcDbEntity
  8
0
  6
Continuous
 62
     7
370
    30
100
AcDbSpline
210
0.0
220
0.0
230
1.0
 70
     8
 71
     3
 72
    24
 73
    20
 74
     0
 42
0.000000001
 43
0.00000001
 40
0.0
 40
0.0
 40
0.0
 40
0.0
 40
0.0058268371257781
 40
0.0661917362942392
 40
0.1267646132522391
 40
0.187588033643282
 40
0.2486537877798651
 40
0.3096505443360319
 40
0.3713737751423202
 40
0.4335222994226918
 40
0.4961502506748595
 40
0.5593071719785855
 40
0.6230407769305661
 40
0.687395732188257
 40
0.7524122270494231
 40
0.8181243089296714
 40
0.8845580420299687
 40
0.9517295937423516
 40
1.0
 40
1.0
 40
1.0
 40
1.0
 10
352.5409749237025
 20
72.7339608285679
 30
0.0
 10
352.5447632955391
 20
72.73281431779914
 30
0.0
 10
352.5877984626772
 20
72.71979017848872
 30
0.0
 10
352.6714421976549
 20
72.699308011539
 30
0.0
 10
352.7919163522442
 20
72.67286057085887
 30
0.0
 10
352.9138603390592
 20
72.65160596139293
 30
0.0
 10
353.0367354250582
 20
72.63497362292405
 30
0.0
 10
353.1605415551647
 20
72.62309057180961
 30
0.0
 10
353.2854209620378
 20
72.61589058198416
 30
0.0
 10
353.4115176847909
 20
72.6134219763852
 30
0.0
 10
353.5385441701409
 20
72.61571630053771
 30
0.0
 10
353.6664362601851
 20
72.62280171345105
 30
0.0
 10
353.7951343040202
 20
72.63470869697355
 30
0.0
 10
353.9245785827461
 20
72.65146645095135
 30
0.0
 10
354.0547026799693
 20
72.67312364993762
 30
0.0
 10
354.1854512880049
 20
72.69966316279398
 30
0.0
 10
354.31669589534
 20
72.7313189073357
 30
0.0
 10
354.4356872157609
 20
72.76384967244955
 30
0.0
 10
354.5103978913326
 20
72.78783452587113
 30
0.0
 10
354.5416370934826
 20
72.79786344983489
 30
0.0
  0
SPLINE
  5
107
330
1F
100
AcDbEntity
  8
0
  6
Continuous
 62
     7
370
    30
100
AcDbSpline
210
0.0
220
0.0
230
1.0
 70
     8
 71
     3
 72
    35
 73
    31
 74
     0
 42
0.000000001
 43
0.00000001
 40
0.0
 40
0.0
 40
0.0
 40
0.0
 40
0.0148738302699842
 40
0.0400299289676136
 40
0.0643827672404903
 40
0.1088414657239273
 40
0.1531215473009409
 40
0.1971306676023883
 40
0.2408278440725176
 40
0.2841802658287647
 40
0.3271628463183299
 40
0.3697576056385182
 40
0.4119539613943297
 40
0.4536620711644266
 40
0.4945494604479229
 40
0.5347561868453518
 40
0.5742653029918792
 40
0.6130719742211113
 40
0.6511811146445232
 40
0.6886045591464506
 40
0.7253588413001616
 40
0.7614635103580207
 40
0.7931232516191692
 40
0.8245647542081412
 40
0.8576246580266464
 40
0.8917106940529995
 40
0.9255295965237204
 40
0.9590871438848454
 40
0.9923922256387082
 40
1.0
 40
1.0
 40
1.0
 40
1.0
 10
339.1242081180542
 20
78.31085572345613
 30
0.0
 10
339.1874041368369
 20
78.27722369866484
 30
0.0
 10
339.3574835378379
 20
78.18670985394637
 30
0.0
 10
339.6327375183441
 20
78.0410567460698
 30
0.0
 10
340.0368299026982
 20
77.82910761387839
 30
0.0
 10
340.5233515065731
 20
77.57737693870394
 30
0.0
 10
341.0960425320644
 20
77.28635273486935
 30
0.0
 10
341.6668577589553
 20
77.00168206351402
 30
0.0
 10
342.2352614485587
 20
76.7236671781759
 30
0.0
 10
342.8008909419694
 20
76.45250821539803
 30
0.0
 10
343.3634864980622
 20
76.18832809311964
 30
0.0
 10
343.9229101752454
 20
75.93118185901456
 30
0.0
 10
344.4785644028341
 20
75.68129122551747
 30
0.0
 10
345.0290875778537
 20
75.43926538961169
 30
0.0
 10
345.573002524931
 20
75.20571764513747
 30
0.0
 10
346.1095051044556
 20
74.98084166765489
 30
0.0
 10
346.6391276821993
 20
74.76427983595309
 30
0.0
 10
347.1618131970336
 20
74.55591187858796
 30
0.0
 10
347.677610533733
 20
74.35556942711762
 30
0.0
 10
348.1866579773032
 20
74.16304714323125
 30
0.0
 10
348.6891380915246
 20
73.9781229000654
 30
0.0
 10
349.1678338495965
 20
73.80680987119338
 30
0.0
 10
349.624356009648
 20
73.64778986584248
 30
0.0
 10
350.0692692893733
 20
73.49684993794358
 30
0.0
 10
350.5275668836978
 20
73.34568189697734
 30
0.0
 10
350.9993248690495
 20
73.19471148096828
 30
0.0
 10
351.4757896104243
 20
73.04683988828513
 30
0.0
 10
351.9512104536964
 20
72.9043395145605
 30
0.0
 10
352.3040964797235
 20
72.80093102381903
 30
0.0
 10
352.4992688611481
 20
72.74623550208796
 30
0.0
 10
352.5355613027037
 20
72.7360648313644
 30
0.0
  0
SPLINE
  5
108
330
1F
100
AcDbEntity
  8
0
  6
Continuous
 62
     7
370
    30
100
AcDbSpline
210
0.0
220
0.0
230
1.0
 70
     8
 71
     3
 72
    56
 73
    52
 74
     0
 42
0.000000001
 43
0.00000001
 40
0.0
 40
0.0
 40
0.0
 40
0.0
 40
0.0107244981676845
 40
0.0287546171822793
 40
0.0468977461486746
 40
0.0651569410882556
 40
0.0835353913520644
 40
0.1020364261258633
 40
0.1206635240609066
 40
0.1394203237656209
 40
0.1583106352678577
 40
0.1773384525575407
 40
0.1965079673413335
 40
0.2158235841533183
 40
0.2352899369896373
 40
0.2549119076639978
 40
0.2746946461009998
 40
0.2946435928333231
 40
0.3147645039947955
 40
0.3350634791665569
 40
0.3555470505261364
 40
0.3762118028624757
 40
0.3968895648769064
 40
0.4176523114666021
 40
0.4385014809176557
 40
0.45943874656202
 40
0.4804658256807354
 40
0.5015844819952062
 40
0.5227965277363523
 40
0.544103825834479
 40
0.5655082922393517
 40
0.5870118983772529
 40
0.6086166737562728
 40
0.6303247087337116
 40
0.6521381574512125
 40
0.6740592409584661
 40
0.6960902505361718
 40
0.7182335512323988
 40
0.740491858324758
 40
0.7628297224434512
 40
0.7851936972864144
 40
0.8076083976980312
 40
0.8300736320695905
 40
0.8525892381301025
 40
0.8751550466330484
 40
0.8977708813121994
 40
0.9204365587855952
 40
0.9431518884569494
 40
0.9659166724187972
 40
0.9887307053511967
 40
1.0
 40
1.0
 40
1.0
 40
1.0
 10
390.0549661362199
 20
146.2534126829627
 30
0.0
 10
389.8236603052678
 20
146.0740746944454
 30
0.0
 10
389.2034811120725
 20
145.5932321295605
 30
0.0
 10
388.1925930934823
 20
144.8048766790185
 30
0.0
 10
387.0197528529845
 20
143.8868141021412
 30
0.0
 10
385.8399892152786
 20
142.9590571949826
 30
0.0
 10
384.6530785417131
 20
142.0216388869166
 30
0.0
 10
383.458826944945
 20
141.074317256839
 30
0.0
 10
382.2570205681772
 20
140.1169137569898
 30
0.0
 10
381.0474382210197
 20
139.1492209525859
 30
0.0
 10
379.8298470532755
 20
138.1710266598078
 30
0.0
 10
378.6040027339617
 20
137.1821065043173
 30
0.0
 10
377.3696483153649
 20
136.1822249411267
 30
0.0
 10
376.1265133464178
 20
135.1711338835317
 30
0.0
 10
374.874312797613
 20
134.1485718769622
 30
0.0
 10
373.612745904635
 20
133.1142629725917
 30
0.0
 10
372.3414948698755
 20
132.0679156500647
 30
0.0
 10
371.0602234716868
 20
131.0092211602329
 30
0.0
 10
369.7685753418095
 20
129.9378533864514
 30
0.0
 10
368.4661714722935
 20
128.8534612262169
 30
0.0
 10
367.152827655839
 20
127.7558705411971
 30
0.0
 10
365.8320847270247
 20
126.6479663657198
 30
0.0
 10
364.5060920270814
 20
125.5315053633554
 30
0.0
 10
363.1768802233644
 20
124.408195286402
 30
0.0
 10
361.8428581120249
 20
123.2766783640225
 30
0.0
 10
360.503933905799
 20
122.1368603390851
 30
0.0
 10
359.1600091650151
 20
120.9886403486172
 30
0.0
 10
357.8109825367782
 20
119.8319145873398
 30
0.0
 10
356.4567496826888
 20
118.6665760814194
 30
0.0
 10
355.0972031262072
 20
117.4925145728083
 30
0.0
 10
353.7322321147268
 20
116.309616366263
 30
0.0
 10
352.3617224673995
 20
115.117764174841
 30
0.0
 10
350.9855564139942
 20
113.9168369562338
 30
0.0
 10
349.60361242907
 20
112.7067097304607
 30
0.0
 10
348.2157650348283
 20
111.4872534206869
 30
0.0
 10
346.8218846709008
 20
110.2583345536485
 30
0.0
 10
345.4218372573353
 20
109.0198154312
 30
0.0
 10
344.0154790789889
 20
107.7715473449922
 30
0.0
 10
342.6034624630598
 20
106.5140962693269
 30
0.0
 10
341.1876269896992
 20
105.2490510654494
 30
0.0
 10
339.769343724987
 20
103.9776230686316
 30
0.0
 10
338.349234699447
 20
102.7003639026661
 30
0.0
 10
336.9267970921022
 20
101.4168133770493
 30
0.0
 10
335.5020515774546
 20
100.1269811307555
 30
0.0
 10
334.0750189163988
 20
98.83087519257832
 30
0.0
 10
332.6457187689837
 20
97.52850948226198
 30
0.0
 10
331.2141769026809
 20
96.21987815575798
 30
0.0
 10
329.780398254888
 20
94.9050517489473
 30
0.0
 10
328.3444678111113
 20
93.58381721272117
 30
0.0
 10
327.1498141693597
 20
92.48177877252388
 30
0.0
 10
326.43416333942
 20
91.8188867534777
 30
0.0
 10
326.1975409013955
 20
91.59970846270852
 30
0.0
  0
SPLINE
  5
109
330
1F
100
AcDbEntity
  8
0
  6
Continuous
 62
     7
370
    30
100
AcDbSpline
210
0.0
220
0.0
230
1.0
 70
     8
 71
     3
 72
    85
 73
    81
 74
     0
 42
0.000000001
 43
0.00000001
 40
0.0
 40
0.0
 40
0.0
 40
0.0
 40
0.0040469857176771
 40
0.0125177982994722
 40
0.0212333086565051
 40
0.0301944587114702
 40
0.0389426759335783
 40
0.0457355802991958
 40
0.0510274022373589
 40
0.0551169317915999
 40
0.0596009293888719
 40
0.0647141112073619
 40
0.074148734654924
 40
0.0851610812884785
 40
0.0976639788008041
 40
0.111656287194123
 40
0.1210376971428984
 40
0.1294784303111849
 40
0.1366969652606098
 40
0.1432557526524013
 40
0.1502055939798576
 40
0.1636516227934762
 40
0.1779500284301713
 40
0.191766859678867
 40
0.2050210934072579
 40
0.2176420818755715
 40
0.2302231817356886
 40
0.242217026870137
 40
0.2551432561062722
 40
0.2692691724853256
 40
0.2837619492482267
 40
0.2978998532553626
 40
0.310884608562445
 40
0.32324479520876
 40
0.3348756202453652
 40
0.3462815925783088
 40
0.3586733525245385
 40
0.3755467796489006
 40
0.3924852602859414
 40
0.4089442012176643
 40
0.424636513139258
 40
0.4361803259855356
 40
0.447304704136919
 40
0.4592548688288841
 40
0.4721873536433231
 40
0.4880547818562251
 40
0.5035472015678348
 40
0.5186208091114587
 40
0.532895849232301
 40
0.5462229421708563
 40
0.5597335759680084
 40
0.5745704267878656
 40
0.5919969788088203
 40
0.6090909829863779
 40
0.6256978754472894
 40
0.6413631901001121
 40
0.6559316167811122
 40
0.6684593909371298
 40
0.6820739613060588
 40
0.6965883599665401
 40
0.7109525665278948
 40
0.7250069194388875
 40
0.7386683974292206
 40
0.753829063999691
 40
0.7680508531200946
 40
0.7831562407973863
 40
0.7997355967464583
 40
0.8171222078377518
 40
0.8340814577166126
 40
0.8505198420661997
 40
0.865947970480851
 40
0.880431836879291
 40
0.895540288663047
 40
0.9120817698337429
 40
0.9291711314998595
 40
0.9458741067350948
 40
0.9621653713027524
 40
0.9778186093122401
 40
0.9927864824066621
 40
1.0
 40
1.0
 40
1.0
 40
1.0
 10
327.4740848450607
 20
87.36014464164326
 30
0.0
 10
327.483004788489
 20
87.35110628914026
 30
0.0
 10
327.5105952126887
 20
87.32314961187852
 30
0.0
 10
327.5574679079669
 20
87.2758623246374
 30
0.0
 10
327.6152470998068
 20
87.2177365347293
 30
0.0
 10
327.6737188418953
 20
87.15913513390515
 30
0.0
 10
327.7280082422041
 20
87.10491729499596
 30
0.0
 10
327.7742264883929
 20
87.05890523763142
 30
0.0
 10
327.8101401947326
 20
87.0232386795599
 30
0.0
 10
327.8409348096362
 20
86.99271372511323
 30
0.0
 10
327.8713442825177
 20
86.96262245750911
 30
0.0
 10
327.9136557420416
 20
86.92083437204144
 30
0.0
 10
327.9705403502469
 20
86.86481709553661
 30
0.0
 10
328.0439876079795
 20
86.79278501470625
 30
0.0
 10
328.1277187026375
 20
86.71105152766583
 30
0.0
 10
328.2079637416765
 20
86.63313223924101
 30
0.0
 10
328.2792502826971
 20
86.56423121436217
 30
0.0
 10
328.335426575037
 20
86.5101253949661
 30
0.0
 10
328.3853133373737
 20
86.46222509586059
 30
0.0
 10
328.4318772514088
 20
86.41763600985512
 30
0.0
 10
328.4924838953939
 20
86.35975298156161
 30
0.0
 10
328.5705933058005
 20
86.28545023668076
 30
0.0
 10
328.6643421529137
 20
86.19674958307598
 30
0.0
 10
328.7578376235728
 20
86.10876791344755
 30
0.0
 10
328.8476995400038
 20
86.0246443091378
 30
0.0
 10
328.9349028187606
 20
85.94341224525208
 30
0.0
 10
329.0193721678601
 20
85.86510314601163
 30
0.0
 10
329.1046387667491
 20
85.786420476523
 30
0.0
 10
329.1935438694143
 20
85.70476270050591
 30
0.0
 10
329.2882964411492
 20
85.6181719920777
 30
0.0
 10
329.385991219336
 20
85.52936470181875
 30
0.0
 10
329.4812486500109
 20
85.44322830145472
 30
0.0
 10
329.5717706555142
 20
85.36177908050139
 30
0.0
 10
329.6566777714668
 20
85.28573338164706
 30
0.0
 10
329.7380754466086
 20
85.21314657348404
 30
0.0
 10
329.8196498380656
 20
85.14070310281345
 30
0.0
 10
329.9134270080492
 20
85.05777677783415
 30
0.0
 10
330.0201520000954
 20
84.96389124005525
 30
0.0
 10
330.1365107337344
 20
84.86214055859347
 30
0.0
 10
330.2503551026248
 20
84.76316972539426
 30
0.0
 10
330.3518799519354
 20
84.67540120243004
 30
0.0
 10
330.4411577648634
 20
84.59858250910489
 30
0.0
 10
330.5218306450909
 20
84.52943773931037
 30
0.0
 10
330.6058529869096
 20
84.45770565152482
 30
0.0
 10
330.7010842565365
 20
84.37674741165783
 30
0.0
 10
330.8047698599181
 20
84.28902995898028
 30
0.0
 10
330.9136598379894
 20
84.19739299318029
 30
0.0
 10
331.0189887114093
 20
84.10920292872925
 30
0.0
 10
331.1194064231412
 20
84.0255319148223
 30
0.0
 10
331.216305419916
 20
83.94515804308271
 30
0.0
 10
331.3146823997327
 20
83.86391496452137
 30
0.0
 10
331.4229151706609
 20
83.77494271743362
 30
0.0
 10
331.5398375432224
 20
83.67932549886125
 30
0.0
 10
331.6611762941155
 20
83.58064237852889
 30
0.0
 10
331.7785365710681
 20
83.48570314508883
 30
0.0
 10
331.8901008478852
 20
83.39590920467958
 30
0.0
 10
331.9921331071394
 20
83.31417367155274
 30
0.0
 10
332.0894265972257
 20
83.23656076873714
 30
0.0
 10
332.1867352606663
 20
83.15924768512654
 30
0.0
 10
332.2885994338283
 20
83.07866279046709
 30
0.0
 10
332.3916669862581
 20
82.99748286339819
 30
0.0
 10
332.4928307087911
 20
82.91814331601137
 30
0.0
 10
332.596048592472
 20
82.83752812013549
 30
0.0
 10
332.6998453013716
 20
82.75680775478332
 30
0.0
 10
332.8073104895397
 20
82.67359643088788
 30
0.0
 10
332.9183906612558
 20
82.5879552431436
 30
0.0
 10
333.0373371558194
 20
82.49667141529841
 30
0.0
 10
333.1609867597619
 20
82.40224262136391
 30
0.0
 10
333.2844939307427
 20
82.30838523156129
 30
0.0
 10
333.4034139811111
 20
82.21844094977197
 30
0.0
 10
333.516529664507
 20
82.13326967775008
 30
0.0
 10
333.6265265714008
 20
82.0507917381537
 30
0.0
 10
333.7398785684476
 20
81.96614608666145
 30
0.0
 10
333.8604208660656
 20
81.87652543978884
 30
0.0
 10
333.9847872427322
 20
81.78448914616347
 30
0.0
 10
334.1074626866377
 20
81.69411943559372
 30
0.0
 10
334.2255638073079
 20
81.60749369836888
 30
0.0
 10
334.3391460413558
 20
81.52454851271705
 30
0.0
 10
334.4304280218575
 20
81.45810003623026
 30
0.0
 10
334.4838428078277
 20
81.41941382709027
 30
0.0
 10
334.5012136076916
 20
81.40683284629512
 30
0.0
  0
SPLINE
  5
10A
330
1F
100
AcDbEntity
  8
0
  6
Continuous
 62
     7
370
    30
100
AcDbSpline
210
0.0
220
0.0
230
1.0
 70
     8
 71
     3
 72
    20
 73
    16
 74
     0
 42
0.000000001
 43
0.00000001
 40
0.0
 40
0.0
 40
0.0
 40
0.0
 40
0.0143854407937407
 40
0.1161087783427669
 40
0.2219863601308693
 40
0.3283596316456498
 40
0.4351751270593899
 40
0.5423564178563052
 40
0.6498195989218919
 40
0.7574742349459685
 40
0.8652246790275566
 40
0.9089642017678192
 40
0.9510385906417412
 40
0.9922592851008626
 40
1.0
 40
1.0
 40
1.0
 40
1.0
 10
334.5390643007033
 20
81.37969347818967
 30
0.0
 10
334.5602387524396
 20
81.36426154483193
 30
0.0
 10
334.7311434719003
 20
81.23970624233283
 30
0.0
 10
335.0595801356203
 20
81.00557041385957
 30
0.0
 10
335.5251714576225
 20
80.67706412544855
 30
0.0
 10
336.0000825566826
 20
80.34799584528322
 30
0.0
 10
336.4783196162627
 20
80.02181260266553
 30
0.0
 10
336.9594799165745
 20
79.69888961623721
 30
0.0
 10
337.4429658467179
 20
79.37947570695007
 30
0.0
 10
337.9283716927695
 20
79.06373701910395
 30
0.0
 10
338.3181978479862
 20
78.81401693334749
 30
0.0
 10
338.61037587957
 20
78.62878789087328
 30
0.0
 10
338.8004432110427
 20
78.50905707847413
 30
0.0
 10
338.936423801044
 20
78.42342851138439
 30
0.0
 10
339.0094173837915
 20
78.37778495099604
 30
0.0
 10
339.020957544112
 20
78.37056878233216
 30
0.0
  0
SPLINE
  5
10B
330
1F
100
AcDbEntity
  8
0
  6
Continuous
 62
     7
370
    30
100
AcDbSpline
210
0.0
220
0.0
230
1.0
 70
     8
 71
     3
 72
    32
 73
    28
 74
     0
 42
0.000000001
 43
0.00000001
 40
0.0
 40
0.0
 40
0.0
 40
0.0
 40
0.0406792415446259
 40
0.085144963283852
 40
0.1297096885251567
 40
0.1742732702444737
 40
0.2187335990825518
 40
0.2629829541091722
 40
0.3069182231702277
 40
0.3504507281145418
 40
0.3935133543797818
 40
0.4360637363497543
 40
0.4780836122600478
 40
0.5195754751872145
 40
0.560613880139935
 40
0.6006985230416696
 40
0.6402820325754797
 40
0.6796245588872243
 40
0.7187563125588872
 40
0.7577061925931425
 40
0.7965030684049947
 40
0.8351757451235813
 40
0.8737529660059948
 40
0.9122634414996139
 40
0.9507298359788465
 40
0.9891779914457434
 40
1.0
 40
1.0
 40
1.0
 40
1.0
 10
326.1980262731924
 20
91.59945262091323
 30
0.0
 10
326.1756622777162
 20
91.57828040759034
 30
0.0
 10
326.1288526150627
 20
91.53396524197903
 30
0.0
 10
326.0620370040907
 20
91.46278061607298
 30
0.0
 10
325.9967885694905
 20
91.38686227801334
 30
0.0
 10
325.9356957109113
 20
91.30809892096285
 30
0.0
 10
325.8789791102496
 20
91.22686783561112
 30
0.0
 10
325.8269613404039
 20
91.14346293958634
 30
0.0
 10
325.7798889373867
 20
91.05823307714881
 30
0.0
 10
325.7379664174011
 20
90.97152701125037
 30
0.0
 10
325.7013400667446
 20
90.88368796281853
 30
0.0
 10
325.6701039352532
 20
90.79504236910611
 30
0.0
 10
325.6443049748441
 20
90.70588709355825
 30
0.0
 10
325.623947624708
 20
90.61647996916199
 30
0.0
 10
325.609070611679
 20
90.52735354993372
 30
0.0
 10
325.5996075060021
 20
90.43892296538634
 30
0.0
 10
325.5953797463861
 20
90.35138288839515
 30
0.0
 10
325.5962616108045
 20
90.26447123451236
 30
0.0
 10
325.602194963646
 20
90.17824640129045
 30
0.0
 10
325.613119424299
 20
90.09293131574907
 30
0.0
 10
325.6289674812164
 20
90.00874972587451
 30
0.0
 10
325.6496521255983
 20
89.92591550218592
 30
0.0
 10
325.6751150049403
 20
89.84466000523527
 30
0.0
 10
325.7051482782101
 20
89.76513122295447
 30
0.0
 10
325.7400547044146
 20
89.68777784069513
 30
0.0
 10
325.7690552262349
 20
89.63007763817025
 30
0.0
 10
325.7877489549988
 20
89.59905273336464
 30
0.0
 10
325.7918549630995
 20
89.59223822824018
 30
0.0
  0
SPLINE
  5
10C
330
1F
100
AcDbEntity
  8
0
  6
Continuous
 62
     7
370
    30
100
AcDbSpline
210
0.0
220
0.0
230
1.0
 70
     8
 71
     3
 72
    20
 73
    16
 74
     0
 42
0.000000001
 43
0.00000001
 40
0.0
 40
0.0
 40
0.0
 40
0.0
 40
0.0153860586048227
 40
0.1055176192447678
 40
0.1954846444468618
 40
0.2847813486293149
 40
0.3734355113564151
 40
0.4614774489252705
 40
0.5489385708990738
 40
0.635851365356899
 40
0.722249375770439
 40
0.8081671674487223
 40
0.8936844243282567
 40
0.9785127642466585
 40
1.0
 40
1.0
 40
1.0
 40
1.0
 10
325.7907066779296
 20
89.59102239440485
 30
0.0
 10
325.7976115697214
 20
89.57886360244898
 30
0.0
 10
325.8449653307935
 20
89.49547858403533
 30
0.0
 10
325.9362815723084
 20
89.34413553681335
 30
0.0
 10
326.0645869834593
 20
89.13767197792653
 30
0.0
 10
326.1962474131673
 20
88.93594342075865
 30
0.0
 10
326.3305584758563
 20
88.73893200935322
 30
0.0
 10
326.4676147430471
 20
88.54669748460901
 30
0.0
 10
326.6073707107481
 20
88.35917230161255
 30
0.0
 10
326.7498122884182
 20
88.1763147821109
 30
0.0
 10
326.8949469503165
 20
87.99810819918434
 30
0.0
 10
327.0426997975032
 20
87.82438643188898
 30
0.0
 10
327.1932231897914
 20
87.65565615849712
 30
0.0
 10
327.3081189160394
 20
87.5309139034414
 30
0.0
 10
327.3735366838497
 20
87.46400413531101
 30
0.0
 10
327.3867581426109
 20
87.45048113124564
 30
0.0
  0
LINE
  5
10D
330
1F
100
AcDbEntity
  8
0
  6
Continuous
 62
     7
370
    30
100
AcDbLine
 10
327.424088869
 20
87.412144756
 30
0.0
 11
327.4698911513
 21
87.3651086104
 31
0.0
  0
LINE
  5
10E
330
1F
100
AcDbEntity
  8
0
  6
Continuous
 62
     7
370
    30
100
AcDbLine
 10
457.9687435108
 20
57.1235968217
 30
0.0
 11
444.5282331069
 21
150.8435119095
 31
0.0
  0
LINE
  5
10F
330
1F
100
AcDbEntity
  8
0
  6
Continuous
 62
     7
370
    30
100
AcDbLine
 10
395.9727409004
 20
89.837093459
 30
0.0
 11
400.3346057127
 21
37.5082418059
 31
0.0
  0
SPLINE
  5
110
330
1F
100
AcDbEntity
  8
0
  6
Continuous
 62
     7
370
    30
100
AcDbSpline
210
0.0
220
0.0
230
1.0
 70
     8
 71
     3
 72
    59
 73
    55
 74
     0
 42
0.000000001
 43
0.00000001
 40
0.0
 40
0.0
 40
0.0
 40
0.0
 40
0.0191410331565216
 40
0.038411095348129
 40
0.0576844171329874
 40
0.076966490032563
 40
0.0962636491333233
 40
0.1155821863544635
 40
0.1349283464624088
 40
0.1543083236296065
 40
0.1737282584574198
 40
0.193204540430238
 40
0.21243926278205
 40
0.2318537378793544
 40
0.2513075468164271
 40
0.2707683831349274
 40
0.2901940212263702
 40
0.3095523276027981
 40
0.3288567206050711
 40
0.3483011977357421
 40
0.3677505476811206
 40
0.3872102366295841
 40
0.4066855931309266
 40
0.4261819050540479
 40
0.4457029216313654
 40
0.4652928252669517
 40
0.4848604873527882
 40
0.5044150665039969
 40
0.5239616284221779
 40
0.5435052251204698
 40
0.5630507287572072
 40
0.582601667123985
 40
0.6021630622802303
 40
0.6217399271785558
 40
0.6413372665378999
 40
0.6609600782422945
 40
0.6806133547822882
 40
0.7003021123231288
 40
0.7199576125530425
 40
0.7395516849905466
 40
0.7591302739550807
 40
0.7786956432743116
 40
0.7982500746770017
 40
0.8177958645902901
 40
0.8373353242630972
 40
0.8568707798640497
 40
0.8764045725558484
 40
0.8959390585477904
 40
0.9154761193659724
 40
0.9350178354866668
 40
0.9545666025702637
 40
0.9741187001681322
 40
0.9937416957367928
 40
1.0
 40
1.0
 40
1.0
 40
1.0
 10
444.5154188400425
 20
150.9316566412154
 30
0.0
 10
444.5027148037424
 20
151.0129077325492
 30
0.0
 10
444.4772210936777
 20
151.1759576259817
 30
0.0
 10
444.4326766879123
 20
151.4201360263003
 30
0.0
 10
444.3834508482027
 20
151.6643315154154
 30
0.0
 10
444.329182525227
 20
151.9079545507516
 30
0.0
 10
444.2699885304817
 20
152.1510320492887
 30
0.0
 10
444.2058260506354
 20
152.3935805664847
 30
0.0
 10
444.1366950963416
 20
152.6356134497227
 30
0.0
 10
444.0625707709137
 20
152.8771682035275
 30
0.0
 10
443.9834587375577
 20
153.1182282465371
 30
0.0
 10
443.8996332174739
 20
153.3578839468867
 30
0.0
 10
443.8110011579438
 20
153.5963573245411
 30
0.0
 10
443.7176567843202
 20
153.8335978828706
 30
0.0
 10
443.6191849190875
 20
154.0705775982145
 30
0.0
 10
443.5159370824462
 20
154.3063979112818
 30
0.0
 10
443.4081260243437
 20
154.5405814718667
 30
0.0
 10
443.29583882475
 20
154.7729212364736
 30
0.0
 10
443.1789187497171
 20
155.0038205409154
 30
0.0
 10
443.057164088299
 20
155.2337088610382
 30
0.0
 10
442.9304477008752
 20
155.4627124483183
 30
0.0
 10
442.7990497370756
 20
155.690294815899
 30
0.0
 10
442.6629615402622
 20
155.9164524652987
 30
0.0
 10
442.5221709879767
 20
156.1411902272584
 30
0.0
 10
442.3765852916487
 20
156.3646223127913
 30
0.0
 10
442.2263467896903
 20
156.5865533801794
 30
0.0
 10
442.0715161735469
 20
156.8068329415871
 30
0.0
 10
441.9123390109053
 20
157.025089076376
 30
0.0
 10
441.7487964990714
 20
157.2413356120291
 30
0.0
 10
441.5808839458281
 20
157.4555640745984
 30
0.0
 10
441.4085987879416
 20
157.6677618780227
 30
0.0
 10
441.2319380749066
 20
157.8779159298899
 30
0.0
 10
441.0508975049411
 20
158.086013803054
 30
0.0
 10
440.8654672464332
 20
158.2920480404987
 30
0.0
 10
440.6756357691863
 20
158.4960111416016
 30
0.0
 10
440.4813919630035
 20
158.6978940065855
 30
0.0
 10
440.2827171545168
 20
158.8976917306527
 30
0.0
 10
440.0798681886253
 20
159.0951353861036
 30
0.0
 10
439.8731514043095
 20
159.2899242441323
 30
0.0
 10
439.6628117161735
 20
159.4818114168448
 30
0.0
 10
439.4488359353563
 20
159.6708136909636
 30
0.0
 10
439.2310933421169
 20
159.8570327021487
 30
0.0
 10
439.00960866354
 20
160.0404298630031
 30
0.0
 10
438.7844066939317
 20
160.2209663358331
 30
0.0
 10
438.55551210567
 20
160.3986037410752
 30
0.0
 10
438.3229493244145
 20
160.5733037918933
 30
0.0
 10
438.0867431529672
 20
160.7450289956911
 30
0.0
 10
437.84691833138
 20
160.9137387587522
 30
0.0
 10
437.6035080193258
 20
161.0793992402538
 30
0.0
 10
437.3565186652054
 20
161.241949934376
 30
0.0
 10
437.1060807929188
 20
161.401416488224
 30
0.0
 10
436.8516696101346
 20
161.5576229382778
 30
0.0
 10
436.6530336232534
 20
161.6765731486818
 30
0.0
 10
436.5380142554357
 20
161.7425701251101
 30
0.0
 10
436.510201656971
 20
161.7585287192156
 30
0.0
  0
SPLINE
  5
111
330
1F
100
AcDbEntity
  8
0
  6
Continuous
 62
     7
370
    30
100
AcDbSpline
210
0.0
220
0.0
230
1.0
 70
     8
 71
     3
 72
   169
 73
   165
 74
     0
 42
0.000000001
 43
0.00000001
 40
0.0
 40
0.0
 40
0.0
 40
0.0
 40
0.0059393328992685
 40
0.0120298405177029
 40
0.0180854749324748
 40
0.0242503312228841
 40
0.0304183807541993
 40
0.0365903741569678
 40
0.0427669653619094
 40
0.0489487908871241
 40
0.0551364714018362
 40
0.061330613377198
 40
0.0675318107457281
 40
0.0737406465494384
 40
0.0799576945580906
 40
0.0861835208416683
 40
0.0924186852807464
 40
0.0986582400090105
 40
0.1048886410869395
 40
0.1111077237846974
 40
0.1173223416760715
 40
0.1235340055562989
 40
0.1297442307241337
 40
0.1359545335852329
 40
0.1421660988082837
 40
0.1483802746345038
 40
0.1545985821956379
 40
0.1608225448853252
 40
0.1670536888026065
 40
0.1732935430156605
 40
0.1795449720185322
 40
0.1857670313482707
 40
0.1919927156463242
 40
0.1982168836162773
 40
0.2044411738890611
 40
0.2106668377295077
 40
0.2168958134077042
 40
0.2230964726076334
 40
0.2293149996265814
 40
0.2355460691686005
 40
0.2417800583041637
 40
0.2480043992180954
 40
0.2542092611715111
 40
0.2603836287109292
 40
0.2665864002013794
 40
0.272790611632196
 40
0.2789874274418249
 40
0.2851785467140897
 40
0.2913656654195104
 40
0.2975504800799144
 40
0.303734687960923
 40
0.3099198106951186
 40
0.3161071575892619
 40
0.3222984282391951
 40
0.3284953230881417
 40
0.3346995437340665
 40
0.340913540687968
 40
0.347119541034612
 40
0.3533206457530115
 40
0.3595200431319235
 40
0.3657195032438133
 40
0.3719203668147516
 40
0.3781242550083566
 40
0.3843325168896295
 40
0.3905089233771379
 40
0.3967051863215603
 40
0.4029114976932556
 40
0.409117416964106
 40
0.4153103571670941
 40
0.4214800864202873
 40
0.4276443271750544
 40
0.4338463049599763
 40
0.4400412550159216
 40
0.4462308798940328
 40
0.4524168743833183
 40
0.4586009316996493
 40
0.4647847436624201
 40
0.4709697071019879
 40
0.4771572415566888
 40
0.4833490352441167
 40
0.489546775157887
 40
0.4957521472913091
 40
0.5019690648375745
 40
0.5081801309724338
 40
0.5143395917160759
 40
0.5205231647880099
 40
0.5267264583751494
 40
0.5329451524351825
 40
0.5391748525660542
 40
0.5454111114931625
 40
0.5516494508949127
 40
0.5578842065302997
 40
0.5641105950234193
 40
0.5703241986421025
 40
0.5765206677063732
 40
0.5826946663280943
 40
0.588821900706335
 40
0.5950467436993262
 40
0.6012639205978955
 40
0.607475091505937
 40
0.613681922724218
 40
0.619886076616631
 40
0.6260892117609208
 40
0.6322929616501644
 40
0.6384984480307997
 40
0.6447073195541242
 40
0.6509212213695921
 40
0.657141795251577
 40
0.6633718194096647
 40
0.6696378457075273
 40
0.6757977664008938
 40
0.6819832054666458
 40
0.6881898668543831
 40
0.6944136598032954
 40
0.7006503984322696
 40
0.7068958203654067
 40
0.7131456054633338
 40
0.719395012224058
 40
0.7256385836606303
 40
0.7318719492335151
 40
0.738090768204151
 40
0.7442902497434923
 40
0.7503399342396322
 40
0.7565819828477051
 40
0.7628144781942541
 40
0.7690389231801434
 40
0.7752568918591362
 40
0.7814699505443814
 40
0.7876796582024223
 40
0.7938875669392227
 40
0.8000952225492022
 40
0.8063039288773919
 40
0.8125149432983397
 40
0.8187297971474488
 40
0.8249500177891267
 40
0.831183687337088
 40
0.8373555540052808
 40
0.8435447214038897
 40
0.8497547966501589
 40
0.8559750363455827
 40
0.8621933512738663
 40
0.8683953373947194
 40
0.8745216952129536
 40
0.8807095925111482
 40
0.8868903223725494
 40
0.893065405614585
 40
0.8992363552564897
 40
0.905404689882262
 40
0.9115712868329322
 40
0.9177274054042353
 40
0.9239112122797923
 40
0.9300814121856975
 40
0.936239477141597
 40
0.942386930991412
 40
0.9485253145052034
 40
0.9546561878930818
 40
0.960781133259109
 40
0.9669017569296248
 40
0.973019691623519
 40
0.9791365984348447
 40
0.9852540707567572
 40
0.9913745797609745
 40
0.9975049721661765
 40
0.9999999999999999
 40
0.9999999999999999
 40
0.9999999999999999
 40
0.9999999999999999
 10
436.5096595300887
 20
161.759308793834
 30
0.0
 10
436.4257642630228
 20
161.8071738007795
 30
0.0
 10
436.2558383302442
 20
161.9041221297746
 30
0.0
 10
435.9961049393076
 20
162.0462067156161
 30
0.0
 10
435.7302112032339
 20
162.1870192665161
 30
0.0
 10
435.4600760833382
 20
162.3250117241938
 30
0.0
 10
435.1851682705824
 20
162.4605024872492
 30
0.0
 10
434.9070501976532
 20
162.5926800335408
 30
0.0
 10
434.6257361791962
 20
162.7215651285893
 30
0.0
 10
434.3412373748286
 20
162.8471697828413
 30
0.0
 10
434.0535670418428
 20
162.9695085305165
 30
0.0
 10
433.7627387786446
 20
163.0885956233468
 30
0.0
 10
433.4687669166131
 20
163.2044458396121
 30
0.0
 10
433.1716664591082
 20
163.3170743324679
 30
0.0
 10
432.871452656225
 20
163.4264966691995
 30
0.0
 10
432.5681424761231
 20
163.5327290355492
 30
0.0
 10
432.2618389630256
 20
163.6357572346163
 30
0.0
 10
431.9528986750382
 20
163.7354989033602
 30
0.0
 10
431.6416886761666
 20
163.8318717562627
 30
0.0
 10
431.3284148969131
 20
163.9248316979427
 30
0.0
 10
431.013031181402
 20
164.0144206342494
 30
0.0
 10
430.6954266022278
 20
164.1006925634256
 30
0.0
 10
430.3755789965359
 20
164.1836748401304
 30
0.0
 10
430.0534711836569
 20
164.2633926718062
 30
0.0
 10
429.7290883814056
 20
164.3398702806567
 30
0.0
 10
429.4024153539947
 20
164.4131316861956
 30
0.0
 10
429.0734303283987
 20
164.4832019206822
 30
0.0
 10
428.7421081838766
 20
164.5501060515718
 30
0.0
 10
428.4084215467015
 20
164.6138689556414
 30
0.0
 10
428.0723238987235
 20
164.6745178986627
 30
0.0
 10
427.7345134670904
 20
164.7319533494209
 30
0.0
 10
427.3951336471307
 20
164.7861394596659
 30
0.0
 10
427.0544957779218
 20
164.8370563880761
 30
0.0
 10
426.7121213577885
 20
164.8847901304044
 30
0.0
 10
426.3681134286629
 20
164.9293411075477
 30
0.0
 10
426.0224432929924
 20
164.9707247474367
 30
0.0
 10
425.6757055168665
 20
165.0088989184003
 30
0.0
 10
425.3276353131217
 20
165.0438855645685
 30
0.0
 10
424.9781507070446
 20
165.0757218036196
 30
0.0
 10
424.6267224715614
 20
165.1044713201653
 30
0.0
 10
424.2739277767145
 20
165.1300908323206
 30
0.0
 10
423.9204330847258
 20
165.1525421796815
 30
0.0
 10
423.5669335669807
 20
165.1717989466565
 30
0.0
 10
423.2127800860515
 20
165.1879037302124
 30
0.0
 10
422.8576529685201
 20
165.2009390321817
 30
0.0
 10
422.5011606658144
 20
165.2108913118447
 30
0.0
 10
422.1440222012357
 20
165.2177385017152
 30
0.0
 10
421.7864079155633
 20
165.2214819856378
 30
0.0
 10
421.4282868146028
 20
165.2221286341158
 30
0.0
 10
421.0696274363063
 20
165.2196839923213
 30
0.0
 10
420.7104014847088
 20
165.2141526515391
 30
0.0
 10
420.3505879383801
 20
165.2055384163334
 30
0.0
 10
419.9901655712544
 20
165.1938444717439
 30
0.0
 10
419.629109527778
 20
165.1790730646965
 30
0.0
 10
419.2673870812677
 20
165.1612255648301
 30
0.0
 10
418.9049509143724
 20
165.1403000255323
 30
0.0
 10
418.5421320756537
 20
165.1163232135708
 30
0.0
 10
418.1792353133997
 20
165.0892891680448
 30
0.0
 10
417.8165530568064
 20
165.0592225316632
 30
0.0
 10
417.4539961350184
 20
165.0261176419152
 30
0.0
 10
417.0915097642755
 20
164.9899705671417
 30
0.0
 10
416.7290698497073
 20
164.9507765425953
 30
0.0
 10
416.3666597067597
 20
164.9085403753995
 30
0.0
 10
416.0049965008902
 20
164.8633230136365
 30
0.0
 10
415.6438204972565
 20
164.8151041816608
 30
0.0
 10
415.2830851367525
 20
164.7639048927466
 30
0.0
 10
414.922247277559
 20
164.7096401887558
 30
0.0
 10
414.5620122790358
 20
164.6524045236116
 30
0.0
 10
414.2030908843397
 20
164.592308986367
 30
0.0
 10
413.8456524041495
 20
164.529366327864
 30
0.0
 10
413.4887715851884
 20
164.4634725240093
 30
0.0
 10
413.1322079169973
 20
164.3945552607178
 30
0.0
 10
412.7760317140301
 20
164.3226007141552
 30
0.0
 10
412.4211038502812
 20
164.2477743183733
 30
0.0
 10
412.0673931267148
 20
164.1700680957273
 30
0.0
 10
411.7148688713859
 20
164.0894730497033
 30
0.0
 10
411.3635064196783
 20
164.005980513411
 30
0.0
 10
411.0132865961726
 20
163.9195822513286
 30
0.0
 10
410.664190438798
 20
163.8302695085191
 30
0.0
 10
410.3161941215475
 20
163.738031058068
 30
0.0
 10
409.9692680471254
 20
163.6428546697657
 30
0.0
 10
409.623346082961
 20
163.54471069318
 30
0.0
 10
409.2787000785752
 20
163.4436879340163
 30
0.0
 10
408.9365298489947
 20
163.3400434440345
 30
0.0
 10
408.5966512121811
 20
163.2337782718074
 30
0.0
 10
408.2586369457571
 20
163.1247927909742
 30
0.0
 10
407.9213305415917
 20
163.0127080520338
 30
0.0
 10
407.5850393994165
 20
162.8976076309468
 30
0.0
 10
407.2500694790642
 20
162.7795796482914
 30
0.0
 10
406.9167267150145
 20
162.6587172381697
 30
0.0
 10
406.5853365943871
 20
162.5351260236003
 30
0.0
 10
406.2562269916198
 20
162.4089186152446
 30
0.0
 10
405.9297202588319
 20
162.2802126502179
 30
0.0
 10
405.6061137297239
 20
162.1491196839471
 30
0.0
 10
405.2857041654747
 20
162.0157651920634
 30
0.0
 10
404.9691485272373
 20
161.8804030182986
 30
0.0
 10
404.6545005876773
 20
161.7423114409181
 30
0.0
 10
404.3415432359621
 20
161.6013703345007
 30
0.0
 10
404.0297024484295
 20
161.4572525682304
 30
0.0
 10
403.7207486765029
 20
161.3107581484364
 30
0.0
 10
403.4146555535241
 20
161.1618749754007
 30
0.0
 10
403.1113964195981
 20
161.0105900223888
 30
0.0
 10
402.810946385037
 20
160.8568897425287
 30
0.0
 10
402.5132900849434
 20
160.7007642958966
 30
0.0
 10
402.2184127588095
 20
160.5422035331634
 30
0.0
 10
401.9263005947875
 20
160.3811964171798
 30
0.0
 10
401.636930313099
 20
160.217727916719
 30
0.0
 10
401.3502701441143
 20
160.05176790644
 30
0.0
 10
401.0658822332657
 20
159.8830764226671
 30
0.0
 10
400.7855654643152
 20
159.7126022572751
 30
0.0
 10
400.5091706007802
 20
159.5403127353023
 30
0.0
 10
400.2368770784143
 20
159.3664057824267
 30
0.0
 10
399.9669265044786
 20
159.1897615589369
 30
0.0
 10
399.6995630737593
 20
159.0105169123704
 30
0.0
 10
399.4350281548115
 20
158.828812094057
 30
0.0
 10
399.1735607626745
 20
158.6447920143934
 30
0.0
 10
398.9154027260849
 20
158.4586098999691
 30
0.0
 10
398.6608064954588
 20
158.2704335296067
 30
0.0
 10
398.4100187996649
 20
158.0804354237449
 30
0.0
 10
398.1632737502477
 20
157.8887837199476
 30
0.0
 10
397.9207930427748
 20
157.6956552889388
 30
0.0
 10
397.684396937845
 20
157.5025007420259
 30
0.0
 10
397.4515005438436
 20
157.3073907901521
 30
0.0
 10
397.2218626655231
 20
157.1101388852564
 30
0.0
 10
396.9939314279503
 20
156.9092473945735
 30
0.0
 10
396.7701948131273
 20
156.7068663068706
 30
0.0
 10
396.5506376875143
 20
156.5029877345856
 30
0.0
 10
396.3352405784669
 20
156.2976002630735
 30
0.0
 10
396.1239868238179
 20
156.0906930063709
 30
0.0
 10
395.9168608411693
 20
155.8822546632586
 30
0.0
 10
395.7138513429737
 20
155.6722768585147
 30
0.0
 10
395.5149505364043
 20
155.460753039083
 30
0.0
 10
395.3201539088485
 20
155.2476815249618
 30
0.0
 10
395.1294465178173
 20
155.0330400019408
 30
0.0
 10
394.9427796359989
 20
154.8167939885922
 30
0.0
 10
394.7607380230838
 20
154.5995513579814
 30
0.0
 10
394.5834003495943
 20
154.3814293326334
 30
0.0
 10
394.4105967371567
 20
154.1623268931222
 30
0.0
 10
394.2417023935774
 20
153.9414292706807
 30
0.0
 10
394.0769417434585
 20
153.7189735415429
 30
0.0
 10
393.9166818399837
 20
153.4954109917991
 30
0.0
 10
393.761716015201
 20
153.2718054461512
 30
0.0
 10
393.6115163771645
 20
153.0475653034665
 30
0.0
 10
393.4659565536566
 20
152.8225253378767
 30
0.0
 10
393.3245706891744
 20
152.5958976709936
 30
0.0
 10
393.1878919317788
 20
152.3685201176652
 30
0.0
 10
393.0559112669253
 20
152.1403910444095
 30
0.0
 10
392.9286147027936
 20
151.9114930919136
 30
0.0
 10
392.8060903601502
 20
151.6820174300438
 30
0.0
 10
392.6880956289945
 20
151.4515465660659
 30
0.0
 10
392.5747721226093
 20
151.2202698344162
 30
0.0
 10
392.4661768603853
 20
150.9882509365151
 30
0.0
 10
392.3625560619519
 20
150.7560186074024
 30
0.0
 10
392.2638941102655
 20
150.5235667450563
 30
0.0
 10
392.1701764005326
 20
150.2908886846613
 30
0.0
 10
392.0813894729517
 20
150.0579775050542
 30
0.0
 10
391.9975203424511
 20
149.8248262262757
 30
0.0
 10
391.9185593264296
 20
149.5914267914675
 30
0.0
 10
391.8444895290962
 20
149.3577735477392
 30
0.0
 10
391.7753265945572
 20
149.1238512127179
 30
0.0
 10
391.7109688131121
 20
148.8896733569858
 30
0.0
 10
391.6517324409897
 20
148.6550426744489
 30
0.0
 10
391.6072552498399
 20
148.4664833849289
 30
0.0
 10
391.5842807690104
 20
148.3561657614102
 30
0.0
 10
391.5776350674042
 20
148.3242547896996
 30
0.0
  0
SPLINE
  5
112
330
1F
100
AcDbEntity
  8
0
  6
Continuous
 62
     7
370
    30
100
AcDbSpline
210
0.0
220
0.0
230
1.0
 70
     8
 71
     3
 72
    31
 73
    27
 74
     0
 42
0.000000001
 43
0.00000001
 40
0.0
 40
0.0
 40
0.0
 40
0.0
 40
0.0155606068101138
 40
0.0634819045912196
 40
0.1100252124933932
 40
0.1556105705587937
 40
0.2003949088403438
 40
0.2445270036708025
 40
0.2881449446803284
 40
0.3313747925564778
 40
0.374330733385588
 40
0.4171159396601298
 40
0.4598237014494571
 40
0.5024973993658176
 40
0.545050818991083
 40
0.5884067717108316
 40
0.6314362859943469
 40
0.6742135669249897
 40
0.7168109627454919
 40
0.7592970712315518
 40
0.8017370645403251
 40
0.8441916692541973
 40
0.8867017381772055
 40
0.9293247678130357
 40
0.9721158784464576
 40
1.0
 40
1.0
 40
1.0
 40
1.0
 10
391.5765157562053
 20
148.3239888523345
 30
0.0
 10
391.5745974669255
 20
148.3143933819662
 30
0.0
 10
391.5667715088172
 20
148.2752471750181
 30
0.0
 10
391.5486869415161
 20
148.2059154559356
 30
0.0
 10
391.5221710403001
 20
148.116439989267
 30
0.0
 10
391.4914018049698
 20
148.0273613565859
 30
0.0
 10
391.4567223802292
 20
147.9384354825988
 30
0.0
 10
391.4180296875186
 20
147.849460398816
 30
0.0
 10
391.3753196506708
 20
147.7602967524945
 30
0.0
 10
391.3285392007062
 20
147.6708193029667
 30
0.0
 10
391.2776322521479
 20
147.5809302354928
 30
0.0
 10
391.2225286239359
 20
147.4905469422148
 30
0.0
 10
391.1631841840362
 20
147.3996547573588
 30
0.0
 10
391.0995927687821
 20
147.3082989233716
 30
0.0
 10
391.0315367661532
 20
147.2162639320343
 30
0.0
 10
390.9590657458484
 20
147.1238474500676
 30
0.0
 10
390.8821997084614
 20
147.0312467685858
 30
0.0
 10
390.8015736684966
 20
146.9392740881155
 30
0.0
 10
390.7171399495974
 20
146.8478844188809
 30
0.0
 10
390.6288448306091
 20
146.7570403879887
 30
0.0
 10
390.5366371892255
 20
146.6667123863887
 30
0.0
 10
390.4404617515942
 20
146.576895705134
 30
0.0
 10
390.3403234142406
 20
146.487573685493
 30
0.0
 10
390.2360023218534
 20
146.3987990741165
 30
0.0
 10
390.1408128692938
 20
146.3207870091686
 30
0.0
 10
390.0789191302106
 20
146.2728125009386
 30
0.0
 10
390.0544996484404
 20
146.2538846958562
 30
0.0
  0
SPLINE
  5
113
330
1F
100
AcDbEntity
  8
0
  6
Continuous
 62
     7
370
    30
100
AcDbSpline
210
0.0
220
0.0
230
1.0
 70
     8
 71
     3
 72
    99
 73
    95
 74
     0
 42
0.000000001
 43
0.00000001
 40
0.0
 40
0.0
 40
0.0
 40
0.0
 40
0.0072427683219108
 40
0.0132597108330982
 40
0.0180637064616291
 40
0.0216658086574542
 40
0.024165407562121
 40
0.0265717926187621
 40
0.0329761163441285
 40
0.0402135356994412
 40
0.0481818410402294
 40
0.0555440033880921
 40
0.0636210514198275
 40
0.0745316651184608
 40
0.0847482377948169
 40
0.0956503854137909
 40
0.1074151560840266
 40
0.1188854458918955
 40
0.1302886002714318
 40
0.1404283544246621
 40
0.1497623067613237
 40
0.1593219333134773
 40
0.1656627333936578
 40
0.1725225234707345
 40
0.1789831787571965
 40
0.1845987484616671
 40
0.1914319568648387
 40
0.1985656799442295
 40
0.2065169933717007
 40
0.2154926492548425
 40
0.2245540982216896
 40
0.2347292520994721
 40
0.2459357263428857
 40
0.2559537102904251
 40
0.2644827892327647
 40
0.2703940877962049
 40
0.2768210621051052
 40
0.2841550031144996
 40
0.2923528453779839
 40
0.3005563891620186
 40
0.308567384063467
 40
0.3233081235398832
 40
0.337437242120291
 40
0.3520861610938838
 40
0.367510922982909
 40
0.3738708466018369
 40
0.3803179457575988
 40
0.3859205932306556
 40
0.3904447061555371
 40
0.3938991480953012
 40
0.3963027840564189
 40
0.3988431345750686
 40
0.4023412515233786
 40
0.4071141368640005
 40
0.4129616834278119
 40
0.4198692886552849
 40
0.4278130881547363
 40
0.4367288071357219
 40
0.4456603144921522
 40
0.4588030948550165
 40
0.4708466014376125
 40
0.4817983215467658
 40
0.4906727750869655
 40
0.4987201717260943
 40
0.5058604176158986
 40
0.5116468185615285
 40
0.5163036440290434
 40
0.5198006230096205
 40
0.5220750328769921
 40
0.5243703712316111
 40
0.5275961384465719
 40
0.5317653569108665
 40
0.5368785414090023
 40
0.5429116745029139
 40
0.551113937441515
 40
0.5603866947985728
 40
0.5708815560565286
 40
0.5826193385143388
 40
0.5977527283878712
 40
0.6145534571758393
 40
0.6330236199619097
 40
0.6531654765455658
 40
0.6749814388939597
 40
0.6980398281407837
 40
0.7227180591521964
 40
0.7490187636030815
 40
0.7769446567429498
 40
0.8070509494056624
 40
0.8388479361563905
 40
0.8723386333490241
 40
0.9075260640642049
 40
0.9444132337542158
 40
0.9822990515895318
 40
1.0
 40
1.0
 40
1.0
 40
1.0
 10
460.1415164698035
 20
59.4334810075602
 30
0.0
 10
460.118688970286
 20
59.42018229844058
 30
0.0
 10
460.0768974854294
 20
59.39583566335001
 30
0.0
 10
460.0204717642064
 20
59.36170732471265
 30
0.0
 10
459.9756832548064
 20
59.33403411371922
 30
0.0
 10
459.9420038180173
 20
59.3128373793519
 30
0.0
 10
459.9159077264717
 20
59.29620162954622
 30
0.0
 10
459.8814262363433
 20
59.27399259089776
 30
0.0
 10
459.8329090373524
 20
59.24216580966606
 30
0.0
 10
459.7682887581423
 20
59.19857716260919
 30
0.0
 10
459.7015766192732
 20
59.15218143317701
 30
0.0
 10
459.6333845400708
 20
59.10330422715175
 30
0.0
 10
459.5575627208327
 20
59.04731845489548
 30
0.0
 10
459.4747527370807
 20
58.98394154692259
 30
0.0
 10
459.3857881199895
 20
58.91316412863036
 30
0.0
 10
459.2960794018438
 20
58.83905408054753
 30
0.0
 10
459.2047970377077
 20
58.76060665832521
 30
0.0
 10
459.1141443275743
 20
58.67957193713456
 30
0.0
 10
459.0292455247883
 20
58.60074920298154
 30
0.0
 10
458.9511481828264
 20
58.52565075117484
 30
0.0
 10
458.878643299903
 20
58.45371381473909
 30
0.0
 10
458.8166605090984
 20
58.39031764639334
 30
0.0
 10
458.758939539918
 20
58.32984347530405
 30
0.0
 10
458.7092724116695
 20
58.27537672374535
 30
0.0
 10
458.662547140224
 20
58.22194718856506
 30
0.0
 10
458.6168508629108
 20
58.16772552449508
 30
0.0
 10
458.5705650611649
 20
58.11073136748081
 30
0.0
 10
458.5201335911382
 20
58.0460667204445
 30
0.0
 10
458.4666897139768
 20
57.97456693874089
 30
0.0
 10
458.4110732913277
 20
57.89663637458143
 30
0.0
 10
458.3532336988283
 20
57.81159400031417
 30
0.0
 10
458.2937792845631
 20
57.71981328056762
 30
0.0
 10
458.235424106178
 20
57.62493804017822
 30
0.0
 10
458.1837483339234
 20
57.53674736383881
 30
0.0
 10
458.1438341902436
 20
57.46585583995247
 30
0.0
 10
458.1119426235749
 20
57.40758437201173
 30
0.0
 10
458.0798662697975
 20
57.34751610536058
 30
0.0
 10
458.0437380185612
 20
57.27772646561537
 30
0.0
 10
458.0050875702016
 20
57.20011676379193
 30
0.0
 10
457.9670028901918
 20
57.12047035902866
 30
0.0
 10
457.9206347651229
 20
57.0196851454738
 30
0.0
 10
457.868684377945
 20
56.90010815360917
 30
0.0
 10
457.8119735279558
 20
56.76156227097474
 30
0.0
 10
457.7590697170864
 20
56.61896142832186
 30
0.0
 10
457.7200853503239
 20
56.50068455389935
 30
0.0
 10
457.6912132457762
 20
56.40857341255899
 30
0.0
 10
457.6729524625282
 20
56.34836683134805
 30
0.0
 10
457.6570325947549
 20
56.2942385660234
 30
0.0
 10
457.644330059727
 20
56.24986936766795
 30
0.0
 10
457.6347975951248
 20
56.21583610188698
 30
0.0
 10
457.6271538898105
 20
56.18809560131709
 30
0.0
 10
457.6193661506431
 20
56.15942847161686
 30
0.0
 10
457.6094936367198
 20
56.12241987254314
 30
0.0
 10
457.5968746111849
 20
56.0738650841411
 30
0.0
 10
457.5817256324652
 20
56.01348102186417
 30
0.0
 10
457.5646207525378
 20
55.94216862657099
 30
0.0
 10
457.5460791754586
 20
55.86039943376377
 30
0.0
 10
457.5273697255824
 20
55.77194046068075
 30
0.0
 10
457.5067576878026
 20
55.66602891353571
 30
0.0
 10
457.486717642415
 20
55.54994978719436
 30
0.0
 10
457.4689081382891
 20
55.42770925997471
 30
0.0
 10
457.45619649071
 20
55.32050292874159
 30
0.0
 10
457.4475613284411
 20
55.22715470017496
 30
0.0
 10
457.4421522793973
 20
55.14687221452029
 30
0.0
 10
457.4391398364945
 20
55.07689572316869
 30
0.0
 10
457.4382243441827
 20
55.01920657824018
 30
0.0
 10
457.4378077924105
 20
54.97399469740498
 30
0.0
 10
457.4376011392941
 20
54.94046252204211
 30
0.0
 10
457.4374975184477
 20
54.91495122072525
 30
0.0
 10
457.4374332754575
 20
54.89080426932268
 30
0.0
 10
457.4374006611916
 20
54.86082994997947
 30
0.0
 10
457.4374294122113
 20
54.82234460378204
 30
0.0
 10
457.4375541959127
 20
54.77538709007544
 30
0.0
 10
457.4378154048622
 20
54.71626726093677
 30
0.0
 10
457.4382440840807
 20
54.64464327785808
 30
0.0
 10
457.4387959467668
 20
54.55952092189216
 30
0.0
 10
457.439392656904
 20
54.46363887629261
 30
0.0
 10
457.4400883698054
 20
54.3499362247366
 30
0.0
 10
457.4408773947036
 20
54.21704428225914
 30
0.0
 10
457.4417578479028
 20
54.06365533030922
 30
0.0
 10
457.4426889167476
 20
53.89500100279741
 30
0.0
 10
457.4436611731551
 20
53.71104648404558
 30
0.0
 10
457.4446576983963
 20
53.51307647048341
 30
0.0
 10
457.4456681503141
 20
53.30123393604706
 30
0.0
 10
457.4466820454862
 20
53.07566101164489
 30
0.0
 10
457.4476938721647
 20
52.83517508780857
 30
0.0
 10
457.4486989787178
 20
52.57804979473822
 30
0.0
 10
457.4496847017931
 20
52.30405696620678
 30
0.0
 10
457.45063803953
 20
52.01296683468289
 30
0.0
 10
457.451540831065
 20
51.70623487736682
 30
0.0
 10
457.4523828602013
 20
51.3838172777679
 30
0.0
 10
457.4531392689585
 20
51.04780768329921
 30
0.0
 10
457.453699568246
 20
50.76512557616249
 30
0.0
 10
457.4539615028748
 20
50.59509637355521
 30
0.0
 10
457.4540449128601
 20
50.54095258454035
 30
0.0
  0
SPLINE
  5
114
330
1F
100
AcDbEntity
  8
0
  6
Continuous
 62
     7
370
    30
100
AcDbSpline
210
0.0
220
0.0
230
1.0
 70
     8
 71
     3
 72
    39
 73
    35
 74
     0
 42
0.000000001
 43
0.00000001
 40
0.0
 40
0.0
 40
0.0
 40
0.0
 40
0.1339703717768491
 40
0.2812679075040395
 40
0.4286677096779035
 40
0.5320033918234772
 40
0.6093829167188243
 40
0.6825294750676235
 40
0.7580980494519165
 40
0.812876614493859
 40
0.8283727838407091
 40
0.8344238395987454
 40
0.8411906211976904
 40
0.8505870711257826
 40
0.85906353265112
 40
0.8668981257122237
 40
0.8739669129605839
 40
0.8808821615316974
 40
0.8893362936208272
 40
0.8977381409901831
 40
0.9060634098260281
 40
0.9143005646252236
 40
0.9224426097063504
 40
0.9304872396821756
 40
0.9384365635113757
 40
0.9462965165446241
 40
0.9540761426668115
 40
0.9617984743723443
 40
0.9693943110858502
 40
0.9769411747690873
 40
0.9844811589351262
 40
0.9920268592533964
 40
0.9995927662863221
 40
1.0
 40
1.0
 40
1.0
 40
1.0
 10
465.6673841599151
 20
51.06431059754547
 30
0.0
 10
465.662280323858
 20
51.49528075728006
 30
0.0
 10
465.6515649300812
 20
52.4000933170833
 30
0.0
 10
465.6309825318467
 20
53.78159902456199
 30
0.0
 10
465.6089505168716
 20
55.06580039302349
 30
0.0
 10
465.5893317160716
 20
56.12640155761857
 30
0.0
 10
465.5709425981793
 20
56.94693772324537
 30
0.0
 10
465.5504597070773
 20
57.6768915492223
 30
0.0
 10
465.5284691737559
 20
58.33175164431585
 30
0.0
 10
465.5097773133437
 20
58.80229885626014
 30
0.0
 10
465.4988165604337
 20
59.0455735021438
 30
0.0
 10
465.49456029249
 20
59.13825829436929
 30
0.0
 10
465.4896744128586
 20
59.21285416670431
 30
0.0
 10
465.4817516662796
 20
59.29530899875203
 30
0.0
 10
465.4695565845689
 20
59.38128222730334
 30
0.0
 10
465.4544693897979
 20
59.45922833407431
 30
0.0
 10
465.4365190103376
 20
59.53059019169397
 30
0.0
 10
465.4151497437331
 20
59.6013621692691
 30
0.0
 10
465.3886762212313
 20
59.67476462595424
 30
0.0
 10
465.3562655080713
 20
59.75001403968318
 30
0.0
 10
465.3197820014113
 20
59.8220444965002
 30
0.0
 10
465.2794155511645
 20
59.89052801601653
 30
0.0
 10
465.2353544013592
 20
59.95524478562929
 30
0.0
 10
465.1878016395279
 20
60.01600324845057
 30
0.0
 10
465.13696947885
 20
60.07264721306453
 30
0.0
 10
465.0830593932148
 20
60.12505817336415
 30
0.0
 10
465.0262899818883
 20
60.1731319762361
 30
0.0
 10
464.9669097531547
 20
60.21674080304022
 30
0.0
 10
464.9052498067073
 20
60.25572911676667
 30
0.0
 10
464.8416028317123
 20
60.290032443875
 30
0.0
 10
464.7759455880488
 20
60.31996007039771
 30
0.0
 10
464.708217862517
 20
60.34483368419365
 30
0.0
 10
464.6610764079126
 20
60.36005685144159
 30
0.0
 10
464.6362721417721
 20
60.36565002029008
 30
0.0
 10
464.6350052466129
 20
60.36593569528247
 30
0.0
  0
SPLINE
  5
115
330
1F
100
AcDbEntity
  8
0
  6
Continuous
 62
     7
370
    30
100
AcDbSpline
210
0.0
220
0.0
230
1.0
 70
     8
 71
     3
 72
    68
 73
    64
 74
     0
 42
0.000000001
 43
0.00000001
 40
0.0
 40
0.0
 40
0.0
 40
0.0
 40
0.0016423420338987
 40
0.0137458688948055
 40
0.0322456294270369
 40
0.0489860370104853
 40
0.0694872253220569
 40
0.0859813581880496
 40
0.104908301166921
 40
0.1235486778847768
 40
0.1377279169626177
 40
0.1516854497025009
 40
0.1633032072981699
 40
0.1765268515845261
 40
0.1924591027567528
 40
0.2074644672177544
 40
0.2485764886585562
 40
0.2885193798453355
 40
0.3287685361475306
 40
0.3700517051232727
 40
0.4127911774724385
 40
0.4618108122851591
 40
0.4705233103445506
 40
0.4782218771280745
 40
0.4850236873042272
 40
0.49266911923441
 40
0.5031479647377994
 40
0.5152161769821678
 40
0.5263074288383313
 40
0.5428533578410455
 40
0.5574611505087088
 40
0.5717858713988451
 40
0.5857648988446038
 40
0.6005893061581796
 40
0.6180634178125768
 40
0.6365761157520726
 40
0.655618051225856
 40
0.6720836603322257
 40
0.6871879914704986
 40
0.7022344331086353
 40
0.7190480011918646
 40
0.7374315928711477
 40
0.7568113095763946
 40
0.7735904313508087
 40
0.7883303588464212
 40
0.802365045146726
 40
0.8142669583586115
 40
0.8280052137350832
 40
0.8428684298300495
 40
0.8581287779840391
 40
0.8712426688258313
 40
0.8802016551295319
 40
0.8873853086153372
 40
0.8949305775741115
 40
0.9044907492732251
 40
0.9160437082275361
 40
0.9277365620010843
 40
0.9363936159327139
 40
0.9445897620377145
 40
0.9536999604938057
 40
0.9659966307325064
 40
0.9814557753069852
 40
1.0
 40
1.0
 40
1.0
 40
1.0
 10
464.6349998785353
 20
60.36576709426962
 30
0.0
 10
464.6325982284962
 20
60.36639816127616
 30
0.0
 10
464.6124971984489
 20
60.37167998696109
 30
0.0
 10
464.5651200618219
 20
60.38357353106517
 30
0.0
 10
464.4942469455521
 20
60.40078302304262
 30
0.0
 10
464.407927096794
 20
60.41917498006245
 30
0.0
 10
464.3246086035597
 20
60.43474925647553
 30
0.0
 10
464.2374493660796
 20
60.44880094769646
 30
0.0
 10
464.1529913883085
 20
60.46042090297011
 30
0.0
 10
464.0719615316044
 20
60.4696106497175
 30
0.0
 10
463.9986169606816
 20
60.47643866608017
 30
0.0
 10
463.9362734316454
 20
60.48118507579682
 30
0.0
 10
463.8753627048656
 20
60.48490530483695
 30
0.0
 10
463.8113163859485
 20
60.48789596720967
 30
0.0
 10
463.7419983485622
 20
60.48998513288535
 30
0.0
 10
463.6288815305298
 20
60.49144467319901
 30
0.0
 10
463.4779317688315
 20
60.48873908044587
 30
0.0
 10
463.287711943322
 20
60.47716813688121
 30
0.0
 10
463.0976689406148
 20
60.4578629546905
 30
0.0
 10
462.9047893598588
 20
60.43070000202895
 30
0.0
 10
462.6993625832101
 20
60.39377278690964
 30
0.0
 10
462.545534869007
 20
60.35973494690926
 30
0.0
 10
462.4459386556682
 20
60.335140775768
 30
0.0
 10
462.4106648584677
 20
60.32617129518121
 30
0.0
 10
462.3771282301977
 20
60.31742633229671
 30
0.0
 10
462.3392347601407
 20
60.30730137418074
 30
0.0
 10
462.2932482240233
 20
60.29463215803242
 30
0.0
 10
462.2419941616079
 20
60.28000547837676
 30
0.0
 10
462.1811622960191
 20
60.26188830373423
 30
0.0
 10
462.1162728438647
 20
60.24218200647659
 30
0.0
 10
462.0485769730221
 20
60.22133537438064
 30
0.0
 10
461.9848804353096
 20
60.20145372010825
 30
0.0
 10
461.9209149498785
 20
60.18121371028649
 30
0.0
 10
461.8523655646769
 20
60.1592107640576
 30
0.0
 10
461.7772088004122
 20
60.13468492234263
 30
0.0
 10
461.6959689007556
 20
60.10766345549083
 30
0.0
 10
461.6163743046287
 20
60.08063740263185
 30
0.0
 10
461.5419620721436
 20
60.05485479001045
 30
0.0
 10
461.4735436701232
 20
60.03070574000764
 30
0.0
 10
461.4047414309586
 20
60.00597597442829
 30
0.0
 10
461.3312858912225
 20
59.97904841094908
 30
0.0
 10
461.2517109349921
 20
59.94921711945413
 30
0.0
 10
461.172416440778
 20
59.91874570140203
 30
0.0
 10
461.0986585944639
 20
59.88969949512717
 30
0.0
 10
461.032825369279
 20
59.86319990909934
 30
0.0
 10
460.9741975024439
 20
59.83911302584534
 30
0.0
 10
460.9171656504835
 20
59.81523622375846
 30
0.0
 10
460.8590980993275
 20
59.79046129524888
 30
0.0
 10
460.7964100242171
 20
59.76313128581105
 30
0.0
 10
460.7349004279199
 20
59.73568814931323
 30
0.0
 10
460.6808322123157
 20
59.71101830613802
 30
0.0
 10
460.6379453593394
 20
59.69104554269212
 30
0.0
 10
460.6055325289518
 20
59.67579825789997
 30
0.0
 10
460.5739768377007
 20
59.66078529480841
 30
0.0
 10
460.5341652906164
 20
59.64156674447101
 30
0.0
 10
460.4883578500591
 20
59.61905826974974
 30
0.0
 10
460.4437872277175
 20
59.59671987446656
 30
0.0
 10
460.4040860737977
 20
59.57646779729815
 30
0.0
 10
460.3680740508499
 20
59.55782406424569
 30
0.0
 10
460.3271565758504
 20
59.53631667840721
 30
0.0
 10
460.2764060852442
 20
59.50910974937597
 30
0.0
 10
460.2129481466568
 20
59.47430448795425
 30
0.0
 10
460.166724177564
 20
59.44788730584357
 30
0.0
 10
460.1415152736371
 20
59.43348031702529
 30
0.0
  0
LINE
  5
116
330
1F
100
AcDbEntity
  8
0
  6
Continuous
 62
     7
370
    30
100
AcDbLine
 10
466.3344172654
 20
50.1528280096
 30
0.0
 11
465.8442214419
 21
50.4288691924
 31
0.0
  0
LINE
  5
117
330
1F
100
AcDbEntity
  8
0
  6
Continuous
 62
     7
370
    30
100
AcDbLine
 10
457.4433514147
 20
55.1596032946
 30
0.0
 11
456.798551584
 21
55.5227057516
 31
0.0
  0
LINE
  5
118
330
1F
100
AcDbEntity
  8
0
  6
Continuous
 62
     7
370
    30
100
AcDbLine
 10
452.1625182357
 20
39.9594245502
 30
0.0
 11
458.3400296698
 21
36.3046420387
 31
0.0
  0
SPLINE
  5
119
330
1F
100
AcDbEntity
  8
0
  6
Continuous
 62
     7
370
    30
100
AcDbSpline
210
0.0
220
0.0
230
1.0
 70
     8
 71
     3
 72
   134
 73
   130
 74
     0
 42
0.000000001
 43
0.00000001
 40
0.0
 40
0.0
 40
0.0
 40
0.0
 40
0.0018338149707894
 40
0.009433376900523
 40
0.0170321811473422
 40
0.0246335155476035
 40
0.0322413070342363
 40
0.0398593407698396
 40
0.0474911866278403
 40
0.055140130707752
 40
0.0628091135571358
 40
0.0705006768123014
 40
0.078216919972808
 40
0.0859594689222383
 40
0.0937294575599169
 40
0.1015275234934305
 40
0.109353818163379
 40
0.1172080310635038
 40
0.1250894269440356
 40
0.132996894128258
 40
0.1409290014247523
 40
0.1488840606633908
 40
0.1568601916801914
 40
0.1648553866448444
 40
0.172867570945523
 40
0.1808946583640695
 40
0.1889345989141854
 40
0.1969854183923681
 40
0.2050452493312222
 40
0.2131123535904866
 40
0.2211851372394352
 40
0.2292621586649184
 40
0.2373421309897351
 40
0.2454239199267625
 40
0.2535065381513011
 40
0.2615888950475648
 40
0.2696703009794846
 40
0.277750192125877
 40
0.285828108171896
 40
0.2939036813403392
 40
0.301976625870522
 40
0.3100467281331464
 40
0.3181138374939293
 40
0.3261778579824405
 40
0.3342387407806937
 40
0.3422964775158828
 40
0.3503510943211137
 40
0.358402646614972
 40
0.3664512145433008
 40
0.3744968990233927
 40
0.3825398183304912
 40
0.3905801051683828
 40
0.3986179041688116
 40
0.4066533697684588
 40
0.4146866644164151
 40
0.4227179570694066
 40
0.4307474219363668
 40
0.4387752374379154
 40
0.4468015853500586
 40
0.4548266501048947
 40
0.4628506182240028
 40
0.4708736778629931
 40
0.4788960184479098
 40
0.4869178303861504
 40
0.4949393048361909
 40
0.5029606335216658
 40
0.5109820085763777
 40
0.5190035664476
 40
0.5270254915703773
 40
0.5350479765744571
 40
0.5430712139887505
 40
0.5510953960648836
 40
0.5591207145604606
 40
0.5671473604673762
 40
0.5751755236696695
 40
0.5832053925138827
 40
0.5912371532729478
 40
0.599270989482347
 40
0.6073070811247062
 40
0.6153456036359082
 40
0.6233867267024497
 40
0.631430612815969
 40
0.639477415546734
 40
0.6475272774934804
 40
0.6555803278624425
 40
0.6636366796237413
 40
0.6716964261889851
 40
0.6797596375501045
 40
0.6878263558167108
 40
0.6958965900881839
 40
0.7039703105983023
 40
0.7120474420753479
 40
0.720127856271011
 40
0.7282113636285636
 40
0.7362977040867872
 40
0.7443865370536626
 40
0.7524774306348522
 40
0.7605698502700236
 40
0.7686631470164014
 40
0.7767563146659828
 40
0.7848483364426712
 40
0.7929381019514192
 40
0.8010243430718322
 40
0.809105629674441
 40
0.8171803696325427
 40
0.8252468143097235
 40
0.8333030707388612
 40
0.8413471216139643
 40
0.8493768539875383
 40
0.8573900971839755
 40
0.8653846699016551
 40
0.8733584358049622
 40
0.8813093661520927
 40
0.8892356072425283
 40
0.897135549794796
 40
0.9050078968800886
 40
0.9128517268237407
 40
0.9206665475931873
 40
0.928452339618487
 40
0.936209584690176
 40
0.9439392794576913
 40
0.9516429329959625
 40
0.9593225488039313
 40
0.9669805923536641
 40
0.9746199458642467
 40
0.9822438523125882
 40
0.9898558508303525
 40
0.9974597056165423
 40
1.0
 40
1.0
 40
1.0
 40
1.0
 10
458.339521904926
 20
36.30547250917833
 30
0.0
 10
458.3479095460611
 20
36.30034638306555
 30
0.0
 10
458.391056636359
 20
36.27397693989272
 30
0.0
 10
458.4714524659973
 20
36.23062538416051
 30
0.0
 10
458.5806830054531
 20
36.17565769298757
 30
0.0
 10
458.6924311097654
 20
36.12544195162025
 30
0.0
 10
458.806376400496
 20
36.07955911737353
 30
0.0
 10
458.9225353569951
 20
36.03815235826201
 30
0.0
 10
459.0408350223532
 20
36.00121512510347
 30
0.0
 10
459.161225463687
 20
35.96878254037146
 30
0.0
 10
459.2836485650815
 20
35.94087978254888
 30
0.0
 10
459.4080453981236
 20
35.91753550874398
 30
0.0
 10
459.5343532811368
 20
35.89877761661008
 30
0.0
 10
459.662505712287
 20
35.88463359136081
 30
0.0
 10
459.7924316792755
 20
35.87512949119139
 30
0.0
 10
459.9240553292024
 20
35.87028921419864
 30
0.0
 10
460.0572957674167
 20
35.87013365491849
 30
0.0
 10
460.1920670679892
 20
35.87467991018027
 30
0.0
 10
460.3282784779053
 20
35.88394054524439
 30
0.0
 10
460.4658348068339
 20
35.89792296651918
 30
0.0
 10
460.6046369750421
 20
35.9166289286192
 30
0.0
 10
460.7445826832599
 20
35.94005419601264
 30
0.0
 10
460.8855671610283
 20
35.96818836699077
 30
0.0
 10
461.0274839477381
 20
36.0010148561322
 30
0.0
 10
461.1702256624532
 20
36.03851102096441
 30
0.0
 10
461.3136847242937
 20
36.08064841046875
 30
0.0
 10
461.4577539934987
 20
36.12739310796352
 30
0.0
 10
461.6023273130224
 20
36.17870613889106
 30
0.0
 10
461.7472999403434
 20
36.23454391478752
 30
0.0
 10
461.8925688680669
 20
36.29485868765695
 30
0.0
 10
462.0380330391232
 20
36.35959899334747
 30
0.0
 10
462.1835934676115
 20
36.42871006758709
 30
0.0
 10
462.3291532795645
 20
36.50213422345665
 30
0.0
 10
462.4746176892372
 20
36.57981118371449
 30
0.0
 10
462.6198924761186
 20
36.66167754804146
 30
0.0
 10
462.7648855190127
 20
36.74766776795081
 30
0.0
 10
462.9095067213619
 20
36.83771440363785
 30
0.0
 10
463.0536692862543
 20
36.9317493009874
 30
0.0
 10
463.1972879211966
 20
37.02970277802643
 30
0.0
 10
463.3402786337594
 20
37.13150366308039
 30
0.0
 10
463.4825586051253
 20
37.23707934981473
 30
0.0
 10
463.6240460772525
 20
37.34635583437456
 30
0.0
 10
463.7646602550714
 20
37.45925773897891
 30
0.0
 10
463.9043212242047
 20
37.57570832572336
 30
0.0
 10
464.0429498840249
 20
37.69562950377757
 30
0.0
 10
464.1804678954004
 20
37.81894183260988
 30
0.0
 10
464.3167976421626
 20
37.94556452337562
 30
0.0
 10
464.451862205139
 20
38.0754154401627
 30
0.0
 10
464.5855853475013
 20
38.20841110240379
 30
0.0
 10
464.7178915101496
 20
38.34446668944806
 30
0.0
 10
464.848705815878
 20
38.48349604800867
 30
0.0
 10
464.9779540811226
 20
38.62541170298815
 30
0.0
 10
465.1055628341653
 20
38.77012487200658
 30
0.0
 10
465.2314593387542
 20
38.91754548381006
 30
0.0
 10
465.355571622195
 20
39.06758220063465
 30
0.0
 10
465.4778285070556
 20
39.22014244450907
 30
0.0
 10
465.5981596457119
 20
39.37513242741307
 30
0.0
 10
465.7164955570527
 20
39.53245718516656
 30
0.0
 10
465.8327676647265
 20
39.69202061487732
 30
0.0
 10
465.9469083363904
 20
39.85372551575607
 30
0.0
 10
466.0588509234777
 20
40.01747363308723
 30
0.0
 10
466.1685298010583
 20
40.18316570512432
 30
0.0
 10
466.2758804074133
 20
40.35070151267771
 30
0.0
 10
466.3808392829835
 20
40.51997993114596
 30
0.0
 10
466.4833441083999
 20
40.69089898474475
 30
0.0
 10
466.5833337413132
 20
40.86335590265848
 30
0.0
 10
466.6807480252934
 20
41.03724677255073
 30
0.0
 10
466.7755280456611
 20
41.21246693105855
 30
0.0
 10
466.8676161997527
 20
41.38891108562402
 30
0.0
 10
466.9569564266208
 20
41.56647379586519
 30
0.0
 10
467.0434940362359
 20
41.74504919256132
 30
0.0
 10
467.1271757027267
 20
41.92453098057076
 30
0.0
 10
467.2079494873048
 20
42.10481250102212
 30
0.0
 10
467.2857648586673
 20
42.28578679309904
 30
0.0
 10
467.360572710791
 20
42.46734665503328
 30
0.0
 10
467.4323253780556
 20
42.64938470388103
 30
0.0
 10
467.5009766476526
 20
42.83179343363356
 30
0.0
 10
467.5664817692788
 20
43.01446527116022
 30
0.0
 10
467.6287974621496
 20
43.19729262944661
 30
0.0
 10
467.6878819194091
 20
43.3801679575292
 30
0.0
 10
467.7436948100825
 20
43.56298378648431
 30
0.0
 10
467.7961972787814
 20
43.74563277076067
 30
0.0
 10
467.8453519434642
 20
43.92800772409679
 30
0.0
 10
467.8911228916509
 20
44.11000164919317
 30
0.0
 10
467.9334756756346
 20
44.29150776026459
 30
0.0
 10
467.9723773073665
 20
44.47241949754528
 30
0.0
 10
468.0077962538838
 20
44.65263053278541
 30
0.0
 10
468.039702434356
 20
44.83203476476812
 30
0.0
 10
468.0680672200689
 20
45.01052630389758
 30
0.0
 10
468.0928634389481
 20
45.18799944496828
 30
0.0
 10
468.1140653865297
 20
45.36434862735871
 30
0.0
 10
468.1316488456349
 20
45.53946838209928
 30
0.0
 10
468.1455911173623
 20
45.71325326556834
 30
0.0
 10
468.1558710663829
 20
45.88559778003238
 30
0.0
 10
468.1624691838801
 20
46.05639628182744
 30
0.0
 10
468.1653676717804
 20
46.22554287879414
 30
0.0
 10
468.1645505521329
 20
46.39293131959231
 30
0.0
 10
468.1600038055701
 20
46.55845487870004
 30
0.0
 10
468.1517156214892
 20
46.72200468554379
 30
0.0
 10
468.1396767390275
 20
46.88347057044996
 30
0.0
 10
468.1238807477851
 20
47.04274139356853
 30
0.0
 10
468.1043241785509
 20
47.19970647440854
 30
0.0
 10
468.0810068265451
 20
47.3542546943987
 30
0.0
 10
468.0539321370997
 20
47.50627418630966
 30
0.0
 10
468.0231075852794
 20
47.65565247588534
 30
0.0
 10
467.9885450649502
 20
47.80227671289304
 30
0.0
 10
467.950261270495
 20
47.94603400327217
 30
0.0
 10
467.9082780502936
 20
48.08681185013329
 30
0.0
 10
467.8626227077332
 20
48.22449870524627
 30
0.0
 10
467.8133282235395
 20
48.35898462464942
 30
0.0
 10
467.7604333732509
 20
48.49016201251731
 30
0.0
 10
467.7039827162739
 20
48.6179264272706
 30
0.0
 10
467.6440264383779
 20
48.74217741423482
 30
0.0
 10
467.5806200377267
 20
48.86281932141091
 30
0.0
 10
467.5138238547896
 20
48.97976205019867
 30
0.0
 10
467.4437024584128
 20
49.09292169339326
 30
0.0
 10
467.3703239102476
 20
49.20222101494028
 30
0.0
 10
467.2937589448156
 20
49.30758974470005
 30
0.0
 10
467.2140800896839
 20
49.40896463971072
 30
0.0
 10
467.1313608265933
 20
49.50628940810496
 30
0.0
 10
467.0456746223192
 20
49.59951412694079
 30
0.0
 10
466.9570946614023
 20
49.68859558235143
 30
0.0
 10
466.8656913652055
 20
49.77349334986238
 30
0.0
 10
466.7715386683818
 20
49.85418103335675
 30
0.0
 10
466.6746883839299
 20
49.93060069697126
 30
0.0
 10
466.5752639349146
 20
50.00282828143719
 30
0.0
 10
466.4731106544839
 20
50.07045389642877
 30
0.0
 10
466.3921627486672
 20
50.120597922882
 30
0.0
 10
466.3444696579313
 20
50.1467159044469
 30
0.0
 10
466.332526370377
 20
50.15325636050343
 30
0.0
  0
SPLINE
  5
11A
330
1F
100
AcDbEntity
  8
0
  6
Continuous
 62
     7
370
    30
100
AcDbSpline
210
0.0
220
0.0
230
1.0
 70
     8
 71
     3
 72
    24
 73
    20
 74
     0
 42
0.000000001
 43
0.00000001
 40
0.0
 40
0.0
 40
0.0
 40
0.0
 40
0.0574722528487667
 40
0.1329090353609144
 40
0.2027630144228114
 40
0.2683753889542963
 40
0.330817242804931
 40
0.3968545181346303
 40
0.4601610261369402
 40
0.5212117525839418
 40
0.579434962774807
 40
0.637298246937153
 40
0.6949798446917606
 40
0.7525760447446175
 40
0.8101331547498565
 40
0.8676629675297848
 40
0.9251542570390182
 40
0.9826554166421586
 40
1.0
 40
1.0
 40
1.0
 40
1.0
 10
465.9515480444161
 20
50.33772276988262
 30
0.0
 10
465.9438405488022
 20
50.3420575513618
 30
0.0
 10
465.9260163683268
 20
50.35208206921772
 30
0.0
 10
465.9000309228043
 20
50.37181544258955
 30
0.0
 10
465.8732101323301
 20
50.39598136299571
 30
0.0
 10
465.8483309994224
 20
50.42289657218453
 30
0.0
 10
465.8242440788521
 20
50.45353505814844
 30
0.0
 10
465.8009578306473
 20
50.48843381132266
 30
0.0
 10
465.7787059936842
 20
50.52789905938128
 30
0.0
 10
465.7583469294104
 20
50.57065558028416
 30
0.0
 10
465.7397853206839
 20
50.61683433244028
 30
0.0
 10
465.7230560432371
 20
50.66645208229152
 30
0.0
 10
465.7081330619072
 20
50.7200263124284
 30
0.0
 10
465.6952222826587
 20
50.77743096551072
 30
0.0
 10
465.6845413027589
 20
50.83851221216896
 30
0.0
 10
465.676203860911
 20
50.90302126878692
 30
0.0
 10
465.6706254749707
 20
50.97092001200961
 30
0.0
 10
465.6678344018693
 20
51.02497296785958
 30
0.0
 10
465.6678078144332
 20
51.05707189404684
 30
0.0
 10
465.6678016531209
 20
51.06451042667316
 30
0.0
  0
LINE
  5
11B
330
1F
100
AcDbEntity
  8
0
  6
Continuous
 62
     7
370
    30
100
AcDbLine
 10
337.3658596241
 20
79.4312413215
 30
0.0
 11
337.2682347615
 21
78.9541562098
 31
0.0
  0
LINE
  5
11C
330
1F
100
AcDbEntity
  8
0
  6
Continuous
 62
     7
370
    30
100
AcDbLine
 10
360.7810130701
 20
74.1427888149
 30
0.0
 11
360.9353907433
 21
74.8972204987
 31
0.0
  0
LINE
  5
11D
330
1F
100
AcDbEntity
  8
0
  6
Continuous
 62
     7
370
    30
100
AcDbLine
 10
340.8265217762
 20
74.3540959215
 30
0.0
 11
341.5195370701
 21
73.9538966689
 31
0.0
  0
LINE
  5
11E
330
1F
100
AcDbEntity
  8
0
  6
Continuous
 62
     7
370
    30
100
AcDbLine
 10
354.907287325
 20
71.2143911871
 30
0.0
 11
355.1894880156
 21
71.2484215877
 31
0.0
  0
ARC
  5
11F
330
1F
100
AcDbEntity
  8
0
  6
Continuous
 62
     7
370
    30
100
AcDbCircle
 10
408.6931749725
 20
59.5406191174
 30
0.0
 40
5.000000000000234
100
AcDbArc
 50
182.473256442
 51
246.9356940249
  0
LINE
  5
120
330
1F
100
AcDbEntity
  8
0
  6
Continuous
 62
     7
370
    30
100
AcDbLine
 10
404.2603413225
 20
60.6687527908
 30
0.0
 11
404.167088302
 21
60.6013160623
 31
0.0
  0
LINE
  5
121
330
1F
100
AcDbEntity
  8
0
  6
Continuous
 62
     7
370
    30
100
AcDbLine
 10
408.0943048082
 20
54.9306415594
 30
0.0
 11
408.1868420035
 21
54.9919743636
 31
0.0
  0
ARC
  5
122
330
1F
100
AcDbEntity
  8
0
  6
Continuous
 62
     7
370
    30
100
AcDbCircle
 10
409.9573090064
 20
45.6453254681
 30
0.0
 40
5.000000000000101
100
AcDbArc
 50
182.473256442
 51
246.9356940249
  0
LINE
  5
123
330
1F
100
AcDbEntity
  8
0
  6
Continuous
 62
     7
370
    30
100
AcDbLine
 10
405.5233641068
 20
46.7726555318
 30
0.0
 11
405.4312223358
 21
46.7060224131
 31
0.0
  0
LINE
  5
124
330
1F
100
AcDbEntity
  8
0
  6
Continuous
 62
     7
370
    30
100
AcDbLine
 10
409.3584388421
 20
41.0353479102
 30
0.0
 11
409.4498845133
 21
41.0959572622
 31
0.0
  0
SPLINE
  5
125
330
1F
100
AcDbEntity
  8
0
  6
Continuous
 62
     7
370
    30
100
AcDbSpline
210
0.0
220
0.0
230
1.0
 70
     8
 71
     3
 72
    28
 73
    24
 74
     0
 42
0.000000001
 43
0.00000001
 40
0.0
 40
0.0
 40
0.0
 40
0.0
 40
0.0198768781049892
 40
0.064695575398923
 40
0.1101797069164689
 40
0.1556638371728822
 40
0.2018328139120674
 40
0.2508403756147126
 40
0.3001880733091143
 40
0.3506085834937326
 40
0.4013998214276052
 40
0.4504006703084204
 40
0.4997416143492335
 40
0.5501552559371301
 40
0.6009395902253013
 40
0.6499379460503764
 40
0.69981272377897
 40
0.7496874982441969
 40
0.800469590504569
 40
0.8494679106103546
 40
0.8993427952602215
 40
0.9492176794383015
 40
1.0
 40
1.0
 40
1.0
 40
1.0
 10
336.7158662958549
 20
83.19908498586896
 30
0.0
 10
336.708272993373
 20
83.19210755876931
 30
0.0
 10
336.6835581930579
 20
83.16939731933275
 30
0.0
 10
336.6422994295832
 20
83.12810795705299
 30
0.0
 10
336.5929676258071
 20
83.07387908980184
 30
0.0
 10
336.5450305418213
 20
83.01581612216495
 30
0.0
 10
336.498096972887
 20
82.95325810978336
 30
0.0
 10
336.4525584543613
 20
82.88616736576697
 30
0.0
 10
336.4088620136353
 20
82.81459091632664
 30
0.0
 10
336.3682172332799
 20
82.74008368130096
 30
0.0
 10
336.3315813354565
 20
82.66419239877037
 30
0.0
 10
336.2993061078634
 20
82.58787262525378
 30
0.0
 10
336.2713600706353
 20
82.51130889420881
 30
0.0
 10
336.2476380662258
 20
82.43392279760363
 30
0.0
 10
336.228758753924
 20
82.35737256632184
 30
0.0
 10
336.2147845941984
 20
82.2822995345897
 30
0.0
 10
336.2057707570477
 20
82.20938526162712
 30
0.0
 10
336.2016575418906
 20
82.13784603767186
 30
0.0
 10
336.2026639540418
 20
82.06951125888233
 30
0.0
 10
336.208664141635
 20
82.0043970091045
 30
0.0
 10
336.2196374444065
 20
81.94342634205991
 30
0.0
 10
336.2353166874292
 20
81.88551164280982
 30
0.0
 10
336.2499111423086
 20
81.85077907646503
 30
0.0
 10
336.2572741551007
 20
81.83325623423403
 30
0.0
  0
SPLINE
  5
126
330
1F
100
AcDbEntity
  8
0
  6
Continuous
 62
     7
370
    30
100
AcDbSpline
210
0.0
220
0.0
230
1.0
 70
     8
 71
     3
 72
    18
 73
    14
 74
     0
 42
0.000000001
 43
0.00000001
 40
0.0
 40
0.0
 40
0.0
 40
0.0
 40
0.0967505282647755
 40
0.1935007401637028
 40
0.2902514436611076
 40
0.3789700446388326
 40
0.4676881508438444
 40
0.5564064602341563
 40
0.6451251694598872
 40
0.7338441454360134
 40
0.8225630969156612
 40
0.9112817460585347
 40
0.9999999999999999
 40
0.9999999999999999
 40
0.9999999999999999
 40
0.9999999999999999
 10
336.2572741550998
 20
81.83325623423458
 30
0.0
 10
336.3213952156416
 20
81.69799738598631
 30
0.0
 10
336.4496371270548
 20
81.42748013177419
 30
0.0
 10
336.6594216183975
 20
81.04077859512208
 30
0.0
 10
336.8756004516551
 20
80.67886184584543
 30
0.0
 10
337.0979909486145
 20
80.34197110849126
 30
0.0
 10
337.3248415301017
 20
80.02852596679581
 30
0.0
 10
337.5625287617091
 20
79.72895056325511
 30
0.0
 10
337.8108372575834
 20
79.44346094930731
 30
0.0
 10
338.0694992542037
 20
79.17217686136256
 30
0.0
 10
338.3385354706392
 20
78.91567835382334
 30
0.0
 10
338.6168653239061
 20
78.67280085291289
 30
0.0
 10
338.8106387969195
 20
78.52353229114266
 30
0.0
 10
338.9075253176325
 20
78.44889817648894
 30
0.0
  0
SPLINE
  5
127
330
1F
100
AcDbEntity
  8
0
  6
Continuous
 62
     7
370
    30
100
AcDbSpline
210
0.0
220
0.0
230
1.0
 70
     8
 71
     3
 72
    10
 73
     6
 74
     0
 42
0.000000001
 43
0.00000001
 40
0.0
 40
0.0
 40
0.0
 40
0.0
 40
0.0783259143791854
 40
0.5387766125079995
 40
0.9999999999999999
 40
0.9999999999999999
 40
0.9999999999999999
 40
0.9999999999999999
 10
339.124656726598
 20
78.31171395412512
 30
0.0
 10
339.1186456063281
 20
78.3147026109378
 30
0.0
 10
339.0772972091588
 20
78.33526053747151
 30
0.0
 10
339.0042556171463
 20
78.38006702791998
 30
0.0
 10
338.9397867667148
 20
78.42594164057405
 30
0.0
 10
338.9075253176326
 20
78.44889817648874
 30
0.0
  0
LINE
  5
128
330
1F
100
AcDbEntity
  8
0
  6
Continuous
 62
     7
370
    30
100
AcDbLine
 10
334.502013134
 20
81.4079009519
 30
0.0
 11
334.5372197982
 21
81.3825260481
 31
0.0
  0
LINE
  5
129
330
1F
100
AcDbEntity
  8
0
  6
Continuous
 62
     7
370
    30
100
AcDbLine
 10
327.4707810269
 20
87.3658541471
 30
0.0
 11
327.4753114777
 21
87.3613626578
 31
0.0
  0
SPLINE
  5
12A
330
1F
100
AcDbEntity
  8
0
  6
Continuous
 62
     7
370
    30
100
AcDbSpline
210
0.0
220
0.0
230
1.0
 70
     8
 71
     3
 72
     9
 73
     5
 74
     0
 42
0.000000001
 43
0.00000001
 40
0.0
 40
0.0
 40
0.0
 40
0.0
 40
0.7445866545372785
 40
1.0
 40
1.0
 40
1.0
 40
1.0
 10
444.5143726177734
 20
150.927512827298
 30
0.0
 10
444.521405987606
 20
150.8862750673926
 30
0.0
 10
444.5308519933727
 20
150.8308916413613
 30
0.0
 10
444.5374167520472
 20
150.7752599521434
 30
0.0
 10
444.5390934790224
 20
150.7610508762866
 30
0.0
  0
ELLIPSE
  5
12B
330
1F
100
AcDbEntity
  8
0
  6
Continuous
 62
     7
370
    30
100
AcDbEllipse
 10
430.4108139402
 20
38.4733473625
 30
0.0
 11
30.11077126118738
 21
0.1951468337659961
 31
0.0
210
0.0
220
0.0
230
1.0
 40
0.5772553716
 41
3.185915523677633
 42
6.121844696739713
  0
LINE
  5
12C
330
1F
100
AcDbEntity
  8
0
  6
Continuous
 62
     7
370
    30
100
AcDbLine
 10
457.4543576022
 20
50.5483105216
 30
0.0
 11
457.4544910702
 21
50.5409596818
 31
0.0
  0
LINE
  5
12D
330
1F
100
AcDbEntity
  8
0
  6
Continuous
 62
     7
370
    30
100
AcDbLine
 10
466.3329786163
 20
50.1536375613
 30
0.0
 11
466.3344172654
 21
50.1528280096
 31
0.0
  0
ARC
  5
12E
330
1F
100
AcDbEntity
  8
0
  6
Continuous
 62
     7
370
    30
100
AcDbCircle
 10
358.505002358
 20
74.6594971456
 30
0.0
 40
2.333926361473437
100
AcDbArc
 50
312.3879628753
 51
347.2093030969
  0
LINE
  5
12F
330
1F
100
AcDbEntity
  8
0
  6
Continuous
 62
     7
370
    30
100
AcDbLine
 10
360.4462072152
 20
74.733051046
 30
0.0
 11
360.0784123554
 21
72.9356661676
 31
0.0
  0
LINE
  5
130
330
1F
100
AcDbEntity
  8
0
  6
Continuous
 62
     7
370
    30
100
AcDbLine
 10
353.5271846623
 20
71.1807896272
 30
0.0
 11
353.8256695647
 21
72.6394621337
 31
0.0
  0
LWPOLYLINE
  5
131
330
1F
100
AcDbEntity
  8
0
  6
Continuous
 62
     7
370
    30
100
AcDbPolyline
 90
       97
 70
   128
 43
0.0
 10
353.5271846623
 20
71.1807896272
 10
353.2919927974
 20
71.1808491563
 10
353.0548329728
 20
71.1833840436
 10
352.8158145584
 20
71.1883931199
 10
352.5750477809
 20
71.1958740753
 10
352.3326436735
 20
71.2058234597
 10
352.0887140244
 20
71.2182366849
 10
351.8433713253
 20
71.2331080264
 10
351.5967287196
 20
71.250430626
 10
351.3488999501
 20
71.2701964952
 10
351.0999993067
 20
71.2923965186
 10
350.8501415736
 20
71.3170204583
 10
350.5994419763
 20
71.3440569587
 10
350.3480161286
 20
71.3734935515
 10
350.0959799792
 20
71.4053166616
 10
349.8434497583
 20
71.4395116133
 10
349.5905419238
 20
71.476062637
 10
349.337373108
 20
71.5149528768
 10
349.0840600633
 20
71.5561643978
 10
348.8307196088
 20
71.5996781948
 10
348.5774685761
 20
71.6454742007
 10
348.3244237556
 20
71.693531296
 10
348.0717018427
 20
71.7438273185
 10
347.8194193837
 20
71.7963390734
 10
347.5676927224
 20
71.8510423442
 10
347.3166379463
 20
71.9079119037
 10
347.0663708329
 20
71.9669215256
 10
346.8170067966
 20
72.0280439968
 10
346.5686608352
 20
72.0912511297
 10
346.3214474771
 20
72.1565137755
 10
346.0754807284
 20
72.2238018374
 10
345.8308740202
 20
72.2930842844
 10
345.5877401565
 20
72.364329166
 10
345.3461912621
 20
72.4375036265
 10
345.1063387307
 20
72.5125739204
 10
344.8682931738
 20
72.5895054281
 10
344.6321643698
 20
72.6682626713
 10
344.3980612127
 20
72.7488093302
 10
344.1660916627
 20
72.8311082593
 10
343.9363626959
 20
72.9151215053
 10
343.7089802553
 20
73.0008103243
 10
343.4840492015
 20
73.0881351996
 10
343.2616732648
 20
73.1770558601
 10
343.0419549972
 20
73.2675312988
 10
342.8249957249
 20
73.3595197915
 10
342.6108955018
 20
73.4529789164
 10
342.3997530635
 20
73.5478655735
 10
342.1916657812
 20
73.6441360044
 10
341.9867296177
 20
73.7417458126
 10
341.785039082
 20
73.8406499838
 10
341.5866871869
 20
73.9408029071
 10
341.3917654051
 20
74.0421583953
 10
341.2003636278
 20
74.144669707
 10
341.0125701225
 20
74.2482895675
 10
340.8284714931
 20
74.352970191
 10
340.6481526394
 20
74.4586633026
 10
340.4716967179
 20
74.5653201602
 10
340.299185104
 20
74.6728915776
 10
340.1306973539
 20
74.7813279466
 10
339.9663111681
 20
74.8905792602
 10
339.8061023558
 20
75.0005951354
 10
339.6501447997
 20
75.111324837
 10
339.4985104218
 20
75.2227173003
 10
339.3512691505
 20
75.334721155
 10
339.2084888883
 20
75.4472847489
 10
339.0702354805
 20
75.5603561716
 10
338.9365726845
 20
75.6738832787
 10
338.807562141
 20
75.7878137154
 10
338.683263345
 20
75.902094941
 10
338.5637336188
 20
76.0166742531
 10
338.4490280852
 20
76.1314988117
 10
338.3391996424
 20
76.2465156639
 10
338.2342989394
 20
76.3616717679
 10
338.1343743527
 20
76.4769140177
 10
338.0394719639
 20
76.5921892679
 10
337.9496355386
 20
76.7074443574
 10
337.8649065063
 20
76.8226261347
 10
337.7853239411
 20
76.937681482
 10
337.7109245434
 20
77.05255734
 10
337.6417426238
 20
77.1672007318
 10
337.5778100865
 20
77.2815587881
 10
337.5191564149
 20
77.3955787709
 10
337.465808658
 20
77.5092080983
 10
337.4177914179
 20
77.6223943684
 10
337.3751268384
 20
77.7350853837
 10
337.337834595
 20
77.8472291751
 10
337.3059318855
 20
77.9587740259
 10
337.2794334223
 20
78.0696684955
 10
337.2583514256
 20
78.1798614433
 10
337.2426956177
 20
78.2893020522
 10
337.2324732183
 20
78.3979398522
 10
337.2276889419
 20
78.5057247431
 10
337.2283449946
 20
78.6126070186
 10
337.234441074
 20
78.7185373883
 10
337.2459743687
 20
78.8234670007
 10
337.2629395601
 20
78.9273474662
 10
337.2682347615
 20
78.9541562098
  0
ARC
  5
132
330
1F
100
AcDbEntity
  8
0
  6
Continuous
 62
     7
370
    30
100
AcDbCircle
 10
352.7219532958
 20
94.617033674
 30
0.0
 40
23.50445404996899
100
AcDbArc
 50
241.5358865783
 51
275.3347981114
  0
SPLINE
  5
133
330
1F
100
AcDbEntity
  8
0
  6
Continuous
 62
     7
370
    30
100
AcDbSpline
210
0.0
220
0.0
230
1.0
 70
     8
 71
     3
 72
    29
 73
    25
 74
     0
 42
0.000000001
 43
0.00000001
 40
0.0
 40
0.0
 40
0.0
 40
0.0
 40
0.0553537506300835
 40
0.11073227016046
 40
0.1523721517437216
 40
0.1940118620747591
 40
0.2357072912914356
 40
0.277402561275377
 40
0.3328347478446159
 40
0.3883069270999707
 40
0.4308981313739128
 40
0.4734892764590593
 40
0.5161597415986211
 40
0.5588302209548076
 40
0.616666369937817
 40
0.6745507136753559
 40
0.7150925825256964
 40
0.755649541546304
 40
0.7963085940136891
 40
0.8369677969796044
 40
0.8776777778840094
 40
0.9183879156310698
 40
0.9591889827854251
 40
1.0
 40
1.0
 40
1.0
 40
1.0
 10
360.0784123554394
 20
72.935666167555
 30
0.0
 10
359.9521939900908
 20
72.86875290458227
 30
0.0
 10
359.6997007810148
 20
72.73489643725216
 30
0.0
 10
359.3527339427081
 20
72.56172347666086
 30
0.0
 10
359.0374711777487
 20
72.41112739533091
 30
0.0
 10
358.7538018064412
 20
72.28160180106781
 30
0.0
 10
358.4706004822198
 20
72.15838079732805
 30
0.0
 10
358.1569551383195
 20
72.02895660419549
 30
0.0
 10
357.8133796667674
 20
71.89649261534133
 30
0.0
 10
357.4694605000064
 20
71.7749744499896
 30
0.0
 10
357.155920769272
 20
71.67343132295485
 30
0.0
 10
356.8723242724276
 20
71.58898878606824
 30
0.0
 10
356.5901078378807
 20
71.51247910705744
 30
0.0
 10
356.2761501643029
 20
71.43581599599595
 30
0.0
 10
355.9314672169539
 20
71.36270088271306
 30
0.0
 10
355.5946576611813
 20
71.30370050934904
 30
0.0
 10
355.2976936457572
 20
71.26094497949197
 30
0.0
 10
355.0394583058301
 20
71.23035254991585
 30
0.0
 10
354.7829437706211
 20
71.2064358293352
 30
0.0
 10
354.5281064508349
 20
71.18900962850256
 30
0.0
 10
354.2751639346905
 20
71.17785491715068
 30
0.0
 10
354.0239735285035
 20
71.17286016900228
 30
0.0
 10
353.774434826515
 20
71.17331635454148
 30
0.0
 10
353.609608082223
 20
71.17829833382332
 30
0.0
 10
353.5271846623246
 20
71.180789627163
 30
0.0
  0
LWPOLYLINE
  5
134
330
1F
100
AcDbEntity
  8
0
  6
Continuous
 62
     7
370
    30
100
AcDbPolyline
 90
      115
 70
   128
 43
0.0
 10
403.6978326092
 20
59.3248537986
 10
403.6957310778
 20
59.393001653
 10
403.695834612
 20
59.4933905207
 10
403.6998621289
 20
59.5910302496
 10
403.7078071789
 20
59.6857644786
 10
403.7196570388
 20
59.7774414994
 10
403.7353927319
 20
59.8659144995
 10
403.7549890591
 20
59.9510417973
 10
403.7784146386
 20
60.0326870692
 10
403.8056319564
 20
60.1107195676
 10
403.8365974265
 20
60.1850143305
 10
403.8712614604
 20
60.2554523816
 10
403.9095685468
 20
60.3219209207
 10
403.9514573404
 20
60.3843135044
 10
403.9968607601
 20
60.4425302167
 10
404.0457060964
 20
60.4964778287
 10
404.0979151279
 20
60.5460699481
 10
404.1534042465
 20
60.5912271578
 10
404.2120845914
 20
60.6318771425
 10
404.2738621914
 20
60.6679548048
 10
404.3386381152
 20
60.6994023698
 10
404.4063086299
 20
60.7261694769
 10
404.4767653675
 20
60.7482132611
 10
404.5498954977
 20
60.7654984212
 10
404.6255819093
 20
60.7779972765
 10
404.7037033973
 20
60.7856898114
 10
404.7841348572
 20
60.7885637069
 10
404.8667474852
 20
60.7866143607
 10
404.9514089848
 20
60.7798448946
 10
405.0379837782
 20
60.7682661491
 10
405.1263332236
 20
60.7518966667
 10
405.2163158373
 20
60.7307626615
 10
405.3077875204
 20
60.7048979779
 10
405.4006017892
 20
60.6743440356
 10
405.4946100101
 20
60.6391497642
 10
405.5896616372
 20
60.599371524
 10
405.6856044542
 20
60.5550730164
 10
405.7822848171
 20
60.5063251814
 10
405.8795479011
 20
60.4532060842
 10
405.9772379481
 20
60.3958007903
 10
406.0751985164
 20
60.334201229
 10
406.173272731
 20
60.2685060466
 10
406.2713035349
 20
60.1988204479
 10
406.3691339404
 20
60.1252560282
 10
406.4666072812
 20
60.0479305941
 10
406.5635674625
 20
59.9669679755
 10
406.6598592112
 20
59.8824978265
 10
406.7553283248
 20
59.7946554187
 10
406.8498219182
 20
59.7035814235
 10
406.9431886684
 20
59.6094216879
 10
407.0352790569
 20
59.5123270001
 10
407.1259456094
 20
59.4124528486
 10
407.2150431314
 20
59.3099591727
 10
407.3024289415
 20
59.2050101068
 10
407.3879630991
 20
59.0977737174
 10
407.4715086289
 20
58.9884217339
 10
407.5529317403
 20
58.8771292736
 10
407.6321020416
 20
58.7640745614
 10
407.7088927488
 20
58.6494386441
 10
407.7831808882
 20
58.5334051008
 10
407.8548474944
 20
58.4161597489
 10
407.9237777996
 20
58.297890346
 10
407.9898614181
 20
58.1787862901
 10
408.0529925231
 20
58.0590383155
 10
408.1130700158
 20
57.9388381878
 10
408.1699976874
 20
57.8183783966
 10
408.2236843735
 20
57.6978518474
 10
408.2740440996
 20
57.5774515526
 10
408.3209962193
 20
57.4573703224
 10
408.3644655429
 20
57.3378004561
 10
408.4043824582
 20
57.218933434
 10
408.4406830419
 20
57.1009596109
 10
408.4733091619
 20
56.9840679113
 10
408.5022085705
 20
56.8684455266
 10
408.5273349877
 20
56.7542776157
 10
408.5486481759
 20
56.6417470082
 10
408.566114004
 20
56.5310339117
 10
408.5797045021
 20
56.4223156231
 10
408.5893979061
 20
56.3157662451
 10
408.5951786929
 20
56.2115564069
 10
408.5970376052
 20
56.1098529911
 10
408.5949716661
 20
56.0108188665
 10
408.5889841839
 20
55.9146126274
 10
408.5790847472
 20
55.8213883393
 10
408.5652892088
 20
55.7312952926
 10
408.5476196613
 20
55.6444777631
 10
408.5261044007
 20
55.5610747813
 10
408.5007778818
 20
55.4812199096
 10
408.4716806627
 20
55.4050410282
 10
408.43885934
 20
55.3326601308
 10
408.4023664741
 20
55.2641931288
 10
408.362260505
 20
55.1997496661
 10
408.3186056588
 20
55.1394329429
 10
408.2714718448
 20
55.0833395511
 10
408.2209345435
 20
55.0315593191
 10
408.1670746859
 20
54.9841751684
 10
408.1099785237
 20
54.9412629804
 10
408.0497374913
 20
54.9028914751
 10
407.9864480591
 20
54.8691221009
 10
407.9202115795
 20
54.8400089365
 10
407.8511341243
 20
54.815598604
 10
407.7793263148
 20
54.7959301944
 10
407.7049031446
 20
54.7810352047
 10
407.6279837959
 20
54.770937488
 10
407.5486914479
 20
54.765653215
 10
407.4671530802
 20
54.7651908478
 10
407.3834992692
 20
54.7695511268
 10
407.2978639789
 20
54.7787270696
 10
407.2103843464
 20
54.7927039817
 10
407.1212004626
 20
54.8114594803
 10
407.0304551473
 20
54.8349635301
 10
406.9382937209
 20
54.8631784916
 10
406.8448637718
 20
54.896059181
 10
406.7503149195
 20
54.9335529429
 10
406.734354914
 20
54.9402904358
  0
LWPOLYLINE
  5
135
330
1F
100
AcDbEntity
  8
0
  6
Continuous
 62
     7
370
    30
100
AcDbPolyline
 90
      115
 70
   128
 43
0.0
 10
404.9619666431
 20
45.4295601494
 10
404.9598651117
 20
45.4977080038
 10
404.9599686459
 20
45.5980968714
 10
404.9639961628
 20
45.6957366004
 10
404.9719412128
 20
45.7904708294
 10
404.9837910726
 20
45.8821478502
 10
404.9995267658
 20
45.9706208503
 10
405.019123093
 20
46.0557481481
 10
405.0425486725
 20
46.1373934199
 10
405.0697659903
 20
46.2154259183
 10
405.1007314603
 20
46.2897206813
 10
405.1353954943
 20
46.3601587324
 10
405.1737025807
 20
46.4266272715
 10
405.2155913743
 20
46.4890198552
 10
405.260994794
 20
46.5472365675
 10
405.3098401303
 20
46.6011841794
 10
405.3620491618
 20
46.6507762989
 10
405.4175382804
 20
46.6959335086
 10
405.4762186253
 20
46.7365834932
 10
405.5379962253
 20
46.7726611556
 10
405.6027721491
 20
46.8041087206
 10
405.6704426638
 20
46.8308758277
 10
405.7408994014
 20
46.8529196119
 10
405.8140295316
 20
46.8702047719
 10
405.8897159432
 20
46.8827036273
 10
405.9678374312
 20
46.8903961622
 10
406.0482688911
 20
46.8932700577
 10
406.1308815191
 20
46.8913207115
 10
406.2155430187
 20
46.8845512453
 10
406.3021178121
 20
46.8729724999
 10
406.3904672574
 20
46.8566030175
 10
406.4804498712
 20
46.8354690123
 10
406.5719215543
 20
46.8096043286
 10
406.6647358231
 20
46.7790503864
 10
406.758744044
 20
46.743856115
 10
406.8537956711
 20
46.7040778748
 10
406.9497384881
 20
46.6597793672
 10
407.0464188509
 20
46.6110315322
 10
407.143681935
 20
46.557912435
 10
407.241371982
 20
46.500507141
 10
407.3393325503
 20
46.4389075798
 10
407.4374067649
 20
46.3732123974
 10
407.5354375687
 20
46.3035267987
 10
407.6332679743
 20
46.229962379
 10
407.7307413151
 20
46.1526369449
 10
407.8277014964
 20
46.0716743263
 10
407.9239932451
 20
45.9872041773
 10
408.0194623587
 20
45.8993617694
 10
408.1139559521
 20
45.8082877743
 10
408.2073227022
 20
45.7141280387
 10
408.2994130908
 20
45.6170333509
 10
408.3900796432
 20
45.5171591994
 10
408.4791771653
 20
45.4146655234
 10
408.5665629754
 20
45.3097164576
 10
408.6520971329
 20
45.2024800682
 10
408.7356426628
 20
45.0931280847
 10
408.8170657742
 20
44.9818356244
 10
408.8962360755
 20
44.8687809121
 10
408.9730267826
 20
44.7541449949
 10
409.0473149221
 20
44.6381114516
 10
409.1189815283
 20
44.5208660997
 10
409.1879118335
 20
44.4025966968
 10
409.253995452
 20
44.2834926409
 10
409.317126557
 20
44.1637446663
 10
409.3772040497
 20
44.0435445386
 10
409.4341317213
 20
43.9230847474
 10
409.4878184074
 20
43.8025581982
 10
409.5381781335
 20
43.6821579034
 10
409.5851302532
 20
43.5620766732
 10
409.6285995768
 20
43.4425068069
 10
409.6685164921
 20
43.3236397848
 10
409.7048170758
 20
43.2056659617
 10
409.7374431958
 20
43.0887742621
 10
409.7663426043
 20
42.9731518774
 10
409.7914690216
 20
42.8589839665
 10
409.8127822098
 20
42.746453359
 10
409.8302480379
 20
42.6357402624
 10
409.8438385359
 20
42.5270219739
 10
409.8535319399
 20
42.4204725959
 10
409.8593127268
 20
42.3162627577
 10
409.8611716391
 20
42.2145593419
 10
409.8591057
 20
42.1155252173
 10
409.8531182178
 20
42.0193189782
 10
409.843218781
 20
41.9260946901
 10
409.8294232427
 20
41.8360016434
 10
409.8117536952
 20
41.7491841139
 10
409.7902384346
 20
41.6657811321
 10
409.7649119157
 20
41.5859262603
 10
409.7358146966
 20
41.5097473789
 10
409.7029933739
 20
41.4373664815
 10
409.666500508
 20
41.3688994796
 10
409.6263945389
 20
41.3044560168
 10
409.5827396927
 20
41.2441392937
 10
409.5356058787
 20
41.1880459019
 10
409.4850685774
 20
41.1362656699
 10
409.4312087198
 20
41.0888815192
 10
409.3741125576
 20
41.0459693312
 10
409.3138715251
 20
41.0075978259
 10
409.250582093
 20
40.9738284517
 10
409.1843456134
 20
40.9447152873
 10
409.1152681582
 20
40.9203049548
 10
409.0434603487
 20
40.9006365451
 10
408.9690371785
 20
40.8857415555
 10
408.8921178298
 20
40.8756438388
 10
408.8128254818
 20
40.8703595657
 10
408.7312871141
 20
40.8698971985
 10
408.6476333031
 20
40.8742574776
 10
408.5619980128
 20
40.8834334204
 10
408.4745183803
 20
40.8974103325
 10
408.3853344965
 20
40.9161658311
 10
408.2945891812
 20
40.9396698809
 10
408.2024277548
 20
40.9678848424
 10
408.1089978057
 20
41.0007655318
 10
408.0144489534
 20
41.0382592937
 10
407.9984889479
 20
41.0449967866
  0
ENDSEC
  0
SECTION
  2
OBJECTS
  0
DICTIONARY
  5
C
330
0
100
AcDbDictionary
281
     1
  3
ACAD_GROUP
350
D
  3
ACAD_LAYOUT
350
1A
  3
ACAD_MLINESTYLE
350
17
  3
ACAD_PLOTSETTINGS
350
19
  3
ACAD_PLOTSTYLENAME
350
E
  3
ACAD_SCALELIST
350
47
  0
DICTIONARY
  5
D
102
{ACAD_REACTORS
330
C
102
}
330
C
100
AcDbDictionary
281
     1
  0
DICTIONARY
  5
1A
102
{ACAD_REACTORS
330
C
102
}
330
C
100
AcDbDictionary
281
     1
  3
Layout1
350
1E
  3
Layout2
350
26
  3
Model
350
22
  0
DICTIONARY
  5
17
102
{ACAD_REACTORS
330
C
102
}
330
C
100
AcDbDictionary
281
     1
  3
Standard
350
18
  0
DICTIONARY
  5
19
102
{ACAD_REACTORS
330
C
102
}
330
C
100
AcDbDictionary
281
     1
  0
ACDBDICTIONARYWDFLT
  5
E
102
{ACAD_REACTORS
330
C
102
}
330
C
100
AcDbDictionary
281
     1
  3
Normal
350
F
100
AcDbDictionaryWithDefault
340
F
  0
DICTIONARY
  5
47
102
{ACAD_REACTORS
330
C
102
}
330
C
100
AcDbDictionary
281
     1
  3
A0
350
48
  3
A1
350
49
  3
A2
350
4A
  3
A3
350
4B
  3
A4
350
4C
  3
A5
350
4D
  3
A6
350
4E
  3
A7
350
4F
  3
A8
350
50
  3
A9
350
51
  3
B0
350
52
  3
B1
350
53
  3
B2
350
54
  3
B3
350
55
  3
B4
350
56
  3
B5
350
57
  3
B6
350
58
  3
B7
350
59
  3
B8
350
5A
  3
B9
350
5B
  3
C0
350
5C
  3
C1
350
5D
  3
C2
350
5E
  3
C3
350
5F
  3
C4
350
60
  3
C5
350
61
  3
C6
350
62
  3
C7
350
63
  3
C8
350
64
  3
C9
350
65
  3
D0
350
66
  3
D1
350
67
  3
D2
350
68
  0
LAYOUT
  5
1E
102
{ACAD_REACTORS
330
1A
102
}
330
1A
100
AcDbPlotSettings
  1

  2
none_device
  4

  6

 40
0.0
 41
0.0
 42
0.0
 43
0.0
 44
0.0
 45
0.0
 46
0.0
 47
0.0
 48
0.0
 49
0.0
140
0.0
141
0.0
142
1.0
143
1.0
 70
   688
 72
     1
 73
     0
 74
     5
  7

 75
    16
147
1.0
148
0.0
149
0.0
100
AcDbLayout
  1
Layout1
 70
     1
 71
     1
 10
0.0
 20
0.0
 11
420.0
 21
297.0
 12
0.0
 22
0.0
 32
0.0
 14
1.0000000000E+20
 24
1.0000000000E+20
 34
1.0000000000E+20
 15
-1.0000000000E+20
 25
-1.0000000000E+20
 35
-1.0000000000E+20
146
0.0
 13
0.0
 23
0.0
 33
0.0
 16
1.0
 26
0.0
 36
0.0
 17
0.0
 27
1.0
 37
0.0
 76
     0
330
1B
  0
LAYOUT
  5
26
102
{ACAD_REACTORS
330
1A
102
}
330
1A
100
AcDbPlotSettings
  1

  2
none_device
  4

  6

 40
0.0
 41
0.0
 42
0.0
 43
0.0
 44
0.0
 45
0.0
 46
0.0
 47
0.0
 48
0.0
 49
0.0
140
0.0
141
0.0
142
1.0
143
1.0
 70
   688
 72
     1
 73
     0
 74
     5
  7

 75
    16
147
1.0
148
0.0
149
0.0
100
AcDbLayout
  1
Layout2
 70
     1
 71
     2
 10
0.0
 20
0.0
 11
0.0
 21
0.0
 12
0.0
 22
0.0
 32
0.0
 14
0.0
 24
0.0
 34
0.0
 15
0.0
 25
0.0
 35
0.0
146
0.0
 13
0.0
 23
0.0
 33
0.0
 16
1.0
 26
0.0
 36
0.0
 17
0.0
 27
1.0
 37
0.0
 76
     0
330
23
  0
LAYOUT
  5
22
102
{ACAD_REACTORS
330
1A
102
}
330
1A
100
AcDbPlotSettings
  1

  2
none_device
  4
Letter_(8.50_x_11.00_Inches)
  6

 40
6.35
 41
6.35
 42
6.35000508
 43
6.35000508
 44
215.9
 45
279.4
 46
0.0
 47
0.0
 48
0.0
 49
0.0
140
0.0
141
0.0
142
1.0
143
1.0
 70
  1712
 72
     1
 73
     0
 74
     0
  7

 75
     0
147
1.0
148
0.0
149
0.0
100
AcDbLayout
  1
Model
 70
     1
 71
     0
 10
0.0
 20
0.0
 11
500.0
 21
400.0
 12
0.0
 22
0.0
 32
0.0
 14
0.0
 24
0.0
 34
0.0
 15
500.0
 25
400.0
 35
0.0
146
0.0
 13
0.0
 23
0.0
 33
0.0
 16
1.0
 26
0.0
 36
0.0
 17
0.0
 27
1.0
 37
0.0
 76
     0
330
1F
331
29
  0
MLINESTYLE
  5
18
102
{ACAD_REACTORS
330
17
102
}
330
17
100
AcDbMlineStyle
  2
Standard
 70
     0
  3

 62
   256
 51
90.0
 52
90.0
 71
     2
 49
0.5
 62
   256
  6
BYLAYER
 49
-0.5
 62
   256
  6
BYLAYER
  0
ACDBPLACEHOLDER
  5
F
102
{ACAD_REACTORS
330
E
102
}
330
E
  0
SCALE
  5
48
102
{ACAD_REACTORS
330
47
102
}
330
47
100
AcDbScale
 70
     0
300
1:1
140
1.0
141
1.0
290
     1
  0
SCALE
  5
49
102
{ACAD_REACTORS
330
47
102
}
330
47
100
AcDbScale
 70
     0
300
1:2
140
1.0
141
2.0
290
     0
  0
SCALE
  5
4A
102
{ACAD_REACTORS
330
47
102
}
330
47
100
AcDbScale
 70
     0
300
1:4
140
1.0
141
4.0
290
     0
  0
SCALE
  5
4B
102
{ACAD_REACTORS
330
47
102
}
330
47
100
AcDbScale
 70
     0
300
1:5
140
1.0
141
5.0
290
     0
  0
SCALE
  5
4C
102
{ACAD_REACTORS
330
47
102
}
330
47
100
AcDbScale
 70
     0
300
1:8
140
1.0
141
8.0
290
     0
  0
SCALE
  5
4D
102
{ACAD_REACTORS
330
47
102
}
330
47
100
AcDbScale
 70
     0
300
1:10
140
1.0
141
10.0
290
     0
  0
SCALE
  5
4E
102
{ACAD_REACTORS
330
47
102
}
330
47
100
AcDbScale
 70
     0
300
1:16
140
1.0
141
16.0
290
     0
  0
SCALE
  5
4F
102
{ACAD_REACTORS
330
47
102
}
330
47
100
AcDbScale
 70
     0
300
1:20
140
1.0
141
20.0
290
     0
  0
SCALE
  5
50
102
{ACAD_REACTORS
330
47
102
}
330
47
100
AcDbScale
 70
     0
300
1:30
140
1.0
141
30.0
290
     0
  0
SCALE
  5
51
102
{ACAD_REACTORS
330
47
102
}
330
47
100
AcDbScale
 70
     0
300
1:40
140
1.0
141
40.0
290
     0
  0
SCALE
  5
52
102
{ACAD_REACTORS
330
47
102
}
330
47
100
AcDbScale
 70
     0
300
1:50
140
1.0
141
50.0
290
     0
  0
SCALE
  5
53
102
{ACAD_REACTORS
330
47
102
}
330
47
100
AcDbScale
 70
     0
300
1:100
140
1.0
141
100.0
290
     0
  0
SCALE
  5
54
102
{ACAD_REACTORS
330
47
102
}
330
47
100
AcDbScale
 70
     0
300
2:1
140
2.0
141
1.0
290
     0
  0
SCALE
  5
55
102
{ACAD_REACTORS
330
47
102
}
330
47
100
AcDbScale
 70
     0
300
4:1
140
4.0
141
1.0
290
     0
  0
SCALE
  5
56
102
{ACAD_REACTORS
330
47
102
}
330
47
100
AcDbScale
 70
     0
300
8:1
140
8.0
141
1.0
290
     0
  0
SCALE
  5
57
102
{ACAD_REACTORS
330
47
102
}
330
47
100
AcDbScale
 70
     0
300
10:1
140
10.0
141
1.0
290
     0
  0
SCALE
  5
58
102
{ACAD_REACTORS
330
47
102
}
330
47
100
AcDbScale
 70
     0
300
100:1
140
100.0
141
1.0
290
     0
  0
SCALE
  5
59
102
{ACAD_REACTORS
330
47
102
}
330
47
100
AcDbScale
 70
     0
300
1/128" = 1'-0"
140
0.0078125
141
12.0
290
     0
  0
SCALE
  5
5A
102
{ACAD_REACTORS
330
47
102
}
330
47
100
AcDbScale
 70
     0
300
1/64" = 1'-0"
140
0.015625
141
12.0
290
     0
  0
SCALE
  5
5B
102
{ACAD_REACTORS
330
47
102
}
330
47
100
AcDbScale
 70
     0
300
1/32" = 1'-0"
140
0.03125
141
12.0
290
     0
  0
SCALE
  5
5C
102
{ACAD_REACTORS
330
47
102
}
330
47
100
AcDbScale
 70
     0
300
1/16" = 1'-0"
140
0.0625
141
12.0
290
     0
  0
SCALE
  5
5D
102
{ACAD_REACTORS
330
47
102
}
330
47
100
AcDbScale
 70
     0
300
3/32" = 1'-0"
140
0.09375
141
12.0
290
     0
  0
SCALE
  5
5E
102
{ACAD_REACTORS
330
47
102
}
330
47
100
AcDbScale
 70
     0
300
1/8" = 1'-0"
140
0.125
141
12.0
290
     0
  0
SCALE
  5
5F
102
{ACAD_REACTORS
330
47
102
}
330
47
100
AcDbScale
 70
     0
300
3/16" = 1'-0"
140
0.1875
141
12.0
290
     0
  0
SCALE
  5
60
102
{ACAD_REACTORS
330
47
102
}
330
47
100
AcDbScale
 70
     0
300
1/4" = 1'-0"
140
0.25
141
12.0
290
     0
  0
SCALE
  5
61
102
{ACAD_REACTORS
330
47
102
}
330
47
100
AcDbScale
 70
     0
300
3/8" = 1'-0"
140
0.375
141
12.0
290
     0
  0
SCALE
  5
62
102
{ACAD_REACTORS
330
47
102
}
330
47
100
AcDbScale
 70
     0
300
1/2" = 1'-0"
140
0.5
141
12.0
290
     0
  0
SCALE
  5
63
102
{ACAD_REACTORS
330
47
102
}
330
47
100
AcDbScale
 70
     0
300
3/4" = 1'-0"
140
0.75
141
12.0
290
     0
  0
SCALE
  5
64
102
{ACAD_REACTORS
330
47
102
}
330
47
100
AcDbScale
 70
     0
300
1" = 1'-0"
140
1.0
141
12.0
290
     0
  0
SCALE
  5
65
102
{ACAD_REACTORS
330
47
102
}
330
47
100
AcDbScale
 70
     0
300
1-1/2" = 1'-0"
140
1.5
141
12.0
290
     0
  0
SCALE
  5
66
102
{ACAD_REACTORS
330
47
102
}
330
47
100
AcDbScale
 70
     0
300
3" = 1'-0"
140
3.0
141
12.0
290
     0
  0
SCALE
  5
67
102
{ACAD_REACTORS
330
47
102
}
330
47
100
AcDbScale
 70
     0
300
6" = 1'-0"
140
6.0
141
12.0
290
     0
  0
SCALE
  5
68
102
{ACAD_REACTORS
330
47
102
}
330
47
100
AcDbScale
 70
     0
300
1'-0" = 1'-0"
140
12.0
141
12.0
290
     0
  0
ENDSEC
  0
EOF
