  0
SECTION
  2
HEADER
  9
$ACADVER
  1
AC1015
  9
$ACADMAINTVER
 70
     6
  9
$DWGCODEPAGE
  3
ANSI_1252
  9
$INSBASE
 10
0.0
 20
0.0
 30
0.0
  9
$EXTMIN
 10
0.0
 20
0.0
 30
0.0
  9
$EXTMAX
 10
495.0
 20
1543.0
 30
0.0
  9
$LIMMIN
 10
0.0
 20
0.0
  9
$LIMMAX
 10
495.0
 20
1543.0
  9
$ORTHOMODE
 70
     0
  9
$REGENMODE
 70
     1
  9
$FILLMODE
 70
     1
  9
$QTEXTMODE
 70
     0
  9
$MIRRTEXT
 70
     1
  9
$LTSCALE
 40
1.0
  9
$ATTMODE
 70
     1
  9
$TEXTSIZE
 40
3.5
  9
$TRACEWID
 40
1.0
  9
$TEXTSTYLE
  7
Standard
  9
$CLAYER
  8
0
  9
$CELTYPE
  6
ByLayer
  9
$CECOLOR
 62
   256
  9
$CELTSCALE
 40
1.0
  9
$DISPSILH
 70
     0
  9
$DIMSCALE
 40
1.0
  9
$DIMASZ
 40
3.302
  9
$DIMEXO
 40
1.0
  9
$DIMDLI
 40
3.75
  9
$DIMRND
 40
0.0
  9
$DIMDLE
 40
0.0
  9
$DIMEXE
 40
1.0
  9
$DIMTP
 40
0.0
  9
$DIMTM
 40
0.0
  9
$DIMTXT
 40
2.8
  9
$DIMCEN
 40
2.5
  9
$DIMTSZ
 40
0.0
  9
$DIMTOL
 70
     0
  9
$DIMLIM
 70
     0
  9
$DIMTIH
 70
     1
  9
$DIMTOH
 70
     1
  9
$DIMSE1
 70
     0
  9
$DIMSE2
 70
     0
  9
$DIMTAD
 70
     1
  9
$DIMZIN
 70
     0
  9
$DIMBLK
  1

  9
$DIMASO
 70
     1
  9
$DIMSHO
 70
     1
  9
$DIMPOST
  1

  9
$DIMAPOST
  1

  9
$DIMALT
 70
     0
  9
$DIMALTD
 70
     3
  9
$DIMALTF
 40
0.0393700787
  9
$DIMLFAC
 40
1.0
  9
$DIMTOFL
 70
     1
  9
$DIMTVP
 40
0.0
  9
$DIMTIX
 70
     0
  9
$DIMSOXD
 70
     0
  9
$DIMSAH
 70
     0
  9
$DIMBLK1
  1

  9
$DIMBLK2
  1

  9
$DIMSTYLE
  2
ISO-25
  9
$DIMCLRD
 70
     0
  9
$DIMCLRE
 70
     0
  9
$DIMCLRT
 70
     0
  9
$DIMTFAC
 40
1.0
  9
$DIMGAP
 40
1.524
  9
$DIMJUST
 70
     0
  9
$DIMSD1
 70
     0
  9
$DIMSD2
 70
     0
  9
$DIMTOLJ
 70
     0
  9
$DIMTZIN
 70
     0
  9
$DIMALTZ
 70
     0
  9
$DIMALTTZ
 70
     0
  9
$DIMUPT
 70
     0
  9
$DIMDEC
 70
     2
  9
$DIMTDEC
 70
     2
  9
$DIMALTU
 70
     2
  9
$DIMALTTD
 70
     3
  9
$DIMTXSTY
  7
Standard
  9
$DIMAUNIT
 70
     0
  9
$DIMADEC
 70
     2
  9
$DIMALTRND
 40
0.0
  9
$DIMAZIN
 70
     0
  9
$DIMDSEP
 70
    44
  9
$DIMATFIT
 70
     3
  9
$DIMFRAC
 70
     0
  9
$DIMLDRBLK
  1

  9
$DIMLUNIT
 70
     2
  9
$DIMLWD
 70
    -2
  9
$DIMLWE
 70
    -2
  9
$DIMTMOVE
 70
     0
  9
$LUNITS
 70
     2
  9
$LUPREC
 70
     2
  9
$SKETCHINC
 40
1.0
  9
$FILLETRAD
 40
10.0
  9
$AUNITS
 70
     0
  9
$AUPREC
 70
     2
  9
$MENU
  1
.
  9
$ELEVATION
 40
0.0
  9
$PELEVATION
 40
0.0
  9
$THICKNESS
 40
0.0
  9
$LIMCHECK
 70
     0
  9
$CHAMFERA
 40
0.0
  9
$CHAMFERB
 40
0.0
  9
$CHAMFERC
 40
0.0
  9
$CHAMFERD
 40
0.0
  9
$SKPOLY
 70
     0
  9
$TDCREATE
 40
2458647.610455093
  9
$TDUCREATE
 40
2458647.485455093
  9
$TDUPDATE
 40
2458647.61045544
  9
$TDUUPDATE
 40
2458647.48545544
  9
$TDINDWG
 40
0.0000000116
  9
$TDUSRTIMER
 40
0.0000000116
  9
$USRTIMER
 70
     1
  9
$ANGBASE
 50
0.0
  9
$ANGDIR
 70
     0
  9
$PDMODE
 70
     0
  9
$PDSIZE
 40
-1.0
  9
$PLINEWID
 40
0.0
  9
$SPLFRAME
 70
     0
  9
$SPLINETYPE
 70
     6
  9
$SPLINESEGS
 70
     8
  9
$HANDSEED
  5
17A
  9
$SURFTAB1
 70
     6
  9
$SURFTAB2
 70
     6
  9
$SURFTYPE
 70
     6
  9
$SURFU
 70
     6
  9
$SURFV
 70
     6
  9
$UCSBASE
  2

  9
$UCSNAME
  2

  9
$UCSORG
 10
0.0
 20
0.0
 30
0.0
  9
$UCSXDIR
 10
1.0
 20
0.0
 30
0.0
  9
$UCSYDIR
 10
0.0
 20
1.0
 30
0.0
  9
$UCSORTHOREF
  2

  9
$UCSORTHOVIEW
 70
     0
  9
$UCSORGTOP
 10
0.0
 20
0.0
 30
0.0
  9
$UCSORGBOTTOM
 10
0.0
 20
0.0
 30
0.0
  9
$UCSORGLEFT
 10
0.0
 20
0.0
 30
0.0
  9
$UCSORGRIGHT
 10
0.0
 20
0.0
 30
0.0
  9
$UCSORGFRONT
 10
0.0
 20
0.0
 30
0.0
  9
$UCSORGBACK
 10
0.0
 20
0.0
 30
0.0
  9
$PUCSBASE
  2

  9
$PUCSNAME
  2

  9
$PUCSORG
 10
0.0
 20
0.0
 30
0.0
  9
$PUCSXDIR
 10
1.0
 20
0.0
 30
0.0
  9
$PUCSYDIR
 10
0.0
 20
1.0
 30
0.0
  9
$PUCSORTHOREF
  2

  9
$PUCSORTHOVIEW
 70
     0
  9
$PUCSORGTOP
 10
0.0
 20
0.0
 30
0.0
  9
$PUCSORGBOTTOM
 10
0.0
 20
0.0
 30
0.0
  9
$PUCSORGLEFT
 10
0.0
 20
0.0
 30
0.0
  9
$PUCSORGRIGHT
 10
0.0
 20
0.0
 30
0.0
  9
$PUCSORGFRONT
 10
0.0
 20
0.0
 30
0.0
  9
$PUCSORGBACK
 10
0.0
 20
0.0
 30
0.0
  9
$USERI1
 70
     0
  9
$USERI2
 70
     0
  9
$USERI3
 70
     0
  9
$USERI4
 70
     0
  9
$USERI5
 70
     0
  9
$USERR1
 40
0.0
  9
$USERR2
 40
0.0
  9
$USERR3
 40
0.0
  9
$USERR4
 40
0.0
  9
$USERR5
 40
0.0
  9
$WORLDVIEW
 70
     1
  9
$SHADEDGE
 70
     3
  9
$SHADEDIF
 70
    70
  9
$TILEMODE
 70
     1
  9
$MAXACTVP
 70
    64
  9
$PINSBASE
 10
0.0
 20
0.0
 30
0.0
  9
$PLIMCHECK
 70
     0
  9
$PEXTMIN
 10
1.0000000000E+20
 20
1.0000000000E+20
 30
1.0000000000E+20
  9
$PEXTMAX
 10
-1.0000000000E+20
 20
-1.0000000000E+20
 30
-1.0000000000E+20
  9
$PLIMMIN
 10
0.0
 20
0.0
  9
$PLIMMAX
 10
420.0
 20
297.0
  9
$UNITMODE
 70
     0
  9
$VISRETAIN
 70
     1
  9
$PLINEGEN
 70
     0
  9
$PSLTSCALE
 70
     1
  9
$TREEDEPTH
 70
  3020
  9
$CMLSTYLE
  2
Standard
  9
$CMLJUST
 70
     0
  9
$CMLSCALE
 40
20.0
  9
$PROXYGRAPHICS
 70
     1
  9
$MEASUREMENT
 70
     1
  9
$CELWEIGHT
370
    -1
  9
$ENDCAPS
280
     0
  9
$JOINSTYLE
280
     0
  9
$LWDISPLAY
290
     1
  9
$INSUNITS
 70
     4
  9
$HYPERLINKBASE
  1

  9
$STYLESHEET
  1

  9
$XEDIT
290
     1
  9
$CEPSNTYPE
380
     0
  9
$PSTYLEMODE
290
     1
  9
$FINGERPRINTGUID
  2
{0F741A48-32DE-4CB9-8405-3891CB9BF398}
  9
$VERSIONGUID
  2
{FAEB1C32-E019-11D5-929B-00C0DF256EC4}
  9
$EXTNAMES
290
     1
  9
$PSVPSCALE
 40
0.0
  9
$OLESTARTUP
290
     0
  0
ENDSEC
  0
SECTION
  2
CLASSES
  0
CLASS
  1
ACDBDICTIONARYWDFLT
  2
AcDbDictionaryWithDefault
  3
ObjectDBX Classes
 90
        0
280
     0
281
     0
  0
CLASS
  1
VISUALSTYLE
  2
AcDbVisualStyle
  3
ObjectDBX Classes
 90
     4095
280
     0
281
     0
  0
CLASS
  1
MATERIAL
  2
AcDbMaterial
  3
ObjectDBX Classes
 90
     1153
280
     0
281
     0
  0
CLASS
  1
SCALE
  2
AcDbScale
  3
ObjectDBX Classes
 90
     1153
280
     0
281
     0
  0
CLASS
  1
TABLESTYLE
  2
AcDbTableStyle
  3
ObjectDBX Classes
 90
     4095
280
     0
281
     0
  0
CLASS
  1
MLEADERSTYLE
  2
AcDbMLeaderStyle
  3
ACDB_MLEADERSTYLE_CLASS
 90
     4095
280
     0
281
     0
  0
CLASS
  1
SUN
  2
AcDbSun
  3
SCENEOE
 90
     1153
280
     0
281
     0
  0
CLASS
  1
ACDBPLACEHOLDER
  2
AcDbPlaceHolder
  3
ObjectDBX Classes
 90
        0
280
     0
281
     0
  0
CLASS
  1
LAYOUT
  2
AcDbLayout
  3
ObjectDBX Classes
 90
        0
280
     0
281
     0
  0
ENDSEC
  0
SECTION
  2
TABLES
  0
TABLE
  2
VPORT
  5
8
330
0
100
AcDbSymbolTable
 70
     1
  0
VPORT
  5
29
330
8
100
AcDbSymbolTableRecord
100
AcDbViewportTableRecord
  2
*Active
 70
     0
 10
0.0
 20
0.0
 11
1.0
 21
1.0
 12
247.5
 22
771.5
 13
0.0
 23
0.0
 14
10.0
 24
10.0
 15
10.0
 25
10.0
 16
0.0
 26
0.0
 36
1.0
 17
0.0
 27
0.0
 37
0.0
 40
1543.0
 41
0.3208036293
 42
50.0
 43
0.0
 44
0.0
 50
0.0
 51
0.0
 71
     0
 72
  2000
 73
     1
 74
     3
 75
     0
 76
     0
 77
     0
 78
     0
281
     0
 65
     1
110
0.0
120
0.0
130
0.0
111
1.0
121
0.0
131
0.0
112
0.0
122
1.0
132
0.0
 79
     0
146
0.0
  0
ENDTAB
  0
TABLE
  2
LTYPE
  5
5
330
0
100
AcDbSymbolTable
 70
     6
  0
LTYPE
  5
14
330
5
100
AcDbSymbolTableRecord
100
AcDbLinetypeTableRecord
  2
ByBlock
 70
     0
  3

 72
    65
 73
     0
 40
0.0
  0
LTYPE
  5
15
330
5
100
AcDbSymbolTableRecord
100
AcDbLinetypeTableRecord
  2
ByLayer
 70
     0
  3

 72
    65
 73
     0
 40
0.0
  0
LTYPE
  5
16
330
5
100
AcDbSymbolTableRecord
100
AcDbLinetypeTableRecord
  2
Continuous
 70
     0
  3
Solid line
 72
    65
 73
     0
 40
0.0
  0
LTYPE
  5
6E
330
5
100
AcDbSymbolTableRecord
100
AcDbLinetypeTableRecord
  2
HIDDEN
 70
     0
  3
Hidden __ __ __ __ __ __ __ __ __ __ __ __ __ __
 72
    65
 73
     2
 40
1.905
 49
1.27
 74
     0
 49
-0.635
 74
     0
  0
LTYPE
  5
6F
330
5
100
AcDbSymbolTableRecord
100
AcDbLinetypeTableRecord
  2
PHANTOM
 70
     0
  3
Phantom ______  __  __  ______  __  __  ______
 72
    65
 73
     6
 40
12.7
 49
6.35
 74
     0
 49
-1.27
 74
     0
 49
1.27
 74
     0
 49
-1.27
 74
     0
 49
1.27
 74
     0
 49
-1.27
 74
     0
  0
LTYPE
  5
70
330
5
100
AcDbSymbolTableRecord
100
AcDbLinetypeTableRecord
  2
CENTER
 70
     0
  3
Center ____ _ ____ _ ____ _ ____ _ ____ _ ____
 72
    65
 73
     4
 40
10.16
 49
6.35
 74
     0
 49
-1.27
 74
     0
 49
1.27
 74
     0
 49
-1.27
 74
     0
  0
LTYPE
  5
71
330
5
100
AcDbSymbolTableRecord
100
AcDbLinetypeTableRecord
  2
CENTERX2
 70
     0
  3
Center (2x) ________  __  ________  __  _____
 72
    65
 73
     4
 40
20.32
 49
12.7
 74
     0
 49
-2.54
 74
     0
 49
2.54
 74
     0
 49
-2.54
 74
     0
  0
LTYPE
  5
72
330
5
100
AcDbSymbolTableRecord
100
AcDbLinetypeTableRecord
  2
DOT2
 70
     0
  3
Dot (.5x) ........................................
 72
    65
 73
     2
 40
0.635
 49
0.0
 74
     0
 49
-0.635
 74
     0
  0
ENDTAB
  0
TABLE
  2
LAYER
  5
2
330
0
100
AcDbSymbolTable
 70
     2
  0
LAYER
  5
10
330
2
100
AcDbSymbolTableRecord
100
AcDbLayerTableRecord
  2
0
 70
     0
 62
     7
  6
Continuous
370
    -3
390
F
  0
LAYER
  5
73
330
2
100
AcDbSymbolTableRecord
100
AcDbLayerTableRecord
  2
FORMAT
 70
     0
 62
     7
  6
Continuous
370
    -3
390
F
  0
ENDTAB
  0
TABLE
  2
STYLE
  5
3
330
0
100
AcDbSymbolTable
 70
     2
  0
STYLE
  5
11
330
3
100
AcDbSymbolTableRecord
100
AcDbTextStyleTableRecord
  2
Standard
 70
     0
 40
0.0
 41
1.0
 50
0.0
 71
     0
 42
3.5
  3
txt
  4

  0
STYLE
  5
74
330
3
100
AcDbSymbolTableRecord
100
AcDbTextStyleTableRecord
  2
SLDTEXTSTYLE0
 70
     0
 40
0.0
 41
0.605
 50
0.0
 71
     0
 42
3.5
  3
TXT
  4

  0
ENDTAB
  0
TABLE
  2
VIEW
  5
6
330
0
100
AcDbSymbolTable
 70
     0
  0
ENDTAB
  0
TABLE
  2
UCS
  5
7
330
0
100
AcDbSymbolTable
 70
     0
  0
ENDTAB
  0
TABLE
  2
APPID
  5
9
330
0
100
AcDbSymbolTable
 70
     1
  0
APPID
  5
12
330
9
100
AcDbSymbolTableRecord
100
AcDbRegAppTableRecord
  2
ACAD
 70
     0
  0
ENDTAB
  0
TABLE
  2
DIMSTYLE
  5
A
330
0
100
AcDbSymbolTable
 70
     1
100
AcDbDimStyleTable
  0
DIMSTYLE
105
27
330
A
100
AcDbSymbolTableRecord
100
AcDbDimStyleTableRecord
  2
ISO-25
 70
     0
 41
2.5
 42
0.625
 43
3.75
 44
1.25
 73
     0
 74
     0
 77
     1
 78
     8
140
2.5
141
2.5
143
0.0393700787
147
0.625
171
     3
172
     1
178
     0
271
     2
272
     2
274
     3
278
    44
283
     0
284
     8
340
11
  0
ENDTAB
  0
TABLE
  2
BLOCK_RECORD
  5
1
330
0
100
AcDbSymbolTable
 70
     1
  0
BLOCK_RECORD
  5
1F
330
1
100
AcDbSymbolTableRecord
100
AcDbBlockTableRecord
  2
*Model_Space
340
22
  0
BLOCK_RECORD
  5
1B
330
1
100
AcDbSymbolTableRecord
100
AcDbBlockTableRecord
  2
*Paper_Space
340
1E
  0
BLOCK_RECORD
  5
23
330
1
100
AcDbSymbolTableRecord
100
AcDbBlockTableRecord
  2
*Paper_Space0
340
26
  0
ENDTAB
  0
ENDSEC
  0
SECTION
  2
BLOCKS
  0
BLOCK
  5
20
330
1F
100
AcDbEntity
  8
0
100
AcDbBlockBegin
  2
*Model_Space
 70
     0
 10
0.0
 20
0.0
 30
0.0
  3
*Model_Space
  1

  0
ENDBLK
  5
21
330
1F
100
AcDbEntity
  8
0
100
AcDbBlockEnd
  0
BLOCK
  5
1C
330
1B
100
AcDbEntity
 67
     1
  8
0
100
AcDbBlockBegin
  2
*Paper_Space
 70
     0
 10
0.0
 20
0.0
 30
0.0
  3
*Paper_Space
  1

  0
ENDBLK
  5
1D
330
1B
100
AcDbEntity
 67
     1
  8
0
100
AcDbBlockEnd
  0
BLOCK
  5
24
330
23
100
AcDbEntity
  8
0
100
AcDbBlockBegin
  2
*Paper_Space0
 70
     0
 10
0.0
 20
0.0
 30
0.0
  3
*Paper_Space0
  1

  0
ENDBLK
  5
25
330
23
100
AcDbEntity
  8
0
100
AcDbBlockEnd
  0
ENDSEC
  0
SECTION
  2
ENTITIES
  0
MTEXT
  5
75
330
1F
100
AcDbEntity
  8
0
  6
Continuous
 62
     7
370
     0
100
AcDbMText
 10
7.2782978723
 20
22.1884790273
 30
0.0
 40
10.0
 41
0.0
 71
     1
 72
     1
  1
1:1
  7
SLDTEXTSTYLE0
 73
     1
 44
1.0
  0
LINE
  5
76
330
1F
100
AcDbEntity
  8
0
  6
Continuous
 62
     7
370
    30
100
AcDbLine
 10
277.15
 20
756.0
 30
0.0
 11
277.15
 21
805.8
 31
0.0
  0
LINE
  5
77
330
1F
100
AcDbEntity
  8
0
  6
Continuous
 62
     7
370
    30
100
AcDbLine
 10
277.15
 20
856.0
 30
0.0
 11
277.15
 21
1038.0
 31
0.0
  0
LINE
  5
78
330
1F
100
AcDbEntity
  8
0
  6
Continuous
 62
     7
370
    30
100
AcDbLine
 10
277.15
 20
1160.0
 30
0.0
 11
277.15
 21
1416.0
 31
0.0
  0
LINE
  5
79
330
1F
100
AcDbEntity
  8
0
  6
Continuous
 62
     7
370
    30
100
AcDbLine
 10
277.15
 20
1466.2
 30
0.0
 11
277.15
 21
1516.0
 31
0.0
  0
LINE
  5
7A
330
1F
100
AcDbEntity
  8
0
  6
Continuous
 62
     7
370
    30
100
AcDbLine
 10
255.25
 20
1516.0
 30
0.0
 11
255.25
 21
1466.2
 31
0.0
  0
LINE
  5
7B
330
1F
100
AcDbEntity
  8
0
  6
Continuous
 62
     7
370
    30
100
AcDbLine
 10
255.25
 20
1416.0
 30
0.0
 11
255.25
 21
1160.0
 31
0.0
  0
LINE
  5
7C
330
1F
100
AcDbEntity
  8
0
  6
Continuous
 62
     7
370
    30
100
AcDbLine
 10
255.25
 20
1038.0
 30
0.0
 11
255.25
 21
856.0
 31
0.0
  0
LINE
  5
7D
330
1F
100
AcDbEntity
  8
0
  6
Continuous
 62
     7
370
    30
100
AcDbLine
 10
255.25
 20
805.8
 30
0.0
 11
255.25
 21
756.0
 31
0.0
  0
ARC
  5
7E
330
1F
100
AcDbEntity
  8
0
  6
Continuous
 62
     7
370
    30
100
AcDbCircle
 10
252.2
 20
855.0
 30
0.0
 40
1.0
100
AcDbArc
 50
90.0
 51
180.0
  0
ARC
  5
7F
330
1F
100
AcDbEntity
  8
0
  6
Continuous
 62
     7
370
    30
100
AcDbCircle
 10
280.2
 20
855.0
 30
0.0
 40
1.0
100
AcDbArc
 50
0.0
 51
90.0
  0
ARC
  5
80
330
1F
100
AcDbEntity
  8
0
  6
Continuous
 62
     7
370
    30
100
AcDbCircle
 10
252.2
 20
806.8
 30
0.0
 40
1.0
100
AcDbArc
 50
180.0
 51
270.0
  0
ARC
  5
81
330
1F
100
AcDbEntity
  8
0
  6
Continuous
 62
     7
370
    30
100
AcDbCircle
 10
280.2
 20
806.8
 30
0.0
 40
1.0
100
AcDbArc
 50
270.0
 51
0.0
  0
LINE
  5
82
330
1F
100
AcDbEntity
  8
0
  6
Continuous
 62
     7
370
    30
100
AcDbLine
 10
251.2
 20
855.0
 30
0.0
 11
251.2
 21
806.8
 31
0.0
  0
LINE
  5
83
330
1F
100
AcDbEntity
  8
0
  6
Continuous
 62
     7
370
    30
100
AcDbLine
 10
281.2
 20
806.8
 30
0.0
 11
281.2
 21
855.0
 31
0.0
  0
LINE
  5
84
330
1F
100
AcDbEntity
  8
0
  6
Continuous
 62
     7
370
    30
100
AcDbLine
 10
281.2
 20
1417.0
 30
0.0
 11
281.2
 21
1465.2
 31
0.0
  0
LINE
  5
85
330
1F
100
AcDbEntity
  8
0
  6
Continuous
 62
     7
370
    30
100
AcDbLine
 10
251.2
 20
1465.2
 30
0.0
 11
251.2
 21
1417.0
 31
0.0
  0
ARC
  5
86
330
1F
100
AcDbEntity
  8
0
  6
Continuous
 62
     7
370
    30
100
AcDbCircle
 10
280.2
 20
1465.2
 30
0.0
 40
1.0
100
AcDbArc
 50
0.0
 51
90.0
  0
ARC
  5
87
330
1F
100
AcDbEntity
  8
0
  6
Continuous
 62
     7
370
    30
100
AcDbCircle
 10
252.2
 20
1465.2
 30
0.0
 40
1.0
100
AcDbArc
 50
90.0
 51
180.0
  0
ARC
  5
88
330
1F
100
AcDbEntity
  8
0
  6
Continuous
 62
     7
370
    30
100
AcDbCircle
 10
280.2
 20
1417.0
 30
0.0
 40
1.0
100
AcDbArc
 50
270.0
 51
0.0
  0
ARC
  5
89
330
1F
100
AcDbEntity
  8
0
  6
Continuous
 62
     7
370
    30
100
AcDbCircle
 10
252.2
 20
1417.0
 30
0.0
 40
1.0
100
AcDbArc
 50
180.0
 51
270.0
  0
LINE
  5
8A
330
1F
100
AcDbEntity
  8
0
  6
Continuous
 62
     7
370
    30
100
AcDbLine
 10
220.6732773508
 20
1154.186016776
 30
0.0
 11
214.8
 21
1154.186016776
 31
0.0
  0
LINE
  5
8B
330
1F
100
AcDbEntity
  8
0
  6
Continuous
 62
     7
370
    30
100
AcDbLine
 10
249.2
 20
1154.186016776
 30
0.0
 11
243.4938398705
 21
1154.186016776
 31
0.0
  0
LINE
  5
8C
330
1F
100
AcDbEntity
  8
0
  6
Continuous
 62
     7
370
    30
100
AcDbLine
 10
243.4939932142
 20
1117.186016776
 30
0.0
 11
249.2
 21
1117.186016776
 31
0.0
  0
LINE
  5
8D
330
1F
100
AcDbEntity
  8
0
  6
Continuous
 62
     7
370
    30
100
AcDbLine
 10
214.8
 20
1117.186016776
 30
0.0
 11
220.6731661444
 21
1117.186016776
 31
0.0
  0
ARC
  5
8E
330
1F
100
AcDbEntity
  8
0
  6
Continuous
 62
     7
370
    30
100
AcDbCircle
 10
214.8
 20
1118.186016776
 30
0.0
 40
1.0
100
AcDbArc
 50
180.0
 51
270.0
  0
ARC
  5
8F
330
1F
100
AcDbEntity
  8
0
  6
Continuous
 62
     7
370
    30
100
AcDbCircle
 10
214.8
 20
1153.186016776
 30
0.0
 40
1.0
100
AcDbArc
 50
90.0
 51
180.0
  0
ARC
  5
90
330
1F
100
AcDbEntity
  8
0
  6
Continuous
 62
     7
370
    30
100
AcDbCircle
 10
249.2
 20
1118.186016776
 30
0.0
 40
1.0
100
AcDbArc
 50
270.0
 51
0.0
  0
ARC
  5
91
330
1F
100
AcDbEntity
  8
0
  6
Continuous
 62
     7
370
    30
100
AcDbCircle
 10
249.2
 20
1153.186016776
 30
0.0
 40
1.0
100
AcDbArc
 50
0.0
 51
90.0
  0
LINE
  5
92
330
1F
100
AcDbEntity
  8
0
  6
Continuous
 62
     7
370
    30
100
AcDbLine
 10
250.2
 20
1119.4529073901
 30
0.0
 11
251.2
 21
1119.4529073901
 31
0.0
  0
LINE
  5
93
330
1F
100
AcDbEntity
  8
0
  6
Continuous
 62
     7
370
    30
100
AcDbLine
 10
251.2
 20
1151.9191261619
 30
0.0
 11
250.2
 21
1151.9191261619
 31
0.0
  0
SPLINE
  5
94
330
1F
100
AcDbEntity
  8
0
  6
Continuous
 62
     7
370
    30
100
AcDbSpline
210
0.0
220
0.0
230
1.0
 70
     8
 71
     3
 72
    79
 73
    75
 74
     0
 42
0.000000001
 43
0.00000001
 40
0.0
 40
0.0
 40
0.0
 40
0.0
 40
0.0112662064411947
 40
0.0260745498779318
 40
0.0407238350552418
 40
0.0558094357700928
 40
0.0707129429942418
 40
0.0856097076348218
 40
0.100497602600243
 40
0.1153749016872712
 40
0.1302395451920189
 40
0.1450888061119918
 40
0.1599191114138779
 40
0.1747259715159605
 40
0.1895039854878044
 40
0.2042468996507291
 40
0.2189477040394424
 40
0.2335987555270705
 40
0.2481919191035313
 40
0.2627187204418366
 40
0.2771705039037043
 40
0.2915598367988581
 40
0.3059257028908757
 40
0.320295098414326
 40
0.3346618333021361
 40
0.3489988117601757
 40
0.3632839486245081
 40
0.3774954261441936
 40
0.3916120090971897
 40
0.4056142544169272
 40
0.4195354800931199
 40
0.4334421720122016
 40
0.4472770958373268
 40
0.4610499516995503
 40
0.4747705060178078
 40
0.4884485592073164
 40
0.5020939442036353
 40
0.5157165252726084
 40
0.5293265531469254
 40
0.5427528434348308
 40
0.5561792457361814
 40
0.5696606893187225
 40
0.583169047097916
 40
0.5966735132328929
 40
0.6101390099081222
 40
0.6235378180572919
 40
0.6368430239391857
 40
0.6500528016300877
 40
0.6633923145667128
 40
0.6767948721562416
 40
0.6902054929988838
 40
0.7036333519846196
 40
0.7170887954768356
 40
0.7305821518952577
 40
0.7441237340701257
 40
0.7577238411722976
 40
0.7713857220836471
 40
0.7849767142820914
 40
0.7987132104530786
 40
0.8125411818377056
 40
0.82644191951903
 40
0.8403956089155483
 40
0.8543816790359235
 40
0.8683790257670619
 40
0.8823641794665196
 40
0.8964083882526489
 40
0.910668388777928
 40
0.9249646026281155
 40
0.9393013810040178
 40
0.9536830505350175
 40
0.9681140309257541
 40
0.982598850177845
 40
0.9963741146751136
 40
1.0
 40
1.0
 40
1.0
 40
1.0
 10
243.4782630902114
 20
1154.185509355223
 30
0.0
 10
243.4282712072093
 20
1154.185380011992
 30
0.0
 10
243.3125698081948
 20
1154.185080659538
 30
0.0
 10
243.1269998221409
 20
1154.180137708005
 30
0.0
 10
242.9205026996082
 20
1154.171652669462
 30
0.0
 10
242.7094112516741
 20
1154.159728001433
 30
0.0
 10
242.4929531828208
 20
1154.14465083413
 30
0.0
 10
242.2732830216243
 20
1154.126765200725
 30
0.0
 10
242.0495903443631
 20
1154.106239535254
 30
0.0
 10
241.821929148592
 20
1154.083282985147
 30
0.0
 10
241.5903676789463
 20
1154.05810446003
 30
0.0
 10
241.3549927560329
 20
1154.030909814666
 30
0.0
 10
241.1159127275741
 20
1154.001904472588
 30
0.0
 10
240.873258675823
 20
1153.971294106956
 30
0.0
 10
240.6271846766757
 20
1153.939285349733
 30
0.0
 10
240.3778672249714
 20
1153.906086024533
 30
0.0
 10
240.1255040068938
 20
1153.871905056467
 30
0.0
 10
239.8703121958541
 20
1153.836952146142
 30
0.0
 10
239.6125261409107
 20
1153.801436957455
 30
0.0
 10
239.3523953981658
 20
1153.765569008365
 30
0.0
 10
239.0900514685906
 20
1153.729536432641
 30
0.0
 10
238.8253421583733
 20
1153.693492323574
 30
0.0
 10
238.5578991964749
 20
1153.657535940384
 30
0.0
 10
238.2874836806967
 20
1153.621770971903
 30
0.0
 10
238.0142437337333
 20
1153.586357879931
 30
0.0
 10
237.7386435881574
 20
1153.551495938353
 30
0.0
 10
237.4612587148534
 20
1153.51739398605
 30
0.0
 10
237.1826381601404
 20
1153.48425190013
 30
0.0
 10
236.9033286805839
 20
1153.45225969077
 30
0.0
 10
236.6235064114329
 20
1153.421566902607
 30
0.0
 10
236.3428114408935
 20
1153.392226764478
 30
0.0
 10
236.0610981810566
 20
1153.364302762043
 30
0.0
 10
235.7783704618034
 20
1153.337880789441
 30
0.0
 10
235.4950294754971
 20
1153.313075094798
 30
0.0
 10
235.2110210378648
 20
1153.289955237812
 30
0.0
 10
234.9262888723136
 20
1153.268590109266
 30
0.0
 10
234.6407748415891
 20
1153.249050301773
 30
0.0
 10
234.3544159930541
 20
1153.23140070414
 30
0.0
 10
234.0684233354341
 20
1153.215798125211
 30
0.0
 10
233.7827577642157
 20
1153.202311856352
 30
0.0
 10
233.4971276502572
 20
1153.19087406671
 30
0.0
 10
233.2101890773036
 20
1153.181447512805
 30
0.0
 10
232.9221144553739
 20
1153.1740669017
 30
0.0
 10
232.633716986777
 20
1153.168782685615
 30
0.0
 10
232.3458108596417
 20
1153.165632320799
 30
0.0
 10
232.0591849128139
 20
1153.164639138747
 30
0.0
 10
231.774392081923
 20
1153.165819507991
 30
0.0
 10
231.4901835184592
 20
1153.16918917785
 30
0.0
 10
231.2055813631768
 20
1153.174673973275
 30
0.0
 10
230.9200013425782
 20
1153.18229533312
 30
0.0
 10
230.6343953424638
 20
1153.192005970734
 30
0.0
 10
230.3491636749281
 20
1153.203760188717
 30
0.0
 10
230.0642425417863
 20
1153.217525084717
 30
0.0
 10
229.779560045881
 20
1153.23326974808
 30
0.0
 10
229.4950475533616
 20
1153.250966241591
 30
0.0
 10
229.2106781829536
 20
1153.270579365616
 30
0.0
 10
228.9274477554381
 20
1153.292019217747
 30
0.0
 10
228.644883729756
 20
1153.315229058644
 30
0.0
 10
228.3629058063962
 20
1153.340111638549
 30
0.0
 10
228.0806784287376
 20
1153.366663116945
 30
0.0
 10
227.7989809248228
 20
1153.394729402804
 30
0.0
 10
227.5183570070899
 20
1153.424169146167
 30
0.0
 10
227.2393614830497
 20
1153.454832967141
 30
0.0
 10
226.9625593211723
 20
1153.48655988799
 30
0.0
 10
226.6879318731225
 20
1153.519265149795
 30
0.0
 10
226.414181974383
 20
1153.552968367864
 30
0.0
 10
226.1411726729036
 20
1153.587555554199
 30
0.0
 10
225.8691862317201
 20
1153.622863978851
 30
0.0
 10
225.5994392655953
 20
1153.65859254681
 30
0.0
 10
225.3319704605844
 20
1153.694589038746
 30
0.0
 10
225.0668040445829
 20
1153.730702056633
 30
0.0
 10
224.8086516305801
 20
1153.766135209518
 30
0.0
 10
224.6182002666815
 20
1153.792371589026
 30
0.0
 10
224.5151998220834
 20
1153.806557408798
 30
0.0
 10
224.4937375736492
 20
1153.80951331437
 30
0.0
  0
SPLINE
  5
95
330
1F
100
AcDbEntity
  8
0
  6
Continuous
 62
     7
370
    30
100
AcDbSpline
210
0.0
220
0.0
230
1.0
 70
     8
 71
     3
 72
    95
 73
    91
 74
     0
 42
0.000000001
 43
0.00000001
 40
0.0
 40
0.0
 40
0.0
 40
0.0
 40
0.0081857199860184
 40
0.0201949270607069
 40
0.0321082825877546
 40
0.0441170908853792
 40
0.0560988392027693
 40
0.0680614994538939
 40
0.0800109659665519
 40
0.0919542588672647
 40
0.1038990881611877
 40
0.1158517071791092
 40
0.1278203753005059
 40
0.1396362821043576
 40
0.1514727354724542
 40
0.1633188324081326
 40
0.1751590298476203
 40
0.1869758466229691
 40
0.1987531430033077
 40
0.2104740509597912
 40
0.2221218706286174
 40
0.2337280360998312
 40
0.2453680056755866
 40
0.2569481502453662
 40
0.2684757188094327
 40
0.2799581360841228
 40
0.2914028881248674
 40
0.3028175146605104
 40
0.3142096030420703
 40
0.3255670797271668
 40
0.336809818349823
 40
0.3479800449003645
 40
0.3591060272807206
 40
0.3701907312411256
 40
0.3812371663189696
 40
0.3922483830303412
 40
0.4032274762868616
 40
0.4141775253721858
 40
0.4251245286919016
 40
0.4359791311324059
 40
0.4468397000776357
 40
0.4576994297748832
 40
0.4685513194278452
 40
0.4793897752791377
 40
0.4902094508829745
 40
0.5010052769015247
 40
0.5117727613187004
 40
0.522503098609223
 40
0.5332846938096729
 40
0.5440677940598552
 40
0.5548586903703824
 40
0.5656656694325263
 40
0.5764974280967253
 40
0.5873626533415225
 40
0.5982700250449203
 40
0.6092280576534316
 40
0.6201885541891732
 40
0.6312012850048165
 40
0.6423070926696027
 40
0.6534870703469643
 40
0.6647216971130793
 40
0.6759907875710368
 40
0.6872737360540917
 40
0.6985457284482953
 40
0.7097906217120129
 40
0.7211871161532957
 40
0.7326657018100763
 40
0.7441700219168548
 40
0.7557066215108869
 40
0.7672819942551108
 40
0.7789026394503133
 40
0.7905750613676457
 40
0.8023060713455082
 40
0.8141075696919535
 40
0.825849477668448
 40
0.8376599465345647
 40
0.8495229040357185
 40
0.8614230816735812
 40
0.8733459101804364
 40
0.8852778311996681
 40
0.8972047010126702
 40
0.9091292855896439
 40
0.9210658305409024
 40
0.9330332230854795
 40
0.9450583021260779
 40
0.9571334110383757
 40
0.9692511487975796
 40
0.9814038679643557
 40
0.9935828979075197
 40
1.0
 40
1.0
 40
1.0
 40
1.0
 10
220.7544089283782
 20
1117.186833716265
 30
0.0
 10
220.7997549490237
 20
1117.187203452246
 30
0.0
 10
220.9116277691291
 20
1117.188115625053
 30
0.0
 10
221.094293005501
 20
1117.193916535841
 30
0.0
 10
221.3018518848352
 20
1117.203300151882
 30
0.0
 10
221.5136203337563
 20
1117.216027106372
 30
0.0
 10
221.7297758454794
 20
1117.231757219596
 30
0.0
 10
221.9497513703406
 20
1117.250282093044
 30
0.0
 10
222.1736314149479
 20
1117.271386362615
 30
0.0
 10
222.4015218815485
 20
1117.294876434343
 30
0.0
 10
222.6335221786268
 20
1117.320559768828
 30
0.0
 10
222.8697274545646
 20
1117.348249062992
 30
0.0
 10
223.109088872248
 20
1117.377617780445
 30
0.0
 10
223.3516876409674
 20
1117.408491238745
 30
0.0
 10
223.5973128437362
 20
1117.440647163496
 30
0.0
 10
223.8469115569279
 20
1117.474032674826
 30
0.0
 10
224.1001035103028
 20
1117.508423198027
 30
0.0
 10
224.3564595774914
 20
1117.543586708462
 30
0.0
 10
224.6155263356405
 20
1117.579287578157
 30
0.0
 10
224.8768362482067
 20
1117.615290043928
 30
0.0
 10
225.1402862159471
 20
1117.65140840804
 30
0.0
 10
225.4064068276148
 20
1117.687553700233
 30
0.0
 10
225.6751941582326
 20
1117.723577916923
 30
0.0
 10
225.9464810535392
 20
1117.759308636229
 30
0.0
 10
226.2195313060057
 20
1117.794507244164
 30
0.0
 10
226.4943920811871
 20
1117.829043310117
 30
0.0
 10
226.7711133912118
 20
1117.862790133266
 30
0.0
 10
227.0497461777607
 20
1117.895623398253
 30
0.0
 10
227.3301871767887
 20
1117.927405934452
 30
0.0
 10
227.6115821066155
 20
1117.957917054666
 30
0.0
 10
227.8934044806853
 20
1117.986985464015
 30
0.0
 10
228.1754087339076
 20
1118.014529966676
 30
0.0
 10
228.4580609105095
 20
1118.040524151468
 30
0.0
 10
228.7415055488663
 20
1118.064906971032
 30
0.0
 10
229.0256751745087
 20
1118.087596625529
 30
0.0
 10
229.3105028297718
 20
1118.10851287144
 30
0.0
 10
229.5959227370023
 20
1118.127574737287
 30
0.0
 10
229.8820655488917
 20
1118.144719992836
 30
0.0
 10
230.1682684596788
 20
1118.1598165987
 30
0.0
 10
230.4546903638531
 20
1118.172859200826
 30
0.0
 10
230.7411894829172
 20
1118.183842481847
 30
0.0
 10
231.0283613810352
 20
1118.19276947395
 30
0.0
 10
231.3158868654509
 20
1118.199607275527
 30
0.0
 10
231.6034587391143
 20
1118.204327528476
 30
0.0
 10
231.8907857886884
 20
1118.206905357782
 30
0.0
 10
232.1775862081496
 20
1118.20732338713
 30
0.0
 10
232.4635461625539
 20
1118.205555128251
 30
0.0
 10
232.7491828136299
 20
1118.201620121747
 30
0.0
 10
233.0346152044959
 20
1118.195561337229
 30
0.0
 10
233.3200905884585
 20
1118.187393706707
 30
0.0
 10
233.6051506177897
 20
1118.177163495289
 30
0.0
 10
233.8898532417672
 20
1118.164903622305
 30
0.0
 10
234.1742770500194
 20
1118.150645109879
 30
0.0
 10
234.4585039009409
 20
1118.134417580296
 30
0.0
 10
234.7426116315125
 20
1118.116247874639
 30
0.0
 10
235.0261920343707
 20
1118.09620184392
 30
0.0
 10
235.3091562344716
 20
1118.074301136238
 30
0.0
 10
235.5917504995744
 20
1118.050637200698
 30
0.0
 10
235.8744465926386
 20
1118.025257601929
 30
0.0
 10
236.1571164183439
 20
1117.99825390748
 30
0.0
 10
236.4391170551361
 20
1117.969770108969
 30
0.0
 10
236.7197984074791
 20
1117.939959961349
 30
0.0
 10
236.9984771677147
 20
1117.908988326524
 30
0.0
 10
237.2745047362573
 20
1117.877025600916
 30
0.0
 10
237.5488865688346
 20
1117.84404269703
 30
0.0
 10
237.8223264005846
 20
1117.810118887164
 30
0.0
 10
238.0950440494073
 20
1117.775339397252
 30
0.0
 10
238.3659528472312
 20
1117.739977575747
 30
0.0
 10
238.6345871726064
 20
1117.704236809313
 30
0.0
 10
238.9009823780318
 20
1117.668259011036
 30
0.0
 10
239.1651736815184
 20
1117.632187499622
 30
0.0
 10
239.4271944321425
 20
1117.596169295245
 30
0.0
 10
239.6871339509624
 20
1117.560341107257
 30
0.0
 10
239.9440331023815
 20
1117.52500593838
 30
0.0
 10
240.1978572033645
 20
1117.490347167642
 30
0.0
 10
240.4484333087846
 20
1117.456558314278
 30
0.0
 10
240.6963548591722
 20
1117.423737783253
 30
0.0
 10
240.9412102872937
 20
1117.392123368625
 30
0.0
 10
241.1826190474691
 20
1117.36195072126
 30
0.0
 10
241.4202249066432
 20
1117.333454055077
 30
0.0
 10
241.6537986086051
 20
1117.306852258894
 30
0.0
 10
241.8833104001571
 20
1117.28235179585
 30
0.0
 10
242.1089264364463
 20
1117.260130913387
 30
0.0
 10
242.33102306981
 20
1117.240347105311
 30
0.0
 10
242.5498133884743
 20
1117.223193877163
 30
0.0
 10
242.765324117205
 20
1117.208920930047
 30
0.0
 10
242.9774774984172
 20
1117.197717780424
 30
0.0
 10
243.1858752559837
 20
1117.190115454543
 30
0.0
 10
243.3588820892229
 20
1117.186162395615
 30
0.0
 10
243.4608008594378
 20
1117.186436261858
 30
0.0
 10
243.4959707083266
 20
1117.186530766868
 30
0.0
  0
SPLINE
  5
96
330
1F
100
AcDbEntity
  8
0
  6
Continuous
 62
     7
370
    30
100
AcDbSpline
210
0.0
220
0.0
230
1.0
 70
     8
 71
     3
 72
    24
 73
    20
 74
     0
 42
0.000000001
 43
0.00000001
 40
0.0
 40
0.0
 40
0.0
 40
0.0
 40
0.0306947694992084
 40
0.0905146718620619
 40
0.1503226836035509
 40
0.2101690604379409
 40
0.2700886713358744
 40
0.3301198188149986
 40
0.3903012315553763
 40
0.4506717992653597
 40
0.5112742354529602
 40
0.5723301906317343
 40
0.6329002918292909
 40
0.6938015286175667
 40
0.7549856928390573
 40
0.8164086272288866
 40
0.8780272992211222
 40
0.9397970173059643
 40
1.0
 40
1.0
 40
1.0
 40
1.0
 10
224.4937375736492
 20
1153.809513314371
 30
0.0
 10
224.4494324548712
 20
1153.815612838982
 30
0.0
 10
224.3187827268089
 20
1153.83359950178
 30
0.0
 10
224.1044801908267
 20
1153.862996444022
 30
0.0
 10
223.8521027645462
 20
1153.897291885287
 30
0.0
 10
223.6033684775564
 20
1153.930584558587
 30
0.0
 10
223.3581238459643
 20
1153.962718856191
 30
0.0
 10
223.1163058777388
 20
1153.993520932336
 30
0.0
 10
222.8778240511495
 20
1154.022816771348
 30
0.0
 10
222.6425902082194
 20
1154.050424207661
 30
0.0
 10
222.4102653378073
 20
1154.076190451896
 30
0.0
 10
222.1817662163086
 20
1154.099785642838
 30
0.0
 10
221.9571013402615
 20
1154.121007798486
 30
0.0
 10
221.7364283861458
 20
1154.139655441918
 30
0.0
 10
221.518909930316
 20
1154.155568891204
 30
0.0
 10
221.3047000710543
 20
1154.16852006456
 30
0.0
 10
221.0940622377366
 20
1154.178137817444
 30
0.0
 10
220.8886142770516
 20
1154.184486619828
 30
0.0
 10
220.7555196259281
 20
1154.185462737412
 30
0.0
 10
220.6898270986077
 20
1154.185944527104
 30
0.0
  0
LINE
  5
97
330
1F
100
AcDbEntity
  8
0
  6
Continuous
 62
     7
370
    30
100
AcDbLine
 10
281.2
 20
1152.3207419014
 30
0.0
 11
281.2
 21
1160.0
 31
0.0
  0
LINE
  5
98
330
1F
100
AcDbEntity
  8
0
  6
Continuous
 62
     7
370
    30
100
AcDbLine
 10
281.2
 20
1038.0
 30
0.0
 11
281.2
 21
1118.5419850015
 31
0.0
  0
LINE
  5
99
330
1F
100
AcDbEntity
  8
0
  6
Continuous
 62
     7
370
    30
100
AcDbLine
 10
251.2
 20
1118.5419850015
 30
0.0
 11
251.2
 21
1038.0
 31
0.0
  0
LINE
  5
9A
330
1F
100
AcDbEntity
  8
0
  6
Continuous
 62
     7
370
    30
100
AcDbLine
 10
251.2
 20
1160.0
 30
0.0
 11
251.2
 21
1152.3207419014
 31
0.0
  0
LINE
  5
9B
330
1F
100
AcDbEntity
  8
0
  6
Continuous
 62
     7
370
    30
100
AcDbLine
 10
277.15
 20
756.0
 30
0.0
 11
255.25
 21
756.0
 31
0.0
  0
LINE
  5
9C
330
1F
100
AcDbEntity
  8
0
  6
Continuous
 62
     7
370
    30
100
AcDbLine
 10
277.15
 20
1516.0
 30
0.0
 11
255.25
 21
1516.0
 31
0.0
  0
LINE
  5
9D
330
1F
100
AcDbEntity
  8
0
  6
Continuous
 62
     7
370
    30
100
AcDbLine
 10
252.2
 20
856.0
 30
0.0
 11
280.2
 21
856.0
 31
0.0
  0
LINE
  5
9E
330
1F
100
AcDbEntity
  8
0
  6
Continuous
 62
     7
370
    30
100
AcDbLine
 10
280.2
 20
805.8
 30
0.0
 11
252.2
 21
805.8
 31
0.0
  0
LINE
  5
9F
330
1F
100
AcDbEntity
  8
0
  6
Continuous
 62
     7
370
    30
100
AcDbLine
 10
252.2
 20
1466.2
 30
0.0
 11
280.2
 21
1466.2
 31
0.0
  0
LINE
  5
A0
330
1F
100
AcDbEntity
  8
0
  6
Continuous
 62
     7
370
    30
100
AcDbLine
 10
280.2
 20
1416.0
 30
0.0
 11
252.2
 21
1416.0
 31
0.0
  0
LINE
  5
A1
330
1F
100
AcDbEntity
  8
0
  6
Continuous
 62
     7
370
    30
100
AcDbLine
 10
220.6897979986
 20
1154.1846709578
 30
0.0
 11
220.6732773508
 21
1154.1848241161
 31
0.0
  0
LINE
  5
A2
330
1F
100
AcDbEntity
  8
0
  6
Continuous
 62
     7
370
    30
100
AcDbLine
 10
220.6731661444
 20
1117.1871791956
 30
0.0
 11
220.6866457415
 21
1117.1871218746
 31
0.0
  0
LINE
  5
A3
330
1F
100
AcDbEntity
  8
0
  6
Continuous
 62
     7
370
    30
100
AcDbLine
 10
243.4938398705
 20
1154.1857218131
 30
0.0
 11
243.4913133196
 21
1154.1856873524
 31
0.0
  0
LINE
  5
A4
330
1F
100
AcDbEntity
  8
0
  6
Continuous
 62
     7
370
    30
100
AcDbLine
 10
213.8
 20
1118.186016776
 30
0.0
 11
213.8
 21
1153.186016776
 31
0.0
  0
LINE
  5
A5
330
1F
100
AcDbEntity
  8
0
  6
Continuous
 62
     7
370
    30
100
AcDbLine
 10
250.2
 20
1153.186016776
 30
0.0
 11
250.2
 21
1118.186016776
 31
0.0
  0
LINE
  5
A6
330
1F
100
AcDbEntity
  8
0
  6
Continuous
 62
     7
370
    30
100
AcDbLine
 10
251.2
 20
1151.8201776735
 30
0.0
 11
251.2
 21
1120.3382535223
 31
0.0
  0
LINE
  5
A7
330
1F
100
AcDbEntity
  8
0
  6
Continuous
 62
     7
370
    30
100
AcDbLine
 10
252.2
 20
1153.3207419014
 30
0.0
 11
280.2
 21
1153.3207419014
 31
0.0
  0
LINE
  5
A8
330
1F
100
AcDbEntity
  8
0
  6
Continuous
 62
     7
370
    30
100
AcDbLine
 10
252.2
 20
1117.5419850015
 30
0.0
 11
280.2
 21
1117.5419850015
 31
0.0
  0
ARC
  5
A9
330
1F
100
AcDbEntity
  8
0
  6
Continuous
 62
     7
370
    30
100
AcDbCircle
 10
280.2
 20
1152.3207419014
 30
0.0
 40
1.0
100
AcDbArc
 50
0.0
 51
90.0
  0
LINE
  5
AA
330
1F
100
AcDbEntity
  8
0
  6
Continuous
 62
     7
370
    30
100
AcDbLine
 10
281.2
 20
1152.3207419014
 30
0.0
 11
281.2
 21
1118.5419850015
 31
0.0
  0
ARC
  5
AB
330
1F
100
AcDbEntity
  8
0
  6
Continuous
 62
     7
370
    30
100
AcDbCircle
 10
280.2
 20
1118.5419850015
 30
0.0
 40
1.0
100
AcDbArc
 50
270.0
 51
0.0
  0
LINE
  5
AC
330
1F
100
AcDbEntity
  8
0
  6
Continuous
 62
     7
370
    30
100
AcDbLine
 10
251.2
 20
1118.5419850015
 30
0.0
 11
251.2
 21
1120.3382535223
 31
0.0
  0
LINE
  5
AD
330
1F
100
AcDbEntity
  8
0
  6
Continuous
 62
     7
370
    30
100
AcDbLine
 10
251.2
 20
1151.8201776735
 30
0.0
 11
251.2
 21
1152.3207419014
 31
0.0
  0
ARC
  5
AE
330
1F
100
AcDbEntity
  8
0
  6
Continuous
 62
     7
370
    30
100
AcDbCircle
 10
252.2
 20
1152.3207419014
 30
0.0
 40
1.0
100
AcDbArc
 50
90.0
 51
180.0
  0
ARC
  5
AF
330
1F
100
AcDbEntity
  8
0
  6
Continuous
 62
     7
370
    30
100
AcDbCircle
 10
252.2
 20
1118.5419850015
 30
0.0
 40
1.0
100
AcDbArc
 50
180.0
 51
270.0
  0
LINE
  5
B0
330
1F
100
AcDbEntity
  8
0
  6
Continuous
 62
     7
370
    30
100
AcDbLine
 10
266.2
 20
1038.0
 30
0.0
 11
281.2
 21
1038.0
 31
0.0
  0
LINE
  5
B1
330
1F
100
AcDbEntity
  8
0
  6
Continuous
 62
     7
370
    30
100
AcDbLine
 10
251.2
 20
1038.0
 30
0.0
 11
266.2
 21
1038.0
 31
0.0
  0
LINE
  5
B2
330
1F
100
AcDbEntity
  8
0
  6
Continuous
 62
     7
370
    30
100
AcDbLine
 10
266.2
 20
1160.0
 30
0.0
 11
281.2
 21
1160.0
 31
0.0
  0
LINE
  5
B3
330
1F
100
AcDbEntity
  8
0
  6
Continuous
 62
     7
370
    30
100
AcDbLine
 10
251.2
 20
1160.0
 30
0.0
 11
266.2
 21
1160.0
 31
0.0
  0
LINE
  5
B4
330
1F
100
AcDbEntity
  8
0
  6
Continuous
 62
     7
370
    30
100
AcDbLine
 10
425.4997586344
 20
756.0
 30
0.0
 11
425.4997586344
 21
805.8
 31
0.0
  0
LINE
  5
B5
330
1F
100
AcDbEntity
  8
0
  6
Continuous
 62
     7
370
    30
100
AcDbLine
 10
425.4997586344
 20
856.0
 30
0.0
 11
425.4997586344
 21
1038.0
 31
0.0
  0
LINE
  5
B6
330
1F
100
AcDbEntity
  8
0
  6
Continuous
 62
     7
370
    30
100
AcDbLine
 10
425.4997586344
 20
1160.0
 30
0.0
 11
425.4997586344
 21
1416.0
 31
0.0
  0
LINE
  5
B7
330
1F
100
AcDbEntity
  8
0
  6
Continuous
 62
     7
370
    30
100
AcDbLine
 10
425.4997586344
 20
1466.2
 30
0.0
 11
425.4997586344
 21
1516.0
 31
0.0
  0
LINE
  5
B8
330
1F
100
AcDbEntity
  8
0
  6
Continuous
 62
     7
370
    30
100
AcDbLine
 10
403.5997586344
 20
1516.0
 30
0.0
 11
403.5997586344
 21
1466.2
 31
0.0
  0
LINE
  5
B9
330
1F
100
AcDbEntity
  8
0
  6
Continuous
 62
     7
370
    30
100
AcDbLine
 10
403.5997586344
 20
1416.0
 30
0.0
 11
403.5997586344
 21
1160.0
 31
0.0
  0
LINE
  5
BA
330
1F
100
AcDbEntity
  8
0
  6
Continuous
 62
     7
370
    30
100
AcDbLine
 10
403.5997586344
 20
1038.0
 30
0.0
 11
403.5997586344
 21
856.0
 31
0.0
  0
LINE
  5
BB
330
1F
100
AcDbEntity
  8
0
  6
Continuous
 62
     7
370
    30
100
AcDbLine
 10
403.5997586344
 20
805.8
 30
0.0
 11
403.5997586344
 21
756.0
 31
0.0
  0
ARC
  5
BC
330
1F
100
AcDbEntity
  8
0
  6
Continuous
 62
     7
370
    30
100
AcDbCircle
 10
428.5497586344
 20
855.0
 30
0.0
 40
1.0
100
AcDbArc
 50
0.0
 51
90.0
  0
ARC
  5
BD
330
1F
100
AcDbEntity
  8
0
  6
Continuous
 62
     7
370
    30
100
AcDbCircle
 10
428.5497586344
 20
806.8
 30
0.0
 40
1.0
100
AcDbArc
 50
270.0
 51
0.0
  0
LINE
  5
BE
330
1F
100
AcDbEntity
  8
0
  6
Continuous
 62
     7
370
    30
100
AcDbLine
 10
429.5497586344
 20
806.8
 30
0.0
 11
429.5497586344
 21
855.0
 31
0.0
  0
ARC
  5
BF
330
1F
100
AcDbEntity
  8
0
  6
Continuous
 62
     7
370
    30
100
AcDbCircle
 10
428.5497586344
 20
1417.0
 30
0.0
 40
1.0
100
AcDbArc
 50
270.0
 51
0.0
  0
LINE
  5
C0
330
1F
100
AcDbEntity
  8
0
  6
Continuous
 62
     7
370
    30
100
AcDbLine
 10
429.5497586344
 20
1417.0
 30
0.0
 11
429.5497586344
 21
1465.2
 31
0.0
  0
ARC
  5
C1
330
1F
100
AcDbEntity
  8
0
  6
Continuous
 62
     7
370
    30
100
AcDbCircle
 10
428.5497586344
 20
1465.2
 30
0.0
 40
1.0
100
AcDbArc
 50
0.0
 51
90.0
  0
LINE
  5
C2
330
1F
100
AcDbEntity
  8
0
  6
Continuous
 62
     7
370
    30
100
AcDbLine
 10
429.5497586344
 20
1154.3207419014
 30
0.0
 11
429.5497586344
 21
1160.0
 31
0.0
  0
LINE
  5
C3
330
1F
100
AcDbEntity
  8
0
  6
Continuous
 62
     7
370
    30
100
AcDbLine
 10
429.5497586344
 20
1038.0
 30
0.0
 11
429.5497586344
 21
1116.5419850015
 31
0.0
  0
LINE
  5
C4
330
1F
100
AcDbEntity
  8
0
  6
Continuous
 62
     7
370
    30
100
AcDbLine
 10
399.5497586344
 20
1160.0
 30
0.0
 11
399.5497586344
 21
1038.0
 31
0.0
  0
ARC
  5
C5
330
1F
100
AcDbEntity
  8
0
  6
Continuous
 62
     7
370
    30
100
AcDbCircle
 10
430.5497586344
 20
1154.3207419014
 30
0.0
 40
1.0
100
AcDbArc
 50
180.0
 51
270.0
  0
ARC
  5
C6
330
1F
100
AcDbEntity
  8
0
  6
Continuous
 62
     7
370
    30
100
AcDbCircle
 10
430.5497586344
 20
1116.5419850015
 30
0.0
 40
1.0
100
AcDbArc
 50
90.0
 51
180.0
  0
LINE
  5
C7
330
1F
100
AcDbEntity
  8
0
  6
Continuous
 62
     7
370
    30
100
AcDbLine
 10
425.4997586344
 20
756.0
 30
0.0
 11
403.5997586344
 21
756.0
 31
0.0
  0
LINE
  5
C8
330
1F
100
AcDbEntity
  8
0
  6
Continuous
 62
     7
370
    30
100
AcDbLine
 10
425.4997586344
 20
1516.0
 30
0.0
 11
403.5997586344
 21
1516.0
 31
0.0
  0
SPLINE
  5
C9
330
1F
100
AcDbEntity
  8
0
  6
Continuous
 62
     7
370
    30
100
AcDbSpline
210
0.0
220
0.0
230
1.0
 70
     8
 71
     3
 72
    18
 73
    14
 74
     0
 42
0.000000001
 43
0.00000001
 40
0.0
 40
0.0
 40
0.0
 40
0.0
 40
0.0964273136467314
 40
0.1957327204301182
 40
0.2921403294283059
 40
0.3912021416767856
 40
0.4904707984278098
 40
0.5922794584503803
 40
0.6982080024955348
 40
0.8068329483025982
 40
0.9002721850949088
 40
0.9953830946721557
 40
1.0
 40
1.0
 40
1.0
 40
1.0
 10
404.2786157346696
 20
854.9999999999998
 30
0.0
 10
404.2795662139953
 20
855.0525090328354
 30
0.0
 10
404.2814955418702
 20
855.15909435037
 30
0.0
 10
404.2969692986873
 20
855.3135883241687
 30
0.0
 10
404.3212860207866
 20
855.4603538908791
 30
0.0
 10
404.354383798614
 20
855.594331495189
 30
0.0
 10
404.3958122949329
 20
855.7143692410759
 30
0.0
 10
404.4450201126959
 20
855.8176920263597
 30
0.0
 10
404.5015669348958
 20
855.9015346963881
 30
0.0
 10
404.5610383705683
 20
855.9591362880367
 30
0.0
 10
404.6210464541065
 20
855.9921384124445
 30
0.0
 10
404.6610144767978
 20
855.9998799512517
 30
0.0
 10
404.6816885234932
 20
855.9999946882438
 30
0.0
 10
404.6826456297571
 20
855.9999999999998
 30
0.0
  0
LINE
  5
CA
330
1F
100
AcDbEntity
  8
0
  6
Continuous
 62
     7
370
    30
100
AcDbLine
 10
404.6826456298
 20
856.0
 30
0.0
 11
428.5497586344
 21
856.0
 31
0.0
  0
LINE
  5
CB
330
1F
100
AcDbEntity
  8
0
  6
Continuous
 62
     7
370
    30
100
AcDbLine
 10
428.5497586344
 20
805.8
 30
0.0
 11
404.6826456298
 21
805.8
 31
0.0
  0
SPLINE
  5
CC
330
1F
100
AcDbEntity
  8
0
  6
Continuous
 62
     7
370
    30
100
AcDbSpline
210
0.0
220
0.0
230
1.0
 70
     8
 71
     3
 72
    19
 73
    15
 74
     0
 42
0.000000001
 43
0.00000001
 40
0.0
 40
0.0
 40
0.0
 40
0.0
 40
0.0046165009615644
 40
0.098053985959361
 40
0.1931500778848443
 40
0.2990963197877413
 40
0.3532579079897333
 40
0.4077732660610016
 40
0.5070631338539298
 40
0.6088326101127914
 40
0.7052573413756289
 40
0.8042845787047842
 40
0.9007144808915378
 40
0.9999999999999999
 40
0.9999999999999999
 40
0.9999999999999999
 40
0.9999999999999999
 10
404.6826456297571
 20
805.7999999999997
 30
0.0
 10
404.6816885230123
 20
805.8000053107339
 30
0.0
 10
404.6613596782666
 20
805.8001181101604
 30
0.0
 10
404.6213916533518
 20
805.807736772143
 30
0.0
 10
404.561901306071
 20
805.8402530023824
 30
0.0
 10
404.5125767688352
 20
805.8877500483435
 30
0.0
 10
404.4734221489342
 20
805.9401284362131
 30
0.0
 10
404.4372276840168
 20
805.998885382615
 30
0.0
 10
404.3961929934371
 20
806.0846927758288
 30
0.0
 10
404.3550284666629
 20
806.2034839050767
 30
0.0
 10
404.3215505405669
 20
806.3383638689428
 30
0.0
 10
404.2973453518982
 20
806.4836041005998
 30
0.0
 10
404.2816007704674
 20
806.639326094316
 30
0.0
 10
404.2796203783441
 20
806.7459235888833
 30
0.0
 10
404.2786157346696
 20
806.7999999999997
 30
0.0
  0
LINE
  5
CD
330
1F
100
AcDbEntity
  8
0
  6
Continuous
 62
     7
370
    30
100
AcDbLine
 10
404.2786157347
 20
806.8
 30
0.0
 11
404.2786157347
 21
855.0
 31
0.0
  0
LINE
  5
CE
330
1F
100
AcDbEntity
  8
0
  6
Continuous
 62
     7
370
    30
100
AcDbLine
 10
364.8048206251
 20
855.0
 30
0.0
 11
364.8048206251
 21
856.0
 31
0.0
  0
LINE
  5
CF
330
1F
100
AcDbEntity
  8
0
  6
Continuous
 62
     7
370
    30
100
AcDbLine
 10
364.8048206251
 20
856.0
 30
0.0
 11
404.6826456298
 21
856.0
 31
0.0
  0
LINE
  5
D0
330
1F
100
AcDbEntity
  8
0
  6
Continuous
 62
     7
370
    30
100
AcDbLine
 10
364.8048206251
 20
805.8
 30
0.0
 11
364.8048206251
 21
806.8
 31
0.0
  0
LINE
  5
D1
330
1F
100
AcDbEntity
  8
0
  6
Continuous
 62
     7
370
    30
100
AcDbLine
 10
404.6826456298
 20
805.8
 30
0.0
 11
364.8048206251
 21
805.8
 31
0.0
  0
LINE
  5
D2
330
1F
100
AcDbEntity
  8
0
  6
Continuous
 62
     7
370
    30
100
AcDbLine
 10
364.8048206251
 20
806.8
 30
0.0
 11
364.8048206251
 21
855.0
 31
0.0
  0
LINE
  5
D3
330
1F
100
AcDbEntity
  8
0
  6
Continuous
 62
     7
370
    30
100
AcDbLine
 10
428.5497586344
 20
1416.0
 30
0.0
 11
404.6826456298
 21
1416.0
 31
0.0
  0
SPLINE
  5
D4
330
1F
100
AcDbEntity
  8
0
  6
Continuous
 62
     7
370
    30
100
AcDbSpline
210
0.0
220
0.0
230
1.0
 70
     8
 71
     3
 72
    18
 73
    14
 74
     0
 42
0.000000001
 43
0.00000001
 40
0.0
 40
0.0
 40
0.0
 40
0.0
 40
0.0964273136467369
 40
0.1957327204301956
 40
0.2921403294283282
 40
0.3912021416768167
 40
0.4904707984278994
 40
0.5922794584504811
 40
0.6982080024956372
 40
0.806832948302704
 40
0.900272185094955
 40
0.9953830946721516
 40
0.9999999999999999
 40
0.9999999999999999
 40
0.9999999999999999
 40
0.9999999999999999
 10
404.2786157346766
 20
1417.0
 30
0.0
 10
404.2795662140022
 20
1416.947490967164
 30
0.0
 10
404.2814955418772
 20
1416.84090564963
 30
0.0
 10
404.2969692986943
 20
1416.686411675831
 30
0.0
 10
404.3212860207936
 20
1416.539646109121
 30
0.0
 10
404.3543837986209
 20
1416.405668504811
 30
0.0
 10
404.3958122949398
 20
1416.285630758924
 30
0.0
 10
404.4450201127028
 20
1416.18230797364
 30
0.0
 10
404.5015669349027
 20
1416.098465303611
 30
0.0
 10
404.561038370575
 20
1416.040863711963
 30
0.0
 10
404.6210464541133
 20
1416.007861587555
 30
0.0
 10
404.6610144768041
 20
1416.000120048747
 30
0.0
 10
404.6816885234997
 20
1416.000005311756
 30
0.0
 10
404.6826456297637
 20
1416.0
 30
0.0
  0
LINE
  5
D5
330
1F
100
AcDbEntity
  8
0
  6
Continuous
 62
     7
370
    30
100
AcDbLine
 10
404.2786157347
 20
1465.2
 30
0.0
 11
404.2786157347
 21
1417.0
 31
0.0
  0
LINE
  5
D6
330
1F
100
AcDbEntity
  8
0
  6
Continuous
 62
     7
370
    30
100
AcDbLine
 10
404.6826456298
 20
1466.2
 30
0.0
 11
428.5497586344
 21
1466.2
 31
0.0
  0
SPLINE
  5
D7
330
1F
100
AcDbEntity
  8
0
  6
Continuous
 62
     7
370
    30
100
AcDbSpline
210
0.0
220
0.0
230
1.0
 70
     8
 71
     3
 72
    19
 73
    15
 74
     0
 42
0.000000001
 43
0.00000001
 40
0.0
 40
0.0
 40
0.0
 40
0.0
 40
0.0046165009615687
 40
0.0980539859593193
 40
0.1931500778847562
 40
0.299096319787659
 40
0.3532579079896238
 40
0.4077732660608956
 40
0.5070631338538772
 40
0.6088326101127017
 40
0.705257341375606
 40
0.8042845787047693
 40
0.9007144808915306
 40
1.0
 40
1.0
 40
1.0
 40
1.0
 10
404.6826456297636
 20
1466.2
 30
0.0
 10
404.6816885230189
 20
1466.199994689266
 30
0.0
 10
404.6613596782733
 20
1466.199881889839
 30
0.0
 10
404.6213916533586
 20
1466.192263227857
 30
0.0
 10
404.5619013060779
 20
1466.159746997617
 30
0.0
 10
404.512576768842
 20
1466.112249951656
 30
0.0
 10
404.473422148941
 20
1466.059871563786
 30
0.0
 10
404.4372276840237
 20
1466.001114617385
 30
0.0
 10
404.3961929934439
 20
1465.915307224171
 30
0.0
 10
404.3550284666698
 20
1465.796516094923
 30
0.0
 10
404.3215505405739
 20
1465.661636131057
 30
0.0
 10
404.2973453519051
 20
1465.5163958994
 30
0.0
 10
404.2816007704744
 20
1465.360673905683
 30
0.0
 10
404.279620378351
 20
1465.254076411116
 30
0.0
 10
404.2786157346766
 20
1465.2
 30
0.0
  0
LINE
  5
D8
330
1F
100
AcDbEntity
  8
0
  6
Continuous
 62
     7
370
    30
100
AcDbLine
 10
364.8048206251
 20
1416.0
 30
0.0
 11
364.8048206251
 21
1417.0
 31
0.0
  0
LINE
  5
D9
330
1F
100
AcDbEntity
  8
0
  6
Continuous
 62
     7
370
    30
100
AcDbLine
 10
404.6826456298
 20
1416.0
 30
0.0
 11
364.8048206251
 21
1416.0
 31
0.0
  0
LINE
  5
DA
330
1F
100
AcDbEntity
  8
0
  6
Continuous
 62
     7
370
    30
100
AcDbLine
 10
364.8048206251
 20
1465.2
 30
0.0
 11
364.8048206251
 21
1466.2
 31
0.0
  0
LINE
  5
DB
330
1F
100
AcDbEntity
  8
0
  6
Continuous
 62
     7
370
    30
100
AcDbLine
 10
364.8048206251
 20
1466.2
 30
0.0
 11
404.6826456298
 21
1466.2
 31
0.0
  0
LINE
  5
DC
330
1F
100
AcDbEntity
  8
0
  6
Continuous
 62
     7
370
    30
100
AcDbLine
 10
364.8048206251
 20
1465.2
 30
0.0
 11
364.8048206251
 21
1417.0
 31
0.0
  0
CIRCLE
  5
DD
330
1F
100
AcDbEntity
  8
0
  6
Continuous
 62
     7
370
    30
100
AcDbCircle
 10
449.6951793748
 20
1135.686016776
 30
0.0
 40
18.5
  0
LINE
  5
DE
330
1F
100
AcDbEntity
  8
0
  6
Continuous
 62
     7
370
    30
100
AcDbLine
 10
399.5497586344
 20
1038.0
 30
0.0
 11
429.5497586344
 21
1038.0
 31
0.0
  0
LINE
  5
DF
330
1F
100
AcDbEntity
  8
0
  6
Continuous
 62
     7
370
    30
100
AcDbLine
 10
399.5497586344
 20
1160.0
 30
0.0
 11
429.5497586344
 21
1160.0
 31
0.0
  0
LINE
  5
E0
330
1F
100
AcDbEntity
  8
0
  6
Continuous
 62
     7
370
    30
100
AcDbLine
 10
422.2957253268
 20
1153.3207419014
 30
0.0
 11
444.1035365259
 21
1153.3207419014
 31
0.0
  0
LINE
  5
E1
330
1F
100
AcDbEntity
  8
0
  6
Continuous
 62
     7
370
    30
100
AcDbLine
 10
446.0835161893
 20
1117.5419850015
 30
0.0
 11
422.2957253268
 21
1117.5419850015
 31
0.0
  0
LINE
  5
E2
330
1F
100
AcDbEntity
  8
0
  6
Continuous
 62
     7
370
    30
100
AcDbLine
 10
91.4002413656
 20
756.0
 30
0.0
 11
91.4002413656
 21
805.8
 31
0.0
  0
LINE
  5
E3
330
1F
100
AcDbEntity
  8
0
  6
Continuous
 62
     7
370
    30
100
AcDbLine
 10
91.4002413656
 20
856.0
 30
0.0
 11
91.4002413656
 21
1038.0
 31
0.0
  0
LINE
  5
E4
330
1F
100
AcDbEntity
  8
0
  6
Continuous
 62
     7
370
    30
100
AcDbLine
 10
91.4002413656
 20
1160.0
 30
0.0
 11
91.4002413656
 21
1416.0
 31
0.0
  0
LINE
  5
E5
330
1F
100
AcDbEntity
  8
0
  6
Continuous
 62
     7
370
    30
100
AcDbLine
 10
91.4002413656
 20
1466.2
 30
0.0
 11
91.4002413656
 21
1516.0
 31
0.0
  0
LINE
  5
E6
330
1F
100
AcDbEntity
  8
0
  6
Continuous
 62
     7
370
    30
100
AcDbLine
 10
69.5002413656
 20
1516.0
 30
0.0
 11
69.5002413656
 21
1466.2
 31
0.0
  0
LINE
  5
E7
330
1F
100
AcDbEntity
  8
0
  6
Continuous
 62
     7
370
    30
100
AcDbLine
 10
69.5002413656
 20
1416.0
 30
0.0
 11
69.5002413656
 21
1160.0
 31
0.0
  0
LINE
  5
E8
330
1F
100
AcDbEntity
  8
0
  6
Continuous
 62
     7
370
    30
100
AcDbLine
 10
69.5002413656
 20
1038.0
 30
0.0
 11
69.5002413656
 21
856.0
 31
0.0
  0
LINE
  5
E9
330
1F
100
AcDbEntity
  8
0
  6
Continuous
 62
     7
370
    30
100
AcDbLine
 10
69.5002413656
 20
805.8
 30
0.0
 11
69.5002413656
 21
756.0
 31
0.0
  0
ARC
  5
EA
330
1F
100
AcDbEntity
  8
0
  6
Continuous
 62
     7
370
    30
100
AcDbCircle
 10
66.4502413656
 20
855.0
 30
0.0
 40
1.0
100
AcDbArc
 50
90.0
 51
180.0
  0
LINE
  5
EB
330
1F
100
AcDbEntity
  8
0
  6
Continuous
 62
     7
370
    30
100
AcDbLine
 10
65.4502413656
 20
855.0
 30
0.0
 11
65.4502413656
 21
806.8
 31
0.0
  0
ARC
  5
EC
330
1F
100
AcDbEntity
  8
0
  6
Continuous
 62
     7
370
    30
100
AcDbCircle
 10
66.4502413656
 20
806.8
 30
0.0
 40
1.0
100
AcDbArc
 50
180.0
 51
270.0
  0
LINE
  5
ED
330
1F
100
AcDbEntity
  8
0
  6
Continuous
 62
     7
370
    30
100
AcDbLine
 10
65.4502413656
 20
1465.2
 30
0.0
 11
65.4502413656
 21
1417.0
 31
0.0
  0
ARC
  5
EE
330
1F
100
AcDbEntity
  8
0
  6
Continuous
 62
     7
370
    30
100
AcDbCircle
 10
66.4502413656
 20
1465.2
 30
0.0
 40
1.0
100
AcDbArc
 50
90.0
 51
180.0
  0
ARC
  5
EF
330
1F
100
AcDbEntity
  8
0
  6
Continuous
 62
     7
370
    30
100
AcDbCircle
 10
66.4502413656
 20
1417.0
 30
0.0
 40
1.0
100
AcDbArc
 50
180.0
 51
270.0
  0
LINE
  5
F0
330
1F
100
AcDbEntity
  8
0
  6
Continuous
 62
     7
370
    30
100
AcDbLine
 10
95.4502413656
 20
1038.0
 30
0.0
 11
95.4502413656
 21
1160.0
 31
0.0
  0
LINE
  5
F1
330
1F
100
AcDbEntity
  8
0
  6
Continuous
 62
     7
370
    30
100
AcDbLine
 10
65.4502413656
 20
1116.5419850015
 30
0.0
 11
65.4502413656
 21
1038.0
 31
0.0
  0
LINE
  5
F2
330
1F
100
AcDbEntity
  8
0
  6
Continuous
 62
     7
370
    30
100
AcDbLine
 10
65.4502413656
 20
1160.0
 30
0.0
 11
65.4502413656
 21
1154.3207419014
 31
0.0
  0
ARC
  5
F3
330
1F
100
AcDbEntity
  8
0
  6
Continuous
 62
     7
370
    30
100
AcDbCircle
 10
64.4502413656
 20
1116.5419850015
 30
0.0
 40
1.0
100
AcDbArc
 50
0.0
 51
90.0
  0
ARC
  5
F4
330
1F
100
AcDbEntity
  8
0
  6
Continuous
 62
     7
370
    30
100
AcDbCircle
 10
64.4502413656
 20
1154.3207419014
 30
0.0
 40
1.0
100
AcDbArc
 50
270.0
 51
0.0
  0
LINE
  5
F5
330
1F
100
AcDbEntity
  8
0
  6
Continuous
 62
     7
370
    30
100
AcDbLine
 10
91.4002413656
 20
756.0
 30
0.0
 11
69.5002413656
 21
756.0
 31
0.0
  0
LINE
  5
F6
330
1F
100
AcDbEntity
  8
0
  6
Continuous
 62
     7
370
    30
100
AcDbLine
 10
91.4002413656
 20
1516.0
 30
0.0
 11
69.5002413656
 21
1516.0
 31
0.0
  0
LINE
  5
F7
330
1F
100
AcDbEntity
  8
0
  6
Continuous
 62
     7
370
    30
100
AcDbLine
 10
66.4502413656
 20
856.0
 30
0.0
 11
90.3173543702
 21
856.0
 31
0.0
  0
SPLINE
  5
F8
330
1F
100
AcDbEntity
  8
0
  6
Continuous
 62
     7
370
    30
100
AcDbSpline
210
0.0
220
0.0
230
1.0
 70
     8
 71
     3
 72
    18
 73
    14
 74
     0
 42
0.000000001
 43
0.00000001
 40
0.0
 40
0.0
 40
0.0
 40
0.0
 40
0.0964273136467369
 40
0.1957327204301956
 40
0.2921403294283282
 40
0.3912021416768167
 40
0.4904707984278994
 40
0.5922794584504811
 40
0.6982080024956372
 40
0.806832948302704
 40
0.900272185094955
 40
0.9953830946721516
 40
0.9999999999999999
 40
0.9999999999999999
 40
0.9999999999999999
 40
0.9999999999999999
 10
90.7213842653233
 20
854.9999999999998
 30
0.0
 10
90.7204337859976
 20
855.0525090328354
 30
0.0
 10
90.7185044581226
 20
855.15909435037
 30
0.0
 10
90.70303070130564
 20
855.3135883241688
 30
0.0
 10
90.67871397920628
 20
855.4603538908791
 30
0.0
 10
90.64561620137897
 20
855.594331495189
 30
0.0
 10
90.60418770506007
 20
855.714369241076
 30
0.0
 10
90.55497988729708
 20
855.8176920263599
 30
0.0
 10
90.49843306509717
 20
855.9015346963882
 30
0.0
 10
90.43896162942488
 20
855.9591362880368
 30
0.0
 10
90.37895354588657
 20
855.9921384124445
 30
0.0
 10
90.33898552319575
 20
855.9998799512516
 30
0.0
 10
90.31831147650013
 20
855.9999946882438
 30
0.0
 10
90.31735437023616
 20
855.9999999999998
 30
0.0
  0
LINE
  5
F9
330
1F
100
AcDbEntity
  8
0
  6
Continuous
 62
     7
370
    30
100
AcDbLine
 10
90.7213842653
 20
806.8
 30
0.0
 11
90.7213842653
 21
855.0
 31
0.0
  0
LINE
  5
FA
330
1F
100
AcDbEntity
  8
0
  6
Continuous
 62
     7
370
    30
100
AcDbLine
 10
90.3173543702
 20
805.8
 30
0.0
 11
66.4502413656
 21
805.8
 31
0.0
  0
SPLINE
  5
FB
330
1F
100
AcDbEntity
  8
0
  6
Continuous
 62
     7
370
    30
100
AcDbSpline
210
0.0
220
0.0
230
1.0
 70
     8
 71
     3
 72
    19
 73
    15
 74
     0
 42
0.000000001
 43
0.00000001
 40
0.0
 40
0.0
 40
0.0
 40
0.0
 40
0.0046165009615687
 40
0.0980539859593193
 40
0.1931500778847562
 40
0.299096319787659
 40
0.3532579079896238
 40
0.4077732660608956
 40
0.5070631338538772
 40
0.6088326101127017
 40
0.705257341375606
 40
0.8042845787047693
 40
0.9007144808915306
 40
1.0
 40
1.0
 40
1.0
 40
1.0
 10
90.31735437023619
 20
805.7999999999997
 30
0.0
 10
90.318311476981
 20
805.8000053107339
 30
0.0
 10
90.33864032172654
 20
805.8001181101604
 30
0.0
 10
90.37860834664133
 20
805.807736772143
 30
0.0
 10
90.43809869392206
 20
805.8402530023824
 30
0.0
 10
90.48742323115785
 20
805.8877500483435
 30
0.0
 10
90.52657785105889
 20
805.9401284362131
 30
0.0
 10
90.56277231597618
 20
805.9988853826148
 30
0.0
 10
90.60380700655593
 20
806.0846927758289
 30
0.0
 10
90.64497153333011
 20
806.2034839050766
 30
0.0
 10
90.67844945942596
 20
806.3383638689428
 30
0.0
 10
90.70265464809475
 20
806.4836041005998
 30
0.0
 10
90.71839922952552
 20
806.639326094316
 30
0.0
 10
90.72037962164882
 20
806.7459235888833
 30
0.0
 10
90.7213842653233
 20
806.7999999999997
 30
0.0
  0
LINE
  5
FC
330
1F
100
AcDbEntity
  8
0
  6
Continuous
 62
     7
370
    30
100
AcDbLine
 10
130.1951793748
 20
856.0
 30
0.0
 11
130.1951793748
 21
855.0
 31
0.0
  0
LINE
  5
FD
330
1F
100
AcDbEntity
  8
0
  6
Continuous
 62
     7
370
    30
100
AcDbLine
 10
90.3173543702
 20
856.0
 30
0.0
 11
130.1951793748
 21
856.0
 31
0.0
  0
LINE
  5
FE
330
1F
100
AcDbEntity
  8
0
  6
Continuous
 62
     7
370
    30
100
AcDbLine
 10
130.1951793748
 20
806.8
 30
0.0
 11
130.1951793748
 21
805.8
 31
0.0
  0
LINE
  5
FF
330
1F
100
AcDbEntity
  8
0
  6
Continuous
 62
     7
370
    30
100
AcDbLine
 10
130.1951793748
 20
805.8
 30
0.0
 11
90.3173543702
 21
805.8
 31
0.0
  0
LINE
  5
100
330
1F
100
AcDbEntity
  8
0
  6
Continuous
 62
     7
370
    30
100
AcDbLine
 10
130.1951793748
 20
806.8
 30
0.0
 11
130.1951793748
 21
855.0
 31
0.0
  0
LINE
  5
101
330
1F
100
AcDbEntity
  8
0
  6
Continuous
 62
     7
370
    30
100
AcDbLine
 10
90.7213842653
 20
1465.2
 30
0.0
 11
90.7213842653
 21
1417.0
 31
0.0
  0
LINE
  5
102
330
1F
100
AcDbEntity
  8
0
  6
Continuous
 62
     7
370
    30
100
AcDbLine
 10
66.4502413656
 20
1466.2
 30
0.0
 11
90.3173543702
 21
1466.2
 31
0.0
  0
SPLINE
  5
103
330
1F
100
AcDbEntity
  8
0
  6
Continuous
 62
     7
370
    30
100
AcDbSpline
210
0.0
220
0.0
230
1.0
 70
     8
 71
     3
 72
    19
 73
    15
 74
     0
 42
0.000000001
 43
0.00000001
 40
0.0
 40
0.0
 40
0.0
 40
0.0
 40
0.0046165009615644
 40
0.098053985959361
 40
0.1931500778848443
 40
0.2990963197877413
 40
0.3532579079897333
 40
0.4077732660610016
 40
0.5070631338539298
 40
0.6088326101127914
 40
0.7052573413756289
 40
0.8042845787047842
 40
0.9007144808915378
 40
0.9999999999999999
 40
0.9999999999999999
 40
0.9999999999999999
 40
0.9999999999999999
 10
90.31735437024278
 20
1466.2
 30
0.0
 10
90.31831147698757
 20
1466.199994689266
 30
0.0
 10
90.33864032173318
 20
1466.199881889839
 30
0.0
 10
90.378608346648
 20
1466.192263227856
 30
0.0
 10
90.4380986939288
 20
1466.159746997617
 30
0.0
 10
90.48742323116468
 20
1466.112249951656
 30
0.0
 10
90.52657785106568
 20
1466.059871563786
 30
0.0
 10
90.56277231598303
 20
1466.001114617384
 30
0.0
 10
90.60380700656285
 20
1465.915307224171
 30
0.0
 10
90.64497153333699
 20
1465.796516094922
 30
0.0
 10
90.6784494594329
 20
1465.661636131057
 30
0.0
 10
90.7026546481017
 20
1465.5163958994
 30
0.0
 10
90.71839922953248
 20
1465.360673905683
 30
0.0
 10
90.72037962165578
 20
1465.254076411116
 30
0.0
 10
90.72138426533027
 20
1465.2
 30
0.0
  0
SPLINE
  5
104
330
1F
100
AcDbEntity
  8
0
  6
Continuous
 62
     7
370
    30
100
AcDbSpline
210
0.0
220
0.0
230
1.0
 70
     8
 71
     3
 72
    18
 73
    14
 74
     0
 42
0.000000001
 43
0.00000001
 40
0.0
 40
0.0
 40
0.0
 40
0.0
 40
0.0964273136467314
 40
0.1957327204301182
 40
0.2921403294283059
 40
0.3912021416767856
 40
0.4904707984278098
 40
0.5922794584503803
 40
0.6982080024955348
 40
0.8068329483025982
 40
0.9002721850949088
 40
0.9953830946721557
 40
1.0
 40
1.0
 40
1.0
 40
1.0
 10
90.72138426533027
 20
1417.0
 30
0.0
 10
90.72043378600458
 20
1416.947490967164
 30
0.0
 10
90.71850445812957
 20
1416.84090564963
 30
0.0
 10
90.70303070131258
 20
1416.686411675831
 30
0.0
 10
90.67871397921324
 20
1416.53964610912
 30
0.0
 10
90.64561620138589
 20
1416.405668504811
 30
0.0
 10
90.60418770506692
 20
1416.285630758924
 30
0.0
 10
90.55497988730393
 20
1416.18230797364
 30
0.0
 10
90.498433065104
 20
1416.098465303612
 30
0.0
 10
90.43896162943156
 20
1416.040863711963
 30
0.0
 10
90.37895354589337
 20
1416.007861587555
 30
0.0
 10
90.33898552320204
 20
1416.000120048748
 30
0.0
 10
90.31831147650671
 20
1416.000005311756
 30
0.0
 10
90.31735437024275
 20
1416.0
 30
0.0
  0
LINE
  5
105
330
1F
100
AcDbEntity
  8
0
  6
Continuous
 62
     7
370
    30
100
AcDbLine
 10
90.3173543702
 20
1416.0
 30
0.0
 11
66.4502413656
 21
1416.0
 31
0.0
  0
LINE
  5
106
330
1F
100
AcDbEntity
  8
0
  6
Continuous
 62
     7
370
    30
100
AcDbLine
 10
130.1951793748
 20
1417.0
 30
0.0
 11
130.1951793748
 21
1416.0
 31
0.0
  0
LINE
  5
107
330
1F
100
AcDbEntity
  8
0
  6
Continuous
 62
     7
370
    30
100
AcDbLine
 10
130.1951793748
 20
1416.0
 30
0.0
 11
90.3173543702
 21
1416.0
 31
0.0
  0
LINE
  5
108
330
1F
100
AcDbEntity
  8
0
  6
Continuous
 62
     7
370
    30
100
AcDbLine
 10
130.1951793748
 20
1465.2
 30
0.0
 11
130.1951793748
 21
1417.0
 31
0.0
  0
LINE
  5
109
330
1F
100
AcDbEntity
  8
0
  6
Continuous
 62
     7
370
    30
100
AcDbLine
 10
130.1951793748
 20
1466.2
 30
0.0
 11
130.1951793748
 21
1465.2
 31
0.0
  0
LINE
  5
10A
330
1F
100
AcDbEntity
  8
0
  6
Continuous
 62
     7
370
    30
100
AcDbLine
 10
90.3173543702
 20
1466.2
 30
0.0
 11
130.1951793748
 21
1466.2
 31
0.0
  0
LINE
  5
10B
330
1F
100
AcDbEntity
  8
0
  6
Continuous
 62
     7
370
    30
100
AcDbLine
 10
65.4502413656
 20
1038.0
 30
0.0
 11
95.4502413656
 21
1038.0
 31
0.0
  0
LINE
  5
10C
330
1F
100
AcDbEntity
  8
0
  6
Continuous
 62
     7
370
    30
100
AcDbLine
 10
65.4502413656
 20
1160.0
 30
0.0
 11
95.4502413656
 21
1160.0
 31
0.0
  0
LINE
  5
10D
330
1F
100
AcDbEntity
  8
0
  6
Continuous
 62
     7
370
    30
100
AcDbLine
 10
72.7042746732
 20
1117.5419850015
 30
0.0
 11
47.5966195742
 21
1117.5419850015
 31
0.0
  0
LINE
  5
10E
330
1F
100
AcDbEntity
  8
0
  6
Continuous
 62
     7
370
    30
100
AcDbLine
 10
47.5966195742
 20
1153.3207419014
 30
0.0
 11
72.7042746732
 21
1153.3207419014
 31
0.0
  0
ARC
  5
10F
330
1F
100
AcDbEntity
  8
0
  6
Continuous
 62
     7
370
    30
100
AcDbCircle
 10
47.5966195742
 20
1135.4313634514
 30
0.0
 40
17.88937844996258
100
AcDbArc
 50
90.0
 51
270.0
  0
ARC
  5
110
330
1F
100
AcDbEntity
  8
0
  6
Continuous
 62
     7
370
    30
100
AcDbCircle
 10
45.3048206251
 20
1135.686016776
 30
0.0
 40
16.2331093859304
100
AcDbArc
 50
126.8080784985
 51
220.5110936487
  0
ARC
  5
111
330
1F
100
AcDbEntity
  8
0
  6
Continuous
 62
     7
370
    30
100
AcDbCircle
 10
45.3048206251
 20
1135.686016776
 30
0.0
 40
18.50000000000007
100
AcDbArc
 50
72.407148433
 51
270.0
  0
ARC
  5
112
330
1F
100
AcDbEntity
  8
0
  6
Continuous
 62
     7
370
    30
100
AcDbCircle
 10
45.3048206251
 20
1135.686016776
 30
0.0
 40
18.50000000000004
100
AcDbArc
 50
270.0
 51
281.2578699273
  0
SPLINE
  5
113
330
1F
100
AcDbEntity
  8
0
  6
Continuous
 62
     7
370
    30
100
AcDbSpline
210
0.0
220
0.0
230
1.0
 70
     8
 71
     3
 72
    48
 73
    44
 74
     0
 42
0.000000001
 43
0.00000001
 40
0.0
 40
0.0
 40
0.0
 40
0.0
 40
0.021520863028202
 40
0.0523362870872795
 40
0.0832463431010858
 40
0.1142294648823362
 40
0.1452696153117597
 40
0.1763545477873585
 40
0.2109733787506194
 40
0.2451665925840218
 40
0.2788505664522978
 40
0.3120631710855201
 40
0.3448343232426926
 40
0.3771851705859878
 40
0.4091297635360414
 40
0.4406761608980554
 40
0.4718271019989358
 40
0.5025803548538366
 40
0.5329287996736168
 40
0.5628602739676843
 40
0.5923571796751164
 40
0.6213958281617219
 40
0.6499454738579694
 40
0.6779669563545879
 40
0.7054108228692954
 40
0.7322147344324091
 40
0.7582998296497782
 40
0.7835654502488119
 40
0.8078809311643729
 40
0.8310709242039442
 40
0.8528824449385938
 40
0.8728905034324805
 40
0.8902413620364232
 40
0.9036789669591638
 40
0.9133444568862097
 40
0.9207720232115619
 40
0.9273440172332328
 40
0.9342289670179604
 40
0.9422108943328346
 40
0.9525398213665077
 40
0.9669439209577818
 40
0.988244491739506
 40
1.0
 40
1.0
 40
1.0
 40
1.0
 10
242.4671153923028
 20
635.8041650617905
 30
0.0
 10
242.4494968162896
 20
635.8041433545777
 30
0.0
 10
242.4066504466487
 20
635.8040905651092
 30
0.0
 10
242.338738246732
 20
635.7974055333915
 30
0.0
 10
242.2638364549622
 20
635.7850355955252
 30
0.0
 10
242.1899246179226
 20
635.7667610458205
 30
0.0
 10
242.1174768824774
 20
635.7429272825832
 30
0.0
 10
242.0443088636435
 20
635.7124836232674
 30
0.0
 10
241.9715147459816
 20
635.6750551606245
 30
0.0
 10
241.9003386945315
 20
635.6304876783242
 30
0.0
 10
241.8340439096317
 20
635.5808418977207
 30
0.0
 10
241.7729203221466
 20
635.5266982699089
 30
0.0
 10
241.7171370743423
 20
635.468575099843
 30
0.0
 10
241.6668333169645
 20
635.4069881062086
 30
0.0
 10
241.6221159071077
 20
635.3424521720167
 30
0.0
 10
241.5830565568294
 20
635.2754805109396
 30
0.0
 10
241.5496897260532
 20
635.2065833367888
 30
0.0
 10
241.5220111257513
 20
635.1362662494911
 30
0.0
 10
241.4999765835375
 20
635.0650284953148
 30
0.0
 10
241.4835011125191
 20
634.9933612174325
 30
0.0
 10
241.4724580285847
 20
634.9217458006483
 30
0.0
 10
241.4666779589338
 20
634.8506524126204
 30
0.0
 10
241.4659475586927
 20
634.7805388561303
 30
0.0
 10
241.4700077053559
 20
634.7118498784025
 30
0.0
 10
241.4785508610931
 20
634.6450171438831
 30
0.0
 10
241.4912171592054
 20
634.5804602021337
 30
0.0
 10
241.5075885220715
 20
634.5185890592988
 30
0.0
 10
241.5271795688888
 20
634.4598096790626
 30
0.0
 10
241.5494225117003
 20
634.4045359448256
 30
0.0
 10
241.573637828625
 20
634.3532193038864
 30
0.0
 10
241.5989613214851
 20
634.3064355469561
 30
0.0
 10
241.6241414599063
 20
634.2651282276225
 30
0.0
 10
241.6472986314208
 20
634.2307815893489
 30
0.0
 10
241.666592825033
 20
634.204363772673
 30
0.0
 10
241.6812831011524
 20
634.185380854177
 30
0.0
 10
241.6920610335611
 20
634.1720043840355
 30
0.0
 10
241.7001345700003
 20
634.1622710046962
 30
0.0
 10
241.7062773277366
 20
634.1550247173292
 30
0.0
 10
241.7111191476533
 20
634.14940575707
 30
0.0
 10
241.715132391458
 20
634.144808305882
 30
0.0
 10
241.7186111985469
 20
634.1408656235827
 30
0.0
 10
241.7209753901282
 20
634.1382077864838
 30
0.0
 10
241.7220587984158
 20
634.1369998788598
 30
0.0
 10
241.7224440835265
 20
634.136570318898
 30
0.0
  0
SPLINE
  5
114
330
1F
100
AcDbEntity
  8
0
  6
Continuous
 62
     7
370
    30
100
AcDbSpline
210
0.0
220
0.0
230
1.0
 70
     8
 71
     3
 72
    45
 73
    41
 74
     0
 42
0.000000001
 43
0.00000001
 40
0.0
 40
0.0
 40
0.0
 40
0.0
 40
0.0226355080109281
 40
0.0387725647756803
 40
0.0481518359220966
 40
0.0558360312448125
 40
0.0631711058719688
 40
0.0708756236841015
 40
0.0808584981049994
 40
0.0952906333495173
 40
0.1149147815398801
 40
0.1376398022982468
 40
0.1637130943695278
 40
0.1889559547661075
 40
0.216551744176807
 40
0.245403533140697
 40
0.27510428029648
 40
0.3053668379816559
 40
0.3360118466856903
 40
0.366924922595064
 40
0.3980312409593452
 40
0.4292803676588884
 40
0.4606372684900025
 40
0.4920768908317524
 40
0.523580816945605
 40
0.5551351399435873
 40
0.5867290762422662
 40
0.6216177951394248
 40
0.6560753960792431
 40
0.6900377574604817
 40
0.7235381911471562
 40
0.7566022476786292
 40
0.7892475382211238
 40
0.8214851057511325
 40
0.8533203036321827
 40
0.8847533002532514
 40
0.9157792892777868
 40
0.9463884490508749
 40
0.9765656631889668
 40
1.0
 40
1.0
 40
1.0
 40
1.0
 10
222.4440928164231
 20
634.1381348507427
 30
0.0
 10
222.4450642611145
 20
634.1392234285128
 30
0.0
 10
222.446728257443
 20
634.1410880631427
 30
0.0
 10
222.4509229291602
 20
634.1458459641073
 30
0.0
 10
222.4560644852639
 20
634.1517640075722
 30
0.0
 10
222.4620841371911
 20
634.1588007661132
 30
0.0
 10
222.4702745168541
 20
634.1685826514824
 30
0.0
 10
222.4814004133334
 20
634.1822748655648
 30
0.0
 10
222.4966720340919
 20
634.2018540273552
 30
0.0
 10
222.5174476509029
 20
634.2301405354569
 30
0.0
 10
222.5429261821965
 20
634.2679877053721
 30
0.0
 10
222.5713212226338
 20
634.315208605429
 30
0.0
 10
222.599006941989
 20
634.3680732135522
 30
0.0
 10
222.6249685371449
 20
634.4261434260989
 30
0.0
 10
222.6479584262027
 20
634.4878654347139
 30
0.0
 10
222.6677105368177
 20
634.5544637998639
 30
0.0
 10
222.6831685861436
 20
634.6243968852624
 30
0.0
 10
222.6937307473641
 20
634.6966997906071
 30
0.0
 10
222.6990154545095
 20
634.7705610770994
 30
0.0
 10
222.6987921168984
 20
634.8452927686259
 30
0.0
 10
222.6929336968319
 20
634.9202845629983
 30
0.0
 10
222.6813895526545
 20
634.9949767035239
 30
0.0
 10
222.6641697221852
 20
635.0688444982612
 30
0.0
 10
222.641335409523
 20
635.1413900331357
 30
0.0
 10
222.6129931064669
 20
635.2121378325384
 30
0.0
 10
222.5792898020935
 20
635.2806339916793
 30
0.0
 10
222.5390733220727
 20
635.3487093613228
 30
0.0
 10
222.4921601840793
 20
635.415266956675
 30
0.0
 10
222.4386135032354
 20
635.4791225069284
 30
0.0
 10
222.3807636581918
 20
635.5375384599779
 30
0.0
 10
222.3192024445794
 20
635.5903139988851
 30
0.0
 10
222.2544594365009
 20
635.6373444175294
 30
0.0
 10
222.1870594039792
 20
635.6785566805784
 30
0.0
 10
222.1175226620227
 20
635.7139099009644
 30
0.0
 10
222.0463638079449
 20
635.7434046312134
 30
0.0
 10
221.9740899021776
 20
635.7670587527041
 30
0.0
 10
221.9011992095247
 20
635.7850028034835
 30
0.0
 10
221.8281773437741
 20
635.7971361155768
 30
0.0
 10
221.7605532923008
 20
635.8038837764409
 30
0.0
 10
221.7173418308442
 20
635.8041881172535
 30
0.0
 10
221.6984535143538
 20
635.8043211487548
 30
0.0
  0
ARC
  5
115
330
1F
100
AcDbEntity
  8
0
  6
Continuous
 62
     7
370
    30
100
AcDbCircle
 10
249.2
 20
599.8048206252
 30
0.0
 40
1.000000000000028
100
AcDbArc
 50
270.0
 51
0.0
  0
ARC
  5
116
330
1F
100
AcDbEntity
  8
0
  6
Continuous
 62
     7
370
    30
100
AcDbCircle
 10
249.2
 20
634.8048206252
 30
0.0
 40
1.0
100
AcDbArc
 50
0.0
 51
90.0
  0
ARC
  5
117
330
1F
100
AcDbEntity
  8
0
  6
Continuous
 62
     7
370
    30
100
AcDbCircle
 10
214.8
 20
599.8048206252
 30
0.0
 40
1.0
100
AcDbArc
 50
180.0
 51
270.0
  0
ARC
  5
118
330
1F
100
AcDbEntity
  8
0
  6
Continuous
 62
     7
370
    30
100
AcDbCircle
 10
214.8
 20
634.8048206252
 30
0.0
 40
1.0
100
AcDbArc
 50
90.0
 51
180.0
  0
LINE
  5
119
330
1F
100
AcDbEntity
  8
0
  6
Continuous
 62
     7
370
    30
100
AcDbLine
 10
221.6983835264
 20
635.8048206252
 30
0.0
 11
214.8
 21
635.8048206252
 31
0.0
  0
LINE
  5
11A
330
1F
100
AcDbEntity
  8
0
  6
Continuous
 62
     7
370
    30
100
AcDbLine
 10
249.2
 20
635.8048206252
 30
0.0
 11
242.4670792619
 21
635.8048206252
 31
0.0
  0
LINE
  5
11B
330
1F
100
AcDbEntity
  8
0
  6
Continuous
 62
     7
370
    30
100
AcDbLine
 10
214.8
 20
598.8048206252
 30
0.0
 11
249.2
 21
598.8048206252
 31
0.0
  0
ARC
  5
11C
330
1F
100
AcDbEntity
  8
0
  6
Continuous
 62
     7
370
    30
100
AcDbCircle
 10
252.2
 20
602.7072411242
 30
0.0
 40
1.000000000000114
100
AcDbArc
 50
180.0
 51
270.0
  0
ARC
  5
11D
330
1F
100
AcDbEntity
  8
0
  6
Continuous
 62
     7
370
    30
100
AcDbCircle
 10
280.2
 20
602.7072411242
 30
0.0
 40
1.000000000000114
100
AcDbArc
 50
270.0
 51
0.0
  0
LINE
  5
11E
330
1F
100
AcDbEntity
  8
0
  6
Continuous
 62
     7
370
    30
100
AcDbLine
 10
252.2
 20
601.7072411242
 30
0.0
 11
280.2
 21
601.7072411242
 31
0.0
  0
LINE
  5
11F
330
1F
100
AcDbEntity
  8
0
  6
Continuous
 62
     7
370
    30
100
AcDbLine
 10
250.2
 20
601.0717112392
 30
0.0
 11
251.2
 21
601.0717112392
 31
0.0
  0
LINE
  5
120
330
1F
100
AcDbEntity
  8
0
  6
Continuous
 62
     7
370
    30
100
AcDbLine
 10
251.2
 20
633.5379300111
 30
0.0
 11
250.2
 21
633.5379300111
 31
0.0
  0
CIRCLE
  5
121
330
1F
100
AcDbEntity
  8
0
  6
Continuous
 62
     7
370
    30
100
AcDbCircle
 10
266.2
 20
652.4502413656
 30
0.0
 40
10.94999999999993
  0
SPLINE
  5
122
330
1F
100
AcDbEntity
  8
0
  6
Continuous
 62
     7
370
    30
100
AcDbSpline
210
0.0
220
0.0
230
1.0
 70
     8
 71
     3
 72
    19
 73
    15
 74
     0
 42
0.000000001
 43
0.00000001
 40
0.0
 40
0.0
 40
0.0
 40
0.0
 40
0.0046165009615687
 40
0.0980539859593193
 40
0.1931500778847562
 40
0.299096319787659
 40
0.3532579079896238
 40
0.4077732660608956
 40
0.5070631338538772
 40
0.6088326101127017
 40
0.705257341375606
 40
0.8042845787047693
 40
0.9007144808915306
 40
1.0
 40
1.0
 40
1.0
 40
1.0
 10
256.2682287101248
 20
662.3173543702374
 30
0.0
 10
256.2659071147193
 20
662.3183114769821
 30
0.0
 10
256.2165966769691
 20
662.3386403217277
 30
0.0
 10
256.1193384852013
 20
662.3786083466424
 30
0.0
 10
255.9737302521822
 20
662.4380986939232
 30
0.0
 10
255.8522717336474
 20
662.4874232311589
 30
0.0
 10
255.755431025238
 20
662.52657785106
 30
0.0
 10
255.6656530551293
 20
662.5627723159772
 30
0.0
 10
255.5634634242013
 20
662.6038070065571
 30
0.0
 10
255.4604887491421
 20
662.6449715333313
 30
0.0
 10
255.3764341015966
 20
662.6784494594272
 30
0.0
 10
255.3154887658976
 20
662.7026546480959
 30
0.0
 10
255.275767035881
 20
662.7183992295265
 30
0.0
 10
255.2707658091078
 20
662.7203796216498
 30
0.0
 10
255.2682287101247
 20
662.7213842653243
 30
0.0
  0
LINE
  5
123
330
1F
100
AcDbEntity
  8
0
  6
Continuous
 62
     7
370
    30
100
AcDbLine
 10
255.2682287101
 20
662.7213842653
 30
0.0
 11
255.2682287101
 21
702.1951793749
 31
0.0
  0
LINE
  5
124
330
1F
100
AcDbEntity
  8
0
  6
Continuous
 62
     7
370
    30
100
AcDbLine
 10
255.2682287101
 20
702.1951793749
 30
0.0
 11
256.2682287101
 21
702.1951793749
 31
0.0
  0
LINE
  5
125
330
1F
100
AcDbEntity
  8
0
  6
Continuous
 62
     7
370
    30
100
AcDbLine
 10
256.2682287101
 20
702.1951793749
 30
0.0
 11
276.1317712899
 21
702.1951793749
 31
0.0
  0
LINE
  5
126
330
1F
100
AcDbEntity
  8
0
  6
Continuous
 62
     7
370
    30
100
AcDbLine
 10
277.1317712899
 20
702.1951793749
 30
0.0
 11
277.1317712899
 21
662.7213842653
 31
0.0
  0
SPLINE
  5
127
330
1F
100
AcDbEntity
  8
0
  6
Continuous
 62
     7
370
    30
100
AcDbSpline
210
0.0
220
0.0
230
1.0
 70
     8
 71
     3
 72
    19
 73
    15
 74
     0
 42
0.000000001
 43
0.00000001
 40
0.0
 40
0.0
 40
0.0
 40
0.0
 40
0.0046165009615644
 40
0.098053985959361
 40
0.1931500778848443
 40
0.2990963197877413
 40
0.3532579079897333
 40
0.4077732660610016
 40
0.5070631338539298
 40
0.6088326101127914
 40
0.7052573413756289
 40
0.8042845787047842
 40
0.9007144808915378
 40
0.9999999999999999
 40
0.9999999999999999
 40
0.9999999999999999
 40
0.9999999999999999
 10
276.1317712898687
 20
662.3173543702438
 30
0.0
 10
276.1340928852742
 20
662.3183114769887
 30
0.0
 10
276.1834033230244
 20
662.3386403217343
 30
0.0
 10
276.2806615147923
 20
662.3786083466491
 30
0.0
 10
276.4262697478114
 20
662.4380986939299
 30
0.0
 10
276.5477282663462
 20
662.4874232311658
 30
0.0
 10
276.6445689747557
 20
662.5265778510667
 30
0.0
 10
276.7343469448642
 20
662.5627723159841
 30
0.0
 10
276.8365365757923
 20
662.603807006564
 30
0.0
 10
276.9395112508514
 20
662.6449715333381
 30
0.0
 10
277.023565898397
 20
662.678449459434
 30
0.0
 10
277.0845112340959
 20
662.7026546481029
 30
0.0
 10
277.1242329641126
 20
662.7183992295336
 30
0.0
 10
277.1292341908857
 20
662.7203796216569
 30
0.0
 10
277.1317712898688
 20
662.7213842653314
 30
0.0
  0
LINE
  5
128
330
1F
100
AcDbEntity
  8
0
  6
Continuous
 62
     7
370
    30
100
AcDbLine
 10
276.1317712899
 20
702.1951793749
 30
0.0
 11
277.1317712899
 21
702.1951793749
 31
0.0
  0
ARC
  5
129
330
1F
100
AcDbEntity
  8
0
  6
Continuous
 62
     7
370
    30
100
AcDbCircle
 10
266.2
 20
652.4502413656
 30
0.0
 40
15.0
100
AcDbArc
 50
136.784612101
 51
43.215387899
  0
ARC
  5
12A
330
1F
100
AcDbEntity
  8
0
  6
Continuous
 62
     7
370
    30
100
AcDbCircle
 10
266.2
 20
652.4502413656
 30
0.0
 40
15.0
100
AcDbArc
 50
270.0
 51
43.215387899
  0
ARC
  5
12B
330
1F
100
AcDbEntity
  8
0
  6
Continuous
 62
     7
370
    30
100
AcDbCircle
 10
266.2
 20
652.4502413656
 30
0.0
 40
15.0
100
AcDbArc
 50
136.784612101
 51
270.0
  0
LINE
  5
12C
330
1F
100
AcDbEntity
  8
0
  6
Continuous
 62
     7
370
    30
100
AcDbLine
 10
221.6983835264
 20
635.8043564107
 30
0.0
 11
221.6984559826
 21
635.804441183
 31
0.0
  0
LINE
  5
12D
330
1F
100
AcDbEntity
  8
0
  6
Continuous
 62
     7
370
    30
100
AcDbLine
 10
242.4670792619
 20
635.8040337569
 30
0.0
 11
242.4671179524
 21
635.8039882502
 31
0.0
  0
SPLINE
  5
12E
330
1F
100
AcDbEntity
  8
0
  6
Continuous
 62
     7
370
    30
100
AcDbSpline
210
0.0
220
0.0
230
1.0
 70
     8
 71
     3
 72
   114
 73
   110
 74
     0
 42
0.000000001
 43
0.00000001
 40
0.0
 40
0.0
 40
0.0
 40
0.0
 40
0.0098651097248995
 40
0.0197389874222083
 40
0.0296134806132378
 40
0.0394794303841395
 40
0.0494953559916881
 40
0.0595193115283042
 40
0.069543601051762
 40
0.0795599824582653
 40
0.0863952241250625
 40
0.0932304695791909
 40
0.1026236935497307
 40
0.1120200423563322
 40
0.1214132309768802
 40
0.1309093068773773
 40
0.1404086742232573
 40
0.1499046259822697
 40
0.1569122322289368
 40
0.1639198252718366
 40
0.1738673533283184
 40
0.183823275502426
 40
0.1937789372418608
 40
0.2037261098587713
 40
0.213832269745757
 40
0.2239476379323093
 40
0.2340629722170781
 40
0.2441690858322082
 40
0.2511519376672485
 40
0.2581347965353034
 40
0.2677429774372912
 40
0.2773550370364074
 40
0.2869633629859188
 40
0.296692872843609
 40
0.3064262073010021
 40
0.3161558863454909
 40
0.3233407069330099
 40
0.3305255387203248
 40
0.340335438416725
 40
0.3501525195311792
 40
0.3599696605275255
 40
0.369779641940738
 40
0.3797217139395871
 40
0.3896714101066927
 40
0.3996208471535145
 40
0.4095625655338719
 40
0.4183168177282704
 40
0.4270768253865762
 40
0.4358364913429202
 40
0.444590277270433
 40
0.4534572477634113
 40
0.4623311021136745
 40
0.4712044823330409
 40
0.4800708057756228
 40
0.4889299827231865
 40
0.4977970512050232
 40
0.5066636913552311
 40
0.5155222836887491
 40
0.5245340926859697
 40
0.5335549852357091
 40
0.5425756956097132
 40
0.5515872559341575
 40
0.560439798703767
 40
0.5693009812007938
 40
0.578162374429741
 40
0.5870152048402618
 40
0.5960211827075819
 40
0.605035446962545
 40
0.6140502619386199
 40
0.6230569914718466
 40
0.6295018550765543
 40
0.6359467500194169
 40
0.6428268398953413
 40
0.6497069712718407
 40
0.6591687731941774
 40
0.6686342485364731
 40
0.6780965485566304
 40
0.6876621360155456
 40
0.6972308618923176
 40
0.7067968955169674
 40
0.7138496357253885
 40
0.7209024076472063
 40
0.7276098880563683
 40
0.7343173911427886
 40
0.7433074757461047
 40
0.7522993509423552
 40
0.7612896382774742
 40
0.7749047988582106
 40
0.7885201610102051
 40
0.8022605918068941
 40
0.8160011273155836
 40
0.8298046465929814
 40
0.8431696433263881
 40
0.8565919101366006
 40
0.8700140763590583
 40
0.8835519270708716
 40
0.8970895692507386
 40
0.9061967277434425
 40
0.9153055522546879
 40
0.9244124978031003
 40
0.9312786630493244
 40
0.9381448063447523
 40
0.9460390744669699
 40
0.9539333050108175
 40
0.9647876941342636
 40
0.9756459524345295
 40
0.9864999935572812
 40
0.9974884175213277
 40
1.0
 40
1.0
 40
1.0
 40
1.0
 10
221.9222493287951
 20
617.304820625151
 30
0.0
 10
222.0289103749018
 20
617.1742477033716
 30
0.0
 10
222.2423272659706
 20
616.9129858084148
 30
0.0
 10
222.5811908856097
 20
616.5375906384627
 30
0.0
 10
222.9329094212334
 20
616.1750182868303
 30
0.0
 10
223.3000602038808
 20
615.8253193601155
 30
0.0
 10
223.6820828926677
 20
615.4889280036398
 30
0.0
 10
224.0787313933546
 20
615.1664434163587
 30
0.0
 10
224.4873547643971
 20
614.8600013132566
 30
0.0
 10
224.862861362156
 20
614.6007723228967
 30
0.0
 10
225.2010101617887
 20
614.3834962098435
 30
0.0
 10
225.535734348118
 20
614.1808472095878
 30
0.0
 10
225.9146136387532
 20
613.9676315581648
 30
0.0
 10
226.3396859781714
 20
613.7485775281649
 30
0.0
 10
226.7742330279606
 20
613.5444795275083
 30
0.0
 10
227.2178836467067
 20
613.3558507052821
 30
0.0
 10
227.6701645142448
 20
613.1831068829268
 30
0.0
 10
228.0888568942774
 20
613.0408025159269
 30
0.0
 10
228.4716479946055
 20
612.9244130867419
 30
0.0
 10
228.8651625939715
 20
612.8164792166535
 30
0.0
 10
229.3113405022871
 20
612.7100127506478
 30
0.0
 10
229.8110901456819
 20
612.6112509557623
 30
0.0
 10
230.3147284230507
 20
612.5320065618739
 30
0.0
 10
230.8239930416308
 20
612.4722012133008
 30
0.0
 10
231.3382449953512
 20
612.4324869799323
 30
0.0
 10
231.8567118423568
 20
612.4131729750058
 30
0.0
 10
232.375586375496
 20
612.4144651531226
 30
0.0
 10
232.8404177565534
 20
612.4341675714392
 30
0.0
 10
233.2507018613157
 20
612.4655061888166
 30
0.0
 10
233.6513658148867
 20
612.5072091291565
 30
0.0
 10
234.0947829604025
 20
612.5681139900589
 30
0.0
 10
234.5793756776285
 20
612.6534477451369
 30
0.0
 10
235.0620171993227
 20
612.7573660130189
 30
0.0
 10
235.5419048999742
 20
612.8800149826823
 30
0.0
 10
236.0182969713542
 20
613.0213460159817
 30
0.0
 10
236.4475476724581
 20
613.1667249482223
 30
0.0
 10
236.8308419050136
 20
613.3109062543206
 30
0.0
 10
237.2109935340532
 20
613.4662421396208
 30
0.0
 10
237.6263793188484
 20
613.6523908443376
 30
0.0
 10
238.0741658910624
 20
613.8740864213546
 30
0.0
 10
238.5130454438626
 20
614.1127314963601
 30
0.0
 10
238.9442798097893
 20
614.3691317168987
 30
0.0
 10
239.367232561499
 20
614.6433808235354
 30
0.0
 10
239.7813362519786
 20
614.9353884552295
 30
0.0
 10
240.1840599689646
 20
615.2434879466474
 30
0.0
 10
240.55917368691
 20
615.5543635562638
 30
0.0
 10
240.9077949306257
 20
615.8656650456709
 30
0.0
 10
241.2312840015754
 20
616.1751546407105
 30
0.0
 10
241.5442484167851
 20
616.4958791858403
 30
0.0
 10
241.8474944547977
 20
616.8288450885809
 30
0.0
 10
242.1404314912014
 20
617.1739686469689
 30
0.0
 10
242.4225750547689
 20
617.5309410821035
 30
0.0
 10
242.6921916195249
 20
617.8976521348109
 30
0.0
 10
242.9486889317748
 20
618.2733522935811
 30
0.0
 10
243.1916138657309
 20
618.6575919434966
 30
0.0
 10
243.420758669557
 20
619.0496832835352
 30
0.0
 10
243.6358001302407
 20
619.4488363194105
 30
0.0
 10
243.8374620879392
 20
619.8564801298007
 30
0.0
 10
244.025053510438
 20
620.2720593496873
 30
0.0
 10
244.1982539896671
 20
620.6947693488827
 30
0.0
 10
244.3558296474663
 20
621.1210865558991
 30
0.0
 10
244.4967346639509
 20
621.5473319360492
 30
0.0
 10
244.6211257373157
 20
621.9725605503387
 30
0.0
 10
244.7296248321465
 20
622.3958693275501
 30
0.0
 10
244.82312925208
 20
622.8186747722941
 30
0.0
 10
244.9022188657352
 20
623.2423040163275
 30
0.0
 10
244.9667485510734
 20
623.665863882712
 30
0.0
 10
245.0169896329
 20
624.0885497146287
 30
0.0
 10
245.0530427524578
 20
624.5069781957977
 30
0.0
 10
245.073227043087
 20
624.881041644931
 30
0.0
 10
245.0820642138202
 20
625.2117208742029
 30
0.0
 10
245.0833710093311
 20
625.5070007782388
 30
0.0
 10
245.0778741634697
 20
625.8050562239279
 30
0.0
 10
245.0637811217553
 20
626.1429218724213
 30
0.0
 10
245.0382528770956
 20
626.5118757019986
 30
0.0
 10
244.998398020827
 20
626.9089208380194
 30
0.0
 10
244.9473542452159
 20
627.2981455361462
 30
0.0
 10
244.885731445794
 20
627.6790200042949
 30
0.0
 10
244.8142211419589
 20
628.0511692289159
 30
0.0
 10
244.7408647765184
 20
628.3812975497223
 30
0.0
 10
244.6687395045579
 20
628.6721361211585
 30
0.0
 10
244.6012868564654
 20
628.922168135896
 30
0.0
 10
244.5313622448535
 20
629.1625453399295
 30
0.0
 10
244.4512726492049
 20
629.4197668400814
 30
0.0
 10
244.3588005676352
 20
629.6955617141111
 30
0.0
 10
244.2531036569181
 20
629.987235063056
 30
0.0
 10
244.1244932987859
 20
630.3176190604223
 30
0.0
 10
243.9711207568655
 20
630.6800437790832
 30
0.0
 10
243.7915416815033
 20
631.0677424738125
 30
0.0
 10
243.6072275161403
 20
631.434199181401
 30
0.0
 10
243.4198527429515
 20
631.7797050638391
 30
0.0
 10
243.2339584541734
 20
632.0995683612538
 30
0.0
 10
243.0512729378957
 20
632.3948673871176
 30
0.0
 10
242.8739201138037
 20
632.6657333720823
 30
0.0
 10
242.7014063416186
 20
632.9158240201208
 30
0.0
 10
242.5360577020544
 20
633.1443116960465
 30
0.0
 10
242.3970403120603
 20
633.3282079805518
 30
0.0
 10
242.2828387644322
 20
633.4744888674585
 30
0.0
 10
242.1905888118339
 20
633.5898092212968
 30
0.0
 10
242.1120057367529
 20
633.6858749502759
 30
0.0
 10
242.0457915861996
 20
633.7654235010862
 30
0.0
 10
241.9876925373939
 20
633.8342476340565
 30
0.0
 10
241.932322184782
 20
633.8989450891426
 30
0.0
 10
241.8744542779107
 20
633.9656693143617
 30
0.0
 10
241.8203938343773
 20
634.027191152838
 30
0.0
 10
241.7741525229571
 20
634.0791367670103
 30
0.0
 10
241.7431491626026
 20
634.113602735285
 30
0.0
 10
241.7276912331499
 20
634.130763871702
 30
0.0
 10
241.7273630328535
 20
634.1311247995326
 30
0.0
 10
241.7273019734668
 20
634.1311919476498
 30
0.0
  0
SPLINE
  5
12F
330
1F
100
AcDbEntity
  8
0
  6
Continuous
 62
     7
370
    30
100
AcDbSpline
210
0.0
220
0.0
230
1.0
 70
     8
 71
     3
 72
    63
 73
    59
 74
     0
 42
0.000000001
 43
0.00000001
 40
0.0
 40
0.0
 40
0.0
 40
0.0
 40
0.0101828888763333
 40
0.0238624994416494
 40
0.0375421336188582
 40
0.0563368384191676
 40
0.0751378585836116
 40
0.0939331290811175
 40
0.1129128641601612
 40
0.131898309565306
 40
0.1508787578320546
 40
0.1648649075198285
 40
0.1788511109652434
 40
0.2034284331775911
 40
0.228115204068572
 40
0.2528022889623214
 40
0.2776926861895523
 40
0.3025832165736214
 40
0.3276753362417079
 40
0.3527674009995514
 40
0.377965202944067
 40
0.4015828450373202
 40
0.4253060486797928
 40
0.4490289203864602
 40
0.4729701821438427
 40
0.4969109477913586
 40
0.5130287487146377
 40
0.5291497971656602
 40
0.5452671266877364
 40
0.5574251541846856
 40
0.5695831301479187
 40
0.5859400714105597
 40
0.602306656278813
 40
0.6186721659028047
 40
0.6350276400412107
 40
0.6515823733373941
 40
0.6681496698972822
 40
0.6847157579149848
 40
0.7012688419264301
 40
0.7178331903474735
 40
0.7344126051935937
 40
0.7509910657865854
 40
0.7675541117560577
 40
0.7844118640024135
 40
0.8012871459182002
 40
0.8181620926289178
 40
0.83501938730047
 40
0.8511646502881023
 40
0.8673253139574986
 40
0.8834863592950057
 40
0.8996321432333557
 40
0.9160513229951593
 40
0.932485368486296
 40
0.94892025341608
 40
0.9653405788926238
 40
0.9766533371012079
 40
0.9879661326372052
 40
0.9999999999999999
 40
0.9999999999999999
 40
0.9999999999999999
 40
0.9999999999999999
 10
222.4380182508544
 20
634.1313656290565
 30
0.0
 10
222.4367287549912
 20
634.1299386691918
 30
0.0
 10
222.433706960814
 20
634.1265947429848
 30
0.0
 10
222.420678817988
 20
634.1121582502265
 30
0.0
 10
222.3980326147897
 20
634.0869461430257
 30
0.0
 10
222.3625687765879
 20
634.0472624173857
 30
0.0
 10
222.3115040221362
 20
633.9894758833995
 30
0.0
 10
222.2486053369182
 20
633.917307369639
 30
0.0
 10
222.1743334664952
 20
633.8307475462238
 30
0.0
 10
222.0894409664126
 20
633.7298586350208
 30
0.0
 10
222.0032734625156
 20
633.6251682491279
 30
0.0
 10
221.9191538030717
 20
633.5207425033184
 30
0.0
 10
221.819561886275
 20
633.3946573373385
 30
0.0
 10
221.6913911208134
 20
633.227731644588
 30
0.0
 10
221.5311847799816
 20
633.0102709153945
 30
0.0
 10
221.3619124696221
 20
632.7697408723309
 30
0.0
 10
221.1857478072406
 20
632.5064692461548
 30
0.0
 10
221.0041415242385
 20
632.2196574895319
 30
0.0
 10
220.8195247573005
 20
631.9099262676907
 30
0.0
 10
220.6335783706069
 20
631.5766802232461
 30
0.0
 10
220.4526316732319
 20
631.2281196422881
 30
0.0
 10
220.2781569561608
 20
630.865231087362
 30
0.0
 10
220.1118216690859
 20
630.4899623737845
 30
0.0
 10
219.9510071807533
 20
630.0931095651068
 30
0.0
 10
219.7977334653122
 20
629.675032945158
 30
0.0
 10
219.6695098337313
 20
629.2834661834116
 30
0.0
 10
219.5645946467167
 20
628.9267096166493
 30
0.0
 10
219.4801364245015
 20
628.6106674399877
 30
0.0
 10
219.4084896230714
 20
628.3123582916636
 30
0.0
 10
219.3483831795051
 20
628.0342563732709
 30
0.0
 10
219.2926462073879
 20
627.7490308782199
 30
0.0
 10
219.2376472094009
 20
627.4272716358252
 30
0.0
 10
219.1862706479525
 20
627.0668081990874
 30
0.0
 10
219.1442951145195
 20
626.6981014253803
 30
0.0
 10
219.1122382425409
 20
626.3200097709891
 30
0.0
 10
219.0909407244515
 20
625.9326451489862
 30
0.0
 10
219.081140322149
 20
625.5363555892848
 30
0.0
 10
219.0835226106889
 20
625.1333597279606
 30
0.0
 10
219.0987077915874
 20
624.72425490749
 30
0.0
 10
219.12740466384
 20
624.3095257314887
 30
0.0
 10
219.1700411705311
 20
623.8898918413806
 30
0.0
 10
219.2270185836261
 20
623.4664170179418
 30
0.0
 10
219.2991935018912
 20
623.0375698902283
 30
0.0
 10
219.3874409772211
 20
622.6040653827434
 30
0.0
 10
219.4922063051654
 20
622.1668230902964
 30
0.0
 10
219.6130590660032
 20
621.729610198608
 30
0.0
 10
219.7482013988419
 20
621.299800252972
 30
0.0
 10
219.897088103891
 20
620.8782915147498
 30
0.0
 10
220.0587367898159
 20
620.4657636259458
 30
0.0
 10
220.2350743490768
 20
620.0571614556192
 30
0.0
 10
220.4269846265259
 20
619.6512504240333
 30
0.0
 10
220.6347190372156
 20
619.2489558139218
 30
0.0
 10
220.8581484655551
 20
618.8510577690772
 30
0.0
 10
221.0956679331293
 20
618.4607041300746
 30
0.0
 10
221.3207807579739
 20
618.1183072912488
 30
0.0
 10
221.5288766308881
 20
617.8217933374552
 30
0.0
 10
221.7194592721746
 20
617.5627785518936
 30
0.0
 10
221.85327499105
 20
617.3925590353064
 30
0.0
 10
221.9222493287951
 20
617.304820625151
 30
0.0
  0
LINE
  5
130
330
1F
100
AcDbEntity
  8
0
  6
Continuous
 62
     7
370
    30
100
AcDbLine
 10
250.2
 20
634.8048206252
 30
0.0
 11
250.2
 21
599.8048206252
 31
0.0
  0
LINE
  5
131
330
1F
100
AcDbEntity
  8
0
  6
Continuous
 62
     7
370
    30
100
AcDbLine
 10
213.8
 20
599.8048206252
 30
0.0
 11
213.8
 21
634.8048206252
 31
0.0
  0
LINE
  5
132
330
1F
100
AcDbEntity
  8
0
  6
Continuous
 62
     7
370
    30
100
AcDbLine
 10
281.2
 20
652.4502413656
 30
0.0
 11
281.2
 21
619.5966195742
 31
0.0
  0
LINE
  5
133
330
1F
100
AcDbEntity
  8
0
  6
Continuous
 62
     7
370
    30
100
AcDbLine
 10
251.2
 20
619.5966195742
 30
0.0
 11
251.2
 21
652.4502413656
 31
0.0
  0
LINE
  5
134
330
1F
100
AcDbEntity
  8
0
  6
Continuous
 62
     7
370
    30
100
AcDbLine
 10
251.2
 20
615.5152138332
 30
0.0
 11
251.2
 21
619.5966195742
 31
0.0
  0
LINE
  5
135
330
1F
100
AcDbEntity
  8
0
  6
Continuous
 62
     7
370
    30
100
AcDbLine
 10
281.2
 20
619.5966195742
 30
0.0
 11
281.2
 21
602.7072411242
 31
0.0
  0
LINE
  5
136
330
1F
100
AcDbEntity
  8
0
  6
Continuous
 62
     7
370
    30
100
AcDbLine
 10
251.2
 20
615.5152138332
 30
0.0
 11
251.2
 21
601.0717112392
 31
0.0
  0
LINE
  5
137
330
1F
100
AcDbEntity
  8
0
  6
Continuous
 62
     7
370
    30
100
AcDbLine
 10
433.0519257028
 20
54.8771720733
 30
0.0
 11
433.0519257028
 21
90.1125111874
 31
0.0
  0
LINE
  5
138
330
1F
100
AcDbEntity
  8
0
  6
Continuous
 62
     7
370
    30
100
AcDbLine
 10
433.0519257028
 20
136.5312532619
 30
0.0
 11
433.0519257028
 21
279.2234964451
 31
0.0
  0
LINE
  5
139
330
1F
100
AcDbEntity
  8
0
  6
Continuous
 62
     7
370
    30
100
AcDbLine
 10
433.0519257028
 20
384.7596600752
 30
0.0
 11
433.0519257028
 21
588.3657146
 31
0.0
  0
LINE
  5
13A
330
1F
100
AcDbEntity
  8
0
  6
Continuous
 62
     7
370
    30
100
AcDbLine
 10
433.0519257028
 20
634.7844566746
 30
0.0
 11
433.0519257028
 21
675.4481891065
 31
0.0
  0
LINE
  5
13B
330
1F
100
AcDbEntity
  8
0
  6
Continuous
 62
     7
370
    30
100
AcDbLine
 10
411.1519257028
 20
675.4481891065
 30
0.0
 11
411.1519257028
 21
634.7844566746
 31
0.0
  0
LINE
  5
13C
330
1F
100
AcDbEntity
  8
0
  6
Continuous
 62
     7
370
    30
100
AcDbLine
 10
411.1519257028
 20
588.3656888282
 30
0.0
 11
411.1519257028
 21
384.7596600752
 31
0.0
  0
LINE
  5
13D
330
1F
100
AcDbEntity
  8
0
  6
Continuous
 62
     7
370
    30
100
AcDbLine
 10
411.1519257028
 20
279.2234964451
 30
0.0
 11
411.1519257028
 21
136.5312532619
 31
0.0
  0
LINE
  5
13E
330
1F
100
AcDbEntity
  8
0
  6
Continuous
 62
     7
370
    30
100
AcDbLine
 10
411.1519257028
 20
90.1124854156
 30
0.0
 11
411.1519257028
 21
54.8771720733
 31
0.0
  0
SPLINE
  5
13F
330
1F
100
AcDbEntity
  8
0
  6
Continuous
 62
     7
370
    30
100
AcDbSpline
210
0.0
220
0.0
230
1.0
 70
     8
 71
     3
 72
    41
 73
    37
 74
     0
 42
0.000000001
 43
0.00000001
 40
0.0
 40
0.0
 40
0.0
 40
0.0
 40
0.029801984167513
 40
0.0607259809688719
 40
0.0916447309505762
 40
0.1225545050522799
 40
0.153451113151154
 40
0.1843298951938163
 40
0.2151857227572776
 40
0.2460130135564071
 40
0.2768057614149053
 40
0.307557584033882
 40
0.3382617904847805
 40
0.3689114696901643
 40
0.3994996002305699
 40
0.4300191806503385
 40
0.4604633780912037
 40
0.4908256916579791
 40
0.5211001255484747
 40
0.5512813658081596
 40
0.581364953746084
 40
0.6113474486913748
 40
0.6412265729464964
 40
0.671001332509256
 40
0.7006721083213415
 40
0.7302407143333253
 40
0.7597104203872805
 40
0.7890859396335851
 40
0.8183733817562755
 40
0.8475801745597267
 40
0.8767149573973511
 40
0.9057874504819102
 40
0.9348083043367186
 40
0.96378893359142
 40
0.9927413390790633
 40
1.0
 40
1.0
 40
1.0
 40
1.0
 10
411.151925702778
 20
141.9603574695258
 30
0.0
 10
411.0777224636457
 20
141.9121568596007
 30
0.0
 10
410.926522313278
 20
141.8139409386555
 30
0.0
 10
410.70527178623
 20
141.6615143886988
 30
0.0
 10
410.4865812974249
 20
141.5042203943813
 30
0.0
 10
410.2738396420876
 20
141.3436618582991
 30
0.0
 10
410.0670334141774
 20
141.1800040581975
 30
0.0
 10
409.8663320382366
 20
141.0133022021291
 30
0.0
 10
409.6718539025484
 20
140.8436469406488
 30
0.0
 10
409.4837284403776
 20
140.6711257299816
 30
0.0
 10
409.3020788538863
 20
140.4958334376579
 30
0.0
 10
409.1270259765053
 20
140.3178696716353
 30
0.0
 10
408.9586863802264
 20
140.1373395439281
 30
0.0
 10
408.7971719428558
 20
139.9543533724049
 30
0.0
 10
408.6425889707281
 20
139.7690265036978
 30
0.0
 10
408.4950374206699
 20
139.5814789268926
 30
0.0
 10
408.3546101175224
 20
139.3918347609144
 30
0.0
 10
408.2213920419565
 20
139.2002215984061
 30
0.0
 10
408.0954597179127
 20
139.0067697271663
 30
0.0
 10
407.9768807397368
 20
138.8116112515745
 30
0.0
 10
407.8657134706204
 20
138.6148791465224
 30
0.0
 10
407.7620069371245
 20
138.4167062817849
 30
0.0
 10
407.6658009324346
 20
138.2172244580777
 30
0.0
 10
407.5771263340667
 20
138.0165634959731
 30
0.0
 10
407.4960056108062
 20
137.8148504155199
 30
0.0
 10
407.4224535514113
 20
137.6122087385929
 30
0.0
 10
407.3564779816357
 20
137.4087579369826
 30
0.0
 10
407.2980811822783
 20
137.2046130435178
 30
0.0
 10
407.2472591786267
 20
136.9998844216703
 30
0.0
 10
407.2040092175904
 20
136.7946777279211
 30
0.0
 10
407.1683068946305
 20
136.5890939193439
 30
0.0
 10
407.140196032856
 20
136.3832298049051
 30
0.0
 10
407.1194588234129
 20
136.1771772149961
 30
0.0
 10
407.1068479402437
 20
135.9710278722554
 30
0.0
 10
407.1013341168851
 20
135.8163063868092
 30
0.0
 10
407.1024135980715
 20
135.730362507061
 30
0.0
 10
407.1026299846263
 20
135.7131346940416
 30
0.0
  0
LINE
  5
140
330
1F
100
AcDbEntity
  8
0
  6
Continuous
 62
     7
370
    30
100
AcDbLine
 10
407.1019257028
 20
135.71471245
 30
0.0
 11
407.1019257028
 21
96.3574453171
 31
0.0
  0
SPLINE
  5
141
330
1F
100
AcDbEntity
  8
0
  6
Continuous
 62
     7
370
    30
100
AcDbSpline
210
0.0
220
0.0
230
1.0
 70
     8
 71
     3
 72
   146
 73
   142
 74
     0
 42
0.000000001
 43
0.00000001
 40
0.0
 40
0.0
 40
0.0
 40
0.0
 40
0.005109359747282
 40
0.0119978128326602
 40
0.0188875097975645
 40
0.0257814354036066
 40
0.0326825012987125
 40
0.0395935021067006
 40
0.0465170735304243
 40
0.0534556531279048
 40
0.0604114445086473
 40
0.0673863857465576
 40
0.0743821228324126
 40
0.0813999889748853
 40
0.0884409904889147
 40
0.0955057998732254
 40
0.1025947564711584
 40
0.1097078748363336
 40
0.1168448606028999
 40
0.1240051333137951
 40
0.1311878553217294
 40
0.1383919655800211
 40
0.1456162169159222
 40
0.1528592152509291
 40
0.1601194592132551
 40
0.1673953786756452
 40
0.1746853709332575
 40
0.1819878334875112
 40
0.1893011926931362
 40
0.1966239278272165
 40
0.2039545904233558
 40
0.2112918189615575
 40
0.2186343492011047
 40
0.2259810205855022
 40
0.2333307792358228
 40
0.2406826780881837
 40
0.2480358747310393
 40
0.255389609430854
 40
0.2627430590142645
 40
0.2700956952056238
 40
0.2774470701126724
 40
0.2847968093544426
 40
0.2921446051817391
 40
0.2994902098022257
 40
0.3068334290204633
 40
0.3141741162668268
 40
0.321512167059669
 40
0.3288475139221427
 40
0.3361801217574789
 40
0.3435099836736434
 40
0.3508371172391774
 40
0.358161561145994
 40
0.3654833722511879
 40
0.372802622968038
 40
0.3801193989758562
 40
0.3874337972187874
 40
0.3947459241647379
 40
0.4020558942972077
 40
0.4093638288145655
 40
0.4166698545132743
 40
0.4239741028335409
 40
0.4312767090477611
 40
0.4385778115740668
 40
0.4458775513988776
 40
0.4531760715940837
 40
0.4604735169158619
 40
0.4677700334733994
 40
0.4750657684570674
 40
0.4823608699164189
 40
0.4896554865793528
 40
0.4969497677045305
 40
0.5042438629595709
 40
0.5115379223182053
 40
0.5188320764174794
 40
0.5261264450689644
 40
0.5334211786726043
 40
0.5407164276129903
 40
0.5480123421589068
 40
0.5553090723468017
 40
0.5626067678401078
 40
0.5699055777570828
 40
0.5772056504592762
 40
0.5845071332920326
 40
0.5918101722676316
 40
0.599114911680594
 40
0.6064214936436236
 40
0.6137300575313132
 40
0.6210407393173252
 40
0.6283536707891053
 40
0.6356689786224969
 40
0.6429867832966374
 40
0.6503071978276522
 40
0.657630326297454
 40
0.6649562621519727
 40
0.6722850862411077
 40
0.6796168645709112
 40
0.6869516457370097
 40
0.6942894580075121
 40
0.7016303060234707
 40
0.7089741670862845
 40
0.7163209870041438
 40
0.723670675474641
 40
0.7310231009885364
 40
0.7383780852510068
 40
0.745735397132641
 40
0.7530947461836327
 40
0.7604557757722029
 40
0.7678180559430677
 40
0.7751810761345298
 40
0.7825440808912353
 40
0.7899062813495953
 40
0.7972668486646312
 40
0.8046248462645953
 40
0.8119792265895401
 40
0.819328830018351
 40
0.826672386544725
 40
0.8340085208060666
 40
0.8413357610510922
 40
0.8486525525656382
 40
0.8559572759524826
 40
0.863248270475043
 40
0.87052386242775
 40
0.8777823981970072
 40
0.8850222813446923
 40
0.8922420127083308
 40
0.8994402322022457
 40
0.9066157607579994
 40
0.9137676406931511
 40
0.9208951727679872
 40
0.9279979482904037
 40
0.9350758748524504
 40
0.9421291946056877
 40
0.949158494371599
 40
0.9561647072962187
 40
0.9631491061540651
 40
0.9701132887505765
 40
0.9770591561405104
 40
0.9839888845612406
 40
0.9909048920754052
 40
0.9978098009380011
 40
1.0
 40
1.0
 40
1.0
 40
1.0
 10
407.1026444840858
 20
96.35431514853865
 30
0.0
 10
407.1027832863891
 20
96.30337784566967
 30
0.0
 10
407.1031092223455
 20
96.18376672876843
 30
0.0
 10
407.1123959616373
 20
95.99557863987474
 30
0.0
 10
407.1290906497285
 20
95.78990711172258
 30
0.0
 10
407.1535092354042
 20
95.58457810148118
 30
0.0
 10
407.185322112012
 20
95.37967016140996
 30
0.0
 10
407.2246094695641
 20
95.17526331665327
 30
0.0
 10
407.2713430589781
 20
94.97143863231422
 30
0.0
 10
407.3255245997075
 20
94.76827919965564
 30
0.0
 10
407.3871477868726
 20
94.56587066814237
 30
0.0
 10
407.4562075004754
 20
94.36430179795857
 30
0.0
 10
407.5326961989408
 20
94.16366487697725
 30
0.0
 10
407.616603661553
 20
93.96405601688018
 30
0.0
 10
407.7079157791077
 20
93.7655753007035
 30
0.0
 10
407.8066135998268
 20
93.56832677127153
 30
0.0
 10
407.9126723592065
 20
93.37241825341175
 30
0.0
 10
408.026060620239
 20
93.17796101184744
 30
0.0
 10
408.1467395397615
 20
92.98506925533256
 30
0.0
 10
408.2746622991683
 20
92.7938595065395
 30
0.0
 10
408.4097737210026
 20
92.6044498651536
 30
0.0
 10
408.5520100842358
 20
92.41695919781073
 30
0.0
 10
408.7012991387975
 20
92.23150629222559
 30
0.0
 10
408.8575603086234
 20
92.04820901370908
 30
0.0
 10
409.0207050623141
 20
91.86718350022089
 30
0.0
 10
409.1906374225851
 20
91.68854342745996
 30
0.0
 10
409.367254580553
 20
91.51239936886935
 30
0.0
 10
409.5504475787688
 20
91.33885826761507
 30
0.0
 10
409.740102027623
 20
91.16802302944133
 30
0.0
 10
409.9360988228449
 20
90.99999223758448
 30
0.0
 10
410.1383148366738
 20
90.83485998426167
 30
0.0
 10
410.3466235611534
 20
90.6727158080366
 30
0.0
 10
410.560895688225
 20
90.51364472277041
 30
0.0
 10
410.7809996172867
 20
90.35772732186904
 30
0.0
 10
411.0068018862103
 20
90.20503994095152
 30
0.0
 10
411.2381675262545
 20
90.0556548626139
 30
0.0
 10
411.474960151017
 20
89.9096406677789
 30
0.0
 10
411.7170404054535
 20
89.76706349333074
 30
0.0
 10
411.964268200759
 20
89.62798583128445
 30
0.0
 10
412.2165030592126
 20
89.4924666997729
 30
0.0
 10
412.4736061222394
 20
89.36056101426837
 30
0.0
 10
412.7354378917377
 20
89.23232114274093
 30
0.0
 10
413.0018582278763
 20
89.10779709751488
 30
0.0
 10
413.2727263296965
 20
88.98703670550279
 30
0.0
 10
413.5479007045845
 20
88.8700857564117
 30
0.0
 10
413.8272391312328
 20
88.75698812954624
 30
0.0
 10
414.1105986198459
 20
88.64778590036693
 30
0.0
 10
414.3978353725774
 20
88.54251942829872
 30
0.0
 10
414.6888047465171
 20
88.44122742748655
 30
0.0
 10
414.9833612209601
 20
88.34394702228448
 30
0.0
 10
415.2813583702079
 20
88.25071378927434
 30
0.0
 10
415.5826488427435
 20
88.1615617875604
 30
0.0
 10
415.8870843473002
 20
88.07652357899615
 30
0.0
 10
416.1945156460805
 20
87.99563023988632
 30
0.0
 10
416.5047925551819
 20
87.918911365579
 30
0.0
 10
416.8177639521272
 20
87.84639506922647
 30
0.0
 10
417.1332777902866
 20
87.77810797586505
 30
0.0
 10
417.451181119891
 20
87.71407521283092
 30
0.0
 10
417.7713201152805
 20
87.6543203974121
 30
0.0
 10
418.0935401079926
 20
87.5988656225229
 30
0.0
 10
418.4176856252741
 20
87.54773144108458
 30
0.0
 10
418.7436004335901
 20
87.50093684970722
 30
0.0
 10
419.0711275866988
 20
87.45849927218097
 30
0.0
 10
419.4001094778713
 20
87.42043454321546
 30
0.0
 10
419.7303878958378
 20
87.38675689280129
 30
0.0
 10
420.0618040840579
 20
87.3574789315078
 30
0.0
 10
420.3941988029235
 20
87.3326116369878
 30
0.0
 10
420.7274123945167
 20
87.31216434190998
 30
0.0
 10
421.061284849556
 20
87.29614472350727
 30
0.0
 10
421.3956558761817
 20
87.28455879489333
 30
0.0
 10
421.7303649702361
 20
87.2774108982709
 30
0.0
 10
422.0652514867033
 20
87.27470370012963
 30
0.0
 10
422.4001544127644
 20
87.27643818695874
 30
0.0
 10
422.73491227366
 20
87.28261363970802
 30
0.0
 10
423.0693636769338
 20
87.29322761612707
 30
0.0
 10
423.4033476883892
 20
87.30827597407287
 30
0.0
 10
423.7367040714372
 20
87.32775291251028
 30
0.0
 10
424.0692728921876
 20
87.35165097111502
 30
0.0
 10
424.4008945903224
 20
87.37996104059597
 30
0.0
 10
424.7314100486768
 20
87.41267237506666
 30
0.0
 10
425.0606606611551
 20
87.44977260638348
 30
0.0
 10
425.3884883986314
 20
87.49124776033874
 30
0.0
 10
425.7147358724706
 20
87.53708227457035
 30
0.0
 10
426.0392463952897
 20
87.58725901801157
 30
0.0
 10
426.3618640385636
 20
87.64175931166812
 30
0.0
 10
426.6824336866627
 20
87.70056295046346
 30
0.0
 10
427.000801086892
 20
87.76364822583987
 30
0.0
 10
427.3168128950879
 20
87.83099194874406
 30
0.0
 10
427.6303167163119
 20
87.90256947255781
 30
0.0
 10
427.9411611401696
 20
87.97835471545163
 30
0.0
 10
428.2491957702815
 20
88.05832018155458
 30
0.0
 10
428.5542712474299
 20
88.14243698022617
 30
0.0
 10
428.856239265921
 20
88.23067484260693
 30
0.0
 10
429.1549525827282
 20
88.32300213449228
 30
0.0
 10
429.4502650190262
 20
88.4193858644377
 30
0.0
 10
429.7420314537985
 20
88.51979168584839
 30
0.0
 10
430.0301078092959
 20
88.6241838916445
 30
0.0
 10
430.3143510282657
 20
88.7325253999231
 30
0.0
 10
430.5946190430524
 20
88.84477772886501
 30
0.0
 10
430.8707707369159
 20
88.96090095896636
 30
0.0
 10
431.1426658982128
 20
89.0808536805221
 30
0.0
 10
431.410165168482
 20
89.20459292416311
 30
0.0
 10
431.673129985942
 20
89.33207407217058
 30
0.0
 10
431.9314225264845
 20
89.4632507482811
 30
0.0
 10
432.1849056449285
 20
89.59807468378544
 30
0.0
 10
432.4334428200788
 20
89.73649555794117
 30
0.0
 10
432.6768981080418
 20
89.87846081112211
 30
0.0
 10
432.9151361091596
 20
90.02391542969046
 30
0.0
 10
433.1480202993505
 20
90.17280064401079
 30
0.0
 10
433.3754138907802
 20
90.3250539486713
 30
0.0
 10
433.5971806411438
 20
90.48060916355477
 30
0.0
 10
433.8131864758924
 20
90.6393972516134
 30
0.0
 10
434.0232989084034
 20
90.80134562369646
 30
0.0
 10
434.2273866352105
 20
90.96637738596719
 30
0.0
 10
434.425319854413
 20
91.13441103464875
 30
0.0
 10
434.6169706667455
 20
91.30536018037184
 30
0.0
 10
434.802213562793
 20
91.47913331978891
 30
0.0
 10
434.9809259960973
 20
91.65563367400215
 30
0.0
 10
435.1529890367786
 20
91.83475911405786
 30
0.0
 10
435.3182880942321
 20
92.0164021930971
 30
0.0
 10
435.4767136907599
 20
92.2004503024082
 30
0.0
 10
435.6281622611985
 20
92.38678596439786
 30
0.0
 10
435.7725369473633
 20
92.57528726937925
 30
0.0
 10
435.9097483512483
 20
92.76582845529985
 30
0.0
 10
436.0397152081421
 20
92.95828062061612
 30
0.0
 10
436.1623649409372
 20
93.1525125512142
 30
0.0
 10
436.2776340598035
 20
93.34839163353914
 30
0.0
 10
436.385468379064
 20
93.54578481884501
 30
0.0
 10
436.4858230278774
 20
93.7445595988296
 30
0.0
 10
436.5786622594161
 20
93.94458495063712
 30
0.0
 10
436.6639590133549
 20
94.1457322126768
 30
0.0
 10
436.7416944293117
 20
94.34787585007686
 30
0.0
 10
436.8118566625855
 20
94.5508941025059
 30
0.0
 10
436.8744415434261
 20
94.75466941616872
 30
0.0
 10
436.9294458109687
 20
94.95908894096883
 30
0.0
 10
436.9768875427734
 20
95.16404400867323
 30
0.0
 10
437.0167253337383
 20
95.36943262081287
 30
0.0
 10
437.0491538805471
 20
95.57515000522294
 30
0.0
 10
437.0734998042846
 20
95.78112286596718
 30
0.0
 10
437.088049666982
 20
95.9403703454731
 30
0.0
 10
437.0919741394665
 20
96.03098765474772
 30
0.0
 10
437.0929191943274
 20
96.05280926999626
 30
0.0
  0
LINE
  5
142
330
1F
100
AcDbEntity
  8
0
  6
Continuous
 62
     7
370
    30
100
AcDbLine
 10
449.7541265042
 20
160.9410360917
 30
0.0
 11
433.0519257028
 21
151.2990608043
 31
0.0
  0
LINE
  5
143
330
1F
100
AcDbEntity
  8
0
  6
Continuous
 62
     7
370
    30
100
AcDbLine
 10
437.0668439422
 20
95.7334608222
 30
0.0
 11
464.7996908934
 21
111.7432925883
 31
0.0
  0
SPLINE
  5
144
330
1F
100
AcDbEntity
  8
0
  6
Continuous
 62
     7
370
    30
100
AcDbSpline
210
0.0
220
0.0
230
1.0
 70
     8
 71
     3
 72
    41
 73
    37
 74
     0
 42
0.000000001
 43
0.00000001
 40
0.0
 40
0.0
 40
0.0
 40
0.0
 40
0.0298019841684545
 40
0.060725980969813
 40
0.0916447309515104
 40
0.1225545050532054
 40
0.1534511131520837
 40
0.1843298951947403
 40
0.215185722758187
 40
0.2460130135573277
 40
0.2768057614158216
 40
0.3075575840347898
 40
0.3382617904856851
 40
0.3689114696910763
 40
0.3994996002314629
 40
0.4300191806512405
 40
0.4604633780920956
 40
0.4908256916588649
 40
0.5211001255493586
 40
0.5512813658090432
 40
0.5813649537469623
 40
0.6113474486922438
 40
0.6412265729473597
 40
0.671001332510102
 40
0.7006721083221853
 40
0.7302407143341701
 40
0.759710420388111
 40
0.7890859396344182
 40
0.818373381757105
 40
0.8475801745605471
 40
0.8767149573981655
 40
0.9057874504827287
 40
0.9348083043375329
 40
0.9637889335922201
 40
0.9927413390798693
 40
1.0
 40
1.0
 40
1.0
 40
1.0
 10
411.1519257027781
 20
640.2135608822105
 30
0.0
 10
411.0777224636434
 20
640.1653602722837
 30
0.0
 10
410.9265223132734
 20
640.0671443513371
 30
0.0
 10
410.7052717862234
 20
639.9147178013787
 30
0.0
 10
410.4865812974185
 20
639.7574238070611
 30
0.0
 10
410.2738396420814
 20
639.5968652709788
 30
0.0
 10
410.0670334141713
 20
639.4332074708773
 30
0.0
 10
409.8663320382308
 20
639.2665056148089
 30
0.0
 10
409.6718539025428
 20
639.0968503533283
 30
0.0
 10
409.4837284403721
 20
638.9243291426612
 30
0.0
 10
409.3020788538809
 20
638.7490368503371
 30
0.0
 10
409.1270259765001
 20
638.5710730843144
 30
0.0
 10
408.9586863802215
 20
638.3905429566072
 30
0.0
 10
408.7971719428511
 20
638.2075567850841
 30
0.0
 10
408.6425889707236
 20
638.022229916377
 30
0.0
 10
408.4950374206655
 20
637.8346823395713
 30
0.0
 10
408.3546101175183
 20
637.6450381735933
 30
0.0
 10
408.2213920419526
 20
637.4534250110851
 30
0.0
 10
408.0954597179091
 20
637.259973139845
 30
0.0
 10
407.9768807397333
 20
637.0648146642532
 30
0.0
 10
407.8657134706172
 20
636.8680825592011
 30
0.0
 10
407.7620069371214
 20
636.6699096944633
 30
0.0
 10
407.6658009324318
 20
636.4704278707565
 30
0.0
 10
407.5771263340642
 20
636.2697669086515
 30
0.0
 10
407.4960056108038
 20
636.0680538281987
 30
0.0
 10
407.4224535514091
 20
635.8654121512715
 30
0.0
 10
407.3564779816339
 20
635.6619613496613
 30
0.0
 10
407.2980811822767
 20
635.4578164561963
 30
0.0
 10
407.2472591786253
 20
635.2530878343489
 30
0.0
 10
407.2040092175893
 20
635.0478811405994
 30
0.0
 10
407.1683068946296
 20
634.8422973320223
 30
0.0
 10
407.1401960328553
 20
634.6364332175837
 30
0.0
 10
407.1194588234124
 20
634.4303806276746
 30
0.0
 10
407.1068479402434
 20
634.2242312849338
 30
0.0
 10
407.101334116885
 20
634.0695097994899
 30
0.0
 10
407.1024135980715
 20
633.9835659197432
 30
0.0
 10
407.1026299846262
 20
633.9663381067257
 30
0.0
  0
LINE
  5
145
330
1F
100
AcDbEntity
  8
0
  6
Continuous
 62
     7
370
    30
100
AcDbLine
 10
407.1019257028
 20
633.9679158627
 30
0.0
 11
407.1019257028
 21
594.6106487298
 31
0.0
  0
SPLINE
  5
146
330
1F
100
AcDbEntity
  8
0
  6
Continuous
 62
     7
370
    30
100
AcDbSpline
210
0.0
220
0.0
230
1.0
 70
     8
 71
     3
 72
   146
 73
   142
 74
     0
 42
0.000000001
 43
0.00000001
 40
0.0
 40
0.0
 40
0.0
 40
0.0
 40
0.0051093638522128
 40
0.0119978224715988
 40
0.0188875249715091
 40
0.0257814561159568
 40
0.0326825275551999
 40
0.0395935339153114
 40
0.0465171109012538
 40
0.053455696073014
 40
0.0604114930418613
 40
0.0673864398832629
 40
0.0743821825893129
 40
0.0814000543697625
 40
0.0884410615403531
 40
0.0955058766003541
 40
0.1025948388933744
 40
0.1097079629730489
 40
0.1168449544732868
 40
0.1240052329365647
 40
0.1311879607149129
 40
0.1383920767608058
 40
0.145616333900485
 40
0.152859338054333
 40
0.1601195878493521
 40
0.1673955131570311
 40
0.1746855112712387
 40
0.1819879796921029
 40
0.1893013447730948
 40
0.1966240857900698
 40
0.2039547542754796
 40
0.211291988708224
 40
0.21863452484657
 40
0.2259812021330965
 40
0.2333309666880253
 40
0.2406828714467155
 40
0.2480360739969414
 40
0.2553898146045626
 40
0.2627432700955488
 40
0.2700959121938235
 40
0.2774472930067807
 40
0.2847970381531435
 40
0.2921448398834744
 40
0.2994904504052311
 40
0.3068336755228255
 40
0.3141743686665061
 40
0.3215124253545504
 40
0.3288477781100535
 40
0.3361803918362199
 40
0.3435102596410096
 40
0.3508373990929726
 40
0.3581618488840599
 40
0.3654836658714124
 40
0.3728029224683594
 40
0.3801197043542873
 40
0.3874341084734192
 40
0.3947462412937465
 40
0.4020562172988607
 40
0.4093641576872263
 40
0.4166701892554119
 40
0.4239744434437221
 40
0.4312770555246712
 40
0.4385781639164945
 40
0.4458779096057281
 40
0.4531764356643836
 40
0.4604738868487409
 40
0.4677704092681131
 40
0.4750661501129919
 40
0.4823612574330394
 40
0.4896558799562814
 40
0.4969501669414954
 40
0.504244268056425
 40
0.5115383332749185
 40
0.5188324932341282
 40
0.5261268677457224
 40
0.5334216072097645
 40
0.5407168620109711
 40
0.548012782418238
 40
0.5553095184681371
 40
0.5626072198242271
 40
0.56990603560488
 40
0.5772061141717637
 40
0.5845076028703431
 40
0.5918106477130175
 40
0.5991153929944203
 40
0.6064219808273705
 40
0.6137305505865721
 40
0.6210412382458006
 40
0.6283541755926056
 40
0.635669489302927
 40
0.6429872998560042
 40
0.6503077202680514
 40
0.6576308546210686
 40
0.6649567963610573
 40
0.6722856263379855
 40
0.6796174105579489
 40
0.6869521976166261
 40
0.6942900157821376
 40
0.7016308696955462
 40
0.7089747366582314
 40
0.7163215624783379
 40
0.7236712568533872
 40
0.7310236882740326
 40
0.7383786784453117
 40
0.7457359962376215
 40
0.7530953512009257
 40
0.7604563867031572
 40
0.7678186727886912
 40
0.7751816988954154
 40
0.7825447095673692
 40
0.7899069159403346
 40
0.7972674891686603
 40
0.8046254926798527
 40
0.8119798789131162
 40
0.819329488246413
 40
0.8266730506724125
 40
0.8340091908274169
 40
0.8413364369589612
 40
0.8486532343516295
 40
0.8559579636069006
 40
0.8632489639868571
 40
0.8705245617845908
 40
0.877783103385169
 40
0.8850229923491914
 40
0.892242729512977
 40
0.8994409547897555
 40
0.9066164891101445
 40
0.9137683747909322
 40
0.920895912591844
 40
0.9279986938204512
 40
0.9350766260687212
 40
0.9421299514884156
 40
0.9491592569014853
 40
0.9561654754547152
 40
0.9631498799236485
 40
0.9701140681150083
 40
0.9770599410850712
 40
0.9839896750729699
 40
0.9909056881432775
 40
0.9978106025531002
 40
1.0
 40
1.0
 40
1.0
 40
1.0
 10
407.1026444840857
 20
594.6075185612231
 30
0.0
 10
407.1027832863891
 20
594.5565812583521
 30
0.0
 10
407.1031092223456
 20
594.4369701414489
 30
0.0
 10
407.1123959616377
 20
594.2487820525532
 30
0.0
 10
407.1290906497291
 20
594.0431105244011
 30
0.0
 10
407.153509235405
 20
593.8377815141598
 30
0.0
 10
407.1853221120131
 20
593.6328735740884
 30
0.0
 10
407.2246094695654
 20
593.428466729332
 30
0.0
 10
407.2713430589796
 20
593.2246420449926
 30
0.0
 10
407.3255245997093
 20
593.0214826123344
 30
0.0
 10
407.3871477868746
 20
592.8190740808209
 30
0.0
 10
407.4562075004776
 20
592.6175052106372
 30
0.0
 10
407.5326961989431
 20
592.4168682896558
 30
0.0
 10
407.6166036615557
 20
592.2172594295589
 30
0.0
 10
407.7079157791106
 20
592.0187787133822
 30
0.0
 10
407.80661359983
 20
591.82153018395
 30
0.0
 10
407.9126723592099
 20
591.6256216660904
 30
0.0
 10
408.0260606202426
 20
591.4311644245264
 30
0.0
 10
408.1467395397653
 20
591.2382726680113
 30
0.0
 10
408.2746622991723
 20
591.0470629192184
 30
0.0
 10
408.4097737210068
 20
590.8576532778325
 30
0.0
 10
408.5520100842402
 20
590.6701626104897
 30
0.0
 10
408.7012991388021
 20
590.4847097049046
 30
0.0
 10
408.8575603086282
 20
590.3014124263881
 30
0.0
 10
409.0207050623191
 20
590.1203869129001
 30
0.0
 10
409.1906374225904
 20
589.9417468401391
 30
0.0
 10
409.3672545805584
 20
589.7656027815488
 30
0.0
 10
409.5504475787745
 20
589.5920616802945
 30
0.0
 10
409.7401020276288
 20
589.4212264421207
 30
0.0
 10
409.936098822851
 20
589.2531956502638
 30
0.0
 10
410.1383148366801
 20
589.0880633969415
 30
0.0
 10
410.3466235611597
 20
588.9259192207162
 30
0.0
 10
410.5608956882315
 20
588.7668481354503
 30
0.0
 10
410.7809996172934
 20
588.610930734549
 30
0.0
 10
411.0068018862172
 20
588.4582433536316
 30
0.0
 10
411.2381675262616
 20
588.308858275294
 30
0.0
 10
411.4749601510243
 20
588.1628440804592
 30
0.0
 10
411.7170404054611
 20
588.020266906011
 30
0.0
 10
411.9642682007667
 20
587.881189243965
 30
0.0
 10
412.2165030592205
 20
587.7456701124534
 30
0.0
 10
412.4736061222474
 20
587.6137644269489
 30
0.0
 10
412.735437891746
 20
587.4855245554215
 30
0.0
 10
413.0018582278846
 20
587.3610005101959
 30
0.0
 10
413.2727263297051
 20
587.2402401181837
 30
0.0
 10
413.5479007045931
 20
587.1232891690928
 30
0.0
 10
413.8272391312416
 20
587.0101915422275
 30
0.0
 10
414.1105986198547
 20
586.9009893130484
 30
0.0
 10
414.3978353725863
 20
586.7957228409803
 30
0.0
 10
414.6888047465262
 20
586.6944308401681
 30
0.0
 10
414.9833612209693
 20
586.5971504349662
 30
0.0
 10
415.2813583702171
 20
586.5039172019563
 30
0.0
 10
415.5826488427528
 20
586.4147652002423
 30
0.0
 10
415.8870843473096
 20
586.3297269916784
 30
0.0
 10
416.19451564609
 20
586.2488336525685
 30
0.0
 10
416.5047925551914
 20
586.1721147782614
 30
0.0
 10
416.8177639521369
 20
586.0995984819087
 30
0.0
 10
417.1332777902963
 20
586.0313113885479
 30
0.0
 10
417.4511811199009
 20
585.9672786255134
 30
0.0
 10
417.7713201152905
 20
585.907523810095
 30
0.0
 10
418.0935401080025
 20
585.852069035206
 30
0.0
 10
418.4176856252842
 20
585.8009348537674
 30
0.0
 10
418.7436004336002
 20
585.7541402623905
 30
0.0
 10
419.0711275867089
 20
585.7117026848643
 30
0.0
 10
419.4001094778815
 20
585.6736379558989
 30
0.0
 10
419.730387895848
 20
585.6399603054849
 30
0.0
 10
420.0618040840681
 20
585.6106823441918
 30
0.0
 10
420.3941988029339
 20
585.5858150496717
 30
0.0
 10
420.7274123945271
 20
585.565367754594
 30
0.0
 10
421.0612848495665
 20
585.5493481361915
 30
0.0
 10
421.3956558761921
 20
585.5377622075777
 30
0.0
 10
421.7303649702465
 20
585.5306143109553
 30
0.0
 10
422.0652514867135
 20
585.5279071128143
 30
0.0
 10
422.4001544127746
 20
585.5296415996434
 30
0.0
 10
422.73491227367
 20
585.5358170523929
 30
0.0
 10
423.0693636769439
 20
585.5464310288122
 30
0.0
 10
423.4033476883993
 20
585.561479386758
 30
0.0
 10
423.7367040714473
 20
585.5809563251955
 30
0.0
 10
424.0692728921977
 20
585.6048543838004
 30
0.0
 10
424.4008945903324
 20
585.6331644532817
 30
0.0
 10
424.7314100486868
 20
585.6658757877522
 30
0.0
 10
425.0606606611651
 20
585.7029760190693
 30
0.0
 10
425.3884883986412
 20
585.7444511730247
 30
0.0
 10
425.7147358724803
 20
585.7902856872565
 30
0.0
 10
426.0392463952994
 20
585.8404624306978
 30
0.0
 10
426.3618640385733
 20
585.8949627243546
 30
0.0
 10
426.6824336866722
 20
585.95376636315
 30
0.0
 10
427.0008010869014
 20
586.0168516385265
 30
0.0
 10
427.3168128950974
 20
586.0841953614307
 30
0.0
 10
427.6303167163213
 20
586.1557728852448
 30
0.0
 10
427.9411611401789
 20
586.2315581281384
 30
0.0
 10
428.2491957702907
 20
586.3115235942417
 30
0.0
 10
428.5542712474389
 20
586.3956403929134
 30
0.0
 10
428.85623926593
 20
586.4838782552943
 30
0.0
 10
429.1549525827371
 20
586.5762055471797
 30
0.0
 10
429.450265019035
 20
586.6725892771253
 30
0.0
 10
429.7420314538072
 20
586.7729950985362
 30
0.0
 10
430.0301078093046
 20
586.8773873043324
 30
0.0
 10
430.3143510282741
 20
586.9857288126112
 30
0.0
 10
430.5946190430607
 20
587.097981141553
 30
0.0
 10
430.8707707369241
 20
587.2141043716546
 30
0.0
 10
431.1426658982209
 20
587.3340570932104
 30
0.0
 10
431.41016516849
 20
587.4577963368515
 30
0.0
 10
431.6731299859497
 20
587.5852774848593
 30
0.0
 10
431.9314225264922
 20
587.7164541609698
 30
0.0
 10
432.1849056449361
 20
587.8512780964743
 30
0.0
 10
432.4334428200861
 20
587.9896989706298
 30
0.0
 10
432.676898108049
 20
588.1316642238112
 30
0.0
 10
432.9151361091666
 20
588.2771188423794
 30
0.0
 10
433.1480202993573
 20
588.4260040566998
 30
0.0
 10
433.3754138907869
 20
588.5782573613607
 30
0.0
 10
433.5971806411503
 20
588.7338125762441
 30
0.0
 10
433.8131864758987
 20
588.8926006643029
 30
0.0
 10
434.0232989084095
 20
589.0545490363859
 30
0.0
 10
434.2273866352164
 20
589.2195807986568
 30
0.0
 10
434.4253198544188
 20
589.3876144473384
 30
0.0
 10
434.6169706667511
 20
589.5585635930618
 30
0.0
 10
434.8022135627984
 20
589.7323367324786
 30
0.0
 10
434.9809259961025
 20
589.9088370866924
 30
0.0
 10
435.1529890367837
 20
590.0879625267478
 30
0.0
 10
435.3182880942369
 20
590.2696056057871
 30
0.0
 10
435.4767136907645
 20
590.4536537150984
 30
0.0
 10
435.6281622612029
 20
590.639989377088
 30
0.0
 10
435.7725369473674
 20
590.8284906820695
 30
0.0
 10
435.9097483512522
 20
591.0190318679902
 30
0.0
 10
436.0397152081459
 20
591.2114840333064
 30
0.0
 10
436.1623649409406
 20
591.4057159639046
 30
0.0
 10
436.2776340598068
 20
591.6015950462296
 30
0.0
 10
436.3854683790672
 20
591.7989882315354
 30
0.0
 10
436.4858230278801
 20
591.9977630115201
 30
0.0
 10
436.5786622594193
 20
592.1977883633277
 30
0.0
 10
436.6639590133555
 20
592.3989356253674
 30
0.0
 10
436.7416944293207
 20
592.6010792627674
 30
0.0
 10
436.8118566625624
 20
592.8040975151973
 30
0.0
 10
436.8744415435208
 20
593.007872828856
 30
0.0
 10
436.9294458106249
 20
593.212292353672
 30
0.0
 10
436.9768875440577
 20
593.4172474213176
 30
0.0
 10
437.0167253289695
 20
593.6226360336758
 30
0.0
 10
437.0491538982902
 20
593.8283534172728
 30
0.0
 10
437.0734997382552
 20
594.0343262810438
 30
0.0
 10
437.0880491119395
 20
594.1935657614358
 30
0.0
 10
437.0919733313187
 20
594.2841750630724
 30
0.0
 10
437.0929180620499
 20
594.305988673249
 30
0.0
  0
LINE
  5
147
330
1F
100
AcDbEntity
  8
0
  6
Continuous
 62
     7
370
    30
100
AcDbLine
 10
449.7541265042
 20
659.1942395044
 30
0.0
 11
433.0519257028
 21
649.552264217
 31
0.0
  0
LINE
  5
148
330
1F
100
AcDbEntity
  8
0
  6
Continuous
 62
     7
370
    30
100
AcDbLine
 10
437.0668439422
 20
593.9866642349
 30
0.0
 11
464.7996908934
 21
609.9964960009
 31
0.0
  0
SPLINE
  5
149
330
1F
100
AcDbEntity
  8
0
  6
Continuous
 62
     7
370
    30
100
AcDbSpline
210
0.0
220
0.0
230
1.0
 70
     8
 71
     3
 72
    46
 73
    42
 74
     0
 42
0.000000001
 43
0.00000001
 40
0.0
 40
0.0
 40
0.0
 40
0.0
 40
0.0202568349284111
 40
0.0451948915458079
 40
0.0701371014061369
 40
0.0950916320109608
 40
0.1200664560775135
 40
0.1450692396759803
 40
0.1701072359811644
 40
0.1951871864572758
 40
0.2203152313257194
 40
0.2454968311394367
 40
0.2707367012088696
 40
0.2960387604716439
 40
0.3214060961527197
 40
0.3468409452157836
 40
0.3723446931563338
 40
0.3979178901533119
 40
0.4235602839980112
 40
0.449270868601641
 40
0.475047946287928
 40
0.5008892015550261
 40
0.5267917835827443
 40
0.5527523945065314
 40
0.5787673803947836
 40
0.60483282195206
 40
0.6309446222204067
 40
0.6570985889272217
 40
0.68329050959932
 40
0.7095162180801642
 40
0.7357716516118246
 40
0.7620528981378674
 40
0.7883562339158585
 40
0.8146781518870934
 40
0.8410153815191697
 40
0.8673649010234885
 40
0.8937239429533034
 40
0.9200899942255939
 40
0.9464607915902188
 40
0.9728343135146428
 40
1.0
 40
1.0
 40
1.0
 40
1.0
 10
399.8305452574135
 20
330.0777426231294
 30
0.0
 10
399.8829507894135
 20
330.0478202469475
 30
0.0
 10
399.9998724281352
 20
329.9810606297066
 30
0.0
 10
400.1857103561912
 20
329.8852811699706
 30
0.0
 10
400.387091114395
 20
329.7889862262402
 30
0.0
 10
400.592052863944
 20
329.6995089860482
 30
0.0
 10
400.8003896076636
 20
329.6166381367995
 30
0.0
 10
401.0120719604192
 20
329.5404709396091
 30
0.0
 10
401.2270224538829
 20
329.4710232330643
 30
0.0
 10
401.4451749990936
 20
329.408333954891
 30
0.0
 10
401.6664581093339
 20
329.3524368574242
 30
0.0
 10
401.8907986009474
 20
329.3033677301677
 30
0.0
 10
402.1181198381007
 20
329.2611619618406
 30
0.0
 10
402.3483415123592
 20
329.2258545853422
 30
0.0
 10
402.5813791051308
 20
329.1974795625202
 30
0.0
 10
402.8171435544475
 20
329.1760692033516
 30
0.0
 10
403.0555410059796
 20
329.1616535055438
 30
0.0
 10
403.2964726954424
 20
329.1542595009722
 30
0.0
 10
403.5398349581398
 20
329.1539106156443
 30
0.0
 10
403.7855193679124
 20
329.1606260708248
 30
0.0
 10
404.0334129983475
 20
329.1744203451659
 30
0.0
 10
404.2833987942236
 20
329.195302716058
 30
0.0
 10
404.5353560358956
 20
329.2232768937694
 30
0.0
 10
404.7891608755423
 20
329.2583407571197
 30
0.0
 10
405.0446869217762
 20
329.3004861941739
 30
0.0
 10
405.3018058483169
 20
329.3496990462775
 30
0.0
 10
405.5603880031717
 20
329.4059591491533
 30
0.0
 10
405.8203029969245
 20
329.4692404606664
 30
0.0
 10
406.0814202518961
 20
329.5395112629379
 30
0.0
 10
406.3436094980916
 20
329.6167344212022
 30
0.0
 10
406.6067412053293
 20
329.700867694356
 30
0.0
 10
406.8706869481375
 20
329.7918640429771
 30
0.0
 10
407.1353196928758
 20
329.8896720666195
 30
0.0
 10
407.4005140411545
 20
329.9942360127668
 30
0.0
 10
407.6661463121408
 20
330.105497384018
 30
0.0
 10
407.9320949242301
 20
330.2233905263791
 30
0.0
 10
408.1982393867647
 20
330.3478606105253
 30
0.0
 10
408.4644642458794
 20
330.4787978837936
 30
0.0
 10
408.7306443361004
 20
330.6162844004446
 30
0.0
 10
408.9993603570077
 20
330.7611080852906
 30
0.0
 10
409.1791409431817
 20
330.8636048734805
 30
0.0
 10
409.2703612504147
 20
330.9156115373149
 30
0.0
  0
LINE
  5
14A
330
1F
100
AcDbEntity
  8
0
  6
Continuous
 62
     7
370
    30
100
AcDbLine
 10
380.0274496972
 20
341.5091649017
 30
0.0
 11
399.8264395704
 21
330.0794513362
 31
0.0
  0
SPLINE
  5
14B
330
1F
100
AcDbEntity
  8
0
  6
Continuous
 62
     7
370
    30
100
AcDbSpline
210
0.0
220
0.0
230
1.0
 70
     8
 71
     3
 72
    31
 73
    27
 74
     0
 42
0.000000001
 43
0.00000001
 40
0.0
 40
0.0
 40
0.0
 40
0.0
 40
0.0286997125123961
 40
0.0705263253352799
 40
0.1123577137480318
 40
0.1542068813803492
 40
0.1960865528194219
 40
0.2380089974216325
 40
0.2799858616726643
 40
0.3220280128190418
 40
0.364145396649863
 40
0.4063469122395565
 40
0.4486403063269426
 40
0.4910320897636792
 40
0.533527478090549
 40
0.5761303577890793
 40
0.6188432790930118
 40
0.6616674754649134
 40
0.7046029089668965
 40
0.7476483398485186
 40
0.7908014177930855
 40
0.8340587914739208
 40
0.8774162324469975
 40
0.9208687689842657
 40
0.9644108252741936
 40
1.0
 40
1.0
 40
1.0
 40
1.0
 10
375.9814865589628
 20
341.4776071175558
 30
0.0
 10
376.0263202574394
 20
341.4517564388011
 30
0.0
 10
376.1364940441412
 20
341.3882312944567
 30
0.0
 10
376.3162564093055
 20
341.2945325587669
 30
0.0
 10
376.5200621657764
 20
341.1955568319482
 30
0.0
 10
376.7274956296587
 20
341.1034449902388
 30
0.0
 10
376.9383126605112
 20
341.0179175867672
 30
0.0
 10
377.1524953811222
 20
340.9390894260064
 30
0.0
 10
377.3699646159483
 20
340.8669708089048
 30
0.0
 10
377.5906562556315
 20
340.8016012395256
 30
0.0
 10
377.8144999935113
 20
340.7430133491707
 30
0.0
 10
378.0414242735503
 20
340.6912422529077
 30
0.0
 10
378.2713542385239
 20
340.6463225889655
 30
0.0
 10
378.5042116199482
 20
340.6082887600656
 30
0.0
 10
378.7399141914354
 20
340.5771742213647
 30
0.0
 10
378.9783754489132
 20
340.553010968023
 30
0.0
 10
379.2195043487947
 20
340.5358288772335
 30
0.0
 10
379.4632051985659
 20
340.5256552453585
 30
0.0
 10
379.7093775522206
 20
340.5225136251872
 30
0.0
 10
379.9579166420328
 20
340.5264253430153
 30
0.0
 10
380.2087123644976
 20
340.5374011533747
 30
0.0
 10
380.4616542144159
 20
340.555470100001
 30
0.0
 10
380.7166144207768
 20
340.5805693612645
 30
0.0
 10
380.9735131224086
 20
340.6129550984014
 30
0.0
 10
381.2161686426844
 20
340.6492814803768
 30
0.0
 10
381.373693064023
 20
340.6781243412937
 30
0.0
 10
381.4445394805723
 20
340.6910963828452
 30
0.0
  0
LINE
  5
14C
330
1F
100
AcDbEntity
  8
0
  6
Continuous
 62
     7
370
    30
100
AcDbLine
 10
372.9461087362
 20
385.95172433
 30
0.0
 11
370.1543200934
 21
387.5633896082
 31
0.0
  0
LINE
  5
14D
330
1F
100
AcDbEntity
  8
0
  6
Continuous
 62
     7
370
    30
100
AcDbLine
 10
393.0878488912
 20
374.3241452385
 30
0.0
 11
391.8040500646
 21
375.0652665258
 31
0.0
  0
LINE
  5
14E
330
1F
100
AcDbEntity
  8
0
  6
Continuous
 62
     7
370
    30
100
AcDbLine
 10
351.6558235397
 20
355.5195817001
 30
0.0
 11
375.9802968125
 21
341.4773621767
 31
0.0
  0
SPLINE
  5
14F
330
1F
100
AcDbEntity
  8
0
  6
Continuous
 62
     7
370
    30
100
AcDbSpline
210
0.0
220
0.0
230
1.0
 70
     8
 71
     3
 72
   122
 73
   118
 74
     0
 42
0.000000001
 43
0.00000001
 40
0.0
 40
0.0
 40
0.0
 40
0.0
 40
0.0047025479588771
 40
0.0135804983647176
 40
0.0224567300816178
 40
0.0313315853137591
 40
0.0402047741561319
 40
0.049076056141887
 40
0.0579452354503572
 40
0.0668121564527146
 40
0.0756766995341486
 40
0.0845387772104867
 40
0.0933983305473599
 40
0.1022553258806154
 40
0.1111097518312071
 40
0.1199616166023804
 40
0.1288109455450292
 40
0.1376577789738818
 40
0.1465021702171398
 40
0.1553441838812523
 40
0.1641838943129928
 40
0.1730213842409592
 40
0.1818567435802411
 40
0.1906900683840446
 40
0.1995214599276066
 40
0.2083510239106567
 40
0.2171788697656459
 40
0.22600511006043
 40
0.2348298599842086
 40
0.2436532369076723
 40
0.2524753600081437
 40
0.2612963499518866
 40
0.2701163286263289
 40
0.2789354189155483
 40
0.2877537445131808
 40
0.296571429767113
 40
0.3053885995511084
 40
0.3142053791586306
 40
0.3230218942145431
 40
0.3318382706009533
 40
0.3406546343928639
 40
0.3494710892532199
 40
0.3582877419586374
 40
0.3671047188489738
 40
0.3759221462483318
 40
0.3847401503997975
 40
0.3935588573904062
 40
0.4023783930619898
 40
0.4111988829038839
 40
0.4200204519228811
 40
0.4288432244859572
 40
0.4376673241307988
 40
0.4464928733382603
 40
0.4553199932608924
 40
0.4641488034008267
 40
0.4729794212295499
 40
0.481811961741441
 40
0.4906465369321665
 40
0.4994832551919133
 40
0.5083222206027803
 40
0.5171635321281614
 40
0.5260072826813339
 40
0.5348535580590037
 40
0.5437024357247008
 40
0.552553983425485
 40
0.5614082576249445
 40
0.5702653017339754
 40
0.5791251441209904
 40
0.5879877958822721
 40
0.5968532483539182
 40
0.6057214703475677
 40
0.6145924050939994
 40
0.6234659668814697
 40
0.632342037380401
 40
0.641220461651837
 40
0.6501010438456418
 40
0.6589835426053267
 40
0.6678676662102475
 40
0.6767530675033319
 40
0.6856393386738338
 40
0.6945259755834426
 40
0.7034122658534254
 40
0.7122975623581346
 40
0.721181136103319
 40
0.7300621726107842
 40
0.7389397693786369
 40
0.7478129346996422
 40
0.7566805881893965
 40
0.7655415633949039
 40
0.7743946128568276
 40
0.7832384159803575
 40
0.7920715900250114
 40
0.8008927044495318
 40
0.809700298740448
 40
0.8184929037148301
 40
0.8272690661201074
 40
0.8360273761666834
 40
0.8447664974331157
 40
0.8534851983930385
 40
0.8621823846458281
 40
0.8708571308049274
 40
0.8795087109239568
 40
0.8881366263307905
 40
0.8967406297983963
 40
0.9053207451047153
 40
0.9138772812130274
 40
0.9224108405228086
 40
0.930922320881326
 40
0.9394129112878123
 40
0.9478840814467443
 40
0.9563375655215498
 40
0.9647753405941758
 40
0.9731996004476767
 40
0.9816127253574979
 40
0.9900172486104009
 40
0.9984158204742873
 40
0.9999999999999999
 40
0.9999999999999999
 40
0.9999999999999999
 40
0.9999999999999999
 10
388.4714526445554
 20
371.6591564111501
 30
0.0
 10
388.4245731940748
 20
371.6319124295981
 30
0.0
 10
388.2891899282033
 20
371.5532344766775
 30
0.0
 10
388.0656334101964
 20
371.4183953573152
 30
0.0
 10
387.8010426905015
 20
371.2527291561134
 30
0.0
 10
387.537117996585
 20
371.08099230543
 30
0.0
 10
387.273951814997
 20
370.9033721474549
 30
0.0
 10
387.011649625358
 20
370.7199256440247
 30
0.0
 10
386.7503138761676
 20
370.5307478138699
 30
0.0
 10
386.4900465560607
 20
370.3359254266031
 30
0.0
 10
386.2309485982178
 20
370.135549375885
 30
0.0
 10
385.9731201206715
 20
369.9297113431703
 30
0.0
 10
385.7166604305315
 20
369.7185046758992
 30
0.0
 10
385.4616680795136
 20
369.5020241415262
 30
0.0
 10
385.2082408942697
 20
369.2803659856829
 30
0.0
 10
384.9564760026329
 20
369.0536279105305
 30
0.0
 10
384.706469850852
 20
368.8219090749903
 30
0.0
 10
384.458318213919
 20
368.5853100886796
 30
0.0
 10
384.2121161992447
 20
368.3439330063397
 30
0.0
 10
383.9679582444285
 20
368.0978813203402
 30
0.0
 10
383.7259381097267
 20
367.8472599514518
 30
0.0
 10
383.4861488658279
 20
367.5921752374834
 30
0.0
 10
383.2486828775099
 20
367.3327349196521
 30
0.0
 10
383.0136317837126
 20
367.0690481265505
 30
0.0
 10
382.7810864745297
 20
366.8012253556537
 30
0.0
 10
382.5511370655835
 20
366.5293784523366
 30
0.0
 10
382.3238728702036
 20
366.253620586411
 30
0.0
 10
382.0993823698041
 20
365.9740662262219
 30
0.0
 10
381.8777531828122
 20
365.6908311103544
 30
0.0
 10
381.6590720324732
 20
365.4040322170329
 30
0.0
 10
381.4434247138239
 20
365.1137877312934
 30
0.0
 10
381.2308960601036
 20
364.8202170100312
 30
0.0
 10
381.0215699088416
 20
364.5234405450307
 30
0.0
 10
380.8155290678429
 20
364.2235799240826
 30
0.0
 10
380.6128552812689
 20
363.920757790313
 30
0.0
 10
380.4136291959933
 20
363.6150977998367
 30
0.0
 10
380.2179303283989
 20
363.3067245778627
 30
0.0
 10
380.0258370317621
 20
362.9957636733737
 30
0.0
 10
379.8374264643623
 20
362.6823415125052
 30
0.0
 10
379.6527745584435
 20
362.3665853507637
 30
0.0
 10
379.4719561442689
 20
362.0486234952393
 30
0.0
 10
379.2950448825272
 20
361.7285852279565
 30
0.0
 10
379.1221130916864
 20
361.4066005238031
 30
0.0
 10
378.9532315811544
 20
361.0827997182625
 30
0.0
 10
378.788469662616
 20
360.7573134836177
 30
0.0
 10
378.6278952568068
 20
360.430273013097
 30
0.0
 10
378.4715748711876
 20
360.1018099686293
 30
0.0
 10
378.3195735791354
 20
359.7720564285531
 30
0.0
 10
378.1719550007152
 20
359.4411448354646
 30
0.0
 10
378.0287812850762
 20
359.1092079443926
 30
0.0
 10
377.8901130945154
 20
358.7763787714905
 30
0.0
 10
377.7560095902338
 20
358.4427905434612
 30
0.0
 10
377.6265284198079
 20
358.1085766479339
 30
0.0
 10
377.5017257063777
 20
357.7738705850356
 30
0.0
 10
377.3816560395459
 20
357.4388059204142
 30
0.0
 10
377.2663724679602
 20
357.1035162399895
 30
0.0
 10
377.1559264935311
 20
356.7681351067289
 30
0.0
 10
377.0503680672161
 20
356.4327960197687
 30
0.0
 10
376.9497455862693
 20
356.0976323762181
 30
0.0
 10
376.8541058928238
 20
355.7627774360138
 30
0.0
 10
376.7634942736379
 20
355.428364290212
 30
0.0
 10
376.677954460783
 20
355.0945258331291
 30
0.0
 10
376.5975286330095
 20
354.7613947387586
 30
0.0
 10
376.5222574174546
 20
354.4291034419197
 30
0.0
 10
376.452179891296
 20
354.0977841245945
 30
0.0
 10
376.3873335828667
 20
353.7675687079309
 30
0.0
 10
376.3277544716646
 20
353.4385888503755
 30
0.0
 10
376.2734769865826
 20
353.1109759523965
 30
0.0
 10
376.2245340015753
 20
352.7848611682209
 30
0.0
 10
376.180956827855
 20
352.4603754249689
 30
0.0
 10
376.142775201578
 20
352.1376494494859
 30
0.0
 10
376.1100172658365
 20
351.8168138030794
 30
0.0
 10
376.082709545629
 20
351.4979989242132
 30
0.0
 10
376.0608769143332
 20
351.1813351790367
 30
0.0
 10
376.044542550064
 20
350.8669529193767
 30
0.0
 10
376.0337278801679
 20
350.5549825475257
 30
0.0
 10
376.0284525120092
 20
350.2455545867878
 30
0.0
 10
376.0287341481315
 20
349.9387997563023
 30
0.0
 10
376.0345884838802
 20
349.6348490481361
 30
0.0
 10
376.0460290725837
 20
349.3338341473908
 30
0.0
 10
376.063067059982
 20
349.0358890185074
 30
0.0
 10
376.0857109450473
 20
348.7411482964091
 30
0.0
 10
376.113966400809
 20
348.4497469971235
 30
0.0
 10
376.1478362815301
 20
348.1618191015579
 30
0.0
 10
376.18732029384
 20
347.87749914722
 30
0.0
 10
376.2324147395278
 20
347.5969221902174
 30
0.0
 10
376.2831122423535
 20
347.3202237254815
 30
0.0
 10
376.3394014639298
 20
347.0475395583712
 30
0.0
 10
376.4012668154682
 20
346.7790056207465
 30
0.0
 10
376.4686881739556
 20
346.5147577255898
 30
0.0
 10
376.5416406130485
 20
346.2549312558519
 30
0.0
 10
376.6200941604912
 20
345.9996607854737
 30
0.0
 10
376.7040135950135
 20
345.7490796334899
 30
0.0
 10
376.7933582962503
 20
345.5033193556937
 30
0.0
 10
376.888082161067
 20
345.2625091823719
 30
0.0
 10
376.9881335986277
 20
345.0267754148969
 30
0.0
 10
377.0934556145015
 20
344.7962407981177
 30
0.0
 10
377.2039859910744
 20
344.5710238892167
 30
0.0
 10
377.319657567608
 20
344.3512384465067
 30
0.0
 10
377.4403986186663
 20
344.1369928632312
 30
0.0
 10
377.5661333246568
 20
343.9283896714763
 30
0.0
 10
377.6967823231977
 20
343.7255251395386
 30
0.0
 10
377.8322633256673
 20
343.5284889830601
 30
0.0
 10
377.9724917788153
 20
343.3373642040848
 30
0.0
 10
378.1173815514605
 20
343.1522270709391
 30
0.0
 10
378.2668456148681
 20
342.9731472274037
 30
0.0
 10
378.4207967233064
 20
342.8001879789247
 30
0.0
 10
378.5791479623259
 20
342.6334065517327
 30
0.0
 10
378.7418135566741
 20
342.4728550281499
 30
0.0
 10
378.908708392707
 20
342.3185792631227
 30
0.0
 10
379.0797519299937
 20
342.1706257067546
 30
0.0
 10
379.2548553363472
 20
342.0290190999036
 30
0.0
 10
379.4339705786514
 20
341.8938487465458
 30
0.0
 10
379.6169083356696
 20
341.7649505887521
 30
0.0
 10
379.804016490309
 20
341.6430947766199
 30
0.0
 10
379.9423927230164
 20
341.5573319419464
 30
0.0
 10
380.0194964118429
 20
341.5142012526136
 30
0.0
 10
380.0317321252678
 20
341.5073567713374
 30
0.0
  0
LINE
  5
150
330
1F
100
AcDbEntity
  8
0
  6
Continuous
 62
     7
370
    30
100
AcDbLine
 10
437.1019257028
 20
285.1416810251
 30
0.0
 11
437.1019257028
 21
384.7596600752
 31
0.0
  0
LINE
  5
151
330
1F
100
AcDbEntity
  8
0
  6
Continuous
 62
     7
370
    30
100
AcDbLine
 10
407.1019257028
 20
329.8784204784
 30
0.0
 11
407.1019257028
 21
285.1416810251
 31
0.0
  0
LINE
  5
152
330
1F
100
AcDbEntity
  8
0
  6
Continuous
 62
     7
370
    30
100
AcDbLine
 10
407.1019257028
 20
384.7596600752
 30
0.0
 11
407.1019257028
 21
380.1223140564
 31
0.0
  0
LINE
  5
153
330
1F
100
AcDbEntity
  8
0
  6
Continuous
 62
     7
370
    30
100
AcDbLine
 10
377.8207567886
 20
343.0323961583
 30
0.0
 11
378.5278635698
 21
342.6241921024
 31
0.0
  0
SPLINE
  5
154
330
1F
100
AcDbEntity
  8
0
  6
Continuous
 62
     7
370
    30
100
AcDbSpline
210
0.0
220
0.0
230
1.0
 70
     8
 71
     3
 72
   120
 73
   116
 74
     0
 42
0.000000001
 43
0.00000001
 40
0.0
 40
0.0
 40
0.0
 40
0.0
 40
0.0038312673954165
 40
0.0134075292707687
 40
0.0230960454623253
 40
0.0328792127570043
 40
0.042732018234876
 40
0.0526226166075453
 40
0.0625013618927944
 40
0.0727101191289871
 40
0.0828104264018929
 40
0.0929100842518907
 40
0.1029843680561992
 40
0.1130138683270075
 40
0.1229836544355588
 40
0.1328841375344012
 40
0.1416722122785546
 40
0.1508900987386434
 40
0.1604999638223285
 40
0.1699949378909165
 40
0.179364888929452
 40
0.188602754775246
 40
0.197702609332861
 40
0.2066594356285477
 40
0.2154702695013793
 40
0.2244087806239172
 40
0.2332337936771749
 40
0.2419899381969454
 40
0.2506877670810617
 40
0.2593377685405437
 40
0.2679503931882652
 40
0.2765360225495854
 40
0.2851049505155862
 40
0.2936324343882232
 40
0.3020916572526191
 40
0.3105375777444013
 40
0.3189752486047596
 40
0.3274087917263689
 40
0.3358421294102298
 40
0.3442785300607639
 40
0.3527207955406183
 40
0.3611723437281668
 40
0.3696425300791745
 40
0.3780593549813074
 40
0.3865456093091612
 40
0.3950874352138177
 40
0.4036703114467898
 40
0.4122784484274491
 40
0.4208949736193047
 40
0.4294974903404994
 40
0.4380677001118274
 40
0.4466414716863689
 40
0.4552736525467602
 40
0.4639554453234339
 40
0.472684007082003
 40
0.4814557683489238
 40
0.4902664677751962
 40
0.4991111690519824
 40
0.5079842909995449
 40
0.5168796517908225
 40
0.5257905279311739
 40
0.5347097280294353
 40
0.5436287959899423
 40
0.5525381358820537
 40
0.5614296994764303
 40
0.5702954362785178
 40
0.5791274194002062
 40
0.5879363633011395
 40
0.5968062279082084
 40
0.6057040110481294
 40
0.6146049207360105
 40
0.623486044071056
 40
0.6323302877282178
 40
0.6411211809199584
 40
0.6498431178865657
 40
0.6584913372145499
 40
0.6672409828239466
 40
0.675932243334184
 40
0.6845956157163702
 40
0.6932400909034999
 40
0.7018748276233056
 40
0.7105091254817378
 40
0.7191503446770557
 40
0.7277993470139403
 40
0.736221898535995
 40
0.7448968997262758
 40
0.7535921483255851
 40
0.7622853988446269
 40
0.7709496897815477
 40
0.7795645839549402
 40
0.788110588663646
 40
0.796589291936982
 40
0.8053417456122066
 40
0.8140368177861187
 40
0.8227507525226004
 40
0.8314926385656553
 40
0.8402715670521803
 40
0.8490965115624556
 40
0.8579762998372424
 40
0.8669078426062998
 40
0.8757118280230461
 40
0.884717327600174
 40
0.8937704770048482
 40
0.9028545883172663
 40
0.9119516781194473
 40
0.921040195729973
 40
0.9300981193955868
 40
0.9391400655138715
 40
0.9483415279368838
 40
0.9575460877906974
 40
0.9667622963105815
 40
0.9759934220325198
 40
0.9852428679377666
 40
0.9945141836069268
 40
1.0
 40
1.0
 40
1.0
 40
1.0
 10
391.7616191098329
 20
375.0882268554678
 30
0.0
 10
391.7424123376691
 20
375.0992191349931
 30
0.0
 10
391.6751981932605
 20
375.1376866430726
 30
0.0
 10
391.5548038554862
 20
375.197799303297
 30
0.0
 10
391.4000182095256
 20
375.2689912530458
 30
0.0
 10
391.2390023702723
 20
375.3347726073536
 30
0.0
 10
391.0724404136834
 20
375.3954700913784
 30
0.0
 10
390.900467891138
 20
375.4508817213077
 30
0.0
 10
390.7222479675549
 20
375.5013581996466
 30
0.0
 10
390.5382011158129
 20
375.5468778628831
 30
0.0
 10
390.3478644673419
 20
375.587539571188
 30
0.0
 10
390.1534356007084
 20
375.6230639340156
 30
0.0
 10
389.9544150098541
 20
375.6537551619923
 30
0.0
 10
389.7511449034452
 20
375.6797824524199
 30
0.0
 10
389.5438236722514
 20
375.7013488953759
 30
0.0
 10
389.3402440772208
 20
375.7180763063784
 30
0.0
 10
389.1367386026492
 20
375.7308789056951
 30
0.0
 10
388.9309603132555
 20
375.7402528908738
 30
0.0
 10
388.7149207201925
 20
375.7465263578345
 30
0.0
 10
388.4925814327594
 20
375.7495579837131
 30
0.0
 10
388.2680392235648
 20
375.7494775873548
 30
0.0
 10
388.0416097170171
 20
375.7465066434343
 30
0.0
 10
387.8135972521126
 20
375.7408536667925
 30
0.0
 10
387.5842454810972
 20
375.7327134441345
 30
0.0
 10
387.3515445667909
 20
375.7221614634822
 30
0.0
 10
387.1154629035528
 20
375.709372953848
 30
0.0
 10
386.8752768079542
 20
375.6944175871009
 30
0.0
 10
386.6328321264954
 20
375.6775553678629
 30
0.0
 10
386.3876778830182
 20
375.6588972800756
 30
0.0
 10
386.1396756695271
 20
375.6385645466023
 30
0.0
 10
385.8886811001686
 20
375.6166688825141
 30
0.0
 10
385.6345478251319
 20
375.5933146050002
 30
0.0
 10
385.3774724018011
 20
375.5686300163916
 30
0.0
 10
385.1180595824786
 20
375.5427911295001
 30
0.0
 10
384.8564276183751
 20
375.5159406147937
 30
0.0
 10
384.5924259539603
 20
375.4881809165458
 30
0.0
 10
384.3255466328447
 20
375.4595745993759
 30
0.0
 10
384.0558089079274
 20
375.4302381813835
 30
0.0
 10
383.7832494070514
 20
375.4002910907074
 30
0.0
 10
383.5079201638117
 20
375.36985517479
 30
0.0
 10
383.2298753765094
 20
375.3390544066608
 30
0.0
 10
382.9491156436737
 20
375.3080050266456
 30
0.0
 10
382.6664233458355
 20
375.2769218368989
 30
0.0
 10
382.3813167632141
 20
375.2458767686056
 30
0.0
 10
382.0935733901964
 20
375.2149657889071
 30
0.0
 10
381.8022813605693
 20
375.1842213299934
 30
0.0
 10
381.508096297421
 20
375.1538483325022
 30
0.0
 10
381.2117151722409
 20
375.1240572368624
 30
0.0
 10
380.9139328983582
 20
375.0950673655387
 30
0.0
 10
380.6155815889671
 20
375.0670993681287
 30
0.0
 10
380.3168867209453
 20
375.0403107591308
 30
0.0
 10
380.017186774602
 20
375.0148154734476
 30
0.0
 10
379.7157017061426
 20
374.990676203662
 30
0.0
 10
379.4120950612912
 20
374.9680165731384
 30
0.0
 10
379.1067108985493
 20
374.9470173283952
 30
0.0
 10
378.7998407683091
 20
374.9278571931408
 30
0.0
 10
378.4918008023979
 20
374.9107174810715
 30
0.0
 10
378.182930489651
 20
374.8957809952989
 30
0.0
 10
377.873591302884
 20
374.8832306169174
 30
0.0
 10
377.564164773698
 20
374.8732478078621
 30
0.0
 10
377.2550500187037
 20
374.8660109954459
 30
0.0
 10
376.9466709152917
 20
374.8616940406599
 30
0.0
 10
376.6394822880682
 20
374.8604640110763
 30
0.0
 10
376.3339456876558
 20
374.8624784434065
 30
0.0
 10
376.0305147700729
 20
374.8678837920078
 30
0.0
 10
375.7296192609044
 20
374.876815446664
 30
0.0
 10
375.4314782198551
 20
374.8894037572311
 30
0.0
 10
375.1352682646836
 20
374.9058391599381
 30
0.0
 10
374.8404272484394
 20
374.9262621236133
 30
0.0
 10
374.5468396863974
 20
374.9508235685232
 30
0.0
 10
374.2555585323965
 20
374.9795708916944
 30
0.0
 10
373.9674462407871
 20
375.012531454625
 30
0.0
 10
373.6832639427236
 20
375.0497121151346
 30
0.0
 10
373.4036679566251
 20
375.0911021740471
 30
0.0
 10
373.1292257535977
 20
375.1366855283349
 30
0.0
 10
372.8583173176078
 20
375.1867928342764
 30
0.0
 10
372.5909907241723
 20
375.2414290559565
 30
0.0
 10
372.326980799626
 20
375.300793297776
 30
0.0
 10
372.0676377151846
 20
375.3646299612857
 30
0.0
 10
371.812607286139
 20
375.4330679777328
 30
0.0
 10
371.5617435626247
 20
375.506195822089
 30
0.0
 10
371.3149541287431
 20
375.5840987114819
 30
0.0
 10
371.072104736625
 20
375.6668684706956
 30
0.0
 10
370.835755142636
 20
375.7536779809811
 30
0.0
 10
370.6034276875507
 20
375.8454871750907
 30
0.0
 10
370.3750975129966
 20
375.9421976321864
 30
0.0
 10
370.149042328064
 20
376.0446947297519
 30
0.0
 10
369.9278990010057
 20
376.1518347043036
 30
0.0
 10
369.7124128632852
 20
376.2632300179288
 30
0.0
 10
369.5032404412112
 20
376.3784906531799
 30
0.0
 10
369.3009092938481
 20
376.497243267144
 30
0.0
 10
369.1026931680158
 20
376.6211429940742
 30
0.0
 10
368.9085239854973
 20
376.7501296368442
 30
0.0
 10
368.7182323823057
 20
376.884541814813
 30
0.0
 10
368.5336815497381
 20
377.0230439370478
 30
0.0
 10
368.3543347783527
 20
377.1660176832465
 30
0.0
 10
368.1801243353904
 20
377.3135233801689
 30
0.0
 10
368.0110280789184
 20
377.4655989045477
 30
0.0
 10
367.8469899720067
 20
377.6223215797349
 30
0.0
 10
367.6894991774338
 20
377.7822525474
 30
0.0
 10
367.5375243520241
 20
377.9464416994376
 30
0.0
 10
367.3911518301813
 20
378.1146371874237
 30
0.0
 10
367.2497686877077
 20
378.2876505859455
 30
0.0
 10
367.1145358512946
 20
378.4640676882927
 30
0.0
 10
366.9858789600933
 20
378.6432578586721
 30
0.0
 10
366.8641523691874
 20
378.8246087284813
 30
0.0
 10
366.7497401550053
 20
379.0074191975644
 30
0.0
 10
366.6414550830008
 20
379.1933834082208
 30
0.0
 10
366.5396294176672
 20
379.3818242197103
 30
0.0
 10
366.4442775104859
 20
379.5728727057729
 30
0.0
 10
366.3560184168702
 20
379.76522414595
 30
0.0
 10
366.2748104406055
 20
379.9587335384499
 30
0.0
 10
366.2008006490558
 20
380.1532026404638
 30
0.0
 10
366.1427180204566
 20
380.3217032646139
 30
0.0
 10
366.11069894895
 20
380.4252927916182
 30
0.0
 10
366.0987961790472
 20
380.4638011632309
 30
0.0
  0
SPLINE
  5
155
330
1F
100
AcDbEntity
  8
0
  6
Continuous
 62
     7
370
    30
100
AcDbSpline
210
0.0
220
0.0
230
1.0
 70
     8
 71
     3
 72
    16
 73
    12
 74
     0
 42
0.000000001
 43
0.00000001
 40
0.0
 40
0.0
 40
0.0
 40
0.0
 40
0.0609815591963558
 40
0.1829946781192975
 40
0.3045763209724258
 40
0.4258699883658087
 40
0.5469622321326411
 40
0.6679425002765393
 40
0.7889031203735785
 40
0.909931292441642
 40
1.0
 40
1.0
 40
1.0
 40
1.0
 10
366.0987961790472
 20
380.4638011632309
 30
0.0
 10
366.0892287173275
 20
380.4960099090159
 30
0.0
 10
366.0605184875321
 20
380.5926625552454
 30
0.0
 10
366.0180253825743
 20
380.7531770261281
 30
0.0
 10
365.9739383500815
 20
380.9447045283951
 30
0.0
 10
365.9371886631126
 20
381.1346834297784
 30
0.0
 10
365.9075922961296
 20
381.3229994764481
 30
0.0
 10
365.8850199998699
 20
381.5095742458369
 30
0.0
 10
365.8696860522252
 20
381.6940805647023
 30
0.0
 10
365.861187072242
 20
381.8614530483312
 30
0.0
 10
365.8609341871881
 20
381.9655309043418
 30
0.0
 10
365.8608262887199
 20
382.0099378041165
 30
0.0
  0
SPLINE
  5
156
330
1F
100
AcDbEntity
  8
0
  6
Continuous
 62
     7
370
    30
100
AcDbSpline
210
0.0
220
0.0
230
1.0
 70
     8
 71
     3
 72
    53
 73
    49
 74
     0
 42
0.000000001
 43
0.00000001
 40
0.0
 40
0.0
 40
0.0
 40
0.0
 40
0.0176184433999412
 40
0.0376184086682733
 40
0.0575862668758857
 40
0.0772727984520492
 40
0.0969878594566474
 40
0.1168432671246363
 40
0.1368103784055146
 40
0.156859173632528
 40
0.1769578472649188
 40
0.1970731700644666
 40
0.2171607608076873
 40
0.2371886654458116
 40
0.2573400707997562
 40
0.277743411209629
 40
0.2983770334846182
 40
0.3192429254287718
 40
0.3403413104171645
 40
0.3616706985016835
 40
0.3832277321458805
 40
0.4050070326001315
 40
0.4270010500021941
 40
0.4491999232930561
 40
0.4715913574976496
 40
0.4941605273441594
 40
0.5168900173971399
 40
0.5397598096249132
 40
0.5627473293533848
 40
0.585808762564972
 40
0.6090369263292218
 40
0.6326100316048731
 40
0.6562465185890639
 40
0.6799451453033525
 40
0.703703624455557
 40
0.7275192422515036
 40
0.7514001944421176
 40
0.7752374657105967
 40
0.7989666774896096
 40
0.8226958727426444
 40
0.8463698516553562
 40
0.8699451852792391
 40
0.8933803414726612
 40
0.9166314922002436
 40
0.939615377507584
 40
0.9626813426216287
 40
0.9855380771148095
 40
1.0
 40
1.0
 40
1.0
 40
1.0
 10
379.113416297408
 20
374.9477991864301
 30
0.0
 10
379.1205665201844
 20
375.0272881493193
 30
0.0
 10
379.1358334763146
 20
375.1970107645756
 30
0.0
 10
379.1499988844541
 20
375.4571222526543
 30
0.0
 10
379.1578325581404
 20
375.7269158467598
 30
0.0
 10
379.1578009260687
 20
375.9952363149828
 30
0.0
 10
379.1504251115984
 20
376.2626787141004
 30
0.0
 10
379.1356237380098
 20
376.530889396941
 30
0.0
 10
379.1133645930244
 20
376.7999612307636
 30
0.0
 10
379.0836321540678
 20
377.0693434121574
 30
0.0
 10
379.0464447703953
 20
377.3384709167392
 30
0.0
 10
379.0018606011491
 20
377.6066976320926
 30
0.0
 10
378.9499526971954
 20
377.873455184668
 30
0.0
 10
378.8906835653319
 20
378.1388551720631
 30
0.0
 10
378.8239848665619
 20
378.4038734504614
 30
0.0
 10
378.74955548425
 20
378.6696180466412
 30
0.0
 10
378.6672456274076
 20
378.9363386832988
 30
0.0
 10
378.5770590986787
 20
379.2037381052962
 30
0.0
 10
378.4789832019768
 20
379.4716016379654
 30
0.0
 10
378.3730198398788
 20
379.7396911852385
 30
0.0
 10
378.259188409185
 20
380.007743629398
 30
0.0
 10
378.1375284413274
 20
380.2754700116893
 30
0.0
 10
378.0081024813263
 20
380.5425546294788
 30
0.0
 10
377.8709991575718
 20
380.8086543982913
 30
0.0
 10
377.7263354937721
 20
381.0733993662334
 30
0.0
 10
377.5742618649732
 20
381.3363910266353
 30
0.0
 10
377.4149561661748
 20
381.597211745188
 30
0.0
 10
377.248657249473
 20
381.8553955419074
 30
0.0
 10
377.0755955355832
 20
382.1104785798349
 30
0.0
 10
376.8960860755234
 20
382.3620735434966
 30
0.0
 10
376.7096156811161
 20
382.6111139564354
 30
0.0
 10
376.5162487252448
 20
382.8572216181331
 30
0.0
 10
376.3163734616335
 20
383.0997735491754
 30
0.0
 10
376.1109611396923
 20
383.3375796285219
 30
0.0
 10
375.9002206145773
 20
383.5704466422029
 30
0.0
 10
375.684375469444
 20
383.7981823872491
 30
0.0
 10
375.4638563314826
 20
384.0204056023382
 30
0.0
 10
375.2393555956575
 20
384.236334877038
 30
0.0
 10
375.0113765298153
 20
384.4456813920499
 30
0.0
 10
374.780154317419
 20
384.6483457772225
 30
0.0
 10
374.545860280314
 20
384.8442568069702
 30
0.0
 10
374.3091558699954
 20
385.0329322749945
 30
0.0
 10
374.0706705586958
 20
385.2139800220024
 30
0.0
 10
373.8312094001139
 20
385.3868350429959
 30
0.0
 10
373.5904121510565
 20
385.5521552057981
 30
0.0
 10
373.348302086596
 20
385.709524636366
 30
0.0
 10
373.1343324024791
 20
385.8423225032633
 30
0.0
 10
373.0005979666216
 20
385.9194541219472
 30
0.0
 10
372.9487724928684
 20
385.9493445735276
 30
0.0
  0
LINE
  5
157
330
1F
100
AcDbEntity
  8
0
  6
Continuous
 62
     7
370
    30
100
AcDbLine
 10
407.1019257028
 20
382.414299578
 30
0.0
 11
388.4714526446
 21
371.6591564112
 31
0.0
  0
LINE
  5
158
330
1F
100
AcDbEntity
  8
0
  6
Continuous
 62
     7
370
    30
100
AcDbLine
 10
409.2703612504
 20
330.9156115373
 30
0.0
 11
429.4685818068
 21
342.5757960705
 31
0.0
  0
SPLINE
  5
159
330
1F
100
AcDbEntity
  8
0
  6
Continuous
 62
     7
370
    30
100
AcDbSpline
210
0.0
220
0.0
230
1.0
 70
     8
 71
     3
 72
   163
 73
   159
 74
     0
 42
0.000000001
 43
0.00000001
 40
0.0
 40
0.0
 40
0.0
 40
0.0
 40
0.0051901962237169
 40
0.0113728544994914
 40
0.0175565470796345
 40
0.023743191001835
 40
0.0299346575445944
 40
0.0361327463855841
 40
0.0423391610745603
 40
0.0485554862450951
 40
0.0547831669894215
 40
0.0610234908095008
 40
0.0672775725347533
 40
0.0735463425580909
 40
0.0798305386834765
 40
0.0861307017980992
 40
0.0924471754820879
 40
0.0987801095495412
 40
0.1051294673845869
 40
0.1114950368018883
 40
0.1178764440319634
 40
0.124273170319293
 40
0.1306845705323282
 40
0.1371098931290098
 40
0.1435483008007699
 40
0.1499988911352303
 40
0.1564607166885898
 40
0.1629328039379881
 40
0.169414170683696
 40
0.1759038415824442
 40
0.1824008616060586
 40
0.188904307329023
 40
0.1954132960439019
 40
0.2019269927853344
 40
0.2084446154058853
 40
0.2149654378910848
 40
0.2214887921287685
 40
0.2280140683591247
 40
0.2345407145322461
 40
0.2410682347891475
 40
0.2475961872662671
 40
0.2541240860487067
 40
0.2606515803960163
 40
0.267178387389716
 40
0.2737042646516862
 40
0.2802290069954811
 40
0.2867524431495721
 40
0.2932744326035049
 40
0.2997948626105861
 40
0.3063136453690117
 40
0.3128307153950015
 40
0.3193460270933627
 40
0.3258595525263737
 40
0.3323712793767256
 40
0.3388812090976529
 40
0.3453893552412408
 40
0.3518957419543244
 40
0.3584004026308017
 40
0.3649033787084707
 40
0.3714047185991558
 40
0.3779044767402307
 40
0.384402712756993
 40
0.3908994907252599
 40
0.3973948785245068
 40
0.4038889472722337
 40
0.4103817708313816
 40
0.4168734253828388
 40
0.4233639890559511
 40
0.4298535416105547
 40
0.436342164164559
 40
0.4428299389617374
 40
0.4493169491747389
 40
0.4558032787389168
 40
0.4622890122129846
 40
0.4687742346626281
 40
0.4752590315638065
 40
0.4817434887226351
 40
0.4882276922089061
 40
0.4947117283005881
 40
0.5011956834367615
 40
0.5076796441766328
 40
0.5141636769036063
 40
0.5206478596960853
 40
0.5271322792716062
 40
0.533617022331094
 40
0.540102175515454
 40
0.5465878253555684
 40
0.5530740582128199
 40
0.5595609602075025
 40
0.5660486171325886
 40
0.5725371143494536
 40
0.5790265366627694
 40
0.585516968170606
 40
0.5920084920861208
 40
0.5985011905265379
 40
0.6049951442646316
 40
0.611490432437678
 40
0.6179871322080336
 40
0.6244853183692737
 40
0.6309850628909143
 40
0.6374864343941526
 40
0.6439894975506053
 40
0.6504943123949873
 40
0.6570009335421946
 40
0.6635094092984692
 40
0.6700197806557304
 40
0.6765320801575461
 40
0.6830463306248193
 40
0.6895625437289769
 40
0.6960807184005801
 40
0.7026008390616726
 40
0.7091228736709357
 40
0.715646771572543
 40
0.7221724611416805
 40
0.7286998472233507
 40
0.7352288083652443
 40
0.741759193852158
 40
0.7482908205565163
 40
0.7548234696298951
 40
0.7613568830723949
 40
0.767890760230924
 40
0.7744246770644816
 40
0.7809581709978957
 40
0.787490774744966
 40
0.7940219645367547
 40
0.8005511579222712
 40
0.8070777123249337
 40
0.8136009245555745
 40
0.8201200315135178
 40
0.8266342123174836
 40
0.8331425921064846
 40
0.8396442477369976
 40
0.846138215570471
 40
0.8526235014949215
 40
0.8590990932530709
 40
0.865563975058736
 40
0.8720171443746689
 40
0.8784576306048572
 40
0.884884515328665
 40
0.8912969535824381
 40
0.8976941955877821
 40
0.9040756082431864
 40
0.910440695647576
 40
0.9167891179157722
 40
0.923120707581181
 40
0.9294354829560916
 40
0.9357336579321589
 40
0.9420156478414045
 40
0.948282071151028
 40
0.9545337469216586
 40
0.9607716881062115
 40
0.9669970908968994
 40
0.9732113204343122
 40
0.9794158932723811
 40
0.985612457046152
 40
0.9918027678188182
 40
0.9979886655951078
 40
1.0
 40
1.0
 40
1.0
 40
1.0
 10
370.1500225851577
 20
387.5652855823108
 30
0.0
 10
370.0950140007814
 20
387.5966395592893
 30
0.0
 10
369.9744781675739
 20
387.665342976807
 30
0.0
 10
369.7839791621734
 20
387.7635113782954
 30
0.0
 10
369.5795471163828
 20
387.861314013409
 30
0.0
 10
369.3715354115434
 20
387.952311456506
 30
0.0
 10
369.160141410197
 20
388.0367020378496
 30
0.0
 10
368.94539558308
 20
388.1143924929279
 30
0.0
 10
368.7273739081024
 20
388.1853665371456
 30
0.0
 10
368.5061416641338
 20
388.2495860903261
 30
0.0
 10
368.2817692860687
 20
388.3070180039117
 30
0.0
 10
368.0543288639002
 20
388.3576272347015
 30
0.0
 10
367.8238957972307
 20
388.4013791451022
 30
0.0
 10
367.5905489992661
 20
388.438239456445
 30
0.0
 10
367.3543714010078
 20
388.4681749194109
 30
0.0
 10
367.1154502637409
 20
388.4911538569262
 30
0.0
 10
366.8738774140114
 20
388.5071467822006
 30
0.0
 10
366.6297493571075
 20
388.5161270109887
 30
0.0
 10
366.3831672733801
 20
388.5180712625357
 30
0.0
 10
366.1342368952683
 20
388.5129602238528
 30
0.0
 10
365.8830682714396
 20
388.500779059236
 30
0.0
 10
365.6297754287595
 20
388.4815178482797
 30
0.0
 10
365.374475947497
 20
388.4551719397794
 30
0.0
 10
365.1172904686024
 20
388.4217422131492
 30
0.0
 10
364.858342154111
 20
388.381235243684
 30
0.0
 10
364.5977561225681
 20
388.3336633725706
 30
0.0
 10
364.3356588808356
 20
388.2790446867676
 30
0.0
 10
364.0721777718885
 20
388.2174029174216
 30
0.0
 10
363.8074404554771
 20
388.1487672681586
 30
0.0
 10
363.5415744351312
 20
388.0731721863399
 30
0.0
 10
363.2747066412346
 20
387.9906570911244
 30
0.0
 10
363.0069630761375
 20
387.9012660721194
 30
0.0
 10
362.7384685237436
 20
387.8050475715515
 30
0.0
 10
362.4693463229202
 20
387.7020540615542
 30
0.0
 10
362.1997182015631
 20
387.5923417264166
 30
0.0
 10
361.9297041662411
 20
387.4759701577553
 30
0.0
 10
361.6594224410665
 20
387.3530020686267
 30
0.0
 10
361.3889894487145
 20
387.223503030776
 30
0.0
 10
361.118519826266
 20
387.0875412375614
 30
0.0
 10
360.8481264687453
 20
386.9451872936952
 30
0.0
 10
360.5779219091203
 20
386.7965147556003
 30
0.0
 10
360.3080171921077
 20
386.6415994536584
 30
0.0
 10
360.0385216414691
 20
386.4805191810967
 30
0.0
 10
359.7695416596987
 20
386.3133527051762
 30
0.0
 10
359.5011820410294
 20
386.140180308862
 30
0.0
 10
359.2335463950782
 20
385.9610839125727
 30
0.0
 10
358.9667372355865
 20
385.7761470211109
 30
0.0
 10
358.7008560624228
 20
385.5854546827044
 30
0.0
 10
358.4360034357779
 20
385.3890934579688
 30
0.0
 10
358.1722790419427
 20
385.1871513968284
 30
0.0
 10
357.9097817503957
 20
384.9797180216485
 30
0.0
 10
357.648609662183
 20
384.7668843150206
 30
0.0
 10
357.3888601497776
 20
384.5487427108674
 30
0.0
 10
357.1306298887503
 20
384.3253870877075
 30
0.0
 10
356.8740148816955
 20
384.0969127631162
 30
0.0
 10
356.6191104749207
 20
383.8634164885622
 30
0.0
 10
356.3660113684501
 20
383.6249964439581
 30
0.0
 10
356.114811619917
 20
383.3817522313868
 30
0.0
 10
355.8656046429177
 20
383.1337848675672
 30
0.0
 10
355.6184832003925
 20
382.8811967747361
 30
0.0
 10
355.3735393935784
 20
382.6240917696852
 30
0.0
 10
355.1308646470533
 20
382.3625750507781
 30
0.0
 10
354.8905496903607
 20
382.0967531828159
 30
0.0
 10
354.6526845366749
 20
381.8267340796773
 30
0.0
 10
354.41735845893
 20
381.5526269846983
 30
0.0
 10
354.1846599638067
 20
381.2745424487824
 30
0.0
 10
353.9546767639366
 20
380.9925923062619
 30
0.0
 10
353.7274957486538
 20
380.7068896485587
 30
0.0
 10
353.5032029535973
 20
380.4175487956959
 30
0.0
 10
353.2818835294354
 20
380.1246852657384
 30
0.0
 10
353.0636217099649
 20
379.82841574224
 30
0.0
 10
352.8485007798096
 20
379.5288580397933
 30
0.0
 10
352.636603041926
 20
379.2261310677692
 30
0.0
 10
352.4280097850996
 20
378.9203547923602
 30
0.0
 10
352.2228012516072
 20
378.6116501970164
 30
0.0
 10
352.0210566051951
 20
378.3001392413975
 30
0.0
 10
351.8228538995164
 20
377.9859448189375
 30
0.0
 10
351.6282700471564
 20
377.6691907131409
 30
0.0
 10
351.4373807893605
 20
377.350001552721
 30
0.0
 10
351.2502606665801
 20
377.0285027657026
 30
0.0
 10
351.0669831807911
 20
376.7048208696774
 30
0.0
 10
350.8876206381557
 20
376.3790832409615
 30
0.0
 10
350.7122440339684
 20
376.0514179236476
 30
0.0
 10
350.5409228540381
 20
375.7219532323957
 30
0.0
 10
350.3737251698981
 20
375.3908178917088
 30
0.0
 10
350.2107176955604
 20
375.0581411305308
 30
0.0
 10
350.0519657661609
 20
374.724052632371
 30
0.0
 10
349.8975333180065
 20
374.3886824853931
 30
0.0
 10
349.7474828700708
 20
374.0521611326317
 30
0.0
 10
349.6018755069858
 20
373.7146193224974
 30
0.0
 10
349.4607708635572
 20
373.3761880597482
 30
0.0
 10
349.3242271108379
 20
373.0369985571106
 30
0.0
 10
349.1923009437687
 20
372.6971821877514
 30
0.0
 10
349.0650475703972
 20
372.3568704388094
 30
0.0
 10
348.942520702664
 20
372.0161948662176
 30
0.0
 10
348.8247725487379
 20
371.675287051055
 30
0.0
 10
348.7118538068578
 20
371.3342785576962
 30
0.0
 10
348.603813660622
 20
370.9933008940329
 30
0.0
 10
348.5006997756421
 20
370.652485474069
 30
0.0
 10
348.4025582974472
 20
370.3119635832106
 30
0.0
 10
348.3094338504933
 20
369.9718663465869
 30
0.0
 10
348.2213695380956
 20
369.6323247007659
 30
0.0
 10
348.1384069430526
 20
369.2934693692394
 30
0.0
 10
348.0605861286857
 20
368.9554308420732
 30
0.0
 10
347.9879456399514
 20
368.618339360131
 30
0.0
 10
347.9205225042253
 20
368.2823249042857
 30
0.0
 10
347.8583522312729
 20
367.9475171900348
 30
0.0
 10
347.8014688118411
 20
367.6140456679311
 30
0.0
 10
347.7499047142104
 20
367.282039530214
 30
0.0
 10
347.7036908779413
 20
366.9516277239942
 30
0.0
 10
347.6628567039351
 20
366.6229389712919
 30
0.0
 10
347.6274300398132
 20
366.2961017961383
 30
0.0
 10
347.5974371594847
 20
365.9712445588577
 30
0.0
 10
347.572902735654
 20
365.6484954974799
 30
0.0
 10
347.5538498038802
 20
365.3279827760688
 30
0.0
 10
347.5402997166969
 20
365.0098345394936
 30
0.0
 10
347.5322720861864
 20
364.6941789738981
 30
0.0
 10
347.5297847133358
 20
364.3811443717547
 30
0.0
 10
347.5328535024673
 20
364.0708591999743
 30
0.0
 10
347.5414923590557
 20
363.7634521690862
 30
0.0
 10
347.5557130133252
 20
363.459053500168
 30
0.0
 10
347.5755247702701
 20
363.157794750268
 30
0.0
 10
347.6009343069485
 20
362.8598080691036
 30
0.0
 10
347.6319456157188
 20
362.5652250846127
 30
0.0
 10
347.6685598663126
 20
362.2741771451824
 30
0.0
 10
347.7107751310845
 20
361.9867960578929
 30
0.0
 10
347.7585861429926
 20
361.7032140403826
 30
0.0
 10
347.8119840403406
 20
361.4235636331729
 30
0.0
 10
347.8709561032182
 20
361.14797756621
 30
0.0
 10
347.9354854881181
 20
360.8765885736637
 30
0.0
 10
348.0055509687654
 20
360.6095291519931
 30
0.0
 10
348.081126692679
 20
360.3469312578264
 30
0.0
 10
348.1621819642769
 20
360.0889259443016
 30
0.0
 10
348.2486810662628
 20
359.8356429372236
 30
0.0
 10
348.3405831314681
 20
359.5872101555861
 30
0.0
 10
348.4378420770706
 20
359.3437531846084
 30
0.0
 10
348.5404066120915
 20
359.1053947131775
 30
0.0
 10
348.648220327181
 20
358.8722539512407
 30
0.0
 10
348.761221872955
 20
358.6444460458953
 30
0.0
 10
348.8793452296274
 20
358.4220815173599
 30
0.0
 10
349.0025200665706
 20
358.2052657373422
 30
0.0
 10
349.1306721860205
 20
357.9940984723298
 30
0.0
 10
349.263724040675
 20
357.7886735127759
 30
0.0
 10
349.4015953110344
 20
357.5890784064585
 30
0.0
 10
349.5442035243875
 20
357.3953943090066
 30
0.0
 10
349.6914646971388
 20
357.2076959630787
 30
0.0
 10
349.8432939728669
 20
357.0260517977253
 30
0.0
 10
349.999606258525
 20
356.8505241857374
 30
0.0
 10
350.1603167506877
 20
356.6811696966892
 30
0.0
 10
350.3253416609712
 20
356.5180399012078
 30
0.0
 10
350.4945979089337
 20
356.3611805903041
 30
0.0
 10
350.668006295737
 20
356.2106372681456
 30
0.0
 10
350.8454813133234
 20
356.0664375803807
 30
0.0
 10
351.0269702486885
 20
355.9286597653807
 30
0.0
 10
351.2123082683438
 20
355.7971808692342
 30
0.0
 10
351.4017584892764
 20
355.6726177904264
 30
0.0
 10
351.5507848372416
 20
355.579751994779
 30
0.0
 10
351.6378780197167
 20
355.5306125576664
 30
0.0
 10
351.6592478565679
 20
355.5185553366047
 30
0.0
  0
LWPOLYLINE
  5
15A
330
1F
100
AcDbEntity
  8
0
  6
Continuous
 62
     7
370
    30
100
AcDbPolyline
 90
      116
 70
   128
 43
0.0
 10
433.0519257028
 20
54.8771720733
 10
433.0508862439
 20
54.790074167
 10
433.0425717571
 20
54.6159444951
 10
433.0259490974
 20
54.4420131958
 10
433.0010308878
 20
54.2684123501
 10
432.9678360509
 20
54.095273788
 10
432.9263897943
 20
53.9227289884
 10
432.8767235918
 20
53.7509089795
 10
432.8188751591
 20
53.5799442389
 10
432.7528884256
 20
53.409964595
 10
432.6788135006
 20
53.2410991277
 10
432.5967066357
 20
53.0734760713
 10
432.5066301816
 20
52.9072227163
 10
432.408652541
 20
52.7424653132
 10
432.3028481169
 20
52.5793289764
 10
432.1892972557
 20
52.4179375893
 10
432.0680861862
 20
52.2584137104
 10
431.9393069545
 20
52.1008784798
 10
431.8030573537
 20
51.9454515275
 10
431.6594408498
 20
51.7922508826
 10
431.5085665031
 20
51.6413928835
 10
431.3505488856
 20
51.4929920897
 10
431.1855079936
 20
51.3471611946
 10
431.0135691569
 20
51.2040109402
 10
430.8348629433
 20
51.0636500327
 10
430.6495250599
 20
50.9261850603
 10
430.4576962496
 20
50.7917204119
 10
430.2595221845
 20
50.6603581981
 10
430.0551533553
 20
50.5321981736
 10
429.8447449568
 20
50.4073376611
 10
429.6284567701
 20
50.2858714781
 10
429.4064530414
 20
50.1678918643
 10
429.1789023574
 20
50.0534884117
 10
428.9459775166
 20
49.9427479967
 10
428.7078553991
 20
49.835754714
 10
428.4647168314
 20
49.7325898128
 10
428.2167464495
 20
49.6333316351
 10
427.9641325587
 20
49.5380555562
 10
427.7070669903
 20
49.4468339273
 10
427.4457449564
 20
49.3597360209
 10
427.1803649012
 20
49.2768279779
 10
426.9111283507
 20
49.1981727576
 10
426.6382397592
 20
49.1238300896
 10
426.3619063545
 20
49.0538564286
 10
426.0823379805
 20
48.9883049117
 10
425.7997469372
 20
48.9272253178
 10
425.5143478205
 20
48.8706640298
 10
425.2263573583
 20
48.8186639997
 10
424.9359942467
 20
48.7712647155
 10
424.6434789832
 20
48.7285021716
 10
424.3490336998
 20
48.6904088411
 10
424.0528819942
 20
48.6570136518
 10
423.7552487599
 20
48.6283419634
 10
423.4563600152
 20
48.6044155487
 10
423.1564427321
 20
48.5852525773
 10
422.8557246636
 20
48.5708676011
 10
422.5544341708
 20
48.5612715439
 10
422.2528000494
 20
48.5564716928
 10
421.9510513562
 20
48.5564716928
 10
421.6494172348
 20
48.5612715439
 10
421.3481267419
 20
48.5708676011
 10
421.0474086734
 20
48.5852525773
 10
420.7474913904
 20
48.6044155487
 10
420.4486026457
 20
48.6283419634
 10
420.1509694113
 20
48.6570136518
 10
419.8548177057
 20
48.6904088411
 10
419.5603724224
 20
48.7285021716
 10
419.2678571589
 20
48.7712647155
 10
418.9774940473
 20
48.8186639997
 10
418.6895035851
 20
48.8706640298
 10
418.4041044684
 20
48.9272253178
 10
418.1215134251
 20
48.9883049117
 10
417.841945051
 20
49.0538564286
 10
417.5656116464
 20
49.1238300896
 10
417.2927230549
 20
49.1981727576
 10
417.0234865043
 20
49.2768279779
 10
416.7581064492
 20
49.3597360209
 10
416.4967844152
 20
49.4468339273
 10
416.2397188469
 20
49.5380555562
 10
415.987104956
 20
49.6333316351
 10
415.7391345741
 20
49.7325898128
 10
415.4959960064
 20
49.835754714
 10
415.2578738889
 20
49.9427479967
 10
415.0249490482
 20
50.0534884117
 10
414.7973983641
 20
50.1678918643
 10
414.5753946355
 20
50.2858714781
 10
414.3591064488
 20
50.4073376611
 10
414.1486980502
 20
50.5321981736
 10
413.944329221
 20
50.6603581981
 10
413.746155156
 20
50.7917204119
 10
413.5543263457
 20
50.9261850603
 10
413.3689884623
 20
51.0636500327
 10
413.1902822487
 20
51.2040109402
 10
413.0183434119
 20
51.3471611946
 10
412.8533025199
 20
51.4929920897
 10
412.6952849024
 20
51.6413928835
 10
412.5444105558
 20
51.7922508826
 10
412.4007940519
 20
51.9454515275
 10
412.2645444511
 20
52.1008784798
 10
412.1357652193
 20
52.2584137104
 10
412.0145541499
 20
52.4179375893
 10
411.9010032886
 20
52.5793289764
 10
411.7951988645
 20
52.7424653132
 10
411.697221224
 20
52.9072227163
 10
411.6071447699
 20
53.0734760713
 10
411.5250379049
 20
53.2410991277
 10
411.45096298
 20
53.409964595
 10
411.3849762464
 20
53.5799442389
 10
411.3271278138
 20
53.7509089795
 10
411.2774616112
 20
53.9227289884
 10
411.2360153547
 20
54.095273788
 10
411.2028205177
 20
54.2684123501
 10
411.1779023081
 20
54.4420131958
 10
411.1612796484
 20
54.6159444951
 10
411.1529651616
 20
54.790074167
 10
411.1519257028
 20
54.8771720733
  0
LWPOLYLINE
  5
15B
330
1F
100
AcDbEntity
  8
0
  6
Continuous
 62
     7
370
    30
100
AcDbPolyline
 90
      229
 70
   128
 43
0.0
 10
429.8447449568
 20
679.9180235187
 10
430.0551533553
 20
679.7931630063
 10
430.2595221845
 20
679.6650029817
 10
430.4576962496
 20
679.5336407679
 10
430.6495250599
 20
679.3991761195
 10
430.8348629433
 20
679.2617111471
 10
431.0135691569
 20
679.1213502396
 10
431.1855079936
 20
678.9781999852
 10
431.3505488856
 20
678.8323690901
 10
431.5085665031
 20
678.6839682963
 10
431.6594408498
 20
678.5331102972
 10
431.8030573537
 20
678.3799096523
 10
431.9393069545
 20
678.2244827001
 10
432.0680861862
 20
678.0669474694
 10
432.1892972557
 20
677.9074235905
 10
432.3028481169
 20
677.7460322034
 10
432.408652541
 20
677.5828958666
 10
432.5066301816
 20
677.4181384635
 10
432.5967066357
 20
677.2518851085
 10
432.6788135006
 20
677.0842620521
 10
432.7528884256
 20
676.9153965849
 10
432.8188751591
 20
676.7454169409
 10
432.8767235918
 20
676.5744522004
 10
432.9263897943
 20
676.4026321915
 10
432.9678360509
 20
676.2300873919
 10
433.0010308878
 20
676.0569488297
 10
433.0259490974
 20
675.883347984
 10
433.0425717571
 20
675.7094166847
 10
433.0508862439
 20
675.5352870129
 10
433.0508862439
 20
675.3610912001
 10
433.0425717571
 20
675.1869615283
 10
433.0259490974
 20
675.013030229
 10
433.0010308878
 20
674.8394293833
 10
432.9678360509
 20
674.6662908211
 10
432.9263897943
 20
674.4937460215
 10
432.8767235918
 20
674.3219260126
 10
432.8188751591
 20
674.1509612721
 10
432.7528884256
 20
673.9809816281
 10
432.6788135006
 20
673.8121161609
 10
432.5967066357
 20
673.6444931045
 10
432.5066301816
 20
673.4782397495
 10
432.408652541
 20
673.3134823464
 10
432.3028481169
 20
673.1503460096
 10
432.1892972557
 20
672.9889546225
 10
432.0680861862
 20
672.8294307436
 10
431.9393069545
 20
672.671895513
 10
431.8030573537
 20
672.5164685607
 10
431.6594408498
 20
672.3632679158
 10
431.5085665031
 20
672.2124099167
 10
431.3505488856
 20
672.0640091229
 10
431.1855079936
 20
671.9181782278
 10
431.0135691569
 20
671.7750279734
 10
430.8348629433
 20
671.6346670659
 10
430.6495250599
 20
671.4972020935
 10
430.4576962496
 20
671.3627374451
 10
430.2595221845
 20
671.2313752313
 10
430.0551533553
 20
671.1032152067
 10
429.8447449568
 20
670.9783546943
 10
429.6284567701
 20
670.8568885113
 10
429.4064530414
 20
670.7389088974
 10
429.1789023574
 20
670.6245054448
 10
428.9459775166
 20
670.5137650298
 10
428.7078553991
 20
670.4067717471
 10
428.4647168314
 20
670.303606846
 10
428.2167464495
 20
670.2043486683
 10
427.9641325587
 20
670.1090725893
 10
427.7070669903
 20
670.0178509605
 10
427.4457449564
 20
669.9307530541
 10
427.1803649012
 20
669.8478450111
 10
426.9111283507
 20
669.7691897908
 10
426.6382397592
 20
669.6948471227
 10
426.3619063545
 20
669.6248734618
 10
426.0823379805
 20
669.5593219449
 10
425.7997469372
 20
669.498242351
 10
425.5143478205
 20
669.441681063
 10
425.2263573583
 20
669.3896810329
 10
424.9359942467
 20
669.3422817487
 10
424.6434789832
 20
669.2995192047
 10
424.3490336998
 20
669.2614258743
 10
424.0528819942
 20
669.228030685
 10
423.7552487599
 20
669.1993589965
 10
423.4563600152
 20
669.1754325819
 10
423.1564427321
 20
669.1562696104
 10
422.8557246636
 20
669.1418846342
 10
422.5544341708
 20
669.1322885771
 10
422.2528000494
 20
669.127488726
 10
421.9510513562
 20
669.127488726
 10
421.6494172348
 20
669.1322885771
 10
421.3481267419
 20
669.1418846342
 10
421.0474086734
 20
669.1562696104
 10
420.7474913904
 20
669.1754325819
 10
420.4486026457
 20
669.1993589965
 10
420.1509694113
 20
669.228030685
 10
419.8548177057
 20
669.2614258743
 10
419.5603724224
 20
669.2995192047
 10
419.2678571589
 20
669.3422817487
 10
418.9774940473
 20
669.3896810329
 10
418.6895035851
 20
669.441681063
 10
418.4041044684
 20
669.498242351
 10
418.1215134251
 20
669.5593219449
 10
417.841945051
 20
669.6248734618
 10
417.5656116464
 20
669.6948471227
 10
417.2927230549
 20
669.7691897908
 10
417.0234865043
 20
669.8478450111
 10
416.7581064492
 20
669.9307530541
 10
416.4967844152
 20
670.0178509605
 10
416.2397188469
 20
670.1090725893
 10
415.987104956
 20
670.2043486683
 10
415.7391345741
 20
670.303606846
 10
415.4959960064
 20
670.4067717471
 10
415.2578738889
 20
670.5137650298
 10
415.0249490482
 20
670.6245054448
 10
414.7973983641
 20
670.7389088974
 10
414.5753946355
 20
670.8568885113
 10
414.3591064488
 20
670.9783546943
 10
414.1486980502
 20
671.1032152067
 10
413.944329221
 20
671.2313752313
 10
413.746155156
 20
671.3627374451
 10
413.5543263457
 20
671.4972020935
 10
413.3689884623
 20
671.6346670659
 10
413.1902822487
 20
671.7750279734
 10
413.0183434119
 20
671.9181782278
 10
412.8533025199
 20
672.0640091229
 10
412.6952849024
 20
672.2124099167
 10
412.5444105558
 20
672.3632679158
 10
412.4007940519
 20
672.5164685607
 10
412.2645444511
 20
672.671895513
 10
412.1357652193
 20
672.8294307436
 10
412.0145541499
 20
672.9889546225
 10
411.9010032886
 20
673.1503460096
 10
411.7951988645
 20
673.3134823464
 10
411.697221224
 20
673.4782397495
 10
411.6071447699
 20
673.6444931045
 10
411.5250379049
 20
673.8121161609
 10
411.45096298
 20
673.9809816281
 10
411.3849762464
 20
674.1509612721
 10
411.3271278138
 20
674.3219260126
 10
411.2774616112
 20
674.4937460215
 10
411.2360153547
 20
674.6662908211
 10
411.2028205177
 20
674.8394293833
 10
411.1779023081
 20
675.013030229
 10
411.1612796484
 20
675.1869615283
 10
411.1529651616
 20
675.3610912001
 10
411.1529651616
 20
675.5352870129
 10
411.1612796484
 20
675.7094166847
 10
411.1779023081
 20
675.883347984
 10
411.2028205177
 20
676.0569488297
 10
411.2360153547
 20
676.2300873919
 10
411.2774616112
 20
676.4026321915
 10
411.3271278138
 20
676.5744522004
 10
411.3849762464
 20
676.7454169409
 10
411.45096298
 20
676.9153965849
 10
411.5250379049
 20
677.0842620521
 10
411.6071447699
 20
677.2518851085
 10
411.697221224
 20
677.4181384635
 10
411.7951988645
 20
677.5828958666
 10
411.9010032886
 20
677.7460322034
 10
412.0145541499
 20
677.9074235905
 10
412.1357652193
 20
678.0669474694
 10
412.2645444511
 20
678.2244827001
 10
412.4007940519
 20
678.3799096523
 10
412.5444105558
 20
678.5331102972
 10
412.6952849024
 20
678.6839682963
 10
412.8533025199
 20
678.8323690901
 10
413.0183434119
 20
678.9781999852
 10
413.1902822487
 20
679.1213502396
 10
413.3689884623
 20
679.2617111471
 10
413.5543263457
 20
679.3991761195
 10
413.746155156
 20
679.5336407679
 10
413.944329221
 20
679.6650029817
 10
414.1486980502
 20
679.7931630063
 10
414.3591064488
 20
679.9180235187
 10
414.5753946355
 20
680.0394897017
 10
414.7973983641
 20
680.1574693156
 10
415.0249490482
 20
680.2718727682
 10
415.2578738889
 20
680.3826131832
 10
415.4959960064
 20
680.4896064659
 10
415.7391345741
 20
680.592771367
 10
415.987104956
 20
680.6920295447
 10
416.2397188469
 20
680.7873056237
 10
416.4967844152
 20
680.8785272525
 10
416.7581064492
 20
680.9656251589
 10
417.0234865043
 20
681.0485332019
 10
417.2927230549
 20
681.1271884222
 10
417.5656116464
 20
681.2015310903
 10
417.841945051
 20
681.2715047512
 10
418.1215134251
 20
681.3370562681
 10
418.4041044684
 20
681.398135862
 10
418.6895035851
 20
681.45469715
 10
418.9774940473
 20
681.5066971801
 10
419.2678571589
 20
681.5540964643
 10
419.5603724224
 20
681.5968590083
 10
419.8548177057
 20
681.6349523387
 10
420.1509694113
 20
681.668347528
 10
420.4486026457
 20
681.6970192165
 10
420.7474913904
 20
681.7209456311
 10
421.0474086734
 20
681.7401086026
 10
421.3481267419
 20
681.7544935788
 10
421.6494172348
 20
681.764089636
 10
421.9510513562
 20
681.768889487
 10
422.2528000494
 20
681.768889487
 10
422.5544341708
 20
681.764089636
 10
422.8557246636
 20
681.7544935788
 10
423.1564427321
 20
681.7401086026
 10
423.4563600152
 20
681.7209456311
 10
423.7552487599
 20
681.6970192165
 10
424.0528819942
 20
681.668347528
 10
424.3490336998
 20
681.6349523387
 10
424.6434789832
 20
681.5968590083
 10
424.9359942467
 20
681.5540964643
 10
425.2263573583
 20
681.5066971801
 10
425.5143478205
 20
681.45469715
 10
425.7997469372
 20
681.398135862
 10
426.0823379805
 20
681.3370562681
 10
426.3619063545
 20
681.2715047512
 10
426.6382397592
 20
681.2015310903
 10
426.9111283507
 20
681.1271884222
 10
427.1803649012
 20
681.0485332019
 10
427.4457449564
 20
680.9656251589
 10
427.7070669903
 20
680.8785272525
 10
427.9641325587
 20
680.7873056237
 10
428.2167464495
 20
680.6920295447
 10
428.4647168314
 20
680.592771367
 10
428.7078553991
 20
680.4896064659
 10
428.9459775166
 20
680.3826131832
 10
429.1789023574
 20
680.2718727682
 10
429.4064530414
 20
680.1574693156
 10
429.6284567701
 20
680.0394897017
 10
429.8447449568
 20
679.9180235187
  0
SPLINE
  5
15C
330
1F
100
AcDbEntity
  8
0
  6
Continuous
 62
     7
370
    30
100
AcDbSpline
210
0.0
220
0.0
230
1.0
 70
     8
 71
     3
 72
    18
 73
    14
 74
     0
 42
0.000000001
 43
0.00000001
 40
0.0
 40
0.0
 40
0.0
 40
0.0
 40
0.0964273136467369
 40
0.1957327204301956
 40
0.2921403294283282
 40
0.3912021416768167
 40
0.4904707984278994
 40
0.5922794584504811
 40
0.6982080024956372
 40
0.806832948302704
 40
0.900272185094955
 40
0.9953830946721516
 40
0.9999999999999999
 40
0.9999999999999999
 40
0.9999999999999999
 40
0.9999999999999999
 10
437.0946501071363
 20
135.4450412616956
 30
0.0
 10
437.0922807748294
 20
135.4885088373935
 30
0.0
 10
437.0874713920883
 20
135.57674137774
 30
0.0
 10
437.0489243238869
 20
135.712511860761
 30
0.0
 10
436.9884356534644
 20
135.84741893274
 30
0.0
 10
436.9062678042208
 20
135.9772303099329
 30
0.0
 10
436.8036896763139
 20
136.1006405607305
 30
0.0
 10
436.682236801001
 20
136.2149474226412
 30
0.0
 10
436.5431922677902
 20
136.3175118006104
 30
0.0
 10
436.3975792289386
 20
136.4000535065649
 30
0.0
 10
436.2512853144842
 20
136.4624636810145
 30
0.0
 10
436.1542480278565
 20
136.4921731786433
 30
0.0
 10
436.1041694386983
 20
136.5042981608131
 30
0.0
 10
436.1018510473316
 20
136.5048594876087
 30
0.0
  0
LINE
  5
15D
330
1F
100
AcDbEntity
  8
0
  6
Continuous
 62
     7
370
    30
100
AcDbLine
 10
407.1019257028
 20
96.3574453171
 30
0.0
 11
407.1019264676
 21
96.3546801598
 31
0.0
  0
LINE
  5
15E
330
1F
100
AcDbEntity
  8
0
  6
Continuous
 62
     7
370
    30
100
AcDbLine
 10
437.0946501071
 20
96.0877741288
 30
0.0
 11
437.0946501071
 21
135.4450412617
 31
0.0
  0
LINE
  5
15F
330
1F
100
AcDbEntity
  8
0
  6
Continuous
 62
     7
370
    30
100
AcDbLine
 10
464.2997315271
 20
152.7831493954
 30
0.0
 11
450.2540858705
 21
160.8915280412
 31
0.0
  0
ARC
  5
160
330
1F
100
AcDbEntity
  8
0
  6
Continuous
 62
     7
370
    30
100
AcDbCircle
 10
463.4748270008
 20
151.490393964
 30
0.0
 40
1.533520160606911
100
AcDbArc
 50
2.5418620993
 51
57.4581380463
  0
LINE
  5
161
330
1F
100
AcDbEntity
  8
0
  6
Continuous
 62
     7
370
    30
100
AcDbLine
 10
465.0068383083
 20
112.2011373947
 30
0.0
 11
465.0068383083
 21
151.5584045276
 31
0.0
  0
LINE
  5
162
330
1F
100
AcDbEntity
  8
0
  6
Continuous
 62
     7
370
    30
100
AcDbLine
 10
437.0911440701
 20
96.0529536091
 30
0.0
 11
437.0946501071
 21
96.0877741288
 31
0.0
  0
ARC
  5
163
330
1F
100
AcDbEntity
  8
0
  6
Continuous
 62
     7
370
    30
100
AcDbCircle
 10
449.9612220251
 20
160.4832143453
 30
0.0
 40
0.5024831403134408
100
AcDbArc
 50
54.3499390004
 51
114.3396025705
  0
ARC
  5
164
330
1F
100
AcDbEntity
  8
0
  6
Continuous
 62
     7
370
    30
100
AcDbCircle
 10
464.5140608918
 20
112.1483064116
 30
0.0
 40
0.4956013467580873
100
AcDbArc
 50
305.1928371559
 51
6.1193432375
  0
SPLINE
  5
165
330
1F
100
AcDbEntity
  8
0
  6
Continuous
 62
     7
370
    30
100
AcDbSpline
210
0.0
220
0.0
230
1.0
 70
     8
 71
     3
 72
    19
 73
    15
 74
     0
 42
0.000000001
 43
0.00000001
 40
0.0
 40
0.0
 40
0.0
 40
0.0
 40
0.0046165009615644
 40
0.098053985959361
 40
0.1931500778848443
 40
0.2990963197877413
 40
0.3532579079897333
 40
0.4077732660610016
 40
0.5070631338539298
 40
0.6088326101127914
 40
0.7052573413756289
 40
0.8042845787047842
 40
0.9007144808915378
 40
0.9999999999999999
 40
0.9999999999999999
 40
0.9999999999999999
 40
0.9999999999999999
 10
436.1018510473316
 20
634.7580629002988
 30
0.0
 10
436.1041694398556
 20
634.757501574062
 30
0.0
 10
436.1534118487453
 20
634.7455790649154
 30
0.0
 10
436.2504454371182
 20
634.7159720380013
 30
0.0
 10
436.39547203406
 20
634.6542675387175
 30
0.0
 10
436.5162338909072
 20
634.5860388785109
 30
0.0
 10
436.6123971097653
 20
634.5197220918557
 30
0.0
 10
436.7014730728147
 20
634.4498716429878
 30
0.0
 10
436.8027479617838
 20
634.3548427097783
 30
0.0
 10
436.9046697688349
 20
634.2326137514306
 30
0.0
 10
436.9877778486671
 20
634.1018331333981
 30
0.0
 10
437.0479883618691
 20
633.9682410796898
 30
0.0
 10
437.087208966821
 20
633.8313001472103
 30
0.0
 10
437.0921457168863
 20
633.7430258254951
 30
0.0
 10
437.0946501071367
 20
633.6982446743857
 30
0.0
  0
LINE
  5
166
330
1F
100
AcDbEntity
  8
0
  6
Continuous
 62
     7
370
    30
100
AcDbLine
 10
437.0946501071
 20
633.6982446744
 30
0.0
 11
437.0946501071
 21
594.3409775415
 31
0.0
  0
LINE
  5
167
330
1F
100
AcDbEntity
  8
0
  6
Continuous
 62
     7
370
    30
100
AcDbLine
 10
407.1019257028
 20
594.6106487298
 30
0.0
 11
407.1019264676
 21
594.6078835725
 31
0.0
  0
LINE
  5
168
330
1F
100
AcDbEntity
  8
0
  6
Continuous
 62
     7
370
    30
100
AcDbLine
 10
450.2540858705
 20
659.1447314539
 30
0.0
 11
464.2997315271
 21
651.0363528081
 31
0.0
  0
ARC
  5
169
330
1F
100
AcDbEntity
  8
0
  6
Continuous
 62
     7
370
    30
100
AcDbCircle
 10
463.4748270008
 20
649.7435973767
 30
0.0
 40
1.533520160606735
100
AcDbArc
 50
2.5418620993
 51
57.4581380463
  0
LINE
  5
16A
330
1F
100
AcDbEntity
  8
0
  6
Continuous
 62
     7
370
    30
100
AcDbLine
 10
465.0068383082
 20
649.8116079403
 30
0.0
 11
465.0068383082
 21
610.4543408074
 31
0.0
  0
LINE
  5
16B
330
1F
100
AcDbEntity
  8
0
  6
Continuous
 62
     7
370
    30
100
AcDbLine
 10
437.0946501071
 20
594.3409775415
 30
0.0
 11
437.0912446006
 21
594.3061188116
 31
0.0
  0
ARC
  5
16C
330
1F
100
AcDbEntity
  8
0
  6
Continuous
 62
     7
370
    30
100
AcDbCircle
 10
449.9612220251
 20
658.7364177579
 30
0.0
 40
0.5024831403134173
100
AcDbArc
 50
54.3499390004
 51
114.3396025705
  0
ARC
  5
16D
330
1F
100
AcDbEntity
  8
0
  6
Continuous
 62
     7
370
    30
100
AcDbCircle
 10
464.5140608918
 20
610.4015098243
 30
0.0
 40
0.4956013467577282
100
AcDbArc
 50
305.1928371559
 51
6.1193432375
  0
LINE
  5
16E
330
1F
100
AcDbEntity
  8
0
  6
Continuous
 62
     7
370
    30
100
AcDbLine
 10
399.8298785498
 20
330.0774675815
 30
0.0
 11
399.8264395704
 21
330.0794513362
 31
0.0
  0
LINE
  5
16F
330
1F
100
AcDbEntity
  8
0
  6
Continuous
 62
     7
370
    30
100
AcDbLine
 10
380.0274496972
 20
341.5091649017
 30
0.0
 11
380.0310469681
 21
341.507089911
 31
0.0
  0
LINE
  5
170
330
1F
100
AcDbEntity
  8
0
  6
Continuous
 62
     7
370
    30
100
AcDbLine
 10
370.1543200934
 20
387.5633896082
 30
0.0
 11
370.1506668188
 21
387.5654969336
 31
0.0
  0
LINE
  5
171
330
1F
100
AcDbEntity
  8
0
  6
Continuous
 62
     7
370
    30
100
AcDbLine
 10
351.6558235397
 20
355.5195817001
 30
0.0
 11
351.6585442557
 21
355.5180119878
 31
0.0
  0
LINE
  5
172
330
1F
100
AcDbEntity
  8
0
  6
Continuous
 62
     7
370
    30
100
AcDbLine
 10
372.9454621082
 20
385.9506163743
 30
0.0
 11
372.948504917
 21
385.9488154266
 31
0.0
  0
SPLINE
  5
173
330
1F
100
AcDbEntity
  8
0
  6
Continuous
 62
     7
370
    30
100
AcDbSpline
210
0.0
220
0.0
230
1.0
 70
     8
 71
     3
 72
    88
 73
    84
 74
     0
 42
0.000000001
 43
0.00000001
 40
0.0
 40
0.0
 40
0.0
 40
0.0
 40
0.0082518349696053
 40
0.0175526015449032
 40
0.0318902138661648
 40
0.0427190357399001
 40
0.053547797919393
 40
0.0644111558000052
 40
0.0752744475257992
 40
0.0862517396433079
 40
0.0972289584194578
 40
0.1082490269413401
 40
0.1192690188415786
 40
0.1340818391471304
 40
0.1484264220168389
 40
0.1593000529966518
 40
0.1701736188662479
 40
0.1811002332992397
 40
0.1920267909249866
 40
0.2031243431778469
 40
0.2142218491949177
 40
0.225381043164998
 40
0.2365402076839726
 40
0.251593261691294
 40
0.2638729257720054
 40
0.2761525958551823
 40
0.2885185984885804
 40
0.3008846366312766
 40
0.3134263056614074
 40
0.3259680366508632
 40
0.3385972745461143
 40
0.3512265917755054
 40
0.3632135446799284
 40
0.3752005661544316
 40
0.3872573582153144
 40
0.3993142170703916
 40
0.4115087444590291
 40
0.4237033314676505
 40
0.435965064323539
 40
0.4482268421153286
 40
0.4614361548069009
 40
0.4746455001193973
 40
0.4879357556436397
 40
0.5012260115356453
 40
0.5146827821233401
 40
0.528139517615541
 40
0.5416831439114117
 40
0.5552267010550981
 40
0.5693490025058612
 40
0.5800455944914685
 40
0.5907421474225892
 40
0.601486704428571
 40
0.6122312199990155
 40
0.6231292560338234
 40
0.6340272515328522
 40
0.6449800964964464
 40
0.6559329089899201
 40
0.6706925831981678
 40
0.6843462017610302
 40
0.6979998063330944
 40
0.7117672670871021
 40
0.7255347660304919
 40
0.7360226301305551
 40
0.7465105203867961
 40
0.7570478353642239
 40
0.7675851849045324
 40
0.7817786835695683
 40
0.7952699712778776
 40
0.808761360582294
 40
0.822347612731639
 40
0.8359339540936641
 40
0.8497088652848913
 40
0.8634838408570225
 40
0.8773518974470359
 40
0.891219981116847
 40
0.904640155460558
 40
0.9180603174984286
 40
0.9315654906635534
 40
0.9450706163442923
 40
0.9587549587805569
 40
0.9724392193262605
 40
0.9862196637371113
 40
0.9999999999999999
 40
0.9999999999999999
 40
0.9999999999999999
 40
0.9999999999999999
 10
391.8054656620714
 20
375.0640059872279
 30
0.0
 10
391.7662224137568
 20
375.0861977151754
 30
0.0
 10
391.6827475135036
 20
375.1334020715023
 30
0.0
 10
391.5212949727434
 20
375.2119046426489
 30
0.0
 10
391.3366793051057
 20
375.2895483611765
 30
0.0
 10
391.1311519723257
 20
375.361852145501
 30
0.0
 10
390.9356196518547
 20
375.4206089598875
 30
0.0
 10
390.7297465669271
 20
375.4728388855434
 30
0.0
 10
390.5125973404614
 20
375.5187645305817
 30
0.0
 10
390.2840930340893
 20
375.5583061618558
 30
0.0
 10
390.0436781479125
 20
375.5915204827706
 30
0.0
 10
389.7919740131422
 20
375.6183189124241
 30
0.0
 10
389.4986942177457
 20
375.6411382572158
 30
0.0
 10
389.1630890742323
 20
375.6571104091556
 30
0.0
 10
388.8108974880325
 20
375.663314666959
 30
0.0
 10
388.4795735146647
 20
375.6616000659777
 30
0.0
 10
388.1689633125849
 20
375.6545372685296
 30
0.0
 10
387.847266310975
 20
375.6421189223057
 30
0.0
 10
387.5129022249632
 20
375.6244707009877
 30
0.0
 10
387.1664104578058
 20
375.601759142591
 30
0.0
 10
386.8072616176022
 20
375.5741533605757
 30
0.0
 10
386.4374857502014
 20
375.5420409868383
 30
0.0
 10
386.0132428584053
 20
375.5015395083843
 30
0.0
 10
385.5638394828504
 20
375.4547565658501
 30
0.0
 10
385.0890230391954
 20
375.4019676829482
 30
0.0
 10
384.6367552337458
 20
375.3494481415806
 30
0.0
 10
384.1744236101261
 20
375.2940616508507
 30
0.0
 10
383.7005232015061
 20
375.2361622053602
 30
0.0
 10
383.2167692326906
 20
375.176495736126
 30
0.0
 10
382.7227589207951
 20
375.1156073182125
 30
0.0
 10
382.2215306547848
 20
375.0544809466858
 30
0.0
 10
381.7225176252373
 20
374.9948862879381
 30
0.0
 10
381.2279731160783
 20
374.9376253504807
 30
0.0
 10
380.7379119681752
 20
374.8831507756006
 30
0.0
 10
380.2443205028095
 20
374.8311151504103
 30
0.0
 10
379.745981068331
 20
374.7819946331269
 30
0.0
 10
379.244485639805
 20
374.7365924134478
 30
0.0
 10
378.739558464916
 20
374.6955439877994
 30
0.0
 10
378.2337306314798
 20
374.6597240926329
 30
0.0
 10
377.7145992860048
 20
374.6290548503134
 30
0.0
 10
377.1838097943127
 20
374.6048892587027
 30
0.0
 10
376.6411312543286
 20
374.5886331403651
 30
0.0
 10
376.1003201654396
 20
374.5817756488129
 30
0.0
 10
375.5598831709901
 20
374.585191283152
 30
0.0
 10
375.0217251149253
 20
374.5998825017688
 30
0.0
 10
374.4855195716504
 20
374.6268523705657
 30
0.0
 10
373.9543257396979
 20
374.6669574423663
 30
0.0
 10
373.4215080645744
 20
374.7217973203554
 30
0.0
 10
372.9330351476344
 20
374.786958670343
 30
0.0
 10
372.4878188939647
 20
374.8595521988483
 30
0.0
 10
372.0908087534119
 20
374.9350984869681
 30
0.0
 10
371.6995477231761
 20
375.0209443465096
 30
0.0
 10
371.3126757691249
 20
375.1178103731893
 30
0.0
 10
370.9313693529282
 20
375.2259755562633
 30
0.0
 10
370.5555930777013
 20
375.3459426542247
 30
0.0
 10
370.1876945429669
 20
375.4774122917908
 30
0.0
 10
369.7865599209277
 20
375.6370357547223
 30
0.0
 10
369.3692244316437
 20
375.8244351193081
 30
0.0
 10
368.9401547452047
 20
376.0434174419564
 30
0.0
 10
368.537877443389
 20
376.2744285480648
 30
0.0
 10
368.1521749635963
 20
376.5230133276302
 30
0.0
 10
367.8131718137401
 20
376.7675194729527
 30
0.0
 10
367.5177313748213
 20
377.0025076168354
 30
0.0
 10
367.2612283087532
 20
377.2243022704844
 30
0.0
 10
367.0161247455171
 20
377.454732417918
 30
0.0
 10
366.7557033510976
 20
377.7209388040291
 30
0.0
 10
366.4908747292368
 20
378.0198749898505
 30
0.0
 10
366.2270159379746
 20
378.3532433208389
 30
0.0
 10
365.9878885623053
 20
378.6913871509821
 30
0.0
 10
365.7694635832449
 20
379.0388902043935
 30
0.0
 10
365.5711485240628
 20
379.3961667563258
 30
0.0
 10
365.3940121490558
 20
379.7612517697029
 30
0.0
 10
365.2381328726993
 20
380.1336990892526
 30
0.0
 10
365.1046416345862
 20
380.5105169611437
 30
0.0
 10
364.9949277486667
 20
380.8862285161594
 30
0.0
 10
364.9085232506542
 20
381.2585577361317
 30
0.0
 10
364.8444226345372
 20
381.6269705013157
 30
0.0
 10
364.8018690278669
 20
381.9942641774632
 30
0.0
 10
364.7808979743913
 20
382.360706997146
 30
0.0
 10
364.7817983966523
 20
382.7241876572266
 30
0.0
 10
364.8053637920895
 20
383.0838544888675
 30
0.0
 10
364.8497139407577
 20
383.4375858220099
 30
0.0
 10
364.898101982208
 20
383.6661263713328
 30
0.0
 10
364.9222959079963
 20
383.7803961975998
 30
0.0
  0
LWPOLYLINE
  5
174
330
1F
100
AcDbEntity
  8
0
  6
Continuous
 62
     7
370
    30
100
AcDbPolyline
 90
       91
 70
   128
 43
0.0
 10
411.495323985
 20
279.0186201864
 10
411.7766070674
 20
278.8604353594
 10
412.0649666074
 20
278.7065553844
 10
412.3602049778
 20
278.557085723
 10
412.662119837
 20
278.4121288144
 10
412.9705042676
 20
278.2717840047
 10
413.2851469184
 20
278.1361474793
 10
413.6058321489
 20
278.0053121966
 10
413.9323401776
 20
277.8793678247
 10
414.264447232
 20
277.7584006794
 10
414.6019257028
 20
277.6424936657
 10
414.9445442989
 20
277.5317262205
 10
415.2920682067
 20
277.4261742581
 10
415.6442592507
 20
277.3259101186
 10
416.0008760566
 20
277.2310025182
 10
416.3616742173
 20
277.1415165016
 10
416.7264064596
 20
277.0575133982
 10
417.0948228143
 20
276.9790507795
 10
417.4666707872
 20
276.9061824198
 10
417.8416955322
 20
276.8389582594
 10
418.2196400262
 20
276.7774243706
 10
418.6002452449
 20
276.7216229254
 10
418.9832503405
 20
276.6715921675
 10
419.3683928204
 20
276.6273663853
 10
419.7554087272
 20
276.5889758892
 10
420.1440328195
 20
276.5564469899
 10
420.5339987538
 20
276.5298019812
 10
420.9250392669
 20
276.5090591242
 10
421.3168863591
 20
276.494232635
 10
421.7092714782
 20
276.485332675
 10
422.1019257028
 20
276.4823653438
 10
422.4945799274
 20
276.485332675
 10
422.8869650464
 20
276.494232635
 10
423.2788121387
 20
276.5090591242
 10
423.6698526518
 20
276.5298019812
 10
424.0598185861
 20
276.5564469899
 10
424.4484426784
 20
276.5889758892
 10
424.8354585852
 20
276.6273663853
 10
425.220601065
 20
276.6715921675
 10
425.6036061606
 20
276.7216229254
 10
425.9842113793
 20
276.7774243706
 10
426.3621558733
 20
276.8389582594
 10
426.7371806184
 20
276.9061824198
 10
427.1090285913
 20
276.9790507795
 10
427.477444946
 20
277.0575133982
 10
427.8421771883
 20
277.1415165016
 10
428.2029753489
 20
277.2310025182
 10
428.5595921549
 20
277.3259101186
 10
428.9117831989
 20
277.4261742581
 10
429.2593071067
 20
277.5317262205
 10
429.6019257028
 20
277.6424936657
 10
429.9394041735
 20
277.7584006794
 10
430.271511228
 20
277.8793678247
 10
430.5980192567
 20
278.0053121966
 10
430.9187044872
 20
278.1361474793
 10
431.2333471379
 20
278.2717840047
 10
431.5417315685
 20
278.4121288144
 10
431.8436464277
 20
278.557085723
 10
432.1388847982
 20
278.7065553844
 10
432.4272443382
 20
278.8604353594
 10
432.7085274206
 20
279.0186201864
 10
432.982541268
 20
279.1810014535
 10
433.2490980849
 20
279.3474678726
 10
433.5080151868
 20
279.517905356
 10
433.7591151246
 20
279.6921970943
 10
434.0022258071
 20
279.8702236367
 10
434.2371806184
 20
280.0518629727
 10
434.4638185321
 20
280.2369906157
 10
434.681984222
 20
280.4254796886
 10
434.8915281681
 20
280.6172010102
 10
435.0923067595
 20
280.8120231845
 10
435.2841823927
 20
281.0098126899
 10
435.4670235656
 20
281.2104339716
 10
435.640704968
 20
281.4137495336
 10
435.8051075674
 20
281.6196200336
 10
435.9601186904
 20
281.8279043783
 10
436.1056321002
 20
282.0384598199
 10
436.2415480692
 20
282.2511420544
 10
436.3677734472
 20
282.4658053199
 10
436.4842217258
 20
282.682302497
 10
436.5908130971
 20
282.9004852092
 10
436.6874745087
 20
283.1202039252
 10
436.7741397138
 20
283.3413080605
 10
436.8507493162
 20
283.5636460815
 10
436.9172508117
 20
283.7870656089
 10
436.9735986234
 20
284.011413522
 10
437.0197541333
 20
284.236536064
 10
437.0556857088
 20
284.4622789471
 10
437.0813687241
 20
284.6884874585
 10
437.0967855774
 20
284.9150065661
 10
437.1019257028
 20
285.1416810251
  0
ARC
  5
175
330
1F
100
AcDbEntity
  8
0
  6
Continuous
 62
     7
370
    30
100
AcDbCircle
 10
414.6145260867
 20
285.8943984149
 30
0.0
 40
7.550215096135843
100
AcDbArc
 50
185.7215975507
 51
245.5985434069
  0
LWPOLYLINE
  5
176
330
1F
100
AcDbEntity
  8
0
  6
Continuous
 62
     7
370
    30
100
AcDbPolyline
 90
      120
 70
   128
 43
0.0
 10
411.495323985
 20
378.6365992365
 10
411.7766070674
 20
378.4784144095
 10
412.0649666074
 20
378.3245344345
 10
412.3602049778
 20
378.1750647731
 10
412.662119837
 20
378.0301078645
 10
412.9705042676
 20
377.8897630548
 10
413.2851469184
 20
377.7541265294
 10
413.6058321489
 20
377.6232912467
 10
413.9323401776
 20
377.4973468747
 10
414.264447232
 20
377.3763797295
 10
414.6019257028
 20
377.2604727158
 10
414.9445442989
 20
377.1497052705
 10
415.2920682067
 20
377.0441533081
 10
415.6442592507
 20
376.9438891687
 10
416.0008760566
 20
376.8489815682
 10
416.3616742173
 20
376.7594955517
 10
416.7264064596
 20
376.6754924483
 10
417.0948228143
 20
376.5970298295
 10
417.4666707872
 20
376.5241614698
 10
417.8416955322
 20
376.4569373095
 10
418.2196400262
 20
376.3954034206
 10
418.6002452449
 20
376.3396019755
 10
418.9832503405
 20
376.2895712175
 10
419.3683928204
 20
376.2453454354
 10
419.7554087272
 20
376.2069549392
 10
420.1440328195
 20
376.17442604
 10
420.5339987538
 20
376.1477810312
 10
420.9250392669
 20
376.1270381742
 10
421.3168863591
 20
376.1122116851
 10
421.7092714782
 20
376.1033117251
 10
422.1019257028
 20
376.1003443939
 10
422.4945799274
 20
376.1033117251
 10
422.8869650464
 20
376.1122116851
 10
423.2788121387
 20
376.1270381742
 10
423.6698526518
 20
376.1477810312
 10
424.0598185861
 20
376.17442604
 10
424.4484426784
 20
376.2069549392
 10
424.8354585852
 20
376.2453454354
 10
425.220601065
 20
376.2895712175
 10
425.6036061606
 20
376.3396019755
 10
425.9842113793
 20
376.3954034206
 10
426.3621558733
 20
376.4569373095
 10
426.7371806184
 20
376.5241614698
 10
427.1090285913
 20
376.5970298295
 10
427.477444946
 20
376.6754924483
 10
427.8421771883
 20
376.7594955517
 10
428.2029753489
 20
376.8489815682
 10
428.5595921549
 20
376.9438891687
 10
428.9117831989
 20
377.0441533081
 10
429.2593071067
 20
377.1497052705
 10
429.6019257028
 20
377.2604727158
 10
429.9394041735
 20
377.3763797295
 10
430.271511228
 20
377.4973468747
 10
430.5980192567
 20
377.6232912467
 10
430.9187044872
 20
377.7541265294
 10
431.2333471379
 20
377.8897630548
 10
431.5417315685
 20
378.0301078645
 10
431.8436464277
 20
378.1750647731
 10
432.1388847982
 20
378.3245344345
 10
432.4272443382
 20
378.4784144095
 10
432.7085274206
 20
378.6365992365
 10
432.982541268
 20
378.7989805036
 10
433.2490980849
 20
378.9654469227
 10
433.5080151868
 20
379.1358844061
 10
433.7591151246
 20
379.3101761444
 10
434.0022258071
 20
379.4882026868
 10
434.2371806184
 20
379.6698420228
 10
434.4638185321
 20
379.8549696658
 10
434.681984222
 20
380.0434587386
 10
434.8915281681
 20
380.2351800603
 10
435.0923067595
 20
380.4300022345
 10
435.2841823927
 20
380.62779174
 10
435.4670235656
 20
380.8284130216
 10
435.640704968
 20
381.0317285836
 10
435.8051075674
 20
381.2375990836
 10
435.9601186904
 20
381.4458834283
 10
436.1056321002
 20
381.65643887
 10
436.2415480692
 20
381.8691211045
 10
436.3677734472
 20
382.08378437
 10
436.4842217258
 20
382.3002815471
 10
436.5908130971
 20
382.5184642593
 10
436.6874745087
 20
382.7381829752
 10
436.7741397138
 20
382.9592871106
 10
436.8507493162
 20
383.1816251316
 10
436.9172508117
 20
383.405044659
 10
436.9735986234
 20
383.6293925721
 10
437.0197541333
 20
383.8545151141
 10
437.0556857088
 20
384.0802579972
 10
437.0813687241
 20
384.3064665086
 10
437.0967855774
 20
384.5329856162
 10
437.1019257028
 20
384.7596600752
 10
437.0967855774
 20
384.9863345341
 10
437.0813687241
 20
385.2128536418
 10
437.0556857088
 20
385.4390621531
 10
437.0197541333
 20
385.6648050363
 10
436.9735986234
 20
385.8899275783
 10
436.9172508117
 20
386.1142754914
 10
436.8507493162
 20
386.3376950188
 10
436.7741397138
 20
386.5600330398
 10
436.6874745087
 20
386.7811371751
 10
436.5908130971
 20
387.000855891
 10
436.4842217258
 20
387.2190386033
 10
436.3677734472
 20
387.4355357803
 10
436.2415480692
 20
387.6501990459
 10
436.1056321002
 20
387.8628812803
 10
435.9601186904
 20
388.073436722
 10
435.8051075674
 20
388.2817210667
 10
435.640704968
 20
388.4875915667
 10
435.4670235656
 20
388.6909071287
 10
435.2841823927
 20
388.8915284104
 10
435.0923067595
 20
389.0893179158
 10
434.8915281681
 20
389.2841400901
 10
434.681984222
 20
389.4758614117
 10
434.4638185321
 20
389.6643504846
 10
434.2371806184
 20
389.8494781276
 10
434.0022258071
 20
390.0311174635
 10
433.7591151246
 20
390.2091440059
 10
433.5080151868
 20
390.3834357443
 10
433.2490980849
 20
390.5538732276
 10
433.0519257028
 20
390.6778446551
  0
LWPOLYLINE
  5
177
330
1F
100
AcDbEntity
  8
0
  6
Continuous
 62
     7
370
    30
100
AcDbPolyline
 90
       60
 70
   128
 43
0.0
 10
411.1519257028
 20
390.6778446551
 10
410.9547533206
 20
390.5538732276
 10
410.6958362188
 20
390.3834357443
 10
410.4447362809
 20
390.2091440059
 10
410.2016255984
 20
390.0311174635
 10
409.9666707872
 20
389.8494781276
 10
409.7400328734
 20
389.6643504846
 10
409.5218671836
 20
389.4758614117
 10
409.3123232375
 20
389.2841400901
 10
409.111544646
 20
389.0893179158
 10
408.9196690128
 20
388.8915284104
 10
408.73682784
 20
388.6909071287
 10
408.5631464375
 20
388.4875915667
 10
408.3987438381
 20
388.2817210667
 10
408.2437327151
 20
388.073436722
 10
408.0982193053
 20
387.8628812803
 10
407.9623033364
 20
387.6501990459
 10
407.8360779584
 20
387.4355357803
 10
407.7196296798
 20
387.2190386033
 10
407.6130383084
 20
387.000855891
 10
407.5163768968
 20
386.7811371751
 10
407.4297116918
 20
386.5600330398
 10
407.3531020893
 20
386.3376950188
 10
407.2866005939
 20
386.1142754914
 10
407.2302527822
 20
385.8899275783
 10
407.1840972723
 20
385.6648050363
 10
407.1481656968
 20
385.4390621531
 10
407.1224826815
 20
385.2128536418
 10
407.1070658281
 20
384.9863345341
 10
407.1019257028
 20
384.7596600752
 10
407.1070658281
 20
384.5329856162
 10
407.1224826815
 20
384.3064665086
 10
407.1481656968
 20
384.0802579972
 10
407.1840972723
 20
383.8545151141
 10
407.2302527822
 20
383.6293925721
 10
407.2866005939
 20
383.405044659
 10
407.3531020893
 20
383.1816251316
 10
407.4297116918
 20
382.9592871106
 10
407.5163768968
 20
382.7381829752
 10
407.6130383084
 20
382.5184642593
 10
407.7196296798
 20
382.3002815471
 10
407.8360779584
 20
382.08378437
 10
407.9623033364
 20
381.8691211045
 10
408.0982193053
 20
381.65643887
 10
408.2437327151
 20
381.4458834283
 10
408.3987438381
 20
381.2375990836
 10
408.5631464375
 20
381.0317285836
 10
408.73682784
 20
380.8284130216
 10
408.9196690128
 20
380.62779174
 10
409.111544646
 20
380.4300022345
 10
409.3123232375
 20
380.2351800603
 10
409.5218671836
 20
380.0434587386
 10
409.7400328734
 20
379.8549696658
 10
409.9666707872
 20
379.6698420228
 10
410.2016255984
 20
379.4882026868
 10
410.4447362809
 20
379.3101761444
 10
410.6958362188
 20
379.1358844061
 10
410.9547533206
 20
378.9654469227
 10
411.2213101376
 20
378.7989805036
 10
411.495323985
 20
378.6365992365
  0
LWPOLYLINE
  5
178
330
1F
100
AcDbEntity
  8
0
  6
Continuous
 62
     7
370
    30
100
AcDbPolyline
 90
       99
 70
   128
 43
0.0
 10
377.8207567886
 20
343.0323961583
 10
377.8200971776
 20
343.0327770055
 10
377.6104118855
 20
343.1602886777
 10
377.4064329824
 20
343.2973478062
 10
377.2083002653
 20
343.4438604574
 10
377.0161495244
 20
343.5997262189
 10
376.8301124501
 20
343.7648382681
 10
376.6503165431
 20
343.9390834455
 10
376.4768850265
 20
344.122342332
 10
376.3099367616
 20
344.3144893313
 10
376.1495861663
 20
344.5153927553
 10
375.995943137
 20
344.7249149148
 10
375.8491129729
 20
344.942912214
 10
375.709196304
 20
345.1692352482
 10
375.5762890224
 20
345.4037289071
 10
375.4504822159
 20
345.6462324803
 10
375.3318621063
 20
345.896579768
 10
375.2205099899
 20
346.1545991947
 10
375.1165021819
 20
346.4201139268
 10
375.019909964
 20
346.6929419937
 10
374.9307995356
 20
346.9728964128
 10
374.8492319687
 20
347.2597853171
 10
374.7752631656
 20
347.5534120875
 10
374.7089438208
 20
347.8535754867
 10
374.6503193863
 20
348.1600697979
 10
374.5994300402
 20
348.472684965
 10
374.5563106597
 20
348.7912067373
 10
374.5209907966
 20
349.1154168159
 10
374.4934946574
 20
349.4450930033
 10
374.4738410865
 20
349.780009356
 10
374.4620435536
 20
350.1199363391
 10
374.458110144
 20
350.4646409835
 10
374.4620435536
 20
350.8138870459
 10
374.4738410865
 20
351.1674351705
 10
374.4934946574
 20
351.5250430532
 10
374.5209907966
 20
351.8864656072
 10
374.5563106597
 20
352.2514551317
 10
374.5994300402
 20
352.619761481
 10
374.6503193863
 20
352.9911322365
 10
374.7089438208
 20
353.365312879
 10
374.7752631656
 20
353.7420469639
 10
374.8492319687
 20
354.1210762965
 10
374.9307995356
 20
354.502141109
 10
375.019909964
 20
354.8849802386
 10
375.1165021819
 20
355.2693313065
 10
375.2205099899
 20
355.6549308977
 10
375.3318621063
 20
356.0415147415
 10
375.4504822159
 20
356.4288178925
 10
375.5762890224
 20
356.8165749127
 10
375.709196304
 20
357.2045200526
 10
375.8491129729
 20
357.5923874341
 10
375.995943137
 20
357.9799112323
 10
376.1495861663
 20
358.3668258576
 10
376.3099367616
 20
358.7528661381
 10
376.4768850265
 20
359.1377675012
 10
376.6503165431
 20
359.5212661546
 10
376.8301124501
 20
359.9030992675
 10
377.0161495244
 20
360.2830051506
 10
377.2083002653
 20
360.6607234354
 10
377.4064329824
 20
361.0359952525
 10
377.6104118855
 20
361.4085634095
 10
377.8200971776
 20
361.7781725668
 10
378.0353451508
 20
362.1445694126
 10
378.256008285
 20
362.507502837
 10
378.4819353486
 20
362.8667241034
 10
378.7129715025
 20
363.2219870196
 10
378.9489584062
 20
363.573048106
 10
379.1897343259
 20
363.919666763
 10
379.4351342458
 20
364.2616054355
 10
379.6849899812
 20
364.5986297757
 10
379.9391302934
 20
364.930508804
 10
380.1973810073
 20
365.2570150671
 10
380.4595651307
 20
365.577924794
 10
380.7255029758
 20
365.893018049
 10
380.9950122821
 20
366.2020788831
 10
381.2679083413
 20
366.5048954814
 10
381.5440041241
 20
366.8012603085
 10
381.8231104082
 20
367.0909702508
 10
382.1050359082
 20
367.3738267555
 10
382.3895874064
 20
367.6496359669
 10
382.6765698854
 20
367.9182088592
 10
382.9657866617
 20
368.1793613659
 10
383.2570395207
 20
368.4329145062
 10
383.5501288521
 20
368.6786945073
 10
383.8448537871
 20
368.916532924
 10
384.1410123361
 20
369.1462667536
 10
384.4384015267
 20
369.3677385482
 10
384.7368175433
 20
369.5807965219
 10
385.0360558664
 20
369.7852946555
 10
385.335911413
 20
369.9810927962
 10
385.6361786771
 20
370.1680567537
 10
385.9366518705
 20
370.3460583923
 10
386.237125064
 20
370.5149757185
 10
386.5373923281
 20
370.6746929648
 10
386.8372478747
 20
370.825100669
 10
387.1364861978
 20
370.9660957492
 10
387.4349022143
 20
371.0975815744
 10
387.732291405
 20
371.2194680308
 10
387.779466907
 20
371.2379573719
  0
LWPOLYLINE
  5
179
330
1F
100
AcDbEntity
  8
0
  6
Continuous
 62
     7
370
    30
100
AcDbPolyline
 90
       94
 70
   128
 43
0.0
 10
383.5432133581
 20
367.65522765
 10
383.3401497905
 20
367.4698803847
 10
383.091664729
 20
367.2366399076
 10
382.8450072828
 20
366.9979693226
 10
382.6003043615
 20
366.7539914299
 10
382.3576818692
 20
366.5048317604
 10
382.1172646394
 20
366.2506185113
 10
381.879176371
 20
365.9914824797
 10
381.6435395647
 20
365.7275569958
 10
381.4104754598
 20
365.4589778539
 10
381.1801039719
 20
365.1858832426
 10
380.9525436312
 20
364.9084136742
 10
380.7279115216
 20
364.6267119114
 10
380.5063232202
 20
364.340922895
 10
380.2878927382
 20
364.0511936684
 10
380.0727324619
 20
363.7576733024
 10
379.8609530951
 20
363.4605128185
 10
379.652663602
 20
363.159865111
 10
379.4479711513
 20
362.8558848686
 10
379.2469810609
 20
362.5487284943
 10
379.0497967438
 20
362.2385540257
 10
378.8565196547
 20
361.9255210529
 10
378.6672492381
 20
361.609790637
 10
378.4820828771
 20
361.291525227
 10
378.301115843
 20
360.9708885759
 10
378.1244412466
 20
360.6480456571
 10
377.9521499901
 20
360.3231625789
 10
377.7843307203
 20
359.9964064995
 10
377.6210697834
 20
359.6679455406
 10
377.4624511798
 20
359.3379487012
 10
377.3085565218
 20
359.0065857707
 10
377.1594649908
 20
358.6740272409
 10
377.015253297
 20
358.3404442193
 10
376.8759956401
 20
358.0060083402
 10
376.7417636704
 20
357.6708916768
 10
376.6126264527
 20
357.3352666526
 10
376.4886504304
 20
356.9993059526
 10
376.3698993914
 20
356.6631824344
 10
376.2564344351
 20
356.3270690398
 10
376.1483139414
 20
355.9911387048
 10
376.0455935401
 20
355.6555642717
 10
375.9483260827
 20
355.3205183995
 10
375.856561615
 20
354.9861734751
 10
375.7703473514
 20
354.6527015251
 10
375.6897276508
 20
354.3202741265
 10
375.6147439934
 20
353.9890623193
 10
375.5454349596
 20
353.6592365177
 10
375.4818362102
 20
353.330966423
 10
375.4239804678
 20
353.004420936
 10
375.3718975002
 20
352.6797680701
 10
375.3256141051
 20
352.3571748649
 10
375.2851540961
 20
352.0368073004
 10
375.2505382905
 20
351.7188302115
 10
375.2217844989
 20
351.4034072028
 10
375.1989075155
 20
351.0907005652
 10
375.1819191109
 20
350.7808711918
 10
375.1708280261
 20
350.4740784953
 10
375.1656399675
 20
350.170480326
 10
375.1663576045
 20
349.8702328904
 10
375.1729805679
 20
349.5734906713
 10
375.18550545
 20
349.2804063478
 10
375.2039258066
 20
348.9911307169
 10
375.2282321601
 20
348.7058126161
 10
375.2584120043
 20
348.4245988466
 10
375.2944498113
 20
348.1476340979
 10
375.336327039
 20
347.8750608733
 10
375.3840221408
 20
347.6070194165
 10
375.4375105766
 20
347.3436476397
 10
375.4967648259
 20
347.0850810521
 10
375.5617544011
 20
346.831452691
 10
375.632445864
 20
346.5828930527
 10
375.7088028426
 20
346.3395300254
 10
375.7907860499
 20
346.1014888238
 10
375.878353304
 20
345.8688919243
 10
375.9714595501
 20
345.6418590021
 10
376.0700568834
 20
345.4205068697
 10
376.1740945737
 20
345.2049494167
 10
376.2835190919
 20
344.9952975512
 10
376.398274137
 20
344.7916591429
 10
376.5183006656
 20
344.5941389672
 10
376.6435369218
 20
344.4028386518
 10
376.7739184695
 20
344.2178566242
 10
376.909378225
 20
344.0392880608
 10
377.0498464918
 20
343.8672248384
 10
377.1952509966
 20
343.7017554865
 10
377.3455169261
 20
343.542965142
 10
377.5005669659
 20
343.3909355055
 10
377.6603213399
 20
343.2457447988
 10
377.8246978518
 20
343.1074677251
 10
377.9936119268
 20
342.9761754305
 10
378.1669766557
 20
342.8519354672
 10
378.3447028392
 20
342.7348117587
 10
378.5266990341
 20
342.6248645674
 10
378.6693277836
 20
342.5453246927
  0
ENDSEC
  0
SECTION
  2
OBJECTS
  0
DICTIONARY
  5
C
330
0
100
AcDbDictionary
281
     1
  3
ACAD_GROUP
350
D
  3
ACAD_LAYOUT
350
1A
  3
ACAD_MLINESTYLE
350
17
  3
ACAD_PLOTSETTINGS
350
19
  3
ACAD_PLOTSTYLENAME
350
E
  3
ACAD_SCALELIST
350
47
  0
DICTIONARY
  5
D
102
{ACAD_REACTORS
330
C
102
}
330
C
100
AcDbDictionary
281
     1
  0
DICTIONARY
  5
1A
102
{ACAD_REACTORS
330
C
102
}
330
C
100
AcDbDictionary
281
     1
  3
Layout1
350
1E
  3
Layout2
350
26
  3
Model
350
22
  0
DICTIONARY
  5
17
102
{ACAD_REACTORS
330
C
102
}
330
C
100
AcDbDictionary
281
     1
  3
Standard
350
18
  0
DICTIONARY
  5
19
102
{ACAD_REACTORS
330
C
102
}
330
C
100
AcDbDictionary
281
     1
  0
ACDBDICTIONARYWDFLT
  5
E
102
{ACAD_REACTORS
330
C
102
}
330
C
100
AcDbDictionary
281
     1
  3
Normal
350
F
100
AcDbDictionaryWithDefault
340
F
  0
DICTIONARY
  5
47
102
{ACAD_REACTORS
330
C
102
}
330
C
100
AcDbDictionary
281
     1
  3
A0
350
48
  3
A1
350
49
  3
A2
350
4A
  3
A3
350
4B
  3
A4
350
4C
  3
A5
350
4D
  3
A6
350
4E
  3
A7
350
4F
  3
A8
350
50
  3
A9
350
51
  3
B0
350
52
  3
B1
350
53
  3
B2
350
54
  3
B3
350
55
  3
B4
350
56
  3
B5
350
57
  3
B6
350
58
  3
B7
350
59
  3
B8
350
5A
  3
B9
350
5B
  3
C0
350
5C
  3
C1
350
5D
  3
C2
350
5E
  3
C3
350
5F
  3
C4
350
60
  3
C5
350
61
  3
C6
350
62
  3
C7
350
63
  3
C8
350
64
  3
C9
350
65
  3
D0
350
66
  3
D1
350
67
  3
D2
350
68
  0
LAYOUT
  5
1E
102
{ACAD_REACTORS
330
1A
102
}
330
1A
100
AcDbPlotSettings
  1

  2
none_device
  4

  6

 40
0.0
 41
0.0
 42
0.0
 43
0.0
 44
0.0
 45
0.0
 46
0.0
 47
0.0
 48
0.0
 49
0.0
140
0.0
141
0.0
142
1.0
143
1.0
 70
   688
 72
     1
 73
     0
 74
     5
  7

 75
    16
147
1.0
148
0.0
149
0.0
100
AcDbLayout
  1
Layout1
 70
     1
 71
     1
 10
0.0
 20
0.0
 11
420.0
 21
297.0
 12
0.0
 22
0.0
 32
0.0
 14
1.0000000000E+20
 24
1.0000000000E+20
 34
1.0000000000E+20
 15
-1.0000000000E+20
 25
-1.0000000000E+20
 35
-1.0000000000E+20
146
0.0
 13
0.0
 23
0.0
 33
0.0
 16
1.0
 26
0.0
 36
0.0
 17
0.0
 27
1.0
 37
0.0
 76
     0
330
1B
  0
LAYOUT
  5
26
102
{ACAD_REACTORS
330
1A
102
}
330
1A
100
AcDbPlotSettings
  1

  2
none_device
  4

  6

 40
0.0
 41
0.0
 42
0.0
 43
0.0
 44
0.0
 45
0.0
 46
0.0
 47
0.0
 48
0.0
 49
0.0
140
0.0
141
0.0
142
1.0
143
1.0
 70
   688
 72
     1
 73
     0
 74
     5
  7

 75
    16
147
1.0
148
0.0
149
0.0
100
AcDbLayout
  1
Layout2
 70
     1
 71
     2
 10
0.0
 20
0.0
 11
0.0
 21
0.0
 12
0.0
 22
0.0
 32
0.0
 14
0.0
 24
0.0
 34
0.0
 15
0.0
 25
0.0
 35
0.0
146
0.0
 13
0.0
 23
0.0
 33
0.0
 16
1.0
 26
0.0
 36
0.0
 17
0.0
 27
1.0
 37
0.0
 76
     0
330
23
  0
LAYOUT
  5
22
102
{ACAD_REACTORS
330
1A
102
}
330
1A
100
AcDbPlotSettings
  1

  2
none_device
  4
Letter_(8.50_x_11.00_Inches)
  6

 40
6.35
 41
6.35
 42
6.35000508
 43
6.35000508
 44
215.9
 45
279.4
 46
0.0
 47
0.0
 48
0.0
 49
0.0
140
0.0
141
0.0
142
1.0
143
1.0
 70
  1712
 72
     1
 73
     0
 74
     0
  7

 75
     0
147
1.0
148
0.0
149
0.0
100
AcDbLayout
  1
Model
 70
     1
 71
     0
 10
0.0
 20
0.0
 11
495.0
 21
1543.0
 12
0.0
 22
0.0
 32
0.0
 14
0.0
 24
0.0
 34
0.0
 15
495.0
 25
1543.0
 35
0.0
146
0.0
 13
0.0
 23
0.0
 33
0.0
 16
1.0
 26
0.0
 36
0.0
 17
0.0
 27
1.0
 37
0.0
 76
     0
330
1F
331
29
  0
MLINESTYLE
  5
18
102
{ACAD_REACTORS
330
17
102
}
330
17
100
AcDbMlineStyle
  2
Standard
 70
     0
  3

 62
   256
 51
90.0
 52
90.0
 71
     2
 49
0.5
 62
   256
  6
BYLAYER
 49
-0.5
 62
   256
  6
BYLAYER
  0
ACDBPLACEHOLDER
  5
F
102
{ACAD_REACTORS
330
E
102
}
330
E
  0
SCALE
  5
48
102
{ACAD_REACTORS
330
47
102
}
330
47
100
AcDbScale
 70
     0
300
1:1
140
1.0
141
1.0
290
     1
  0
SCALE
  5
49
102
{ACAD_REACTORS
330
47
102
}
330
47
100
AcDbScale
 70
     0
300
1:2
140
1.0
141
2.0
290
     0
  0
SCALE
  5
4A
102
{ACAD_REACTORS
330
47
102
}
330
47
100
AcDbScale
 70
     0
300
1:4
140
1.0
141
4.0
290
     0
  0
SCALE
  5
4B
102
{ACAD_REACTORS
330
47
102
}
330
47
100
AcDbScale
 70
     0
300
1:5
140
1.0
141
5.0
290
     0
  0
SCALE
  5
4C
102
{ACAD_REACTORS
330
47
102
}
330
47
100
AcDbScale
 70
     0
300
1:8
140
1.0
141
8.0
290
     0
  0
SCALE
  5
4D
102
{ACAD_REACTORS
330
47
102
}
330
47
100
AcDbScale
 70
     0
300
1:10
140
1.0
141
10.0
290
     0
  0
SCALE
  5
4E
102
{ACAD_REACTORS
330
47
102
}
330
47
100
AcDbScale
 70
     0
300
1:16
140
1.0
141
16.0
290
     0
  0
SCALE
  5
4F
102
{ACAD_REACTORS
330
47
102
}
330
47
100
AcDbScale
 70
     0
300
1:20
140
1.0
141
20.0
290
     0
  0
SCALE
  5
50
102
{ACAD_REACTORS
330
47
102
}
330
47
100
AcDbScale
 70
     0
300
1:30
140
1.0
141
30.0
290
     0
  0
SCALE
  5
51
102
{ACAD_REACTORS
330
47
102
}
330
47
100
AcDbScale
 70
     0
300
1:40
140
1.0
141
40.0
290
     0
  0
SCALE
  5
52
102
{ACAD_REACTORS
330
47
102
}
330
47
100
AcDbScale
 70
     0
300
1:50
140
1.0
141
50.0
290
     0
  0
SCALE
  5
53
102
{ACAD_REACTORS
330
47
102
}
330
47
100
AcDbScale
 70
     0
300
1:100
140
1.0
141
100.0
290
     0
  0
SCALE
  5
54
102
{ACAD_REACTORS
330
47
102
}
330
47
100
AcDbScale
 70
     0
300
2:1
140
2.0
141
1.0
290
     0
  0
SCALE
  5
55
102
{ACAD_REACTORS
330
47
102
}
330
47
100
AcDbScale
 70
     0
300
4:1
140
4.0
141
1.0
290
     0
  0
SCALE
  5
56
102
{ACAD_REACTORS
330
47
102
}
330
47
100
AcDbScale
 70
     0
300
8:1
140
8.0
141
1.0
290
     0
  0
SCALE
  5
57
102
{ACAD_REACTORS
330
47
102
}
330
47
100
AcDbScale
 70
     0
300
10:1
140
10.0
141
1.0
290
     0
  0
SCALE
  5
58
102
{ACAD_REACTORS
330
47
102
}
330
47
100
AcDbScale
 70
     0
300
100:1
140
100.0
141
1.0
290
     0
  0
SCALE
  5
59
102
{ACAD_REACTORS
330
47
102
}
330
47
100
AcDbScale
 70
     0
300
1/128" = 1'-0"
140
0.0078125
141
12.0
290
     0
  0
SCALE
  5
5A
102
{ACAD_REACTORS
330
47
102
}
330
47
100
AcDbScale
 70
     0
300
1/64" = 1'-0"
140
0.015625
141
12.0
290
     0
  0
SCALE
  5
5B
102
{ACAD_REACTORS
330
47
102
}
330
47
100
AcDbScale
 70
     0
300
1/32" = 1'-0"
140
0.03125
141
12.0
290
     0
  0
SCALE
  5
5C
102
{ACAD_REACTORS
330
47
102
}
330
47
100
AcDbScale
 70
     0
300
1/16" = 1'-0"
140
0.0625
141
12.0
290
     0
  0
SCALE
  5
5D
102
{ACAD_REACTORS
330
47
102
}
330
47
100
AcDbScale
 70
     0
300
3/32" = 1'-0"
140
0.09375
141
12.0
290
     0
  0
SCALE
  5
5E
102
{ACAD_REACTORS
330
47
102
}
330
47
100
AcDbScale
 70
     0
300
1/8" = 1'-0"
140
0.125
141
12.0
290
     0
  0
SCALE
  5
5F
102
{ACAD_REACTORS
330
47
102
}
330
47
100
AcDbScale
 70
     0
300
3/16" = 1'-0"
140
0.1875
141
12.0
290
     0
  0
SCALE
  5
60
102
{ACAD_REACTORS
330
47
102
}
330
47
100
AcDbScale
 70
     0
300
1/4" = 1'-0"
140
0.25
141
12.0
290
     0
  0
SCALE
  5
61
102
{ACAD_REACTORS
330
47
102
}
330
47
100
AcDbScale
 70
     0
300
3/8" = 1'-0"
140
0.375
141
12.0
290
     0
  0
SCALE
  5
62
102
{ACAD_REACTORS
330
47
102
}
330
47
100
AcDbScale
 70
     0
300
1/2" = 1'-0"
140
0.5
141
12.0
290
     0
  0
SCALE
  5
63
102
{ACAD_REACTORS
330
47
102
}
330
47
100
AcDbScale
 70
     0
300
3/4" = 1'-0"
140
0.75
141
12.0
290
     0
  0
SCALE
  5
64
102
{ACAD_REACTORS
330
47
102
}
330
47
100
AcDbScale
 70
     0
300
1" = 1'-0"
140
1.0
141
12.0
290
     0
  0
SCALE
  5
65
102
{ACAD_REACTORS
330
47
102
}
330
47
100
AcDbScale
 70
     0
300
1-1/2" = 1'-0"
140
1.5
141
12.0
290
     0
  0
SCALE
  5
66
102
{ACAD_REACTORS
330
47
102
}
330
47
100
AcDbScale
 70
     0
300
3" = 1'-0"
140
3.0
141
12.0
290
     0
  0
SCALE
  5
67
102
{ACAD_REACTORS
330
47
102
}
330
47
100
AcDbScale
 70
     0
300
6" = 1'-0"
140
6.0
141
12.0
290
     0
  0
SCALE
  5
68
102
{ACAD_REACTORS
330
47
102
}
330
47
100
AcDbScale
 70
     0
300
1'-0" = 1'-0"
140
12.0
141
12.0
290
     0
  0
ENDSEC
  0
EOF
