  0
SECTION
  2
HEADER
  9
$ACADVER
  1
AC1015
  9
$ACADMAINTVER
 70
     6
  9
$DWGCODEPAGE
  3
ANSI_1252
  9
$INSBASE
 10
0.0
 20
0.0
 30
0.0
  9
$EXTMIN
 10
0.0
 20
0.0
 30
0.0
  9
$EXTMAX
 10
1050.0
 20
605.0
 30
0.0
  9
$LIMMIN
 10
0.0
 20
0.0
  9
$LIMMAX
 10
1050.0
 20
605.0
  9
$ORTHOMODE
 70
     0
  9
$REGENMODE
 70
     1
  9
$FILLMODE
 70
     1
  9
$QTEXTMODE
 70
     0
  9
$MIRRTEXT
 70
     1
  9
$LTSCALE
 40
1.0
  9
$ATTMODE
 70
     1
  9
$TEXTSIZE
 40
3.5
  9
$TRACEWID
 40
1.0
  9
$TEXTSTYLE
  7
Standard
  9
$CLAYER
  8
0
  9
$CELTYPE
  6
ByLayer
  9
$CECOLOR
 62
   256
  9
$CELTSCALE
 40
1.0
  9
$DISPSILH
 70
     0
  9
$DIMSCALE
 40
1.0
  9
$DIMASZ
 40
3.302
  9
$DIMEXO
 40
1.0
  9
$DIMDLI
 40
3.75
  9
$DIMRND
 40
0.0
  9
$DIMDLE
 40
0.0
  9
$DIMEXE
 40
1.0
  9
$DIMTP
 40
0.0
  9
$DIMTM
 40
0.0
  9
$DIMTXT
 40
2.8
  9
$DIMCEN
 40
2.5
  9
$DIMTSZ
 40
0.0
  9
$DIMTOL
 70
     0
  9
$DIMLIM
 70
     0
  9
$DIMTIH
 70
     1
  9
$DIMTOH
 70
     1
  9
$DIMSE1
 70
     0
  9
$DIMSE2
 70
     0
  9
$DIMTAD
 70
     1
  9
$DIMZIN
 70
     0
  9
$DIMBLK
  1

  9
$DIMASO
 70
     1
  9
$DIMSHO
 70
     1
  9
$DIMPOST
  1

  9
$DIMAPOST
  1

  9
$DIMALT
 70
     0
  9
$DIMALTD
 70
     3
  9
$DIMALTF
 40
0.0393700787
  9
$DIMLFAC
 40
1.0
  9
$DIMTOFL
 70
     1
  9
$DIMTVP
 40
0.0
  9
$DIMTIX
 70
     0
  9
$DIMSOXD
 70
     0
  9
$DIMSAH
 70
     0
  9
$DIMBLK1
  1

  9
$DIMBLK2
  1

  9
$DIMSTYLE
  2
ISO-25
  9
$DIMCLRD
 70
     0
  9
$DIMCLRE
 70
     0
  9
$DIMCLRT
 70
     0
  9
$DIMTFAC
 40
1.0
  9
$DIMGAP
 40
1.524
  9
$DIMJUST
 70
     0
  9
$DIMSD1
 70
     0
  9
$DIMSD2
 70
     0
  9
$DIMTOLJ
 70
     0
  9
$DIMTZIN
 70
     0
  9
$DIMALTZ
 70
     0
  9
$DIMALTTZ
 70
     0
  9
$DIMUPT
 70
     0
  9
$DIMDEC
 70
     2
  9
$DIMTDEC
 70
     2
  9
$DIMALTU
 70
     2
  9
$DIMALTTD
 70
     3
  9
$DIMTXSTY
  7
Standard
  9
$DIMAUNIT
 70
     0
  9
$DIMADEC
 70
     2
  9
$DIMALTRND
 40
0.0
  9
$DIMAZIN
 70
     0
  9
$DIMDSEP
 70
    44
  9
$DIMATFIT
 70
     3
  9
$DIMFRAC
 70
     0
  9
$DIMLDRBLK
  1

  9
$DIMLUNIT
 70
     2
  9
$DIMLWD
 70
    -2
  9
$DIMLWE
 70
    -2
  9
$DIMTMOVE
 70
     0
  9
$LUNITS
 70
     2
  9
$LUPREC
 70
     2
  9
$SKETCHINC
 40
1.0
  9
$FILLETRAD
 40
10.0
  9
$AUNITS
 70
     0
  9
$AUPREC
 70
     2
  9
$MENU
  1
.
  9
$ELEVATION
 40
0.0
  9
$PELEVATION
 40
0.0
  9
$THICKNESS
 40
0.0
  9
$LIMCHECK
 70
     0
  9
$CHAMFERA
 40
0.0
  9
$CHAMFERB
 40
0.0
  9
$CHAMFERC
 40
0.0
  9
$CHAMFERD
 40
0.0
  9
$SKPOLY
 70
     0
  9
$TDCREATE
 40
2459369.39936794
  9
$TDUCREATE
 40
2459369.27436794
  9
$TDUPDATE
 40
2459369.399368553
  9
$TDUUPDATE
 40
2459369.274368553
  9
$TDINDWG
 40
0.0000000116
  9
$TDUSRTIMER
 40
0.0000000116
  9
$USRTIMER
 70
     1
  9
$ANGBASE
 50
0.0
  9
$ANGDIR
 70
     0
  9
$PDMODE
 70
     0
  9
$PDSIZE
 40
-1.0
  9
$PLINEWID
 40
0.0
  9
$SPLFRAME
 70
     0
  9
$SPLINETYPE
 70
     6
  9
$SPLINESEGS
 70
     8
  9
$HANDSEED
  5
11C
  9
$SURFTAB1
 70
     6
  9
$SURFTAB2
 70
     6
  9
$SURFTYPE
 70
     6
  9
$SURFU
 70
     6
  9
$SURFV
 70
     6
  9
$UCSBASE
  2

  9
$UCSNAME
  2

  9
$UCSORG
 10
0.0
 20
0.0
 30
0.0
  9
$UCSXDIR
 10
1.0
 20
0.0
 30
0.0
  9
$UCSYDIR
 10
0.0
 20
1.0
 30
0.0
  9
$UCSORTHOREF
  2

  9
$UCSORTHOVIEW
 70
     0
  9
$UCSORGTOP
 10
0.0
 20
0.0
 30
0.0
  9
$UCSORGBOTTOM
 10
0.0
 20
0.0
 30
0.0
  9
$UCSORGLEFT
 10
0.0
 20
0.0
 30
0.0
  9
$UCSORGRIGHT
 10
0.0
 20
0.0
 30
0.0
  9
$UCSORGFRONT
 10
0.0
 20
0.0
 30
0.0
  9
$UCSORGBACK
 10
0.0
 20
0.0
 30
0.0
  9
$PUCSBASE
  2

  9
$PUCSNAME
  2

  9
$PUCSORG
 10
0.0
 20
0.0
 30
0.0
  9
$PUCSXDIR
 10
1.0
 20
0.0
 30
0.0
  9
$PUCSYDIR
 10
0.0
 20
1.0
 30
0.0
  9
$PUCSORTHOREF
  2

  9
$PUCSORTHOVIEW
 70
     0
  9
$PUCSORGTOP
 10
0.0
 20
0.0
 30
0.0
  9
$PUCSORGBOTTOM
 10
0.0
 20
0.0
 30
0.0
  9
$PUCSORGLEFT
 10
0.0
 20
0.0
 30
0.0
  9
$PUCSORGRIGHT
 10
0.0
 20
0.0
 30
0.0
  9
$PUCSORGFRONT
 10
0.0
 20
0.0
 30
0.0
  9
$PUCSORGBACK
 10
0.0
 20
0.0
 30
0.0
  9
$USERI1
 70
     0
  9
$USERI2
 70
     0
  9
$USERI3
 70
     0
  9
$USERI4
 70
     0
  9
$USERI5
 70
     0
  9
$USERR1
 40
0.0
  9
$USERR2
 40
0.0
  9
$USERR3
 40
0.0
  9
$USERR4
 40
0.0
  9
$USERR5
 40
0.0
  9
$WORLDVIEW
 70
     1
  9
$SHADEDGE
 70
     3
  9
$SHADEDIF
 70
    70
  9
$TILEMODE
 70
     1
  9
$MAXACTVP
 70
    64
  9
$PINSBASE
 10
0.0
 20
0.0
 30
0.0
  9
$PLIMCHECK
 70
     0
  9
$PEXTMIN
 10
1.0000000000E+20
 20
1.0000000000E+20
 30
1.0000000000E+20
  9
$PEXTMAX
 10
-1.0000000000E+20
 20
-1.0000000000E+20
 30
-1.0000000000E+20
  9
$PLIMMIN
 10
0.0
 20
0.0
  9
$PLIMMAX
 10
420.0
 20
297.0
  9
$UNITMODE
 70
     0
  9
$VISRETAIN
 70
     1
  9
$PLINEGEN
 70
     0
  9
$PSLTSCALE
 70
     1
  9
$TREEDEPTH
 70
  3020
  9
$CMLSTYLE
  2
Standard
  9
$CMLJUST
 70
     0
  9
$CMLSCALE
 40
20.0
  9
$PROXYGRAPHICS
 70
     1
  9
$MEASUREMENT
 70
     1
  9
$CELWEIGHT
370
    -1
  9
$ENDCAPS
280
     0
  9
$JOINSTYLE
280
     0
  9
$LWDISPLAY
290
     1
  9
$INSUNITS
 70
     4
  9
$HYPERLINKBASE
  1

  9
$STYLESHEET
  1

  9
$XEDIT
290
     1
  9
$CEPSNTYPE
380
     0
  9
$PSTYLEMODE
290
     1
  9
$FINGERPRINTGUID
  2
{699ACBA3-30EE-4235-952A-C26D9B0F5132}
  9
$VERSIONGUID
  2
{FAEB1C32-E019-11D5-929B-00C0DF256EC4}
  9
$EXTNAMES
290
     1
  9
$PSVPSCALE
 40
0.0
  9
$OLESTARTUP
290
     0
  0
ENDSEC
  0
SECTION
  2
CLASSES
  0
CLASS
  1
ACDBDICTIONARYWDFLT
  2
AcDbDictionaryWithDefault
  3
ObjectDBX Classes
 90
        0
280
     0
281
     0
  0
CLASS
  1
VISUALSTYLE
  2
AcDbVisualStyle
  3
ObjectDBX Classes
 90
     4095
280
     0
281
     0
  0
CLASS
  1
MATERIAL
  2
AcDbMaterial
  3
ObjectDBX Classes
 90
     1153
280
     0
281
     0
  0
CLASS
  1
SCALE
  2
AcDbScale
  3
ObjectDBX Classes
 90
     1153
280
     0
281
     0
  0
CLASS
  1
TABLESTYLE
  2
AcDbTableStyle
  3
ObjectDBX Classes
 90
     4095
280
     0
281
     0
  0
CLASS
  1
MLEADERSTYLE
  2
AcDbMLeaderStyle
  3
ACDB_MLEADERSTYLE_CLASS
 90
     4095
280
     0
281
     0
  0
CLASS
  1
SUN
  2
AcDbSun
  3
SCENEOE
 90
     1153
280
     0
281
     0
  0
CLASS
  1
ACDBPLACEHOLDER
  2
AcDbPlaceHolder
  3
ObjectDBX Classes
 90
        0
280
     0
281
     0
  0
CLASS
  1
LAYOUT
  2
AcDbLayout
  3
ObjectDBX Classes
 90
        0
280
     0
281
     0
  0
ENDSEC
  0
SECTION
  2
TABLES
  0
TABLE
  2
VPORT
  5
8
330
0
100
AcDbSymbolTable
 70
     1
  0
VPORT
  5
29
330
8
100
AcDbSymbolTableRecord
100
AcDbViewportTableRecord
  2
*Active
 70
     0
 10
0.0
 20
0.0
 11
1.0
 21
1.0
 12
525.0
 22
302.5
 13
0.0
 23
0.0
 14
10.0
 24
10.0
 15
10.0
 25
10.0
 16
0.0
 26
0.0
 36
1.0
 17
0.0
 27
0.0
 37
0.0
 40
605.0
 41
1.7355371901
 42
50.0
 43
0.0
 44
0.0
 50
0.0
 51
0.0
 71
     0
 72
  2000
 73
     1
 74
     3
 75
     0
 76
     0
 77
     0
 78
     0
281
     0
 65
     1
110
0.0
120
0.0
130
0.0
111
1.0
121
0.0
131
0.0
112
0.0
122
1.0
132
0.0
 79
     0
146
0.0
  0
ENDTAB
  0
TABLE
  2
LTYPE
  5
5
330
0
100
AcDbSymbolTable
 70
     6
  0
LTYPE
  5
14
330
5
100
AcDbSymbolTableRecord
100
AcDbLinetypeTableRecord
  2
ByBlock
 70
     0
  3

 72
    65
 73
     0
 40
0.0
  0
LTYPE
  5
15
330
5
100
AcDbSymbolTableRecord
100
AcDbLinetypeTableRecord
  2
ByLayer
 70
     0
  3

 72
    65
 73
     0
 40
0.0
  0
LTYPE
  5
16
330
5
100
AcDbSymbolTableRecord
100
AcDbLinetypeTableRecord
  2
Continuous
 70
     0
  3
Solid line
 72
    65
 73
     0
 40
0.0
  0
LTYPE
  5
6E
330
5
100
AcDbSymbolTableRecord
100
AcDbLinetypeTableRecord
  2
HIDDEN
 70
     0
  3
Hidden __ __ __ __ __ __ __ __ __ __ __ __ __ __
 72
    65
 73
     2
 40
1.905
 49
1.27
 74
     0
 49
-0.635
 74
     0
  0
LTYPE
  5
6F
330
5
100
AcDbSymbolTableRecord
100
AcDbLinetypeTableRecord
  2
PHANTOM
 70
     0
  3
Phantom ______  __  __  ______  __  __  ______
 72
    65
 73
     6
 40
12.7
 49
6.35
 74
     0
 49
-1.27
 74
     0
 49
1.27
 74
     0
 49
-1.27
 74
     0
 49
1.27
 74
     0
 49
-1.27
 74
     0
  0
LTYPE
  5
70
330
5
100
AcDbSymbolTableRecord
100
AcDbLinetypeTableRecord
  2
CENTER
 70
     0
  3
Center ____ _ ____ _ ____ _ ____ _ ____ _ ____
 72
    65
 73
     4
 40
10.16
 49
6.35
 74
     0
 49
-1.27
 74
     0
 49
1.27
 74
     0
 49
-1.27
 74
     0
  0
LTYPE
  5
71
330
5
100
AcDbSymbolTableRecord
100
AcDbLinetypeTableRecord
  2
CENTERX2
 70
     0
  3
Center (2x) ________  __  ________  __  _____
 72
    65
 73
     4
 40
20.32
 49
12.7
 74
     0
 49
-2.54
 74
     0
 49
2.54
 74
     0
 49
-2.54
 74
     0
  0
LTYPE
  5
72
330
5
100
AcDbSymbolTableRecord
100
AcDbLinetypeTableRecord
  2
DOT2
 70
     0
  3
Dot (.5x) ........................................
 72
    65
 73
     2
 40
0.635
 49
0.0
 74
     0
 49
-0.635
 74
     0
  0
ENDTAB
  0
TABLE
  2
LAYER
  5
2
330
0
100
AcDbSymbolTable
 70
     2
  0
LAYER
  5
10
330
2
100
AcDbSymbolTableRecord
100
AcDbLayerTableRecord
  2
0
 70
     0
 62
     7
  6
Continuous
370
    -3
390
F
  0
LAYER
  5
73
330
2
100
AcDbSymbolTableRecord
100
AcDbLayerTableRecord
  2
FORMAT
 70
     0
 62
     7
  6
Continuous
370
    -3
390
F
  0
ENDTAB
  0
TABLE
  2
STYLE
  5
3
330
0
100
AcDbSymbolTable
 70
     2
  0
STYLE
  5
11
330
3
100
AcDbSymbolTableRecord
100
AcDbTextStyleTableRecord
  2
Standard
 70
     0
 40
0.0
 41
1.0
 50
0.0
 71
     0
 42
3.5
  3
txt
  4

  0
STYLE
  5
74
330
3
100
AcDbSymbolTableRecord
100
AcDbTextStyleTableRecord
  2
SLDTEXTSTYLE0
 70
     0
 40
0.0
 41
0.605
 50
0.0
 71
     0
 42
3.5
  3
TXT
  4

  0
ENDTAB
  0
TABLE
  2
VIEW
  5
6
330
0
100
AcDbSymbolTable
 70
     0
  0
ENDTAB
  0
TABLE
  2
UCS
  5
7
330
0
100
AcDbSymbolTable
 70
     0
  0
ENDTAB
  0
TABLE
  2
APPID
  5
9
330
0
100
AcDbSymbolTable
 70
     1
  0
APPID
  5
12
330
9
100
AcDbSymbolTableRecord
100
AcDbRegAppTableRecord
  2
ACAD
 70
     0
  0
ENDTAB
  0
TABLE
  2
DIMSTYLE
  5
A
330
0
100
AcDbSymbolTable
 70
     1
100
AcDbDimStyleTable
  0
DIMSTYLE
105
27
330
A
100
AcDbSymbolTableRecord
100
AcDbDimStyleTableRecord
  2
ISO-25
 70
     0
 41
2.5
 42
0.625
 43
3.75
 44
1.25
 73
     0
 74
     0
 77
     1
 78
     8
140
2.5
141
2.5
143
0.0393700787
147
0.625
171
     3
172
     1
178
     0
271
     2
272
     2
274
     3
278
    44
283
     0
284
     8
340
11
  0
ENDTAB
  0
TABLE
  2
BLOCK_RECORD
  5
1
330
0
100
AcDbSymbolTable
 70
     1
  0
BLOCK_RECORD
  5
1F
330
1
100
AcDbSymbolTableRecord
100
AcDbBlockTableRecord
  2
*Model_Space
340
22
  0
BLOCK_RECORD
  5
1B
330
1
100
AcDbSymbolTableRecord
100
AcDbBlockTableRecord
  2
*Paper_Space
340
1E
  0
BLOCK_RECORD
  5
23
330
1
100
AcDbSymbolTableRecord
100
AcDbBlockTableRecord
  2
*Paper_Space0
340
26
  0
ENDTAB
  0
ENDSEC
  0
SECTION
  2
BLOCKS
  0
BLOCK
  5
20
330
1F
100
AcDbEntity
  8
0
100
AcDbBlockBegin
  2
*Model_Space
 70
     0
 10
0.0
 20
0.0
 30
0.0
  3
*Model_Space
  1

  0
ENDBLK
  5
21
330
1F
100
AcDbEntity
  8
0
100
AcDbBlockEnd
  0
BLOCK
  5
1C
330
1B
100
AcDbEntity
 67
     1
  8
0
100
AcDbBlockBegin
  2
*Paper_Space
 70
     0
 10
0.0
 20
0.0
 30
0.0
  3
*Paper_Space
  1

  0
ENDBLK
  5
1D
330
1B
100
AcDbEntity
 67
     1
  8
0
100
AcDbBlockEnd
  0
BLOCK
  5
24
330
23
100
AcDbEntity
  8
0
100
AcDbBlockBegin
  2
*Paper_Space0
 70
     0
 10
0.0
 20
0.0
 30
0.0
  3
*Paper_Space0
  1

  0
ENDBLK
  5
25
330
23
100
AcDbEntity
  8
0
100
AcDbBlockEnd
  0
ENDSEC
  0
SECTION
  2
ENTITIES
  0
MTEXT
  5
75
330
1F
100
AcDbEntity
  8
0
  6
Continuous
 62
     7
370
     0
100
AcDbMText
 10
7.2782978723
 20
22.1884790273
 30
0.0
 40
10.0
 41
0.0
 71
     1
 72
     1
  1
1:1
  7
SLDTEXTSTYLE0
 73
     1
 44
1.0
  0
ARC
  5
76
330
1F
100
AcDbEntity
  8
0
  6
Continuous
 62
     7
370
    30
100
AcDbCircle
 10
511.4
 20
443.3738997765
 30
0.0
 40
0.3999999999999773
100
AcDbArc
 50
180.0
 51
270.0
  0
ARC
  5
77
330
1F
100
AcDbEntity
  8
0
  6
Continuous
 62
     7
370
    30
100
AcDbCircle
 10
538.6
 20
443.3738997765
 30
0.0
 40
0.4000000000000909
100
AcDbArc
 50
270.0
 51
0.0
  0
LINE
  5
78
330
1F
100
AcDbEntity
  8
0
  6
Continuous
 62
     7
370
    30
100
AcDbLine
 10
539.0
 20
443.3738997765
 30
0.0
 11
539.0
 21
451.9738997765
 31
0.0
  0
LINE
  5
79
330
1F
100
AcDbEntity
  8
0
  6
Continuous
 62
     7
370
    30
100
AcDbLine
 10
511.0
 20
451.9738997765
 30
0.0
 11
511.0
 21
443.3738997765
 31
0.0
  0
LINE
  5
7A
330
1F
100
AcDbEntity
  8
0
  6
Continuous
 62
     7
370
    30
100
AcDbLine
 10
511.0
 20
492.9738997765
 30
0.0
 11
511.0
 21
451.9738997765
 31
0.0
  0
LINE
  5
7B
330
1F
100
AcDbEntity
  8
0
  6
Continuous
 62
     7
370
    30
100
AcDbLine
 10
539.0
 20
451.9738997765
 30
0.0
 11
539.0
 21
492.9738997765
 31
0.0
  0
ARC
  5
7C
330
1F
100
AcDbEntity
  8
0
  6
Continuous
 62
     7
370
    30
100
AcDbCircle
 10
538.55
 20
435.6738997765
 30
0.0
 40
0.2000000000000455
100
AcDbArc
 50
270.0
 51
0.0
  0
ARC
  5
7D
330
1F
100
AcDbEntity
  8
0
  6
Continuous
 62
     7
370
    30
100
AcDbCircle
 10
511.45
 20
435.6738997765
 30
0.0
 40
0.1999999999999886
100
AcDbArc
 50
180.0
 51
270.0
  0
ARC
  5
7E
330
1F
100
AcDbEntity
  8
0
  6
Continuous
 62
     7
370
    30
100
AcDbCircle
 10
511.45
 20
442.7738997765
 30
0.0
 40
0.1999999999999886
100
AcDbArc
 50
90.0
 51
180.0
  0
ARC
  5
7F
330
1F
100
AcDbEntity
  8
0
  6
Continuous
 62
     7
370
    30
100
AcDbCircle
 10
538.55
 20
442.7738997765
 30
0.0
 40
0.1999999999999318
100
AcDbArc
 50
0.0
 51
90.0
  0
LINE
  5
80
330
1F
100
AcDbEntity
  8
0
  6
Continuous
 62
     7
370
    30
100
AcDbLine
 10
511.25
 20
442.7738997765
 30
0.0
 11
511.25
 21
435.6738997765
 31
0.0
  0
LINE
  5
81
330
1F
100
AcDbEntity
  8
0
  6
Continuous
 62
     7
370
    30
100
AcDbLine
 10
538.75
 20
435.6738997765
 30
0.0
 11
538.75
 21
442.7738997765
 31
0.0
  0
ARC
  5
82
330
1F
100
AcDbEntity
  8
0
  6
Continuous
 62
     7
370
    30
100
AcDbCircle
 10
525.0
 20
492.9738997765
 30
0.0
 40
85.0001713375
100
AcDbArc
 50
274.0300901872
 51
265.9699223113
  0
LINE
  5
83
330
1F
100
AcDbEntity
  8
0
  6
Continuous
 62
     7
370
    30
100
AcDbLine
 10
539.4092962577
 20
438.8877026967
 30
0.0
 11
539.4794966234
 21
438.9198646396
 31
0.0
  0
LINE
  5
84
330
1F
100
AcDbEntity
  8
0
  6
Continuous
 62
     7
370
    30
100
AcDbLine
 10
510.5582405997
 20
438.9198646396
 30
0.0
 11
510.6284409653
 21
438.8877026967
 31
0.0
  0
SPLINE
  5
85
330
1F
100
AcDbEntity
  8
0
  6
Continuous
 62
     7
370
    30
100
AcDbSpline
210
0.0
220
0.0
230
1.0
 70
    24
 71
     3
 72
    71
 73
    67
 74
     0
 42
0.000000001
 43
0.00000001
 40
0.0
 40
0.0
 40
0.0
 40
0.0
 40
0.0182918293390742
 40
0.0365519061351986
 40
0.0547952727638492
 40
0.0730370129388122
 40
0.0845094231587868
 40
0.0959908937580394
 40
0.1074851573520598
 40
0.1191447872189607
 40
0.1313352853141908
 40
0.1516183413869193
 40
0.1718768930344258
 40
0.1921316143676844
 40
0.2000925796215723
 40
0.2080573993079653
 40
0.2160273243359861
 40
0.2240036032127679
 40
0.2319874814646247
 40
0.2399802010651813
 40
0.2560909471469978
 40
0.2721723787248823
 40
0.2882347514674228
 40
0.3042883575698379
 40
0.3203435060869771
 40
0.3364105031047196
 40
0.3524996319398626
 40
0.3686211335580208
 40
0.3874243660769437
 40
0.4061887538312492
 40
0.4249306189213739
 40
0.4436663423114204
 40
0.4624123210660559
 40
0.4811849253771172
 40
0.5000004559409689
 40
0.5164558816448934
 40
0.5328800084677291
 40
0.5492837610306477
 40
0.5656781046849579
 40
0.5820740236596089
 40
0.5984824990198704
 40
0.6149144866577281
 40
0.6313808955336947
 40
0.6494226399692757
 40
0.6674291526514107
 40
0.6854148530810645
 40
0.7033942108337372
 40
0.7128145312078652
 40
0.7222391661622898
 40
0.7316701932297935
 40
0.7411096857226543
 40
0.7505597113812577
 40
0.7600223310409925
 40
0.7794140373246173
 40
0.7987688433466714
 40
0.8181046827213796
 40
0.8374395418393318
 40
0.8526424738299296
 40
0.8678646138498903
 40
0.8831146361886713
 40
0.8975110233534068
 40
0.9180094562118234
 40
0.9384862362177119
 40
0.958962703623231
 40
0.9794601996569089
 40
0.9999999999999999
 40
0.9999999999999999
 40
0.9999999999999999
 40
0.9999999999999999
 10
525.0000000000064
 20
442.9738997765481
 30
0.0
 10
525.1302564892309
 20
442.9738997765481
 30
0.0
 10
525.390543357175
 20
442.9738997765481
 30
0.0
 10
525.7804226605361
 20
442.9738997765481
 30
0.0
 10
526.1693026739198
 20
442.9738997765481
 30
0.0
 10
526.5091260803567
 20
442.9738997765481
 30
0.0
 10
526.800237697019
 20
442.9738997765481
 30
0.0
 10
527.0430830590344
 20
442.9738997765481
 30
0.0
 10
527.2865793907274
 20
442.9738997765481
 30
0.0
 10
527.5342963270344
 20
442.9738997765481
 30
0.0
 10
527.8425223108342
 20
442.9738997765481
 30
0.0
 10
528.2088651119562
 20
442.9738997765481
 30
0.0
 10
528.627963673622
 20
442.9738997765481
 30
0.0
 10
528.9591853331231
 20
442.9738997765481
 30
0.0
 10
529.204684471201
 20
442.9738997765481
 30
0.0
 10
529.3661679921312
 20
442.9738997765481
 30
0.0
 10
529.5270695487178
 20
442.9738997765481
 30
0.0
 10
529.6873896077162
 20
442.9738997765481
 30
0.0
 10
529.8471282676132
 20
442.9738997765481
 30
0.0
 10
530.0600987650189
 20
442.9738997765481
 30
0.0
 10
530.3248486410694
 20
442.9738997765481
 30
0.0
 10
530.6393682147853
 20
442.9738997765481
 30
0.0
 10
530.9499183310393
 20
442.9738997765481
 30
0.0
 10
531.2564971139316
 20
442.9738997765481
 30
0.0
 10
531.5591045743818
 20
442.9738997765481
 30
0.0
 10
531.8577402427594
 20
442.9738997765481
 30
0.0
 10
532.1524038088655
 20
442.9738997765481
 30
0.0
 10
532.4589541971728
 20
442.9738997765481
 30
0.0
 10
532.775905649314
 20
442.9738997765481
 30
0.0
 10
533.1015738254953
 20
442.9738997765481
 30
0.0
 10
533.4198051290119
 20
442.9738997765481
 30
0.0
 10
533.7305977023121
 20
442.9738997765481
 30
0.0
 10
534.0339514072268
 20
442.9738997765482
 30
0.0
 10
534.32986441928
 20
442.9738997765481
 30
0.0
 10
534.6059802821328
 20
442.9738997765481
 30
0.0
 10
534.8629583352551
 20
442.9738997765481
 30
0.0
 10
535.1013932257043
 20
442.9738997765482
 30
0.0
 10
535.3328083951312
 20
442.9738997765482
 30
0.0
 10
535.5572031805808
 20
442.9738997765482
 30
0.0
 10
535.7745773012126
 20
442.9738997765481
 30
0.0
 10
535.9849306750939
 20
442.9738997765482
 30
0.0
 10
536.1882622708139
 20
442.9738997765481
 30
0.0
 10
536.3906540975718
 20
442.9738997765482
 30
0.0
 10
536.590906353211
 20
442.9738997765481
 30
0.0
 10
536.7876828158959
 20
442.9738997765482
 30
0.0
 10
536.9747907062279
 20
442.9738997765482
 30
0.0
 10
537.1240553455067
 20
442.9738997765482
 30
0.0
 10
537.2400923969202
 20
442.9738997765481
 30
0.0
 10
537.3265012925955
 20
442.9738997765482
 30
0.0
 10
537.4102583828621
 20
442.9738997765482
 30
0.0
 10
537.4913640282655
 20
442.9738997765482
 30
0.0
 10
537.5698178028775
 20
442.9738997765481
 30
0.0
 10
537.6720933204043
 20
442.9738997765482
 30
0.0
 10
537.7936534074844
 20
442.9738997765481
 30
0.0
 10
537.9282750448175
 20
442.9738997765482
 30
0.0
 10
538.0507910557785
 20
442.9738997765482
 30
0.0
 10
538.153304813234
 20
442.9738997765482
 30
0.0
 10
538.2386533293976
 20
442.9738997765482
 30
0.0
 10
538.3094248195077
 20
442.9738997765482
 30
0.0
 10
538.3714947812753
 20
442.9738997765482
 30
0.0
 10
538.4327643948125
 20
442.9738997765482
 30
0.0
 10
538.4897545983384
 20
442.9738997765482
 30
0.0
 10
538.539068118777
 20
442.9738997765482
 30
0.0
 10
538.5740380337817
 20
442.9738997765482
 30
0.0
 10
538.595937298455
 20
442.9738997765482
 30
0.0
 10
538.5986448357786
 20
442.9738997765482
 30
0.0
 10
538.6000000000062
 20
442.9738997765482
 30
0.0
  0
SPLINE
  5
86
330
1F
100
AcDbEntity
  8
0
  6
Continuous
 62
     7
370
    30
100
AcDbSpline
210
0.0
220
0.0
230
1.0
 70
    24
 71
     3
 72
    71
 73
    67
 74
     0
 42
0.000000001
 43
0.00000001
 40
0.0
 40
0.0
 40
0.0
 40
0.0
 40
0.018288564571476
 40
0.0365465807431114
 40
0.0547891024180343
 40
0.0730312218588478
 40
0.0845044997233254
 40
0.0959873246201704
 40
0.1074834294413789
 40
0.1191448391170451
 40
0.1313353355508159
 40
0.1516183888628066
 40
0.1718769377575341
 40
0.1921316563431808
 40
0.2000926205184144
 40
0.2080574391263416
 40
0.2160273630759245
 40
0.224003640874114
 40
0.2319875180470647
 40
0.2399802365682216
 40
0.2560909804511733
 40
0.2721724098377888
 40
0.2882347803952804
 40
0.3042883843174681
 40
0.3203435306578092
 40
0.3364105255007662
 40
0.3524996521617311
 40
0.3686211516048996
 40
0.3874243815637131
 40
0.4061887667660083
 40
0.4249306293100509
 40
0.4436663501577368
 40
0.4624123263715353
 40
0.4811849281410756
 40
0.5000004561605114
 40
0.5164558796310511
 40
0.5328800042248839
 40
0.5492837545616932
 40
0.5656780959912979
 40
0.5820740127411508
 40
0.5984824858750329
 40
0.6149144712834406
 40
0.6313808779254065
 40
0.6494226199046147
 40
0.6674291301378258
 40
0.6854148281240433
 40
0.7033941834368039
 40
0.7128145025335925
 40
0.7222391362108187
 40
0.7316701620009807
 40
0.7411096532160668
 40
0.7505596775961859
 40
0.7600222959764348
 40
0.7794139996269766
 40
0.7987688030215576
 40
0.8181046397720176
 40
0.8374394962665219
 40
0.8526424261948017
 40
0.8678645641502857
 40
0.8831145844212717
 40
0.897513613734764
 40
0.9180146156932524
 40
0.9384924128430198
 40
0.9589683513975013
 40
0.979463783377376
 40
0.9999999999999999
 40
0.9999999999999999
 40
0.9999999999999999
 40
0.9999999999999999
 10
511.4000000000062
 20
442.973899776548
 30
0.0
 10
511.4010674370018
 20
442.973899776548
 30
0.0
 10
511.4032005279938
 20
442.973899776548
 30
0.0
 10
511.4205690572331
 20
442.973899776548
 30
0.0
 10
511.4483166052449
 20
442.973899776548
 30
0.0
 10
511.4826098705046
 20
442.973899776548
 30
0.0
 10
511.5188491857212
 20
442.973899776548
 30
0.0
 10
511.5535510168695
 20
442.973899776548
 30
0.0
 10
511.5928341202946
 20
442.973899776548
 30
0.0
 10
511.6374042806355
 20
442.973899776548
 30
0.0
 10
511.6987918898884
 20
442.973899776548
 30
0.0
 10
511.7814959331826
 20
442.973899776548
 30
0.0
 10
511.8902813424513
 20
442.973899776548
 30
0.0
 10
511.9876608106539
 20
442.973899776548
 30
0.0
 10
512.065811678488
 20
442.973899776548
 30
0.0
 10
512.1194565158088
 20
442.973899776548
 30
0.0
 10
512.1751553686659
 20
442.973899776548
 30
0.0
 10
512.2329082576264
 20
442.973899776548
 30
0.0
 10
512.292715482485
 20
442.973899776548
 30
0.0
 10
512.3754920730297
 20
442.973899776548
 30
0.0
 10
512.484151334381
 20
442.973899776548
 30
0.0
 10
512.6226059626456
 20
442.973899776548
 30
0.0
 10
512.7687984269692
 20
442.973899776548
 30
0.0
 10
512.922728458658
 20
442.973899776548
 30
0.0
 10
513.0843959770061
 20
442.973899776548
 30
0.0
 10
513.25380049412
 20
442.973899776548
 30
0.0
 10
513.4309427383956
 20
442.973899776548
 30
0.0
 10
513.6259050451835
 20
442.973899776548
 30
0.0
 10
513.8397844025473
 20
442.973899776548
 30
0.0
 10
514.0737958438069
 20
442.973899776548
 30
0.0
 10
514.3170346927739
 20
442.973899776548
 30
0.0
 10
514.5695009592429
 20
442.973899776548
 30
0.0
 10
514.8311938109033
 20
442.973899776548
 30
0.0
 10
515.1021130524405
 20
442.973899776548
 30
0.0
 10
515.3702532120376
 20
442.973899776548
 30
0.0
 10
515.633873271532
 20
442.973899776548
 30
0.0
 10
515.8914232644142
 20
442.973899776548
 30
0.0
 10
516.1547194850451
 20
442.973899776548
 30
0.0
 10
516.4237626195325
 20
442.973899776548
 30
0.0
 10
516.6985521078448
 20
442.973899776548
 30
0.0
 10
516.979087387658
 20
442.973899776548
 30
0.0
 10
517.2653689714268
 20
442.973899776548
 30
0.0
 10
517.5664359727377
 20
442.973899776548
 30
0.0
 10
517.8823022423669
 20
442.973899776548
 30
0.0
 10
518.2130012337019
 20
442.973899776548
 30
0.0
 10
518.5487553743271
 20
442.9738997765481
 30
0.0
 10
518.8354526232192
 20
442.973899776548
 30
0.0
 10
519.070607335843
 20
442.973899776548
 30
0.0
 10
519.2524787247189
 20
442.973899776548
 30
0.0
 10
519.4357361512871
 20
442.973899776548
 30
0.0
 10
519.6203798286735
 20
442.973899776548
 30
0.0
 10
519.8064104120755
 20
442.9738997765481
 30
0.0
 10
520.0592745340537
 20
442.973899776548
 30
0.0
 10
520.3803791057476
 20
442.973899776548
 30
0.0
 10
520.7715141869126
 20
442.9738997765481
 30
0.0
 10
521.1661859402715
 20
442.973899776548
 30
0.0
 10
521.5359212265352
 20
442.9738997765481
 30
0.0
 10
521.8798510805794
 20
442.9738997765481
 30
0.0
 10
522.1973318924784
 20
442.9738997765481
 30
0.0
 10
522.5107933956791
 20
442.9738997765481
 30
0.0
 10
522.8626325070236
 20
442.9738997765481
 30
0.0
 10
523.2528952094591
 20
442.9738997765481
 30
0.0
 10
523.6877946648068
 20
442.9738997765481
 30
0.0
 10
524.1240206100077
 20
442.9738997765481
 30
0.0
 10
524.5615698883255
 20
442.9738997765481
 30
0.0
 10
524.8537598191192
 20
442.9738997765481
 30
0.0
 10
525.0000000000064
 20
442.9738997765481
 30
0.0
  0
ARC
  5
87
330
1F
100
AcDbEntity
  8
0
  6
Continuous
 62
     7
370
    30
100
AcDbCircle
 10
525.0
 20
492.9738997765
 30
0.0
 40
14.0
100
AcDbArc
 50
0.0
 51
90.0
  0
ARC
  5
88
330
1F
100
AcDbEntity
  8
0
  6
Continuous
 62
     7
370
    30
100
AcDbCircle
 10
525.0
 20
492.9738997765
 30
0.0
 40
14.0
100
AcDbArc
 50
90.0
 51
180.0
  0
SPLINE
  5
89
330
1F
100
AcDbEntity
  8
0
  6
Continuous
 62
     7
370
    30
100
AcDbSpline
210
0.0
220
0.0
230
1.0
 70
    24
 71
     3
 72
    52
 73
    48
 74
     0
 42
0.000000001
 43
0.00000001
 40
0.0
 40
0.0
 40
0.0
 40
0.0
 40
0.0244061553947206
 40
0.0487666748557887
 40
0.0731016251634679
 40
0.0974311363657972
 40
0.1127305414959967
 40
0.1280407535733149
 40
0.1433667588586362
 40
0.1589162457704909
 40
0.1751868047932104
 40
0.199355500356875
 40
0.2234901549210851
 40
0.2476103739052481
 40
0.2717357979218316
 40
0.2958860548840587
 40
0.3200807122680547
 40
0.3361408089905882
 40
0.3521749051777332
 40
0.3681886755888396
 40
0.3841878166114009
 40
0.400178040267732
 40
0.4161650681384303
 40
0.4412943026273842
 40
0.4664519772262558
 40
0.4916602116957049
 40
0.5167560818644397
 40
0.5417946872242436
 40
0.5667977694955139
 40
0.5917871631181302
 40
0.6167847384015528
 40
0.6418123442066738
 40
0.6668917509078865
 40
0.6919876202690559
 40
0.7170262252689334
 40
0.7420293074499483
 40
0.7670187010725673
 40
0.7920162762662888
 40
0.8170438817124679
 40
0.8421232876073002
 40
0.866693663455772
 40
0.8912101775262355
 40
0.915693239389203
 40
0.9401633423189242
 40
0.9646410121382312
 40
0.989146755656057
 40
1.0
 40
1.0
 40
1.0
 40
1.0
 10
530.1903140592625
 20
435.4738997765484
 30
0.0
 10
530.3098275552122
 20
435.4738997765484
 30
0.0
 10
530.5486310743897
 20
435.4738997765484
 30
0.0
 10
530.9009002090729
 20
435.4738997765484
 30
0.0
 10
531.2482418618915
 20
435.4738997765484
 30
0.0
 10
531.5478996576734
 20
435.4738997765484
 30
0.0
 10
531.8019555442219
 20
435.4738997765484
 30
0.0
 10
532.0121590188094
 20
435.4738997765484
 30
0.0
 10
532.2212140382088
 20
435.4738997765484
 30
0.0
 10
532.4321954805672
 20
435.4738997765484
 30
0.0
 10
532.6797171677107
 20
435.4738997765484
 30
0.0
 10
532.9606078099226
 20
435.4738997765484
 30
0.0
 10
533.2691969904304
 20
435.4738997765484
 30
0.0
 10
533.5708989310687
 20
435.4738997765485
 30
0.0
 10
533.8657119491199
 20
435.4738997765484
 30
0.0
 10
534.1536357399442
 20
435.4738997765485
 30
0.0
 10
534.40293536239
 20
435.4738997765484
 30
0.0
 10
534.6159161901577
 20
435.4738997765485
 30
0.0
 10
534.7945347776644
 20
435.4738997765485
 30
0.0
 10
534.9694462143924
 20
435.4738997765484
 30
0.0
 10
535.1406513770038
 20
435.4738997765485
 30
0.0
 10
535.3081502862156
 20
435.4738997765485
 30
0.0
 10
535.5031506087538
 20
435.4738997765485
 30
0.0
 10
535.7228321165612
 20
435.4738997765485
 30
0.0
 10
535.9636361327996
 20
435.4738997765484
 30
0.0
 10
536.1947121877221
 20
435.4738997765485
 30
0.0
 10
536.4157150614537
 20
435.4738997765485
 30
0.0
 10
536.6262155965748
 20
435.4738997765485
 30
0.0
 10
536.8263065828476
 20
435.4738997765485
 30
0.0
 10
537.0159888654691
 20
435.4738997765485
 30
0.0
 10
537.1952613439942
 20
435.4738997765485
 30
0.0
 10
537.3641249188291
 20
435.4738997765485
 30
0.0
 10
537.5224550522753
 20
435.4738997765485
 30
0.0
 10
537.6699980282033
 20
435.4738997765485
 30
0.0
 10
537.8064015075802
 20
435.4738997765485
 30
0.0
 10
537.9314736652759
 20
435.4738997765485
 30
0.0
 10
538.0452153414174
 20
435.4738997765485
 30
0.0
 10
538.1476257810851
 20
435.4738997765485
 30
0.0
 10
538.2387055453179
 20
435.4738997765485
 30
0.0
 10
538.3178349563179
 20
435.4738997765485
 30
0.0
 10
538.3851983007506
 20
435.4738997765485
 30
0.0
 10
538.4408998473995
 20
435.4738997765485
 30
0.0
 10
538.4852712598124
 20
435.4738997765485
 30
0.0
 10
538.5185348074999
 20
435.4738997765485
 30
0.0
 10
538.5398635897602
 20
435.4738997765485
 30
0.0
 10
538.5500207710411
 20
435.4738997765485
 30
0.0
 10
538.5489577589386
 20
435.4738997765485
 30
0.0
 10
538.5486314732957
 20
435.4738997765485
 30
0.0
  0
SPLINE
  5
8A
330
1F
100
AcDbEntity
  8
0
  6
Continuous
 62
     7
370
    30
100
AcDbSpline
210
0.0
220
0.0
230
1.0
 70
    24
 71
     3
 72
    83
 73
    79
 74
     0
 42
0.000000001
 43
0.00000001
 40
0.0
 40
0.0
 40
0.0
 40
0.0
 40
0.0082161886361747
 40
0.0185679158700307
 40
0.0289027000596682
 40
0.0392247743125436
 40
0.0495383873860759
 40
0.0598477984988652
 40
0.0701572720774533
 40
0.0823135220846884
 40
0.0944827528345381
 40
0.106671912841717
 40
0.1181948676191391
 40
0.1345985231732186
 40
0.1509799273390483
 40
0.1673561387736563
 40
0.1837442323497019
 40
0.2001612458650403
 40
0.2147996910085784
 40
0.2294098022252519
 40
0.244003603858078
 40
0.2585931605759734
 40
0.2677671733059924
 40
0.276947275870881
 40
0.2861364581964502
 40
0.2954597067582233
 40
0.3052167968240079
 40
0.3197102225910574
 40
0.3341832347324424
 40
0.3486475901793622
 40
0.3631150669675041
 40
0.3775974355171048
 40
0.3921064300056269
 40
0.4017373105393713
 40
0.4113525991342001
 40
0.420955698816275
 40
0.4305500255816761
 40
0.4401390048023305
 40
0.4497260675820572
 40
0.4647955070430053
 40
0.4798820014017489
 40
0.4949988153836383
 40
0.5100482470077741
 40
0.5250633382078487
 40
0.5400571270069547
 40
0.5550427070299793
 40
0.5700331934119939
 40
0.5850416884258506
 40
0.6000812472777965
 40
0.6151306784192004
 40
0.6301457694044802
 40
0.6451395581499954
 40
0.6601251381730195
 40
0.6751156245006972
 40
0.6901241192981985
 40
0.7051636776649
 40
0.7198979821075048
 40
0.7345999868474301
 40
0.7492819310472908
 40
0.7639561040649632
 40
0.7786348147769742
 40
0.7933303606576462
 40
0.8080549970010199
 40
0.8184067242349213
 40
0.8287415084245947
 40
0.8390635826774938
 40
0.8493771957510403
 40
0.8596866068638309
 40
0.8699960804424122
 40
0.8821523304496263
 40
0.8943215611994447
 40
0.9065107212065776
 40
0.9180315542357884
 40
0.9344331459914791
 40
0.9508137317210946
 40
0.9671903653036086
 40
0.9835801129548796
 40
0.9999999999999999
 40
0.9999999999999999
 40
0.9999999999999999
 40
0.9999999999999999
 10
511.4513685267124
 20
435.4738997765482
 30
0.0
 10
511.4511488125292
 20
435.4738997765482
 30
0.0
 10
511.4506522764042
 20
435.4738997765482
 30
0.0
 10
511.4582628538211
 20
435.4738997765482
 30
0.0
 10
511.4707790574471
 20
435.4738997765482
 30
0.0
 10
511.4891617322494
 20
435.4738997765482
 30
0.0
 10
511.5130021824515
 20
435.4738997765483
 30
0.0
 10
511.5424097898506
 20
435.4738997765482
 30
0.0
 10
511.5794365379513
 20
435.4738997765483
 30
0.0
 10
511.6253084962349
 20
435.4738997765482
 30
0.0
 10
511.6813191983218
 20
435.4738997765483
 30
0.0
 10
511.7438265256469
 20
435.4738997765482
 30
0.0
 10
511.821743059828
 20
435.4738997765483
 30
0.0
 10
511.9182529013398
 20
435.4738997765482
 30
0.0
 10
512.0389117182151
 20
435.4738997765482
 30
0.0
 10
512.1730033887393
 20
435.4738997765482
 30
0.0
 10
512.3205257413067
 20
435.4738997765482
 30
0.0
 10
512.4755239832338
 20
435.4738997765482
 30
0.0
 10
512.6360304171426
 20
435.4738997765483
 30
0.0
 10
512.8002926345561
 20
435.4738997765482
 30
0.0
 10
512.9744233618835
 20
435.4738997765483
 30
0.0
 10
513.1356310641747
 20
435.4738997765483
 30
0.0
 10
513.2800623452885
 20
435.4738997765483
 30
0.0
 10
513.4046349102063
 20
435.4738997765483
 30
0.0
 10
513.5336722014406
 20
435.4738997765482
 30
0.0
 10
513.669242285594
 20
435.4738997765483
 30
0.0
 10
513.8348710089817
 20
435.4738997765482
 30
0.0
 10
514.0326374276092
 20
435.4738997765483
 30
0.0
 10
514.2633234574218
 20
435.4738997765483
 30
0.0
 10
514.5025780618721
 20
435.4738997765482
 30
0.0
 10
514.7504005647149
 20
435.4738997765483
 30
0.0
 10
515.006788767384
 20
435.4738997765483
 30
0.0
 10
515.2418295280477
 20
435.4738997765483
 30
0.0
 10
515.4522919095357
 20
435.4738997765483
 30
0.0
 10
515.6355536180747
 20
435.4738997765483
 30
0.0
 10
515.8219118933998
 20
435.4738997765483
 30
0.0
 10
516.0113663377115
 20
435.4738997765483
 30
0.0
 10
516.2039175094026
 20
435.4738997765483
 30
0.0
 10
516.436841847485
 20
435.4738997765483
 30
0.0
 10
516.7126139750503
 20
435.4738997765483
 30
0.0
 10
517.0340460474445
 20
435.4738997765483
 30
0.0
 10
517.3623248214659
 20
435.4738997765483
 30
0.0
 10
517.6967073584201
 20
435.4738997765483
 30
0.0
 10
518.0365168280573
 20
435.4738997765483
 30
0.0
 10
518.3819039068475
 20
435.4738997765483
 30
0.0
 10
518.7328671219327
 20
435.4738997765483
 30
0.0
 10
519.0894059650087
 20
435.4738997765483
 30
0.0
 10
519.4515191475134
 20
435.4738997765483
 30
0.0
 10
519.8189289176846
 20
435.4738997765483
 30
0.0
 10
520.190864643036
 20
435.4738997765483
 30
0.0
 10
520.5665972775001
 20
435.4738997765483
 30
0.0
 10
520.945656108474
 20
435.4738997765483
 30
0.0
 10
521.3280399053151
 20
435.4738997765483
 30
0.0
 10
521.713747947355
 20
435.4738997765483
 30
0.0
 10
522.1027791108213
 20
435.4738997765483
 30
0.0
 10
522.4920966436974
 20
435.4738997765483
 30
0.0
 10
522.8808588899054
 20
435.4738997765483
 30
0.0
 10
523.268260569143
 20
435.4738997765483
 30
0.0
 10
523.6565805539818
 20
435.4738997765484
 30
0.0
 10
524.0458179491808
 20
435.4738997765484
 30
0.0
 10
524.4359722564437
 20
435.4738997765484
 30
0.0
 10
524.8270414540943
 20
435.4738997765484
 30
0.0
 10
525.1798697088442
 20
435.4738997765484
 30
0.0
 10
525.4938787958736
 20
435.4738997765484
 30
0.0
 10
525.7686481657774
 20
435.4738997765484
 30
0.0
 10
526.0427644883775
 20
435.4738997765484
 30
0.0
 10
526.3162282161792
 20
435.4738997765484
 30
0.0
 10
526.5890392933235
 20
435.4738997765484
 30
0.0
 10
526.8774072116572
 20
435.4738997765484
 30
0.0
 10
527.1812065783315
 20
435.4738997765484
 30
0.0
 10
527.5002432617781
 20
435.4738997765484
 30
0.0
 10
527.8123259484474
 20
435.4738997765484
 30
0.0
 10
528.1595106829714
 20
435.4738997765484
 30
0.0
 10
528.5405145911254
 20
435.4738997765484
 30
0.0
 10
528.9596283617448
 20
435.4738997765484
 30
0.0
 10
529.3744257349282
 20
435.4738997765484
 30
0.0
 10
529.785389978659
 20
435.4738997765484
 30
0.0
 10
530.0552567312578
 20
435.4738997765484
 30
0.0
 10
530.1903140592625
 20
435.4738997765484
 30
0.0
  0
SPLINE
  5
8B
330
1F
100
AcDbEntity
  8
0
  6
Continuous
 62
     7
370
    30
100
AcDbSpline
210
0.0
220
0.0
230
1.0
 70
     8
 71
     3
 72
    17
 73
    13
 74
     0
 42
0.000000001
 43
0.00000001
 40
0.0
 40
0.0
 40
0.0
 40
0.0
 40
0.1120437388734666
 40
0.224242637647016
 40
0.3364415049698587
 40
0.4484852008966044
 40
0.566566703754105
 40
0.6847389903297527
 40
0.8028204674297292
 40
0.8939406403562913
 40
0.9851442364298663
 40
1.0
 40
1.0
 40
1.0
 40
1.0
 10
540.8753652079788
 20
446.4159664594204
 30
0.0
 10
540.815920417342
 20
446.4741907116707
 30
0.0
 10
540.6969485160042
 20
446.5907198460151
 30
0.0
 10
540.507102272836
 20
446.7533488384513
 30
0.0
 10
540.3096613734227
 20
446.9065357099844
 30
0.0
 10
540.1006818953431
 20
447.0514504246026
 30
0.0
 10
539.8803891657908
 20
447.1871968561109
 30
0.0
 10
539.6489608560188
 20
447.3126240089099
 30
0.0
 10
539.4291469242173
 20
447.416813506901
 30
0.0
 10
539.2227514517809
 20
447.5014808610887
 30
0.0
 10
539.0856689526247
 20
447.5532768333002
 30
0.0
 10
539.0105253807159
 20
447.5768775068397
 30
0.0
 10
539.0000000000061
 20
447.5801832596499
 30
0.0
  0
SPLINE
  5
8C
330
1F
100
AcDbEntity
  8
0
  6
Continuous
 62
     7
370
    30
100
AcDbSpline
210
0.0
220
0.0
230
1.0
 70
     8
 71
     3
 72
    51
 73
    47
 74
     0
 42
0.000000001
 43
0.00000001
 40
0.0
 40
0.0
 40
0.0
 40
0.0
 40
0.0083402574038082
 40
0.0288377346371902
 40
0.0554066933142139
 40
0.0819961115822616
 40
0.1085650721396998
 40
0.1290683298498449
 40
0.1495903776358789
 40
0.1701124274273934
 40
0.1906156878747919
 40
0.2171941992633775
 40
0.2437931846085038
 40
0.2703717009171713
 40
0.2908824554595233
 40
0.3114120093219562
 40
0.3319415663473808
 40
0.3524523252068586
 40
0.3790386196772627
 40
0.4056453919443287
 40
0.4322316922167571
 40
0.4527483713932192
 40
0.4732838524647416
 40
0.4938193364688417
 40
0.5143360196479381
 40
0.5409249125154464
 40
0.5675342748073736
 40
0.594123171811143
 40
0.6146416038350285
 40
0.6351788325317298
 40
0.6557160626435493
 40
0.6762344965989107
 40
0.7028208925446483
 40
0.7294277438590363
 40
0.7560141404643276
 40
0.7765303895004977
 40
0.7970654272498261
 40
0.8176004642782155
 40
0.8381167123303858
 40
0.8647031830637896
 40
0.8913101107844205
 40
0.9178965784148412
 40
0.938413037171877
 40
0.958948292212554
 40
0.979483544711769
 40
1.0
 40
1.0
 40
1.0
 40
1.0
 10
538.7500000000056
 20
438.4924355226685
 30
0.0
 10
538.7766333452952
 20
438.4994333193509
 30
0.0
 10
538.868722270945
 20
438.5236292876528
 30
0.0
 10
539.0428987292079
 20
438.5798874013705
 30
0.0
 10
539.2712318663804
 20
438.6637638786551
 30
0.0
 10
539.512747339535
 20
438.7688037300759
 30
0.0
 10
539.7302543890493
 20
438.8778456150797
 30
0.0
 10
539.924597879216
 20
438.9876562770934
 30
0.0
 10
540.0971283121426
 20
439.0951001994767
 30
0.0
 10
540.264922233904
 20
439.209798374443
 30
0.0
 10
540.4436750247891
 20
439.3435346655247
 30
0.0
 10
540.6311036549091
 20
439.4987723486692
 30
0.0
 10
540.824382251585
 20
439.6777507496442
 30
0.0
 10
540.9935527721649
 20
439.8527293727828
 30
0.0
 10
541.1406307815275
 20
440.0207225684684
 30
0.0
 10
541.2678953377125
 20
440.1792686518907
 30
0.0
 10
541.3882861089388
 20
440.3430914995136
 30
0.0
 10
541.5127093326041
 20
440.5285083301308
 30
0.0
 10
541.6381951536371
 20
440.7370866967037
 30
0.0
 10
541.7613350800665
 20
440.97000412611
 30
0.0
 10
541.8630447997598
 20
441.1911634841422
 30
0.0
 10
541.9462160265681
 20
441.3984144050008
 30
0.0
 10
542.0138154050717
 20
441.5901882749671
 30
0.0
 10
542.0731788153661
 20
441.7846663089004
 30
0.0
 10
542.1291906871724
 20
442.0008436443759
 30
0.0
 10
542.1785314500927
 20
442.2392157115803
 30
0.0
 10
542.2175971432529
 20
442.4997651607712
 30
0.0
 10
542.24033550855
 20
442.7421245994656
 30
0.0
 10
542.2501870812686
 20
442.9652224108618
 30
0.0
 10
542.2504703850396
 20
443.1685604806869
 30
0.0
 10
542.2420868999068
 20
443.3717244578689
 30
0.0
 10
542.2233567088662
 20
443.5942399157611
 30
0.0
 10
542.1909859015119
 20
443.8354760786689
 30
0.0
 10
542.1415820504408
 20
444.0942248032857
 30
0.0
 10
542.0827976717148
 20
444.3304092517157
 30
0.0
 10
542.0182329340819
 20
444.5441568008553
 30
0.0
 10
541.9511832647759
 20
444.7360953264294
 30
0.0
 10
541.8760144557388
 20
444.9250026702725
 30
0.0
 10
541.7846734391584
 20
445.128754050248
 30
0.0
 10
541.6742583423859
 20
445.3456630137669
 30
0.0
 10
541.5419702167503
 20
445.5734702976294
 30
0.0
 10
541.4082871640359
 20
445.7768705496936
 30
0.0
 10
541.2766123003445
 20
445.9572221467723
 30
0.0
 10
541.1496905264584
 20
446.1160528338018
 30
0.0
 10
541.0165565466003
 20
446.2697768349184
 30
0.0
 10
540.9224146186028
 20
446.367251462174
 30
0.0
 10
540.8753652079788
 20
446.4159664594204
 30
0.0
  0
SPLINE
  5
8D
330
1F
100
AcDbEntity
  8
0
  6
Continuous
 62
     7
370
    30
100
AcDbSpline
210
0.0
220
0.0
230
1.0
 70
     8
 71
     3
 72
    62
 73
    58
 74
     0
 42
0.000000001
 43
0.00000001
 40
0.0
 40
0.0
 40
0.0
 40
0.0
 40
0.0066667866455715
 40
0.023411030443707
 40
0.0401706213307438
 40
0.0569302147982706
 40
0.0736744621184813
 40
0.0953785666464748
 40
0.1170993885321516
 40
0.1388034977967974
 40
0.1555525848064563
 40
0.1723170210255781
 40
0.1890814596405632
 40
0.2058305499203021
 40
0.2275367900786781
 40
0.2492597407878617
 40
0.2709659843290088
 40
0.2877165137380189
 40
0.3044823881109209
 40
0.321248263643606
 40
0.3379987946355877
 40
0.3597020088503248
 40
0.3814219198382173
 40
0.4031251346004605
 40
0.4198730741276088
 40
0.4366363498766206
 40
0.4533996250422336
 40
0.4701475637731077
 40
0.4918439199394647
 40
0.5135569581803044
 40
0.5352533118251057
 40
0.5519957669265927
 40
0.5687535488471126
 40
0.5855113286993349
 40
0.6022537809778357
 40
0.623942453361837
 40
0.6456477986308279
 40
0.6673364665327536
 40
0.6840729465719867
 40
0.7008247474803129
 40
0.7175765457424853
 40
0.7343130221700239
 40
0.7559965495526797
 40
0.7776967501512538
 40
0.7993802730529553
 40
0.8161129034781971
 40
0.8328608548759523
 40
0.8496088042077601
 40
0.8663414318132222
 40
0.8880246060159457
 40
0.9097244631462584
 40
0.9314076348304912
 40
0.9481402270165233
 40
0.964888146291059
 40
0.9816360649847752
 40
0.9983686563780557
 40
1.0
 40
1.0
 40
1.0
 40
1.0
 10
511.0000000000061
 20
447.5791952892255
 30
0.0
 10
510.9742768865268
 20
447.5711169760933
 30
0.0
 10
510.8839478232482
 20
447.542749241422
 30
0.0
 10
510.7324383245111
 20
447.4838086900014
 30
0.0
 10
510.5452069002694
 20
447.4047095236315
 30
0.0
 10
510.3617812853688
 20
447.3169865715347
 30
0.0
 10
510.1645408334679
 20
447.2123290638601
 30
0.0
 10
509.9554470380048
 20
447.0876974320406
 30
0.0
 10
509.7369231039295
 20
446.9405221301628
 30
0.0
 10
509.5428436349629
 20
446.7935879838985
 30
0.0
 10
509.3716726214539
 20
446.6501626858833
 30
0.0
 10
509.221536074445
 20
446.5130280825987
 30
0.0
 10
509.0773828655792
 20
446.3696211516836
 30
0.0
 10
508.9259386703976
 20
446.2055034371578
 30
0.0
 10
508.769895824691
 20
446.0186708841798
 30
0.0
 10
508.6124394823801
 20
445.8074371546296
 30
0.0
 10
508.4779644328376
 20
445.604529225767
 30
0.0
 10
508.3639437523646
 20
445.4125162053145
 30
0.0
 10
508.2676872908712
 20
445.2334040405659
 30
0.0
 10
508.1791529522266
 20
445.0503532933768
 30
0.0
 10
508.0906041352199
 20
444.8453623339419
 30
0.0
 10
508.005241649918
 20
444.6174322553681
 30
0.0
 10
507.9266255844915
 20
444.3660265107484
 30
0.0
 10
507.8669310602807
 20
444.1300820673742
 30
0.0
 10
507.822924574074
 20
443.9111863199286
 30
0.0
 10
507.791404998965
 20
443.7103416555197
 30
0.0
 10
507.7684728630292
 20
443.508335553061
 30
0.0
 10
507.7527892583436
 20
443.2856371080966
 30
0.0
 10
507.7477019109044
 20
443.0423627058552
 30
0.0
 10
507.7567443236867
 20
442.7791832908421
 30
0.0
 10
507.7785156157451
 20
442.536848603057
 30
0.0
 10
507.8094413587134
 20
442.3157866272462
 30
0.0
 10
507.8461709724205
 20
442.1158843923802
 30
0.0
 10
507.8913842806673
 20
441.9177260258066
 30
0.0
 10
507.9502807342449
 20
441.7024452450364
 30
0.0
 10
508.0259792999315
 20
441.4712587012274
 30
0.0
 10
508.1215907989349
 20
441.2259675831054
 30
0.0
 10
508.2223111856364
 20
441.0045500957547
 30
0.0
 10
508.3246276030197
 20
440.8062281685664
 30
0.0
 10
508.4254170707853
 20
440.6297873786241
 30
0.0
 10
508.5336319008798
 20
440.4577969237682
 30
0.0
 10
508.6604250844949
 20
440.2741691877624
 30
0.0
 10
508.8083377328987
 20
440.0810843956714
 30
0.0
 10
508.9797098297418
 20
439.8812719879811
 30
0.0
 10
509.1480027069504
 20
439.7056747620641
 30
0.0
 10
509.3101595011769
 20
439.5523967364403
 30
0.0
 10
509.4636355727141
 20
439.41925902151
 30
0.0
 10
509.6226443826162
 20
439.2927766656215
 30
0.0
 10
509.8030469402048
 20
439.1614493232241
 30
0.0
 10
510.0065202894969
 20
439.0281748102241
 30
0.0
 10
510.234372994302
 20
438.8963166654942
 30
0.0
 10
510.4512982211793
 20
438.7862633667219
 30
0.0
 10
510.6550704954257
 20
438.6953378394015
 30
0.0
 10
510.8439045880571
 20
438.6202332380563
 30
0.0
 10
511.0360550719313
 20
438.5544018712401
 30
0.0
 10
511.1714648234374
 20
438.511125892725
 30
0.0
 10
511.2435925944516
 20
438.4934238698481
 30
0.0
 10
511.2500000000055
 20
438.4918513265946
 30
0.0
  0
ARC
  5
8E
330
1F
100
AcDbEntity
  8
0
  6
Continuous
 62
     7
370
    30
100
AcDbCircle
 10
525.0
 20
492.9738997765
 30
0.0
 40
14.10000000000002
100
AcDbArc
 50
90.0
 51
186.8278674816
  0
ARC
  5
8F
330
1F
100
AcDbEntity
  8
0
  6
Continuous
 62
     7
370
    30
100
AcDbCircle
 10
525.0
 20
492.9738997765
 30
0.0
 40
14.1000000000001
100
AcDbArc
 50
353.1721325186
 51
90.0
  0
SPLINE
  5
90
330
1F
100
AcDbEntity
  8
0
  6
Continuous
 62
     7
370
    30
100
AcDbSpline
210
0.0
220
0.0
230
1.0
 70
     8
 71
     3
 72
    21
 73
    17
 74
     0
 42
0.000000001
 43
0.00000001
 40
0.0
 40
0.0
 40
0.0
 40
0.0
 40
0.0737534642358895
 40
0.1477420268318878
 40
0.2214952827863015
 40
0.2952480559295249
 40
0.3692360739345959
 40
0.4429893081949771
 40
0.5167640832959774
 40
0.5907736140099079
 40
0.6645491677734642
 40
0.7384567533046281
 40
0.812599323126756
 40
0.8865075761154266
 40
0.9432537679759723
 40
1.0
 40
1.0
 40
1.0
 40
1.0
 10
530.9186455200096
 20
408.2074910125746
 30
0.0
 10
530.9154528954914
 20
408.2082449919491
 30
0.0
 10
530.9090574695662
 20
408.2097553541014
 30
0.0
 10
530.8837447114237
 20
408.2108694970264
 30
0.0
 10
530.8473784642298
 20
408.2111417035203
 30
0.0
 10
530.7988264642297
 20
408.2104634750368
 30
0.0
 10
530.7394423832574
 20
408.2089220342999
 30
0.0
 10
530.6698530670079
 20
408.2065506966538
 30
0.0
 10
530.5906248166685
 20
408.203376648821
 30
0.0
 10
530.5030955463632
 20
408.1994936512338
 30
0.0
 10
530.4082733258977
 20
408.1949691386998
 30
0.0
 10
530.3071238483169
 20
408.1898641091099
 30
0.0
 10
530.2011440091816
 20
408.1842809657224
 30
0.0
 10
530.1001129974655
 20
408.1787620407282
 30
0.0
 10
530.0060715300201
 20
408.1734889907285
 30
0.0
 10
529.948701173483
 20
408.1701811965189
 30
0.0
 10
529.920015985063
 20
408.1685272988288
 30
0.0
  0
ARC
  5
91
330
1F
100
AcDbEntity
  8
0
  6
Continuous
 62
     7
370
    30
100
AcDbCircle
 10
525.0
 20
492.9738997766
 30
0.0
 40
84.9479708904482
100
AcDbArc
 50
266.6796853455
 51
273.3203146545
  0
SPLINE
  5
92
330
1F
100
AcDbEntity
  8
0
  6
Continuous
 62
     7
370
    30
100
AcDbSpline
210
0.0
220
0.0
230
1.0
 70
     8
 71
     3
 72
    21
 73
    17
 74
     0
 42
0.000000001
 43
0.00000001
 40
0.0
 40
0.0
 40
0.0
 40
0.0
 40
0.0737534642337071
 40
0.147742026824461
 40
0.2214952827705946
 40
0.2952480559145557
 40
0.3692360739203631
 40
0.4429893081814822
 40
0.5167640832838606
 40
0.590773613999173
 40
0.6645491677641072
 40
0.7384567532966525
 40
0.8125993231201645
 40
0.8865075761102155
 40
0.9432537679733665
 40
1.0
 40
1.0
 40
1.0
 40
1.0
 10
519.0813544801649
 20
408.2074910127374
 30
0.0
 10
519.0845471046721
 20
408.2082449921016
 30
0.0
 10
519.090942530575
 20
408.2097553542331
 30
0.0
 10
519.116255288612
 20
408.210869497059
 30
0.0
 10
519.152621535763
 20
408.2111417035115
 30
0.0
 10
519.2011735357713
 20
408.2104634750392
 30
0.0
 10
519.2605576167399
 20
408.2089220342993
 30
0.0
 10
519.3301469329894
 20
408.2065506966541
 30
0.0
 10
519.4093751833279
 20
408.2033766488211
 30
0.0
 10
519.496904453633
 20
408.1994936512339
 30
0.0
 10
519.5917266740983
 20
408.1949691387
 30
0.0
 10
519.6928761516787
 20
408.1898641091101
 30
0.0
 10
519.7988559908139
 20
408.1842809657226
 30
0.0
 10
519.8998870025306
 20
408.1787620407284
 30
0.0
 10
519.9939284699775
 20
408.1734889907286
 30
0.0
 10
520.0512988265162
 20
408.170181196519
 30
0.0
 10
520.0799840149369
 20
408.1685272988288
 30
0.0
  0
LINE
  5
93
330
1F
100
AcDbEntity
  8
0
  6
Continuous
 62
     7
370
    30
100
AcDbLine
 10
519.0268977614
 20
408.1840298059
 30
0.0
 11
519.0813543009
 21
408.2074909268
 31
0.0
  0
LWPOLYLINE
  5
94
330
1F
100
AcDbEntity
  8
0
  6
Continuous
 62
     7
370
    30
100
AcDbPolyline
 90
        9
 70
   128
 43
0.0
 10
530.9731101725
 20
408.1840303648
 10
530.9663020894
 20
408.1869616939
 10
530.9594940068
 20
408.1898933807
 10
530.9526859246
 20
408.1928254252
 10
530.9458778428
 20
408.1957578275
 10
530.9390697614
 20
408.1986905874
 10
530.9322616805
 20
408.2016237051
 10
530.9254535999
 20
408.2045571805
 10
530.9186455198
 20
408.2074910126
  0
LINE
  5
95
330
1F
100
AcDbEntity
  8
0
  6
Continuous
 62
     7
370
    30
100
AcDbLine
 10
530.9737975186
 20
408.1845397179
 30
0.0
 11
530.9731101725
 21
408.1840303648
 31
0.0
  0
LINE
  5
96
330
1F
100
AcDbEntity
  8
0
  6
Continuous
 62
     7
370
    30
100
AcDbLine
 10
519.0268898486
 20
408.1840303738
 30
0.0
 11
519.0262039913
 21
408.1842794465
 31
0.0
  0
ARC
  5
97
330
1F
100
AcDbEntity
  8
0
  6
Continuous
 62
     7
370
    30
100
AcDbCircle
 10
537.5227629861
 20
443.0078327122
 30
0.0
 40
4.531727584078348
100
AcDbArc
 50
285.7124704971
 51
70.9752493219
  0
ARC
  5
98
330
1F
100
AcDbEntity
  8
0
  6
Continuous
 62
     7
370
    30
100
AcDbCircle
 10
537.5230983564
 20
443.1933467051
 30
0.0
 40
4.700015227920267
100
AcDbArc
 50
294.5982865943
 51
12.6805002618
  0
ARC
  5
99
330
1F
100
AcDbEntity
  8
0
  6
Continuous
 62
     7
370
    30
100
AcDbCircle
 10
512.514946451
 20
443.0078333663
 30
0.0
 40
4.531703496506262
100
AcDbArc
 50
109.5299497313
 51
253.7915540276
  0
ARC
  5
9A
330
1F
100
AcDbEntity
  8
0
  6
Continuous
 62
     7
370
    30
100
AcDbCircle
 10
512.5141177315
 20
443.1929477712
 30
0.0
 40
4.699435583623434
100
AcDbArc
 50
149.0496684848
 51
245.4054659223
  0
ARC
  5
9B
330
1F
100
AcDbEntity
  8
0
  6
Continuous
 62
     7
370
    30
100
AcDbCircle
 10
991.2143801947
 20
443.3738997765
 30
0.0
 40
0.4000000000000909
100
AcDbArc
 50
180.0
 51
270.0
  0
ARC
  5
9C
330
1F
100
AcDbEntity
  8
0
  6
Continuous
 62
     7
370
    30
100
AcDbCircle
 10
1018.4143801947
 20
443.3738997765
 30
0.0
 40
0.4000000000000909
100
AcDbArc
 50
270.0
 51
0.0
  0
LINE
  5
9D
330
1F
100
AcDbEntity
  8
0
  6
Continuous
 62
     7
370
    30
100
AcDbLine
 10
724.9141885042
 20
478.9738997765
 30
0.0
 11
963.8143801947
 21
478.9738997765
 31
0.0
  0
LINE
  5
9E
330
1F
100
AcDbEntity
  8
0
  6
Continuous
 62
     7
370
    30
100
AcDbLine
 10
708.1930489524
 20
478.9738997765
 30
0.0
 11
719.314509944
 21
478.9738997765
 31
0.0
  0
LINE
  5
9F
330
1F
100
AcDbEntity
  8
0
  6
Continuous
 62
     7
370
    30
100
AcDbLine
 10
963.8143801947
 20
506.9738997765
 30
0.0
 11
708.1930489524
 21
506.9738997765
 31
0.0
  0
ARC
  5
A0
330
1F
100
AcDbEntity
  8
0
  6
Continuous
 62
     7
370
    30
100
AcDbCircle
 10
963.8143801947
 20
451.9738997765
 30
0.0
 40
55.0
100
AcDbArc
 50
0.0
 51
90.0
  0
ARC
  5
A1
330
1F
100
AcDbEntity
  8
0
  6
Continuous
 62
     7
370
    30
100
AcDbCircle
 10
963.8143801947
 20
451.9738997765
 30
0.0
 40
27.0
100
AcDbArc
 50
0.0
 51
90.0
  0
LINE
  5
A2
330
1F
100
AcDbEntity
  8
0
  6
Continuous
 62
     7
370
    30
100
AcDbLine
 10
1018.8143801947
 20
443.3738997765
 30
0.0
 11
1018.8143801947
 21
451.9738997765
 31
0.0
  0
LINE
  5
A3
330
1F
100
AcDbEntity
  8
0
  6
Continuous
 62
     7
370
    30
100
AcDbLine
 10
990.8143801947
 20
451.9738997765
 30
0.0
 11
990.8143801947
 21
443.3738997765
 31
0.0
  0
ARC
  5
A4
330
1F
100
AcDbEntity
  8
0
  6
Continuous
 62
     7
370
    30
100
AcDbCircle
 10
1018.3643801947
 20
435.6738997765
 30
0.0
 40
0.2000000000000455
100
AcDbArc
 50
270.0
 51
0.0
  0
ARC
  5
A5
330
1F
100
AcDbEntity
  8
0
  6
Continuous
 62
     7
370
    30
100
AcDbCircle
 10
991.2643801947
 20
435.6738997765
 30
0.0
 40
0.1999999999999886
100
AcDbArc
 50
180.0
 51
270.0
  0
ARC
  5
A6
330
1F
100
AcDbEntity
  8
0
  6
Continuous
 62
     7
370
    30
100
AcDbCircle
 10
991.2643801947
 20
442.7738997765
 30
0.0
 40
0.1999999999999886
100
AcDbArc
 50
90.0
 51
180.0
  0
ARC
  5
A7
330
1F
100
AcDbEntity
  8
0
  6
Continuous
 62
     7
370
    30
100
AcDbCircle
 10
1018.3643801947
 20
442.7738997765
 30
0.0
 40
0.2000000000000455
100
AcDbArc
 50
0.0
 51
90.0
  0
LINE
  5
A8
330
1F
100
AcDbEntity
  8
0
  6
Continuous
 62
     7
370
    30
100
AcDbLine
 10
991.0643801947
 20
442.7738997765
 30
0.0
 11
991.0643801947
 21
435.6738997765
 31
0.0
  0
LINE
  5
A9
330
1F
100
AcDbEntity
  8
0
  6
Continuous
 62
     7
370
    30
100
AcDbLine
 10
1018.5643801947
 20
435.6738997765
 30
0.0
 11
1018.5643801947
 21
442.7738997765
 31
0.0
  0
ARC
  5
AA
330
1F
100
AcDbEntity
  8
0
  6
Continuous
 62
     7
370
    30
100
AcDbCircle
 10
694.7455892825
 20
577.474071114
 30
0.0
 40
0.5000000000000704
100
AcDbArc
 50
88.5
 51
180.0
  0
LINE
  5
AB
330
1F
100
AcDbEntity
  8
0
  6
Continuous
 62
     7
370
    30
100
AcDbLine
 10
696.7455892825
 20
408.0259288863
 30
0.0
 11
704.4857262135
 21
408.2286115046
 31
0.0
  0
LINE
  5
AC
330
1F
100
AcDbEntity
  8
0
  6
Continuous
 62
     7
370
    30
100
AcDbLine
 10
704.4857262135
 20
577.7191880485
 30
0.0
 11
694.7586777566
 21
577.9738997762
 31
0.0
  0
ARC
  5
AD
330
1F
100
AcDbEntity
  8
0
  6
Continuous
 62
     7
370
    30
100
AcDbCircle
 10
704.4333723169
 20
410.2279261358
 30
0.0
 40
2.000000000000045
100
AcDbArc
 50
271.499999986
 51
357.4907349552
  0
ARC
  5
AE
330
1F
100
AcDbEntity
  8
0
  6
Continuous
 62
     7
370
    30
100
AcDbCircle
 10
704.4333723169
 20
575.7198733798
 30
0.0
 40
2.000000000000048
100
AcDbArc
 50
2.5092650448
 51
88.500000014
  0
ARC
  5
AF
330
1F
100
AcDbEntity
  8
0
  6
Continuous
 62
     7
370
    30
100
AcDbCircle
 10
-1183.7544106775
 20
492.9738997578
 30
0.0
 40
1892.0
100
AcDbArc
 50
357.4907349552
 51
358.39698617
  0
ARC
  5
B0
330
1F
100
AcDbEntity
  8
0
  6
Continuous
 62
     7
370
    30
100
AcDbCircle
 10
-1183.7544106775
 20
492.9738997578
 30
0.0
 40
1892.0
100
AcDbArc
 50
358.6240295152
 51
359.5730031877
  0
ARC
  5
B1
330
1F
100
AcDbEntity
  8
0
  6
Continuous
 62
     7
370
    30
100
AcDbCircle
 10
-1183.7544106775
 20
492.9738997578
 30
0.0
 40
1892.00000000007
100
AcDbArc
 50
0.4269968128
 51
2.5092650448
  0
LINE
  5
B2
330
1F
100
AcDbEntity
  8
0
  6
Continuous
 62
     7
370
    30
100
AcDbLine
 10
707.7136722296
 20
447.5404776761
 30
0.0
 11
707.6475545393
 21
447.5453330558
 31
0.0
  0
SPLINE
  5
B3
330
1F
100
AcDbEntity
  8
0
  6
Continuous
 62
     7
370
    30
100
AcDbSpline
210
0.0
220
0.0
230
1.0
 70
     8
 71
     3
 72
    48
 73
    44
 74
     0
 42
0.000000001
 43
0.00000001
 40
0.0
 40
0.0
 40
0.0
 40
0.0
 40
0.019782652817004
 40
0.0375161828358309
 40
0.0541192268997001
 40
0.0705059028953087
 40
0.0872931666087432
 40
0.1044442702821704
 40
0.145606639556687
 40
0.1871230324025389
 40
0.2370379980224131
 40
0.2876860908230136
 40
0.3393321914547373
 40
0.3923426725591095
 40
0.4472722527795395
 40
0.5047314630827456
 40
0.5319921957423677
 40
0.5579427735221004
 40
0.5816757587282596
 40
0.6038209873202889
 40
0.6255956590651647
 40
0.6459389331852673
 40
0.6676561035921083
 40
0.6914323756000846
 40
0.7178188405617979
 40
0.730415840459995
 40
0.7433592080075626
 40
0.7565643318587634
 40
0.7699464596358517
 40
0.7834207351420882
 40
0.7970368690988111
 40
0.8121250855995422
 40
0.8207650373539618
 40
0.8305141570067561
 40
0.841621097340273
 40
0.8543345113877849
 40
0.8689030247956052
 40
0.885575225584747
 40
0.9034448515824359
 40
0.9236138710550068
 40
0.946290563790727
 40
0.9716831912053397
 40
1.0
 40
1.0
 40
1.0
 40
1.0
 10
708.099310778378
 20
442.9863836009096
 30
0.0
 10
708.1001928186248
 20
443.0166037150573
 30
0.0
 10
708.1018655358015
 20
443.0739136895172
 30
0.0
 10
708.1024161859203
 20
443.1566242691242
 30
0.0
 10
708.1016580474958
 20
443.2341389417414
 30
0.0
 10
708.0999211464865
 20
443.3101903443468
 30
0.0
 10
708.0976187320705
 20
443.3870640120067
 30
0.0
 10
708.0932439692111
 20
443.5017515958744
 30
0.0
 10
708.085177276386
 20
443.6541138949208
 30
0.0
 10
708.0696218486215
 20
443.8561667679932
 30
0.0
 10
708.0472854859349
 20
444.0721722245515
 30
0.0
 10
708.0171048986856
 20
444.3028397451623
 30
0.0
 10
707.980832378653
 20
444.5374067846017
 30
0.0
 10
707.9393869419171
 20
444.7777512696493
 30
0.0
 10
707.8930266678907
 20
445.0262326965637
 30
0.0
 10
707.853004730294
 20
445.2358605819862
 30
0.0
 10
707.8219169472322
 20
445.4021076010895
 30
0.0
 10
707.8007446575828
 20
445.5177737123944
 30
0.0
 10
707.7817017880644
 20
445.6258804188444
 30
0.0
 10
707.7647868116901
 20
445.7278778226342
 30
0.0
 10
707.7498928540903
 20
445.8249519414999
 30
0.0
 10
707.7362155900563
 20
445.9215455240009
 30
0.0
 10
707.7240060847413
 20
446.021422676135
 30
0.0
 10
707.7132836288298
 20
446.1307581409424
 30
0.0
 10
707.7063927360131
 20
446.2264301559893
 30
0.0
 10
707.7017889473607
 20
446.3056521895423
 30
0.0
 10
707.6988212051469
 20
446.3647899006803
 30
0.0
 10
707.6962268140685
 20
446.4251458804957
 30
0.0
 10
707.6939998307405
 20
446.4863284795133
 30
0.0
 10
707.6921464596994
 20
446.5481516765523
 30
0.0
 10
707.6905539771857
 20
446.612590772639
 30
0.0
 10
707.6898844786401
 20
446.6696592933976
 30
0.0
 10
707.6898698785278
 20
446.7208201908662
 30
0.0
 10
707.6901763823658
 20
446.7658957591935
 30
0.0
 10
707.6908536898128
 20
446.8171929631504
 30
0.0
 10
707.6919488235467
 20
446.8758494348987
 30
0.0
 10
707.6935112348735
 20
446.9430028199733
 30
0.0
 10
707.6955422587963
 20
447.0180266473948
 30
0.0
 10
707.698058473783
 20
447.1015988172554
 30
0.0
 10
707.7010782275315
 20
447.1943358437942
 30
0.0
 10
707.7046868687727
 20
447.2985563050225
 30
0.0
 10
707.7089157064637
 20
447.4152141831599
 30
0.0
 10
707.71203019957
 20
447.4972346582611
 30
0.0
 10
707.7136722295745
 20
447.5404776761479
 30
0.0
  0
SPLINE
  5
B4
330
1F
100
AcDbEntity
  8
0
  6
Continuous
 62
     7
370
    30
100
AcDbSpline
210
0.0
220
0.0
230
1.0
 70
     8
 71
     3
 72
    35
 73
    31
 74
     0
 42
0.000000001
 43
0.00000001
 40
0.0
 40
0.0
 40
0.0
 40
0.0
 40
0.0175869808228923
 40
0.0393535744744257
 40
0.0605552191206548
 40
0.0809662409104587
 40
0.1003617472557879
 40
0.1330012570876936
 40
0.1626222034111974
 40
0.1902452813515244
 40
0.2228587872274094
 40
0.2564459807195291
 40
0.29333032635673
 40
0.3334628002402701
 40
0.3746067208230384
 40
0.4149194979502322
 40
0.4542034357518101
 40
0.5240578934265576
 40
0.5917840357209456
 40
0.6579882089429213
 40
0.7230720112258721
 40
0.7873375709837555
 40
0.8510054683144231
 40
0.8721888257523086
 40
0.8930479312817328
 40
0.9134469133146031
 40
0.9334496380167818
 40
0.9538753178314533
 40
0.975724293448857
 40
1.0
 40
1.0
 40
1.0
 40
1.0
 10
707.4254977042898
 20
439.5160018095944
 30
0.0
 10
707.4277696871853
 20
439.53664145632
 30
0.0
 10
707.4328535983457
 20
439.5828258402528
 30
0.0
 10
707.441419521816
 20
439.6538073153981
 30
0.0
 10
707.4510001480371
 20
439.7280216371013
 30
0.0
 10
707.4609831909484
 20
439.7993580058983
 30
0.0
 10
707.4738617235411
 20
439.8839190993586
 30
0.0
 10
707.4903117949523
 20
439.9789256272082
 30
0.0
 10
707.5110715048294
 20
440.0830067441553
 30
0.0
 10
707.53392991902
 20
440.1866101253208
 30
0.0
 10
707.5591870138875
 20
440.2944695571205
 30
0.0
 10
707.5885798886995
 20
440.4125786520676
 30
0.0
 10
707.6214442987389
 20
440.5389624969575
 30
0.0
 10
707.6573497195992
 20
440.6737707051784
 30
0.0
 10
707.6947381332275
 20
440.8123717843791
 30
0.0
 10
707.7320238805003
 20
440.9499627524422
 30
0.0
 10
707.7778896148677
 20
441.1203483016564
 30
0.0
 10
707.8306604119979
 20
441.3223929025439
 30
0.0
 10
707.8878910007784
 20
441.5560997983503
 30
0.0
 10
707.9392205172556
 20
441.7854134558023
 30
0.0
 10
707.9838888269568
 20
442.0119622504542
 30
0.0
 10
708.0217293399504
 20
442.2367169746263
 30
0.0
 10
708.0459575836483
 20
442.4111235493133
 30
0.0
 10
708.0609428520781
 20
442.5350292393339
 30
0.0
 10
708.0692138807337
 20
442.6082867263888
 30
0.0
 10
708.0767891725086
 20
442.6802174599169
 30
0.0
 10
708.0837962229959
 20
442.7516925579795
 30
0.0
 10
708.089986019824
 20
442.8249621249308
 30
0.0
 10
708.0953740402404
 20
442.9033560103401
 30
0.0
 10
708.0979532986603
 20
442.9577537387602
 30
0.0
 10
708.0993107783779
 20
442.9863836009097
 30
0.0
  0
LINE
  5
B5
330
1F
100
AcDbEntity
  8
0
  6
Continuous
 62
     7
370
    30
100
AcDbLine
 10
991.2143801947
 20
442.9738997765
 30
0.0
 11
1018.4143801947
 21
442.9738997765
 31
0.0
  0
SPLINE
  5
B6
330
1F
100
AcDbEntity
  8
0
  6
Continuous
 62
     7
370
    30
100
AcDbSpline
210
0.0
220
0.0
230
1.0
 70
     8
 71
     3
 72
    51
 73
    47
 74
     0
 42
0.000000001
 43
0.00000001
 40
0.0
 40
0.0
 40
0.0
 40
0.0
 40
0.0195474053479388
 40
0.0391074292436126
 40
0.0586556329783796
 40
0.0786463162926444
 40
0.0986494165459688
 40
0.1186407692899424
 40
0.140744366475907
 40
0.1628636148098425
 40
0.1849678890767852
 40
0.2076359508953399
 40
0.2303199984615587
 40
0.2529884975385236
 40
0.2765507823778645
 40
0.3001304304545376
 40
0.3236929571996781
 40
0.347901470478745
 40
0.3721285125362173
 40
0.3963370797688512
 40
0.4205633212455651
 40
0.4448080893388356
 40
0.4690341895270138
 40
0.4939668121433675
 40
0.5189198655477928
 40
0.5438520377463487
 40
0.5680022413905585
 40
0.5921715842941082
 40
0.6163210122241788
 40
0.6412282124465196
 40
0.6661575923845938
 40
0.6910633419104637
 40
0.7142541792297763
 40
0.737464495654068
 40
0.7606537880243952
 40
0.784645790503284
 40
0.8086616695727552
 40
0.8326515603929986
 40
0.853876019837547
 40
0.8751188855833802
 40
0.8963421167602159
 40
0.9183108761105242
 40
0.9403017916086732
 40
0.9622696352701599
 40
0.9816106764035993
 40
1.0
 40
1.0
 40
1.0
 40
1.0
 10
719.8479415857175
 20
479.0547428490588
 30
0.0
 10
719.8759323621889
 20
479.0585176295037
 30
0.0
 10
719.9319319841768
 20
479.0660696271491
 30
0.0
 10
720.0223592855541
 20
479.0776972034976
 30
0.0
 10
720.1178433705337
 20
479.0894871076625
 30
0.0
 10
720.2187321134528
 20
479.1013536489606
 30
0.0
 10
720.3246804363137
 20
479.1131709510205
 30
0.0
 10
720.4385477907904
 20
479.1251469023246
 30
0.0
 10
720.5605395566836
 20
479.1371181205549
 30
0.0
 10
720.6907178558796
 20
479.1489015190737
 30
0.0
 10
720.8258172223169
 20
479.160066471321
 30
0.0
 10
720.9655744044992
 20
479.1704497324675
 30
0.0
 10
721.1096468545078
 20
479.1799192802511
 30
0.0
 10
721.2583824715433
 20
479.1883913245691
 30
0.0
 10
721.4114977209148
 20
479.1956930585632
 30
0.0
 10
721.568613829139
 20
479.2016983047942
 30
0.0
 10
721.7287610276353
 20
479.2062834146329
 30
0.0
 10
721.891525069235
 20
479.2093160552237
 30
0.0
 10
722.0564247714378
 20
479.2107355159656
 30
0.0
 10
722.2215428453253
 20
479.2104968654448
 30
0.0
 10
722.3863728320468
 20
479.2085711341526
 30
0.0
 10
722.5504123012994
 20
479.2050121189893
 30
0.0
 10
722.7147032154404
 20
479.1998154208532
 30
0.0
 10
722.8786695370424
 20
479.1929645850715
 30
0.0
 10
723.0417050423039
 20
479.1845315920109
 30
0.0
 10
723.2000309026415
 20
479.1747984415011
 30
0.0
 10
723.3531898680409
 20
479.1639228934042
 30
0.0
 10
723.5008388090115
 20
479.1521156586325
 30
0.0
 10
723.6456062167696
 20
479.1392817116833
 30
0.0
 10
723.7867634745509
 20
479.1255474538301
 30
0.0
 10
723.9235904419252
 20
479.1111050757354
 30
0.0
 10
724.0510798158463
 20
479.0966452071252
 30
0.0
 10
724.1691246970005
 20
479.0823984932999
 30
0.0
 10
724.2778471191697
 20
479.068568120971
 30
0.0
 10
724.3807867384129
 20
479.0548436455413
 30
0.0
 10
724.4770898122515
 20
479.0414443444407
 30
0.0
 10
724.565995597972
 20
479.0285976802921
 30
0.0
 10
724.6428458214223
 20
479.0171191115277
 30
0.0
 10
724.7082726236979
 20
479.0070861392778
 30
0.0
 10
724.7632348359052
 20
478.9984726677833
 30
0.0
 10
724.8107162051608
 20
478.9908911306059
 30
0.0
 10
724.8499857164629
 20
478.9845297533605
 30
0.0
 10
724.880616056914
 20
478.9795041156308
 30
0.0
 10
724.9008738252822
 20
478.9761466132698
 30
0.0
 10
724.9124233262262
 20
478.9742282795947
 30
0.0
 10
724.9136100899252
 20
478.974029929807
 30
0.0
 10
724.9141885042036
 20
478.9739332565186
 30
0.0
  0
SPLINE
  5
B7
330
1F
100
AcDbEntity
  8
0
  6
Continuous
 62
     7
370
    30
100
AcDbSpline
210
0.0
220
0.0
230
1.0
 70
     8
 71
     3
 72
    19
 73
    15
 74
     0
 42
0.000000001
 43
0.00000001
 40
0.0
 40
0.0
 40
0.0
 40
0.0
 40
0.0837183624554591
 40
0.1696977889860572
 40
0.2484444960369431
 40
0.3272516516254519
 40
0.4060003746521064
 40
0.4869406177147294
 40
0.5679434372846379
 40
0.6488871074221977
 40
0.7360978674648283
 40
0.8233100851919826
 40
0.911654299444125
 40
1.0
 40
1.0
 40
1.0
 40
1.0
 10
719.3145099439977
 20
478.9739233517151
 30
0.0
 10
719.3152323323717
 20
478.9740440856632
 30
0.0
 10
719.3166966193721
 20
478.9742888143397
 30
0.0
 10
719.3290473957329
 20
478.9763395631191
 30
0.0
 10
719.3481102874322
 20
478.9794955457311
 30
0.0
 10
719.3736027646038
 20
478.9836807549294
 30
0.0
 10
719.4060799528197
 20
478.9889577476708
 30
0.0
 10
719.4457271192492
 20
478.9953236153822
 30
0.0
 10
719.492487036183
 20
479.0027142226555
 30
0.0
 10
719.5471805320389
 20
479.011201353536
 30
0.0
 10
719.6101532716696
 20
479.0207682238703
 30
0.0
 10
719.6821127368281
 20
479.0314086593407
 30
0.0
 10
719.7607693724045
 20
479.0427361973778
 30
0.0
 10
719.8188840183277
 20
479.0507406093876
 30
0.0
 10
719.8479415857175
 20
479.0547428490588
 30
0.0
  0
SPLINE
  5
B8
330
1F
100
AcDbEntity
  8
0
  6
Continuous
 62
     7
370
    30
100
AcDbSpline
210
0.0
220
0.0
230
1.0
 70
    24
 71
     3
 72
   128
 73
   124
 74
     0
 42
0.000000001
 43
0.00000001
 40
0.0
 40
0.0
 40
0.0
 40
0.0
 40
0.0051361527786932
 40
0.0116072861648795
 40
0.0180678280145055
 40
0.0245204245529177
 40
0.0309677317886637
 40
0.0374124122698413
 40
0.0438571318001729
 40
0.0514563192118442
 40
0.0590636212228818
 40
0.0666833815301898
 40
0.073886679654889
 40
0.0841410305202142
 40
0.0943814714654525
 40
0.1046186662998955
 40
0.1148632889696409
 40
0.1251259902443679
 40
0.1342768622642844
 40
0.1434100220110056
 40
0.1525329862134627
 40
0.1616532968093492
 40
0.1673882102906687
 40
0.1731269306858111
 40
0.1788713270750069
 40
0.1846995317482362
 40
0.1907989420063728
 40
0.1998591586493067
 40
0.2089066142051628
 40
0.2179486582367993
 40
0.2269926535000365
 40
0.2360459579900778
 40
0.2451159070458278
 40
0.251136420449634
 40
0.2571471869277705
 40
0.263150333800222
 40
0.2691479964948074
 40
0.2751423163004288
 40
0.2811354380891438
 40
0.2905557358438701
 40
0.2999866950580452
 40
0.3094366078557909
 40
0.3188443981916301
 40
0.3282307214372497
 40
0.3376037279992997
 40
0.3469716030425607
 40
0.3563425451783818
 40
0.3657247449776062
 40
0.3751263635885201
 40
0.3845341536213177
 40
0.3939204767318085
 40
0.4032934832599281
 40
0.4126613583031877
 40
0.4220323004054747
 40
0.4314145000703183
 40
0.4408161183791992
 40
0.450026914534262
 40
0.4592175193070201
 40
0.4683955837157157
 40
0.4775687901569424
 40
0.4867448332289145
 40
0.4959314004020312
 40
0.505136152778697
 40
0.5116072861655717
 40
0.518067828015726
 40
0.5245204245545069
 40
0.5309677317904603
 40
0.5374124122716832
 40
0.5438571318018997
 40
0.5514563192132274
 40
0.5590636212236959
 40
0.5666833815302129
 40
0.5738866796553544
 40
0.5841410305211332
 40
0.5943814714665524
 40
0.6046186663009006
 40
0.6148632889702784
 40
0.6251259902443639
 40
0.6342768622641048
 40
0.6434100220107177
 40
0.6525329862131304
 40
0.6616532968090375
 40
0.6673882102904012
 40
0.6731269306856115
 40
0.6788713270749019
 40
0.6846995317483108
 40
0.6907989420068171
 40
0.6998591586501423
 40
0.7089066142062016
 40
0.7179486582378544
 40
0.7269926535009239
 40
0.7360459579906169
 40
0.7451159070458417
 40
0.7511364204499328
 40
0.7571471869282971
 40
0.7631503338009186
 40
0.769147996495615
 40
0.775142316301289
 40
0.7811354380899937
 40
0.7905557358445838
 40
0.7999866950584691
 40
0.8094366078557695
 40
0.8188443981922385
 40
0.8282307214382757
 40
0.8376037280005337
 40
0.8469716030437939
 40
0.8563425451794107
 40
0.865724744978229
 40
0.8751263635885411
 40
0.8845341536232421
 40
0.8939204767350053
 40
0.9032934832637624
 40
0.9126613583070224
 40
0.9220323004086715
 40
0.9314145000722407
 40
0.9408161183792143
 40
0.950026914534959
 40
0.9592175193081761
 40
0.9683955837171014
 40
0.9775687901583282
 40
0.9867448332300686
 40
0.9959314004027183
 40
0.9999999999999999
 40
0.9999999999999999
 40
0.9999999999999999
 40
0.9999999999999999
 10
991.2657487214482
 20
435.4738997765484
 30
0.0
 10
991.2655290072639
 20
435.4738997765484
 30
0.0
 10
991.2650324711368
 20
435.4738997765483
 30
0.0
 10
991.2726430485499
 20
435.4738997765484
 30
0.0
 10
991.285159252173
 20
435.4738997765484
 30
0.0
 10
991.3035419269734
 20
435.4738997765484
 30
0.0
 10
991.3273823771741
 20
435.4738997765484
 30
0.0
 10
991.3567899845733
 20
435.4738997765483
 30
0.0
 10
991.3938167326747
 20
435.4738997765484
 30
0.0
 10
991.4396886909605
 20
435.4738997765483
 30
0.0
 10
991.4956993930507
 20
435.4738997765483
 30
0.0
 10
991.5582067203761
 20
435.4738997765483
 30
0.0
 10
991.6361232545538
 20
435.4738997765483
 30
0.0
 10
991.7326330960609
 20
435.4738997765483
 30
0.0
 10
991.853291912934
 20
435.4738997765483
 30
0.0
 10
991.9873835834596
 20
435.4738997765483
 30
0.0
 10
992.1349059360322
 20
435.4738997765483
 30
0.0
 10
992.2899041779643
 20
435.4738997765483
 30
0.0
 10
992.4504106118762
 20
435.4738997765483
 30
0.0
 10
992.6146728292908
 20
435.4738997765483
 30
0.0
 10
992.7888035566184
 20
435.4738997765483
 30
0.0
 10
992.9500112589097
 20
435.4738997765483
 30
0.0
 10
993.0944425400232
 20
435.4738997765483
 30
0.0
 10
993.2190151049405
 20
435.4738997765483
 30
0.0
 10
993.3480523961736
 20
435.4738997765483
 30
0.0
 10
993.4836224803239
 20
435.4738997765483
 30
0.0
 10
993.6492512037062
 20
435.4738997765483
 30
0.0
 10
993.8470176223279
 20
435.4738997765483
 30
0.0
 10
994.0777036521367
 20
435.4738997765483
 30
0.0
 10
994.3169582565868
 20
435.4738997765483
 30
0.0
 10
994.564780759433
 20
435.4738997765483
 30
0.0
 10
994.8211689621087
 20
435.4738997765483
 30
0.0
 10
995.0562097227732
 20
435.4738997765483
 30
0.0
 10
995.2666721042568
 20
435.4738997765483
 30
0.0
 10
995.4499338127862
 20
435.4738997765483
 30
0.0
 10
995.6362920881044
 20
435.4738997765483
 30
0.0
 10
995.8257465324114
 20
435.4738997765483
 30
0.0
 10
996.0182977041003
 20
435.4738997765483
 30
0.0
 10
996.2512220421837
 20
435.4738997765483
 30
0.0
 10
996.5269941697551
 20
435.4738997765483
 30
0.0
 10
996.848426242161
 20
435.4738997765483
 30
0.0
 10
997.1767050161862
 20
435.4738997765483
 30
0.0
 10
997.5110875531357
 20
435.4738997765483
 30
0.0
 10
997.8508970227598
 20
435.4738997765483
 30
0.0
 10
998.1962841015431
 20
435.4738997765483
 30
0.0
 10
998.5472473166284
 20
435.4738997765483
 30
0.0
 10
998.903786159711
 20
435.4738997765483
 30
0.0
 10
999.2658993422292
 20
435.4738997765482
 30
0.0
 10
999.6333091123847
 20
435.4738997765483
 30
0.0
 10
1000.005244837699
 20
435.4738997765483
 30
0.0
 10
1000.380977472111
 20
435.4738997765482
 30
0.0
 10
1000.760036303059
 20
435.4738997765482
 30
0.0
 10
1001.1424200999
 20
435.4738997765483
 30
0.0
 10
1001.528128141966
 20
435.4738997765482
 30
0.0
 10
1001.917159305485
 20
435.4738997765482
 30
0.0
 10
1002.306476838394
 20
435.4738997765483
 30
0.0
 10
1002.695239084612
 20
435.4738997765482
 30
0.0
 10
1003.082640763829
 20
435.4738997765482
 30
0.0
 10
1003.470960748659
 20
435.4738997765482
 30
0.0
 10
1003.860198143857
 20
435.4738997765483
 30
0.0
 10
1004.25035245113
 20
435.4738997765482
 30
0.0
 10
1004.641421648801
 20
435.4738997765483
 30
0.0
 10
1004.994249903566
 20
435.4738997765482
 30
0.0
 10
1005.308258990609
 20
435.4738997765482
 30
0.0
 10
1005.583028360496
 20
435.4738997765483
 30
0.0
 10
1005.857144683153
 20
435.4738997765482
 30
0.0
 10
1006.130608410741
 20
435.4738997765482
 30
0.0
 10
1006.403419488679
 20
435.4738997765482
 30
0.0
 10
1006.691787403874
 20
435.4738997765483
 30
0.0
 10
1006.995586784334
 20
435.4738997765482
 30
0.0
 10
1007.314623414594
 20
435.4738997765482
 30
0.0
 10
1007.626724751484
 20
435.4738997765482
 30
0.0
 10
1007.973944775733
 20
435.4738997765483
 30
0.0
 10
1008.354997807992
 20
435.4738997765482
 30
0.0
 10
1008.774111358385
 20
435.4738997765482
 30
0.0
 10
1009.188978953044
 20
435.4738997765483
 30
0.0
 10
1009.599597487109
 20
435.4738997765483
 30
0.0
 10
1009.990917701658
 20
435.4738997765483
 30
0.0
 10
1010.362872505816
 20
435.4738997765483
 30
0.0
 10
1010.715419807935
 20
435.4738997765482
 30
0.0
 10
1011.062712044013
 20
435.4738997765483
 30
0.0
 10
1011.362383736997
 20
435.4738997765482
 30
0.0
 10
1011.616421502621
 20
435.4738997765483
 30
0.0
 10
1011.826601292857
 20
435.4738997765483
 30
0.0
 10
1012.035626535111
 20
435.4738997765482
 30
0.0
 10
1012.246586266741
 20
435.4738997765483
 30
0.0
 10
1012.49409734378
 20
435.4738997765482
 30
0.0
 10
1012.774988010476
 20
435.4738997765483
 30
0.0
 10
1013.083577183641
 20
435.4738997765483
 30
0.0
 10
1013.385279126247
 20
435.4738997765483
 30
0.0
 10
1013.680092143766
 20
435.4738997765483
 30
0.0
 10
1013.968015934722
 20
435.4738997765483
 30
0.0
 10
1014.217315557116
 20
435.4738997765483
 30
0.0
 10
1014.430296384872
 20
435.4738997765483
 30
0.0
 10
1014.608914972361
 20
435.4738997765483
 30
0.0
 10
1014.783826409078
 20
435.4738997765483
 30
0.0
 10
1014.955031571681
 20
435.4738997765483
 30
0.0
 10
1015.12253048089
 20
435.4738997765483
 30
0.0
 10
1015.317530803429
 20
435.4738997765483
 30
0.0
 10
1015.537212311246
 20
435.4738997765483
 30
0.0
 10
1015.778016327504
 20
435.4738997765483
 30
0.0
 10
1016.009092382447
 20
435.4738997765483
 30
0.0
 10
1016.230095256194
 20
435.4738997765483
 30
0.0
 10
1016.440595791318
 20
435.4738997765483
 30
0.0
 10
1016.640686777593
 20
435.4738997765483
 30
0.0
 10
1016.830369060214
 20
435.4738997765483
 30
0.0
 10
1017.009641538738
 20
435.4738997765483
 30
0.0
 10
1017.178505113569
 20
435.4738997765483
 30
0.0
 10
1017.336835247011
 20
435.4738997765483
 30
0.0
 10
1017.484378222936
 20
435.4738997765483
 30
0.0
 10
1017.620781702315
 20
435.4738997765483
 30
0.0
 10
1017.745853860011
 20
435.4738997765483
 30
0.0
 10
1017.859595536153
 20
435.4738997765483
 30
0.0
 10
1017.96200597582
 20
435.4738997765483
 30
0.0
 10
1018.053085740052
 20
435.4738997765483
 30
0.0
 10
1018.132215151053
 20
435.4738997765483
 30
0.0
 10
1018.199578495488
 20
435.4738997765484
 30
0.0
 10
1018.255280042139
 20
435.4738997765484
 30
0.0
 10
1018.299651454553
 20
435.4738997765484
 30
0.0
 10
1018.332915002241
 20
435.4738997765484
 30
0.0
 10
1018.3542437845
 20
435.4738997765484
 30
0.0
 10
1018.364400965779
 20
435.4738997765484
 30
0.0
 10
1018.363337953674
 20
435.4738997765484
 30
0.0
 10
1018.363011668031
 20
435.4738997765484
 30
0.0
  0
SPLINE
  5
B9
330
1F
100
AcDbEntity
  8
0
  6
Continuous
 62
     7
370
    30
100
AcDbSpline
210
0.0
220
0.0
230
1.0
 70
     8
 71
     3
 72
    24
 73
    20
 74
     0
 42
0.000000001
 43
0.00000001
 40
0.0
 40
0.0
 40
0.0
 40
0.0
 40
0.0518713178685393
 40
0.1041043078752294
 40
0.1574762672476985
 40
0.2112409590642915
 40
0.3156293943853887
 40
0.3686113624350399
 40
0.4223612246479952
 40
0.474553970514186
 40
0.5271104560163833
 40
0.5802298953568992
 40
0.6341202771431962
 40
0.6862316339819526
 40
0.738704738622871
 40
0.7923194816326603
 40
0.8463290841756106
 40
0.9225868542312743
 40
1.0
 40
1.0
 40
1.0
 40
1.0
 10
694.758678158348
 20
408.1840303738327
 30
0.0
 10
694.7448462084052
 20
408.1840509476493
 30
0.0
 10
694.7170858654157
 20
408.1840922387333
 30
0.0
 10
694.675284931515
 20
408.1885869470852
 30
0.0
 10
694.6334979758883
 20
408.1964398503641
 30
0.0
 10
694.5791497503999
 20
408.2116494070787
 30
0.0
 10
694.5270043882941
 20
408.233628806515
 30
0.0
 10
694.4782458763501
 20
408.2618465454352
 30
0.0
 10
694.4434575154397
 20
408.2861352146285
 30
0.0
 10
694.4109284189793
 20
408.3131936309767
 30
0.0
 10
694.3808779659362
 20
408.3427508855414
 30
0.0
 10
694.3531139791279
 20
408.3750728203864
 30
0.0
 10
694.3282606221672
 20
408.4095446613144
 30
0.0
 10
694.3064812961996
 20
408.4458368398301
 30
0.0
 10
694.2878242470248
 20
408.4837489027837
 30
0.0
 10
694.2722152153281
 20
408.5235762751353
 30
0.0
 10
694.2583553221242
 20
408.5706815395446
 30
0.0
 10
694.2477837377647
 20
408.6253074900126
 30
0.0
 10
694.2463244248474
 20
408.6663429458064
 30
0.0
 10
694.2455892824623
 20
408.6870149363651
 30
0.0
  0
LINE
  5
BA
330
1F
100
AcDbEntity
  8
0
  6
Continuous
 62
     7
370
    30
100
AcDbLine
 10
694.2455892825
 20
408.6870149364
 30
0.0
 11
694.2455892825
 21
577.474071114
 31
0.0
  0
LINE
  5
BB
330
1F
100
AcDbEntity
  8
0
  6
Continuous
 62
     7
370
    30
100
AcDbLine
 10
696.7455892825
 20
408.1685272987
 30
0.0
 11
696.7455892825
 21
408.0259288863
 31
0.0
  0
SPLINE
  5
BC
330
1F
100
AcDbEntity
  8
0
  6
Continuous
 62
     7
370
    30
100
AcDbSpline
210
0.0
220
0.0
230
1.0
 70
     8
 71
     3
 72
    21
 73
    17
 74
     0
 42
0.000000001
 43
0.00000001
 40
0.0
 40
0.0
 40
0.0
 40
0.0
 40
0.0737534642337071
 40
0.147742026824461
 40
0.2214952827705946
 40
0.2952480559145557
 40
0.3692360739203631
 40
0.4429893081814822
 40
0.5167640832838606
 40
0.590773613999173
 40
0.6645491677641072
 40
0.7384567532966525
 40
0.8125993231201645
 40
0.8865075761102155
 40
0.9432537679733665
 40
1.0
 40
1.0
 40
1.0
 40
1.0
 10
695.7979252386947
 20
408.2074910127374
 30
0.0
 10
695.8351531755267
 20
408.2082449921016
 30
0.0
 10
695.9097277178782
 20
408.2097553542331
 30
0.0
 10
696.0193057814439
 20
408.210869497059
 30
0.0
 10
696.1255599217012
 20
408.2111417035115
 30
0.0
 10
696.2269076610244
 20
408.2104634750392
 30
0.0
 10
696.322252085692
 20
408.2089220342993
 30
0.0
 10
696.4104516534562
 20
408.2065506966541
 30
0.0
 10
696.4900889216748
 20
408.2033766488211
 30
0.0
 10
696.5604577102822
 20
408.1994936512339
 30
0.0
 10
696.62075332901
 20
408.1949691387
 30
0.0
 10
696.669782169984
 20
408.1898641091101
 30
0.0
 10
696.7073840663481
 20
408.1842809657226
 30
0.0
 10
696.7308188042133
 20
408.1787620407284
 30
0.0
 10
696.7434319034402
 20
408.1734889907286
 30
0.0
 10
696.7448701559521
 20
408.170181196519
 30
0.0
 10
696.7455892824626
 20
408.1685272988288
 30
0.0
  0
LINE
  5
BD
330
1F
100
AcDbEntity
  8
0
  6
Continuous
 62
     7
370
    30
100
AcDbLine
 10
694.7586777565
 20
408.1840298059
 30
0.0
 11
695.7979218174
 21
408.2074909268
 31
0.0
  0
SPLINE
  5
BE
330
1F
100
AcDbEntity
  8
0
  6
Continuous
 62
     7
370
    30
100
AcDbSpline
210
0.0
220
0.0
230
1.0
 70
     8
 71
     3
 72
    98
 73
    94
 74
     0
 42
0.000000001
 43
0.00000001
 40
0.0
 40
0.0
 40
0.0
 40
0.0
 40
0.0019176303423539
 40
0.01178708986851
 40
0.0216655910313067
 40
0.0315440921774978
 40
0.0414135516809889
 40
0.054206401309968
 40
0.0670091021367818
 40
0.0798019526663937
 40
0.0896741907039223
 40
0.0995554760819501
 40
0.1094367624232058
 40
0.1193090017754308
 40
0.1321064496627691
 40
0.1449137556736024
 40
0.1577112059266618
 40
0.1675870528681463
 40
0.1774719516069418
 40
0.1873568518677246
 40
0.1972327008865484
 40
0.2100339009230835
 40
0.222844960948982
 40
0.2356461637792206
 40
0.2455248672734577
 40
0.2554126238157246
 40
0.2653003817710848
 40
0.2751790871940331
 40
0.2879815468370954
 40
0.3007938624547884
 40
0.3135963240930277
 40
0.3234758783223228
 40
0.3333644830955868
 40
0.3432530885528972
 40
0.3531326437158377
 40
0.3659333186407251
 40
0.3787438414141084
 40
0.3915445166619178
 40
0.4014225433646689
 40
0.4113096154552924
 40
0.4211966872018241
 40
0.4310747134349281
 40
0.4438713434452207
 40
0.4566778126346511
 40
0.4694744411577162
 40
0.479349233116095
 40
0.4892330649165051
 40
0.4991168954970219
 40
0.508991685790388
 40
0.5217837838636524
 40
0.5345857156960413
 40
0.5473778111257529
 40
0.557249078959603
 40
0.567129383126177
 40
0.5770096857320351
 40
0.5868809514356879
 40
0.5996700149589055
 40
0.6124689124364311
 40
0.6252579733167573
 40
0.6351269706271353
 40
0.6450050043312355
 40
0.6548830368168285
 40
0.6647520324640852
 40
0.6775408876798392
 40
0.6903395825778981
 40
0.7031284363082325
 40
0.7129974110649149
 40
0.7228754258225637
 40
0.732753440237642
 40
0.7426224145267551
 40
0.7554139804201828
 40
0.7682153947575044
 40
0.7810069609762637
 40
0.7908781723476301
 40
0.8007584292980383
 40
0.8106386869332805
 40
0.820509899239367
 40
0.833305908530128
 40
0.8461117742215816
 40
0.8589077855096379
 40
0.8687825137363769
 40
0.8786662926459519
 40
0.8885500729689663
 40
0.8984248031248893
 40
0.9112250403238266
 40
0.924035137577321
 40
0.9368353775707802
 40
0.9467133607255783
 40
0.9566003969499273
 40
0.9664874346965107
 40
0.976365419928985
 40
0.9891678143693943
 40
1.0
 40
1.0
 40
1.0
 40
1.0
 10
707.6686988784379
 20
447.5437803125666
 30
0.0
 10
707.6687425098288
 20
447.5485078146931
 30
0.0
 10
707.669010698705
 20
447.5775663309191
 30
0.0
 10
707.6692306430506
 20
447.6214916502232
 30
0.0
 10
707.6693997375146
 20
447.6768597562134
 30
0.0
 10
707.669305511764
 20
447.722875059121
 30
0.0
 10
707.6689511173076
 20
447.7643728319911
 30
0.0
 10
707.6682367201745
 20
447.7976691883154
 30
0.0
 10
707.6670721864485
 20
447.819273699955
 30
0.0
 10
707.6656370499244
 20
447.8258054268638
 30
0.0
 10
707.6640294797203
 20
447.8207741299316
 30
0.0
 10
707.6623393927028
 20
447.8075191044688
 30
0.0
 10
707.6604266296173
 20
447.7856357149126
 30
0.0
 10
707.6580843435894
 20
447.7521434446778
 30
0.0
 10
707.6552324480973
 20
447.7037938988151
 30
0.0
 10
707.6517931280229
 20
447.6372785427859
 30
0.0
 10
707.6482994491215
 20
447.5629063917233
 30
0.0
 10
707.6448435279683
 20
447.4842609699661
 30
0.0
 10
707.6415054093762
 20
447.4045883597636
 30
0.0
 10
707.6379825201547
 20
447.317018725065
 30
0.0
 10
707.6339167737137
 20
447.212317571122
 30
0.0
 10
707.6292471257422
 20
447.0877008458722
 30
0.0
 10
707.6239199098444
 20
446.940521208067
 30
0.0
 10
707.6187607250071
 20
446.7935881689834
 30
0.0
 10
707.6138454688721
 20
446.6501626417582
 30
0.0
 10
707.6092351919214
 20
446.5130280944196
 30
0.0
 10
707.6044989622576
 20
446.3696211485467
 30
0.0
 10
707.5991681185247
 20
446.2055034382789
 30
0.0
 10
707.5932075745412
 20
446.0186708838468
 30
0.0
 10
707.5865938834445
 20
445.8074371547195
 30
0.0
 10
707.5803517175323
 20
445.6045292257489
 30
0.0
 10
707.5745321624973
 20
445.4125162053188
 30
0.0
 10
707.5691703679714
 20
445.2334040405647
 30
0.0
 10
707.5637556805649
 20
445.0503532933771
 30
0.0
 10
707.557762016806
 20
444.8453623339418
 30
0.0
 10
707.5511841698486
 20
444.6174322553682
 30
0.0
 10
707.5440315060833
 20
444.3660265107484
 30
0.0
 10
707.5374118037563
 20
444.1300820673742
 30
0.0
 10
707.531345580117
 20
443.9111863199286
 30
0.0
 10
707.5258381316902
 20
443.7103416555197
 30
0.0
 10
707.5203567805404
 20
443.508335553061
 30
0.0
 10
707.514377367185
 20
443.2856371080966
 30
0.0
 10
707.5079250828015
 20
443.0423627058553
 30
0.0
 10
707.501040978816
 20
442.7791832908421
 30
0.0
 10
707.4947909606477
 20
442.5368486030571
 30
0.0
 10
707.4891627026755
 20
442.3157866272462
 30
0.0
 10
707.4841310851806
 20
442.1158843923802
 30
0.0
 10
707.4792015386616
 20
441.9177260258065
 30
0.0
 10
707.4739106438595
 20
441.7024452450364
 30
0.0
 10
707.4683111129716
 20
441.4712587012274
 30
0.0
 10
707.4624710284534
 20
441.2259675831054
 30
0.0
 10
707.4572946033281
 20
441.0045500957549
 30
0.0
 10
707.4527380956987
 20
440.806228168566
 30
0.0
 10
707.448748826056
 20
440.629787378626
 30
0.0
 10
707.4449260501834
 20
440.4577969237614
 30
0.0
 10
707.4409190073585
 20
440.2741691877912
 30
0.0
 10
707.4368020178949
 20
440.081084395528
 30
0.0
 10
707.4326625650247
 20
439.8812719885125
 30
0.0
 10
707.4291416823248
 20
439.7056747602752
 30
0.0
 10
707.426169142636
 20
439.5523967414466
 30
0.0
 10
707.4236706368555
 20
439.4192590026452
 30
0.0
 10
707.4213843066916
 20
439.2927767360403
 30
0.0
 10
707.419111527803
 20
439.1614490278467
 30
0.0
 10
707.4169399186119
 20
439.0281762818276
 30
0.0
 10
707.4149665742217
 20
438.8963112172514
 30
0.0
 10
707.4134972018899
 20
438.7862817101425
 30
0.0
 10
707.4124429685651
 20
438.6952865042435
 30
0.0
 10
707.4117162789802
 20
438.6204266820648
 30
0.0
 10
707.4112236006604
 20
438.5536797844611
 30
0.0
 10
707.4109410987778
 20
438.489435161137
 30
0.0
 10
707.4109598544873
 20
438.4309884793519
 30
0.0
 10
707.4113756605752
 20
438.3819395824106
 30
0.0
 10
707.4121241016818
 20
438.3498900675418
 30
0.0
 10
707.4131077141408
 20
438.3314475612079
 30
0.0
 10
707.4142354650855
 20
438.3233187504146
 30
0.0
 10
707.4155927279311
 20
438.3238480673376
 30
0.0
 10
707.4173334901034
 20
438.3339607595016
 30
0.0
 10
707.419542002257
 20
438.3569759941782
 30
0.0
 10
707.4223019140982
 20
438.3963340827141
 30
0.0
 10
707.425185471162
 20
438.4459354674318
 30
0.0
 10
707.4280975640476
 20
438.5021785161526
 30
0.0
 10
707.4309539920297
 20
438.5617466417935
 30
0.0
 10
707.4340095301521
 20
438.6295418606745
 30
0.0
 10
707.4375787332812
 20
438.7129279176808
 30
0.0
 10
707.4417294548823
 20
438.814871074328
 30
0.0
 10
707.4465236852002
 20
438.9382610988987
 30
0.0
 10
707.4512184114002
 20
439.0639759431234
 30
0.0
 10
707.4557315408312
 20
439.1886066351711
 30
0.0
 10
707.4599955546993
 20
439.3092052040292
 30
0.0
 10
707.4644048351157
 20
439.436621646223
 30
0.0
 10
707.4694034006757
 20
439.584063852904
 30
0.0
 10
707.4747010709057
 20
439.7432997685534
 30
0.0
 10
707.4785908483856
 20
439.8635013201752
 30
0.0
 10
707.4803736087139
 20
439.9185920184801
 30
0.0
  0
LINE
  5
BF
330
1F
100
AcDbEntity
  8
0
  6
Continuous
 62
     7
370
    30
100
AcDbLine
 10
708.1930489524
 20
507.0738997765
 30
0.0
 11
708.1930489524
 21
478.8738997765
 31
0.0
  0
LINE
  5
C0
330
1F
100
AcDbEntity
  8
0
  6
Continuous
 62
     7
370
    30
100
AcDbLine
 10
707.44954681
 20
440.6650986597
 30
0.0
 11
707.7136722296
 21
447.5404776761
 31
0.0
  0
ARC
  5
C1
330
1F
100
AcDbEntity
  8
0
  6
Continuous
 62
     7
370
    30
100
AcDbCircle
 10
31.5856198053
 20
443.3738997765
 30
0.0
 40
0.4000000000000696
100
AcDbArc
 50
180.0
 51
270.0
  0
ARC
  5
C2
330
1F
100
AcDbEntity
  8
0
  6
Continuous
 62
     7
370
    30
100
AcDbCircle
 10
58.7856198053
 20
443.3738997765
 30
0.0
 40
0.4000000000000625
100
AcDbArc
 50
270.0
 51
0.0
  0
LINE
  5
C3
330
1F
100
AcDbEntity
  8
0
  6
Continuous
 62
     7
370
    30
100
AcDbLine
 10
59.1856198053
 20
443.3738997765
 30
0.0
 11
59.1856198053
 21
451.9738997765
 31
0.0
  0
LINE
  5
C4
330
1F
100
AcDbEntity
  8
0
  6
Continuous
 62
     7
370
    30
100
AcDbLine
 10
31.1856198053
 20
451.9738997765
 30
0.0
 11
31.1856198053
 21
443.3738997765
 31
0.0
  0
ARC
  5
C5
330
1F
100
AcDbEntity
  8
0
  6
Continuous
 62
     7
370
    30
100
AcDbCircle
 10
86.1856198053
 20
451.9738997765
 30
0.0
 40
55.00000000000006
100
AcDbArc
 50
90.0
 51
180.0
  0
ARC
  5
C6
330
1F
100
AcDbEntity
  8
0
  6
Continuous
 62
     7
370
    30
100
AcDbCircle
 10
86.1856198053
 20
451.9738997765
 30
0.0
 40
27.00000000000003
100
AcDbArc
 50
90.0
 51
180.0
  0
LINE
  5
C7
330
1F
100
AcDbEntity
  8
0
  6
Continuous
 62
     7
370
    30
100
AcDbLine
 10
341.8069510476
 20
506.9738997765
 30
0.0
 11
86.1856198053
 21
506.9738997765
 31
0.0
  0
LINE
  5
C8
330
1F
100
AcDbEntity
  8
0
  6
Continuous
 62
     7
370
    30
100
AcDbLine
 10
330.685070248
 20
478.9738997765
 30
0.0
 11
341.8069510476
 21
478.9738997765
 31
0.0
  0
LINE
  5
C9
330
1F
100
AcDbEntity
  8
0
  6
Continuous
 62
     7
370
    30
100
AcDbLine
 10
86.1856198053
 20
478.9738997765
 30
0.0
 11
325.0861246742
 21
478.9738997765
 31
0.0
  0
ARC
  5
CA
330
1F
100
AcDbEntity
  8
0
  6
Continuous
 62
     7
370
    30
100
AcDbCircle
 10
31.6356198053
 20
442.7738997765
 30
0.0
 40
0.1999999999999886
100
AcDbArc
 50
90.0
 51
180.0
  0
ARC
  5
CB
330
1F
100
AcDbEntity
  8
0
  6
Continuous
 62
     7
370
    30
100
AcDbCircle
 10
58.7356198053
 20
442.7738997765
 30
0.0
 40
0.2000000000000384
100
AcDbArc
 50
0.0
 51
90.0
  0
ARC
  5
CC
330
1F
100
AcDbEntity
  8
0
  6
Continuous
 62
     7
370
    30
100
AcDbCircle
 10
58.7356198053
 20
435.6738997765
 30
0.0
 40
0.1999999999999886
100
AcDbArc
 50
270.0
 51
0.0
  0
ARC
  5
CD
330
1F
100
AcDbEntity
  8
0
  6
Continuous
 62
     7
370
    30
100
AcDbCircle
 10
31.6356198053
 20
435.6738997765
 30
0.0
 40
0.1999999999999886
100
AcDbArc
 50
180.0
 51
270.0
  0
LINE
  5
CE
330
1F
100
AcDbEntity
  8
0
  6
Continuous
 62
     7
370
    30
100
AcDbLine
 10
31.4356198053
 20
442.7738997765
 30
0.0
 11
31.4356198053
 21
435.6738997765
 31
0.0
  0
LINE
  5
CF
330
1F
100
AcDbEntity
  8
0
  6
Continuous
 62
     7
370
    30
100
AcDbLine
 10
58.9356198053
 20
435.6738997765
 30
0.0
 11
58.9356198053
 21
442.7738997765
 31
0.0
  0
ARC
  5
D0
330
1F
100
AcDbEntity
  8
0
  6
Continuous
 62
     7
370
    30
100
AcDbCircle
 10
355.2544107175
 20
577.474071114
 30
0.0
 40
0.5000000000000734
100
AcDbArc
 50
0.0
 51
91.5
  0
LINE
  5
D1
330
1F
100
AcDbEntity
  8
0
  6
Continuous
 62
     7
370
    30
100
AcDbLine
 10
355.2413222434
 20
577.9738997762
 30
0.0
 11
345.5142737865
 21
577.7191880485
 31
0.0
  0
LINE
  5
D2
330
1F
100
AcDbEntity
  8
0
  6
Continuous
 62
     7
370
    30
100
AcDbLine
 10
345.5142737865
 20
408.2286115046
 30
0.0
 11
353.2544107175
 21
408.0259288863
 31
0.0
  0
ARC
  5
D3
330
1F
100
AcDbEntity
  8
0
  6
Continuous
 62
     7
370
    30
100
AcDbCircle
 10
345.5666276831
 20
575.7198733798
 30
0.0
 40
2.000000000000105
100
AcDbArc
 50
91.499999986
 51
177.4907349552
  0
ARC
  5
D4
330
1F
100
AcDbEntity
  8
0
  6
Continuous
 62
     7
370
    30
100
AcDbCircle
 10
345.5666276831
 20
410.2279261358
 30
0.0
 40
1.999999999999989
100
AcDbArc
 50
182.5092650448
 51
268.5000000141
  0
ARC
  5
D5
330
1F
100
AcDbEntity
  8
0
  6
Continuous
 62
     7
370
    30
100
AcDbCircle
 10
2233.7544106775
 20
492.9738997578
 30
0.0
 40
1892.0
100
AcDbArc
 50
180.4269968123
 51
181.3759704848
  0
ARC
  5
D6
330
1F
100
AcDbEntity
  8
0
  6
Continuous
 62
     7
370
    30
100
AcDbCircle
 10
2233.7544106775
 20
492.9738997578
 30
0.0
 40
1892.0
100
AcDbArc
 50
181.6031448534
 51
182.5092650448
  0
ARC
  5
D7
330
1F
100
AcDbEntity
  8
0
  6
Continuous
 62
     7
370
    30
100
AcDbCircle
 10
2233.7544106775
 20
492.9738997578
 30
0.0
 40
1892.00000000007
100
AcDbArc
 50
177.4907349552
 51
179.5730031872
  0
LINE
  5
D8
330
1F
100
AcDbEntity
  8
0
  6
Continuous
 62
     7
370
    30
100
AcDbLine
 10
342.352434944
 20
447.5453322835
 30
0.0
 11
342.2863277704
 21
447.5404776761
 31
0.0
  0
SPLINE
  5
D9
330
1F
100
AcDbEntity
  8
0
  6
Continuous
 62
     7
370
    30
100
AcDbSpline
210
0.0
220
0.0
230
1.0
 70
     8
 71
     3
 72
    35
 73
    31
 74
     0
 42
0.000000001
 43
0.00000001
 40
0.0
 40
0.0
 40
0.0
 40
0.0
 40
0.0256081255466712
 40
0.0485637153408491
 40
0.0700559206976071
 40
0.0912680432612444
 40
0.1129987161257653
 40
0.135200370281856
 40
0.1884839783970553
 40
0.2422258607460044
 40
0.3068394754151594
 40
0.3724021040037014
 40
0.4392566275707535
 40
0.5078773058977478
 40
0.5789822077287992
 40
0.6533616493976319
 40
0.6886499532919315
 40
0.7222422960348046
 40
0.7529640233167093
 40
0.7816304412784598
 40
0.8098171831142692
 40
0.8361510182433072
 40
0.8642633261042041
 40
0.8950410870164687
 40
0.9291976742913365
 40
0.9455041604784241
 40
0.9622590105089507
 40
0.9793526972136073
 40
0.9966755108608628
 40
0.9999999999999999
 40
0.9999999999999999
 40
0.9999999999999999
 40
0.9999999999999999
 10
341.9006892216221
 20
442.9863836009097
 30
0.0
 10
341.9021282387538
 20
442.9561848836555
 30
0.0
 10
341.9048572170317
 20
442.8989154866542
 30
0.0
 10
341.9106536650984
 20
442.8164064302768
 30
0.0
 10
341.91735641945
 20
442.739178376249
 30
0.0
 10
341.9249227910772
 20
442.6634843693279
 30
0.0
 10
341.9331160927789
 20
442.5870139064102
 30
0.0
 10
341.9462766821006
 20
442.4729999628235
 30
0.0
 10
341.9660086878892
 20
442.3217055820574
 30
0.0
 10
341.9970195700062
 20
442.1214416061654
 30
0.0
 10
342.0358618305949
 20
441.9077863952451
 30
0.0
 10
342.0836500561774
 20
441.6801141342928
 30
0.0
 10
342.1378114274028
 20
441.4490212145227
 30
0.0
 10
342.1975737094745
 20
441.2125647378498
 30
0.0
 10
342.2628606018737
 20
440.9683723624354
 30
0.0
 10
342.3188470325197
 20
440.7624327464852
 30
0.0
 10
342.36259750196
 20
440.5990607230464
 30
0.0
 10
342.3925811831529
 20
440.4853598259027
 30
0.0
 10
342.4198617704685
 20
440.379032687188
 30
0.0
 10
342.4445520345465
 20
440.27863359542
 30
0.0
 10
342.4668495328343
 20
440.1829882285097
 30
0.0
 10
342.4878970351986
 20
440.087728635772
 30
0.0
 10
342.5077331035802
 20
439.9890825552711
 30
0.0
 10
342.5268117705276
 20
439.8808919132465
 30
0.0
 10
342.5410232442958
 20
439.7860306412812
 30
0.0
 10
342.5516892149357
 20
439.7073950664174
 30
0.0
 10
342.5591916772858
 20
439.6486600341461
 30
0.0
 10
342.566383815568
 20
439.5886782582745
 30
0.0
 10
342.5714852119486
 20
439.5444146681201
 30
0.0
 10
342.5740768649269
 20
439.5201772557091
 30
0.0
 10
342.5744941553725
 20
439.5162747113838
 30
0.0
  0
SPLINE
  5
DA
330
1F
100
AcDbEntity
  8
0
  6
Continuous
 62
     7
370
    30
100
AcDbSpline
210
0.0
220
0.0
230
1.0
 70
     8
 71
     3
 72
    48
 73
    44
 74
     0
 42
0.000000001
 43
0.00000001
 40
0.0
 40
0.0
 40
0.0
 40
0.0
 40
0.0258665310931936
 40
0.0493007365876308
 40
0.070459074051955
 40
0.089498010687659
 40
0.1065740255193132
 40
0.1218436118932354
 40
0.1354632801312134
 40
0.1517838431867343
 40
0.1656879495610469
 40
0.1775826445835073
 40
0.1878749947534138
 40
0.2067378056628295
 40
0.2239351756217972
 40
0.2410132123111307
 40
0.257829517339686
 40
0.2742093574371247
 40
0.2899783828462807
 40
0.3049628473935552
 40
0.33017928511932
 40
0.3530636590633969
 40
0.3744045317745199
 40
0.399600879519121
 40
0.4255494730316753
 40
0.4540453606723278
 40
0.4850506678499431
 40
0.5168373924825213
 40
0.5479819972641367
 40
0.5783317474992907
 40
0.6322994875448319
 40
0.6846229463947903
 40
0.7357705714613166
 40
0.7860526270337179
 40
0.8357025296790646
 40
0.8848906938530113
 40
0.9012564057281599
 40
0.9173716089988796
 40
0.9331313328044742
 40
0.9485849184862356
 40
0.9643652683047712
 40
0.9812452195008946
 40
1.0
 40
1.0
 40
1.0
 40
1.0
 10
342.2863277704255
 20
447.5404776761479
 30
0.0
 10
342.2878287832076
 20
447.5009765771975
 30
0.0
 10
342.2906896629875
 20
447.4256888137454
 30
0.0
 10
342.294611944811
 20
447.3180836653038
 30
0.0
 10
342.2980155198936
 20
447.2209006730575
 30
0.0
 10
342.3009228370707
 20
447.1334230574451
 30
0.0
 10
342.3033674799437
 20
447.0549344688268
 30
0.0
 10
342.3053805247895
 20
446.9847184478415
 30
0.0
 10
342.3071581300055
 20
446.9156509311826
 30
0.0
 10
342.3086139623584
 20
446.8486628990664
 30
0.0
 10
342.3096364542603
 20
446.7843031411041
 30
0.0
 10
342.3101154560136
 20
446.7291496914968
 30
0.0
 10
342.3101534260192
 20
446.6664158808843
 30
0.0
 10
342.3091477304286
 20
446.5955824654926
 30
0.0
 10
342.3069134311787
 20
446.5144058028359
 30
0.0
 10
342.3042566375811
 20
446.4363712617526
 30
0.0
 10
342.3009795514446
 20
446.3596104002839
 30
0.0
 10
342.2971082015533
 20
446.2848802115195
 30
0.0
 10
342.292630618581
 20
446.2129880930768
 30
0.0
 10
342.2862765687142
 20
446.1276882242871
 30
0.0
 10
342.277164166696
 20
446.0316996580804
 30
0.0
 10
342.2644505373677
 20
445.9263326327352
 30
0.0
 10
342.2496078697859
 20
445.8212809201982
 30
0.0
 10
342.2327000764494
 20
445.71180167737
 30
0.0
 10
342.2124550471185
 20
445.5917856863197
 30
0.0
 10
342.18938354166
 20
445.4632530003613
 30
0.0
 10
342.1639262979089
 20
445.3260874763317
 30
0.0
 10
342.1372814172316
 20
445.1850264860983
 30
0.0
 10
342.1106614056594
 20
445.0449805064152
 30
0.0
 10
342.0780026627131
 20
444.8715783510666
 30
0.0
 10
342.0408880596177
 20
444.6660807014098
 30
0.0
 10
342.0017559094747
 20
444.4286719225813
 30
0.0
 10
341.9681703947367
 20
444.1960961586772
 30
0.0
 10
341.9410143369608
 20
443.9667881501475
 30
0.0
 10
341.9205283133402
 20
443.7397927464549
 30
0.0
 10
341.9097517791885
 20
443.5640414238471
 30
0.0
 10
341.9043166001756
 20
443.4393512593654
 30
0.0
 10
341.9016901915006
 20
443.365675134996
 30
0.0
 10
341.8996556819563
 20
443.2933752301393
 30
0.0
 10
341.8981527830414
 20
443.2215732127968
 30
0.0
 10
341.8976023990461
 20
443.1480447142167
 30
0.0
 10
341.8982445611606
 20
443.0694685113217
 30
0.0
 10
341.899846245311
 20
443.0150332282863
 30
0.0
 10
341.900689221622
 20
442.9863836009096
 30
0.0
  0
LINE
  5
DB
330
1F
100
AcDbEntity
  8
0
  6
Continuous
 62
     7
370
    30
100
AcDbLine
 10
31.5856198053
 20
442.9738997765
 30
0.0
 11
58.7856198053
 21
442.9738997765
 31
0.0
  0
SPLINE
  5
DC
330
1F
100
AcDbEntity
  8
0
  6
Continuous
 62
     7
370
    30
100
AcDbSpline
210
0.0
220
0.0
230
1.0
 70
     8
 71
     3
 72
    83
 73
    79
 74
     0
 42
0.000000001
 43
0.00000001
 40
0.0
 40
0.0
 40
0.0
 40
0.0
 40
0.0046376668453407
 40
0.0163938864770235
 40
0.0284228074231626
 40
0.0404517523277131
 40
0.0525743027236036
 40
0.0646968965259051
 40
0.0760419751548169
 40
0.0873870983237958
 40
0.0988068583142276
 40
0.110226672007892
 40
0.1218740961299662
 40
0.1335215834756072
 40
0.1452440848932909
 40
0.1569666529245911
 40
0.1688595772738443
 40
0.1807525707986732
 40
0.1927186795950881
 40
0.2046848552271819
 40
0.2168715985444041
 40
0.2290584073749569
 40
0.241317213736487
 40
0.2535760793593186
 40
0.2665182501069298
 40
0.2794604838478704
 40
0.2924824692747081
 40
0.3055045081677839
 40
0.3187697605363484
 40
0.3320350591440183
 40
0.3453811138827751
 40
0.3587272054445872
 40
0.3726919757579316
 40
0.3866567789836022
 40
0.4007120949805735
 40
0.4147674348388801
 40
0.4291042666763327
 40
0.4434411153979161
 40
0.4578737784454358
 40
0.4723064511242275
 40
0.4868458410005985
 40
0.5013852338653753
 40
0.5160238776336957
 40
0.5306625176558918
 40
0.5456145780241217
 40
0.5605666262995762
 40
0.5756274079910808
 40
0.5906881674497032
 40
0.605325427936316
 40
0.6199626580299864
 40
0.6347042487537902
 40
0.6494457950549815
 40
0.664523026529945
 40
0.6796001918861798
 40
0.6947969424491073
 40
0.7099936035139669
 40
0.7242593894871148
 40
0.7385250882251033
 40
0.7528997048630159
 40
0.7672742131639261
 40
0.7820083622513725
 40
0.7967423721191074
 40
0.8116088882205231
 40
0.8264752430618706
 40
0.8397280959068935
 40
0.8529808408267333
 40
0.8663405980774005
 40
0.8797002437589475
 40
0.8934145878451323
 40
0.9071288162272918
 40
0.9209734210114251
 40
0.9348179244550692
 40
0.9468114123112356
 40
0.9588048581643747
 40
0.9708906575548439
 40
0.9829764319678058
 40
0.9953579194952599
 40
1.0
 40
1.0
 40
1.0
 40
1.0
 10
325.0861246741883
 20
478.9739839884789
 30
0.0
 10
325.0859978579341
 20
478.9739628785113
 30
0.0
 10
325.0855495697446
 20
478.9738882559857
 30
0.0
 10
325.0892179001177
 20
478.9744992946103
 30
0.0
 10
325.097165734856
 20
478.9758215695525
 30
0.0
 10
325.1098563795465
 20
478.9779246131441
 30
0.0
 10
325.1268958372544
 20
478.9807348805825
 30
0.0
 10
325.147891347691
 20
478.9841740476909
 30
0.0
 10
325.1724060751017
 20
478.9881584974406
 30
0.0
 10
325.2001268215793
 20
478.9926230573644
 30
0.0
 10
325.2315673955807
 20
478.9976345166321
 30
0.0
 10
325.2669002875921
 20
479.0031992392388
 30
0.0
 10
325.3060633251691
 20
479.0092847138358
 30
0.0
 10
325.3491254282569
 20
479.0158747216805
 30
0.0
 10
325.3957635081788
 20
479.0228927699156
 30
0.0
 10
325.4461300214404
 20
479.0303320914114
 30
0.0
 10
325.5000784966622
 20
479.0381391359423
 30
0.0
 10
325.5576562472619
 20
479.0462863506701
 30
0.0
 10
325.6185139610229
 20
479.0546895811513
 30
0.0
 10
325.682936463215
 20
479.0633520385904
 30
0.0
 10
325.750744870396
 20
479.0722092959915
 30
0.0
 10
325.8220042914576
 20
479.0812283681071
 30
0.0
 10
325.8961964659458
 20
479.0903028469179
 30
0.0
 10
325.974631514393
 20
479.0995486586121
 30
0.0
 10
326.0572049995067
 20
479.1088910948504
 30
0.0
 10
326.1441043231615
 20
479.1182855557435
 30
0.0
 10
326.2337198449438
 20
479.1275042680052
 30
0.0
 10
326.3264823502868
 20
479.1365458489453
 30
0.0
 10
326.4221080913837
 20
479.1453284511784
 30
0.0
 10
326.5206787751264
 20
479.1538088402363
 30
0.0
 10
326.6214640530602
 20
479.1618756335146
 30
0.0
 10
326.7258998359818
 20
479.1695952374673
 30
0.0
 10
326.83371840846
 20
479.176873086332
 30
0.0
 10
326.9450645479135
 20
479.1836475608731
 30
0.0
 10
327.0581531203946
 20
479.1897562620491
 30
0.0
 10
327.1735696971014
 20
479.195192511753
 30
0.0
 10
327.2909139511522
 20
479.19988549392
 30
0.0
 10
327.4102763730655
 20
479.2037971543546
 30
0.0
 10
327.5306941020493
 20
479.2068586873988
 30
0.0
 10
327.6522678313582
 20
479.209051802638
 30
0.0
 10
327.7745329844755
 20
479.2103420676169
 30
0.0
 10
327.8975642582258
 20
479.2107180985448
 30
0.0
 10
328.0208552695851
 20
479.2101618804062
 30
0.0
 10
328.1450747056015
 20
479.2086643019347
 30
0.0
 10
328.269721062857
 20
479.2062091146061
 30
0.0
 10
328.3948611961578
 20
479.2027883178062
 30
0.0
 10
328.519383697299
 20
479.1984318582228
 30
0.0
 10
328.6418941162295
 20
479.1932196121014
 30
0.0
 10
328.7619028544329
 20
479.1872255314142
 30
0.0
 10
328.8795262219379
 20
479.180508708814
 30
0.0
 10
328.9956801906592
 20
479.1730506601592
 30
0.0
 10
329.1110058787154
 20
479.1648430823494
 30
0.0
 10
329.2249474154298
 20
479.1559444763133
 30
0.0
 10
329.3375128196677
 20
479.146387595344
 30
0.0
 10
329.4475816720037
 20
479.1363071381278
 30
0.0
 10
329.5527011371196
 20
479.1259992523453
 30
0.0
 10
329.6525570831291
 20
479.1155989156703
 30
0.0
 10
329.7474204061561
 20
479.1051796569669
 30
0.0
 10
329.8391713070624
 20
479.0945961677704
 30
0.0
 10
329.9283123357432
 20
479.083842280728
 30
0.0
 10
330.0142744117861
 20
479.0730301772394
 30
0.0
 10
330.0969698246971
 20
479.0622219305071
 30
0.0
 10
330.175399650688
 20
479.0516035525893
 30
0.0
 10
330.2466199055574
 20
479.0416472384084
 30
0.0
 10
330.3107576478978
 20
479.0324322681224
 30
0.0
 10
330.3684050151234
 20
479.0239524727393
 30
0.0
 10
330.4218474422032
 20
479.015921256651
 30
0.0
 10
330.4713327318773
 20
479.008339330361
 30
0.0
 10
330.5164026970049
 20
479.0013127098201
 30
0.0
 10
330.5568990865296
 20
478.9948997371418
 30
0.0
 10
330.5922087177322
 20
478.9892329234365
 30
0.0
 10
330.620824521085
 20
478.9845866554202
 30
0.0
 10
330.6433455619425
 20
478.9808989046874
 30
0.0
 10
330.6605330955881
 20
478.9780651900165
 30
0.0
 10
330.6734821172346
 20
478.9759198643502
 30
0.0
 10
330.6818236980395
 20
478.9745322906409
 30
0.0
 10
330.6857362516832
 20
478.9738805953157
 30
0.0
 10
330.685212945909
 20
478.9739677019734
 30
0.0
 10
330.6850702480017
 20
478.9739914546977
 30
0.0
  0
SPLINE
  5
DD
330
1F
100
AcDbEntity
  8
0
  6
Continuous
 62
     7
370
    30
100
AcDbSpline
210
0.0
220
0.0
230
1.0
 70
    24
 71
     3
 72
   112
 73
   108
 74
     0
 42
0.000000001
 43
0.00000001
 40
0.0
 40
0.0
 40
0.0
 40
0.0
 40
0.0104577730170556
 40
0.0208959915312465
 40
0.0313232539403878
 40
0.0417481857518477
 40
0.0483038150002874
 40
0.054864074908417
 40
0.0614311020349732
 40
0.0680938886158956
 40
0.0750656467796987
 40
0.0854216708332775
 40
0.0957631086876041
 40
0.1060983610523656
 40
0.1164358437170965
 40
0.1267839670298383
 40
0.1371511154419964
 40
0.1440326927916406
 40
0.1509031291937239
 40
0.1577648562211109
 40
0.1646203147140939
 40
0.1714719522123137
 40
0.1783222203510348
 40
0.1890898249215882
 40
0.1998696157709423
 40
0.2106710709767559
 40
0.2214243792977743
 40
0.232153150268932
 40
0.2428666999817335
 40
0.2535743842569755
 40
0.2642855742851818
 40
0.2750096320663948
 40
0.2857558859700499
 40
0.2965091939450347
 40
0.3072379647619669
 40
0.3179515144360962
 40
0.3286591987113394
 40
0.3393703887011095
 40
0.3500944463285212
 40
0.3608406998866495
 40
0.3713688395879412
 40
0.3818739001012315
 40
0.3923646267062425
 40
0.4028498005488375
 40
0.4133382167215914
 40
0.4238386621698338
 40
0.4343598936997119
 40
0.4417565394570837
 40
0.4491410788587333
 40
0.4565165365976063
 40
0.4638859485490537
 40
0.4712523580632789
 40
0.4786188122117311
 40
0.4873048481783438
 40
0.4960001593082334
 40
0.5047097105411298
 40
0.5129432364675115
 40
0.5246641818249799
 40
0.536369227843231
 40
0.5480705634874832
 40
0.5597803893095467
 40
0.5715108793700714
 40
0.5819705244831134
 40
0.5924099240845382
 40
0.6028376699584834
 40
0.6132623827032463
 40
0.6198175131490102
 40
0.6263769949800706
 40
0.6329429645956532
 40
0.639604728896715
 40
0.6465764870598179
 40
0.6569325111126525
 40
0.6672739489665883
 40
0.6776092013313186
 40
0.6879466839963729
 40
0.6982948073097984
 40
0.7086619557229942
 40
0.7155435330720447
 40
0.7224139694736559
 40
0.7292756965006929
 40
0.7361311549934485
 40
0.7429827924915626
 40
0.7498330606303011
 40
0.7606006652011286
 40
0.771380456051061
 40
0.7821819112577518
 40
0.7929352195786092
 40
0.8036639905496573
 40
0.8143775402624046
 40
0.8250852245376475
 40
0.8357964145659089
 40
0.8465204723472388
 40
0.8572667262510677
 40
0.8680200342258932
 40
0.87874880504272
 40
0.8894623547167978
 40
0.9001700389920402
 40
0.9108812289818604
 40
0.9216052866093709
 40
0.9323515401676454
 40
0.9428796798685222
 40
0.9533847403815366
 40
0.9638754669864079
 40
0.9743606408290015
 40
0.9848490570018964
 40
0.9953495024504209
 40
1.0
 40
1.0
 40
1.0
 40
1.0
 10
32.66910511600882
 20
435.4738997765484
 30
0.0
 10
32.71982070881077
 20
435.4738997765484
 30
0.0
 10
32.82115706368913
 20
435.4738997765484
 30
0.0
 10
32.98597546702234
 20
435.4738997765484
 30
0.0
 10
33.15994092050459
 20
435.4738997765484
 30
0.0
 10
33.32118943878329
 20
435.4738997765484
 30
0.0
 10
33.46562467986377
 20
435.4738997765484
 30
0.0
 10
33.59021455790837
 20
435.4738997765484
 30
0.0
 10
33.71927101678165
 20
435.4738997765485
 30
0.0
 10
33.85485510701311
 20
435.4738997765484
 30
0.0
 10
34.02049078280725
 20
435.4738997765485
 30
0.0
 10
34.21825724260966
 20
435.4738997765484
 30
0.0
 10
34.44894326005463
 20
435.4738997765484
 30
0.0
 10
34.68819786781444
 20
435.4738997765485
 30
0.0
 10
34.93602036977259
 20
435.4738997765485
 30
0.0
 10
35.19240857268538
 20
435.4738997765485
 30
0.0
 10
35.42744933329714
 20
435.4738997765484
 30
0.0
 10
35.63791171480638
 20
435.4738997765485
 30
0.0
 10
35.82117342335408
 20
435.4738997765485
 30
0.0
 10
36.00753169868817
 20
435.4738997765485
 30
0.0
 10
36.19698614300496
 20
435.4738997765485
 30
0.0
 10
36.38953731469849
 20
435.4738997765485
 30
0.0
 10
36.62246165277913
 20
435.4738997765485
 30
0.0
 10
36.89823378033727
 20
435.4738997765485
 30
0.0
 10
37.21966585271766
 20
435.4738997765485
 30
0.0
 10
37.54794462673386
 20
435.4738997765485
 30
0.0
 10
37.8823271636908
 20
435.4738997765485
 30
0.0
 10
38.22213663333765
 20
435.4738997765485
 30
0.0
 10
38.56752371213282
 20
435.4738997765485
 30
0.0
 10
38.91848692721764
 20
435.4738997765485
 30
0.0
 10
39.27502577028866
 20
435.4738997765485
 30
0.0
 10
39.63713895278345
 20
435.4738997765485
 30
0.0
 10
40.00454872293432
 20
435.4738997765485
 30
0.0
 10
40.3764844482615
 20
435.4738997765485
 30
0.0
 10
40.75221708270357
 20
435.4738997765485
 30
0.0
 10
41.13127591366641
 20
435.4738997765485
 30
0.0
 10
41.51365971050766
 20
435.4738997765485
 30
0.0
 10
41.89936775255879
 20
435.4738997765485
 30
0.0
 10
42.28839891604749
 20
435.4738997765485
 30
0.0
 10
42.67771644894311
 20
435.4738997765485
 30
0.0
 10
43.06647869516342
 20
435.4738997765485
 30
0.0
 10
43.45388037440215
 20
435.4738997765485
 30
0.0
 10
43.84220035924183
 20
435.4738997765485
 30
0.0
 10
44.23143775444085
 20
435.4738997765485
 30
0.0
 10
44.62159206170288
 20
435.4738997765485
 30
0.0
 10
45.01266125935252
 20
435.4738997765485
 30
0.0
 10
45.3654895140789
 20
435.4738997765485
 30
0.0
 10
45.67949860107559
 20
435.4738997765485
 30
0.0
 10
45.95426797091637
 20
435.4738997765485
 30
0.0
 10
46.22838429354056
 20
435.4738997765485
 30
0.0
 10
46.50184802111087
 20
435.4738997765485
 30
0.0
 10
46.77465909904468
 20
435.4738997765485
 30
0.0
 10
47.06302701425194
 20
435.4738997765485
 30
0.0
 10
47.36682639474147
 20
435.4738997765485
 30
0.0
 10
47.68586302505126
 20
435.4738997765485
 30
0.0
 10
47.99796436195544
 20
435.4738997765485
 30
0.0
 10
48.34518438617621
 20
435.4738997765485
 30
0.0
 10
48.72623741837243
 20
435.4738997765485
 30
0.0
 10
49.1453509687341
 20
435.4738997765485
 30
0.0
 10
49.56021856340884
 20
435.4738997765485
 30
0.0
 10
49.97083709753689
 20
435.4738997765485
 30
0.0
 10
50.36215731212715
 20
435.4738997765485
 30
0.0
 10
50.73411211629556
 20
435.4738997765485
 30
0.0
 10
51.08665941838206
 20
435.4738997765485
 30
0.0
 10
51.43395165444684
 20
435.4738997765485
 30
0.0
 10
51.73362334743361
 20
435.4738997765485
 30
0.0
 10
51.98766111307071
 20
435.4738997765485
 30
0.0
 10
52.19784090332727
 20
435.4738997765485
 30
0.0
 10
52.40686614560378
 20
435.4738997765485
 30
0.0
 10
52.61782587723954
 20
435.4738997765485
 30
0.0
 10
52.86533695426374
 20
435.4738997765485
 30
0.0
 10
53.14622762093366
 20
435.4738997765485
 30
0.0
 10
53.45481679408079
 20
435.4738997765485
 30
0.0
 10
53.75651873668538
 20
435.4738997765485
 30
0.0
 10
54.05133175421842
 20
435.4738997765485
 30
0.0
 10
54.339255545204
 20
435.4738997765485
 30
0.0
 10
54.58855516762593
 20
435.4738997765485
 30
0.0
 10
54.80153599540147
 20
435.4738997765485
 30
0.0
 10
54.98015458289521
 20
435.4738997765485
 30
0.0
 10
55.15506601961498
 20
435.4738997765485
 30
0.0
 10
55.32627118222075
 20
435.4738997765484
 30
0.0
 10
55.49377009142994
 20
435.4738997765485
 30
0.0
 10
55.68877041396966
 20
435.4738997765485
 30
0.0
 10
55.90845192178404
 20
435.4738997765484
 30
0.0
 10
56.14925593803618
 20
435.4738997765485
 30
0.0
 10
56.38033199297068
 20
435.4738997765484
 30
0.0
 10
56.6013348667099
 20
435.4738997765485
 30
0.0
 10
56.81183540183057
 20
435.4738997765484
 30
0.0
 10
57.0119263881034
 20
435.4738997765484
 30
0.0
 10
57.20160867072485
 20
435.4738997765484
 30
0.0
 10
57.38088114925014
 20
435.4738997765484
 30
0.0
 10
57.54974472408511
 20
435.4738997765484
 30
0.0
 10
57.70807485752974
 20
435.4738997765484
 30
0.0
 10
57.8556178334548
 20
435.4738997765484
 30
0.0
 10
57.99202131282885
 20
435.4738997765484
 30
0.0
 10
58.11709347052299
 20
435.4738997765484
 30
0.0
 10
58.23083514666441
 20
435.4738997765484
 30
0.0
 10
58.3332455863336
 20
435.4738997765484
 30
0.0
 10
58.42432535056938
 20
435.4738997765484
 30
0.0
 10
58.50345476157256
 20
435.4738997765484
 30
0.0
 10
58.57081810600764
 20
435.4738997765484
 30
0.0
 10
58.62651965265673
 20
435.4738997765484
 30
0.0
 10
58.67089106506981
 20
435.4738997765484
 30
0.0
 10
58.70415461275727
 20
435.4738997765484
 30
0.0
 10
58.72548339501735
 20
435.4738997765484
 30
0.0
 10
58.73564057629768
 20
435.4738997765484
 30
0.0
 10
58.73457756419501
 20
435.4738997765484
 30
0.0
 10
58.73425127855194
 20
435.4738997765484
 30
0.0
  0
SPLINE
  5
DE
330
1F
100
AcDbEntity
  8
0
  6
Continuous
 62
     7
370
    30
100
AcDbSpline
210
0.0
220
0.0
230
1.0
 70
    24
 71
     3
 72
    23
 73
    19
 74
     0
 42
0.000000001
 43
0.00000001
 40
0.0
 40
0.0
 40
0.0
 40
0.0
 40
0.0410478603221961
 40
0.0927648147894275
 40
0.1443971222574594
 40
0.1959659312187605
 40
0.2474924683526259
 40
0.2989980126020949
 40
0.3505038689289995
 40
0.4112361712694688
 40
0.4720333250554026
 40
0.5329300448818532
 40
0.5904878208677705
 40
0.672429737888267
 40
0.7542667093601136
 40
0.8360839360099482
 40
0.9179666801991763
 40
1.0
 40
1.0
 40
1.0
 40
1.0
 10
31.63698833196929
 20
435.4738997765484
 30
0.0
 10
31.6367686177855
 20
435.4738997765484
 30
0.0
 10
31.63627208165906
 20
435.4738997765484
 30
0.0
 10
31.64388265908138
 20
435.4738997765484
 30
0.0
 10
31.65639886268165
 20
435.4738997765484
 30
0.0
 10
31.67478153757705
 20
435.4738997765484
 30
0.0
 10
31.69862198742976
 20
435.4738997765484
 30
0.0
 10
31.728029596131
 20
435.4738997765484
 30
0.0
 10
31.76505633908264
 20
435.4738997765484
 30
0.0
 10
31.81092831998075
 20
435.4738997765484
 30
0.0
 10
31.86693893481099
 20
435.4738997765484
 30
0.0
 10
31.92944288573532
 20
435.4738997765484
 30
0.0
 10
32.00734928416973
 20
435.4738997765484
 30
0.0
 10
32.10386386415634
 20
435.4738997765484
 30
0.0
 10
32.22446615527782
 20
435.4738997765484
 30
0.0
 10
32.35875567855182
 20
435.4738997765484
 30
0.0
 10
32.50555909717631
 20
435.4738997765484
 30
0.0
 10
32.6145564009104
 20
435.4738997765484
 30
0.0
 10
32.66910511600882
 20
435.4738997765484
 30
0.0
  0
LINE
  5
DF
330
1F
100
AcDbEntity
  8
0
  6
Continuous
 62
     7
370
    30
100
AcDbLine
 10
355.7544107175
 20
577.474071114
 30
0.0
 11
355.7544107175
 21
408.6870149364
 31
0.0
  0
SPLINE
  5
E0
330
1F
100
AcDbEntity
  8
0
  6
Continuous
 62
     7
370
    30
100
AcDbSpline
210
0.0
220
0.0
230
1.0
 70
     8
 71
     3
 72
    24
 73
    20
 74
     0
 42
0.000000001
 43
0.00000001
 40
0.0
 40
0.0
 40
0.0
 40
0.0
 40
0.0520341847379465
 40
0.1044307846921506
 40
0.1579689298992676
 40
0.2119008505051306
 40
0.2641228251474816
 40
0.3167091782947883
 40
0.3698594829950797
 40
0.4237821131308995
 40
0.4758925947232508
 40
0.5283647944728134
 40
0.5819785109571212
 40
0.6359870327069238
 40
0.7408305792997284
 40
0.7940507654071778
 40
0.8480513753820098
 40
0.9234632331885901
 40
1.0
 40
1.0
 40
1.0
 40
1.0
 10
355.7544107175377
 20
408.6870149363651
 30
0.0
 10
355.7540778231091
 20
408.6731245623095
 30
0.0
 10
355.7534097156606
 20
408.645247068512
 30
0.0
 10
355.7479663143731
 20
408.6033689488577
 30
0.0
 10
355.7391640901349
 20
408.5615843092058
 30
0.0
 10
355.7267731873538
 20
408.5207538979236
 30
0.0
 10
355.7111014948459
 20
408.4813541565752
 30
0.0
 10
355.692297054836
 20
408.4435835507589
 30
0.0
 10
355.6701578216453
 20
408.4071379422022
 30
0.0
 10
355.6450789176663
 20
408.3728093688845
 30
0.0
 10
355.6173250241322
 20
408.3408560603741
 30
0.0
 10
355.5870770166265
 20
408.3113776469067
 30
0.0
 10
355.554059256313
 20
408.2842314735627
 30
0.0
 10
355.5073440510353
 20
408.2520934849429
 30
0.0
 10
355.4568128056461
 20
408.2260571198294
 30
0.0
 10
355.4036575691845
 20
408.2066542219288
 30
0.0
 10
355.3566124530446
 20
408.1940060109642
 30
0.0
 10
355.3022848898413
 20
408.1848121151206
 30
0.0
 10
355.2617431719444
 20
408.1842922311634
 30
0.0
 10
355.2413222433799
 20
408.1840303647772
 30
0.0
  0
SPLINE
  5
E1
330
1F
100
AcDbEntity
  8
0
  6
Continuous
 62
     7
370
    30
100
AcDbSpline
210
0.0
220
0.0
230
1.0
 70
     8
 71
     3
 72
    21
 73
    17
 74
     0
 42
0.000000001
 43
0.00000001
 40
0.0
 40
0.0
 40
0.0
 40
0.0
 40
0.0737534642358895
 40
0.1477420268318878
 40
0.2214952827863015
 40
0.2952480559295249
 40
0.3692360739345959
 40
0.4429893081949771
 40
0.5167640832959774
 40
0.5907736140099079
 40
0.6645491677734642
 40
0.7384567533046281
 40
0.812599323126756
 40
0.8865075761154266
 40
0.9432537679759723
 40
1.0
 40
1.0
 40
1.0
 40
1.0
 10
354.2020747612934
 20
408.2074910125746
 30
0.0
 10
354.1648468244601
 20
408.2082449919491
 30
0.0
 10
354.0902722821049
 20
408.2097553541014
 30
0.0
 10
353.9806942185531
 20
408.2108694970264
 30
0.0
 10
353.8744400783048
 20
408.2111417035203
 30
0.0
 10
353.7730923389721
 20
408.2104634750368
 30
0.0
 10
353.6777479143052
 20
408.2089220342999
 30
0.0
 10
353.5895483465404
 20
408.2065506966538
 30
0.0
 10
353.5099110783221
 20
408.203376648821
 30
0.0
 10
353.439542289715
 20
408.1994936512338
 30
0.0
 10
353.3792466709878
 20
408.1949691386998
 30
0.0
 10
353.3302178300141
 20
408.1898641091099
 30
0.0
 10
353.2926159336505
 20
408.1842809657224
 30
0.0
 10
353.2691811957861
 20
408.1787620407282
 30
0.0
 10
353.2565680965596
 20
408.1734889907285
 30
0.0
 10
353.2551298440479
 20
408.1701811965189
 30
0.0
 10
353.2544107175376
 20
408.1685272988288
 30
0.0
  0
LINE
  5
E2
330
1F
100
AcDbEntity
  8
0
  6
Continuous
 62
     7
370
    30
100
AcDbLine
 10
353.2544107175
 20
408.0259288863
 30
0.0
 11
353.2544107175
 21
408.1685272987
 31
0.0
  0
LWPOLYLINE
  5
E3
330
1F
100
AcDbEntity
  8
0
  6
Continuous
 62
     7
370
    30
100
AcDbPolyline
 90
        9
 70
   128
 43
0.0
 10
355.2413222434
 20
408.1840303648
 10
355.1114162799
 20
408.1869616939
 10
354.9815103246
 20
408.1898933807
 10
354.8516043772
 20
408.1928254252
 10
354.7216984379
 20
408.1957578275
 10
354.5917925067
 20
408.1986905874
 10
354.4618865835
 20
408.2016237051
 10
354.3319806684
 20
408.2045571805
 10
354.2020747613
 20
408.2074910126
  0
SPLINE
  5
E4
330
1F
100
AcDbEntity
  8
0
  6
Continuous
 62
     7
370
    30
100
AcDbSpline
210
0.0
220
0.0
230
1.0
 70
     8
 71
     3
 72
    30
 73
    26
 74
     0
 42
0.000000001
 43
0.00000001
 40
0.0
 40
0.0
 40
0.0
 40
0.0
 40
0.0462878195283865
 40
0.0926397391441611
 40
0.1389916457669326
 40
0.185279447553051
 40
0.2340616048504008
 40
0.2828812669686712
 40
0.3316634136250014
 40
0.3693072316752298
 40
0.4069855137268584
 40
0.4446637903524092
 40
0.4823076009966681
 40
0.5310846187242414
 40
0.5798991559103842
 40
0.6286761658963095
 40
0.6663164721301587
 40
0.7039912514886477
 40
0.7416660281347872
 40
0.7793063306665896
 40
0.8280898177294259
 40
0.876910854902004
 40
0.925694340517086
 40
0.9633402119205124
 40
1.0
 40
1.0
 40
1.0
 40
1.0
 10
342.3939660170031
 20
446.4159664594204
 30
0.0
 10
342.3920370109045
 20
446.4741906918594
 30
0.0
 10
342.3881763273899
 20
446.5907197865537
 30
0.0
 10
342.3826309917962
 20
446.7533490766813
 30
0.0
 10
342.3772846234163
 20
446.9065348171849
 30
0.0
 10
342.3720801240345
 20
447.0514538283586
 30
0.0
 10
342.3670432687474
 20
447.1871833833166
 30
0.0
 10
342.362203129806
 20
447.3126742291573
 30
0.0
 10
342.3580069304355
 20
447.4166443389326
 30
0.0
 10
342.3543935645047
 20
447.5019542921551
 30
0.0
 10
342.3512959341675
 20
447.571548194736
 30
0.0
 10
342.3483959747408
 20
447.632949996414
 30
0.0
 10
342.3454346419715
 20
447.6912404090248
 30
0.0
 10
342.3424956690054
 20
447.7431123667923
 30
0.0
 10
342.3396737909016
 20
447.7849691804466
 30
0.0
 10
342.3374060954427
 20
447.8103273892407
 30
0.0
 10
342.335609630715
 20
447.8226089541761
 30
0.0
 10
342.3342006696955
 20
447.825121444864
 30
0.0
 10
342.3330205703901
 20
447.8189782332773
 30
0.0
 10
342.3319786640257
 20
447.8027185092213
 30
0.0
 10
342.3311664893396
 20
447.7730228949873
 30
0.0
 10
342.3306792743219
 20
447.7265675792993
 30
0.0
 10
342.3306008083878
 20
447.6702620461803
 30
0.0
 10
342.3308070699782
 20
447.6091437665055
 30
0.0
 10
342.3311276164847
 20
447.5653737600279
 30
0.0
 10
342.3312857628099
 20
447.5437791846903
 30
0.0
  0
LWPOLYLINE
  5
E5
330
1F
100
AcDbEntity
  8
0
  6
Continuous
 62
     7
370
    30
100
AcDbPolyline
 90
       69
 70
   128
 43
0.0
 10
342.5196069058
 20
439.9191704926
 10
342.5231040159
 20
439.8111374175
 10
342.5278645069
 20
439.6664687819
 10
342.53250093
 20
439.5280160512
 10
342.5370004168
 20
439.3961670161
 10
342.542618137
 20
439.2354125763
 10
342.5479864855
 20
439.0862996508
 10
342.553080783
 20
438.9495139675
 10
342.5568163799
 20
438.852620611
 10
342.5603781447
 20
438.7633545179
 10
342.5637565678
 20
438.6819496738
 10
342.5669421397
 20
438.6086400644
 10
342.5707770223
 20
438.525840784
 10
342.5742748213
 20
438.4569182686
 10
342.5774194424
 20
438.4021899838
 10
342.5795990886
 20
438.3697792782
 10
342.5815618177
 20
438.3459375053
 10
342.5833025516
 20
438.330718406
 10
342.5848162119
 20
438.3241757213
 10
342.586436782
 20
438.3286481697
 10
342.587670396
 20
438.3476743024
 10
342.5885113726
 20
438.3811669348
 10
342.5888896364
 20
438.4168928258
 10
342.5890322729
 20
438.4611661977
 10
342.5889392139
 20
438.5138542366
 10
342.5886103914
 20
438.5748241286
 10
342.5878329409
 20
438.6661139568
 10
342.5866621906
 20
438.7709961491
 10
342.5851035351
 20
438.8889879127
 10
342.5836367694
 20
438.9888672246
 10
342.5819421975
 20
439.0963096062
 10
342.5800247759
 20
439.2110104551
 10
342.577889461
 20
439.3326651686
 10
342.5747996815
 20
439.5005515065
 10
342.5713546651
 20
439.6795330079
 10
342.5675702855
 20
439.868785465
 10
342.5644224836
 20
440.0216050377
 10
342.5610804286
 20
440.1801483709
 10
342.5575535432
 20
440.3439734473
 10
342.5538512501
 20
440.5126382494
 10
342.5487964238
 20
440.738218909
 10
342.5434646449
 20
440.9711404029
 10
342.5378804648
 20
441.2103305688
 10
342.5334060797
 20
441.39886679
 10
342.5287929821
 20
441.5906390953
 10
342.5240539924
 20
441.7851181281
 10
342.5192019313
 20
441.981774532
 10
342.5127528133
 20
442.2395728576
 10
342.5061363695
 20
442.5001269112
 10
342.4993830382
 20
442.7622382602
 10
342.4940874614
 20
442.965193582
 10
342.4887243961
 20
443.1685314507
 10
342.483308608
 20
443.3716950752
 10
342.4778548625
 20
443.5741276646
 10
342.4707402317
 20
443.8350183758
 10
342.4635867181
 20
444.0937716876
 10
342.4564272057
 20
444.3491981637
 10
342.4509086669
 20
444.543650301
 10
342.445401435
 20
444.7355899781
 10
342.4399205564
 20
444.9244956645
 10
342.4344810773
 20
445.1098458296
 10
342.4275024773
 20
445.3444427562
 10
342.4206177379
 20
445.5722514071
 10
342.4138585148
 20
445.792224162
 10
342.4087385146
 20
445.9562753455
 10
342.4037073337
 20
446.1152014676
 10
342.3987786189
 20
446.2685745113
 10
342.393966017
 20
446.4159664594
 10
342.393966017
 20
446.4159664594
  0
LINE
  5
E6
330
1F
100
AcDbEntity
  8
0
  6
Continuous
 62
     7
370
    30
100
AcDbLine
 10
341.8069510476
 20
478.8738997765
 30
0.0
 11
341.8069510476
 21
507.0738997765
 31
0.0
  0
LINE
  5
E7
330
1F
100
AcDbEntity
  8
0
  6
Continuous
 62
     7
370
    30
100
AcDbLine
 10
342.2863277704
 20
447.5404776761
 30
0.0
 11
342.5504456415
 21
440.6652951544
 31
0.0
  0
LINE
  5
E8
330
1F
100
AcDbEntity
  8
0
  6
Continuous
 62
     7
370
    30
100
AcDbLine
 10
511.0
 20
339.8069510476
 30
0.0
 11
511.0
 21
84.1856198053
 31
0.0
  0
LINE
  5
E9
330
1F
100
AcDbEntity
  8
0
  6
Continuous
 62
     7
370
    30
100
AcDbLine
 10
539.0
 20
84.1856198053
 30
0.0
 11
539.0
 21
339.8069510476
 31
0.0
  0
LINE
  5
EA
330
1F
100
AcDbEntity
  8
0
  6
Continuous
 62
     7
370
    30
100
AcDbLine
 10
511.0
 20
84.1856198053
 30
0.0
 11
511.0
 21
43.1856198053
 31
0.0
  0
LINE
  5
EB
330
1F
100
AcDbEntity
  8
0
  6
Continuous
 62
     7
370
    30
100
AcDbLine
 10
539.0
 20
43.1856198053
 30
0.0
 11
539.0
 21
84.1856198053
 31
0.0
  0
ARC
  5
EC
330
1F
100
AcDbEntity
  8
0
  6
Continuous
 62
     7
370
    30
100
AcDbCircle
 10
440.4998286625
 20
353.2544107175
 30
0.0
 40
0.4999999999999583
100
AcDbArc
 50
90.0
 51
181.5
  0
ARC
  5
ED
330
1F
100
AcDbEntity
  8
0
  6
Continuous
 62
     7
370
    30
100
AcDbCircle
 10
609.5001713375
 20
353.2544107175
 30
0.0
 40
0.4999999999999583
100
AcDbArc
 50
358.5
 51
90.0
  0
LINE
  5
EE
330
1F
100
AcDbEntity
  8
0
  6
Continuous
 62
     7
370
    30
100
AcDbLine
 10
440.0000000004
 20
353.2413222434
 30
0.0
 11
440.2547117281
 21
343.5142737865
 31
0.0
  0
LINE
  5
EF
330
1F
100
AcDbEntity
  8
0
  6
Continuous
 62
     7
370
    30
100
AcDbLine
 10
609.7452882719
 20
343.5142737865
 30
0.0
 11
609.9999999996
 21
353.2413222434
 31
0.0
  0
ARC
  5
F0
330
1F
100
AcDbEntity
  8
0
  6
Continuous
 62
     7
370
    30
100
AcDbCircle
 10
442.254026378
 20
343.5666276831
 30
0.0
 40
2.000000000000039
100
AcDbArc
 50
181.499999986
 51
267.4907349552
  0
ARC
  5
F1
330
1F
100
AcDbEntity
  8
0
  6
Continuous
 62
     7
370
    30
100
AcDbCircle
 10
607.745973622
 20
343.5666276831
 30
0.0
 40
1.999999999999991
100
AcDbArc
 50
272.5092650448
 51
358.5000000141
  0
ARC
  5
F2
330
1F
100
AcDbEntity
  8
0
  6
Continuous
 62
     7
370
    30
100
AcDbCircle
 10
525.0
 20
2231.7544106775
 30
0.0
 40
1892.0
100
AcDbArc
 50
267.4907349552
 51
269.5730031875
  0
ARC
  5
F3
330
1F
100
AcDbEntity
  8
0
  6
Continuous
 62
     7
370
    30
100
AcDbCircle
 10
525.0
 20
2231.7544106775
 30
0.0
 40
1892.0
100
AcDbArc
 50
270.4269968125
 51
272.5092650448
  0
ARC
  5
F4
330
1F
100
AcDbEntity
  8
0
  6
Continuous
 62
     7
370
    30
100
AcDbCircle
 10
525.0
 20
43.1856198053
 30
0.0
 40
14.00000000000001
100
AcDbArc
 50
270.0
 51
0.0
  0
ARC
  5
F5
330
1F
100
AcDbEntity
  8
0
  6
Continuous
 62
     7
370
    30
100
AcDbCircle
 10
525.0
 20
43.1856198053
 30
0.0
 40
14.00000000000001
100
AcDbArc
 50
180.0
 51
270.0
  0
LINE
  5
F6
330
1F
100
AcDbEntity
  8
0
  6
Continuous
 62
     7
370
    30
100
AcDbLine
 10
440.4998286625
 20
353.7544107175
 30
0.0
 11
609.5001713375
 21
353.7544107175
 31
0.0
  0
LINE
  5
F7
330
1F
100
AcDbEntity
  8
0
  6
Continuous
 62
     7
370
    30
100
AcDbLine
 10
525.0
 20
339.8069510476
 30
0.0
 11
510.9
 21
339.8069510476
 31
0.0
  0
LINE
  5
F8
330
1F
100
AcDbEntity
  8
0
  6
Continuous
 62
     7
370
    30
100
AcDbLine
 10
539.1
 20
339.8069510476
 30
0.0
 11
525.0
 21
339.8069510476
 31
0.0
  0
SPLINE
  5
F9
330
1F
100
AcDbEntity
  8
0
  6
Continuous
 62
     7
370
    30
100
AcDbSpline
210
0.0
220
0.0
230
1.0
 70
     8
 71
     3
 72
    84
 73
    80
 74
     0
 42
0.000000001
 43
0.00000001
 40
0.0
 40
0.0
 40
0.0
 40
0.0
 40
0.0143136019977261
 40
0.0200435760296963
 40
0.0295680801313373
 40
0.0394533137096998
 40
0.0500575355062416
 40
0.0611283910169361
 40
0.0725646692772912
 40
0.0842855513439853
 40
0.096233582526964
 40
0.108366238314757
 40
0.1206514708717281
 40
0.1330646673015417
 40
0.1455866040275949
 40
0.1582020382233565
 40
0.1708987192646005
 40
0.1836666819787642
 40
0.196497732530908
 40
0.2093850683676192
 40
0.222322993047233
 40
0.2353066993032156
 40
0.2483321019051198
 40
0.2613957073649671
 40
0.2744945112568494
 40
0.2876259164753586
 40
0.3007876675480266
 40
0.3139777973838862
 40
0.3271945837444223
 40
0.3404365133858515
 40
0.3537022523010815
 40
0.366990620850995
 40
0.3803005728408294
 40
0.3936311778020481
 40
0.4069816058936094
 40
0.4203511149558221
 40
0.4337390393426262
 40
0.4471447802295235
 40
0.4605677971515305
 40
0.4740076005700906
 40
0.4874637453040964
 40
0.500935824686474
 40
0.5144234653356263
 40
0.5279263224449684
 40
0.5414440755116396
 40
0.554976424436632
 40
0.5685230859407762
 40
0.5820837902491219
 40
0.5956582780001569
 40
0.6092462973479233
 40
0.6228476012263447
 40
0.6364619447493057
 40
0.6500890827281749
 40
0.6637287672843275
 40
0.6773807455448813
 40
0.6910447574082796
 40
0.7047205333670301
 40
0.7184077923832325
 40
0.7321062398078846
 40
0.7458155653403815
 40
0.7595354410268786
 40
0.7732655192958091
 40
0.7870054310318552
 40
0.8007547836907466
 40
0.8145131594598575
 40
0.8282801134714786
 40
0.8420551720736181
 40
0.8558378311703054
 40
0.8696275546420416
 40
0.8834237728571105
 40
0.8972258812892663
 40
0.9110332392560487
 40
0.9248451687950334
 40
0.9386609536941365
 40
0.9524798386977835
 40
0.9663008270664993
 40
0.9801230114815496
 40
0.9939455026354644
 40
1.0
 40
1.0
 40
1.0
 40
1.0
 10
739.4051376889336
 20
140.3455485721402
 30
0.0
 10
739.312138654023
 20
140.1837835288927
 30
0.0
 10
739.1819105516058
 20
139.9572612360559
 30
0.0
 10
738.9919196042921
 20
139.6219088952093
 30
0.0
 10
738.8313164215485
 20
139.3362713493303
 30
0.0
 10
738.6411456021896
 20
138.9944116623146
 30
0.0
 10
738.4428892265788
 20
138.6340475292981
 30
0.0
 10
738.2368142297653
 20
138.2549989451676
 30
0.0
 10
738.025865783528
 20
137.8621479724272
 30
0.0
 10
737.811718034997
 20
137.458180050106
 30
0.0
 10
737.5956379552273
 20
137.045133864059
 30
0.0
 10
737.3785613262679
 20
136.6245065306639
 30
0.0
 10
737.1611995357551
 20
136.1974313874664
 30
0.0
 10
736.9441045634806
 20
135.7647838789503
 30
0.0
 10
736.7277131203274
 20
135.3272536915238
 30
0.0
 10
736.5123769204026
 20
134.8853940274547
 30
0.0
 10
736.2983838587974
 20
134.4396560025057
 30
0.0
 10
736.0859731165546
 20
133.990413105452
 30
0.0
 10
735.8753461258262
 20
133.5379789028766
 30
0.0
 10
735.666674663404
 20
133.0826200670406
 30
0.0
 10
735.4601069166777
 20
132.624566109546
 30
0.0
 10
735.2557720946583
 20
132.1640167566498
 30
0.0
 10
735.0537839789282
 20
131.7011476105235
 30
0.0
 10
734.8542436912353
 20
131.2361145470694
 30
0.0
 10
734.6572418745793
 20
130.7690571702296
 30
0.0
 10
734.4628604297953
 20
130.3001015531293
 30
0.0
 10
734.2711739114279
 20
129.8293624340808
 30
0.0
 10
734.0822506597034
 20
129.3569449915391
 30
0.0
 10
733.8961537260708
 20
128.8829462906796
 30
0.0
 10
733.7129416358082
 20
128.4074564716014
 30
0.0
 10
733.5326690209047
 20
127.9305597325049
 30
0.0
 10
733.355387148844
 20
127.452335148948
 30
0.0
 10
733.1811443672228
 20
126.9728573610837
 30
0.0
 10
733.0099864798262
 20
126.4921971538742
 30
0.0
 10
732.8419570665242
 20
126.0104219500161
 30
0.0
 10
732.6770977568087
 20
125.5275962312617
 30
0.0
 10
732.5154484648609
 20
125.04378190071
 30
0.0
 10
732.3570475924836
 20
124.5590385961922
 30
0.0
 10
732.2019322050567
 20
124.0734239629749
 30
0.0
 10
732.0501381847014
 20
123.5869938924814
 30
0.0
 10
731.9017003640935
 20
123.0998027325581
 30
0.0
 10
731.7566526437477
 20
122.6119034738148
 30
0.0
 10
731.6150280950983
 20
122.1233479158186
 30
0.0
 10
731.4768590513097
 20
121.6341868162709
 30
0.0
 10
731.3421771874163
 20
121.1444700258205
 30
0.0
 10
731.2110135911247
 20
120.6542466107151
 30
0.0
 10
731.0833988253819
 20
120.1635649651488
 30
0.0
 10
730.9593629836316
 20
119.6724729148945
 30
0.0
 10
730.8389357385296
 20
119.1810178135556
 30
0.0
 10
730.7221463847502
 20
118.6892466325833
 30
0.0
 10
730.6090238764149
 20
118.19720604602
 30
0.0
 10
730.4995968595625
 20
117.7049425107768
 30
0.0
 10
730.3938937000325
 20
117.2125023431675
 30
0.0
 10
730.2919425070265
 20
116.7199317922544
 30
0.0
 10
730.1937711525873
 20
116.2272771105116
 30
0.0
 10
730.0994072871622
 20
115.7345846221996
 30
0.0
 10
730.0088783513888
 20
115.2419007897693
 30
0.0
 10
729.9222115841953
 20
114.7492722785581
 30
0.0
 10
729.8394340272811
 20
114.256746019949
 30
0.0
 10
729.7605725260178
 20
113.7643692731234
 30
0.0
 10
729.6856537267865
 20
113.2721896854635
 30
0.0
 10
729.6147040707496
 20
112.7802553516032
 30
0.0
 10
729.5477497840557
 20
112.2886148710928
 30
0.0
 10
729.4848168644289
 20
111.7973174045595
 30
0.0
 10
729.4259310642253
 20
111.3064127282227
 30
0.0
 10
729.3711178695172
 20
110.8159512864564
 30
0.0
 10
729.3204024767684
 20
110.3259842425608
 30
0.0
 10
729.2738097611618
 20
109.8365635258345
 30
0.0
 10
729.2313642587411
 20
109.3477418805663
 30
0.0
 10
729.1930900796265
 20
108.859572894198
 30
0.0
 10
729.1590110614525
 20
108.3721110877105
 30
0.0
 10
729.1291500087544
 20
107.8854117559565
 30
0.0
 10
729.1035313290122
 20
107.3995317217145
 30
0.0
 10
729.0821709699327
 20
106.9145266555823
 30
0.0
 10
729.0651138364539
 20
106.4304635493172
 30
0.0
 10
729.0522940114602
 20
105.9473814945623
 30
0.0
 10
729.0440556290481
 20
105.4654317144615
 30
0.0
 10
729.0401162577218
 20
105.0744645904821
 30
0.0
 10
729.0405235958802
 20
104.8445915399736
 30
0.0
 10
729.0406476704001
 20
104.7745725943376
 30
0.0
  0
SPLINE
  5
FA
330
1F
100
AcDbEntity
  8
0
  6
Continuous
 62
     7
370
    30
100
AcDbSpline
210
0.0
220
0.0
230
1.0
 70
     8
 71
     3
 72
    81
 73
    77
 74
     0
 42
0.000000001
 43
0.00000001
 40
0.0
 40
0.0
 40
0.0
 40
0.0
 40
0.0042146431547811
 40
0.0185956795022972
 40
0.0329838693280583
 40
0.0473781581558793
 40
0.0617775465028272
 40
0.0761810912394859
 40
0.0905878297805299
 40
0.1049967257430418
 40
0.1194070246721025
 40
0.1338180330244295
 40
0.1482291155778356
 40
0.1626396950162581
 40
0.1770492513792957
 40
0.1914573213799576
 40
0.2058634976226014
 40
0.2202674277485538
 40
0.2346688135393436
 40
0.249067410004483
 40
0.2634630244809149
 40
0.2778555157708509
 40
0.2922447933427434
 40
0.3066308166216095
 40
0.3210135943941326
 40
0.3353931843533027
 40
0.3497696928113224
 40
0.3641432746064401
 40
0.3785141332361192
 40
0.3928825212476906
 40
0.407248740923695
 40
0.4216131453035608
 40
0.4359761395882965
 40
0.4503381829836152
 40
0.4646997910465411
 40
0.4790615386110261
 40
0.4934240633862154
 40
0.5077880703376421
 40
0.522154336985771
 40
0.5365237197892379
 40
0.5508971618158913
 40
0.5652757019564374
 40
0.5796604859992268
 40
0.594052779967995
 40
0.6084539862344831
 40
0.6228656630628503
 40
0.6372895484368314
 40
0.6517275892847563
 40
0.666181977578554
 40
0.6806551952808966
 40
0.6951500708257371
 40
0.7096698508233159
 40
0.722709500093411
 40
0.7357434273620924
 40
0.7487705172081558
 40
0.7617905527436253
 40
0.7748032274888973
 40
0.7878081184960173
 40
0.8008046480998972
 40
0.8137920297378578
 40
0.8267691893962132
 40
0.8397346486942685
 40
0.8526863455835634
 40
0.8656213496985223
 40
0.8785353917840893
 40
0.8914220473991665
 40
0.9042712359663848
 40
0.917066254818347
 40
0.92977735637985
 40
0.9423460535660736
 40
0.9546397284336033
 40
0.9662810020233946
 40
0.9761561707050139
 40
0.9839406203784109
 40
0.9930223966800525
 40
1.0
 40
1.0
 40
1.0
 40
1.0
 10
765.0321612611036
 20
167.1131093453748
 30
0.0
 10
764.9898835499408
 20
167.0888666223921
 30
0.0
 10
764.8033475282654
 20
166.9819038522849
 30
0.0
 10
764.4737544738689
 20
166.7874030617726
 30
0.0
 10
764.0433765397406
 20
166.529500385819
 30
0.0
 10
763.6142174399994
 20
166.2664668198273
 30
0.0
 10
763.1862093281536
 20
165.9987995431669
 30
0.0
 10
762.7594347051364
 20
165.7264260783653
 30
0.0
 10
762.3339358645015
 20
165.4494282611785
 30
0.0
 10
761.909764105464
 20
165.1678469244145
 30
0.0
 10
761.4869651941282
 20
164.8817332357214
 30
0.0
 10
761.0655818234565
 20
164.5911337210008
 30
0.0
 10
760.645654857188
 20
164.2960953533283
 30
0.0
 10
760.2272236576121
 20
163.9966644977454
 30
0.0
 10
759.8103260568996
 20
163.6928871144958
 30
0.0
 10
759.3949984211611
 20
163.3848086269032
 30
0.0
 10
758.9812756922894
 20
163.0724738847409
 30
0.0
 10
758.5691914374329
 20
162.7559271070822
 30
0.0
 10
758.1587778971455
 20
162.4352118350461
 30
0.0
 10
757.750066033708
 20
162.1103708855623
 30
0.0
 10
757.3430855783628
 20
161.7814463077507
 30
0.0
 10
756.9378650770034
 20
161.4484793406603
 30
0.0
 10
756.5344319336821
 20
161.1115103718172
 30
0.0
 10
756.1328124513918
 20
160.7705788957964
 30
0.0
 10
755.733031869579
 20
160.425723472031
 30
0.0
 10
755.3351143978605
 20
160.0769816810008
 30
0.0
 10
754.9390832454272
 20
159.7243900778905
 30
0.0
 10
754.5449606455911
 20
159.3679841427081
 30
0.0
 10
754.1527678749283
 20
159.0077982257785
 30
0.0
 10
753.7625252664182
 20
158.6438654873927
 30
0.0
 10
753.3742522159274
 20
158.2762178302551
 30
0.0
 10
752.9879671813014
 20
157.9048858231857
 30
0.0
 10
752.6036876732276
 20
157.5298986143137
 30
0.0
 10
752.2214302368868
 20
157.151283831721
 30
0.0
 10
751.841210423246
 20
156.7690674691575
 30
0.0
 10
751.4630427486065
 20
156.3832737540133
 30
0.0
 10
751.0869406407397
 20
155.993924994207
 30
0.0
 10
750.7129163695957
 20
155.6010413999859
 30
0.0
 10
750.3409809600871
 20
155.2046408757794
 30
0.0
 10
749.9711440838951
 20
154.8047387762012
 30
0.0
 10
749.6034139264773
 20
154.4013476189184
 30
0.0
 10
749.2377970245153
 20
153.9944767453832
 30
0.0
 10
748.8742980677914
 20
153.5841319181655
 30
0.0
 10
748.5129196578594
 20
153.1703148406793
 30
0.0
 10
748.153662013788
 20
152.7530225813185
 30
0.0
 10
747.7965226122104
 20
152.332246878618
 30
0.0
 10
747.4414957459129
 20
151.9079732982632
 30
0.0
 10
747.0885719769468
 20
151.4801801994616
 30
0.0
 10
746.7377374645342
 20
151.0488374703208
 30
0.0
 10
746.3889730954035
 20
150.6139049183008
 30
0.0
 10
746.0422534895193
 20
150.1753303850177
 30
0.0
 10
745.7094841793363
 20
149.7483651692605
 30
0.0
 10
745.3906159852438
 20
149.3336638018561
 30
0.0
 10
745.0856296225168
 20
148.9319046512935
 30
0.0
 10
744.7829745206612
 20
148.5280770565933
 30
0.0
 10
744.482683604042
 20
148.1222363120326
 30
0.0
 10
744.1847841392713
 20
147.7144309674325
 30
0.0
 10
743.8893057755462
 20
147.3047136543724
 30
0.0
 10
743.5962813378723
 20
146.8931424519576
 30
0.0
 10
743.3057479381978
 20
146.4797828071482
 30
0.0
 10
743.0177486079878
 20
146.0647103489433
 30
0.0
 10
742.7323347501372
 20
145.6480151102425
 30
0.0
 10
742.4495699443988
 20
145.2298080715946
 30
0.0
 10
742.1695360766594
 20
144.8102316870279
 30
0.0
 10
741.8923436564645
 20
144.3894775812597
 30
0.0
 10
741.6181501421753
 20
143.9678179340895
 30
0.0
 10
741.3471946951564
 20
143.5456649455694
 30
0.0
 10
741.0798699374852
 20
143.1236933389744
 30
0.0
 10
740.8168872782696
 20
142.7031225169434
 30
0.0
 10
740.5597231336919
 20
142.2864752192832
 30
0.0
 10
740.3121507174674
 20
141.8801814016827
 30
0.0
 10
740.0848894035182
 20
141.5025476758934
 30
0.0
 10
739.8895338958047
 20
141.1742763813086
 30
0.0
 10
739.7124710429423
 20
140.8739289884442
 30
0.0
 10
739.5555573938599
 20
140.6055443563994
 30
0.0
 10
739.4506978664596
 20
140.4242979227832
 30
0.0
 10
739.4051376889336
 20
140.3455485721401
 30
0.0
  0
SPLINE
  5
FB
330
1F
100
AcDbEntity
  8
0
  6
Continuous
 62
     7
370
    30
100
AcDbSpline
210
0.0
220
0.0
230
1.0
 70
     8
 71
     3
 72
    80
 73
    76
 74
     0
 42
0.000000001
 43
0.00000001
 40
0.0
 40
0.0
 40
0.0
 40
0.0
 40
0.0156480351173844
 40
0.0219230790006269
 40
0.0323517538403498
 40
0.043176205444244
 40
0.0547877183455035
 40
0.0669090524102732
 40
0.0794285982008241
 40
0.0922570963359393
 40
0.1053308944694684
 40
0.1186026999991426
 40
0.1320366981124225
 40
0.1456052178871818
 40
0.1592864906230445
 40
0.1730631066056658
 40
0.1869209323075908
 40
0.2008483364657858
 40
0.2148356272802622
 40
0.228874636519017
 40
0.2429584075960539
 40
0.2570809584105396
 40
0.2712370987484988
 40
0.2854222880560121
 40
0.2996325234714487
 40
0.3138642508077821
 40
0.3281142931375112
 40
0.3423797930182866
 40
0.3566581653931332
 40
0.370947058917714
 40
0.3852443240010805
 40
0.3995479862343652
 40
0.4138562241783076
 40
0.4281673507018516
 40
0.4424797972342645
 40
0.4567921004225185
 40
0.4711028907876372
 40
0.4854108830521918
 40
0.4997148678723825
 40
0.5140137047595612
 40
0.5283063160121122
 40
0.542591681512552
 40
0.5568688342687735
 40
0.5711368565987301
 40
0.5853948768752816
 40
0.599642066761192
 40
0.613877638875691
 40
0.6281008448429862
 40
0.6423109736815624
 40
0.6565073504986026
 40
0.6706893354608964
 40
0.6848563230155054
 40
0.6990077413409548
 40
0.7131430520090689
 40
0.7272617498439989
 40
0.7413633629644533
 40
0.755447452999724
 40
0.7695136154692115
 40
0.7835614803199495
 40
0.7975907126148829
 40
0.8116010133679599
 40
0.8255921205224861
 40
0.8395638100700715
 40
0.8535158973087197
 40
0.8674482382390987
 40
0.8813607310992054
 40
0.8952533180379451
 40
0.9091259869293955
 40
0.9229787733296357
 40
0.9368117625792677
 40
0.9506250920547817
 40
0.9644189535738656
 40
0.9781935959590665
 40
0.9919493277659936
 40
1.0
 40
1.0
 40
1.0
 40
1.0
 10
763.6545058355936
 20
126.3466863152367
 30
0.0
 10
763.721369258809
 20
126.4620009052772
 30
0.0
 10
763.8150456915629
 20
126.6235579856656
 30
0.0
 10
763.9548660713981
 20
126.8610044459599
 30
0.0
 10
764.074525370905
 20
127.0626128196224
 30
0.0
 10
764.2185183280773
 20
127.3025553640373
 30
0.0
 10
764.3711429324442
 20
127.5540189546201
 30
0.0
 10
764.5325932888494
 20
127.8168530666552
 30
0.0
 10
764.7008771162311
 20
128.0874440428281
 30
0.0
 10
764.8749073404459
 20
128.3637519203966
 30
0.0
 10
765.0538497475471
 20
128.6442212660627
 30
0.0
 10
765.2370855301107
 20
128.9276961488301
 30
0.0
 10
765.4241394866177
 20
129.2132902976465
 30
0.0
 10
765.6146378148426
 20
129.5003089137653
 30
0.0
 10
765.8082793167723
 20
129.788195514484
 30
0.0
 10
766.0048157851339
 20
130.0764955639588
 30
0.0
 10
766.204038335896
 20
130.3648310710988
 30
0.0
 10
766.405767713114
 20
130.6528825103407
 30
0.0
 10
766.6098472883122
 20
130.9403757262268
 30
0.0
 10
766.8161379230688
 20
131.2270722911755
 30
0.0
 10
767.0245141417549
 20
131.5127622980505
 30
0.0
 10
767.2348612407325
 20
131.7972588975639
 30
0.0
 10
767.4470730770395
 20
132.0803941052124
 30
0.0
 10
767.6610503571253
 20
132.3620155450739
 30
0.0
 10
767.8766992984083
 20
132.6419838940884
 30
0.0
 10
768.0939305722131
 20
132.9201708565207
 30
0.0
 10
768.3126584614847
 20
133.1964575442726
 30
0.0
 10
768.5328001841864
 20
133.4707331711729
 30
0.0
 10
768.7542753457676
 20
133.7428939925588
 30
0.0
 10
768.9770054931205
 20
134.0128424382694
 30
0.0
 10
769.2009137490264
 20
134.2804863994476
 30
0.0
 10
769.425924510971
 20
134.5457386386624
 30
0.0
 10
769.6519632018246
 20
134.808516299641
 30
0.0
 10
769.8789560626318
 20
135.0687404980463
 30
0.0
 10
770.1068299798272
 20
135.3263359786405
 30
0.0
 10
770.3355123407873
 20
135.5812308271691
 30
0.0
 10
770.5649309128609
 20
135.8333562276294
 30
0.0
 10
770.7950137419716
 20
136.0826462573887
 30
0.0
 10
771.0256890676504
 20
136.3290377140497
 30
0.0
 10
771.2568852519269
 20
136.572469969073
 30
0.0
 10
771.4885307200058
 20
136.8128848440763
 30
0.0
 10
771.720553911005
 20
137.0502265064256
 30
0.0
 10
771.9528832373533
 20
137.2844413813295
 30
0.0
 10
772.185447051676
 20
137.5154780780977
 30
0.0
 10
772.4181736202041
 20
137.7432873286126
 30
0.0
 10
772.6509911019023
 20
137.9678219363713
 30
0.0
 10
772.8838275326382
 20
138.1890367347052
 30
0.0
 10
773.1166108138352
 20
138.4068885530002
 30
0.0
 10
773.3492687051274
 20
138.6213361899033
 30
0.0
 10
773.5817288206259
 20
138.8323403926596
 30
0.0
 10
773.813918628452
 20
139.0398638418283
 30
0.0
 10
774.0457654532595
 20
139.2438711407374
 30
0.0
 10
774.2771964814959
 20
139.4443288091125
 30
0.0
 10
774.5081387692073
 20
139.6412052803933
 30
0.0
 10
774.7385192522021
 20
139.8344709023019
 30
0.0
 10
774.9682647584327
 20
140.024097940285
 30
0.0
 10
775.1973020224591
 20
140.2100605834868
 30
0.0
 10
775.4255577018902
 20
140.3923349529528
 30
0.0
 10
775.6529583956997
 20
140.5708991117817
 30
0.0
 10
775.8794306643479
 20
140.7457330770019
 30
0.0
 10
776.1049010515901
 20
140.9168188328644
 30
0.0
 10
776.3292961080534
 20
141.0841403456311
 30
0.0
 10
776.5525424159954
 20
141.2476835786098
 30
0.0
 10
776.7745666171251
 20
141.4074365111773
 30
0.0
 10
776.9952954362429
 20
141.5633891470304
 30
0.0
 10
777.2146557274135
 20
141.7155335658345
 30
0.0
 10
777.4325744429567
 20
141.8638638158091
 30
0.0
 10
777.6489788963687
 20
142.0083764005206
 30
0.0
 10
777.8637959368873
 20
142.1490685539964
 30
0.0
 10
778.0769551831787
 20
142.2859447527738
 30
0.0
 10
778.2883771463287
 20
142.4189925529627
 30
0.0
 10
778.4980176323058
 20
142.5482726637846
 30
0.0
 10
778.7057025546763
 20
142.6735835825303
 30
0.0
 10
778.883351655357
 20
142.7788820088138
 30
0.0
 10
778.9910257055597
 20
142.8409399996606
 30
0.0
 10
779.0307777199066
 20
142.8638510923319
 30
0.0
  0
SPLINE
  5
FC
330
1F
100
AcDbEntity
  8
0
  6
Continuous
 62
     7
370
    30
100
AcDbSpline
210
0.0
220
0.0
230
1.0
 70
     8
 71
     3
 72
    77
 73
    73
 74
     0
 42
0.000000001
 43
0.00000001
 40
0.0
 40
0.0
 40
0.0
 40
0.0
 40
0.0054712642597151
 40
0.0198385992688378
 40
0.0342304674212249
 40
0.0486474732207678
 40
0.0630901576689681
 40
0.0775590026157485
 40
0.0920544349352409
 40
0.1065768305384637
 40
0.1211265182416417
 40
0.1357037835021242
 40
0.1503088720373568
 40
0.1649419933404493
 40
0.1796033241063153
 40
0.1942930115839497
 40
0.2090111768672177
 40
0.2237579181427418
 40
0.2385333139081569
 40
0.2533374261798539
 40
0.2681703037097743
 40
0.283031985229848
 40
0.2979225027491956
 40
0.3128418849290223
 40
0.3277901605632644
 40
0.3427673621992286
 40
0.3577735299360381
 40
0.3728087154431962
 40
0.3878729862513341
 40
0.4029664303746144
 40
0.4180891613347699
 40
0.4332413236695027
 40
0.4484230990275493
 40
0.4636347129683763
 40
0.4788764426129269
 40
0.4941486253243265
 40
0.5094516686364838
 40
0.5247860617004082
 40
0.5401523885882298
 40
0.5555513438782391
 40
0.5709837510585819
 40
0.5864505844414684
 40
0.6019529954753492
 40
0.6174923446193369
 40
0.6330702403106349
 40
0.6486885870754245
 40
0.6643496455512077
 40
0.6800561082251274
 40
0.6941873048796783
 40
0.70832639407539
 40
0.7224715777990759
 40
0.7366219947845692
 40
0.7507766874060386
 40
0.7649345744685365
 40
0.7790944124866113
 40
0.7932547409349524
 40
0.8074138031267808
 40
0.8215694289890433
 40
0.835718856336779
 40
0.8498584491786558
 40
0.8639832361143022
 40
0.8780861181401878
 40
0.8921564311377029
 40
0.9061771519574892
 40
0.920118976091611
 40
0.9339262556225982
 40
0.9474779701803094
 40
0.9604506926854891
 40
0.9720324855305893
 40
0.9804321251975381
 40
0.9898252421614652
 40
1.0
 40
1.0
 40
1.0
 40
1.0
 10
757.0403974911566
 20
104.7747336599156
 30
0.0
 10
757.0403232461523
 20
104.8058362513981
 30
0.0
 10
757.0400540365479
 20
104.9186130831054
 30
0.0
 10
757.0421457168713
 20
105.1170036326277
 30
0.0
 10
757.0467115111489
 20
105.3699192040366
 30
0.0
 10
757.0540070642218
 20
105.6270009902114
 30
0.0
 10
757.0638821649688
 20
105.8878892970969
 30
0.0
 10
757.0764390250669
 20
106.1526045784286
 30
0.0
 10
757.0917097951387
 20
106.4210634254524
 30
0.0
 10
757.1097432119045
 20
106.6932086855516
 30
0.0
 10
757.1305813292311
 20
106.9689745873905
 30
0.0
 10
757.1542657836086
 20
107.2482961965549
 30
0.0
 10
757.1808361267293
 20
107.5311069608539
 30
0.0
 10
757.2103302922332
 20
107.8173394565756
 30
0.0
 10
757.2427844916498
 20
108.1069252753807
 30
0.0
 10
757.2782332664115
 20
108.3997951429316
 30
0.0
 10
757.3167095006675
 20
108.6958789761937
 30
0.0
 10
757.3582444474386
 20
108.9951059583003
 30
0.0
 10
757.4028677540786
 20
109.297404609988
 30
0.0
 10
757.4506074909278
 20
109.6027028634908
 30
0.0
 10
757.5014901822564
 20
109.9109281376121
 30
0.0
 10
757.5555408399186
 20
110.2220074146959
 30
0.0
 10
757.6127829998259
 20
110.5358673197392
 30
0.0
 10
757.6732387614816
 20
110.8524342021162
 30
0.0
 10
757.7369288308446
 20
111.1716342204133
 30
0.0
 10
757.8038725668565
 20
111.4933934309954
 30
0.0
 10
757.8740880320288
 20
111.8176378810233
 30
0.0
 10
757.9475920475834
 20
112.1442937067887
 30
0.0
 10
758.0244002537293
 20
112.473287238388
 30
0.0
 10
758.1045271757874
 20
112.8045451119684
 30
0.0
 10
758.1879862970266
 20
113.1379943910042
 30
0.0
 10
758.2747901392559
 20
113.4735626983797
 30
0.0
 10
758.3649503524405
 20
113.8111783613993
 30
0.0
 10
758.458477814902
 20
114.1507705723263
 30
0.0
 10
758.5553827459947
 20
114.49226956759
 30
0.0
 10
758.6556748336063
 20
114.8356068295495
 30
0.0
 10
758.7593633793781
 20
115.1807153155874
 30
0.0
 10
758.8664574652511
 20
115.5275297204836
 30
0.0
 10
758.9769661458545
 20
115.8759867795105
 30
0.0
 10
759.090898672446
 20
116.2260256216627
 30
0.0
 10
759.2082647556139
 20
116.5775881848868
 30
0.0
 10
759.3290748761763
 20
116.9306197089935
 30
0.0
 10
759.4533406557682
 20
117.2850693248343
 30
0.0
 10
759.5810753048612
 20
117.640890770717
 30
0.0
 10
759.712294161399
 20
117.9980432519869
 30
0.0
 10
759.8470153763059
 20
118.3564925595811
 30
0.0
 10
759.9852606769185
 20
118.7162122496517
 30
0.0
 10
760.12217023111
 20
119.0647464403573
 30
0.0
 10
760.2572719915688
 20
119.4017322820512
 30
0.0
 10
760.3900918466286
 20
119.7267974356001
 30
0.0
 10
760.5254691151858
 20
120.0519941317978
 30
0.0
 10
760.6633752219295
 20
120.377236449964
 30
0.0
 10
760.8037825650486
 20
120.7024441475629
 30
0.0
 10
760.9466610365728
 20
121.0275344065816
 30
0.0
 10
761.0919775042255
 20
121.3524209195999
 30
0.0
 10
761.2396950914565
 20
121.677012637267
 30
0.0
 10
761.3897721206586
 20
122.0012119237328
 30
0.0
 10
761.5421605334649
 20
122.3249117990941
 30
0.0
 10
761.6968034548812
 20
122.6479916834895
 30
0.0
 10
761.8536313040084
 20
122.9703105947715
 30
0.0
 10
762.0125553168666
 20
123.2916958086853
 30
0.0
 10
762.1734562010924
 20
123.6119229655969
 30
0.0
 10
762.3361629643786
 20
123.9306789190693
 30
0.0
 10
762.5004101991125
 20
124.247486581684
 30
0.0
 10
762.6657422299925
 20
124.5615363263761
 30
0.0
 10
762.8312656807018
 20
124.8712486260569
 30
0.0
 10
762.9948515913139
 20
125.1728654649684
 30
0.0
 10
763.1511737542664
 20
125.4570364370917
 30
0.0
 10
763.2877469648997
 20
125.7021158522917
 30
0.0
 10
763.4105002025392
 20
125.9200532869849
 30
0.0
 10
763.5281492129712
 20
126.1271436804996
 30
0.0
 10
763.6112800710154
 20
126.2715822324661
 30
0.0
 10
763.6545058355936
 20
126.3466863152367
 30
0.0
  0
LINE
  5
FD
330
1F
100
AcDbEntity
  8
0
  6
Continuous
 62
     7
370
    30
100
AcDbLine
 10
757.0401095792
 20
97.7521403992
 30
0.0
 11
757.0401095792
 21
104.7743913814
 31
0.0
  0
LINE
  5
FE
330
1F
100
AcDbEntity
  8
0
  6
Continuous
 62
     7
370
    30
100
AcDbLine
 10
729.0401095792
 20
104.7743913814
 30
0.0
 11
729.0401095792
 21
97.7521403992
 31
0.0
  0
LINE
  5
FF
330
1F
100
AcDbEntity
  8
0
  6
Continuous
 62
     7
370
    30
100
AcDbLine
 10
946.6218540565
 20
271.9431738157
 30
0.0
 11
765.0320564794
 21
167.1136150344
 31
0.0
  0
LINE
  5
100
330
1F
100
AcDbEntity
  8
0
  6
Continuous
 62
     7
370
    30
100
AcDbLine
 10
779.0309187363
 20
142.8642468877
 30
0.0
 11
960.6207163134
 21
247.6938056691
 31
0.0
  0
SPLINE
  5
101
330
1F
100
AcDbEntity
  8
0
  6
Continuous
 62
     7
370
    30
100
AcDbSpline
210
0.0
220
0.0
230
1.0
 70
     8
 71
     3
 72
    88
 73
    84
 74
     0
 42
0.000000001
 43
0.00000001
 40
0.0
 40
0.0
 40
0.0
 40
0.0
 40
0.0090708968402859
 40
0.0212846244177905
 40
0.0335223574346225
 40
0.0457862829438583
 40
0.0580784540709508
 40
0.0704007539117635
 40
0.0827548624144398
 40
0.09514222713896
 40
0.1075640387846293
 40
0.1200212122398345
 40
0.1325143737405672
 40
0.1450438545244757
 40
0.1576096911316926
 40
0.1702116322655835
 40
0.1828491518759833
 40
0.1955214679003462
 40
0.2082275658877683
 40
0.220966226579786
 40
0.2337360564032181
 40
0.2465355197867291
 40
0.2593629722200506
 40
0.272216693037672
 40
0.2850949170196683
 40
0.2979958640482569
 40
0.3109177662245854
 40
0.3238588920270057
 40
0.336817567264254
 40
0.349792192730265
 40
0.3627812586158558
 40
0.3757833558314834
 40
0.3887971844923133
 40
0.4018215598691058
 40
0.4148554161508354
 40
0.4278978083759505
 40
0.4409479128916072
 40
0.4540050266881886
 40
0.4670685659366715
 40
0.4801380640296184
 40
0.4932130934247794
 40
0.5062933728028962
 40
0.5193787892527828
 40
0.5324693393956798
 40
0.545565127491522
 40
0.5586663655855654
 40
0.5717733747674892
 40
0.5848865877283497
 40
0.5980065528557331
 40
0.6111339401438721
 40
0.6242695492614997
 40
0.6374143201966538
 40
0.6505693470152975
 40
0.6637358954181369
 40
0.6769154249988832
 40
0.6901096173817393
 40
0.7019523879687776
 40
0.7151424857249296
 40
0.7269790559007872
 40
0.7388135172793298
 40
0.7506447037289358
 40
0.7624723976104533
 40
0.7742963289693328
 40
0.7861161614167739
 40
0.7979314722123535
 40
0.8097417251071265
 40
0.8215462325610335
 40
0.8333441020095004
 40
0.8451341575702163
 40
0.856914822815841
 40
0.8686839397201496
 40
0.8804384788146086
 40
0.8921740552408771
 40
0.9038840791327415
 40
0.9155581702528891
 40
0.9271789667504322
 40
0.938715046499845
 40
0.9501030559320311
 40
0.961193489865884
 40
0.9715288218931276
 40
0.9798653987795977
 40
0.987087188126484
 40
1.0
 40
1.0
 40
1.0
 40
1.0
 10
729.0413909110082
 20
97.66446973104154
 30
0.0
 10
729.0421827724208
 20
97.62447622218102
 30
0.0
 10
729.0440408547094
 20
97.53063248983202
 30
0.0
 10
729.0531620319297
 20
97.38293594666794
 30
0.0
 10
729.0677832249838
 20
97.22135231232518
 30
0.0
 10
729.0879230314722
 20
97.05969501042594
 30
0.0
 10
729.1133776985336
 20
96.89801756148506
 30
0.0
 10
729.1442304575006
 20
96.73637834145538
 30
0.0
 10
729.1804859242332
 20
96.57483725986133
 30
0.0
 10
729.2221679047078
 20
96.41345688599739
 30
0.0
 10
729.2692925608973
 20
96.2523023126104
 30
0.0
 10
729.321875067577
 20
96.09144128300161
 30
0.0
 10
729.3799272503768
 20
95.9309441641771
 30
0.0
 10
729.4434576587892
 20
95.7708838744698
 30
0.0
 10
729.5124710119659
 20
95.61133573611316
 30
0.0
 10
729.5869678596741
 20
95.45237726404012
 30
0.0
 10
729.6669442484066
 20
95.29408789479876
 30
0.0
 10
729.7523914631234
 20
95.13654866479642
 30
0.0
 10
729.8432958361748
 20
94.97984184840941
 30
0.0
 10
729.939638632219
 20
94.82405056820187
 30
0.0
 10
730.0413960091154
 20
94.66925839020732
 30
0.0
 10
730.1485390529862
 20
94.51554891728058
 30
0.0
 10
730.2610338823389
 20
94.36300539284103
 30
0.0
 10
730.3788418138084
 20
94.21171032602413
 30
0.0
 10
730.5019195802444
 20
94.06174514746313
 30
0.0
 10
730.6302195907668
 20
93.91318990281275
 30
0.0
 10
730.7636902219717
 20
93.76612298885495
 30
0.0
 10
730.9022761296666
 20
93.62062093479479
 30
0.0
 10
731.0459185712273
 20
93.47675822929105
 30
0.0
 10
731.1945557297995
 20
93.33460719194325
 30
0.0
 10
731.3481230329401
 20
93.19423788652828
 30
0.0
 10
731.5065534598407
 20
93.0557180721634
 30
0.0
 10
731.6697778327889
 20
92.91911318788576
 30
0.0
 10
731.8377250900461
 20
92.7844863657368
 30
0.0
 10
732.0103225386318
 20
92.65189846736041
 30
0.0
 10
732.1874960867149
 20
92.52140813928162
 30
0.0
 10
732.3691704562692
 20
92.39307188234768
 30
0.0
 10
732.5552693774836
 20
92.26694413126374
 30
0.0
 10
732.7457157670073
 20
92.14307734067518
 30
0.0
 10
732.9404315153326
 20
92.02152231032207
 30
0.0
 10
733.1393377659796
 20
91.9023281488093
 30
0.0
 10
733.3423553371282
 20
91.78554217673204
 30
0.0
 10
733.54940528715
 20
91.67120980401106
 30
0.0
 10
733.7604089170535
 20
91.5593747406902
 30
0.0
 10
733.9752876172258
 20
91.45007925470524
 30
0.0
 10
734.1939630129159
 20
91.34336424989192
 30
0.0
 10
734.4163571285027
 20
91.23926933577778
 30
0.0
 10
734.6423925697259
 20
91.13783289274824
 30
0.0
 10
734.8719927293538
 20
91.03909213307395
 30
0.0
 10
735.1050820237753
 20
90.94308315809587
 30
0.0
 10
735.3415861661272
 20
90.84984101292382
 30
0.0
 10
735.5814324954677
 20
90.75939973667751
 30
0.0
 10
735.8245503390636
 20
90.67179241923515
 30
0.0
 10
736.0708715560528
 20
90.58705122768151
 30
0.0
 10
736.3203307885772
 20
90.50520754472666
 30
0.0
 10
736.5641397422819
 20
90.42901899066014
 30
0.0
 10
736.8104834972687
 20
90.35560621185331
 30
0.0
 10
737.0503782768616
 20
90.28752005783913
 30
0.0
 10
737.2924197752349
 20
90.22219374152074
 30
0.0
 10
737.5274676625712
 20
90.16179506836744
 30
0.0
 10
737.7643064435449
 20
90.10394891044807
 30
0.0
 10
738.0028448208953
 20
90.04867413634487
 30
0.0
 10
738.242996111108
 20
89.99598723488045
 30
0.0
 10
738.484671643827
 20
89.9459039153842
 30
0.0
 10
738.7277802801057
 20
89.89843911979844
 30
0.0
 10
738.9722278452581
 20
89.85360701148626
 30
0.0
 10
739.2179162945737
 20
89.81142097209604
 30
0.0
 10
739.4647425156671
 20
89.77189359879544
 30
0.0
 10
739.7125965551584
 20
89.73503670577412
 30
0.0
 10
739.9613589257552
 20
89.70086133218396
 30
0.0
 10
740.2108963844228
 20
89.66937776244124
 30
0.0
 10
740.4610550602748
 20
89.64059556845244
 30
0.0
 10
740.7116487504669
 20
89.61452370087905
 30
0.0
 10
740.9624378525677
 20
89.5911706636085
 30
0.0
 10
741.2130887290657
 20
89.57054495625775
 30
0.0
 10
741.4630880498063
 20
89.55265588872793
 30
0.0
 10
741.7115394224518
 20
89.53751664648271
 30
0.0
 10
741.9565912120092
 20
89.52515039636478
 30
0.0
 10
742.1933120219271
 20
89.51563165627829
 30
0.0
 10
742.4082344239586
 20
89.50907114261547
 30
0.0
 10
742.5953391717875
 20
89.50497633745924
 30
0.0
 10
742.8011450034411
 20
89.50180258727266
 30
0.0
 10
742.9467375321209
 20
89.50133036347097
 30
0.0
 10
743.0401095791982
 20
89.50102751480526
 30
0.0
  0
SPLINE
  5
102
330
1F
100
AcDbEntity
  8
0
  6
Continuous
 62
     7
370
    30
100
AcDbSpline
210
0.0
220
0.0
230
1.0
 70
     8
 71
     3
 72
    93
 73
    89
 74
     0
 42
0.000000001
 43
0.00000001
 40
0.0
 40
0.0
 40
0.0
 40
0.0
 40
0.0131541754062987
 40
0.0183712640441947
 40
0.0270484299264829
 40
0.0360457448536929
 40
0.0456913134596757
 40
0.0557564654405104
 40
0.0661495172488468
 40
0.0767971833034921
 40
0.0876472974893592
 40
0.0986611959336
 40
0.1098096945297035
 40
0.1210703401229122
 40
0.1324255610317379
 40
0.1438613929626801
 40
0.1553665844794631
 40
0.1669319572412287
 40
0.1785499404711874
 40
0.1902142267282676
 40
0.2019195135660481
 40
0.2136613069759612
 40
0.2254357699355241
 40
0.2372396043371192
 40
0.2490699579384817
 40
0.2609243502909145
 40
0.2728006132165857
 40
0.2846968425560621
 40
0.2966113587247033
 40
0.308542674215897
 40
0.3204894666230536
 40
0.3324505560803533
 40
0.3444248862639789
 40
0.3564115082759211
 40
0.3684095668782404
 40
0.3804182886501349
 40
0.3924369717210953
 40
0.4044649768061092
 40
0.4165017193123129
 40
0.4285466623323778
 40
0.4405993103714693
 40
0.4526592036808038
 40
0.4647259130937324
 40
0.4767990352769624
 40
0.4888781883288237
 40
0.5009630076654343
 40
0.5130531421528812
 40
0.5251482504522764
 40
0.5372479975569873
 40
0.5493520515133661
 40
0.5614599941746828
 40
0.5735714570178448
 40
0.5856860854476854
 40
0.5978035157117708
 40
0.609923373278996
 40
0.6220452712726433
 40
0.6341688094271475
 40
0.6462935736669332
 40
0.6584191364258172
 40
0.6705450578338749
 40
0.6826708879092386
 40
0.6947961698917918
 40
0.7069204448530968
 40
0.7190432577050777
 40
0.7311641647060211
 40
0.7432827425299355
 40
0.7553985989232663
 40
0.7675113849081194
 40
0.7796208084336288
 40
0.7917266492874856
 40
0.8038287750022927
 40
0.8159271574002485
 40
0.8280218893360988
 40
0.840113201117865
 40
0.8522014760235685
 40
0.8642872642913607
 40
0.8763712949333775
 40
0.8884544847430378
 40
0.9005379438974759
 40
0.9126229776283684
 40
0.9247110835323896
 40
0.9368039442108328
 40
0.948903415066245
 40
0.961011507238363
 40
0.9731303658150903
 40
0.9852622436141673
 40
0.9974094709831762
 40
1.0
 40
1.0
 40
1.0
 40
1.0
 10
743.0401095791982
 20
89.50102751480526
 30
0.0
 10
743.1352801618586
 20
89.50133588296336
 30
0.0
 10
743.2681964298337
 20
89.50176655327746
 30
0.0
 10
743.4638304153353
 20
89.50462925312614
 30
0.0
 10
743.6293499553024
 20
89.50801535296199
 30
0.0
 10
743.8267756033872
 20
89.51366897828319
 30
0.0
 10
744.0340639597268
 20
89.52135216690571
 30
0.0
 10
744.2511944372061
 20
89.53135140506552
 30
0.0
 10
744.4752442677242
 20
89.54376077076078
 30
0.0
 10
744.7045622145383
 20
89.55867137875464
 30
0.0
 10
744.9378782177075
 20
89.57614709831851
 30
0.0
 10
745.1742392354299
 20
89.59623644474823
 30
0.0
 10
745.4129057360041
 20
89.6189758039346
 30
0.0
 10
745.65328971267
 20
89.6443924336901
 30
0.0
 10
745.8949125019805
 20
89.67250640567653
 30
0.0
 10
746.1373759509563
 20
89.70333202868048
 30
0.0
 10
746.3803422906223
 20
89.73687887922735
 30
0.0
 10
746.6235198253169
 20
89.77315257227491
 30
0.0
 10
746.8666525780535
 20
89.81215534590781
 30
0.0
 10
747.109512676084
 20
89.85388651339026
 30
0.0
 10
747.3518946674707
 20
89.89834281816347
 30
0.0
 10
747.5936112205585
 20
89.94551871693018
 30
0.0
 10
747.8344898288202
 20
89.99540660861676
 30
0.0
 10
748.0743702568802
 20
90.04799702208624
 30
0.0
 10
748.3131025400488
 20
90.103278772023
 30
0.0
 10
748.5505454021733
 20
90.16123908998975
 30
0.0
 10
748.7865649931383
 20
90.22186373590971
 30
0.0
 10
749.021033873097
 20
90.28513709396432
 30
0.0
 10
749.2538301889554
 20
90.35104225596385
 30
0.0
 10
749.4848370019232
 20
90.41956109454652
 30
0.0
 10
749.7139417347169
 20
90.49067432803731
 30
0.0
 10
749.9410357142115
 20
90.56436157839504
 30
0.0
 10
750.1660137907168
 20
90.6406014233595
 30
0.0
 10
750.3887740191257
 20
90.7193714436641
 30
0.0
 10
750.6092173902884
 20
90.80064826598866
 30
0.0
 10
750.8272476033251
 20
90.88440760216093
 30
0.0
 10
751.0427708714618
 20
90.97062428499738
 30
0.0
 10
751.2556957553804
 20
91.05927230105313
 30
0.0
 10
751.4659330192485
 20
91.15032482047924
 30
0.0
 10
751.6733955054609
 20
91.24375422409231
 30
0.0
 10
751.8779980248785
 20
91.33953212771101
 30
0.0
 10
752.0796572599288
 20
91.43762940375605
 30
0.0
 10
752.2782916784047
 20
91.53801620005905
 30
0.0
 10
752.4738214562299
 20
91.64066195579973
 30
0.0
 10
752.6661684077602
 20
91.74553541444874
 30
0.0
 10
752.8552559225211
 20
91.85260463358696
 30
0.0
 10
753.0410089075018
 20
91.9618369914491
 30
0.0
 10
753.2233537343818
 20
92.0731991900508
 30
0.0
 10
753.4022181912435
 20
92.18665725476247
 30
0.0
 10
753.5775310226219
 20
92.30217625617627
 30
0.0
 10
753.7492221859776
 20
92.41972044641633
 30
0.0
 10
753.9172229275002
 20
92.53925330315127
 30
0.0
 10
754.0814661318362
 20
92.66073780265465
 30
0.0
 10
754.2418860293752
 20
92.78413623775558
 30
0.0
 10
754.3984180821758
 20
92.9094101310714
 30
0.0
 10
754.5509989738696
 20
93.03652021345404
 30
0.0
 10
754.6995666046123
 20
93.1654263999564
 30
0.0
 10
754.8440600933886
 20
93.29608776554305
 30
0.0
 10
754.9844197881481
 20
93.42846252171682
 30
0.0
 10
755.1205872841809
 20
93.5625079954868
 30
0.0
 10
755.2525054509409
 20
93.69818061229384
 30
0.0
 10
755.3801184672699
 20
93.83543588469695
 30
0.0
 10
755.5033718646406
 20
93.97422840874331
 30
0.0
 10
755.6222125776193
 20
94.11451187000519
 30
0.0
 10
755.7365890002682
 20
94.25623906121878
 30
0.0
 10
755.8464510466819
 20
94.39936191331444
 30
0.0
 10
755.9517502132891
 20
94.54383154131024
 30
0.0
 10
756.0524396400152
 20
94.68959830612108
 30
0.0
 10
756.1484741668959
 20
94.83661189269793
 30
0.0
 10
756.2398103823516
 20
94.98482140418658
 30
0.0
 10
756.326406659087
 20
95.13417547088463
 30
0.0
 10
756.4082231735385
 20
95.28462237182528
 30
0.0
 10
756.4852219050716
 20
95.43611016578157
 30
0.0
 10
756.5573666113639
 20
95.58858682750015
 30
0.0
 10
756.6246227781527
 20
95.74200038407588
 30
0.0
 10
756.6869575390435
 20
95.89629904565683
 30
0.0
 10
756.7443395755969
 20
96.05143132412955
 30
0.0
 10
756.79673896016
 20
96.20734613346282
 30
0.0
 10
756.8441270892582
 20
96.36399286462833
 30
0.0
 10
756.8864761713402
 20
96.52132143191719
 30
0.0
 10
756.9237602933985
 20
96.6792822755089
 30
0.0
 10
756.9559505383197
 20
96.83782635407118
 30
0.0
 10
756.9830323006775
 20
96.99690498412834
 30
0.0
 10
757.0049397102771
 20
97.15647005099287
 30
0.0
 10
757.0217998181752
 20
97.31647262803791
 30
0.0
 10
757.0330192826931
 20
97.47686734624367
 30
0.0
 10
757.0386807541851
 20
97.59536939995573
 30
0.0
 10
757.0389650990785
 20
97.66038856237664
 30
0.0
 10
757.0390150798
 20
97.6718173051575
 30
0.0
  0
LINE
  5
103
330
1F
100
AcDbEntity
  8
0
  6
Continuous
 62
     7
370
    30
100
AcDbLine
 10
729.2901095792
 20
96.1914598726
 30
0.0
 11
729.2901095792
 21
91.4647761476
 31
0.0
  0
LINE
  5
104
330
1F
100
AcDbEntity
  8
0
  6
Continuous
 62
     7
370
    30
100
AcDbLine
 10
756.7901095792
 20
91.4647761476
 30
0.0
 11
756.7901095792
 21
96.1902266796
 31
0.0
  0
SPLINE
  5
105
330
1F
100
AcDbEntity
  8
0
  6
Continuous
 62
     7
370
    30
100
AcDbSpline
210
0.0
220
0.0
230
1.0
 70
     8
 71
     3
 72
   180
 73
   176
 74
     0
 42
0.000000001
 43
0.00000001
 40
0.0
 40
0.0
 40
0.0
 40
0.0
 40
0.0024222181493866
 40
0.0107861742874005
 40
0.0187330797159373
 40
0.0262628518683097
 40
0.0333754484378577
 40
0.0400708611093767
 40
0.0460016008425026
 40
0.0515615230485904
 40
0.0567506769623385
 40
0.0615691222074847
 40
0.066016925535848
 40
0.0706214273714679
 40
0.0747475114281921
 40
0.0783952813952595
 40
0.0815648353608101
 40
0.0842562628222369
 40
0.0864300596410389
 40
0.088198001453663
 40
0.0898139726889972
 40
0.0913109972542027
 40
0.0926890821779683
 40
0.0939482342242555
 40
0.0952115309021589
 40
0.0967196394776582
 40
0.0989717782344868
 40
0.1016206919276802
 40
0.1046663297331875
 40
0.1081086323352789
 40
0.1119475313982037
 40
0.1154495213524485
 40
0.1192268230065684
 40
0.1231516187474735
 40
0.1270311854275653
 40
0.1308635830973906
 40
0.1346488135762908
 40
0.1433843030193437
 40
0.1518577878356438
 40
0.1603656191576414
 40
0.1685919529543105
 40
0.1765368436129469
 40
0.1843627646234181
 40
0.1922843014394578
 40
0.1967724809561605
 40
0.2012911129119326
 40
0.20584020581397
 40
0.2104197692660314
 40
0.2150298139445353
 40
0.2196703515742866
 40
0.2242310364865395
 40
0.2274029122634401
 40
0.2301769618119477
 40
0.2325532464906872
 40
0.2345318189640901
 40
0.236112722987612
 40
0.2372783501879899
 40
0.2382905172213965
 40
0.239412256061199
 40
0.2406438517690836
 40
0.2431163506026303
 40
0.2459391081270062
 40
0.2491120887311346
 40
0.2526352533893069
 40
0.257699024818751
 40
0.2631016859919813
 40
0.2687848001840053
 40
0.2747483382874314
 40
0.2809922719873114
 40
0.2873976138361246
 40
0.2940733753332115
 40
0.3010195321149138
 40
0.3082360606692239
 40
0.3171795754765978
 40
0.3265061901473689
 40
0.3362158689929233
 40
0.3463085781635062
 40
0.3567842856855196
 40
0.3676429614958943
 40
0.3771999116298071
 40
0.3870350132954882
 40
0.3971482519683131
 40
0.4075396142073544
 40
0.4182090876659804
 40
0.4290356264318055
 40
0.4397432829808362
 40
0.4503213672496453
 40
0.4622518442854869
 40
0.4740132180618663
 40
0.4856055533322341
 40
0.4970289127277696
 40
0.5082833566868543
 40
0.5193689433892931
 40
0.53028572869509
 40
0.5410337660876202
 40
0.5516131066210341
 40
0.5620237988717466
 40
0.5722658888939076
 40
0.5823394201787246
 40
0.5922444336175613
 40
0.6019809674687318
 40
0.6131272168030097
 40
0.6240442559856118
 40
0.6347321315084398
 40
0.6451908848044754
 40
0.6554205522181711
 40
0.6653449102970965
 40
0.6744792448166915
 40
0.6832275240388545
 40
0.6915897047711212
 40
0.6995657416316128
 40
0.7071555871177603
 40
0.7143591916828566
 40
0.7211765038221596
 40
0.7251837179377583
 40
0.7290443135263732
 40
0.7325717707113143
 40
0.7355599339842717
 40
0.7380086095726096
 40
0.7391464973088235
 40
0.7401896696084702
 40
0.741481624767207
 40
0.743064770277494
 40
0.7449391371453659
 40
0.7471047627253409
 40
0.7495616906903011
 40
0.7530885732019234
 40
0.7570821627652877
 40
0.7615425882105711
 40
0.7664699921951262
 40
0.7718108138094347
 40
0.7772004273181382
 40
0.7825703697257325
 40
0.7879206224950033
 40
0.799066308511067
 40
0.8101253222923214
 40
0.8210975039279885
 40
0.8270458804856782
 40
0.8329683492848481
 40
0.8388648862831022
 40
0.8447354678881444
 40
0.850579666209703
 40
0.8562380550412737
 40
0.8615805836689981
 40
0.8670924429783448
 40
0.8722219229425184
 40
0.8769689315907747
 40
0.881333382726551
 40
0.8853151960469111
 40
0.8891204167020473
 40
0.8927040149019925
 40
0.896245189149198
 40
0.8997734853591991
 40
0.9034988387068776
 40
0.9074623009307646
 40
0.9108571461790331
 40
0.9146453499823343
 40
0.9188271540648306
 40
0.9234026057908927
 40
0.9283717532922096
 40
0.9337346449584899
 40
0.9386338235861243
 40
0.943821090768581
 40
0.9492956313761192
 40
0.9547369804645517
 40
0.959884766078589
 40
0.9661818673094873
 40
0.9719753811499952
 40
0.9772652248294467
 40
0.9815626365026445
 40
0.9854584254980668
 40
0.9889525568586086
 40
0.9922630425770859
 40
0.9959333176385652
 40
1.0
 40
1.0
 40
1.0
 40
1.0
 10
729.2939324979753
 20
91.3032084310969
 30
0.0
 10
729.2943235356216
 20
91.2826914219388
 30
0.0
 10
729.2960648322122
 20
91.19132886787168
 30
0.0
 10
729.3088407965691
 20
91.03281268929864
 30
0.0
 10
729.3312360595407
 20
90.83136860436835
 30
0.0
 10
729.3610722721071
 20
90.64092736461241
 30
0.0
 10
729.3961679728135
 20
90.46151882140174
 30
0.0
 10
729.4348270822386
 20
90.29606721734446
 30
0.0
 10
729.4755992711024
 20
90.14413386036196
 30
0.0
 10
729.5172891547204
 20
90.00525849107899
 30
0.0
 10
729.5599292026542
 20
89.87610371293675
 30
0.0
 10
729.6027327927719
 20
89.7566112542279
 30
0.0
 10
729.6466413834341
 20
89.64237273298143
 30
0.0
 10
729.6909752310648
 20
89.53425859259595
 30
0.0
 10
729.7349696516676
 20
89.43312560152198
 30
0.0
 10
729.775697314782
 20
89.34407740000097
 30
0.0
 10
729.812464833066
 20
89.2670086011903
 30
0.0
 10
729.8445131181783
 20
89.20214543748054
 30
0.0
 10
729.8716244560603
 20
89.14880517598323
 30
0.0
 10
729.8947386518067
 20
89.10433556548716
 30
0.0
 10
729.9154032478422
 20
89.06532320487159
 30
0.0
 10
729.9347223613137
 20
89.0294710557798
 30
0.0
 10
729.9527679425992
 20
88.99650144353564
 30
0.0
 10
729.9700230652537
 20
88.96541929718846
 30
0.0
 10
729.9880753982624
 20
88.93333405220794
 30
0.0
 10
730.0108540811719
 20
88.89343405724614
 30
0.0
 10
730.0404177425208
 20
88.84264850797658
 30
0.0
 10
730.0778861901999
 20
88.77986994386345
 30
0.0
 10
730.1220552727366
 20
88.70793562569793
 30
0.0
 10
730.1733778625481
 20
88.62695093744944
 30
0.0
 10
730.2286063797067
 20
88.54276510840373
 30
0.0
 10
730.2872473131124
 20
88.45636458607794
 30
0.0
 10
730.34802917942
 20
88.36970733699006
 30
0.0
 10
730.412702899403
 20
88.2805816756011
 30
0.0
 10
730.4795634717781
 20
88.19148865945392
 30
0.0
 10
730.5474452239642
 20
88.10392703196409
 30
0.0
 10
730.6465459831686
 20
87.98005091431693
 30
0.0
 10
730.779130406078
 20
87.82245609418047
 30
0.0
 10
730.9504376261264
 20
87.63199216006554
 30
0.0
 10
731.1268585636391
 20
87.44792217940372
 30
0.0
 10
731.3076651050377
 20
87.27038262426892
 30
0.0
 10
731.4910048995459
 20
87.10033987199873
 30
0.0
 10
731.6790398732484
 20
86.93518145152662
 30
0.0
 10
731.8453539265455
 20
86.79667324256496
 30
0.0
 10
731.9882105966575
 20
86.68249957199262
 30
0.0
 10
732.1047463909442
 20
86.59207438528472
 30
0.0
 10
732.2242128082587
 20
86.50206894379228
 30
0.0
 10
732.3466288438098
 20
86.41251797422372
 30
0.0
 10
732.4720126533662
 20
86.3234567130337
 30
0.0
 10
732.599364651267
 20
86.23562250440072
 30
0.0
 10
732.7153363122924
 20
86.15793374032977
 30
0.0
 10
732.8151729221541
 20
86.09266468428784
 30
0.0
 10
732.8950689548609
 20
86.04139982139583
 30
0.0
 10
732.9641087637518
 20
85.99781142925056
 30
0.0
 10
733.0220107901645
 20
85.96175074111939
 30
0.0
 10
733.0683703029443
 20
85.9331987726188
 30
0.0
 10
733.10540723273
 20
85.91058370480944
 30
0.0
 10
733.1380219467962
 20
85.8908040976744
 30
0.0
 10
733.1713955936049
 20
85.8706988057118
 30
0.0
 10
733.219421700578
 20
85.84197843173393
 30
0.0
 10
733.2847452304541
 20
85.80336335864794
 30
0.0
 10
733.3701887280728
 20
85.75368292287999
 30
0.0
 10
733.4671116157767
 20
85.69837301213187
 30
0.0
 10
733.5880583585762
 20
85.63078197761989
 30
0.0
 10
733.7337665660117
 20
85.55150957115487
 30
0.0
 10
733.9044822278958
 20
85.46162710029373
 30
0.0
 10
734.087472623168
 20
85.36857987374286
 30
0.0
 10
734.2824835602773
 20
85.27299957631496
 30
0.0
 10
734.4885632144844
 20
85.1758356314004
 30
0.0
 10
734.7058903756126
 20
85.07743580567706
 30
0.0
 10
734.9346309741604
 20
84.97815833402908
 30
0.0
 10
735.1763460760908
 20
84.87782534078612
 30
0.0
 10
735.4485173825086
 20
84.77004302114044
 30
0.0
 10
735.7537942815216
 20
84.65558508954857
 30
0.0
 10
736.0949540150482
 20
84.53552576217685
 30
0.0
 10
736.4563567989898
 20
84.41670801969848
 30
0.0
 10
736.8384067731678
 20
84.2999900573825
 30
0.0
 10
737.2414473509807
 20
84.1862796089362
 30
0.0
 10
737.6438127900841
 20
84.08220832354674
 30
0.0
 10
738.0432056076578
 20
83.9876223743839
 30
0.0
 10
738.4373937511693
 20
83.90223471083014
 30
0.0
 10
738.8472460457823
 20
83.82178021061986
 30
0.0
 10
739.2727165235748
 20
83.74695604327425
 30
0.0
 10
739.7120263982499
 20
83.67874058243535
 30
0.0
 10
740.1594283135192
 20
83.61850198847776
 30
0.0
 10
740.6087813939696
 20
83.56714751080435
 30
0.0
 10
741.0763569444297
 20
83.52299463716953
 30
0.0
 10
741.561247978652
 20
83.48727558164526
 30
0.0
 10
742.062477970121
 20
83.46120889957676
 30
0.0
 10
742.5577798853847
 20
83.44595519561496
 30
0.0
 10
743.0464668389077
 20
83.44108037367404
 30
0.0
 10
743.5279089736449
 20
83.4461428219228
 30
0.0
 10
744.0015304389315
 20
83.46069549875759
 30
0.0
 10
744.4668084857724
 20
83.48428766907756
 30
0.0
 10
744.9232718486094
 20
83.51646659243606
 30
0.0
 10
745.3704991866637
 20
83.55677908706444
 30
0.0
 10
745.8081173612208
 20
83.60477298195121
 30
0.0
 10
746.2357997721846
 20
83.65999848835249
 30
0.0
 10
746.6532641786991
 20
83.72200936577528
 30
0.0
 10
747.0602721142953
 20
83.79036435177925
 30
0.0
 10
747.4780365805232
 20
83.86863948233774
 30
0.0
 10
747.9047999124117
 20
83.95759605132407
 30
0.0
 10
748.3386450596402
 20
84.05792754674147
 30
0.0
 10
748.7574548269272
 20
84.16439754280076
 30
0.0
 10
749.1611620650007
 20
84.27637049132605
 30
0.0
 10
749.5487934510294
 20
84.39293981597324
 30
0.0
 10
749.9134557352616
 20
84.51117985312511
 30
0.0
 10
750.2537799044823
 20
84.62936216000192
 30
0.0
 10
750.5695215194743
 20
84.74606717888888
 30
0.0
 10
750.8661168123139
 20
84.86226544579345
 30
0.0
 10
751.144089222495
 20
84.97725889991212
 30
0.0
 10
751.4039840047933
 20
85.09039627311232
 30
0.0
 10
751.6463603097683
 20
85.20107150185513
 30
0.0
 10
751.8450723168313
 20
85.29596616329133
 30
0.0
 10
752.0046900425612
 20
85.374853534463
 30
0.0
 10
752.1272703489697
 20
85.43695936524404
 30
0.0
 10
752.2377739209096
 20
85.49426326934962
 30
0.0
 10
752.332376329615
 20
85.54433497386243
 30
0.0
 10
752.4012323620601
 20
85.58140572175219
 30
0.0
 10
752.4494745161365
 20
85.60767165997724
 30
0.0
 10
752.4855563889513
 20
85.62745132928187
 30
0.0
 10
752.5261605840847
 20
85.64987336012983
 30
0.0
 10
752.575187894111
 20
85.67719161542756
 30
0.0
 10
752.6329528154787
 20
85.70972898437145
 30
0.0
 10
752.6993010827791
 20
85.74757710084715
 30
0.0
 10
752.7819504331118
 20
85.79541184196098
 30
0.0
 10
752.8822129284389
 20
85.85453874862876
 30
0.0
 10
753.0011869210283
 20
85.92637404903026
 30
0.0
 10
753.1322553805478
 20
86.00763961129148
 30
0.0
 10
753.2742681806565
 20
86.09832855739427
 30
0.0
 10
753.4225822451209
 20
86.1961583812908
 30
0.0
 10
753.5721687509921
 20
86.2982364148927
 30
0.0
 10
753.7188736072568
 20
86.40183450957223
 30
0.0
 10
753.9139212146072
 20
86.54438028733507
 30
0.0
 10
754.1517282291675
 20
86.72769780136144
 30
0.0
 10
754.4247226344295
 20
86.95408928008675
 30
0.0
 10
754.6435347320878
 20
87.14954222109233
 30
0.0
 10
754.8148418401457
 20
87.31179159216492
 30
0.0
 10
754.9440446288006
 20
87.4394138647088
 30
0.0
 10
755.068629645121
 20
87.56784235092697
 30
0.0
 10
755.1886083066997
 20
87.69701552360557
 30
0.0
 10
755.3029320220317
 20
87.8256755298757
 30
0.0
 10
755.4099421529261
 20
87.95160248071893
 30
0.0
 10
755.5112409071836
 20
88.07615481278322
 30
0.0
 10
755.6058291031986
 20
88.19775119063166
 30
0.0
 10
755.693605872023
 20
88.31578126772783
 30
0.0
 10
755.7720025507547
 20
88.42583262465584
 30
0.0
 10
755.8416759717214
 20
88.5277227566928
 30
0.0
 10
755.9042835933591
 20
88.62288165773802
 30
0.0
 10
755.9611204541791
 20
88.71253479539875
 30
0.0
 10
756.014043216987
 20
88.7990943800938
 30
0.0
 10
756.0639098850013
 20
88.88363011346372
 30
0.0
 10
756.112733910726
 20
88.96947471252464
 30
0.0
 10
756.1616879990398
 20
89.0589332748708
 30
0.0
 10
756.2082000584272
 20
89.14759723476523
 30
0.0
 10
756.2531845834391
 20
89.2370144002383
 30
0.0
 10
756.297270062777
 20
89.32843291759934
 30
0.0
 10
756.3437578387085
 20
89.42965543015998
 30
0.0
 10
756.3920021420336
 20
89.54076673752431
 30
0.0
 10
756.4412922201532
 20
89.66184904828653
 30
0.0
 10
756.4882106992915
 20
89.78599144386523
 30
0.0
 10
756.5323242799831
 20
89.91231629481383
 30
0.0
 10
756.5733069521858
 20
90.03992860292814
 30
0.0
 10
756.611934697557
 20
90.17236385333882
 30
0.0
 10
756.6465954344243
 20
90.30482452962325
 30
0.0
 10
756.6790717903797
 20
90.44438226555579
 30
0.0
 10
756.7078477788624
 20
90.58715559673139
 30
0.0
 10
756.7321843110128
 20
90.73135993240066
 30
0.0
 10
756.7499237736321
 20
90.85915061274335
 30
0.0
 10
756.7625763453683
 20
90.97121272672618
 30
0.0
 10
756.7714341348752
 20
91.06852830488477
 30
0.0
 10
756.7776647530295
 20
91.15717259774728
 30
0.0
 10
756.7825417722065
 20
91.24556437841159
 30
0.0
 10
756.7884244435699
 20
91.3480211333762
 30
0.0
 10
756.7895290030822
 20
91.42455061624688
 30
0.0
 10
756.7901095791976
 20
91.46477587290904
 30
0.0
  0
SPLINE
  5
106
330
1F
100
AcDbEntity
  8
0
  6
Continuous
 62
     7
370
    30
100
AcDbSpline
210
0.0
220
0.0
230
1.0
 70
     8
 71
     3
 72
   183
 73
   179
 74
     0
 42
0.000000001
 43
0.00000001
 40
0.0
 40
0.0
 40
0.0
 40
0.0
 40
0.0049551002158488
 40
0.0105612217316712
 40
0.0161678146832928
 40
0.0217750215641216
 40
0.02738298303822
 40
0.0329918375385859
 40
0.0386017208762787
 40
0.0442127658621265
 40
0.0498251019428157
 40
0.0554388548529018
 40
0.0610541462845758
 40
0.0666710935761356
 40
0.0722898094211303
 40
0.0779104015987691
 40
0.0835329727268794
 40
0.0891576200387201
 40
0.094784435183562
 40
0.1004135040525887
 40
0.1060449066299761
 40
0.1116787168695626
 40
0.1173150025975931
 40
0.1229538254409612
 40
0.1285952407813849
 40
0.1342392977347319
 40
0.1398860391552746
 40
0.1455355016642039
 40
0.1511877157015741
 40
0.156842705600981
 40
0.1625004896857525
 40
0.1681610803857302
 40
0.1738244843733067
 40
0.1794907027174404
 40
0.1851597310544196
 40
0.1908315597736961
 40
0.1965061742174972
 40
0.2021835548926408
 40
0.2078636776929638
 40
0.2135465141309666
 40
0.2192320315768511
 40
0.2249201935037722
 40
0.2306109597375084
 40
0.2363042867092502
 40
0.2420001277100283
 40
0.2476984331454937
 40
0.2533991507896871
 40
0.2591022260365541
 40
0.2648076021483325
 40
0.2705152204991952
 40
0.2762250208140218
 40
0.2819369414004999
 40
0.2876509193745745
 40
0.2933668908779918
 40
0.2990847912876786
 40
0.3048045554162622
 40
0.3105261177034511
 40
0.3162494123978506
 40
0.3219743737288413
 40
0.3277009360688442
 40
0.3334290340851184
 40
0.339158602881752
 40
0.344889578131337
 40
0.3506218961970028
 40
0.3563554942442798
 40
0.3620903103434356
 40
0.3678262835625047
 40
0.3735633540509984
 40
0.3793014631148908
 40
0.3850405532829579
 40
0.3907805683650792
 40
0.3965214535026257
 40
0.4022631552113575
 40
0.4080056214175123
 40
0.4137488014868652
 40
0.4194926462479235
 40
0.4252371080088778
 40
0.4309821405693892
 40
0.4367276992270335
 40
0.4424737407792151
 40
0.4482202235206373
 40
0.453967107236763
 40
0.4597143531937087
 40
0.4654619241247959
 40
0.4712097842140726
 40
0.4769578990771926
 40
0.4827062357398695
 40
0.4884547626142774
 40
0.4942034494734793
 40
0.4999522674242871
 40
0.5057011888787302
 40
0.511450187524408
 40
0.5171992382937357
 40
0.5229483173324759
 40
0.5286973973706395
 40
0.5344464545523212
 40
0.5401954688346488
 40
0.5459444212464698
 40
0.5516932938551128
 40
0.5574420697334964
 40
0.5631907329271709
 40
0.5689392684215754
 40
0.5746876621099553
 40
0.5804359007613364
 40
0.5861839719892181
 40
0.5919318642205978
 40
0.5976795666656498
 40
0.6034270692880339
 40
0.609174362775855
 40
0.6149214385131929
 40
0.6206682885523418
 40
0.6264149055868642
 40
0.6321612829253225
 40
0.6379074144656026
 40
0.643653294670217
 40
0.6493989185421002
 40
0.6551442816014216
 40
0.6608893798628158
 40
0.6666342098136686
 40
0.6723787683929494
 40
0.6781230529707785
 40
0.6838670613287592
 40
0.6896107916409878
 40
0.6953542424557586
 40
0.7010974126780057
 40
0.7068403015522123
 40
0.7125829086462792
 40
0.718325233835714
 40
0.7240672772886972
 40
0.7298090394515397
 40
0.7355505210348959
 40
0.7412917230004255
 40
0.7470326465481306
 40
0.752773293104027
 40
0.7585136643086285
 40
0.7642537620056269
 40
0.7699935882312922
 40
0.7757331452042807
 40
0.7814724353157071
 40
0.7872114611200343
 40
0.7929502253260953
 40
0.7986887307885141
 40
0.8044269804996885
 40
0.8101649775821734
 40
0.815902725281076
 40
0.821640226957304
 40
0.8273774860807402
 40
0.8331145062239823
 40
0.8388512910562655
 40
0.844587844337775
 40
0.8503241699141719
 40
0.8560602717113739
 40
0.8617961537307959
 40
0.8675318200445439
 40
0.8732672747910549
 40
0.8790025221709843
 40
0.8847375664430729
 40
0.8904724119206472
 40
0.8962070629678478
 40
0.9019415239964265
 40
0.907675799462496
 40
0.9134098938635585
 40
0.9191438117357764
 40
0.9248775576511605
 40
0.9306111362151773
 40
0.9363445520643803
 40
0.9420778098641672
 40
0.9478109143066605
 40
0.953543870108837
 40
0.9592766820106662
 40
0.9650093547733174
 40
0.970741893177624
 40
0.9764743020225253
 40
0.9822065861237265
 40
0.9879387503122576
 40
0.9936707994333898
 40
0.9994027383453478
 40
1.0
 40
1.0
 40
1.0
 40
1.0
 10
912.1728202664988
 20
333.7225757388995
 30
0.0
 10
912.0743191676305
 20
333.6606184101153
 30
0.0
 10
911.864375493306
 20
333.5285635456953
 30
0.0
 10
911.5463144764319
 20
333.3208871930127
 30
0.0
 10
911.2179251925836
 20
333.1007745230024
 30
0.0
 10
910.8923504307264
 20
332.8760549173499
 30
0.0
 10
910.569521528855
 20
332.6468848436795
 30
0.0
 10
910.2494798956724
 20
332.4132372685866
 30
0.0
 10
909.9322374639631
 20
332.1751345005131
 30
0.0
 10
909.6178141001325
 20
331.9325858068577
 30
0.0
 10
909.3062275874198
 20
331.6856041533358
 30
0.0
 10
908.9974963183314
 20
331.4342017383456
 30
0.0
 10
908.6916385790386
 20
331.1783912113766
 30
0.0
 10
908.3886727455229
 20
330.9181853683835
 30
0.0
 10
908.0886172336046
 20
330.6535972557167
 30
0.0
 10
907.7914905132047
 20
330.3846401646986
 30
0.0
 10
907.4973111036519
 20
330.1113276555151
 30
0.0
 10
907.2060975723587
 20
329.8336735730972
 30
0.0
 10
906.917868530905
 20
329.5516920648365
 30
0.0
 10
906.6326426301756
 20
329.2653975973543
 30
0.0
 10
906.3504385541592
 20
328.9748049729153
 30
0.0
 10
906.0712750125797
 20
328.6799293451923
 30
0.0
 10
905.7951707323906
 20
328.3807862343269
 30
0.0
 10
905.5221444482029
 20
328.0773915411747
 30
0.0
 10
905.2522148917261
 20
327.7697615606532
 30
0.0
 10
904.985400780296
 20
327.4579129941056
 30
0.0
 10
904.72172080458
 20
327.1418629606138
 30
0.0
 10
904.4611936155486
 20
326.8216290071947
 30
0.0
 10
904.2038378108045
 20
326.4972291178275
 30
0.0
 10
903.9496719203688
 20
326.168681721271
 30
0.0
 10
903.6987143920187
 20
325.8360056976347
 30
0.0
 10
903.4509835762789
 20
325.4992203836867
 30
0.0
 10
903.2064977111648
 20
325.1583455768831
 30
0.0
 10
902.9652749067735
 20
324.8134015381178
 30
0.0
 10
902.7273331298209
 20
324.4644089932026
 30
0.0
 10
902.4926901882183
 20
324.1113891330932
 30
0.0
 10
902.2613637157784
 20
323.7543636128911
 30
0.0
 10
902.0333711571382
 20
323.3933545496554
 30
0.0
 10
901.8087297529781
 20
323.028384519066
 30
0.0
 10
901.5874565256175
 20
322.6594765509936
 30
0.0
 10
901.3695682650548
 20
322.2866541240291
 30
0.0
 10
901.1550815155177
 20
321.9099411590393
 30
0.0
 10
900.9440125625819
 20
321.5293620118125
 30
0.0
 10
900.7363774209106
 20
321.1449414648698
 30
0.0
 10
900.5321918226583
 20
320.7567047185142
 30
0.0
 10
900.3314712065777
 20
320.364677381195
 30
0.0
 10
900.1342307078604
 20
319.9688854592677
 30
0.0
 10
899.9404851487345
 20
319.5693553462255
 30
0.0
 10
899.7502490298409
 20
319.1661138114884
 30
0.0
 10
899.563536522391
 20
318.759187988816
 30
0.0
 10
899.3803614611204
 20
318.3486053644361
 30
0.0
 10
899.2007373380275
 20
317.934393764948
 30
0.0
 10
899.0246772969002
 20
317.5165813450863
 30
0.0
 10
898.8521941286107
 20
317.0951965754037
 30
0.0
 10
898.6833002671667
 20
316.6702682299447
 30
0.0
 10
898.5180077864969
 20
316.2418253739668
 30
0.0
 10
898.3563283979458
 20
315.8098973517683
 30
0.0
 10
898.1982734484523
 20
315.3745137746775
 30
0.0
 10
898.0438539193768
 20
314.9357045092449
 30
0.0
 10
897.8930804259513
 20
314.49349966569
 30
0.0
 10
897.7459632173083
 20
314.0479295866306
 30
0.0
 10
897.6025121770624
 20
313.5990248361451
 30
0.0
 10
897.4627368243985
 20
313.1468161891764
 30
0.0
 10
897.3266463156327
 20
312.6913346213186
 30
0.0
 10
897.1942494462088
 20
312.2326112989996
 30
0.0
 10
897.0655546530882
 20
311.7706775700784
 30
0.0
 10
896.9405700174988
 20
311.3055649548678
 30
0.0
 10
896.8193032680034
 20
310.8373051375897
 30
0.0
 10
896.7017617838526
 20
310.365929958274
 30
0.0
 10
896.5879525985852
 20
309.891471405096
 30
0.0
 10
896.4778824038435
 20
309.4139616071552
 30
0.0
 10
896.3715575533707
 20
308.933432827692
 30
0.0
 10
896.2689840671569
 20
308.4499174577315
 30
0.0
 10
896.1701676357088
 20
307.9634480101541
 30
0.0
 10
896.0751136244086
 20
307.4740571141703
 30
0.0
 10
895.9838270779447
 20
306.9817775102049
 30
0.0
 10
895.8963127247807
 20
306.4866420451568
 30
0.0
 10
895.8125749816478
 20
305.9886836680392
 30
0.0
 10
895.7326179580346
 20
305.4879354259693
 30
0.0
 10
895.6564454606602
 20
304.984430460501
 30
0.0
 10
895.584060997908
 20
304.4782020042779
 30
0.0
 10
895.515467784211
 20
303.969283377994
 30
0.0
 10
895.4506687443686
 20
303.4577079876403
 30
0.0
 10
895.3896665177879
 20
302.9435093220202
 30
0.0
 10
895.3324634626346
 20
302.4267209505205
 30
0.0
 10
895.2790616598883
 20
301.9073765211143
 30
0.0
 10
895.2294629172906
 20
301.3855097585817
 30
0.0
 10
895.1836687731817
 20
300.8611544629308
 30
0.0
 10
895.1416805002186
 20
300.3343445080033
 30
0.0
 10
895.1034991089724
 20
299.8051138402496
 30
0.0
 10
895.0691253513996
 20
299.2734964776522
 30
0.0
 10
895.0385597241851
 20
298.7395265087891
 30
0.0
 10
895.0118024719577
 20
298.2032380920198
 30
0.0
 10
894.9888535964903
 20
297.66466559833
 30
0.0
 10
894.9697128515598
 20
297.1238435429892
 30
0.0
 10
894.9543797405433
 20
296.5808065016273
 30
0.0
 10
894.9428535180236
 20
296.0355889635306
 30
0.0
 10
894.9351331986417
 20
295.4882254004379
 30
0.0
 10
894.9312175625165
 20
294.9387503511575
 30
0.0
 10
894.9311051575346
 20
294.3871984213043
 30
0.0
 10
894.934794301523
 20
293.8336042830646
 30
0.0
 10
894.9422830843068
 20
293.2780026749801
 30
0.0
 10
894.9535693696542
 20
292.7204284017466
 30
0.0
 10
894.968650797115
 20
292.1609163340107
 30
0.0
 10
894.9875247837551
 20
291.5995014081749
 30
0.0
 10
895.0101885257902
 20
291.036218626191
 30
0.0
 10
895.036639000126
 20
290.4711030553431
 30
0.0
 10
895.0668729658045
 20
289.9041898280096
 30
0.0
 10
895.1008869653656
 20
289.3355141414056
 30
0.0
 10
895.1386773261244
 20
288.765111257302
 30
0.0
 10
895.1802401613695
 20
288.1930165017138
 30
0.0
 10
895.2255713714886
 20
287.6192652645545
 30
0.0
 10
895.2746666450211
 20
287.0438929992574
 30
0.0
 10
895.3275214596474
 20
286.4669352223572
 30
0.0
 10
895.3841310831127
 20
285.8884275130386
 30
0.0
 10
895.4444905740958
 20
285.3084055126328
 30
0.0
 10
895.5085947830199
 20
284.7269049240829
 30
0.0
 10
895.5764383528151
 20
284.1439615113554
 30
0.0
 10
895.6480157196328
 20
283.5596110988128
 30
0.0
 10
895.7233211135161
 20
282.9738895705366
 30
0.0
 10
895.8023485590301
 20
282.3868328696064
 30
0.0
 10
895.8850918758546
 20
281.7984769973325
 30
0.0
 10
895.9715446793439
 20
281.2088580124394
 30
0.0
 10
896.0617003810548
 20
280.6180120302013
 30
0.0
 10
896.1555521892462
 20
280.0259752215354
 30
0.0
 10
896.2530931093552
 20
279.4327838120421
 30
0.0
 10
896.354315944448
 20
278.8384740810057
 30
0.0
 10
896.4592132956535
 20
278.2430823603409
 30
0.0
 10
896.567777562577
 20
277.6466450335019
 30
0.0
 10
896.6800009437005
 20
277.0491985343402
 30
0.0
 10
896.7958754367678
 20
276.4507793459231
 30
0.0
 10
896.9153928391613
 20
275.8514239993036
 30
0.0
 10
897.0385447482671
 20
275.2511690722534
 30
0.0
 10
897.1653225618346
 20
274.6500511879481
 30
0.0
 10
897.2957174783304
 20
274.0481070136183
 30
0.0
 10
897.4297204972886
 20
273.4453732591531
 30
0.0
 10
897.5673224196593
 20
272.8418866756699
 30
0.0
 10
897.708513848155
 20
272.2376840540463
 30
0.0
 10
897.8532851876007
 20
271.6328022234108
 30
0.0
 10
898.0016266452835
 20
271.027278049602
 30
0.0
 10
898.153528231308
 20
270.4211484335883
 30
0.0
 10
898.3089797589539
 20
269.8144503098608
 30
0.0
 10
898.4679708450417
 20
269.2072206447843
 30
0.0
 10
898.6304909103034
 20
268.599496434925
 30
0.0
 10
898.7965291797626
 20
267.991314705339
 30
0.0
 10
898.9660746831214
 20
267.3827125078419
 30
0.0
 10
899.1391162551587
 20
266.7737269192372
 30
0.0
 10
899.3156425361371
 20
266.1643950395285
 30
0.0
 10
899.4956419722229
 20
265.5547539900967
 30
0.0
 10
899.679102815915
 20
264.9448409118562
 30
0.0
 10
899.8660131264883
 20
264.3346929633871
 30
0.0
 10
900.0563607704498
 20
263.7243473190392
 30
0.0
 10
900.2501334220073
 20
263.1138411670181
 30
0.0
 10
900.4473185635521
 20
262.503211707447
 30
0.0
 10
900.6479034861577
 20
261.8924961504088
 30
0.0
 10
900.8518752900893
 20
261.2817317139713
 30
0.0
 10
901.0592208853346
 20
260.670955622185
 30
0.0
 10
901.2699269921434
 20
260.0602051030741
 30
0.0
 10
901.4839801415892
 20
259.4495173865996
 30
0.0
 10
901.7013666761414
 20
258.8389297026173
 30
0.0
 10
901.9220727502563
 20
258.2284792788113
 30
0.0
 10
902.1460843309914
 20
257.6182033386178
 30
0.0
 10
902.3733871986035
 20
257.0081390991294
 30
0.0
 10
902.6039669472818
 20
256.3983237690117
 30
0.0
 10
902.8378089854738
 20
255.788794546306
 30
0.0
 10
903.0748985377905
 20
255.1795886166086
 30
0.0
 10
903.3152206411165
 20
254.5707431497806
 30
0.0
 10
903.5587601624178
 20
253.9622953021081
 30
0.0
 10
903.8055017356635
 20
253.3542821980613
 30
0.0
 10
904.0554300006871
 20
252.7467409881505
 30
0.0
 10
904.3085287153225
 20
252.1397086227578
 30
0.0
 10
904.56478407246
 20
251.5332226858905
 30
0.0
 10
904.8241723247625
 20
250.9273182733577
 30
0.0
 10
905.0867059720969
 20
250.3220396328176
 30
0.0
 10
905.3522613971362
 20
249.7173967135629
 30
0.0
 10
905.6212221220314
 20
249.1135273094782
 30
0.0
 10
905.8112021689445
 20
248.6902742182577
 30
0.0
 10
905.9124102776464
 20
248.4685489440706
 30
0.0
 10
905.921960887053
 20
248.4476256058472
 30
0.0
  0
SPLINE
  5
107
330
1F
100
AcDbEntity
  8
0
  6
Continuous
 62
     7
370
    30
100
AcDbSpline
210
0.0
220
0.0
230
1.0
 70
     8
 71
     3
 72
   183
 73
   179
 74
     0
 42
0.000000001
 43
0.00000001
 40
0.0
 40
0.0
 40
0.0
 40
0.0
 40
0.0044721690082577
 40
0.0102038099966339
 40
0.0159355617129607
 40
0.0216674290512004
 40
0.0273994168947045
 40
0.0331315301149794
 40
0.0388637735706933
 40
0.0445961521063851
 40
0.0503286705512243
 40
0.0560613337175997
 40
0.0617941463996602
 40
0.0675271133716976
 40
0.0732602393865203
 40
0.0789935291735553
 40
0.0847269874370059
 40
0.0904606188537677
 40
0.0961944280712868
 40
0.1019284197051566
 40
0.1076625983367641
 40
0.1133969685105898
 40
0.1191315347314911
 40
0.1248663014617418
 40
0.1306012731178472
 40
0.1363364540674055
 40
0.1420718486254712
 40
0.1478074610509001
 40
0.1535432955424968
 40
0.159279356234849
 40
0.1650156471939693
 40
0.1707521724127253
 40
0.1764889358059889
 40
0.1822259412055713
 40
0.1879631923547995
 40
0.1937006929028656
 40
0.1994384463988821
 40
0.2051764562856516
 40
0.2109147258930308
 40
0.2166532584310372
 40
0.2223920569825722
 40
0.2281311244958051
 40
0.2338704637761565
 40
0.2396100774779386
 40
0.245349968095449
 40
0.2510901379538818
 40
0.2568305891995752
 40
0.2625713237899943
 40
0.2683123434830063
 40
0.2740536498259335
 40
0.2797952441439392
 40
0.2855371275279723
 40
0.2912793008221183
 40
0.2970217646104087
 40
0.3027645192031468
 40
0.3085075646225258
 40
0.3142509005877224
 40
0.3199945264993309
 40
0.3257384414231997
 40
0.3314826440736104
 40
0.337227132795747
 40
0.3429719055475769
 40
0.3487169598809
 40
0.3544622929218187
 40
0.3602079013505032
 40
0.3659537813800736
 40
0.3716999287348355
 40
0.3774463386279125
 40
0.3831930057378388
 40
0.3889399241846699
 40
0.3946870875051294
 40
0.4004344886272345
 40
0.4061821198438749
 40
0.4119299727860307
 40
0.4176780383948426
 40
0.4234263068933882
 40
0.4291747677574422
 40
0.4349234096857544
 40
0.4406722205696751
 40
0.4464211874621207
 40
0.452170296546061
 40
0.4579195331024867
 40
0.463668881477833
 40
0.4694183250513094
 40
0.4751678462014781
 40
0.4809174262730572
 40
0.4866670455433619
 40
0.4924166828817556
 40
0.498166309066667
 40
0.5039159005766614
 40
0.5096654326790859
 40
0.5154148793979753
 40
0.5211642134823441
 40
0.5269134063756574
 40
0.5326624281864127
 40
0.5384112476599302
 40
0.5441598321516411
 40
0.5499081476023056
 40
0.5556561585150971
 40
0.561403827934991
 40
0.5671511174308562
 40
0.5728979870802923
 40
0.5786443954577515
 40
0.5843902996261062
 40
0.5901356551322091
 40
0.5958804160065313
 40
0.6016245347675301
 40
0.607367962430993
 40
0.6131106485246094
 40
0.6188525411084298
 40
0.6245935868015495
 40
0.6303337308151248
 40
0.6360729169926345
 40
0.6418110878572225
 40
0.6475481846669959
 40
0.6532841474783591
 40
0.6590189152178737
 40
0.6647524257628423
 40
0.6704846160312095
 40
0.6762154220806584
 40
0.6819447792177078
 40
0.6876726221163343
 40
0.6933988849469596
 40
0.6991235015154478
 40
0.7048464054123705
 40
0.7105675301725151
 40
0.7162868094446467
 40
0.7220041771710005
 40
0.7277195677769313
 40
0.7334329163697978
 40
0.7391441589470115
 40
0.7448532326127987
 40
0.7505600758028954
 40
0.7562646285166774
 40
0.7619668325559568
 40
0.76766663176952
 40
0.7733639723024822
 40
0.7790588028495306
 40
0.7847510749107147
 40
0.7904407430487689
 40
0.796127765146668
 40
0.8018121026638867
 40
0.807493720890147
 40
0.8131725891950256
 40
0.8188486812721033
 40
0.8245219753757691
 40
0.8301924545495064
 40
0.835860106843753
 40
0.8415249255220032
 40
0.8471869092533256
 40
0.8528460622901602
 40
0.8585023946294758
 40
0.8641559221562288
 40
0.8698066667675002
 40
0.8754546564763909
 40
0.8810999254940617
 40
0.886742514289367
 40
0.8923824696247193
 40
0.8980198445677624
 40
0.9036546984778588
 40
0.9092870969671776
 40
0.9149171118358732
 40
0.9205448209811581
 40
0.9261703082802576
 40
0.9317936634474918
 40
0.9374149818655413
 40
0.9430343643915975
 40
0.948651917138739
 40
0.9542677512336364
 40
0.9598819825512128
 40
0.9654947314273566
 40
0.9711061223511481
 40
0.9767162836376203
 40
0.9823253470825767
 40
0.9879334476011813
 40
0.9935407228517351
 40
0.9991473128467361
 40
1.0
 40
1.0
 40
1.0
 40
1.0
 10
919.920928488239
 20
224.198318273147
 30
0.0
 10
920.0211474743272
 20
224.0583470235415
 30
0.0
 10
920.2498095598188
 20
223.7389852030627
 30
0.0
 10
920.6094958322487
 20
223.242941973568
 30
0.0
 10
920.9995050035081
 20
222.7097491356921
 30
0.0
 10
921.3917126535695
 20
222.1789786272469
 30
0.0
 10
921.7860079853091
 20
221.6505727626187
 30
0.0
 10
922.1823904251254
 20
221.124588364977
 30
0.0
 10
922.5808297173386
 20
220.6010513975977
 30
0.0
 10
922.9813034148627
 20
220.0799959141937
 30
0.0
 10
923.3837868351987
 20
219.5614536195862
 30
0.0
 10
923.7882557537292
 20
219.0454566647506
 30
0.0
 10
924.1946856839523
 20
218.5320368956258
 30
0.0
 10
924.603052072279
 20
218.0212260521911
 30
0.0
 10
925.0133302477665
 20
217.5130557129366
 30
0.0
 10
925.4254954375241
 20
217.0075573075803
 30
0.0
 10
925.8395227645209
 20
216.504762111525
 30
0.0
 10
926.2553872501127
 20
216.0047012452304
 30
0.0
 10
926.6730638153023
 20
215.507405672298
 30
0.0
 10
927.0925272823392
 20
215.0129061979243
 30
0.0
 10
927.5137523762272
 20
214.5212334672841
 30
0.0
 10
927.9367137262549
 20
214.0324179639567
 30
0.0
 10
928.3613858675151
 20
213.5464900083705
 30
0.0
 10
928.7877432424231
 20
213.0634797562709
 30
0.0
 10
929.2157602022316
 20
212.5834171972064
 30
0.0
 10
929.6454110085383
 20
212.106332153042
 30
0.0
 10
930.0766698347892
 20
211.6322542764908
 30
0.0
 10
930.5095107677727
 20
211.1612130496728
 30
0.0
 10
930.9439078091082
 20
210.6932377826928
 30
0.0
 10
931.379834876724
 20
210.2283576122437
 30
0.0
 10
931.8172658063257
 20
209.7666015002334
 30
0.0
 10
932.2561743528539
 20
209.3079982324344
 30
0.0
 10
932.6965341919305
 20
208.8525764171556
 30
0.0
 10
933.1383189212909
 20
208.4003644839401
 30
0.0
 10
933.5815020622025
 20
207.9513906822853
 30
0.0
 10
934.0260570608664
 20
207.5056830803892
 30
0.0
 10
934.4719572898049
 20
207.0632695639158
 30
0.0
 10
934.9191760492301
 20
206.624177834788
 30
0.0
 10
935.3676865683925
 20
206.1884354100021
 30
0.0
 10
935.8174620069094
 20
205.7560696204673
 30
0.0
 10
936.2684754560723
 20
205.3271076098672
 30
0.0
 10
936.7206999401305
 20
204.9015763335442
 30
0.0
 10
937.1741084175502
 20
204.4795025574068
 30
0.0
 10
937.6286737822462
 20
204.0609128568605
 30
0.0
 10
938.0843688647878
 20
203.6458336157584
 30
0.0
 10
938.5411664335733
 20
203.2342910253762
 30
0.0
 10
938.9990391959781
 20
202.826311083402
 30
0.0
 10
939.4579597994635
 20
202.4219195929554
 30
0.0
 10
939.9179008326572
 20
202.0211421616185
 30
0.0
 10
940.378834826393
 20
201.6240042004911
 30
0.0
 10
940.8407342547188
 20
201.2305309232587
 30
0.0
 10
941.3035715358607
 20
200.8407473452811
 30
0.0
 10
941.767319033147
 20
200.4546782826961
 30
0.0
 10
942.2319490558906
 20
200.0723483515372
 30
0.0
 10
942.6974338602249
 20
199.693781966865
 30
0.0
 10
943.163745649896
 20
199.3190033419099
 30
0.0
 10
943.6308565770022
 20
198.948036487227
 30
0.0
 10
944.098738742687
 20
198.5809052098576
 30
0.0
 10
944.5673641977794
 20
198.2176331124988
 30
0.0
 10
945.036704943379
 20
197.858243592677
 30
0.0
 10
945.5067329313882
 20
197.5027598419243
 30
0.0
 10
945.9774200649827
 20
197.1512048449571
 30
0.0
 10
946.4487381990269
 20
196.8036013788501
 30
0.0
 10
946.920659140428
 20
196.4599720122066
 30
0.0
 10
947.3931546484262
 20
196.120339104321
 30
0.0
 10
947.866196434821
 20
195.7847248043318
 30
0.0
 10
948.3397561641344
 20
195.4531510503593
 30
0.0
 10
948.8138054537046
 20
195.1256395686268
 30
0.0
 10
949.2883158737161
 20
194.8022118725591
 30
0.0
 10
949.763258947154
 20
194.4828892618602
 30
0.0
 10
950.2386061496968
 20
194.1676928215563
 30
0.0
 10
950.714328909531
 20
193.8566434210111
 30
0.0
 10
951.1903986071025
 20
193.5497617128974
 30
0.0
 10
951.6667865747868
 20
193.2470681321326
 30
0.0
 10
952.1434640964992
 20
192.9485828947592
 30
0.0
 10
952.6204024072233
 20
192.6543259967781
 30
0.0
 10
953.0975726924769
 20
192.3643172129196
 30
0.0
 10
953.5749460877025
 20
192.0785760953513
 30
0.0
 10
954.0524936775936
 20
191.7971219723152
 30
0.0
 10
954.5301864953522
 20
191.5199739466875
 30
0.0
 10
955.0079955218819
 20
191.247150894455
 30
0.0
 10
955.485891684918
 20
190.9786714631036
 30
0.0
 10
955.9638458581024
 20
190.7145540699059
 30
0.0
 10
956.4418288599969
 20
190.4548169001093
 30
0.0
 10
956.9198114530521
 20
190.199477905009
 30
0.0
 10
957.3977643425255
 20
189.9485547999043
 30
0.0
 10
957.875658166858
 20
189.7020650663152
 30
0.0
 10
958.3534633038287
 20
189.4600260468557
 30
0.0
 10
958.8311500598398
 20
189.222454837852
 30
0.0
 10
959.3086886771088
 20
188.9893682821974
 30
0.0
 10
959.78604952472
 20
188.7607828770583
 30
0.0
 10
960.2632029069078
 20
188.5367148674244
 30
0.0
 10
960.7401190618925
 20
188.317180242965
 30
0.0
 10
961.2167681607444
 20
188.102194734706
 30
0.0
 10
961.6931203062933
 20
187.891773811518
 30
0.0
 10
962.1691455320874
 20
187.6859326764131
 30
0.0
 10
962.6448138014218
 20
187.484686262644
 30
0.0
 10
963.1200950064506
 20
187.2880492295992
 30
0.0
 10
963.5949589673999
 20
187.0960359584908
 30
0.0
 10
964.0693754318995
 20
186.9086605478311
 30
0.0
 10
964.5433140744519
 20
186.725936808695
 30
0.0
 10
965.0167444960606
 20
186.5478782597654
 30
0.0
 10
965.4896362240339
 20
186.3744981221643
 30
0.0
 10
965.9619587119921
 20
186.2058093140646
 30
0.0
 10
966.4336813400936
 20
186.0418244450915
 30
0.0
 10
966.9047734155112
 20
185.8825558105105
 30
0.0
 10
967.3752041731763
 20
185.7280153852106
 30
0.0
 10
967.844942776819
 20
185.5782148174895
 30
0.0
 10
968.3139583203271
 20
185.4331654226494
 30
0.0
 10
968.78221982945
 20
185.2928781764123
 30
0.0
 10
969.2496962638751
 20
185.1573637081718
 30
0.0
 10
969.7163565196996
 20
185.0266322940924
 30
0.0
 10
970.18216943232
 20
184.9006938500779
 30
0.0
 10
970.6471037797702
 20
184.7795579246268
 30
0.0
 10
971.1111282865251
 20
184.6632336915984
 30
0.0
 10
971.5742116277996
 20
184.5517299429149
 30
0.0
 10
972.0363224343569
 20
184.4450550812277
 30
0.0
 10
972.4974292978491
 20
184.3432171125791
 30
0.0
 10
972.9575007767063
 20
184.246223639094
 30
0.0
 10
973.416505402594
 20
184.1540818517343
 30
0.0
 10
973.8744116874416
 20
184.0667985231601
 30
0.0
 10
974.3311881310633
 20
183.9843800007354
 30
0.0
 10
974.7868032293657
 20
183.9068321997234
 30
0.0
 10
975.2412254831532
 20
183.8341605967178
 30
0.0
 10
975.6944234075257
 20
183.7663702233575
 30
0.0
 10
976.1463655418638
 20
183.7034656603744
 30
0.0
 10
976.5970204603867
 20
183.6454510320265
 30
0.0
 10
977.0463567832749
 20
183.5923300009668
 30
0.0
 10
977.4943431883254
 20
183.5441057636033
 30
0.0
 10
977.9409484231254
 20
183.5007810459999
 30
0.0
 10
978.3861413177028
 20
183.4623581003747
 30
0.0
 10
978.8298907976194
 20
183.4288387022447
 30
0.0
 10
979.2721658974643
 20
183.4002241482701
 30
0.0
 10
979.7129357746948
 20
183.3765152548457
 30
0.0
 10
980.1521697237731
 20
183.3577123574857
 30
0.0
 10
980.5898371905373
 20
183.3438153110472
 30
0.0
 10
981.0259077867395
 20
183.3348234908293
 30
0.0
 10
981.4603513046824
 20
183.3307357945856
 30
0.0
 10
981.8931377318768
 20
183.3315506454786
 30
0.0
 10
982.3242372656431
 20
183.337265996003
 30
0.0
 10
982.7536203275719
 20
183.3478793328944
 30
0.0
 10
983.1812575777583
 20
183.3633876830372
 30
0.0
 10
983.6071199287204
 20
183.3837876203764
 30
0.0
 10
984.0311785589156
 20
183.4090752738308
 30
0.0
 10
984.4534049257594
 20
183.4392463361972
 30
0.0
 10
984.8737707780609
 20
183.4742960740275
 30
0.0
 10
985.2922481677806
 20
183.514219338452
 30
0.0
 10
985.7088094610291
 20
183.5590105769129
 30
0.0
 10
986.123427348215
 20
183.608663845765
 30
0.0
 10
986.5360748532679
 20
183.663172823692
 30
0.0
 10
986.9467253418542
 20
183.7225308258763
 30
0.0
 10
987.3553525285214
 20
183.7867308188559
 30
0.0
 10
987.7619304826978
 20
183.8557654359906
 30
0.0
 10
988.1664336335001
 20
183.9296269934573
 30
0.0
 10
988.5688367732918
 20
184.0083075066807
 30
0.0
 10
988.9691150599576
 20
184.0917987071088
 30
0.0
 10
989.3672440178565
 20
184.1800920592282
 30
0.0
 10
989.7631995374372
 20
184.2731787777175
 30
0.0
 10
990.1569578734994
 20
184.3710498446281
 30
0.0
 10
990.5484956421013
 20
184.4736960264828
 30
0.0
 10
990.9377898161217
 20
184.5811078911765
 30
0.0
 10
991.3248177194911
 20
184.6932758245784
 30
0.0
 10
991.7095570201463
 20
184.8101900466707
 30
0.0
 10
992.0919857216419
 20
184.9318406273084
 30
0.0
 10
992.4720821538751
 20
185.0582175007556
 30
0.0
 10
992.8498249614577
 20
185.1893104816384
 30
0.0
 10
993.2251930955081
 20
185.3251092719655
 30
0.0
 10
993.598165787629
 20
185.465603497339
 30
0.0
 10
993.9687225856876
 20
185.6107826297082
 30
0.0
 10
994.3368431547842
 20
185.760636328351
 30
0.0
 10
994.7025079503559
 20
185.9151532152865
 30
0.0
 10
995.065695634371
 20
186.0743254854249
 30
0.0
 10
995.4263926392298
 20
186.2381317429816
 30
0.0
 10
995.7845574082979
 20
186.4066010657015
 30
0.0
 10
996.1402537344205
 20
186.5795740046099
 30
0.0
 10
996.4931531762506
 20
186.7575943399197
 30
0.0
 10
996.7451305208658
 20
186.8874341181149
 30
0.0
 10
996.8786976707192
 20
186.9593043294601
 30
0.0
 10
996.8963298283376
 20
186.9687918935497
 30
0.0
  0
LINE
  5
108
330
1F
100
AcDbEntity
  8
0
  6
Continuous
 62
     7
370
    30
100
AcDbLine
 10
919.0062717732
 20
337.9657259705
 30
0.0
 11
912.257892062
 21
333.7759119145
 31
0.0
  0
LINE
  5
109
330
1F
100
AcDbEntity
  8
0
  6
Continuous
 62
     7
370
    30
100
AcDbLine
 10
996.981763368
 20
187.0139602355
 30
0.0
 11
1003.9847904357
 21
190.7626643368
 31
0.0
  0
SPLINE
  5
10A
330
1F
100
AcDbEntity
  8
0
  6
Continuous
 62
     7
370
    30
100
AcDbSpline
210
0.0
220
0.0
230
1.0
 70
     8
 71
     3
 72
   410
 73
   406
 74
     0
 42
0.000000001
 43
0.00000001
 40
0.0
 40
0.0
 40
0.0
 40
0.0
 40
0.0005964904734474
 40
0.0030748650712089
 40
0.0055532212799923
 40
0.0080315747058398
 40
0.0105099400150218
 40
0.0129883353288615
 40
0.0154667786598255
 40
0.0179452878492197
 40
0.0204238805060387
 40
0.0229025739472207
 40
0.0253813851399349
 40
0.0278603306459631
 40
0.0303394265686513
 40
0.0328186885027869
 40
0.0352981314875123
 40
0.0377777699627069
 40
0.0402576177289559
 40
0.0427376879112025
 40
0.0452179929264959
 40
0.0476985444555944
 40
0.0501793534187932
 40
0.0526604299559396
 40
0.0551417834104914
 40
0.0576234223178057
 40
0.0601053543974458
 40
0.0625875865495949
 40
0.0650701248551643
 40
0.067552974579775
 40
0.0700361401812894
 40
0.0725196253206716
 40
0.0750034328760458
 40
0.0774875649597942
 40
0.0799720229382308
 40
0.0824568074539258
 40
0.0849419184501719
 40
0.0874273551974349
 40
0.0899131163216825
 40
0.092399199833976
 40
0.0948856031615271
 40
0.0973723231796072
 40
0.0998593562442994
 40
0.1023466982257138
 40
0.1048343445416041
 40
0.107322290191076
 40
0.1098105297881821
 40
0.1122990575953025
 40
0.1147878675561073
 40
0.1172769533279518
 40
0.1197663083135561
 40
0.1222559256918431
 40
0.1247457984478939
 40
0.1272359194018597
 40
0.1297262812367635
 40
0.1322168765251126
 40
0.1347076977543479
 40
0.1371987373509829
 40
0.139689987703454
 40
0.1421814411837434
 40
0.1446730901675298
 40
0.1471649270531624
 40
0.1496569442792426
 40
0.152149134340972
 40
0.1546414898051565
 40
0.1571340033240458
 40
0.1596266676478374
 40
0.1621194756362062
 40
0.164612420268441
 40
0.1671054946527553
 40
0.1695986920343337
 40
0.1720920058025166
 40
0.1745854294969942
 40
0.1770789568130674
 40
0.1795725816061386
 40
0.1820662978953309
 40
0.1845600998664055
 40
0.1870539818739727
 40
0.1895479384429985
 40
0.1920419642698439
 40
0.1945360542225857
 40
0.1970302033409109
 40
0.1995244068355994
 40
0.20201866008741
 40
0.2045129586457727
 40
0.2070072982269397
 40
0.2095016747120438
 40
0.2119960841446626
 40
0.2144905227282092
 40
0.2169849868232133
 40
0.219479472944213
 40
0.2219739777566546
 40
0.2244684980735356
 40
0.2269630308520317
 40
0.2294575731899215
 40
0.2319521223220191
 40
0.2344466756165299
 40
0.2369412304287434
 40
0.2394357837596269
 40
0.2419303333952474
 40
0.2444248772388792
 40
0.2469194133073298
 40
0.2494139397272118
 40
0.2519084547313262
 40
0.2544029566550281
 40
0.2568974439326331
 40
0.2593919150939565
 40
0.2618863687608143
 40
0.2643808036436416
 40
0.2668752185382273
 40
0.269369612322378
 40
0.2718639839528253
 40
0.2743583324620871
 40
0.2768526569554738
 40
0.2793469566081393
 40
0.2818412306622334
 40
0.2843354784241205
 40
0.2868296992617421
 40
0.2893238926019064
 40
0.291818057927866
 40
0.2943121947768144
 40
0.2968063027375427
 40
0.2993003814481683
 40
0.3017944305938864
 40
0.304288449904882
 40
0.3067824391542887
 40
0.3092763981561342
 40
0.3117703267635433
 40
0.3142642248668233
 40
0.3167580923917621
 40
0.3192519292978506
 40
0.3217457355767716
 40
0.3242395112507173
 40
0.3267332563709711
 40
0.3292269710164433
 40
0.3317206552922741
 40
0.3342143093285312
 40
0.3367079332789227
 40
0.339201527319645
 40
0.3416950916481318
 40
0.3441886264820038
 40
0.3466821320579696
 40
0.3491756086308707
 40
0.3516690564726198
 40
0.354162475871408
 40
0.356655867130673
 40
0.3591492305683409
 40
0.361642566516038
 40
0.3641358753182585
 40
0.3666291573316808
 40
0.3691224129244911
 40
0.3716156424756421
 40
0.3741088463743117
 40
0.3766020250192408
 40
0.3790951788182226
 40
0.3815883081875079
 40
0.3840814135513221
 40
0.3865744953413498
 40
0.3890675539963235
 40
0.3915605899615486
 40
0.3940536036884634
 40
0.3965465956343009
 40
0.3990395662616918
 40
0.4015325160383082
 40
0.4040254454365326
 40
0.4065183549331439
 40
0.4090112450090409
 40
0.4115041161489023
 40
0.4139969688410074
 40
0.4164898035769035
 40
0.4189826208512501
 40
0.4214754211615183
 40
0.4239682050078616
 40
0.4264609728928597
 40
0.4289537253213633
 40
0.431446462800326
 40
0.433939185838635
 40
0.4364318949469776
 40
0.4389245906376498
 40
0.4414172734244939
 40
0.4439099438227456
 40
0.4464026023488933
 40
0.4488952495206286
 40
0.4513878858566967
 40
0.453880511876844
 40
0.4563731281016727
 40
0.4588657350526591
 40
0.4613583332519832
 40
0.4638509232225344
 40
0.46634350548779
 40
0.4688360805718106
 40
0.4713286489991456
 40
0.4738212112947907
 40
0.4763137679841966
 40
0.4788063195931276
 40
0.4812988666477194
 40
0.4837914096743783
 40
0.4862839491997742
 40
0.4887764857508219
 40
0.4912690198546253
 40
0.4937615520384502
 40
0.4962540828297529
 40
0.4987466127560414
 40
0.5012391423449909
 40
0.503731672120047
 40
0.5062242024373272
 40
0.5087167338246603
 40
0.511209266809851
 40
0.5137018019207258
 40
0.5161943396850525
 40
0.5186868806305638
 40
0.5211794252848893
 40
0.5236719741755457
 40
0.526164527829935
 40
0.5286570867752536
 40
0.5311496515384871
 40
0.533642222646431
 40
0.5361348006255376
 40
0.538627386001951
 40
0.5411199793014804
 40
0.5436125810494711
 40
0.5461051917708227
 40
0.5485978119898931
 40
0.5510904422304527
 40
0.5535830830155997
 40
0.5560757348677156
 40
0.5585683983083404
 40
0.5610610738581557
 40
0.5635537620368022
 40
0.5660464633628648
 40
0.5685391783537185
 40
0.5710319075254244
 40
0.5735246513926061
 40
0.5760174104683293
 40
0.5785101852639295
 40
0.5810029762889014
 40
0.5834957840507324
 40
0.5859886090546704
 40
0.5884814518036329
 40
0.5909743127979212
 40
0.5934671925350934
 40
0.5959600915096694
 40
0.5984530102129454
 40
0.6009459491327287
 40
0.6034389087530647
 40
0.6059318895539614
 40
0.6084248920110845
 40
0.6109179165954421
 40
0.6134109637730577
 40
0.6159040340046152
 40
0.6183971277450586
 40
0.6208902454432362
 40
0.6233833875414463
 40
0.625876554475035
 40
0.6283697466718816
 40
0.6308629645519546
 40
0.6333562085267608
 40
0.6358494789988313
 40
0.638342776361097
 40
0.6408361009963678
 40
0.6433294532766098
 40
0.6458228335623536
 40
0.648316242201945
 40
0.6508096795308327
 40
0.6533031458707917
 40
0.6557966415291081
 40
0.6582901667977423
 40
0.6607837219524318
 40
0.6632773072517721
 40
0.6657709229362118
 40
0.6682645692270545
 40
0.67075824632538
 40
0.6732519544109603
 40
0.6757456936410178
 40
0.6782394641490752
 40
0.6807332660436416
 40
0.6832270994068793
 40
0.6857209642932306
 40
0.6882148607279928
 40
0.6907087887057267
 40
0.6932027481887696
 40
0.6956967391055302
 40
0.6981907613488249
 40
0.7006848147740938
 40
0.7031788991975322
 40
0.7056730143942013
 40
0.7081671600960071
 40
0.7106613359896625
 40
0.7131555417145401
 40
0.7156497768604237
 40
0.7181440409652237
 40
0.7206383335126355
 40
0.7231326539295884
 40
0.7256270015837905
 40
0.72812137578102
 40
0.7306157757624996
 40
0.7331102007020528
 40
0.7356046497032237
 40
0.7380991217963191
 40
0.7405936159354191
 40
0.743088130995185
 40
0.7455826657677271
 40
0.7480772189592899
 40
0.7505717891869076
 40
0.7530663749750279
 40
0.7555609747519869
 40
0.7580555868465024
 40
0.7605502094839928
 40
0.7630448407830817
 40
0.7655394787517711
 40
0.7680341212837446
 40
0.7705287661546871
 40
0.7730234103139113
 40
0.7755180511427879
 40
0.7780126859963975
 40
0.7805073120954921
 40
0.7830019265228013
 40
0.7854965262194036
 40
0.7879911079811424
 40
0.7904856684552409
 40
0.7929802041368429
 40
0.7954747113659069
 40
0.7979691863240944
 40
0.8004636250319724
 40
0.8029580233463416
 40
0.8054523769578746
 40
0.807946681388999
 40
0.8104409319921667
 40
0.8129351239483396
 40
0.8154292522660144
 40
0.8179233117805713
 40
0.8204172971541456
 40
0.8229112028760035
 40
0.8254050232634829
 40
0.8278987524634943
 40
0.8303923844547277
 40
0.8328859130505925
 40
0.8353793319027396
 40
0.8378726345056443
 40
0.8403658142018113
 40
0.8428588641880034
 40
0.8453517775223969
 40
0.8478445471327145
 40
0.8503371658254902
 40
0.8528296262963055
 40
0.855321921141284
 40
0.8578140428696777
 40
0.8603059839177755
 40
0.8627977366639492
 40
0.865289293445065
 40
0.8677806465741762
 40
0.8702717883595154
 40
0.8727627111248448
 40
0.8752534072310686
 40
0.8777438690993074
 40
0.8802340892350802
 40
0.8827240602539074
 40
0.8852137749080784
 40
0.8877032261145759
 40
0.8901924069841972
 40
0.8926813108515633
 40
0.8951699313062448
 40
0.8976582622245308
 40
0.9001462978020551
 40
0.9026340325868826
 40
0.9051214615131002
 40
0.9076085799346094
 40
0.9100953836589885
 40
0.9125818689812907
 40
0.9150680327174053
 40
0.9175538722370443
 40
0.9200393854957545
 40
0.9225245710660968
 40
0.9250094281674419
 40
0.9274939566943775
 40
0.929978157243272
 40
0.9324620311368372
 40
0.9349455804465097
 40
0.9374288080121929
 40
0.9399117174594099
 40
0.9423943132133253
 40
0.9448766005096263
 40
0.9473585854020217
 40
0.949840274766119
 40
0.9523216762995872
 40
0.9548027985183482
 40
0.9572836507488298
 40
0.9597642431160971
 40
0.9622445865278167
 40
0.9647246926540931
 40
0.9672045739030306
 40
0.9696842433923376
 40
0.9721637149167306
 40
0.9746430029114805
 40
0.9771221224122296
 40
0.9796010890110359
 40
0.9820799188093204
 40
0.9845586283674173
 40
0.9870372346514474
 40
0.9895157549775597
 40
0.9919942069540754
 40
0.9944726084216549
 40
0.9969509773920975
 40
0.9994293319859723
 40
1.0
 40
1.0
 40
1.0
 40
1.0
 10
1004.342129913584
 20
190.957769724395
 30
0.0
 10
1004.36948008901
 20
190.9727467708415
 30
0.0
 10
1004.510468257058
 20
191.0499523575829
 30
0.0
 10
1004.762513721686
 20
191.1939213743742
 30
0.0
 10
1005.098132696865
 20
191.3898446776424
 30
0.0
 10
1005.430884501213
 20
191.5906919465626
 30
0.0
 10
1005.76101841374
 20
191.7959764789977
 30
0.0
 10
1006.088442435891
 20
192.0058130980417
 30
0.0
 10
1006.41315636465
 20
192.2201552790777
 30
0.0
 10
1006.735135598569
 20
192.4389994735538
 30
0.0
 10
1007.054362225997
 20
192.6623303300059
 30
0.0
 10
1007.370816690921
 20
192.890135367592
 30
0.0
 10
1007.68448002282
 20
193.1224010389671
 30
0.0
 10
1007.995333236339
 20
193.3591137797389
 30
0.0
 10
1008.303357489917
 20
193.6002597214353
 30
0.0
 10
1008.608534041641
 20
193.8458247623938
 30
0.0
 10
1008.910844260058
 20
194.0957945425909
 30
0.0
 10
1009.210269620882
 20
194.350154444125
 30
0.0
 10
1009.50679170811
 20
194.6088895848
 30
0.0
 10
1009.800392214587
 20
194.8719848135936
 30
0.0
 10
1010.091052943335
 20
195.139424705714
 30
0.0
 10
1010.378755809283
 20
195.4111935579234
 30
0.0
 10
1010.663482841477
 20
195.6872753839958
 30
0.0
 10
1010.945216185723
 20
195.9676539104027
 30
0.0
 10
1011.22393810764
 20
196.2523125722448
 30
0.0
 10
1011.49963099611
 20
196.5412345094687
 30
0.0
 10
1011.772277367073
 20
196.8344025634042
 30
0.0
 10
1012.041859867658
 20
197.1317992736409
 30
0.0
 10
1012.308361280597
 20
197.4334068752727
 30
0.0
 10
1012.571764528901
 20
197.7392072965253
 30
0.0
 10
1012.832052680746
 20
198.0491821567847
 30
0.0
 10
1013.089208954547
 20
198.3633127650358
 30
0.0
 10
1013.343216724172
 20
198.6815801187165
 30
0.0
 10
1013.594059524267
 20
199.0039649029916
 30
0.0
 10
1013.841721055643
 20
199.3304474904465
 30
0.0
 10
1014.086185190706
 20
199.6610079411927
 30
0.0
 10
1014.327435978881
 20
199.9956260033798
 30
0.0
 10
1014.565457652006
 20
200.3342811141048
 30
0.0
 10
1014.800234629663
 20
200.6769524006987
 30
0.0
 10
1015.031751524417
 20
201.0236186823842
 30
0.0
 10
1015.259993146933
 20
201.3742584722733
 30
0.0
 10
1015.484944510958
 20
201.7288499796998
 30
0.0
 10
1015.706590838131
 20
202.08737111285
 30
0.0
 10
1015.924917562612
 20
202.4497994816793
 30
0.0
 10
1016.139910335513
 20
202.8161124010873
 30
0.0
 10
1016.351555029114
 20
203.1862868943273
 30
0.0
 10
1016.559837740852
 20
203.5602996966245
 30
0.0
 10
1016.764744797075
 20
203.9381272589785
 30
0.0
 10
1016.966262756556
 20
204.3197457521286
 30
0.0
 10
1017.164378413761
 20
204.7051310706541
 30
0.0
 10
1017.359078801868
 20
205.0942588371866
 30
0.0
 10
1017.550351195536
 20
205.4871044067124
 30
0.0
 10
1017.738183113424
 20
205.8836428709441
 30
0.0
 10
1017.922562320476
 20
206.2838490627411
 30
0.0
 10
1018.103476829953
 20
206.687697560555
 30
0.0
 10
1018.280914905238
 20
207.0951626928864
 30
0.0
 10
1018.454865061415
 20
207.5062185427347
 30
0.0
 10
1018.625316066625
 20
207.9208389520243
 30
0.0
 10
1018.792256943216
 20
208.338997525997
 30
0.0
 10
1018.955676968692
 20
208.760667637551
 30
0.0
 10
1019.115565676469
 20
209.1858224315218
 30
0.0
 10
1019.271912856461
 20
209.6144348288889
 30
0.0
 10
1019.424708555487
 20
210.0464775309072
 30
0.0
 10
1019.573943077527
 20
210.4819230231487
 30
0.0
 10
1019.719606983835
 20
210.9207435794538
 30
0.0
 10
1019.861691092913
 20
211.3629112657788
 30
0.0
 10
1020.000186480364
 20
211.8083979439497
 30
0.0
 10
1020.135084478631
 20
212.2571752753025
 30
0.0
 10
1020.266376676638
 20
212.7092147242278
 30
0.0
 10
1020.394054919339
 20
213.164487561596
 30
0.0
 10
1020.518111307182
 20
213.622964868086
 30
0.0
 10
1020.638538195506
 20
214.0846175373988
 30
0.0
 10
1020.755328193874
 20
214.5494162793694
 30
0.0
 10
1020.868474165348
 20
215.017331622975
 30
0.0
 10
1020.97796922573
 20
215.4883339192392
 30
0.0
 10
1021.083806742747
 20
215.9623933440417
 30
0.0
 10
1021.185980335222
 20
216.4394799008292
 30
0.0
 10
1021.28448387221
 20
216.919563423235
 30
0.0
 10
1021.379311472123
 20
217.4026135776128
 30
0.0
 10
1021.470457501831
 20
217.8885998654841
 30
0.0
 10
1021.557916575772
 20
218.3774916259077
 30
0.0
 10
1021.641683555041
 20
218.8692580377727
 30
0.0
 10
1021.721753546495
 20
219.3638681220197
 30
0.0
 10
1021.798121901856
 20
219.8612907437997
 30
0.0
 10
1021.870784216818
 20
220.3614946145608
 30
0.0
 10
1021.939736330176
 20
220.8644482940914
 30
0.0
 10
1022.004974322962
 20
221.3701201924982
 30
0.0
 10
1022.066494517591
 20
221.8784785721412
 30
0.0
 10
1022.12429347704
 20
222.389491549521
 30
0.0
 10
1022.17836800403
 20
222.9031270971254
 30
0.0
 10
1022.228715140239
 20
223.4193530452439
 30
0.0
 10
1022.275332165532
 20
223.9381370837402
 30
0.0
 10
1022.31821659721
 20
224.4594467638053
 30
0.0
 10
1022.35736618929
 20
224.9832494996774
 30
0.0
 10
1022.3927789318
 20
225.5095125703434
 30
0.0
 10
1022.424453050098
 20
226.03820312122
 30
0.0
 10
1022.452387003686
 20
226.5692881557001
 30
0.0
 10
1022.476579484411
 20
227.1027345023225
 30
0.0
 10
1022.49702941938
 20
227.6385088628103
 30
0.0
 10
1022.513735970467
 20
228.1765778240435
 30
0.0
 10
1022.526698533714
 20
228.7169078948228
 30
0.0
 10
1022.535916736642
 20
229.2594654601429
 30
0.0
 10
1022.54139043773
 20
229.8042167828102
 30
0.0
 10
1022.543119725911
 20
230.3511280050581
 30
0.0
 10
1022.541104920088
 20
230.9001651501651
 30
0.0
 10
1022.535346568665
 20
231.4512941240802
 30
0.0
 10
1022.525845449093
 20
232.0044807170501
 30
0.0
 10
1022.512602567432
 20
232.5596906052585
 30
0.0
 10
1022.495619157927
 20
233.1168893524719
 30
0.0
 10
1022.474896682598
 20
233.6760424116945
 30
0.0
 10
1022.450436830835
 20
234.2371151268368
 30
0.0
 10
1022.422241519013
 20
234.8000727343901
 30
0.0
 10
1022.390312890108
 20
235.3648803651213
 30
0.0
 10
1022.354653313329
 20
235.9315030457731
 30
0.0
 10
1022.31526538375
 20
236.4999057007827
 30
0.0
 10
1022.272151921954
 20
237.070053154011
 30
0.0
 10
1022.225315973679
 20
237.6419101304928
 30
0.0
 10
1022.174760809472
 20
238.2154412581918
 30
0.0
 10
1022.120489924341
 20
238.7906110697813
 30
0.0
 10
1022.062507037417
 20
239.3673840044299
 30
0.0
 10
1022.000816091611
 20
239.9457244096137
 30
0.0
 10
1021.935421253275
 20
240.5255965429367
 30
0.0
 10
1021.866326911862
 20
241.1069645739669
 30
0.0
 10
1021.793537679586
 20
241.6897925860922
 30
0.0
 10
1021.717058391081
 20
242.2740445783895
 30
0.0
 10
1021.636894103055
 20
242.8596844675077
 30
0.0
 10
1021.553050093946
 20
243.4466760895716
 30
0.0
 10
1021.465531863565
 20
244.0349832020936
 30
0.0
 10
1021.374345132746
 20
244.6245694859117
 30
0.0
 10
1021.279495842985
 20
245.2153985471277
 30
0.0
 10
1021.180990156068
 20
245.8074339190752
 30
0.0
 10
1021.078834453709
 20
246.4006390642889
 30
0.0
 10
1020.973035337159
 20
246.9949773765009
 30
0.0
 10
1020.863599626831
 20
247.5904121826399
 30
0.0
 10
1020.750534361899
 20
248.1869067448523
 30
0.0
 10
1020.633846799896
 20
248.7844242625319
 30
0.0
 10
1020.513544416306
 20
249.382927874363
 30
0.0
 10
1020.389634904145
 20
249.9823806603831
 30
0.0
 10
1020.262126173524
 20
250.582745644049
 30
0.0
 10
1020.13102635122
 20
251.1839857943212
 30
0.0
 10
1019.996343780221
 20
251.7860640277528
 30
0.0
 10
1019.858087019264
 20
252.3889432106021
 30
0.0
 10
1019.716264842372
 20
252.9925861609436
 30
0.0
 10
1019.570886238365
 20
253.5969556508041
 30
0.0
 10
1019.421960410369
 20
254.2020144082918
 30
0.0
 10
1019.269496775314
 20
254.8077251197507
 30
0.0
 10
1019.113504963415
 20
255.4140504319147
 30
0.0
 10
1018.953994817646
 20
256.0209529540778
 30
0.0
 10
1018.790976393195
 20
256.6283952602706
 30
0.0
 10
1018.624459956916
 20
257.2363398914457
 30
0.0
 10
1018.454455986761
 20
257.8447493576699
 30
0.0
 10
1018.2809751712
 20
258.4535861403286
 30
0.0
 10
1018.104028408637
 20
259.0628126943304
 30
0.0
 10
1017.923626806795
 20
259.6723914503311
 30
0.0
 10
1017.739781682109
 20
260.2822848169521
 30
0.0
 10
1017.552504559088
 20
260.8924551830143
 30
0.0
 10
1017.361807169679
 20
261.5028649197702
 30
0.0
 10
1017.167701452601
 20
262.1134763831508
 30
0.0
 10
1016.970199552684
 20
262.7242519160137
 30
0.0
 10
1016.769313820176
 20
263.3351538503946
 30
0.0
 10
1016.565056810054
 20
263.9461445097667
 30
0.0
 10
1016.357441281307
 20
264.5571862113038
 30
0.0
 10
1016.146480196214
 20
265.1682412681504
 30
0.0
 10
1015.932186719605
 20
265.7792719916914
 30
0.0
 10
1015.714574218109
 20
266.3902406938274
 30
0.0
 10
1015.493656259387
 20
267.0011096892554
 30
0.0
 10
1015.269446611358
 20
267.6118412977479
 30
0.0
 10
1015.041959241398
 20
268.2223978464417
 30
0.0
 10
1014.811208315541
 20
268.8327416721202
 30
0.0
 10
1014.577208197651
 20
269.4428351235103
 30
0.0
 10
1014.339973448597
 20
270.0526405635667
 30
0.0
 10
1014.099518825395
 20
270.6621203717719
 30
0.0
 10
1013.855859280355
 20
271.2712369464255
 30
0.0
 10
1013.609009960204
 20
271.8799527069442
 30
0.0
 10
1013.358986205194
 20
272.4882300961561
 30
0.0
 10
1013.105803548206
 20
273.0960315825999
 30
0.0
 10
1012.849477713827
 20
273.7033196628232
 30
0.0
 10
1012.590024617431
 20
274.3100568636779
 30
0.0
 10
1012.327460364227
 20
274.9162057446198
 30
0.0
 10
1012.061801248312
 20
275.5217289000055
 30
0.0
 10
1011.793063751694
 20
276.1265889613894
 30
0.0
 10
1011.521264543318
 20
276.7307485998199
 30
0.0
 10
1011.246420478065
 20
277.3341705281321
 30
0.0
 10
1010.968548595748
 20
277.9368175032445
 30
0.0
 10
1010.687666120089
 20
278.5386523284446
 30
0.0
 10
1010.403790457684
 20
279.1396378556848
 30
0.0
 10
1010.11693919696
 20
279.7397369878652
 30
0.0
 10
1009.827130107109
 20
280.3389126811243
 30
0.0
 10
1009.534381137022
 20
280.9371279471147
 30
0.0
 10
1009.238710414201
 20
281.5343458552888
 30
0.0
 10
1008.940136243661
 20
282.1305295351717
 30
0.0
 10
1008.638677106824
 20
282.7256421786353
 30
0.0
 10
1008.33435166039
 20
283.319647042171
 30
0.0
 10
1008.027178735209
 20
283.9125074491521
 30
0.0
 10
1007.717177335131
 20
284.5041867921006
 30
0.0
 10
1007.404366635847
 20
285.0946485349398
 30
0.0
 10
1007.088765983721
 20
285.6838562152532
 30
0.0
 10
1006.770394894605
 20
286.2717734465314
 30
0.0
 10
1006.449273052643
 20
286.858363920418
 30
0.0
 10
1006.12542030907
 20
287.4435914089474
 30
0.0
 10
1005.798856680988
 20
288.0274197667825
 30
0.0
 10
1005.469602350144
 20
288.609812933438
 30
0.0
 10
1005.137677661681
 20
289.1907349355109
 30
0.0
 10
1004.803103123085
 20
289.7701498885609
 30
0.0
 10
1004.465899410472
 20
290.3480219863968
 30
0.0
 10
1004.126087359849
 20
290.924315516708
 30
0.0
 10
1003.783687965617
 20
291.4989948636018
 30
0.0
 10
1003.438722371458
 20
292.0720245225743
 30
0.0
 10
1003.091211876771
 20
292.643369089426
 30
0.0
 10
1002.741177935346
 20
293.2129932624458
 30
0.0
 10
1002.388642154048
 20
293.780861844578
 30
0.0
 10
1002.033626291469
 20
294.3469397455889
 30
0.0
 10
1001.676152256585
 20
294.9111919842231
 30
0.0
 10
1001.316242107396
 20
295.4735836903508
 30
0.0
 10
1000.953918049558
 20
296.0340801071087
 30
0.0
 10
1000.589202435004
 20
296.5926465930348
 30
0.0
 10
1000.222117760558
 20
297.1492486241896
 30
0.0
 10
999.8526866665345
 20
297.7038517962743
 30
0.0
 10
999.4809319353357
 20
298.2564218267356
 30
0.0
 10
999.1068764900314
 20
298.806924556866
 30
0.0
 10
998.7305433929346
 20
299.3553259538926
 30
0.0
 10
998.3519558441694
 20
299.9015921130543
 30
0.0
 10
997.9711371802251
 20
300.4456892596755
 30
0.0
 10
997.588110872506
 20
300.9875837512237
 30
0.0
 10
997.2029005258698
 20
301.5272420793631
 30
0.0
 10
996.8155298771602
 20
302.0646308719918
 30
0.0
 10
996.4260227937277
 20
302.5997168952775
 30
0.0
 10
996.0344032719473
 20
303.132467055672
 30
0.0
 10
995.6406954357228
 20
303.6628484019247
 30
0.0
 10
995.2449235349887
 20
304.1908281270794
 30
0.0
 10
994.8471119441988
 20
304.7163735704636
 30
0.0
 10
994.447285160814
 20
305.2394522196643
 30
0.0
 10
994.0454678037764
 20
305.7600317124937
 30
0.0
 10
993.6416846119826
 20
306.2780798389429
 30
0.0
 10
993.2359604427442
 20
306.7935645431247
 30
0.0
 10
992.8283202702455
 20
307.3064539252057
 30
0.0
 10
992.4187891839944
 20
307.8167162433219
 30
0.0
 10
992.0073923872656
 20
308.324319915488
 30
0.0
 10
991.5941551955412
 20
308.8292335214871
 30
0.0
 10
991.1791030349393
 20
309.3314258047583
 30
0.0
 10
990.7622614406441
 20
309.8308656742599
 30
0.0
 10
990.343656055325
 20
310.3275222063295
 30
0.0
 10
989.9233126275547
 20
310.8213646465249
 30
0.0
 10
989.5012570102189
 20
311.3123624114552
 30
0.0
 10
989.0775151589238
 20
311.8004850905971
 30
0.0
 10
988.6521131303999
 20
312.2857024480975
 30
0.0
 10
988.2250770808988
 20
312.7679844245628
 30
0.0
 10
987.7964332645884
 20
313.2473011388352
 30
0.0
 10
987.3662080319425
 20
313.7236228897549
 30
0.0
 10
986.9344278281304
 20
314.1969201579074
 30
0.0
 10
986.5011191913995
 20
314.6671636073565
 30
0.0
 10
986.0663087514587
 20
315.1343240873638
 30
0.0
 10
985.6300232278552
 20
315.5983726340954
 30
0.0
 10
985.1922894283543
 20
316.0592804723094
 30
0.0
 10
984.7531342473126
 20
316.5170190170333
 30
0.0
 10
984.3125846640537
 20
316.9715598752232
 30
0.0
 10
983.8706677412385
 20
317.4228748474117
 30
0.0
 10
983.4274106232402
 20
317.8709359293352
 30
0.0
 10
982.9828405345119
 20
318.3157153135539
 30
0.0
 10
982.5369847779609
 20
318.7571853910486
 30
0.0
 10
982.0898707333166
 20
319.1953187528092
 30
0.0
 10
981.6415258555058
 20
319.6300881914023
 30
0.0
 10
981.1919776730225
 20
320.0614667025275
 30
0.0
 10
980.7412537863045
 20
320.4894274865551
 30
0.0
 10
980.2893818661087
 20
320.9139439500506
 30
0.0
 10
979.8363896518891
 20
321.3349897072827
 30
0.0
 10
979.3823049501775
 20
321.7525385817166
 30
0.0
 10
978.9271556329666
 20
322.1665646074916
 30
0.0
 10
978.4709696360983
 20
322.5770420308825
 30
0.0
 10
978.0137749576547
 20
322.9839453117459
 30
0.0
 10
977.5555996563545
 20
323.3872491249508
 30
0.0
 10
977.0964718499503
 20
323.7869283617977
 30
0.0
 10
976.6364197136367
 20
324.1829581314158
 30
0.0
 10
976.1754714784607
 20
324.575313762151
 30
0.0
 10
975.713655429741
 20
324.9639708029348
 30
0.0
 10
975.250999905491
 20
325.3489050246415
 30
0.0
 10
974.7875332948512
 20
325.7300924214285
 30
0.0
 10
974.3232840365271
 20
326.1075092120661
 30
0.0
 10
973.8582806172384
 20
326.4811318412472
 30
0.0
 10
973.3925515701742
 20
326.8509369808888
 30
0.0
 10
972.9261254734627
 20
327.2169015314146
 30
0.0
 10
972.4590309486423
 20
327.5790026230296
 30
0.0
 10
971.9912966591497
 20
327.9372176169784
 30
0.0
 10
971.5229513088166
 20
328.291524106792
 30
0.0
 10
971.0540236403776
 20
328.6418999195234
 30
0.0
 10
970.5845424339924
 20
328.9883231169679
 30
0.0
 10
970.1145365057766
 20
329.3307719968776
 30
0.0
 10
969.6440347063476
 20
329.669225094162
 30
0.0
 10
969.1730659193838
 20
330.0036611820792
 30
0.0
 10
968.7016590601978
 20
330.3340592734176
 30
0.0
 10
968.229843074323
 20
330.6603986216709
 30
0.0
 10
967.7576469361164
 20
330.9826587222009
 30
0.0
 10
967.2850996473744
 20
331.3008193133993
 30
0.0
 10
966.8122302359699
 20
331.6148603778346
 30
0.0
 10
966.3390677544953
 20
331.9247621434043
 30
0.0
 10
965.8656412789312
 20
332.230505084474
 30
0.0
 10
965.3919799073253
 20
332.5320699230177
 30
0.0
 10
964.918112758495
 20
332.8294376297518
 30
0.0
 10
964.4440689707395
 20
333.1225894252723
 30
0.0
 10
963.9698777005739
 20
333.4115067811882
 30
0.0
 10
963.4955681214764
 20
333.6961714212601
 30
0.0
 10
963.0211694226584
 20
333.9765653225355
 30
0.0
 10
962.546710807847
 20
334.2526707164928
 30
0.0
 10
962.0722214940857
 20
334.5244700901886
 30
0.0
 10
961.5977307105534
 20
334.7919461874115
 30
0.0
 10
961.1232676973949
 20
335.0550820098454
 30
0.0
 10
960.6488617045785
 20
335.3138608182379
 30
0.0
 10
960.1745419907537
 20
335.5682661335883
 30
0.0
 10
959.7003378221357
 20
335.8182817383409
 30
0.0
 10
959.2262784713969
 20
336.0638916775978
 30
0.0
 10
958.752393216576
 20
336.3050802603452
 30
0.0
 10
958.2787113845875
 20
336.5418320384131
 30
0.0
 10
957.8052623147521
 20
336.7741318273554
 30
0.0
 10
957.332075351155
 20
337.0019647113755
 30
0.0
 10
956.859179797147
 20
337.2253160651577
 30
0.0
 10
956.3866049496797
 20
337.4441715371959
 30
0.0
 10
955.9143801048498
 20
337.6585170479361
 30
0.0
 10
955.4425345568463
 20
337.8683387911838
 30
0.0
 10
954.9710975968914
 20
338.0736232355463
 30
0.0
 10
954.5000985121806
 20
338.2743571259043
 30
0.0
 10
954.0295665848093
 20
338.4705274849208
 30
0.0
 10
953.5595310906962
 20
338.6621216145837
 30
0.0
 10
953.0900212984795
 20
338.8491270977893
 30
0.0
 10
952.6210664684055
 20
339.0315317999616
 30
0.0
 10
952.1526958511862
 20
339.2093238707124
 30
0.0
 10
951.6849386868348
 20
339.382491745543
 30
0.0
 10
951.217824203463
 20
339.551024147587
 30
0.0
 10
950.7513816160482
 20
339.7149100893942
 30
0.0
 10
950.2856401251519
 20
339.8741388747583
 30
0.0
 10
949.8206289155976
 20
340.0287001005839
 30
0.0
 10
949.356377155089
 20
340.1785836587985
 30
0.0
 10
948.8929139927726
 20
340.3237797383015
 30
0.0
 10
948.4302685577323
 20
340.4642788269564
 30
0.0
 10
947.9684699574158
 20
340.6000717136172
 30
0.0
 10
947.5075472759812
 20
340.7311494901921
 30
0.0
 10
947.0475295725581
 20
340.8575035537395
 30
0.0
 10
946.5884458794208
 20
340.9791256085939
 30
0.0
 10
946.1303252000567
 20
341.0960076685166
 30
0.0
 10
945.6731965071399
 20
341.2081420588684
 30
0.0
 10
945.2170887403807
 20
341.3155214187975
 30
0.0
 10
944.7620308042688
 20
341.4181387034388
 30
0.0
 10
944.3080515656849
 20
341.5159871861146
 30
0.0
 10
943.8551798513816
 20
341.6090604605337
 30
0.0
 10
943.4034444453304
 20
341.6973524429782
 30
0.0
 10
942.9528740859224
 20
341.7808573744692
 30
0.0
 10
942.5034974630273
 20
341.8595698229021
 30
0.0
 10
942.0553432148938
 20
341.933484685143
 30
0.0
 10
941.6084399248987
 20
342.0025971890715
 30
0.0
 10
941.1628161181345
 20
342.0669028955616
 30
0.0
 10
940.7185002578383
 20
342.1263977003855
 30
0.0
 10
940.2755207416559
 20
342.181077836029
 30
0.0
 10
939.8339058977446
 20
342.2309398734033
 30
0.0
 10
939.3936839807176
 20
342.2759807234387
 30
0.0
 10
938.9548831674231
 20
342.3161976385476
 30
0.0
 10
938.5175315525745
 20
342.3515882139383
 30
0.0
 10
938.081657144225
 20
342.3821503887661
 30
0.0
 10
937.6472878591054
 20
342.4078824471065
 30
0.0
 10
937.2144515178221
 20
342.4287830187325
 30
0.0
 10
936.7831758399321
 20
342.4448510796831
 30
0.0
 10
936.3534884389079
 20
342.4560859526065
 30
0.0
 10
935.9254168169989
 20
342.4624873068622
 30
0.0
 10
935.4989883600163
 20
342.4640551583711
 30
0.0
 10
935.0742303320452
 20
342.4607898691964
 30
0.0
 10
934.6511698701197
 20
342.4526921468466
 30
0.0
 10
934.2298339788641
 20
342.4397630432878
 30
0.0
 10
933.8102495251386
 20
342.4220039536564
 30
0.0
 10
933.3924432327027
 20
342.3994166146651
 30
0.0
 10
932.9764416769291
 20
342.3720031026955
 30
0.0
 10
932.5622712795956
 20
342.3397658315756
 30
0.0
 10
932.1499583037728
 20
342.3027075500378
 30
0.0
 10
931.7395288488555
 20
342.2608313388632
 30
0.0
 10
931.331008845746
 20
342.2141406077118
 30
0.0
 10
930.9244240522426
 20
342.162639091649
 30
0.0
 10
930.5198000486395
 20
342.1063308473752
 30
0.0
 10
930.1171622335894
 20
342.0452202491743
 30
0.0
 10
929.7165358202465
 20
341.9793119845955
 30
0.0
 10
929.3179458327205
 20
341.9086110498869
 30
0.0
 10
928.9214171028752
 20
341.8331227452056
 30
0.0
 10
928.5269742674844
 20
341.7528526696263
 30
0.0
 10
928.134641765784
 20
341.6678067159802
 30
0.0
 10
927.7444438374307
 20
341.5779910655523
 30
0.0
 10
927.3564045208939
 20
341.4834121826728
 30
0.0
 10
926.970547652287
 20
341.3840768092372
 30
0.0
 10
926.5868968646566
 20
341.2799919591934
 30
0.0
 10
926.2054755877372
 20
341.1711649130365
 30
0.0
 10
925.8263070481743
 20
341.0576032123517
 30
0.0
 10
925.4494142702173
 20
340.9393146544465
 30
0.0
 10
925.0748200768758
 20
340.8163072871184
 30
0.0
 10
924.702547091534
 20
340.6885894035879
 30
0.0
 10
924.3326177399936
 20
340.5561695376857
 30
0.0
 10
923.965054253012
 20
340.4190564591627
 30
0.0
 10
923.5998786689572
 20
340.2772591698
 30
0.0
 10
923.237112837928
 20
340.1307868979889
 30
0.0
 10
922.8767784221359
 20
339.9796491006369
 30
0.0
 10
922.5188969118469
 20
339.8238554395267
 30
0.0
 10
922.1634895846964
 20
339.6634158549496
 30
0.0
 10
921.8105776775477
 20
339.4983402783967
 30
0.0
 10
921.4601817662601
 20
339.3286396943902
 30
0.0
 10
921.1123241021861
 20
339.154322169885
 30
0.0
 10
920.7670199153251
 20
338.9754076661534
 30
0.0
 10
920.4243098927192
 20
338.7918727594814
 30
0.0
 10
920.0841389951903
 20
338.6038569374927
 30
0.0
 10
919.746808729851
 20
338.4108927137185
 30
0.0
 10
919.4973767398772
 20
338.2650976556833
 30
0.0
 10
919.3612352495564
 20
338.1822001720564
 30
0.0
 10
919.3357544303237
 20
338.166684727131
 30
0.0
  0
LINE
  5
10B
330
1F
100
AcDbEntity
  8
0
  6
Continuous
 62
     7
370
    30
100
AcDbLine
 10
960.4237297045
 20
218.0369579457
 30
0.0
 11
959.6534672894
 21
217.5120873081
 31
0.0
  0
LINE
  5
10C
330
1F
100
AcDbEntity
  8
0
  6
Continuous
 62
     7
370
    30
100
AcDbLine
 10
964.4416701514
 20
209.809668339
 30
0.0
 11
965.0354841626
 21
210.1451263546
 31
0.0
  0
LINE
  5
10D
330
1F
100
AcDbEntity
  8
0
  6
Continuous
 62
     7
370
    30
100
AcDbLine
 10
942.7611494093
 20
228.2523414188
 30
0.0
 11
941.9757977597
 21
227.7171887058
 31
0.0
  0
LINE
  5
10E
330
1F
100
AcDbEntity
  8
0
  6
Continuous
 62
     7
370
    30
100
AcDbLine
 10
946.7640006217
 20
220.0147697368
 30
0.0
 11
947.3207957658
 21
220.3293150163
 31
0.0
  0
LINE
  5
10F
330
1F
100
AcDbEntity
  8
0
  6
Continuous
 62
     7
370
    30
100
AcDbLine
 10
757.0394908392
 20
97.6761566691
 30
0.0
 11
757.0401095792
 21
97.7521403992
 31
0.0
  0
LINE
  5
110
330
1F
100
AcDbEntity
  8
0
  6
Continuous
 62
     7
370
    30
100
AcDbLine
 10
729.0401095792
 20
97.7521403992
 30
0.0
 11
729.0408466915
 21
97.6692064343
 31
0.0
  0
LWPOLYLINE
  5
111
330
1F
100
AcDbEntity
  8
0
  6
Continuous
 62
     7
370
    30
100
AcDbPolyline
 90
        3
 70
   128
 43
0.0
 10
729.2901095792
 20
91.4647761476
 10
729.2901106558
 20
91.4616349694
 10
729.2927989776
 20
91.3077886757
  0
LINE
  5
112
330
1F
100
AcDbEntity
  8
0
  6
Continuous
 62
     7
370
    30
100
AcDbLine
 10
912.1765165926
 20
333.7251976447
 30
0.0
 11
912.3439815333
 21
333.8291483861
 31
0.0
  0
LINE
  5
113
330
1F
100
AcDbEntity
  8
0
  6
Continuous
 62
     7
370
    30
100
AcDbLine
 10
997.0674637338
 20
187.0600252947
 30
0.0
 11
996.9003323693
 21
186.9705411807
 31
0.0
  0
LINE
  5
114
330
1F
100
AcDbEntity
  8
0
  6
Continuous
 62
     7
370
    30
100
AcDbLine
 10
919.0062717732
 20
337.9657259705
 30
0.0
 11
919.3316927887
 21
338.1647477921
 31
0.0
  0
LINE
  5
115
330
1F
100
AcDbEntity
  8
0
  6
Continuous
 62
     7
370
    30
100
AcDbLine
 10
1004.3382138243
 20
190.955089603
 30
0.0
 11
1003.9847904357
 21
190.7626643368
 31
0.0
  0
SPLINE
  5
116
330
1F
100
AcDbEntity
  8
0
  6
Continuous
 62
     7
370
    30
100
AcDbSpline
210
0.0
220
0.0
230
1.0
 70
    11
 71
     3
 72
   119
 73
   115
 74
     0
 42
0.000000001
 43
0.00000001
 40
0.0
 40
0.0
 40
0.0
 40
0.0
 40
0.0083639775824242
 40
0.0167395377301843
 40
0.0251150955301737
 40
0.0334790699066587
 40
0.0422937618540101
 40
0.0511152307350043
 40
0.0599299207595766
 40
0.069000471637034
 40
0.0780784108439847
 40
0.0871489597479532
 40
0.0959627230007402
 40
0.10478326583212
 40
0.1135970276860299
 40
0.1226667327134178
 40
0.1317438284165404
 40
0.1408135324574339
 40
0.1496284646867608
 40
0.1584501820331941
 40
0.1672651140009191
 40
0.1763361603831594
 40
0.1854146021729609
 40
0.194485648988952
 40
0.2033033371839327
 40
0.2121278165064595
 40
0.2209455056943427
 40
0.2300194945487609
 40
0.2391008838577168
 40
0.2481748743783627
 40
0.2569956982742223
 40
0.2658233171414889
 40
0.2746441428512739
 40
0.2837213861643956
 40
0.2928060330783206
 40
0.3018832785606465
 40
0.3107062423903943
 40
0.3195360011769043
 40
0.3283589668456899
 40
0.337438348861252
 40
0.3465251343394156
 40
0.3556045180751685
 40
0.3644276871717778
 40
0.3732576473595607
 40
0.3820808175131982
 40
0.3911602841667496
 40
0.4002471509225841
 40
0.4093266180927783
 40
0.4181479685627293
 40
0.4269761041089606
 40
0.4357974543919954
 40
0.4448749154659897
 40
0.4539597715378964
 40
0.4630372317001767
 40
0.4718555379275099
 40
0.4806806237048515
 40
0.4894989285857614
 40
0.4985731741038378
 40
0.5076548100087915
 40
0.5167290535882311
 40
0.5255444238598834
 40
0.5343665710591455
 40
0.5431819394155112
 40
0.5522531681912896
 40
0.5613317852519005
 40
0.570403011911479
 40
0.5792168399041799
 40
0.588037446250759
 40
0.5968512725972492
 40
0.6059210041344235
 40
0.6149981252822474
 40
0.6240678554517268
 40
0.6328822105691003
 40
0.6417033488952258
 40
0.6505177033566253
 40
0.6595881133017824
 40
0.6686659170345906
 40
0.6777363269603038
 40
0.6865530489132627
 40
0.6953765602375148
 40
0.704193282814476
 40
0.7132662509943473
 40
0.7223466181637387
 40
0.7314195876831453
 40
0.7402394796362071
 40
0.7490661657276575
 40
0.7578860593134138
 40
0.7669623450380678
 40
0.7760460336964657
 40
0.7851223215338001
 40
0.7939447962477885
 40
0.8027740663744827
 40
0.8115965430138319
 40
0.820675450304217
 40
0.8297617614805751
 40
0.8388406707297373
 40
0.847664007703518
 40
0.8564941373117346
 40
0.8653174756581045
 40
0.8743971582545745
 40
0.8834842422801008
 40
0.8925639258217816
 40
0.9013864342096453
 40
0.9102157305676369
 40
0.9190382391743688
 40
0.9281169554967075
 40
0.9372030695516357
 40
0.9462817853924327
 40
0.9551043185980569
 40
0.9639336403109227
 40
0.9727561724868439
 40
0.9818349821438653
 40
0.9909211920405145
 40
0.9999999999999999
 40
0.9999999999999999
 40
0.9999999999999999
 40
0.9999999999999999
 10
964.4237250031304
 20
215.0773759055818
 30
0.0
 10
964.3803271710836
 20
215.1483965463867
 30
0.0
 10
964.2934714090021
 20
215.2905361784769
 30
0.0
 10
964.1553087616022
 20
215.4985619752396
 30
0.0
 10
964.0119162703174
 20
215.7020582793187
 30
0.0
 10
963.860466235688
 20
215.9035718511156
 30
0.0
 10
963.7011305906881
 20
216.1022708100453
 30
0.0
 10
963.5340770325851
 20
216.2972261827059
 30
0.0
 10
963.3609237148022
 20
216.4862160040931
 30
0.0
 10
963.1820178916056
 20
216.6683070249966
 30
0.0
 10
962.9978559007866
 20
216.8426827333912
 30
0.0
 10
962.8124904096634
 20
217.005505294119
 30
0.0
 10
962.6265943768913
 20
217.1564850631501
 30
0.0
 10
962.4408233894407
 20
217.2956027691516
 30
0.0
 10
962.2521468147844
 20
217.4251278129063
 30
0.0
 10
962.0611086483008
 20
217.5441813221666
 30
0.0
 10
961.868331173547
 20
217.6520832930599
 30
0.0
 10
961.6780437915402
 20
217.7464655679937
 30
0.0
 10
961.490848301263
 20
217.827320462484
 30
0.0
 10
961.3072534098325
 20
217.8949353902287
 30
0.0
 10
961.1242776922494
 20
217.9504076691598
 30
0.0
 10
960.9425989412086
 20
217.9930105358933
 30
0.0
 10
960.7628958365561
 20
218.0222777934075
 30
0.0
 10
960.5891028069138
 20
218.0375675037658
 30
0.0
 10
960.42168404653
 20
218.0391554076277
 30
0.0
 10
960.2609450259147
 20
218.0276040766926
 30
0.0
 10
960.104284445201
 20
218.0027255021264
 30
0.0
 10
959.95243743225
 20
217.96402740744
 30
0.0
 10
959.8060623709797
 20
217.9113103119813
 30
0.0
 10
959.6683634019323
 20
217.8457271049273
 30
0.0
 10
959.5396144472452
 20
217.7678080934762
 30
0.0
 10
959.4198827021621
 20
217.6783296820026
 30
0.0
 10
959.3072319171048
 20
217.5758436813819
 30
0.0
 10
959.2023713356326
 20
217.4601481814306
 30
0.0
 10
959.1058645388111
 20
217.3313330361786
 30
0.0
 10
959.0198276200797
 20
217.1922223507921
 30
0.0
 10
958.9443116247533
 20
217.043543002963
 30
0.0
 10
958.8791362529366
 20
216.8861990364911
 30
0.0
 10
958.8232449727554
 20
216.7176390551639
 30
0.0
 10
958.777240867668
 20
216.5379742378667
 30
0.0
 10
958.7415290572832
 20
216.3475734289236
 30
0.0
 10
958.7168944331149
 20
216.1506240692538
 30
0.0
 10
958.7031579184062
 20
215.9479673224163
 30
0.0
 10
958.6999109044004
 20
215.7405322638474
 30
0.0
 10
958.7071002089192
 20
215.5249413131193
 30
0.0
 10
958.7251547692904
 20
215.3016057810206
 30
0.0
 10
958.7542757222928
 20
215.0711315628233
 30
0.0
 10
958.7938199342387
 20
214.8386020958687
 30
0.0
 10
958.8433985404098
 20
214.6048758493717
 30
0.0
 10
958.902421126326
 20
214.370800121357
 30
0.0
 10
958.9718522653072
 20
214.1325469929961
 30
0.0
 10
959.0518987095351
 20
213.8907811288543
 30
0.0
 10
959.1425352163853
 20
213.6462770032097
 30
0.0
 10
959.2417588913966
 20
213.4044354692284
 30
0.0
 10
959.349016563379
 20
213.1660335806282
 30
0.0
 10
959.4636041763471
 20
212.9317398316614
 30
0.0
 10
959.5873997010023
 20
212.6977129082802
 30
0.0
 10
959.7203647263218
 20
212.4647958845287
 30
0.0
 10
959.8622506200401
 20
212.2338446801311
 30
0.0
 10
960.0099243605878
 20
212.0099581207758
 30
0.0
 10
960.1627324283015
 20
211.7937443286733
 30
0.0
 10
960.3199377621863
 20
211.5856180960015
 30
0.0
 10
960.4841162579468
 20
211.3821684256158
 30
0.0
 10
960.6549887038437
 20
211.1843221467319
 30
0.0
 10
960.832110982573
 20
210.9929204810201
 30
0.0
 10
961.0115814610476
 20
210.8121796528389
 30
0.0
 10
961.192720002499
 20
210.6424723197791
 30
0.0
 10
961.3748393786473
 20
210.4839148027163
 30
0.0
 10
961.5609146426176
 20
210.3339168926701
 30
0.0
 10
961.7504569637227
 20
210.1933851100067
 30
0.0
 10
961.9428765324114
 20
210.0630513317385
 30
0.0
 10
962.133947964619
 20
209.9457782956752
 30
0.0
 10
962.323039650912
 20
209.8416632437721
 30
0.0
 10
962.5095901401235
 20
209.7505125618062
 30
0.0
 10
962.6966331034752
 20
209.6708444975251
 30
0.0
 10
962.8835248556459
 20
209.6034431191106
 30
0.0
 10
963.0695962230852
 20
209.5488482972949
 30
0.0
 10
963.250771443521
 20
209.5082569954282
 30
0.0
 10
963.4265369601562
 20
209.481480238835
 30
0.0
 10
963.5965190276432
 20
209.4680360624636
 30
0.0
 10
963.7634708306306
 20
209.4677076873917
 30
0.0
 10
963.9266663286842
 20
209.4810679657447
 30
0.0
 10
964.0854325286964
 20
209.5084035432163
 30
0.0
 10
964.2362946190359
 20
209.5491173005983
 30
0.0
 10
964.3789147462957
 20
209.602753456069
 30
0.0
 10
964.5131490914636
 20
209.668594117556
 30
0.0
 10
964.6411681844645
 20
209.7477050944732
 30
0.0
 10
964.7622457588138
 20
209.8403829895
 30
0.0
 10
964.8757811519865
 20
209.9466286806468
 30
0.0
 10
964.9792865952924
 20
210.064114846076
 30
0.0
 10
965.0726394532591
 20
210.1921681086976
 30
0.0
 10
965.1559435101052
 20
210.3299138010093
 30
0.0
 10
965.2305477389243
 20
210.4795834789097
 30
0.0
 10
965.2958078892489
 20
210.6411639476136
 30
0.0
 10
965.3512635403192
 20
210.8143703326631
 30
0.0
 10
965.395696632236
 20
210.9953972037744
 30
0.0
 10
965.4292153307825
 20
211.1834291030707
 30
0.0
 10
965.4521607868553
 20
211.3775332257306
 30
0.0
 10
965.4649062418488
 20
211.5808656342565
 30
0.0
 10
965.4669622036783
 20
211.7931051579662
 30
0.0
 10
965.4580603284096
 20
212.0137136341473
 30
0.0
 10
965.438397277661
 20
212.2378324813032
 30
0.0
 10
965.4082996883966
 20
212.4645981147683
 30
0.0
 10
965.3683071745243
 20
212.6931267013271
 30
0.0
 10
965.3177675600831
 20
212.9271474109349
 30
0.0
 10
965.2564009268085
 20
213.1660676473605
 30
0.0
 10
965.1841612358138
 20
213.4091569238056
 30
0.0
 10
965.102635337243
 20
213.6510712017661
 30
0.0
 10
965.0123313112358
 20
213.8909999544375
 30
0.0
 10
964.9139101902716
 20
214.1282015281616
 30
0.0
 10
964.8058174505694
 20
214.3665657500352
 30
0.0
 10
964.6878300799073
 20
214.6051907978582
 30
0.0
 10
964.5608249961073
 20
214.8436287049164
 30
0.0
 10
964.4694125844527
 20
214.99948134113
 30
0.0
 10
964.4237250031304
 20
215.0773759055818
 30
0.0
  0
SPLINE
  5
117
330
1F
100
AcDbEntity
  8
0
  6
Continuous
 62
     7
370
    30
100
AcDbSpline
210
0.0
220
0.0
230
1.0
 70
    11
 71
     3
 72
   119
 73
   115
 74
     0
 42
0.000000001
 43
0.00000001
 40
0.0
 40
0.0
 40
0.0
 40
0.0
 40
0.0083601768975366
 40
0.0167319339147339
 40
0.0251036893084526
 40
0.0334638639890874
 40
0.0422782158848655
 40
0.0510993509751318
 40
0.0599137022121795
 40
0.0689841084862585
 40
0.0780619085355742
 40
0.0871323147866178
 40
0.0959490292117947
 40
0.1047725329920077
 40
0.1135892480378924
 40
0.1226622081826566
 40
0.1317425673031681
 40
0.1408155287841323
 40
0.1496354122867221
 40
0.1584620899174495
 40
0.1672819750504727
 40
0.1763582520105458
 40
0.1854419318960852
 40
0.1945182109674755
 40
0.2033406804168175
 40
0.2121699452802364
 40
0.2209924166549732
 40
0.2300713187310144
 40
0.2391576246947663
 40
0.248236528731065
 40
0.2570598662896525
 40
0.2658899964954
 40
0.2747133354290451
 40
0.2837930190106274
 40
0.2928801040324115
 40
0.3019597885629101
 40
0.3107818961101292
 40
0.3196107907040508
 40
0.3284328984738248
 40
0.3375111778153076
 40
0.3465968538175742
 40
0.3556751326817286
 40
0.3644944525109731
 40
0.3733205534120783
 40
0.3821398722163393
 40
0.3912151784556777
 40
0.4002978763416659
 40
0.4093731808887572
 40
0.4181893773486408
 40
0.4270123511449616
 40
0.4358285457829328
 40
0.4449006132135177
 40
0.4539800692352746
 40
0.4630521345008191
 40
0.4718662395766914
 40
0.4806871221235197
 40
0.4895012253779356
 40
0.4985712063532103
 40
0.5076485761577573
 40
0.5167185554427075
 40
0.5255325169549898
 40
0.5343532598859109
 40
0.5431672203744558
 40
0.5522371810047877
 40
0.561314533894281
 40
0.570384494049396
 40
0.5792003237358256
 40
0.5880229408793006
 40
0.596838770789946
 40
0.6059107873102942
 40
0.6149902012136871
 40
0.6240622186840442
 40
0.6328811107190906
 40
0.641706795694935
 40
0.650525689106499
 40
0.659600937923788
 40
0.6686835886960233
 40
0.6777588394740508
 40
0.6865806453445669
 40
0.6954092466740907
 40
0.7042310544705656
 40
0.7133092946043017
 40
0.722394938703378
 40
0.7314731809487742
 40
0.7402964735702923
 40
0.7491265600953498
 40
0.7579498543465396
 40
0.7670295321845266
 40
0.7761166125533825
 40
0.7851962917269348
 40
0.7940189923152219
 40
0.8028484818653759
 40
0.8116711830724809
 40
0.8207501149766705
 40
0.8298364451660807
 40
0.8389153770447945
 40
0.8477356677173635
 40
0.8565627411966497
 40
0.8653830312083433
 40
0.8744593620683634
 40
0.8835430860218032
 40
0.8926194155088462
 40
0.9014373862868794
 40
0.910262137164332
 40
0.919080106293086
 40
0.9281540492464957
 40
0.937235383699092
 40
0.946309324534214
 40
0.9551273228889712
 40
0.9639521061353908
 40
0.972770102572935
 40
0.9818442698560677
 40
0.9909258346547698
 40
1.0
 40
1.0
 40
1.0
 40
1.0
 10
946.5207956766933
 20
225.5774721725784
 30
0.0
 10
946.4750111824665
 20
225.6467238874643
 30
0.0
 10
946.3833787755076
 20
225.7853232414201
 30
0.0
 10
946.238863538007
 20
225.9870197265419
 30
0.0
 10
946.08973296135
 20
226.183468324419
 30
0.0
 10
945.9331249428781
 20
226.3770479434886
 30
0.0
 10
945.7692566681492
 20
226.5669090281808
 30
0.0
 10
945.5983488617272
 20
226.7521000037134
 30
0.0
 10
945.4221011560649
 20
226.9304562098755
 30
0.0
 10
945.2409056979947
 20
227.1010435587586
 30
0.0
 10
945.055287196598
 20
227.2630651824369
 30
0.0
 10
944.8693109334262
 20
227.4129712765998
 30
0.0
 10
944.6836309286377
 20
227.5505269268675
 30
0.0
 10
944.498866791452
 20
227.6757763536387
 30
0.0
 10
944.3120254830261
 20
227.7907476231214
 30
0.0
 10
944.1236811840067
 20
227.8945837066964
 30
0.0
 10
943.934468050583
 20
227.9866428713939
 30
0.0
 10
943.7485267885186
 20
228.0649095544815
 30
0.0
 10
943.5664258980316
 20
228.129436293236
 30
0.0
 10
943.3886259030977
 20
228.1805727816534
 30
0.0
 10
943.2122513347567
 20
228.219145142187
 30
0.0
 10
943.0379918612174
 20
228.2444687989856
 30
0.0
 10
942.8665198347097
 20
228.256130295769
 30
0.0
 10
942.7015922068421
 20
228.2538736600764
 30
0.0
 10
942.5436272115867
 20
228.2380353273388
 30
0.0
 10
942.3928734662342
 20
228.2092331508977
 30
0.0
 10
942.2468893702109
 20
228.1670001105536
 30
0.0
 10
942.1064019637886
 20
228.1109015796738
 30
0.0
 10
941.9720457295136
 20
228.0407990533895
 30
0.0
 10
941.8467721512876
 20
227.95823292901
 30
0.0
 10
941.7308002437496
 20
227.8637870730653
 30
0.0
 10
941.6241370354442
 20
227.7582788338491
 30
0.0
 10
941.5250480722862
 20
227.639992814069
 30
0.0
 10
941.4342155357435
 20
227.5087932033784
 30
0.0
 10
941.3521644413554
 20
227.3648317970851
 30
0.0
 10
941.2807022276305
 20
227.2112818437481
 30
0.0
 10
941.2198227785645
 20
227.0489080265557
 30
0.0
 10
941.1692898849349
 20
226.8786339704665
 30
0.0
 10
941.1282775685656
 20
226.6976790104137
 30
0.0
 10
941.0973463228763
 20
226.5062210063782
 30
0.0
 10
941.0768526995238
 20
226.3046845975942
 30
0.0
 10
941.0672483044029
 20
226.0975209520867
 30
0.0
 10
941.0683030883526
 20
225.8855870629322
 30
0.0
 10
941.0795649784394
 20
225.6698065777179
 30
0.0
 10
941.101217706955
 20
225.4466440540061
 30
0.0
 10
941.1336372356211
 20
225.2165706190254
 30
0.0
 10
941.1769717234102
 20
224.9802357845567
 30
0.0
 10
941.2302633552731
 20
224.7428596650928
 30
0.0
 10
941.293085838699
 20
224.5052933016448
 30
0.0
 10
941.3648238461859
 20
224.2683550494072
 30
0.0
 10
941.4466529211938
 20
224.028160368482
 30
0.0
 10
941.5387223938081
 20
223.7854206218937
 30
0.0
 10
941.6409554181198
 20
223.5409372056855
 30
0.0
 10
941.7510979101982
 20
223.30010026444
 30
0.0
 10
941.8685767474336
 20
223.0636594872006
 30
0.0
 10
941.9926837200245
 20
222.8322365397021
 30
0.0
 10
942.1254485342249
 20
222.602046249864
 30
0.0
 10
942.2667770101076
 20
222.3739604556617
 30
0.0
 10
942.4163757888734
 20
222.1488424365058
 30
0.0
 10
942.5709568019074
 20
221.931640777725
 30
0.0
 10
942.7298643956685
 20
221.7229215180398
 30
0.0
 10
942.8923767440824
 20
221.5230416455861
 30
0.0
 10
943.0611406420933
 20
221.3287461811046
 30
0.0
 10
943.2358286859275
 20
221.1409695276219
 30
0.0
 10
943.4159638040026
 20
220.9605396530544
 30
0.0
 10
943.5975981391665
 20
220.7914119286047
 30
0.0
 10
943.7800657384144
 20
220.6339067400685
 30
0.0
 10
943.962710924871
 20
220.4880775148426
 30
0.0
 10
944.1484955424743
 20
220.3515602517371
 30
0.0
 10
944.3368955660419
 20
220.2252465387162
 30
0.0
 10
944.527303878782
 20
220.1098354758672
 30
0.0
 10
944.7155534680317
 20
220.0078538284664
 30
0.0
 10
944.901041685388
 20
219.9193399075145
 30
0.0
 10
945.0832517907985
 20
219.8440369010634
 30
0.0
 10
945.2651311455452
 20
219.7807276552907
 30
0.0
 10
945.4460181870866
 20
219.7301600037259
 30
0.0
 10
945.6252443501382
 20
219.6928250045453
 30
0.0
 10
945.7988850369527
 20
219.6695408613559
 30
0.0
 10
945.966468973117
 20
219.6600573529411
 30
0.0
 10
946.1276770285967
 20
219.6638343182824
 30
0.0
 10
946.2851180927718
 20
219.6809335715299
 30
0.0
 10
946.4380679671245
 20
219.7118744678278
 30
0.0
 10
946.5858722902452
 20
219.7568844928788
 30
0.0
 10
946.7252870914479
 20
219.8149756919014
 30
0.0
 10
946.85602721545
 20
219.8856355577674
 30
0.0
 10
946.9780086975607
 20
219.9680999497045
 30
0.0
 10
947.0932122229789
 20
220.0637079411023
 30
0.0
 10
947.2009329342465
 20
220.1726918400256
 30
0.0
 10
947.3006045915453
 20
220.2949900912276
 30
0.0
 10
947.3900333091639
 20
220.4279093822969
 30
0.0
 10
947.4691537802306
 20
220.5707327620522
 30
0.0
 10
947.5381279236774
 20
220.7225587060473
 30
0.0
 10
947.5980812651148
 20
220.8858632515681
 30
0.0
 10
947.6484077881162
 20
221.06056586311
 30
0.0
 10
947.6886930885478
 20
221.2463232404089
 30
0.0
 10
947.718048901643
 20
221.4390345100341
 30
0.0
 10
947.736637192213
 20
221.6378611326127
 30
0.0
 10
947.7448472581077
 20
221.8418678375616
 30
0.0
 10
947.7428143150757
 20
222.0543945119891
 30
0.0
 10
947.7300992176241
 20
222.2750572883403
 30
0.0
 10
947.7064858419466
 20
222.5032700249864
 30
0.0
 10
947.6724955727414
 20
222.7339982701431
 30
0.0
 10
947.6284967118464
 20
222.966378980952
 30
0.0
 10
947.5750594782971
 20
223.1995504279377
 30
0.0
 10
947.5113096962561
 20
223.4373286368138
 30
0.0
 10
947.4370240956378
 20
223.6790695146021
 30
0.0
 10
947.352209255854
 20
223.9240099554351
 30
0.0
 10
947.2587274075431
 20
224.1667671132261
 30
0.0
 10
947.1571124654414
 20
224.4065521124852
 30
0.0
 10
947.0480379303309
 20
224.6426633312907
 30
0.0
 10
946.929771221255
 20
224.8789780624944
 30
0.0
 10
946.802164148595
 20
225.1145364586341
 30
0.0
 10
946.6660737609183
 20
225.3489642543186
 30
0.0
 10
946.5692085454764
 20
225.5013235647437
 30
0.0
 10
946.5207956766933
 20
225.5774721725784
 30
0.0
  0
LWPOLYLINE
  5
118
330
1F
100
AcDbEntity
  8
0
  6
Continuous
 62
     7
370
    30
100
AcDbPolyline
 90
       36
 70
   128
 43
0.0
 10
952.7830643453
 20
270.8478205993
 10
952.5220747883
 20
270.9945413687
 10
952.2612641005
 20
271.1332709934
 10
952.0008110285
 20
271.263914395
 10
951.7408940739
 20
271.3863820372
 10
951.4816913707
 20
271.5005899866
 10
951.2233805636
 20
271.6064599708
 10
950.9661386858
 20
271.7039194319
 10
950.7101420381
 20
271.792901576
 10
950.4555660678
 20
271.8733454191
 10
950.2025852486
 20
271.9451958292
 10
949.9513729608
 20
272.0084035635
 10
949.7021013729
 20
272.0629253025
 10
949.4549413231
 20
272.1087236799
 10
949.2100622026
 20
272.1457673076
 10
948.9676318392
 20
272.1740307979
 10
948.7278163828
 20
272.1934947803
 10
948.4907801907
 20
272.2041459153
 10
948.2566857157
 20
272.205976903
 10
948.0256933946
 20
272.1989864886
 10
947.7979615379
 20
272.183179463
 10
947.5736462216
 20
272.1585666594
 10
947.3529011804
 20
272.1251649464
 10
947.1358777017
 20
272.0829972157
 10
946.9227245226
 20
272.0320923671
 10
946.7135877277
 20
271.9724852881
 10
946.508610649
 20
271.9042168305
 10
946.3079337673
 20
271.8273337821
 10
946.1116946168
 20
271.7418888346
 10
945.9200276898
 20
271.6479405479
 10
945.7330643453
 20
271.5455533092
 10
945.5509327186
 20
271.4347972898
 10
945.3737576337
 20
271.3157483962
 10
945.2016605176
 20
271.1884882187
 10
945.0347593169
 20
271.053103975
 10
944.9454123772
 20
270.9753846343
  0
LWPOLYLINE
  5
119
330
1F
100
AcDbEntity
  8
0
  6
Continuous
 62
     7
370
    30
100
AcDbPolyline
 90
       96
 70
   128
 43
0.0
 10
958.9442746341
 20
246.7260164876
 10
959.0575180416
 20
246.7649734728
 10
959.2581949232
 20
246.8418565212
 10
959.4544340738
 20
246.9273014687
 10
959.6461010008
 20
247.0212497555
 10
959.8330643453
 20
247.1236369941
 10
960.0151959719
 20
247.2343930136
 10
960.1923710568
 20
247.3534419071
 10
960.364468173
 20
247.4807020847
 10
960.5313693736
 20
247.6160863284
 10
960.6929602731
 20
247.7595018527
 10
960.849130125
 20
247.9108503677
 10
960.9997718983
 20
248.0700281469
 10
961.1447823507
 20
248.2369260975
 10
961.2840620993
 20
248.4114298362
 10
961.4175156886
 20
248.5934197668
 10
961.5450516562
 20
248.7827711624
 10
961.6665825955
 20
248.9793542512
 10
961.7820252151
 20
249.1830343048
 10
961.8913003964
 20
249.3936717311
 10
961.9943332476
 20
249.6111221697
 10
962.0910531553
 20
249.8352365911
 10
962.1813938324
 20
250.0658613983
 10
962.265293364
 20
250.3028385326
 10
962.3426942494
 20
250.5460055818
 10
962.4135434419
 20
250.7951958913
 10
962.4777923852
 20
251.0502386784
 10
962.5353970461
 20
251.3109591497
 10
962.5863179454
 20
251.5771786203
 10
962.6305201843
 20
251.8487146367
 10
962.6679734688
 20
252.1253811017
 10
962.6986521304
 20
252.4069884019
 10
962.7225351435
 20
252.6933435377
 10
962.7396061397
 20
252.9842502556
 10
962.7498534195
 20
253.2795091827
 10
962.75326996
 20
253.5789179633
 10
962.7498534195
 20
253.8822713975
 10
962.7396061397
 20
254.1893615821
 10
962.7225351435
 20
254.4999780528
 10
962.6986521304
 20
254.8139079285
 10
962.6679734688
 20
255.1309360574
 10
962.6305201843
 20
255.4508451643
 10
962.5863179454
 20
255.7734159994
 10
962.5353970461
 20
256.0984274889
 10
962.4777923852
 20
256.425656886
 10
962.4135434419
 20
256.7548799241
 10
962.3426942494
 20
257.0858709701
 10
962.265293364
 20
257.4184031794
 10
962.1813938324
 20
257.7522486509
 10
962.0910531553
 20
258.0871785837
 10
961.9943332476
 20
258.4229634335
 10
961.8913003964
 20
258.7593730701
 10
961.7820252151
 20
259.0961769352
 10
961.6665825955
 20
259.4331442003
 10
961.5450516562
 20
259.7700439248
 10
961.4175156886
 20
260.1066452144
 10
961.2840620993
 20
260.4427173794
 10
961.1447823507
 20
260.7780300929
 10
960.9997718983
 20
261.1123535481
 10
960.849130125
 20
261.4454586166
 10
960.6929602731
 20
261.7771170046
 10
960.5313693736
 20
262.1071014102
 10
960.364468173
 20
262.4351856785
 10
960.1923710568
 20
262.7611449569
 10
960.0151959719
 20
263.0847558493
 10
959.8330643453
 20
263.4057965688
 10
959.6461010008
 20
263.7240470902
 10
959.4544340738
 20
264.0392893006
 10
959.2581949232
 20
264.3513071485
 10
959.0575180416
 20
264.6598867927
 10
958.8525409628
 20
264.9648167479
 10
958.6434041679
 20
265.2658880306
 10
958.4302509889
 20
265.5628943013
 10
958.2132275102
 20
265.855632007
 10
957.9924824689
 20
266.1439005197
 10
957.7681671526
 20
266.4275022746
 10
957.5404352959
 20
266.7062429053
 10
957.3094429748
 20
266.9799313768
 10
957.0753484999
 20
267.2483801168
 10
956.8383123078
 20
267.5114051439
 10
956.5984968513
 20
267.7688261939
 10
956.356066488
 20
268.0204668432
 10
956.1111873674
 20
268.2661546299
 10
955.8640273176
 20
268.5057211718
 10
955.6147557297
 20
268.7390022822
 10
955.3635434419
 20
268.9658380816
 10
955.1105626227
 20
269.1860731082
 10
954.8559866524
 20
269.3995564239
 10
954.5999900047
 20
269.6061417179
 10
954.3427481269
 20
269.805687407
 10
954.0844373198
 20
269.9980567325
 10
953.8252346166
 20
270.183117854
 10
953.565317662
 20
270.36074394
 10
953.3048645901
 20
270.5308132544
 10
953.0440539023
 20
270.6932092402
 10
952.7830643453
 20
270.8478205993
  0
LWPOLYLINE
  5
11A
330
1F
100
AcDbEntity
  8
0
  6
Continuous
 62
     7
370
    30
100
AcDbPolyline
 90
      176
 70
   128
 43
0.0
 10
961.9742117643
 20
217.3217823632
 10
962.089424213
 20
217.252978013
 10
962.2046468602
 20
217.1795834932
 10
962.3197311893
 20
217.1016934059
 10
962.434528862
 20
217.0194081477
 10
962.5488919096
 20
216.9328337804
 10
962.6626729235
 20
216.8420818942
 10
962.7757252454
 20
216.7472694641
 10
962.8879031561
 20
216.6485186989
 10
962.9990620637
 20
216.5459568835
 10
963.1090586896
 20
216.4397162153
 10
963.2177512533
 20
216.3299336335
 10
963.3249996553
 20
216.2167506426
 10
963.4306656574
 20
216.1003131303
 10
963.5346130612
 20
215.9807711788
 10
963.6367078833
 20
215.8582788722
 10
963.7368185284
 20
215.7329940973
 10
963.8348159585
 20
215.6050783401
 10
963.9305738597
 20
215.4746964781
 10
964.0239688046
 20
215.3420165672
 10
964.1148804113
 20
215.2072096258
 10
964.2031914993
 20
215.0704494134
 10
964.2887882396
 20
214.9319122076
 10
964.3715603022
 20
214.7917765762
 10
964.4514009977
 20
214.6502231476
 10
964.5282074153
 20
214.5074343772
 10
964.6018805551
 20
214.3635943132
 10
964.6723254559
 20
214.2188883585
 10
964.7394513176
 20
214.0735030324
 10
964.8031716182
 20
213.9276257295
 10
964.8634042251
 20
213.7814444789
 10
964.9200715014
 20
213.6351477012
 10
964.9731004057
 20
213.4889239661
 10
965.0224225861
 20
213.3429617491
 10
965.0679744688
 20
213.1974491886
 10
965.1096973396
 20
213.0525738434
 10
965.1475374195
 20
212.9085224508
 10
965.1814459346
 20
212.7654806865
 10
965.2113791783
 20
212.6236329245
 10
965.2372985682
 20
212.4831619997
 10
965.2591706953
 20
212.3442489726
 10
965.2769673675
 20
212.2070728956
 10
965.2906656459
 20
212.071810582
 10
965.3002478738
 20
211.9386363786
 10
965.3057017003
 20
211.8077219408
 10
965.3070200957
 20
211.6792360109
 10
965.3042013605
 20
211.5533442012
 10
965.2972491282
 20
211.4302087805
 10
965.2861723596
 20
211.3099884643
 10
965.2709853323
 20
211.192838211
 10
965.2517076216
 20
211.0789090218
 10
965.2283640756
 20
210.9683477459
 10
965.2009847829
 20
210.8612968917
 10
965.1696050343
 20
210.7578944426
 10
965.1342652767
 20
210.6582736795
 10
965.0950110615
 20
210.5625630088
 10
965.0518929853
 20
210.4708857971
 10
965.0049666254
 20
210.383360212
 10
964.9542924677
 20
210.3000990697
 10
964.8999358288
 20
210.2212096901
 10
964.8419667717
 20
210.1467937577
 10
964.7804600158
 20
210.0769471911
 10
964.7154948406
 20
210.0117600194
 10
964.6471549829
 20
209.9513162656
 10
964.5755285296
 20
209.895693839
 10
964.5007078039
 20
209.8449644341
 10
964.4227892461
 20
209.7991934389
 10
964.3418732896
 20
209.7584398499
 10
964.2580642312
 20
209.7227561966
 10
964.1714700968
 20
209.6921884735
 10
964.0822025022
 20
209.666776081
 10
963.990376509
 20
209.6465517745
 10
963.8961104767
 20
209.6315416221
 10
963.7995259096
 20
209.6217649713
 10
963.7007473008
 20
209.6172344236
 10
963.5999019712
 20
209.6179558187
 10
963.4971199056
 20
209.6239282267
 10
963.3925335853
 20
209.6351439496
 10
963.2862778171
 20
209.6515885308
 10
963.1784895597
 20
209.673240774
 10
963.0693077469
 20
209.7000727704
 10
962.9588731091
 20
209.7320499349
 10
962.8473279912
 20
209.7691310505
 10
962.7348161697
 20
209.8112683214
 10
962.6214826668
 20
209.8584074345
 10
962.5074735643
 20
209.9104876299
 10
962.3929358143
 20
209.9674417785
 10
962.2780170507
 20
210.0291964692
 10
962.1628653983
 20
210.0956721032
 10
962.0476292822
 20
210.1667829964
 10
961.9324572362
 20
210.2424374903
 10
961.8174977116
 20
210.3225380699
 10
961.7028988859
 20
210.4069814892
 10
961.5888084715
 20
210.4956589047
 10
961.4753735256
 20
210.5884560154
 10
961.3627402605
 20
210.6852532102
 10
961.251053855
 20
210.7859257221
 10
961.1404582678
 20
210.890343789
 10
961.0310960512
 20
210.9983728209
 10
960.9231081681
 20
211.1098735736
 10
960.8166338096
 20
211.2247023278
 10
960.7118102162
 20
211.3427110747
 10
960.6087725006
 20
211.4637477066
 10
960.5076534735
 20
211.587656213
 10
960.4085834725
 20
211.7142768817
 10
960.3116901942
 20
211.8434465047
 10
960.2170985294
 20
211.9749985884
 10
960.1249304024
 20
212.1087635684
 10
960.0353046134
 20
212.2445690279
 10
959.948336686
 20
212.3822399202
 10
959.8641387175
 20
212.5215987939
 10
959.7828192353
 20
212.6624660222
 10
959.7044830563
 20
212.8046600337
 10
959.6292311521
 20
212.9479975472
 10
959.5571605189
 20
213.0922938073
 10
959.4883640523
 20
213.2373628229
 10
959.4229304277
 20
213.3830176071
 10
959.360943986
 20
213.5290704177
 10
959.3024846247
 20
213.6753329994
 10
959.2476276952
 20
213.8216168268
 10
959.1964439055
 20
213.9677333469
 10
959.148999229
 20
214.1134942224
 10
959.1053548198
 20
214.2587115745
 10
959.0655669334
 20
214.4031982248
 10
959.0296868544
 20
214.5467679369
 10
958.9977608307
 20
214.6892356562
 10
958.9698300134
 20
214.8304177486
 10
958.9459304039
 20
214.970132237
 10
958.9260928077
 20
215.108199036
 10
958.9103427946
 20
215.2444401842
 10
958.8987006656
 20
215.378680073
 10
958.8911814268
 20
215.5107456736
 10
958.8877947701
 20
215.6404667597
 10
958.8885450609
 20
215.767676127
 10
958.893431332
 20
215.8922098086
 10
958.9024472852
 20
216.0139072864
 10
958.9155812995
 20
216.1326116982
 10
958.9328164456
 20
216.2481700396
 10
958.9541305084
 20
216.3604333614
 10
958.9794960149
 20
216.4692569614
 10
959.0088802702
 20
216.5745005712
 10
959.0422453995
 20
216.6760285367
 10
959.0795483967
 20
216.7737099932
 10
959.1207411799
 20
216.8674190339
 10
959.1657706536
 20
216.9570348723
 10
959.2145787769
 20
217.0424419978
 10
959.2671026385
 20
217.1235303247
 10
959.3232745376
 20
217.2001953339
 10
959.3830220714
 20
217.2723382079
 10
959.4462682279
 20
217.339865958
 10
959.512931486
 20
217.4026915439
 10
959.5829259198
 20
217.4607339866
 10
959.6561613098
 20
217.5139184721
 10
959.7325432592
 20
217.5621764481
 10
959.811973315
 20
217.6054457123
 10
959.8943490959
 20
217.6436704926
 10
959.9795644232
 20
217.6768015193
 10
960.0675094585
 20
217.7047960879
 10
960.1580708447
 20
217.7276181148
 10
960.2511318526
 20
217.7452381834
 10
960.3465725308
 20
217.7576335823
 10
960.4442698609
 20
217.7647883344
 10
960.5440979156
 20
217.7666932177
 10
960.6459280213
 20
217.7633457767
 10
960.7496289238
 20
217.7547503262
 10
960.8550669575
 20
217.7409179454
 10
960.9621062178
 20
217.7218664634
 10
961.0706087361
 20
217.6976204368
 10
961.1804346579
 20
217.6682111175
 10
961.2914424227
 20
217.6336764128
 10
961.4034889467
 20
217.5940608362
 10
961.5164298073
 20
217.5494154504
 10
961.630119429
 20
217.4997978012
 10
961.7444112713
 20
217.4452718433
 10
961.8591580175
 20
217.3859078582
 10
961.9742117643
 20
217.3217823632
  0
LWPOLYLINE
  5
11B
330
1F
100
AcDbEntity
  8
0
  6
Continuous
 62
     7
370
    30
100
AcDbPolyline
 90
      176
 70
   128
 43
0.0
 10
944.2965422347
 20
227.5268837609
 10
944.4117546834
 20
227.4580794108
 10
944.5269773305
 20
227.384684891
 10
944.6420616596
 20
227.3067948037
 10
944.7568593323
 20
227.2245095454
 10
944.8712223799
 20
227.1379351781
 10
944.9850033938
 20
227.047183292
 10
945.0980557157
 20
226.9523708619
 10
945.2102336264
 20
226.8536200967
 10
945.3213925341
 20
226.7510582813
 10
945.4313891599
 20
226.6448176131
 10
945.5400817237
 20
226.5350350313
 10
945.6473301256
 20
226.4218520404
 10
945.7529961277
 20
226.305414528
 10
945.8569435315
 20
226.1858725766
 10
945.9590383536
 20
226.06338027
 10
946.0591489987
 20
225.938095495
 10
946.1571464289
 20
225.8101797379
 10
946.2529043301
 20
225.6797978758
 10
946.3462992749
 20
225.547117965
 10
946.4372108817
 20
225.4123110236
 10
946.5255219696
 20
225.2755508112
 10
946.61111871
 20
225.1370136054
 10
946.6938907725
 20
224.996877974
 10
946.773731468
 20
224.8553245454
 10
946.8505378856
 20
224.712535775
 10
946.9242110254
 20
224.568695711
 10
946.9946559262
 20
224.4239897563
 10
947.061781788
 20
224.2786044302
 10
947.1255020885
 20
224.1327271273
 10
947.1857346954
 20
223.9865458767
 10
947.2424019717
 20
223.840249099
 10
947.295430876
 20
223.6940253639
 10
947.3447530565
 20
223.5480631469
 10
947.3903049392
 20
223.4025505864
 10
947.4320278099
 20
223.2576752411
 10
947.4698678898
 20
223.1136238486
 10
947.5037764049
 20
222.9705820843
 10
947.5337096486
 20
222.8287343222
 10
947.5596290385
 20
222.6882633975
 10
947.5815011656
 20
222.5493503704
 10
947.5992978379
 20
222.4121742934
 10
947.6129961162
 20
222.2769119798
 10
947.6225783441
 20
222.1437377764
 10
947.6280321706
 20
222.0128233385
 10
947.629350566
 20
221.8843374086
 10
947.6265318309
 20
221.758445599
 10
947.6195795985
 20
221.6353101782
 10
947.6085028299
 20
221.5150898621
 10
947.5933158026
 20
221.3979396088
 10
947.5740380919
 20
221.2840104196
 10
947.5506945459
 20
221.1734491437
 10
947.5233152533
 20
221.0663982895
 10
947.4919355047
 20
220.9629958404
 10
947.4565957471
 20
220.8633750773
 10
947.4173415318
 20
220.7676644066
 10
947.3742234556
 20
220.6759871949
 10
947.3272970958
 20
220.5884616098
 10
947.2766229381
 20
220.5052004675
 10
947.2222662991
 20
220.4263110879
 10
947.164297242
 20
220.3518951555
 10
947.1027904862
 20
220.2820485889
 10
947.0378253109
 20
220.2168614172
 10
946.9694854532
 20
220.1564176634
 10
946.8978589999
 20
220.1007952368
 10
946.8230382742
 20
220.0500658319
 10
946.7451197165
 20
220.0042948367
 10
946.6642037599
 20
219.9635412477
 10
946.5803947015
 20
219.9278575944
 10
946.4938005671
 20
219.8972898713
 10
946.4045329725
 20
219.8718774788
 10
946.3127069793
 20
219.8516531723
 10
946.218440947
 20
219.8366430199
 10
946.12185638
 20
219.8268663691
 10
946.0230777712
 20
219.8223358213
 10
945.9222324415
 20
219.8230572164
 10
945.819450376
 20
219.8290296245
 10
945.7148640557
 20
219.8402453474
 10
945.6086082875
 20
219.8566899286
 10
945.50082003
 20
219.8783421717
 10
945.3916382173
 20
219.9051741682
 10
945.2812035794
 20
219.9371513327
 10
945.1696584616
 20
219.9742324483
 10
945.05714664
 20
220.0163697192
 10
944.9438131372
 20
220.0635088323
 10
944.8298040346
 20
220.1155890277
 10
944.7152662847
 20
220.1725431763
 10
944.6003475211
 20
220.234297867
 10
944.4851958687
 20
220.300773501
 10
944.3699597525
 20
220.3718843942
 10
944.2547877065
 20
220.4475388881
 10
944.1398281819
 20
220.5276394677
 10
944.0252293562
 20
220.612082887
 10
943.9111389419
 20
220.7007603025
 10
943.797703996
 20
220.7935574132
 10
943.6850707308
 20
220.890354608
 10
943.5733843254
 20
220.9910271199
 10
943.4627887381
 20
221.0954451868
 10
943.3534265215
 20
221.2034742187
 10
943.2454386384
 20
221.3149749714
 10
943.1389642799
 20
221.4298037256
 10
943.0341406866
 20
221.5478124725
 10
942.9311029709
 20
221.6688491044
 10
942.8299839438
 20
221.7927576108
 10
942.7309139428
 20
221.9193782795
 10
942.6340206645
 20
222.0485479025
 10
942.5394289998
 20
222.1800999862
 10
942.4472608727
 20
222.3138649661
 10
942.3576350838
 20
222.4496704257
 10
942.2706671563
 20
222.587341318
 10
942.1864691879
 20
222.7267001917
 10
942.1051497057
 20
222.86756742
 10
942.0268135266
 20
223.0097614315
 10
941.9515616225
 20
223.1530989449
 10
941.8794909892
 20
223.297395205
 10
941.8106945226
 20
223.4424642207
 10
941.7452608981
 20
223.5881190049
 10
941.6832744563
 20
223.7341718155
 10
941.624815095
 20
223.8804343972
 10
941.5699581655
 20
224.0267182246
 10
941.5187743758
 20
224.1728347447
 10
941.4713296994
 20
224.3185956202
 10
941.4276852901
 20
224.4638129723
 10
941.3878974037
 20
224.6082996226
 10
941.3520173248
 20
224.7518693347
 10
941.3200913011
 20
224.894337054
 10
941.2921604837
 20
225.0355191463
 10
941.2682608742
 20
225.1752336347
 10
941.2484232781
 20
225.3133004338
 10
941.232673265
 20
225.4495415819
 10
941.2210311359
 20
225.5837814707
 10
941.2135118971
 20
225.7158470714
 10
941.2101252405
 20
225.8455681575
 10
941.2108755312
 20
225.9727775248
 10
941.2157618023
 20
226.0973112063
 10
941.2247777556
 20
226.2190086842
 10
941.2379117698
 20
226.337713096
 10
941.255146916
 20
226.4532714374
 10
941.2764609787
 20
226.5655347591
 10
941.3018264852
 20
226.6743583592
 10
941.3312107406
 20
226.7796019689
 10
941.3645758699
 20
226.8811299345
 10
941.401878867
 20
226.978811391
 10
941.4430716502
 20
227.0725204317
 10
941.4881011239
 20
227.1621362701
 10
941.5369092472
 20
227.2475433956
 10
941.5894331089
 20
227.3286317225
 10
941.645605008
 20
227.4052967317
 10
941.7053525417
 20
227.4774396057
 10
941.7685986982
 20
227.5449673557
 10
941.8352619563
 20
227.6077929417
 10
941.9052563901
 20
227.6658353844
 10
941.9784917802
 20
227.7190198699
 10
942.0548737295
 20
227.7672778458
 10
942.1343037854
 20
227.81054711
 10
942.2166795662
 20
227.8487718904
 10
942.3018948935
 20
227.8819029171
 10
942.3898399288
 20
227.9098974857
 10
942.4804013151
 20
227.9327195125
 10
942.5734623229
 20
227.9503395811
 10
942.6689030012
 20
227.9627349801
 10
942.7666003313
 20
227.9698897322
 10
942.866428386
 20
227.9717946155
 10
942.9682584917
 20
227.9684471745
 10
943.0719593941
 20
227.959851724
 10
943.1773974278
 20
227.9460193431
 10
943.2844366881
 20
227.9269678612
 10
943.3929392065
 20
227.9027218346
 10
943.5027651282
 20
227.8733125153
 10
943.613772893
 20
227.8387778106
 10
943.725819417
 20
227.799162234
 10
943.8387602776
 20
227.7545168482
 10
943.9524498993
 20
227.704899199
 10
944.0667417417
 20
227.6503732411
 10
944.1814884878
 20
227.591009256
 10
944.2965422347
 20
227.5268837609
  0
ENDSEC
  0
SECTION
  2
OBJECTS
  0
DICTIONARY
  5
C
330
0
100
AcDbDictionary
281
     1
  3
ACAD_GROUP
350
D
  3
ACAD_LAYOUT
350
1A
  3
ACAD_MLINESTYLE
350
17
  3
ACAD_PLOTSETTINGS
350
19
  3
ACAD_PLOTSTYLENAME
350
E
  3
ACAD_SCALELIST
350
47
  0
DICTIONARY
  5
D
102
{ACAD_REACTORS
330
C
102
}
330
C
100
AcDbDictionary
281
     1
  0
DICTIONARY
  5
1A
102
{ACAD_REACTORS
330
C
102
}
330
C
100
AcDbDictionary
281
     1
  3
Layout1
350
1E
  3
Layout2
350
26
  3
Model
350
22
  0
DICTIONARY
  5
17
102
{ACAD_REACTORS
330
C
102
}
330
C
100
AcDbDictionary
281
     1
  3
Standard
350
18
  0
DICTIONARY
  5
19
102
{ACAD_REACTORS
330
C
102
}
330
C
100
AcDbDictionary
281
     1
  0
ACDBDICTIONARYWDFLT
  5
E
102
{ACAD_REACTORS
330
C
102
}
330
C
100
AcDbDictionary
281
     1
  3
Normal
350
F
100
AcDbDictionaryWithDefault
340
F
  0
DICTIONARY
  5
47
102
{ACAD_REACTORS
330
C
102
}
330
C
100
AcDbDictionary
281
     1
  3
A0
350
48
  3
A1
350
49
  3
A2
350
4A
  3
A3
350
4B
  3
A4
350
4C
  3
A5
350
4D
  3
A6
350
4E
  3
A7
350
4F
  3
A8
350
50
  3
A9
350
51
  3
B0
350
52
  3
B1
350
53
  3
B2
350
54
  3
B3
350
55
  3
B4
350
56
  3
B5
350
57
  3
B6
350
58
  3
B7
350
59
  3
B8
350
5A
  3
B9
350
5B
  3
C0
350
5C
  3
C1
350
5D
  3
C2
350
5E
  3
C3
350
5F
  3
C4
350
60
  3
C5
350
61
  3
C6
350
62
  3
C7
350
63
  3
C8
350
64
  3
C9
350
65
  3
D0
350
66
  3
D1
350
67
  3
D2
350
68
  0
LAYOUT
  5
1E
102
{ACAD_REACTORS
330
1A
102
}
330
1A
100
AcDbPlotSettings
  1

  2
none_device
  4

  6

 40
0.0
 41
0.0
 42
0.0
 43
0.0
 44
0.0
 45
0.0
 46
0.0
 47
0.0
 48
0.0
 49
0.0
140
0.0
141
0.0
142
1.0
143
1.0
 70
   688
 72
     1
 73
     0
 74
     5
  7

 75
    16
147
1.0
148
0.0
149
0.0
100
AcDbLayout
  1
Layout1
 70
     1
 71
     1
 10
0.0
 20
0.0
 11
420.0
 21
297.0
 12
0.0
 22
0.0
 32
0.0
 14
1.0000000000E+20
 24
1.0000000000E+20
 34
1.0000000000E+20
 15
-1.0000000000E+20
 25
-1.0000000000E+20
 35
-1.0000000000E+20
146
0.0
 13
0.0
 23
0.0
 33
0.0
 16
1.0
 26
0.0
 36
0.0
 17
0.0
 27
1.0
 37
0.0
 76
     0
330
1B
  0
LAYOUT
  5
26
102
{ACAD_REACTORS
330
1A
102
}
330
1A
100
AcDbPlotSettings
  1

  2
none_device
  4

  6

 40
0.0
 41
0.0
 42
0.0
 43
0.0
 44
0.0
 45
0.0
 46
0.0
 47
0.0
 48
0.0
 49
0.0
140
0.0
141
0.0
142
1.0
143
1.0
 70
   688
 72
     1
 73
     0
 74
     5
  7

 75
    16
147
1.0
148
0.0
149
0.0
100
AcDbLayout
  1
Layout2
 70
     1
 71
     2
 10
0.0
 20
0.0
 11
0.0
 21
0.0
 12
0.0
 22
0.0
 32
0.0
 14
0.0
 24
0.0
 34
0.0
 15
0.0
 25
0.0
 35
0.0
146
0.0
 13
0.0
 23
0.0
 33
0.0
 16
1.0
 26
0.0
 36
0.0
 17
0.0
 27
1.0
 37
0.0
 76
     0
330
23
  0
LAYOUT
  5
22
102
{ACAD_REACTORS
330
1A
102
}
330
1A
100
AcDbPlotSettings
  1

  2
none_device
  4
Letter_(8.50_x_11.00_Inches)
  6

 40
6.35
 41
6.35
 42
6.35000508
 43
6.35000508
 44
215.9
 45
279.4
 46
0.0
 47
0.0
 48
0.0
 49
0.0
140
0.0
141
0.0
142
1.0
143
1.0
 70
  1712
 72
     1
 73
     0
 74
     0
  7

 75
     0
147
1.0
148
0.0
149
0.0
100
AcDbLayout
  1
Model
 70
     1
 71
     0
 10
0.0
 20
0.0
 11
1050.0
 21
605.0
 12
0.0
 22
0.0
 32
0.0
 14
0.0
 24
0.0
 34
0.0
 15
1050.0
 25
605.0
 35
0.0
146
0.0
 13
0.0
 23
0.0
 33
0.0
 16
1.0
 26
0.0
 36
0.0
 17
0.0
 27
1.0
 37
0.0
 76
     0
330
1F
331
29
  0
MLINESTYLE
  5
18
102
{ACAD_REACTORS
330
17
102
}
330
17
100
AcDbMlineStyle
  2
Standard
 70
     0
  3

 62
   256
 51
90.0
 52
90.0
 71
     2
 49
0.5
 62
   256
  6
BYLAYER
 49
-0.5
 62
   256
  6
BYLAYER
  0
ACDBPLACEHOLDER
  5
F
102
{ACAD_REACTORS
330
E
102
}
330
E
  0
SCALE
  5
48
102
{ACAD_REACTORS
330
47
102
}
330
47
100
AcDbScale
 70
     0
300
1:1
140
1.0
141
1.0
290
     1
  0
SCALE
  5
49
102
{ACAD_REACTORS
330
47
102
}
330
47
100
AcDbScale
 70
     0
300
1:2
140
1.0
141
2.0
290
     0
  0
SCALE
  5
4A
102
{ACAD_REACTORS
330
47
102
}
330
47
100
AcDbScale
 70
     0
300
1:4
140
1.0
141
4.0
290
     0
  0
SCALE
  5
4B
102
{ACAD_REACTORS
330
47
102
}
330
47
100
AcDbScale
 70
     0
300
1:5
140
1.0
141
5.0
290
     0
  0
SCALE
  5
4C
102
{ACAD_REACTORS
330
47
102
}
330
47
100
AcDbScale
 70
     0
300
1:8
140
1.0
141
8.0
290
     0
  0
SCALE
  5
4D
102
{ACAD_REACTORS
330
47
102
}
330
47
100
AcDbScale
 70
     0
300
1:10
140
1.0
141
10.0
290
     0
  0
SCALE
  5
4E
102
{ACAD_REACTORS
330
47
102
}
330
47
100
AcDbScale
 70
     0
300
1:16
140
1.0
141
16.0
290
     0
  0
SCALE
  5
4F
102
{ACAD_REACTORS
330
47
102
}
330
47
100
AcDbScale
 70
     0
300
1:20
140
1.0
141
20.0
290
     0
  0
SCALE
  5
50
102
{ACAD_REACTORS
330
47
102
}
330
47
100
AcDbScale
 70
     0
300
1:30
140
1.0
141
30.0
290
     0
  0
SCALE
  5
51
102
{ACAD_REACTORS
330
47
102
}
330
47
100
AcDbScale
 70
     0
300
1:40
140
1.0
141
40.0
290
     0
  0
SCALE
  5
52
102
{ACAD_REACTORS
330
47
102
}
330
47
100
AcDbScale
 70
     0
300
1:50
140
1.0
141
50.0
290
     0
  0
SCALE
  5
53
102
{ACAD_REACTORS
330
47
102
}
330
47
100
AcDbScale
 70
     0
300
1:100
140
1.0
141
100.0
290
     0
  0
SCALE
  5
54
102
{ACAD_REACTORS
330
47
102
}
330
47
100
AcDbScale
 70
     0
300
2:1
140
2.0
141
1.0
290
     0
  0
SCALE
  5
55
102
{ACAD_REACTORS
330
47
102
}
330
47
100
AcDbScale
 70
     0
300
4:1
140
4.0
141
1.0
290
     0
  0
SCALE
  5
56
102
{ACAD_REACTORS
330
47
102
}
330
47
100
AcDbScale
 70
     0
300
8:1
140
8.0
141
1.0
290
     0
  0
SCALE
  5
57
102
{ACAD_REACTORS
330
47
102
}
330
47
100
AcDbScale
 70
     0
300
10:1
140
10.0
141
1.0
290
     0
  0
SCALE
  5
58
102
{ACAD_REACTORS
330
47
102
}
330
47
100
AcDbScale
 70
     0
300
100:1
140
100.0
141
1.0
290
     0
  0
SCALE
  5
59
102
{ACAD_REACTORS
330
47
102
}
330
47
100
AcDbScale
 70
     0
300
1/128" = 1'-0"
140
0.0078125
141
12.0
290
     0
  0
SCALE
  5
5A
102
{ACAD_REACTORS
330
47
102
}
330
47
100
AcDbScale
 70
     0
300
1/64" = 1'-0"
140
0.015625
141
12.0
290
     0
  0
SCALE
  5
5B
102
{ACAD_REACTORS
330
47
102
}
330
47
100
AcDbScale
 70
     0
300
1/32" = 1'-0"
140
0.03125
141
12.0
290
     0
  0
SCALE
  5
5C
102
{ACAD_REACTORS
330
47
102
}
330
47
100
AcDbScale
 70
     0
300
1/16" = 1'-0"
140
0.0625
141
12.0
290
     0
  0
SCALE
  5
5D
102
{ACAD_REACTORS
330
47
102
}
330
47
100
AcDbScale
 70
     0
300
3/32" = 1'-0"
140
0.09375
141
12.0
290
     0
  0
SCALE
  5
5E
102
{ACAD_REACTORS
330
47
102
}
330
47
100
AcDbScale
 70
     0
300
1/8" = 1'-0"
140
0.125
141
12.0
290
     0
  0
SCALE
  5
5F
102
{ACAD_REACTORS
330
47
102
}
330
47
100
AcDbScale
 70
     0
300
3/16" = 1'-0"
140
0.1875
141
12.0
290
     0
  0
SCALE
  5
60
102
{ACAD_REACTORS
330
47
102
}
330
47
100
AcDbScale
 70
     0
300
1/4" = 1'-0"
140
0.25
141
12.0
290
     0
  0
SCALE
  5
61
102
{ACAD_REACTORS
330
47
102
}
330
47
100
AcDbScale
 70
     0
300
3/8" = 1'-0"
140
0.375
141
12.0
290
     0
  0
SCALE
  5
62
102
{ACAD_REACTORS
330
47
102
}
330
47
100
AcDbScale
 70
     0
300
1/2" = 1'-0"
140
0.5
141
12.0
290
     0
  0
SCALE
  5
63
102
{ACAD_REACTORS
330
47
102
}
330
47
100
AcDbScale
 70
     0
300
3/4" = 1'-0"
140
0.75
141
12.0
290
     0
  0
SCALE
  5
64
102
{ACAD_REACTORS
330
47
102
}
330
47
100
AcDbScale
 70
     0
300
1" = 1'-0"
140
1.0
141
12.0
290
     0
  0
SCALE
  5
65
102
{ACAD_REACTORS
330
47
102
}
330
47
100
AcDbScale
 70
     0
300
1-1/2" = 1'-0"
140
1.5
141
12.0
290
     0
  0
SCALE
  5
66
102
{ACAD_REACTORS
330
47
102
}
330
47
100
AcDbScale
 70
     0
300
3" = 1'-0"
140
3.0
141
12.0
290
     0
  0
SCALE
  5
67
102
{ACAD_REACTORS
330
47
102
}
330
47
100
AcDbScale
 70
     0
300
6" = 1'-0"
140
6.0
141
12.0
290
     0
  0
SCALE
  5
68
102
{ACAD_REACTORS
330
47
102
}
330
47
100
AcDbScale
 70
     0
300
1'-0" = 1'-0"
140
12.0
141
12.0
290
     0
  0
ENDSEC
  0
EOF
