  0
SECTION
  2
HEADER
  9
$ACADVER
  1
AC1015
  9
$ACADMAINTVER
 70
     6
  9
$DWGCODEPAGE
  3
ANSI_1252
  9
$INSBASE
 10
0.0
 20
0.0
 30
0.0
  9
$EXTMIN
 10
0.0
 20
0.0
 30
0.0
  9
$EXTMAX
 10
920.0
 20
579.0
 30
0.0
  9
$LIMMIN
 10
0.0
 20
0.0
  9
$LIMMAX
 10
920.0
 20
579.0
  9
$ORTHOMODE
 70
     0
  9
$REGENMODE
 70
     1
  9
$FILLMODE
 70
     1
  9
$QTEXTMODE
 70
     0
  9
$MIRRTEXT
 70
     1
  9
$LTSCALE
 40
1.0
  9
$ATTMODE
 70
     1
  9
$TEXTSIZE
 40
3.5
  9
$TRACEWID
 40
1.0
  9
$TEXTSTYLE
  7
Standard
  9
$CLAYER
  8
0
  9
$CELTYPE
  6
ByLayer
  9
$CECOLOR
 62
   256
  9
$CELTSCALE
 40
1.0
  9
$DISPSILH
 70
     0
  9
$DIMSCALE
 40
1.0
  9
$DIMASZ
 40
3.302
  9
$DIMEXO
 40
1.0
  9
$DIMDLI
 40
3.75
  9
$DIMRND
 40
0.0
  9
$DIMDLE
 40
0.0
  9
$DIMEXE
 40
1.0
  9
$DIMTP
 40
0.0
  9
$DIMTM
 40
0.0
  9
$DIMTXT
 40
2.8
  9
$DIMCEN
 40
2.5
  9
$DIMTSZ
 40
0.0
  9
$DIMTOL
 70
     0
  9
$DIMLIM
 70
     0
  9
$DIMTIH
 70
     1
  9
$DIMTOH
 70
     1
  9
$DIMSE1
 70
     0
  9
$DIMSE2
 70
     0
  9
$DIMTAD
 70
     1
  9
$DIMZIN
 70
     0
  9
$DIMBLK
  1

  9
$DIMASO
 70
     1
  9
$DIMSHO
 70
     1
  9
$DIMPOST
  1

  9
$DIMAPOST
  1

  9
$DIMALT
 70
     0
  9
$DIMALTD
 70
     3
  9
$DIMALTF
 40
0.0393700787
  9
$DIMLFAC
 40
1.0
  9
$DIMTOFL
 70
     1
  9
$DIMTVP
 40
0.0
  9
$DIMTIX
 70
     0
  9
$DIMSOXD
 70
     0
  9
$DIMSAH
 70
     0
  9
$DIMBLK1
  1

  9
$DIMBLK2
  1

  9
$DIMSTYLE
  2
ISO-25
  9
$DIMCLRD
 70
     0
  9
$DIMCLRE
 70
     0
  9
$DIMCLRT
 70
     0
  9
$DIMTFAC
 40
1.0
  9
$DIMGAP
 40
1.524
  9
$DIMJUST
 70
     0
  9
$DIMSD1
 70
     0
  9
$DIMSD2
 70
     0
  9
$DIMTOLJ
 70
     0
  9
$DIMTZIN
 70
     0
  9
$DIMALTZ
 70
     0
  9
$DIMALTTZ
 70
     0
  9
$DIMUPT
 70
     0
  9
$DIMDEC
 70
     2
  9
$DIMTDEC
 70
     2
  9
$DIMALTU
 70
     2
  9
$DIMALTTD
 70
     3
  9
$DIMTXSTY
  7
Standard
  9
$DIMAUNIT
 70
     0
  9
$DIMADEC
 70
     2
  9
$DIMALTRND
 40
0.0
  9
$DIMAZIN
 70
     0
  9
$DIMDSEP
 70
    44
  9
$DIMATFIT
 70
     3
  9
$DIMFRAC
 70
     0
  9
$DIMLDRBLK
  1

  9
$DIMLUNIT
 70
     2
  9
$DIMLWD
 70
    -2
  9
$DIMLWE
 70
    -2
  9
$DIMTMOVE
 70
     0
  9
$LUNITS
 70
     2
  9
$LUPREC
 70
     2
  9
$SKETCHINC
 40
1.0
  9
$FILLETRAD
 40
10.0
  9
$AUNITS
 70
     0
  9
$AUPREC
 70
     2
  9
$MENU
  1
.
  9
$ELEVATION
 40
0.0
  9
$PELEVATION
 40
0.0
  9
$THICKNESS
 40
0.0
  9
$LIMCHECK
 70
     0
  9
$CHAMFERA
 40
0.0
  9
$CHAMFERB
 40
0.0
  9
$CHAMFERC
 40
0.0
  9
$CHAMFERD
 40
0.0
  9
$SKPOLY
 70
     0
  9
$TDCREATE
 40
2459369.364270139
  9
$TDUCREATE
 40
2459369.239270139
  9
$TDUPDATE
 40
2459369.364270717
  9
$TDUUPDATE
 40
2459369.239270717
  9
$TDINDWG
 40
0.0000000116
  9
$TDUSRTIMER
 40
0.0000000116
  9
$USRTIMER
 70
     1
  9
$ANGBASE
 50
0.0
  9
$ANGDIR
 70
     0
  9
$PDMODE
 70
     0
  9
$PDSIZE
 40
-1.0
  9
$PLINEWID
 40
0.0
  9
$SPLFRAME
 70
     0
  9
$SPLINETYPE
 70
     6
  9
$SPLINESEGS
 70
     8
  9
$HANDSEED
  5
11B
  9
$SURFTAB1
 70
     6
  9
$SURFTAB2
 70
     6
  9
$SURFTYPE
 70
     6
  9
$SURFU
 70
     6
  9
$SURFV
 70
     6
  9
$UCSBASE
  2

  9
$UCSNAME
  2

  9
$UCSORG
 10
0.0
 20
0.0
 30
0.0
  9
$UCSXDIR
 10
1.0
 20
0.0
 30
0.0
  9
$UCSYDIR
 10
0.0
 20
1.0
 30
0.0
  9
$UCSORTHOREF
  2

  9
$UCSORTHOVIEW
 70
     0
  9
$UCSORGTOP
 10
0.0
 20
0.0
 30
0.0
  9
$UCSORGBOTTOM
 10
0.0
 20
0.0
 30
0.0
  9
$UCSORGLEFT
 10
0.0
 20
0.0
 30
0.0
  9
$UCSORGRIGHT
 10
0.0
 20
0.0
 30
0.0
  9
$UCSORGFRONT
 10
0.0
 20
0.0
 30
0.0
  9
$UCSORGBACK
 10
0.0
 20
0.0
 30
0.0
  9
$PUCSBASE
  2

  9
$PUCSNAME
  2

  9
$PUCSORG
 10
0.0
 20
0.0
 30
0.0
  9
$PUCSXDIR
 10
1.0
 20
0.0
 30
0.0
  9
$PUCSYDIR
 10
0.0
 20
1.0
 30
0.0
  9
$PUCSORTHOREF
  2

  9
$PUCSORTHOVIEW
 70
     0
  9
$PUCSORGTOP
 10
0.0
 20
0.0
 30
0.0
  9
$PUCSORGBOTTOM
 10
0.0
 20
0.0
 30
0.0
  9
$PUCSORGLEFT
 10
0.0
 20
0.0
 30
0.0
  9
$PUCSORGRIGHT
 10
0.0
 20
0.0
 30
0.0
  9
$PUCSORGFRONT
 10
0.0
 20
0.0
 30
0.0
  9
$PUCSORGBACK
 10
0.0
 20
0.0
 30
0.0
  9
$USERI1
 70
     0
  9
$USERI2
 70
     0
  9
$USERI3
 70
     0
  9
$USERI4
 70
     0
  9
$USERI5
 70
     0
  9
$USERR1
 40
0.0
  9
$USERR2
 40
0.0
  9
$USERR3
 40
0.0
  9
$USERR4
 40
0.0
  9
$USERR5
 40
0.0
  9
$WORLDVIEW
 70
     1
  9
$SHADEDGE
 70
     3
  9
$SHADEDIF
 70
    70
  9
$TILEMODE
 70
     1
  9
$MAXACTVP
 70
    64
  9
$PINSBASE
 10
0.0
 20
0.0
 30
0.0
  9
$PLIMCHECK
 70
     0
  9
$PEXTMIN
 10
1.0000000000E+20
 20
1.0000000000E+20
 30
1.0000000000E+20
  9
$PEXTMAX
 10
-1.0000000000E+20
 20
-1.0000000000E+20
 30
-1.0000000000E+20
  9
$PLIMMIN
 10
0.0
 20
0.0
  9
$PLIMMAX
 10
420.0
 20
297.0
  9
$UNITMODE
 70
     0
  9
$VISRETAIN
 70
     1
  9
$PLINEGEN
 70
     0
  9
$PSLTSCALE
 70
     1
  9
$TREEDEPTH
 70
  3020
  9
$CMLSTYLE
  2
Standard
  9
$CMLJUST
 70
     0
  9
$CMLSCALE
 40
20.0
  9
$PROXYGRAPHICS
 70
     1
  9
$MEASUREMENT
 70
     1
  9
$CELWEIGHT
370
    -1
  9
$ENDCAPS
280
     0
  9
$JOINSTYLE
280
     0
  9
$LWDISPLAY
290
     1
  9
$INSUNITS
 70
     4
  9
$HYPERLINKBASE
  1

  9
$STYLESHEET
  1

  9
$XEDIT
290
     1
  9
$CEPSNTYPE
380
     0
  9
$PSTYLEMODE
290
     1
  9
$FINGERPRINTGUID
  2
{5146D317-CCD6-4F9C-888C-0D334D379C2A}
  9
$VERSIONGUID
  2
{FAEB1C32-E019-11D5-929B-00C0DF256EC4}
  9
$EXTNAMES
290
     1
  9
$PSVPSCALE
 40
0.0
  9
$OLESTARTUP
290
     0
  0
ENDSEC
  0
SECTION
  2
CLASSES
  0
CLASS
  1
ACDBDICTIONARYWDFLT
  2
AcDbDictionaryWithDefault
  3
ObjectDBX Classes
 90
        0
280
     0
281
     0
  0
CLASS
  1
VISUALSTYLE
  2
AcDbVisualStyle
  3
ObjectDBX Classes
 90
     4095
280
     0
281
     0
  0
CLASS
  1
MATERIAL
  2
AcDbMaterial
  3
ObjectDBX Classes
 90
     1153
280
     0
281
     0
  0
CLASS
  1
SCALE
  2
AcDbScale
  3
ObjectDBX Classes
 90
     1153
280
     0
281
     0
  0
CLASS
  1
TABLESTYLE
  2
AcDbTableStyle
  3
ObjectDBX Classes
 90
     4095
280
     0
281
     0
  0
CLASS
  1
MLEADERSTYLE
  2
AcDbMLeaderStyle
  3
ACDB_MLEADERSTYLE_CLASS
 90
     4095
280
     0
281
     0
  0
CLASS
  1
SUN
  2
AcDbSun
  3
SCENEOE
 90
     1153
280
     0
281
     0
  0
CLASS
  1
ACDBPLACEHOLDER
  2
AcDbPlaceHolder
  3
ObjectDBX Classes
 90
        0
280
     0
281
     0
  0
CLASS
  1
LAYOUT
  2
AcDbLayout
  3
ObjectDBX Classes
 90
        0
280
     0
281
     0
  0
ENDSEC
  0
SECTION
  2
TABLES
  0
TABLE
  2
VPORT
  5
8
330
0
100
AcDbSymbolTable
 70
     1
  0
VPORT
  5
29
330
8
100
AcDbSymbolTableRecord
100
AcDbViewportTableRecord
  2
*Active
 70
     0
 10
0.0
 20
0.0
 11
1.0
 21
1.0
 12
460.0
 22
289.5
 13
0.0
 23
0.0
 14
10.0
 24
10.0
 15
10.0
 25
10.0
 16
0.0
 26
0.0
 36
1.0
 17
0.0
 27
0.0
 37
0.0
 40
579.0
 41
1.5889464594
 42
50.0
 43
0.0
 44
0.0
 50
0.0
 51
0.0
 71
     0
 72
  2000
 73
     1
 74
     3
 75
     0
 76
     0
 77
     0
 78
     0
281
     0
 65
     1
110
0.0
120
0.0
130
0.0
111
1.0
121
0.0
131
0.0
112
0.0
122
1.0
132
0.0
 79
     0
146
0.0
  0
ENDTAB
  0
TABLE
  2
LTYPE
  5
5
330
0
100
AcDbSymbolTable
 70
     6
  0
LTYPE
  5
14
330
5
100
AcDbSymbolTableRecord
100
AcDbLinetypeTableRecord
  2
ByBlock
 70
     0
  3

 72
    65
 73
     0
 40
0.0
  0
LTYPE
  5
15
330
5
100
AcDbSymbolTableRecord
100
AcDbLinetypeTableRecord
  2
ByLayer
 70
     0
  3

 72
    65
 73
     0
 40
0.0
  0
LTYPE
  5
16
330
5
100
AcDbSymbolTableRecord
100
AcDbLinetypeTableRecord
  2
Continuous
 70
     0
  3
Solid line
 72
    65
 73
     0
 40
0.0
  0
LTYPE
  5
6E
330
5
100
AcDbSymbolTableRecord
100
AcDbLinetypeTableRecord
  2
HIDDEN
 70
     0
  3
Hidden __ __ __ __ __ __ __ __ __ __ __ __ __ __
 72
    65
 73
     2
 40
1.905
 49
1.27
 74
     0
 49
-0.635
 74
     0
  0
LTYPE
  5
6F
330
5
100
AcDbSymbolTableRecord
100
AcDbLinetypeTableRecord
  2
PHANTOM
 70
     0
  3
Phantom ______  __  __  ______  __  __  ______
 72
    65
 73
     6
 40
12.7
 49
6.35
 74
     0
 49
-1.27
 74
     0
 49
1.27
 74
     0
 49
-1.27
 74
     0
 49
1.27
 74
     0
 49
-1.27
 74
     0
  0
LTYPE
  5
70
330
5
100
AcDbSymbolTableRecord
100
AcDbLinetypeTableRecord
  2
CENTER
 70
     0
  3
Center ____ _ ____ _ ____ _ ____ _ ____ _ ____
 72
    65
 73
     4
 40
10.16
 49
6.35
 74
     0
 49
-1.27
 74
     0
 49
1.27
 74
     0
 49
-1.27
 74
     0
  0
LTYPE
  5
71
330
5
100
AcDbSymbolTableRecord
100
AcDbLinetypeTableRecord
  2
CENTERX2
 70
     0
  3
Center (2x) ________  __  ________  __  _____
 72
    65
 73
     4
 40
20.32
 49
12.7
 74
     0
 49
-2.54
 74
     0
 49
2.54
 74
     0
 49
-2.54
 74
     0
  0
LTYPE
  5
72
330
5
100
AcDbSymbolTableRecord
100
AcDbLinetypeTableRecord
  2
DOT2
 70
     0
  3
Dot (.5x) ........................................
 72
    65
 73
     2
 40
0.635
 49
0.0
 74
     0
 49
-0.635
 74
     0
  0
ENDTAB
  0
TABLE
  2
LAYER
  5
2
330
0
100
AcDbSymbolTable
 70
     2
  0
LAYER
  5
10
330
2
100
AcDbSymbolTableRecord
100
AcDbLayerTableRecord
  2
0
 70
     0
 62
     7
  6
Continuous
370
    -3
390
F
  0
LAYER
  5
73
330
2
100
AcDbSymbolTableRecord
100
AcDbLayerTableRecord
  2
FORMAT
 70
     0
 62
     7
  6
Continuous
370
    -3
390
F
  0
ENDTAB
  0
TABLE
  2
STYLE
  5
3
330
0
100
AcDbSymbolTable
 70
     2
  0
STYLE
  5
11
330
3
100
AcDbSymbolTableRecord
100
AcDbTextStyleTableRecord
  2
Standard
 70
     0
 40
0.0
 41
1.0
 50
0.0
 71
     0
 42
3.5
  3
txt
  4

  0
STYLE
  5
74
330
3
100
AcDbSymbolTableRecord
100
AcDbTextStyleTableRecord
  2
SLDTEXTSTYLE0
 70
     0
 40
0.0
 41
0.605
 50
0.0
 71
     0
 42
3.5
  3
TXT
  4

  0
ENDTAB
  0
TABLE
  2
VIEW
  5
6
330
0
100
AcDbSymbolTable
 70
     0
  0
ENDTAB
  0
TABLE
  2
UCS
  5
7
330
0
100
AcDbSymbolTable
 70
     0
  0
ENDTAB
  0
TABLE
  2
APPID
  5
9
330
0
100
AcDbSymbolTable
 70
     1
  0
APPID
  5
12
330
9
100
AcDbSymbolTableRecord
100
AcDbRegAppTableRecord
  2
ACAD
 70
     0
  0
ENDTAB
  0
TABLE
  2
DIMSTYLE
  5
A
330
0
100
AcDbSymbolTable
 70
     1
100
AcDbDimStyleTable
  0
DIMSTYLE
105
27
330
A
100
AcDbSymbolTableRecord
100
AcDbDimStyleTableRecord
  2
ISO-25
 70
     0
 41
2.5
 42
0.625
 43
3.75
 44
1.25
 73
     0
 74
     0
 77
     1
 78
     8
140
2.5
141
2.5
143
0.0393700787
147
0.625
171
     3
172
     1
178
     0
271
     2
272
     2
274
     3
278
    44
283
     0
284
     8
340
11
  0
ENDTAB
  0
TABLE
  2
BLOCK_RECORD
  5
1
330
0
100
AcDbSymbolTable
 70
     1
  0
BLOCK_RECORD
  5
1F
330
1
100
AcDbSymbolTableRecord
100
AcDbBlockTableRecord
  2
*Model_Space
340
22
  0
BLOCK_RECORD
  5
1B
330
1
100
AcDbSymbolTableRecord
100
AcDbBlockTableRecord
  2
*Paper_Space
340
1E
  0
BLOCK_RECORD
  5
23
330
1
100
AcDbSymbolTableRecord
100
AcDbBlockTableRecord
  2
*Paper_Space0
340
26
  0
ENDTAB
  0
ENDSEC
  0
SECTION
  2
BLOCKS
  0
BLOCK
  5
20
330
1F
100
AcDbEntity
  8
0
100
AcDbBlockBegin
  2
*Model_Space
 70
     0
 10
0.0
 20
0.0
 30
0.0
  3
*Model_Space
  1

  0
ENDBLK
  5
21
330
1F
100
AcDbEntity
  8
0
100
AcDbBlockEnd
  0
BLOCK
  5
1C
330
1B
100
AcDbEntity
 67
     1
  8
0
100
AcDbBlockBegin
  2
*Paper_Space
 70
     0
 10
0.0
 20
0.0
 30
0.0
  3
*Paper_Space
  1

  0
ENDBLK
  5
1D
330
1B
100
AcDbEntity
 67
     1
  8
0
100
AcDbBlockEnd
  0
BLOCK
  5
24
330
23
100
AcDbEntity
  8
0
100
AcDbBlockBegin
  2
*Paper_Space0
 70
     0
 10
0.0
 20
0.0
 30
0.0
  3
*Paper_Space0
  1

  0
ENDBLK
  5
25
330
23
100
AcDbEntity
  8
0
100
AcDbBlockEnd
  0
ENDSEC
  0
SECTION
  2
ENTITIES
  0
MTEXT
  5
75
330
1F
100
AcDbEntity
  8
0
  6
Continuous
 62
     7
370
     0
100
AcDbMText
 10
7.2782978723
 20
22.1884790273
 30
0.0
 40
10.0
 41
0.0
 71
     1
 72
     1
  1
1:1
  7
SLDTEXTSTYLE0
 73
     1
 44
1.0
  0
ARC
  5
76
330
1F
100
AcDbEntity
  8
0
  6
Continuous
 62
     7
370
    30
100
AcDbCircle
 10
446.4
 20
417.3738997765
 30
0.0
 40
0.4000000000000341
100
AcDbArc
 50
180.0
 51
270.0
  0
ARC
  5
77
330
1F
100
AcDbEntity
  8
0
  6
Continuous
 62
     7
370
    30
100
AcDbCircle
 10
473.6
 20
417.3738997765
 30
0.0
 40
0.4000000000000341
100
AcDbArc
 50
270.0
 51
0.0
  0
LINE
  5
78
330
1F
100
AcDbEntity
  8
0
  6
Continuous
 62
     7
370
    30
100
AcDbLine
 10
474.0
 20
417.3738997765
 30
0.0
 11
474.0
 21
425.9738997765
 31
0.0
  0
LINE
  5
79
330
1F
100
AcDbEntity
  8
0
  6
Continuous
 62
     7
370
    30
100
AcDbLine
 10
446.0
 20
425.9738997765
 30
0.0
 11
446.0
 21
417.3738997765
 31
0.0
  0
LINE
  5
7A
330
1F
100
AcDbEntity
  8
0
  6
Continuous
 62
     7
370
    30
100
AcDbLine
 10
446.0
 20
466.9738997765
 30
0.0
 11
446.0
 21
425.9738997765
 31
0.0
  0
LINE
  5
7B
330
1F
100
AcDbEntity
  8
0
  6
Continuous
 62
     7
370
    30
100
AcDbLine
 10
474.0
 20
425.9738997765
 30
0.0
 11
474.0
 21
466.9738997765
 31
0.0
  0
ARC
  5
7C
330
1F
100
AcDbEntity
  8
0
  6
Continuous
 62
     7
370
    30
100
AcDbCircle
 10
473.55
 20
409.6738997765
 30
0.0
 40
0.1999999999999886
100
AcDbArc
 50
270.0
 51
0.0
  0
ARC
  5
7D
330
1F
100
AcDbEntity
  8
0
  6
Continuous
 62
     7
370
    30
100
AcDbCircle
 10
446.45
 20
409.6738997765
 30
0.0
 40
0.2000000000000455
100
AcDbArc
 50
180.0
 51
270.0
  0
ARC
  5
7E
330
1F
100
AcDbEntity
  8
0
  6
Continuous
 62
     7
370
    30
100
AcDbCircle
 10
446.45
 20
416.7738997765
 30
0.0
 40
0.1999999999999886
100
AcDbArc
 50
90.0
 51
180.0
  0
ARC
  5
7F
330
1F
100
AcDbEntity
  8
0
  6
Continuous
 62
     7
370
    30
100
AcDbCircle
 10
473.55
 20
416.7738997765
 30
0.0
 40
0.2000000000000455
100
AcDbArc
 50
0.0
 51
90.0
  0
LINE
  5
80
330
1F
100
AcDbEntity
  8
0
  6
Continuous
 62
     7
370
    30
100
AcDbLine
 10
446.25
 20
416.7738997765
 30
0.0
 11
446.25
 21
409.6738997765
 31
0.0
  0
LINE
  5
81
330
1F
100
AcDbEntity
  8
0
  6
Continuous
 62
     7
370
    30
100
AcDbLine
 10
473.75
 20
409.6738997765
 30
0.0
 11
473.75
 21
416.7738997765
 31
0.0
  0
ARC
  5
82
330
1F
100
AcDbEntity
  8
0
  6
Continuous
 62
     7
370
    30
100
AcDbCircle
 10
460.0
 20
466.9738997765
 30
0.0
 40
85.0001713375
100
AcDbArc
 50
274.030090003
 51
265.9699229042
  0
LINE
  5
83
330
1F
100
AcDbEntity
  8
0
  6
Continuous
 62
     7
370
    30
100
AcDbLine
 10
474.4092962577
 20
412.8877026967
 30
0.0
 11
474.4794966234
 21
412.9198646396
 31
0.0
  0
LINE
  5
84
330
1F
100
AcDbEntity
  8
0
  6
Continuous
 62
     7
370
    30
100
AcDbLine
 10
445.5582405997
 20
412.9198646396
 30
0.0
 11
445.6284409653
 21
412.8877026967
 31
0.0
  0
SPLINE
  5
85
330
1F
100
AcDbEntity
  8
0
  6
Continuous
 62
     7
370
    30
100
AcDbSpline
210
0.0
220
0.0
230
1.0
 70
    24
 71
     3
 72
    76
 73
    72
 74
     0
 42
0.000000001
 43
0.00000001
 40
0.0
 40
0.0
 40
0.0
 40
0.0
 40
0.0182917645303444
 40
0.0365517766334868
 40
0.0547950786316114
 40
0.0730367541850572
 40
0.0845091237655753
 40
0.0959905536945444
 40
0.1074847765742209
 40
0.1191443651394181
 40
0.1313348200435107
 40
0.1465504434347453
 40
0.1617493801184944
 40
0.1769403441928963
 40
0.192132063475563
 40
0.2000930005284637
 40
0.2080577920007673
 40
0.2160276887971673
 40
0.2240039394203708
 40
0.2319877893922809
 40
0.2399804806821246
 40
0.2580221595641904
 40
0.2760286077100754
 40
0.2940142442242468
 40
0.3119935382830252
 40
0.3232982880757712
 40
0.3346098493332529
 40
0.3459318099057631
 40
0.3572677477693786
 40
0.3686212276856261
 40
0.387424393589524
 40
0.4061887148675297
 40
0.4249305135622694
 40
0.4436661705798213
 40
0.4624120829267789
 40
0.4811846207369851
 40
0.5000000846490613
 40
0.5184276489828379
 40
0.5368175937948914
 40
0.5551852792392944
 40
0.5735461213348526
 40
0.5850908854907835
 40
0.596642873434226
 40
0.608205907672793
 40
0.61978379977312
 40
0.6313803466513426
 40
0.6494220271695114
 40
0.6674284760601445
 40
0.6854141127731282
 40
0.7033934068327037
 40
0.7128136938351459
 40
0.7222382954029005
 40
0.7316692890613918
 40
0.741108748115545
 40
0.7505587402984308
 40
0.7600213264381269
 40
0.7794129640233245
 40
0.798767701478431
 40
0.8181034723541638
 40
0.837438262977389
 40
0.8495994116306682
 40
0.8617717405334457
 40
0.8739596969758894
 40
0.8860132190474358
 40
0.8975100317459745
 40
0.914594303638273
 40
0.9316610715733644
 40
0.9487226800010929
 40
0.9657914845656381
 40
0.9828798253017859
 40
1.0
 40
1.0
 40
1.0
 40
1.0
 10
460.0000000000054
 20
416.9738997765481
 30
0.0
 10
460.1302564891822
 20
416.9738997765481
 30
0.0
 10
460.3905433570539
 20
416.9738997765481
 30
0.0
 10
460.7804226600792
 20
416.9738997765481
 30
0.0
 10
461.1693026742431
 20
416.9738997765481
 30
0.0
 10
461.5091260779758
 20
416.9738997765481
 30
0.0
 10
461.8002377013362
 20
416.9738997765481
 30
0.0
 10
462.0430830414156
 20
416.9738997765481
 30
0.0
 10
462.2865794561797
 20
416.9738997765481
 30
0.0
 10
462.5342960735288
 20
416.9738997765481
 30
0.0
 10
462.8071328552506
 20
416.9738997765481
 30
0.0
 10
463.103359346035
 20
416.9738997765481
 30
0.0
 10
463.4186751241074
 20
416.9738997765481
 30
0.0
 10
463.7318704296786
 20
416.9738997765481
 30
0.0
 10
463.993538860656
 20
416.9738997765482
 30
0.0
 10
464.204684585646
 20
416.9738997765481
 30
0.0
 10
464.3661679604838
 20
416.9738997765482
 30
0.0
 10
464.5270695592863
 20
416.9738997765481
 30
0.0
 10
464.6873895959035
 20
416.9738997765481
 30
0.0
 10
464.847128303474
 20
416.9738997765482
 30
0.0
 10
465.0729149964222
 20
416.9738997765481
 30
0.0
 10
465.3628993044495
 20
416.9738997765481
 30
0.0
 10
465.714389882101
 20
416.9738997765482
 30
0.0
 10
466.0608997227008
 20
416.9738997765481
 30
0.0
 10
466.3601277528244
 20
416.9738997765481
 30
0.0
 10
466.6139528735935
 20
416.9738997765482
 30
0.0
 10
466.8240589839704
 20
416.9738997765482
 30
0.0
 10
467.0321967981677
 20
416.9738997765482
 30
0.0
 10
467.2383671004695
 20
416.9738997765482
 30
0.0
 10
467.4871003828229
 20
416.9738997765482
 30
0.0
 10
467.7759060956609
 20
416.9738997765482
 30
0.0
 10
468.1015737066901
 20
416.9738997765482
 30
0.0
 10
468.4198051583754
 20
416.9738997765482
 30
0.0
 10
468.7305977029809
 20
416.9738997765482
 30
0.0
 10
469.0339513745633
 20
416.9738997765482
 30
0.0
 10
469.3298645491267
 20
416.9738997765482
 30
0.0
 10
469.6160560548491
 20
416.9738997765482
 30
0.0
 10
469.8921831230796
 20
416.9738997765482
 30
0.0
 10
470.157838831477
 20
416.9738997765482
 30
0.0
 10
470.4146870684166
 20
416.9738997765482
 30
0.0
 10
470.6320063362282
 20
416.9738997765483
 30
0.0
 10
470.8131713745528
 20
416.9738997765482
 30
0.0
 10
470.9610589185257
 20
416.9738997765483
 30
0.0
 10
471.1054677030501
 20
416.9738997765482
 30
0.0
 10
471.2463978615503
 20
416.9738997765482
 30
0.0
 10
471.4092233102283
 20
416.9738997765483
 30
0.0
 10
471.59090657283
 20
416.9738997765483
 30
0.0
 10
471.7876827570198
 20
416.9738997765483
 30
0.0
 10
471.9747907222326
 20
416.9738997765483
 30
0.0
 10
472.1240553433348
 20
416.9738997765483
 30
0.0
 10
472.2400923972575
 20
416.9738997765482
 30
0.0
 10
472.3265012924283
 20
416.9738997765483
 30
0.0
 10
472.4102583828285
 20
416.9738997765483
 30
0.0
 10
472.4913640282655
 20
416.9738997765483
 30
0.0
 10
472.5698178026913
 20
416.9738997765483
 30
0.0
 10
472.672093321299
 20
416.9738997765483
 30
0.0
 10
472.7936533999935
 20
416.9738997765483
 30
0.0
 10
472.9282750720535
 20
416.9738997765483
 30
0.0
 10
473.0507909543589
 20
416.9738997765483
 30
0.0
 10
473.1475171387946
 20
416.9738997765483
 30
0.0
 10
473.2231381137632
 20
416.9738997765483
 30
0.0
 10
473.2815447641078
 20
416.9738997765483
 30
0.0
 10
473.3349422540721
 20
416.9738997765483
 30
0.0
 10
473.382633252401
 20
416.9738997765483
 30
0.0
 10
473.4316297953784
 20
416.9738997765483
 30
0.0
 10
473.4794854405238
 20
416.9738997765483
 30
0.0
 10
473.5234457185514
 20
416.9738997765483
 30
0.0
 10
473.5576850791983
 20
416.9738997765483
 30
0.0
 10
473.581966847108
 20
416.9738997765483
 30
0.0
 10
473.5971752074238
 20
416.9738997765483
 30
0.0
 10
473.599057818501
 20
416.9738997765483
 30
0.0
 10
473.6000000000053
 20
416.9738997765483
 30
0.0
  0
SPLINE
  5
86
330
1F
100
AcDbEntity
  8
0
  6
Continuous
 62
     7
370
    30
100
AcDbSpline
210
0.0
220
0.0
230
1.0
 70
    24
 71
     3
 72
    76
 73
    72
 74
     0
 42
0.000000001
 43
0.00000001
 40
0.0
 40
0.0
 40
0.0
 40
0.0
 40
0.0182884997700198
 40
0.0365464512489003
 40
0.0547889082864118
 40
0.0730309630916936
 40
0.0845042003042522
 40
0.0959869845155214
 40
0.10748304860428
 40
0.1191444169619675
 40
0.1313348702030906
 40
0.1465504915189643
 40
0.1617494261299491
 40
0.1769403881329888
 40
0.192132105344504
 40
0.2000930413121786
 40
0.2080578316988163
 40
0.216027727408934
 40
0.2240039769450744
 40
0.2319878258289664
 40
0.2399805160296648
 40
0.2580221924457334
 40
0.2760286381324183
 40
0.2940142721922284
 40
0.3119935637995181
 40
0.3232983120518789
 40
0.3346098717688362
 40
0.3459318308001928
 40
0.357267767121535
 40
0.3686212454938981
 40
0.3874244088368524
 40
0.4061887275582842
 40
0.4249305236986088
 40
0.4436661781616895
 40
0.4624120879519025
 40
0.4811846232008841
 40
0.5000000845450576
 40
0.5184276463657679
 40
0.5368175886701024
 40
0.5551852716100212
 40
0.5735461112021994
 40
0.5850908737841559
 40
0.5966428601526894
 40
0.6082058928148877
 40
0.6197837833368571
 40
0.631380328634211
 40
0.6494220066810894
 40
0.6674284531089419
 40
0.6854140873657067
 40
0.7033933789736687
 40
0.7128136646930757
 40
0.7222382649782356
 40
0.7316692573542869
 40
0.7411087151258706
 40
0.750558706025772
 40
0.7600212908817837
 40
0.7794129258190566
 40
0.7987676606327454
 40
0.8181034288711446
 40
0.8374382168586835
 40
0.8495993638549565
 40
0.8617716910998083
 40
0.8739596458828033
 40
0.8860136916554905
 40
0.8975126214986079
 40
0.9145991421576519
 40
0.9316670807122052
 40
0.9487287843601234
 40
0.9657966138306256
 40
0.9828829165581391
 40
1.0
 40
1.0
 40
1.0
 40
1.0
 10
446.4000000000053
 20
416.973899776548
 30
0.0
 10
446.4010674370051
 20
416.973899776548
 30
0.0
 10
446.4032005280057
 20
416.973899776548
 30
0.0
 10
446.420569057182
 20
416.973899776548
 30
0.0
 10
446.4483166054335
 20
416.973899776548
 30
0.0
 10
446.4826098699089
 20
416.973899776548
 30
0.0
 10
446.5188491870485
 20
416.973899776548
 30
0.0
 10
446.5535510118291
 20
416.973899776548
 30
0.0
 10
446.5928341392612
 20
416.973899776548
 30
0.0
 10
446.63740420733
 20
416.973899776548
 30
0.0
 10
446.6917439574879
 20
416.973899776548
 30
0.0
 10
446.7573833483054
 20
416.973899776548
 30
0.0
 10
446.8352116377201
 20
416.973899776548
 30
0.0
 10
446.9205294573631
 20
416.973899776548
 30
0.0
 10
446.9985968060294
 20
416.973899776548
 30
0.0
 10
447.0658116997327
 20
416.973899776548
 30
0.0
 10
447.119456509706
 20
416.973899776548
 30
0.0
 10
447.1751553718118
 20
416.973899776548
 30
0.0
 10
447.2329082511384
 20
416.973899776548
 30
0.0
 10
447.2927155053148
 20
416.973899776548
 30
0.0
 10
447.3804733874869
 20
416.973899776548
 30
0.0
 10
447.4999991442905
 20
416.973899776548
 30
0.0
 10
447.6566394278556
 20
416.973899776548
 30
0.0
 10
447.8229872036227
 20
416.973899776548
 30
0.0
 10
447.9772378255713
 20
416.973899776548
 30
0.0
 10
448.1155998443227
 20
416.973899776548
 30
0.0
 10
448.2350362808643
 20
416.973899776548
 30
0.0
 10
448.358305811777
 20
416.973899776548
 30
0.0
 10
448.4854094181013
 20
416.973899776548
 30
0.0
 10
448.6448979401674
 20
416.973899776548
 30
0.0
 10
448.8397847670153
 20
416.973899776548
 30
0.0
 10
449.0737957475014
 20
416.973899776548
 30
0.0
 10
449.3170347152158
 20
416.973899776548
 30
0.0
 10
449.5695009667932
 20
416.973899776548
 30
0.0
 10
449.8311937592852
 20
416.973899776548
 30
0.0
 10
450.1021132527558
 20
416.973899776548
 30
0.0
 10
450.3800376681451
 20
416.973899776548
 30
0.0
 10
450.6641727051961
 20
416.973899776548
 30
0.0
 10
450.9538106817125
 20
416.973899776548
 30
0.0
 10
451.2506572652031
 20
416.973899776548
 30
0.0
 10
451.5170554952762
 20
416.973899776548
 30
0.0
 10
451.7501596039612
 20
416.973899776548
 30
0.0
 10
451.9477681403607
 20
416.973899776548
 30
0.0
 10
452.1482229708044
 20
416.973899776548
 30
0.0
 10
452.3515253960582
 20
416.973899776548
 30
0.0
 10
452.5957254827358
 20
416.973899776548
 30
0.0
 10
452.8823027420415
 20
416.973899776548
 30
0.0
 10
453.2130010996503
 20
416.973899776548
 30
0.0
 10
453.5487554106426
 20
416.973899776548
 30
0.0
 10
453.8354526181725
 20
416.973899776548
 30
0.0
 10
454.0706073365095
 20
416.9738997765481
 30
0.0
 10
454.2524787242547
 20
416.973899776548
 30
0.0
 10
454.4357361511205
 20
416.9738997765481
 30
0.0
 10
454.6203798286873
 20
416.973899776548
 30
0.0
 10
454.8064104113792
 20
416.9738997765481
 30
0.0
 10
455.0592745373856
 20
416.973899776548
 30
0.0
 10
455.380379077637
 20
416.9738997765481
 30
0.0
 10
455.7715142888093
 20
416.9738997765481
 30
0.0
 10
456.1661855603677
 20
416.9738997765481
 30
0.0
 10
456.5150469262122
 20
416.9738997765481
 30
0.0
 10
456.8166821614238
 20
416.9738997765481
 30
0.0
 10
457.0701172441345
 20
416.9738997765481
 30
0.0
 10
457.3238744753612
 20
416.9738997765481
 30
0.0
 10
457.5738853865349
 20
416.9738997765481
 30
0.0
 10
457.8591062232176
 20
416.9738997765481
 30
0.0
 10
458.1806944731019
 20
416.9738997765481
 30
0.0
 10
458.542777228084
 20
416.9738997765481
 30
0.0
 10
458.9057809905832
 20
416.9738997765481
 30
0.0
 10
459.2697040125179
 20
416.9738997765481
 30
0.0
 10
459.6345460862257
 20
416.9738997765481
 30
0.0
 10
459.87810896542
 20
416.9738997765481
 30
0.0
 10
460.0000000000054
 20
416.9738997765481
 30
0.0
  0
ARC
  5
87
330
1F
100
AcDbEntity
  8
0
  6
Continuous
 62
     7
370
    30
100
AcDbCircle
 10
460.0
 20
466.9738997765
 30
0.0
 40
14.0
100
AcDbArc
 50
0.0
 51
90.0
  0
ARC
  5
88
330
1F
100
AcDbEntity
  8
0
  6
Continuous
 62
     7
370
    30
100
AcDbCircle
 10
460.0
 20
466.9738997765
 30
0.0
 40
14.0
100
AcDbArc
 50
90.0
 51
180.0
  0
SPLINE
  5
89
330
1F
100
AcDbEntity
  8
0
  6
Continuous
 62
     7
370
    30
100
AcDbSpline
210
0.0
220
0.0
230
1.0
 70
    24
 71
     3
 72
    54
 73
    50
 74
     0
 42
0.000000001
 43
0.00000001
 40
0.0
 40
0.0
 40
0.0
 40
0.0
 40
0.0244060882285084
 40
0.0487665406489499
 40
0.0731014239863748
 40
0.0974308682334142
 40
0.112730231259355
 40
0.1280404012026699
 40
0.1433663643105265
 40
0.1589158084298933
 40
0.1751863226757152
 40
0.1993549517266602
 40
0.2234895398718327
 40
0.2476096924766802
 40
0.2717350500996289
 40
0.2958852405998797
 40
0.3200798313997096
 40
0.3361398839245445
 40
0.3521739359855449
 40
0.3681876623264417
 40
0.3841867593190557
 40
0.4001769389699796
 40
0.4161639228440668
 40
0.4412930881768784
 40
0.4664506935413429
 40
0.4916588586372398
 40
0.5136214452111468
 40
0.5355381137565907
 40
0.5574234143837676
 40
0.579291959814345
 40
0.6011583963611024
 40
0.6230373745720246
 40
0.644943519831998
 40
0.6668914032161571
 40
0.6919872035130088
 40
0.7170257396061519
 40
0.7420287529782046
 40
0.7670180778295247
 40
0.7920155842294313
 40
0.8170431207991549
 40
0.8421224576749741
 40
0.8636250134441641
 40
0.8850843835296768
 40
0.906514227085295
 40
0.9279282597662551
 40
0.9493402276112547
 40
0.9707638806335793
 40
0.9922129463740269
 40
1.0
 40
1.0
 40
1.0
 40
1.0
 10
465.1903140592618
 20
409.4738997765484
 30
0.0
 10
465.3098275552114
 20
409.4738997765484
 30
0.0
 10
465.5486310743889
 20
409.4738997765484
 30
0.0
 10
465.9009002090721
 20
409.4738997765484
 30
0.0
 10
466.2482418618907
 20
409.4738997765484
 30
0.0
 10
466.5478996576726
 20
409.4738997765485
 30
0.0
 10
466.801955544221
 20
409.4738997765484
 30
0.0
 10
467.0121590188086
 20
409.4738997765484
 30
0.0
 10
467.2212140382079
 20
409.4738997765484
 30
0.0
 10
467.4321954805663
 20
409.4738997765485
 30
0.0
 10
467.6797171677099
 20
409.4738997765485
 30
0.0
 10
467.9606078099218
 20
409.4738997765485
 30
0.0
 10
468.2691969904295
 20
409.4738997765484
 30
0.0
 10
468.570898931068
 20
409.4738997765485
 30
0.0
 10
468.8657119491188
 20
409.4738997765485
 30
0.0
 10
469.1536357399446
 20
409.4738997765485
 30
0.0
 10
469.4029353623854
 20
409.4738997765485
 30
0.0
 10
469.6159161901658
 20
409.4738997765485
 30
0.0
 10
469.7945347776297
 20
409.4738997765485
 30
0.0
 10
469.9694462145176
 20
409.4738997765485
 30
0.0
 10
470.140651376533
 20
409.4738997765485
 30
0.0
 10
470.3081502879677
 20
409.4738997765485
 30
0.0
 10
470.5031506006312
 20
409.4738997765485
 30
0.0
 10
470.7228321667155
 20
409.4738997765485
 30
0.0
 10
470.9636359479599
 20
409.4738997765485
 30
0.0
 10
471.1851184095834
 20
409.4738997765485
 30
0.0
 10
471.3883249503468
 20
409.4738997765485
 30
0.0
 10
471.5741996638183
 20
409.4738997765485
 30
0.0
 10
471.7521058957309
 20
409.4738997765485
 30
0.0
 10
471.9220446620769
 20
409.4738997765485
 30
0.0
 10
472.0840154364884
 20
409.4738997765485
 30
0.0
 10
472.2380178206111
 20
409.4738997765485
 30
0.0
 10
472.3840526993584
 20
409.4738997765485
 30
0.0
 10
472.5285972935447
 20
409.4738997765485
 30
0.0
 10
472.6699981914651
 20
409.4738997765485
 30
0.0
 10
472.8064014645905
 20
409.4738997765485
 30
0.0
 10
472.9314736743704
 20
409.4738997765485
 30
0.0
 10
473.0452153479675
 20
409.4738997765485
 30
0.0
 10
473.1476257457519
 20
409.4738997765485
 30
0.0
 10
473.2387056803884
 20
409.4738997765485
 30
0.0
 10
473.31458382993
 20
409.4738997765485
 30
0.0
 10
473.3770223691783
 20
409.4738997765485
 30
0.0
 10
473.4275941204722
 20
409.4738997765485
 30
0.0
 10
473.4695396638895
 20
409.4738997765485
 30
0.0
 10
473.5028077811186
 20
409.4738997765485
 30
0.0
 10
473.5275922371171
 20
409.4738997765485
 30
0.0
 10
473.5431684325893
 20
409.4738997765485
 30
0.0
 10
473.5503125892079
 20
409.4738997765485
 30
0.0
 10
473.549295431088
 20
409.4738997765485
 30
0.0
 10
473.5490245105623
 20
409.4738997765485
 30
0.0
  0
SPLINE
  5
8A
330
1F
100
AcDbEntity
  8
0
  6
Continuous
 62
     7
370
    30
100
AcDbSpline
210
0.0
220
0.0
230
1.0
 70
    24
 71
     3
 72
    91
 73
    87
 74
     0
 42
0.000000001
 43
0.00000001
 40
0.0
 40
0.0
 40
0.0
 40
0.0
 40
0.0082162239425014
 40
0.0170902613442516
 40
0.0259514075562554
 40
0.0348023258503183
 40
0.0436456887389855
 40
0.0524841755884352
 40
0.0613204702004281
 40
0.070157258374126
 40
0.0798814745011596
 40
0.0896131070918775
 40
0.0993557180054188
 40
0.1089926724304741
 40
0.1181949974875975
 40
0.1318668228637171
 40
0.1455212245963783
 40
0.159168068162867
 40
0.1728172354293685
 40
0.1864786032195698
 40
0.2001620219378148
 40
0.2148003889201572
 40
0.2294104221269186
 40
0.2440041458369208
 40
0.2585936246546539
 40
0.2677675884005226
 40
0.2769476419487427
 40
0.2861367752091625
 40
0.2954599739899453
 40
0.305217011958269
 40
0.3197103603384423
 40
0.3341832952019504
 40
0.3486475734172171
 40
0.3631149729570378
 40
0.3775972641788031
 40
0.3921061811973227
 40
0.4017370103074949
 40
0.4113522475620012
 40
0.4209552959688372
 40
0.4305495715058408
 40
0.4401384995266531
 40
0.44972551111677
 40
0.4647948701152484
 40
0.4798812839204577
 40
0.4949980171869257
 40
0.5081684546931944
 40
0.5213113562568974
 40
0.5344354472308744
 40
0.5475494905145731
 40
0.5606622691512204
 40
0.5737825687237942
 40
0.5869191597255691
 40
0.6000807800815576
 40
0.6151301308673267
 40
0.6301451416803293
 40
0.6451388503673072
 40
0.6601243503756261
 40
0.6751147566624016
 40
0.6901231713228443
 40
0.7051626493866259
 40
0.7180572174301426
 40
0.730925888052794
 40
0.743776852322182
 40
0.7566183351884731
 40
0.7694585798220787
 40
0.7823058317768664
 40
0.7951683231304943
 40
0.8080542567539415
 40
0.8169282941557315
 40
0.8257894403677682
 40
0.8346403586618549
 40
0.8434837215505374
 40
0.8523222083999948
 40
0.8611585030119894
 40
0.8699952911856795
 40
0.8797195073126992
 40
0.889451139903393
 40
0.8991937508169032
 40
0.9088302836835226
 40
0.9180309085899591
 40
0.9317009275821092
 40
0.9453543880857572
 40
0.959001153376053
 40
0.9726511012417803
 40
0.9863141025691083
 40
1.0
 40
1.0
 40
1.0
 40
1.0
 10
446.4509754894441
 20
409.4738997765483
 30
0.0
 10
446.4509079561599
 20
409.4738997765482
 30
0.0
 10
446.4507674826914
 20
409.4738997765483
 30
0.0
 10
446.4570652778797
 20
409.4738997765482
 30
0.0
 10
446.4668317654049
 20
409.4738997765483
 30
0.0
 10
446.480876151285
 20
409.4738997765482
 30
0.0
 10
446.4989383658885
 20
409.4738997765482
 30
0.0
 10
446.521087984218
 20
409.4738997765483
 30
0.0
 10
446.5473064022894
 20
409.4738997765483
 30
0.0
 10
446.5786088131857
 20
409.4738997765483
 30
0.0
 10
446.6154837351464
 20
409.4738997765483
 30
0.0
 10
446.658438548529
 20
409.4738997765483
 30
0.0
 10
446.7061247991753
 20
409.4738997765482
 30
0.0
 10
446.7576562450397
 20
409.4738997765483
 30
0.0
 10
446.8214378363457
 20
409.4738997765482
 30
0.0
 10
446.9001594211855
 20
409.4738997765483
 30
0.0
 10
446.997896227691
 20
409.4738997765483
 30
0.0
 10
447.1049583770314
 20
409.4738997765483
 30
0.0
 10
447.2213456728492
 20
409.4738997765482
 30
0.0
 10
447.3470570278233
 20
409.4738997765483
 30
0.0
 10
447.4851315913106
 20
409.4738997765483
 30
0.0
 10
447.6360304829454
 20
409.4738997765483
 30
0.0
 10
447.8002926169403
 20
409.4738997765483
 30
0.0
 10
447.9744233666703
 20
409.4738997765483
 30
0.0
 10
448.1356310634083
 20
409.4738997765483
 30
0.0
 10
448.2800623454519
 20
409.4738997765483
 30
0.0
 10
448.4046349101614
 20
409.4738997765483
 30
0.0
 10
448.5336722014518
 20
409.4738997765483
 30
0.0
 10
448.6692422855899
 20
409.4738997765483
 30
0.0
 10
448.8348710089823
 20
409.4738997765483
 30
0.0
 10
449.032637427608
 20
409.4738997765483
 30
0.0
 10
449.2633234574212
 20
409.4738997765483
 30
0.0
 10
449.5025780618712
 20
409.4738997765483
 30
0.0
 10
449.7504005647138
 20
409.4738997765483
 30
0.0
 10
450.0067887673846
 20
409.4738997765483
 30
0.0
 10
450.2418295280423
 20
409.4738997765483
 30
0.0
 10
450.4522919095455
 20
409.4738997765483
 30
0.0
 10
450.6355536180334
 20
409.4738997765483
 30
0.0
 10
450.8219118935498
 20
409.4738997765483
 30
0.0
 10
451.0113663371487
 20
409.4738997765483
 30
0.0
 10
451.2039175114979
 20
409.4738997765483
 30
0.0
 10
451.4368418377723
 20
409.4738997765483
 30
0.0
 10
451.7126140350227
 20
409.4738997765483
 30
0.0
 10
452.0340458264216
 20
409.4738997765483
 30
0.0
 10
452.3486952497544
 20
409.4738997765483
 30
0.0
 10
452.6549352159988
 20
409.4738997765483
 30
0.0
 10
452.9513248526893
 20
409.4738997765483
 30
0.0
 10
453.2519836176308
 20
409.4738997765483
 30
0.0
 10
453.5569108918199
 20
409.4738997765483
 30
0.0
 10
453.8661063491477
 20
409.4738997765483
 30
0.0
 10
454.1795695274441
 20
409.4738997765483
 30
0.0
 10
454.4973000744232
 20
409.4738997765483
 30
0.0
 10
454.8344132853627
 20
409.4738997765483
 30
0.0
 10
455.1908648818342
 20
409.4738997765483
 30
0.0
 10
455.5665972123879
 20
409.4738997765483
 30
0.0
 10
455.9456561306931
 20
409.4738997765484
 30
0.0
 10
456.3280398814738
 20
409.4738997765483
 30
0.0
 10
456.7137480205629
 20
409.4738997765484
 30
0.0
 10
457.1027788412565
 20
409.4738997765483
 30
0.0
 10
457.4761043537267
 20
409.4738997765484
 30
0.0
 10
457.8326381207301
 20
409.4738997765484
 30
0.0
 10
458.1714314164543
 20
409.4738997765484
 30
0.0
 10
458.5109272150672
 20
409.4738997765484
 30
0.0
 10
458.8511254978146
 20
409.4738997765484
 30
0.0
 10
459.192025686071
 20
409.4738997765484
 30
0.0
 10
459.5336276111129
 20
409.4738997765484
 30
0.0
 10
459.8759299968386
 20
409.4738997765484
 30
0.0
 10
460.1830657551779
 20
409.4738997765484
 30
0.0
 10
460.4546059853317
 20
409.4738997765484
 30
0.0
 10
460.6902295242057
 20
409.4738997765484
 30
0.0
 10
460.9253732875558
 20
409.4738997765484
 30
0.0
 10
461.1600376608842
 20
409.4738997765484
 30
0.0
 10
461.3942224363147
 20
409.4738997765484
 30
0.0
 10
461.627927671467
 20
409.4738997765484
 30
0.0
 10
461.8689313582228
 20
409.4738997765484
 30
0.0
 10
462.1171808121417
 20
409.4738997765484
 30
0.0
 10
462.3726021751567
 20
409.4738997765484
 30
0.0
 10
462.6263912592161
 20
409.4738997765484
 30
0.0
 10
462.8746195034499
 20
409.4738997765484
 30
0.0
 10
463.1558333129607
 20
409.4738997765484
 30
0.0
 10
463.4701402859212
 20
409.4738997765484
 30
0.0
 10
463.8202016448683
 20
409.4738997765484
 30
0.0
 10
464.1673569522993
 20
409.4738997765484
 30
0.0
 10
464.5115141219449
 20
409.4738997765484
 30
0.0
 10
464.8530107415563
 20
409.4738997765484
 30
0.0
 10
465.0778168852063
 20
409.4738997765484
 30
0.0
 10
465.1903140592618
 20
409.4738997765484
 30
0.0
  0
SPLINE
  5
8B
330
1F
100
AcDbEntity
  8
0
  6
Continuous
 62
     7
370
    30
100
AcDbSpline
210
0.0
220
0.0
230
1.0
 70
     8
 71
     3
 72
    18
 73
    14
 74
     0
 42
0.000000001
 43
0.00000001
 40
0.0
 40
0.0
 40
0.0
 40
0.0
 40
0.1120415185472162
 40
0.2242381939197732
 40
0.3364348378422468
 40
0.4484763134435933
 40
0.5370250745725206
 40
0.6256503592820728
 40
0.7142756311945083
 40
0.802824374857743
 40
0.8939427420920466
 40
0.9851445308201998
 40
1.0
 40
1.0
 40
1.0
 40
1.0
 10
475.8753652079789
 20
420.4159664594205
 30
0.0
 10
475.8159204353673
 20
420.4741906753668
 30
0.0
 10
475.696948570105
 20
420.5907197370529
 30
0.0
 10
475.5071020560836
 20
420.7533492750044
 30
0.0
 10
475.3096621857323
 20
420.9065340739423
 30
0.0
 10
475.1187069954004
 20
421.0389547449523
 30
0.0
 10
474.9366067088429
 20
421.1529015390696
 30
0.0
 10
474.7650433636638
 20
421.2506020209703
 30
0.0
 10
474.5895658318616
 20
421.3410661943832
 30
0.0
 10
474.4088658651705
 20
421.4251537104373
 30
0.0
 10
474.2227490675086
 20
421.5014760136148
 30
0.0
 10
474.0856690264503
 20
421.5532769833961
 30
0.0
 10
474.0105253897856
 20
421.5768775252808
 30
0.0
 10
474.0000000000052
 20
421.5801832596503
 30
0.0
  0
SPLINE
  5
8C
330
1F
100
AcDbEntity
  8
0
  6
Continuous
 62
     7
370
    30
100
AcDbSpline
210
0.0
220
0.0
230
1.0
 70
     8
 71
     3
 72
    57
 73
    53
 74
     0
 42
0.000000001
 43
0.00000001
 40
0.0
 40
0.0
 40
0.0
 40
0.0
 40
0.0083400339007358
 40
0.0288369618404123
 40
0.0487607562318028
 40
0.0687017937711165
 40
0.0886428322446701
 40
0.1085666279111252
 40
0.129069336172659
 40
0.1495908340065431
 40
0.170112333845854
 40
0.1906150448445678
 40
0.2105460021876378
 40
0.2304942137757671
 40
0.2504424278083213
 40
0.2703733884875842
 40
0.2908835933804239
 40
0.3114125970895582
 40
0.3319416039615994
 40
0.3524518131714493
 40
0.3723886073031079
 40
0.392342658626958
 40
0.412296712833404
 40
0.432233510899279
 40
0.4527496402674598
 40
0.4732845710268456
 40
0.4938195047187307
 40
0.5143356380894384
 40
0.5342743817846995
 40
0.5542303761754428
 40
0.5741863726211901
 40
0.5941251191211524
 40
0.6146430012897836
 40
0.6351796796275152
 40
0.6557163593803272
 40
0.6762342434803824
 40
0.696171115845452
 40
0.7161252282188976
 40
0.7360793409200265
 40
0.7560162137323236
 40
0.7765319129717395
 40
0.7970664004208116
 40
0.8176008871489641
 40
0.8381165854044061
 40
0.8580535133156066
 40
0.8780076838408496
 40
0.8979618528244478
 40
0.9178987786315879
 40
0.9384146875862491
 40
0.9589493923208467
 40
0.9794840945140505
 40
1.0
 40
1.0
 40
1.0
 40
1.0
 10
473.7500000000047
 20
412.4924355226683
 30
0.0
 10
473.7766335385456
 20
412.4994323820663
 30
0.0
 10
473.8687231323915
 20
412.523625109562
 30
0.0
 10
474.0220009432839
 20
412.5731878496808
 30
0.0
 10
474.2095430668116
 20
412.6406618597231
 30
0.0
 10
474.3922728162754
 20
412.7156573271262
 30
0.0
 10
474.5717794275673
 20
412.7980238078039
 30
0.0
 10
474.7493541730929
 20
412.8886463427971
 30
0.0
 10
474.9245990613209
 20
412.9876545765982
 30
0.0
 10
475.0971281530473
 20
413.0951007673423
 30
0.0
 10
475.2649216878885
 20
413.2097978045158
 30
0.0
 10
475.4261018030293
 20
413.3303869830781
 30
0.0
 10
475.5805494930045
 20
413.4565042053854
 30
0.0
 10
475.7282578037275
 20
413.587705898529
 30
0.0
 10
475.8704027145185
 20
413.7249117575928
 30
0.0
 10
476.0080089089471
 20
413.8692411396195
 30
0.0
 10
476.1406312482152
 20
414.0207231206492
 30
0.0
 10
476.2678953242882
 20
414.1792686620695
 30
0.0
 10
476.3882856959233
 20
414.3430909066363
 30
0.0
 10
476.5004778369717
 20
414.5102807042417
 30
0.0
 10
476.6044806134836
 20
414.6804546876619
 30
0.0
 10
476.7004351524972
 20
414.8531914808553
 30
0.0
 10
476.7891493936175
 20
415.0297527190461
 30
0.0
 10
476.8712196618454
 20
415.2115339059746
 30
0.0
 10
476.9462162841878
 20
415.398415080466
 30
0.0
 10
477.0138153890133
 20
415.590188280131
 30
0.0
 10
477.0731786219502
 20
415.784665612789
 30
0.0
 10
477.1236850869166
 20
415.9795945624431
 30
0.0
 10
477.1654719563775
 20
416.1746158212494
 30
0.0
 10
477.1988137017275
 20
416.3693782695815
 30
0.0
 10
477.2240575297912
 20
416.5653527233783
 30
0.0
 10
477.241303881104
 20
416.7640527774792
 30
0.0
 10
477.2501871006242
 20
416.9652231331767
 30
0.0
 10
477.2504703681997
 20
417.1685604802727
 30
0.0
 10
477.24208694788
 20
417.3717237372097
 30
0.0
 10
477.2251976515054
 20
417.5723702330765
 30
0.0
 10
477.2000524678951
 20
417.7702065366148
 30
0.0
 10
477.1670280601227
 20
417.9649925434861
 30
0.0
 10
477.1259632460443
 20
418.1582430181728
 30
0.0
 10
477.0764516490852
 20
418.3514185748205
 30
0.0
 10
477.0182327157279
 20
418.5441574907841
 30
0.0
 10
476.9511832397289
 20
418.7360953114346
 30
0.0
 10
476.8760147742349
 20
418.9250020402955
 30
0.0
 10
476.7936513214145
 20
419.1087271379421
 30
0.0
 10
476.7044248400623
 20
419.2870761815859
 30
0.0
 10
476.6087683401205
 20
419.4599458523501
 30
0.0
 10
476.5060341346428
 20
419.6287081143265
 30
0.0
 10
476.3953441735058
 20
419.7945965567803
 30
0.0
 10
476.2766120322622
 20
419.9572229662117
 30
0.0
 10
476.1496905979768
 20
420.1160526151936
 30
0.0
 10
476.0165565287397
 20
420.2697768895121
 30
0.0
 10
475.9224146126512
 20
420.3672514803663
 30
0.0
 10
475.8753652079789
 20
420.4159664594205
 30
0.0
  0
SPLINE
  5
8D
330
1F
100
AcDbEntity
  8
0
  6
Continuous
 62
     7
370
    30
100
AcDbSpline
210
0.0
220
0.0
230
1.0
 70
     8
 71
     3
 72
    69
 73
    65
 74
     0
 42
0.000000001
 43
0.00000001
 40
0.0
 40
0.0
 40
0.0
 40
0.0
 40
0.0066815497730036
 40
0.0234250669312329
 40
0.0401839305123552
 40
0.0569427966738555
 40
0.0736863173540073
 40
0.0899617363216746
 40
0.1062512432241807
 40
0.122540752479941
 40
0.1388161746593679
 40
0.1555645348189427
 40
0.1723282435218799
 40
0.1890919546205766
 40
0.2058403180500895
 40
0.2221173393361147
 40
0.2384084432749293
 40
0.2546995488943655
 40
0.2709765724741297
 40
0.2877263749704607
 40
0.3044915217647676
 40
0.3212566697188071
 40
0.3380064737980412
 40
0.3542812270639118
 40
0.370570052317536
 40
0.3868588778431711
 40
0.4031336314802871
 40
0.4198808442071481
 40
0.4366433924903356
 40
0.4534059401901497
 40
0.4701531521207709
 40
0.4864227634989229
 40
0.5027064354989406
 40
0.5189901062462035
 40
0.5352597159145761
 40
0.5520014444537799
 40
0.568758499146888
 40
0.5855155517717882
 40
0.6022572774881283
 40
0.6185211271676407
 40
0.634799030374603
 40
0.6510769313547868
 40
0.6673407779951606
 40
0.6840765317314068
 40
0.7008276056718755
 40
0.7175786769663052
 40
0.7343144270910137
 40
0.7505744181498101
 40
0.7668484630107428
 40
0.7831225056454562
 40
0.7993824936658734
 40
0.8161143979551877
 40
0.8328616225521402
 40
0.8496088450832351
 40
0.8663407465528922
 40
0.8826004717915513
 40
0.8988742583601902
 40
0.9151480436775968
 40
0.9314077672085549
 40
0.9481396332603189
 40
0.964886825735446
 40
0.9816340176297789
 40
0.9983658828888258
 40
1.0
 40
1.0
 40
1.0
 40
1.0
 10
446.0000000000052
 20
421.5797857335124
 30
0.0
 10
445.9742858168757
 20
421.5714831155359
 30
0.0
 10
445.8841336094754
 20
421.54237469183
 30
0.0
 10
445.7323919979784
 20
421.4839512955777
 30
0.0
 10
445.5452191191241
 20
421.4046712903301
 30
0.0
 10
445.3617787588684
 20
421.3169968291197
 30
0.0
 10
445.1839311775313
 20
421.2226161521231
 30
0.0
 10
445.0119053155342
 20
421.1217029394077
 30
0.0
 10
444.8457609896564
 20
421.0147397913065
 30
0.0
 10
444.68419419383
 20
420.9009843491391
 30
0.0
 10
444.5260193343936
 20
420.7794911255987
 30
0.0
 10
444.3716720926001
 20
420.6501621597369
 30
0.0
 10
444.2215360815635
 20
420.5130280844901
 30
0.0
 10
444.0773833659724
 20
420.3696216702683
 30
0.0
 10
443.9408247739606
 20
420.2216353749144
 30
0.0
 10
443.811909040109
 20
420.0694506920649
 30
0.0
 10
443.6905599998305
 20
419.9135067299383
 30
0.0
 10
443.5757771619714
 20
419.7526709080038
 30
0.0
 10
443.4667573362411
 20
419.5856563887979
 30
0.0
 10
443.3639433942566
 20
419.4125155777212
 30
0.0
 10
443.2676873059127
 20
419.2334040329892
 30
0.0
 10
443.1791532501961
 20
419.0503539512633
 30
0.0
 10
443.0993067568267
 20
418.8655091149201
 30
0.0
 10
443.0280655896479
 20
418.6792464004308
 30
0.0
 10
442.9652106666661
 20
418.4919554206822
 30
0.0
 10
442.9101677866082
 20
418.3022219329379
 30
0.0
 10
442.8626055787356
 20
418.1085667229174
 30
0.0
 10
442.8229244441405
 20
417.9111856097127
 30
0.0
 10
442.7914050156274
 20
417.7103416532968
 30
0.0
 10
442.7684729263434
 20
417.5083362721647
 30
0.0
 10
442.7543304443815
 20
417.3075220372554
 30
0.0
 10
442.7487739321814
 20
417.1082273340116
 30
0.0
 10
442.7514665324273
 20
416.9107471478703
 30
0.0
 10
442.7623346155821
 20
416.7135462592964
 30
0.0
 10
442.7815552752626
 20
416.5151201683442
 30
0.0
 10
442.8094414711824
 20
416.3157859146119
 30
0.0
 10
442.8461709888729
 20
416.1158843957234
 30
0.0
 10
442.8913841024187
 20
415.9177267250744
 30
0.0
 10
442.9444929167764
 20
415.7236008663763
 30
0.0
 10
443.0051966764966
 20
415.5337492104771
 30
0.0
 10
443.0730799838011
 20
415.3483385922383
 30
0.0
 10
443.1485820899078
 20
415.1658946398055
 30
0.0
 10
443.2323679357403
 20
414.9850567536672
 30
0.0
 10
443.3246279448798
 20
414.8062275335704
 30
0.0
 10
443.4254170852297
 20
414.6297873871784
 30
0.0
 10
443.5336315012681
 20
414.4577975245627
 30
0.0
 10
443.6479641592614
 20
414.2922155581351
 30
0.0
 10
443.7680522024534
 20
414.1331714233634
 30
0.0
 10
443.8934494162262
 20
413.9806859182278
 30
0.0
 10
444.0250531293743
 20
413.8335197679592
 30
0.0
 10
444.1639411861916
 20
413.6906088885308
 30
0.0
 10
444.3101600355076
 20
413.5523962562626
 30
0.0
 10
444.4636355776867
 20
413.4192590117145
 30
0.0
 10
444.6226438284044
 20
413.2927771849635
 30
0.0
 10
444.7853150729522
 20
413.1743571088791
 30
0.0
 10
444.9512652180449
 20
413.0640034052774
 30
0.0
 10
445.1200668536984
 20
412.9615882977374
 30
0.0
 10
445.2929660092206
 20
412.8662524631174
 30
0.0
 10
445.4713273420465
 20
412.7773278222477
 30
0.0
 10
445.6550679180895
 20
412.6953244144251
 30
0.0
 10
445.843917167055
 20
412.6202841501955
 30
0.0
 10
446.0360073563011
 20
412.5542117408538
 30
0.0
 10
446.1715859978627
 20
412.5115609648924
 30
0.0
 10
446.24359314874
 20
412.4933316721294
 30
0.0
 10
446.2500000000048
 20
412.4917097170045
 30
0.0
  0
ARC
  5
8E
330
1F
100
AcDbEntity
  8
0
  6
Continuous
 62
     7
370
    30
100
AcDbCircle
 10
460.0
 20
466.9738997765
 30
0.0
 40
14.10000000000002
100
AcDbArc
 50
90.0
 51
186.8278674816
  0
ARC
  5
8F
330
1F
100
AcDbEntity
  8
0
  6
Continuous
 62
     7
370
    30
100
AcDbCircle
 10
460.0
 20
466.9738997765
 30
0.0
 40
14.10000000000002
100
AcDbArc
 50
353.1721325186
 51
90.0
  0
SPLINE
  5
90
330
1F
100
AcDbEntity
  8
0
  6
Continuous
 62
     7
370
    30
100
AcDbSpline
210
0.0
220
0.0
230
1.0
 70
     8
 71
     3
 72
    21
 73
    17
 74
     0
 42
0.000000001
 43
0.00000001
 40
0.0
 40
0.0
 40
0.0
 40
0.0
 40
0.0737534642358895
 40
0.1477420268318878
 40
0.2214952827863015
 40
0.2952480559295249
 40
0.3692360739345959
 40
0.4429893081949771
 40
0.5167640832959774
 40
0.5907736140099079
 40
0.6645491677734642
 40
0.7384567533046281
 40
0.812599323126756
 40
0.8865075761154266
 40
0.9432537679759723
 40
1.0
 40
1.0
 40
1.0
 40
1.0
 10
465.9186455200095
 20
382.2074910125746
 30
0.0
 10
465.9154528954913
 20
382.2082449919491
 30
0.0
 10
465.9090574695662
 20
382.2097553541014
 30
0.0
 10
465.8837447114236
 20
382.2108694970264
 30
0.0
 10
465.8473784642298
 20
382.2111417035204
 30
0.0
 10
465.7988264642296
 20
382.2104634750368
 30
0.0
 10
465.7394423832574
 20
382.2089220342999
 30
0.0
 10
465.6698530670079
 20
382.2065506966538
 30
0.0
 10
465.5906248166685
 20
382.2033766488211
 30
0.0
 10
465.5030955463632
 20
382.1994936512338
 30
0.0
 10
465.4082733258977
 20
382.1949691386998
 30
0.0
 10
465.3071238483169
 20
382.1898641091099
 30
0.0
 10
465.2011440091816
 20
382.1842809657225
 30
0.0
 10
465.1001129974655
 20
382.1787620407283
 30
0.0
 10
465.0060715300201
 20
382.1734889907286
 30
0.0
 10
464.9487011734828
 20
382.170181196519
 30
0.0
 10
464.9200159850629
 20
382.1685272988289
 30
0.0
  0
ARC
  5
91
330
1F
100
AcDbEntity
  8
0
  6
Continuous
 62
     7
370
    30
100
AcDbCircle
 10
460.0
 20
466.9738997766
 30
0.0
 40
84.94797089044819
100
AcDbArc
 50
266.6796853455
 51
273.3203146545
  0
SPLINE
  5
92
330
1F
100
AcDbEntity
  8
0
  6
Continuous
 62
     7
370
    30
100
AcDbSpline
210
0.0
220
0.0
230
1.0
 70
     8
 71
     3
 72
    21
 73
    17
 74
     0
 42
0.000000001
 43
0.00000001
 40
0.0
 40
0.0
 40
0.0
 40
0.0
 40
0.0737534642337071
 40
0.147742026824461
 40
0.2214952827705946
 40
0.2952480559145557
 40
0.3692360739203631
 40
0.4429893081814822
 40
0.5167640832838606
 40
0.590773613999173
 40
0.6645491677641072
 40
0.7384567532966525
 40
0.8125993231201645
 40
0.8865075761102155
 40
0.9432537679733665
 40
1.0
 40
1.0
 40
1.0
 40
1.0
 10
454.0813544801649
 20
382.2074910127374
 30
0.0
 10
454.0845471046721
 20
382.2082449921016
 30
0.0
 10
454.0909425305751
 20
382.2097553542332
 30
0.0
 10
454.116255288612
 20
382.210869497059
 30
0.0
 10
454.152621535763
 20
382.2111417035115
 30
0.0
 10
454.2011735357714
 20
382.2104634750392
 30
0.0
 10
454.2605576167399
 20
382.2089220342993
 30
0.0
 10
454.3301469329894
 20
382.2065506966541
 30
0.0
 10
454.4093751833279
 20
382.2033766488212
 30
0.0
 10
454.496904453633
 20
382.199493651234
 30
0.0
 10
454.5917266740982
 20
382.1949691387001
 30
0.0
 10
454.6928761516787
 20
382.1898641091101
 30
0.0
 10
454.7988559908138
 20
382.1842809657227
 30
0.0
 10
454.8998870025306
 20
382.1787620407284
 30
0.0
 10
454.9939284699776
 20
382.1734889907287
 30
0.0
 10
455.0512988265163
 20
382.170181196519
 30
0.0
 10
455.079984014937
 20
382.1685272988289
 30
0.0
  0
LINE
  5
93
330
1F
100
AcDbEntity
  8
0
  6
Continuous
 62
     7
370
    30
100
AcDbLine
 10
454.0268977614
 20
382.1840298059
 30
0.0
 11
454.0813543009
 21
382.2074909268
 31
0.0
  0
LWPOLYLINE
  5
94
330
1F
100
AcDbEntity
  8
0
  6
Continuous
 62
     7
370
    30
100
AcDbPolyline
 90
        9
 70
   128
 43
0.0
 10
465.9731101725
 20
382.1840303648
 10
465.9663020894
 20
382.1869616939
 10
465.9594940068
 20
382.1898933807
 10
465.9526859246
 20
382.1928254252
 10
465.9458778428
 20
382.1957578275
 10
465.9390697614
 20
382.1986905874
 10
465.9322616805
 20
382.2016237051
 10
465.9254535999
 20
382.2045571805
 10
465.9186455198
 20
382.2074910126
  0
LINE
  5
95
330
1F
100
AcDbEntity
  8
0
  6
Continuous
 62
     7
370
    30
100
AcDbLine
 10
465.9737979124
 20
382.1845400097
 30
0.0
 11
465.9731101725
 21
382.1840303648
 31
0.0
  0
LINE
  5
96
330
1F
100
AcDbEntity
  8
0
  6
Continuous
 62
     7
370
    30
100
AcDbLine
 10
454.0268898486
 20
382.1840303738
 30
0.0
 11
454.0262028872
 21
382.1842798475
 31
0.0
  0
ARC
  5
97
330
1F
100
AcDbEntity
  8
0
  6
Continuous
 62
     7
370
    30
100
AcDbCircle
 10
472.5227449306
 20
417.0078332343
 30
0.0
 40
4.531732976281016
100
AcDbArc
 50
285.7126884605
 51
70.9750313584
  0
ARC
  5
98
330
1F
100
AcDbEntity
  8
0
  6
Continuous
 62
     7
370
    30
100
AcDbCircle
 10
472.5230926676
 20
417.1933456193
 30
0.0
 40
4.700016608720216
100
AcDbArc
 50
294.5983551601
 51
12.9774064094
  0
ARC
  5
99
330
1F
100
AcDbEntity
  8
0
  6
Continuous
 62
     7
370
    30
100
AcDbCircle
 10
447.5149645076
 20
417.0078338898
 30
0.0
 40
4.531709039445211
100
AcDbArc
 50
109.5301671047
 51
253.7913366542
  0
ARC
  5
9A
330
1F
100
AcDbEntity
  8
0
  6
Continuous
 62
     7
370
    30
100
AcDbCircle
 10
447.5140916553
 20
417.1929379614
 30
0.0
 40
4.699415811065784
100
AcDbArc
 50
148.7695310409
 51
245.4057052246
  0
ARC
  5
9B
330
1F
100
AcDbEntity
  8
0
  6
Continuous
 62
     7
370
    30
100
AcDbCircle
 10
861.2143801947
 20
417.3738997765
 30
0.0
 40
0.4000000000000909
100
AcDbArc
 50
180.0
 51
270.0
  0
ARC
  5
9C
330
1F
100
AcDbEntity
  8
0
  6
Continuous
 62
     7
370
    30
100
AcDbCircle
 10
888.4143801947
 20
417.3738997765
 30
0.0
 40
0.4000000000000341
100
AcDbArc
 50
270.0
 51
0.0
  0
LINE
  5
9D
330
1F
100
AcDbEntity
  8
0
  6
Continuous
 62
     7
370
    30
100
AcDbLine
 10
659.9139344988
 20
452.9738997765
 30
0.0
 11
833.8143801947
 21
452.9738997765
 31
0.0
  0
LINE
  5
9E
330
1F
100
AcDbEntity
  8
0
  6
Continuous
 62
     7
370
    30
100
AcDbLine
 10
643.1930489524
 20
452.9738997765
 30
0.0
 11
654.315018102
 21
452.9738997765
 31
0.0
  0
LINE
  5
9F
330
1F
100
AcDbEntity
  8
0
  6
Continuous
 62
     7
370
    30
100
AcDbLine
 10
833.8143801947
 20
480.9738997765
 30
0.0
 11
643.1930489524
 21
480.9738997765
 31
0.0
  0
ARC
  5
A0
330
1F
100
AcDbEntity
  8
0
  6
Continuous
 62
     7
370
    30
100
AcDbCircle
 10
833.8143801947
 20
425.9738997765
 30
0.0
 40
55.00000000000006
100
AcDbArc
 50
0.0
 51
90.0
  0
ARC
  5
A1
330
1F
100
AcDbEntity
  8
0
  6
Continuous
 62
     7
370
    30
100
AcDbCircle
 10
833.8143801947
 20
425.9738997765
 30
0.0
 40
27.00000000000006
100
AcDbArc
 50
0.0
 51
90.0
  0
LINE
  5
A2
330
1F
100
AcDbEntity
  8
0
  6
Continuous
 62
     7
370
    30
100
AcDbLine
 10
888.8143801947
 20
417.3738997765
 30
0.0
 11
888.8143801947
 21
425.9738997765
 31
0.0
  0
LINE
  5
A3
330
1F
100
AcDbEntity
  8
0
  6
Continuous
 62
     7
370
    30
100
AcDbLine
 10
860.8143801947
 20
425.9738997765
 30
0.0
 11
860.8143801947
 21
417.3738997765
 31
0.0
  0
ARC
  5
A4
330
1F
100
AcDbEntity
  8
0
  6
Continuous
 62
     7
370
    30
100
AcDbCircle
 10
888.3643801947
 20
409.6738997765
 30
0.0
 40
0.2000000000000455
100
AcDbArc
 50
270.0
 51
0.0
  0
ARC
  5
A5
330
1F
100
AcDbEntity
  8
0
  6
Continuous
 62
     7
370
    30
100
AcDbCircle
 10
861.2643801947
 20
409.6738997765
 30
0.0
 40
0.2000000000000455
100
AcDbArc
 50
180.0
 51
270.0
  0
ARC
  5
A6
330
1F
100
AcDbEntity
  8
0
  6
Continuous
 62
     7
370
    30
100
AcDbCircle
 10
861.2643801947
 20
416.7738997765
 30
0.0
 40
0.1999999999999886
100
AcDbArc
 50
90.0
 51
180.0
  0
ARC
  5
A7
330
1F
100
AcDbEntity
  8
0
  6
Continuous
 62
     7
370
    30
100
AcDbCircle
 10
888.3643801947
 20
416.7738997765
 30
0.0
 40
0.2000000000000455
100
AcDbArc
 50
0.0
 51
90.0
  0
LINE
  5
A8
330
1F
100
AcDbEntity
  8
0
  6
Continuous
 62
     7
370
    30
100
AcDbLine
 10
861.0643801947
 20
416.7738997765
 30
0.0
 11
861.0643801947
 21
409.6738997765
 31
0.0
  0
LINE
  5
A9
330
1F
100
AcDbEntity
  8
0
  6
Continuous
 62
     7
370
    30
100
AcDbLine
 10
888.5643801947
 20
409.6738997765
 30
0.0
 11
888.5643801947
 21
416.7738997765
 31
0.0
  0
ARC
  5
AA
330
1F
100
AcDbEntity
  8
0
  6
Continuous
 62
     7
370
    30
100
AcDbCircle
 10
629.7455892825
 20
551.474071114
 30
0.0
 40
0.5
100
AcDbArc
 50
88.5
 51
180.0
  0
LINE
  5
AB
330
1F
100
AcDbEntity
  8
0
  6
Continuous
 62
     7
370
    30
100
AcDbLine
 10
631.7455892825
 20
382.0259288863
 30
0.0
 11
639.4857262135
 21
382.2286115046
 31
0.0
  0
LINE
  5
AC
330
1F
100
AcDbEntity
  8
0
  6
Continuous
 62
     7
370
    30
100
AcDbLine
 10
639.4857262135
 20
551.7191880485
 30
0.0
 11
629.7586777566
 21
551.9738997762
 31
0.0
  0
ARC
  5
AD
330
1F
100
AcDbEntity
  8
0
  6
Continuous
 62
     7
370
    30
100
AcDbCircle
 10
639.4333723169
 20
384.2279261358
 30
0.0
 40
2.000000000000045
100
AcDbArc
 50
271.4999999859
 51
357.4907349552
  0
ARC
  5
AE
330
1F
100
AcDbEntity
  8
0
  6
Continuous
 62
     7
370
    30
100
AcDbCircle
 10
639.4333723169
 20
549.7198733798
 30
0.0
 40
1.99999999999998
100
AcDbArc
 50
2.5092650448
 51
88.5000000141
  0
ARC
  5
AF
330
1F
100
AcDbEntity
  8
0
  6
Continuous
 62
     7
370
    30
100
AcDbCircle
 10
-1248.7544106775
 20
466.9738997578
 30
0.0
 40
1892.0
100
AcDbArc
 50
357.4907349552
 51
358.3969241975
  0
ARC
  5
B0
330
1F
100
AcDbEntity
  8
0
  6
Continuous
 62
     7
370
    30
100
AcDbCircle
 10
-1248.7544106775
 20
466.9738997578
 30
0.0
 40
1892.0
100
AcDbArc
 50
358.6240295152
 51
359.5730031877
  0
ARC
  5
B1
330
1F
100
AcDbEntity
  8
0
  6
Continuous
 62
     7
370
    30
100
AcDbCircle
 10
-1248.7544106775
 20
466.9738997578
 30
0.0
 40
1892.000000000069
100
AcDbArc
 50
0.4269968128
 51
2.5092650448
  0
LINE
  5
B2
330
1F
100
AcDbEntity
  8
0
  6
Continuous
 62
     7
370
    30
100
AcDbLine
 10
642.7136722296
 20
421.5404776761
 30
0.0
 11
642.6475545393
 21
421.5453330558
 31
0.0
  0
SPLINE
  5
B3
330
1F
100
AcDbEntity
  8
0
  6
Continuous
 62
     7
370
    30
100
AcDbSpline
210
0.0
220
0.0
230
1.0
 70
     8
 71
     3
 72
    51
 73
    47
 74
     0
 42
0.000000001
 43
0.00000001
 40
0.0
 40
0.0
 40
0.0
 40
0.0
 40
0.0171035190509713
 40
0.0326050366045907
 40
0.0470833902023647
 40
0.0611159074067259
 40
0.075258027033279
 40
0.0897241048706139
 40
0.1044444273499109
 40
0.1456067747161973
 40
0.1871231454653938
 40
0.2370380845185618
 40
0.2876861503622571
 40
0.3393322235058969
 40
0.378933952033235
 40
0.4195281236121423
 40
0.4613834694305852
 40
0.5047317212673185
 40
0.5319924394177078
 40
0.5579430033855264
 40
0.5816759759600597
 40
0.603821192765528
 40
0.6255958529210678
 40
0.6459391162136806
 40
0.6676562750617904
 40
0.6914325344151006
 40
0.7178189853329003
 40
0.7304159785264791
 40
0.743359339185078
 40
0.756564456007993
 40
0.7699465766625873
 40
0.7834208449972849
 40
0.7970369717069663
 40
0.8121251801771557
 40
0.8207651273330535
 40
0.8305142417969834
 40
0.8416211762189502
 40
0.8543345834998837
 40
0.8689030891537687
 40
0.8855752810693102
 40
0.9003125746962276
 40
0.9166225607568201
 40
0.9346257744509494
 40
0.954442741475729
 40
0.9761939795927445
 40
0.9999999999999999
 40
0.9999999999999999
 40
0.9999999999999999
 40
0.9999999999999999
 10
643.0993107783779
 20
416.9863836009096
 30
0.0
 10
643.1000893246708
 20
417.0125103943114
 30
0.0
 10
643.1015734947003
 20
417.0623168144223
 30
0.0
 10
643.1023360816275
 20
417.1342705414762
 30
0.0
 10
643.1020811345156
 20
417.2015323827279
 30
0.0
 10
643.100962039855
 20
417.2667071567585
 30
0.0
 10
643.0993072885902
 20
417.3318507376272
 30
0.0
 10
643.0972108516481
 20
417.3980334471848
 30
0.0
 10
643.0930482104717
 20
417.5054613835957
 30
0.0
 10
643.085177044961
 20
417.6541139376143
 30
0.0
 10
643.0696218821982
 20
417.8561667407219
 30
0.0
 10
643.0472856769181
 20
418.0721722944485
 30
0.0
 10
643.0171040899771
 20
418.302839492822
 30
0.0
 10
642.983966882268
 20
418.5171555435554
 30
0.0
 10
642.9501577960485
 20
418.7157857063801
 30
0.0
 10
642.9168634113554
 20
418.8993137745402
 30
0.0
 10
642.8811405953539
 20
419.0882122301948
 30
0.0
 10
642.8490449553234
 20
419.2570585616274
 30
0.0
 10
642.8219161248566
 20
419.4021074347185
 30
0.0
 10
642.8007448533607
 20
419.5177737520014
 30
0.0
 10
642.7817017413204
 20
419.6258804093879
 30
0.0
 10
642.764786823645
 20
419.7278778250528
 30
0.0
 10
642.7498928511493
 20
419.8249519409049
 30
0.0
 10
642.7362155908769
 20
419.921545524167
 30
0.0
 10
642.7240060844917
 20
420.0214226760846
 30
0.0
 10
642.7132836289093
 20
420.1307581409586
 30
0.0
 10
642.7063927360033
 20
420.2264301559873
 30
0.0
 10
642.7017889473624
 20
420.3056521895427
 30
0.0
 10
642.6988212051464
 20
420.3647899006801
 30
0.0
 10
642.6962268140686
 20
420.4251458804958
 30
0.0
 10
642.6939998307406
 20
420.4863284795133
 30
0.0
 10
642.6921464596987
 20
420.5481516765524
 30
0.0
 10
642.6905539771881
 20
420.6125907726388
 30
0.0
 10
642.6898844786318
 20
420.6696592933983
 30
0.0
 10
642.689869878545
 20
420.720820190865
 30
0.0
 10
642.6901763822863
 20
420.7658957591995
 30
0.0
 10
642.6908536901756
 20
420.8171929631237
 30
0.0
 10
642.6919488218825
 20
420.8758494350217
 30
0.0
 10
642.6935112425082
 20
420.943002819409
 30
0.0
 10
642.6954126860228
 20
421.0132415275972
 30
0.0
 10
642.6975874417208
 20
421.0861348073511
 30
0.0
 10
642.6999817038685
 20
421.1610563564491
 30
0.0
 10
642.7027735066098
 20
421.2437318566242
 30
0.0
 10
642.7059890273998
 20
421.3347130724438
 30
0.0
 10
642.7096447037046
 20
421.4345521361388
 30
0.0
 10
642.7122899511625
 20
421.5041232014756
 30
0.0
 10
642.7136722295744
 20
421.540477676148
 30
0.0
  0
SPLINE
  5
B4
330
1F
100
AcDbEntity
  8
0
  6
Continuous
 62
     7
370
    30
100
AcDbSpline
210
0.0
220
0.0
230
1.0
 70
     8
 71
     3
 72
    38
 73
    34
 74
     0
 42
0.000000001
 43
0.00000001
 40
0.0
 40
0.0
 40
0.0
 40
0.0
 40
0.0093370769488586
 40
0.0285385988328705
 40
0.0473941245394371
 40
0.0657522667273869
 40
0.0834619734475034
 40
0.1003727122045896
 40
0.1251754975598555
 40
0.1481358232655132
 40
0.1696864889057788
 40
0.1902558643141861
 40
0.2187892201645522
 40
0.2478342182454523
 40
0.2790241989592352
 40
0.3131342920881448
 40
0.3489064228592277
 40
0.3847980953774714
 40
0.4198907203186648
 40
0.4542106693043281
 40
0.5240642011837845
 40
0.5917894458898785
 40
0.6579927416945248
 40
0.7230756814086485
 40
0.7873403894420399
 40
0.851007442969157
 40
0.872190519659712
 40
0.8930493487391818
 40
0.9134480604202078
 40
0.9334505200222208
 40
0.9538759291312169
 40
0.9757246151797173
 40
1.0
 40
1.0
 40
1.0
 40
1.0
 10
642.4255012476763
 20
413.5159580810444
 30
0.0
 10
642.4266864524323
 20
413.5269182583401
 30
0.0
 10
642.4303090083188
 20
413.5604178326384
 30
0.0
 10
642.4368299137833
 20
413.6159945705468
 30
0.0
 10
642.4450042384996
 20
413.6820994778943
 30
0.0
 10
642.4535272390531
 20
413.7463845213275
 30
0.0
 10
642.4623291223653
 20
413.8083136651599
 30
0.0
 10
642.4729608552308
 20
413.8776644458136
 30
0.0
 10
642.485756337003
 20
413.9529490134737
 30
0.0
 10
642.5010343945498
 20
414.0333519118017
 30
0.0
 10
642.5166851108966
 20
414.108583136066
 30
0.0
 10
642.5347852453534
 20
414.1900159114757
 30
0.0
 10
642.5557398211135
 20
414.2798743027553
 30
0.0
 10
642.5807914645047
 20
414.381645111214
 30
0.0
 10
642.608505019872
 20
414.4895346476965
 30
0.0
 10
642.6389584701155
 20
414.6049172801316
 30
0.0
 10
642.6712895360707
 20
414.7255443429202
 30
0.0
 10
642.7041843557537
 20
414.8472208382769
 30
0.0
 10
642.7366823598687
 20
414.9672285225568
 30
0.0
 10
642.7793715449324
 20
415.1260182117263
 30
0.0
 10
642.830660092181
 20
415.3223929944634
 30
0.0
 10
642.8878910832855
 20
415.5560997746367
 30
0.0
 10
642.9392204957599
 20
415.7854134619805
 30
0.0
 10
642.9838888326103
 20
416.0119622488293
 30
0.0
 10
643.0217293384093
 20
416.2367169750693
 30
0.0
 10
643.0459575837701
 20
416.4111235492783
 30
0.0
 10
643.0609428520606
 20
416.5350292393389
 30
0.0
 10
643.0692138807382
 20
416.6082867263875
 30
0.0
 10
643.0767891725073
 20
416.6802174599172
 30
0.0
 10
643.0837962229963
 20
416.7516925579795
 30
0.0
 10
643.0899860198238
 20
416.8249621249309
 30
0.0
 10
643.0953740402404
 20
416.9033560103401
 30
0.0
 10
643.0979532986603
 20
416.9577537387603
 30
0.0
 10
643.0993107783778
 20
416.9863836009098
 30
0.0
  0
LINE
  5
B5
330
1F
100
AcDbEntity
  8
0
  6
Continuous
 62
     7
370
    30
100
AcDbLine
 10
861.2143801947
 20
416.9738997765
 30
0.0
 11
888.4143801947
 21
416.9738997765
 31
0.0
  0
SPLINE
  5
B6
330
1F
100
AcDbEntity
  8
0
  6
Continuous
 62
     7
370
    30
100
AcDbSpline
210
0.0
220
0.0
230
1.0
 70
     8
 71
     3
 72
    64
 73
    60
 74
     0
 42
0.000000001
 43
0.00000001
 40
0.0
 40
0.0
 40
0.0
 40
0.0
 40
0.0029133062583526
 40
0.0197094305531289
 40
0.034932705865832
 40
0.0501678249324826
 40
0.0653914119464061
 40
0.0810477058887772
 40
0.0967163942504233
 40
0.1123733106829943
 40
0.127802213395861
 40
0.1432421785119196
 40
0.1586717746361846
 40
0.1744900351900865
 40
0.1903192430883758
 40
0.2061382373824945
 40
0.2227256450700982
 40
0.2393245927137664
 40
0.2559127340430212
 40
0.272906795471215
 40
0.2899122740312051
 40
0.3069069254258138
 40
0.3249724025391608
 40
0.343050714899994
 40
0.3611166763227486
 40
0.3796477935896426
 40
0.3981921275443605
 40
0.41672353984039
 40
0.4358879881278014
 40
0.4550666669126491
 40
0.474231255158818
 40
0.4939276969591676
 40
0.5136394183532463
 40
0.5333358500130402
 40
0.5529218192016492
 40
0.5725228465218333
 40
0.5921086365826352
 40
0.6122715662676258
 40
0.6324512111513065
 40
0.6526136666352935
 40
0.6720349674867956
 40
0.6914717935396607
 40
0.7108923469368127
 40
0.7309326826974428
 40
0.7509912122040275
 40
0.7710302192688
 40
0.7895221766846556
 40
0.8080298237687805
 40
0.8265204905601654
 40
0.8456593115011733
 40
0.8648174452184714
 40
0.8839546211754771
 40
0.9007809778968829
 40
0.917621876197655
 40
0.9344473929337388
 40
0.9518559711818834
 40
0.9692818260076322
 40
0.986689908240476
 40
1.0
 40
1.0
 40
1.0
 40
1.0
 10
654.3150181020469
 20
452.9740081238332
 30
0.0
 10
654.3148224334157
 20
452.9739755419703
 30
0.0
 10
654.3134986737566
 20
452.9737551154488
 30
0.0
 10
654.3191270366221
 20
452.9746898544463
 30
0.0
 10
654.3317175177059
 20
452.9767849763414
 30
0.0
 10
654.3515337344385
 20
452.9800598279028
 30
0.0
 10
654.3782910831811
 20
452.9844444490047
 30
0.0
 10
654.4123914077728
 20
452.9899793051459
 30
0.0
 10
654.4537585309791
 20
452.9966020287321
 30
0.0
 10
654.50166605698
 20
453.004148769389
 30
0.0
 10
654.5558363318493
 20
453.0125273932748
 30
0.0
 10
654.6158742587207
 20
453.0216169647467
 30
0.0
 10
654.6823597005109
 20
453.0314427278172
 30
0.0
 10
654.7552530497403
 20
453.0419245575334
 30
0.0
 10
654.8343966162826
 20
453.0529566390409
 30
0.0
 10
654.9202738863836
 20
453.0645215350345
 30
0.0
 10
655.0129296391038
 20
453.076517371057
 30
0.0
 10
655.1122874975996
 20
453.0888209352796
 30
0.0
 10
655.2174162520943
 20
453.1012138125661
 30
0.0
 10
655.3281502880131
 20
453.1135589481734
 30
0.0
 10
655.4442391672318
 20
453.1257216108636
 30
0.0
 10
655.5669729286948
 20
453.1377226716074
 30
0.0
 10
655.6963237698629
 20
453.1493904433556
 30
0.0
 10
655.8321385000278
 20
453.1605559367469
 30
0.0
 10
655.9726036162609
 20
453.1709470456919
 30
0.0
 10
656.1174331556932
 20
453.1804005599673
 30
0.0
 10
656.2662631608722
 20
453.1887913936858
 30
0.0
 10
656.4191659787641
 20
453.1960249080824
 30
0.0
 10
656.5758093120504
 20
453.2019409754877
 30
0.0
 10
656.735776392731
 20
453.2064351372421
 30
0.0
 10
656.8983438600143
 20
453.2094146818834
 30
0.0
 10
657.0630682376244
 20
453.2107619940538
 30
0.0
 10
657.2294441399067
 20
453.2104367893918
 30
0.0
 10
657.3951568479505
 20
453.2084348949593
 30
0.0
 10
657.5596882911599
 20
453.2047624764095
 30
0.0
 10
657.7225453262178
 20
453.1995081768133
 30
0.0
 10
657.8851157383787
 20
453.1926654276606
 30
0.0
 10
658.0467971788084
 20
453.1842430952066
 30
0.0
 10
658.2069639628
 20
453.1743371286532
 30
0.0
 10
658.3615931605096
 20
453.1633007127231
 30
0.0
 10
658.5102632041504
 20
453.1513159668414
 30
0.0
 10
658.6526842659108
 20
453.1386068592277
 30
0.0
 10
658.7916821389811
 20
453.125047014025
 30
0.0
 10
658.9265006600873
 20
453.1107847611287
 30
0.0
 10
659.0564009615696
 20
453.0960267898795
 30
0.0
 10
659.1762460616901
 20
453.0815233557954
 30
0.0
 10
659.2860345456302
 20
453.0674961292154
 30
0.0
 10
659.3860175778976
 20
453.05412264039
 30
0.0
 10
659.4798004243778
 20
453.0410552407023
 30
0.0
 10
659.5665270425989
 20
453.0285180451247
 30
0.0
 10
659.6454578738798
 20
453.016730260325
 30
0.0
 10
659.7123343121245
 20
453.0064562877936
 30
0.0
 10
659.7679149318983
 20
452.9977303563785
 30
0.0
 10
659.8132918905444
 20
452.9904778953884
 30
0.0
 10
659.8510633897738
 20
452.9843492769235
 30
0.0
 10
659.8806520896405
 20
452.9794978213515
 30
0.0
 10
659.9013441760321
 20
452.9760730681029
 30
0.0
 10
659.9127898030832
 20
452.9741639894422
 30
0.0
 10
659.9135884482856
 20
452.9740323456955
 30
0.0
 10
659.9139344988331
 20
452.9739753048588
 30
0.0
  0
SPLINE
  5
B7
330
1F
100
AcDbEntity
  8
0
  6
Continuous
 62
     7
370
    30
100
AcDbSpline
210
0.0
220
0.0
230
1.0
 70
    24
 71
     3
 72
   138
 73
   134
 74
     0
 42
0.000000001
 43
0.00000001
 40
0.0
 40
0.0
 40
0.0
 40
0.0
 40
0.005136179829824
 40
0.010683576325586
 40
0.0162229141963326
 40
0.0217558583240133
 40
0.0272840793672084
 40
0.0328092522688877
 40
0.0383330547448204
 40
0.043857165759403
 40
0.0499360315600611
 40
0.0560195335893103
 40
0.0621098984599118
 40
0.06813421465295
 40
0.0738868324824503
 40
0.0824334536823862
 40
0.0909691829001715
 40
0.0995001873077087
 40
0.108032644322038
 40
0.1165727282079989
 40
0.125126596714998
 40
0.1342774287473081
 40
0.1434105485838217
 40
0.1525334729206239
 40
0.1616537436624512
 40
0.1673886320832666
 40
0.1731273274012688
 40
0.1788716986885225
 40
0.1846998778935815
 40
0.1907992614984313
 40
0.1998594385499058
 40
0.2089068545700657
 40
0.2179488590896536
 40
0.2269928148323149
 40
0.2360460797611017
 40
0.2451159891828628
 40
0.2511364762781461
 40
0.2571472164903525
 40
0.2631503371301701
 40
0.2691479736160861
 40
0.2751422672276462
 40
0.2811353628275343
 40
0.2905556194173139
 40
0.2999865374199533
 40
0.3094364089233395
 40
0.3176695992475571
 40
0.3258855761228153
 40
0.3340897939989419
 40
0.3422877307971438
 40
0.3504848770310387
 40
0.3586867248019121
 40
0.3668987567780723
 40
0.3751264352685451
 40
0.3845341841910517
 40
0.3939204662850576
 40
0.4032934318548845
 40
0.4126612659622749
 40
0.422032167115289
 40
0.4314143257816671
 40
0.4408159030072265
 40
0.4488766400024512
 40
0.4569211878321648
 40
0.4649546669503017
 40
0.47298221899169
 40
0.4810089969811122
 40
0.4890401554333149
 40
0.4970808404387086
 40
0.5051361798298306
 40
0.5106835763261922
 40
0.5162229141974214
 40
0.5217558583254673
 40
0.5272840793689088
 40
0.5328092522707162
 40
0.5383330547466582
 40
0.5438571657611321
 40
0.5499360315615327
 40
0.5560195335903809
 40
0.5621098984604382
 40
0.5681342146530437
 40
0.5738868324829172
 40
0.5824334536832505
 40
0.5909691829012439
 40
0.5995001873087978
 40
0.6080326443229538
 40
0.6165727282085507
 40
0.6251265967149953
 40
0.6342774287471307
 40
0.643410548583536
 40
0.6525334729202936
 40
0.6616537436621406
 40
0.667388632083001
 40
0.6731273274010717
 40
0.6788716986884183
 40
0.6846998778936579
 40
0.6907992614988783
 40
0.6998594385507426
 40
0.7089068545711058
 40
0.7179488590907108
 40
0.726992814833205
 40
0.7360460797616426
 40
0.7451159891828792
 40
0.7511364762784474
 40
0.7571472164908817
 40
0.763150337130869
 40
0.7691479736168957
 40
0.7751422672285081
 40
0.7811353628283874
 40
0.7905556194180301
 40
0.7999865374203787
 40
0.8094364089233205
 40
0.8176695992481005
 40
0.8258855761237595
 40
0.8340897940001247
 40
0.8422877307984057
 40
0.850484877032222
 40
0.8586867248028609
 40
0.8668987567786347
 40
0.8751264352685687
 40
0.8845341841929791
 40
0.893920466288258
 40
0.9032934318587215
 40
0.9126612659661121
 40
0.922032167118489
 40
0.9314143257835925
 40
0.9408159030072446
 40
0.9488766400030787
 40
0.9569211878332295
 40
0.964954666951631
 40
0.9729822189931067
 40
0.9810089969824405
 40
0.989040155434377
 40
0.9970808404393245
 40
1.0
 40
1.0
 40
1.0
 40
1.0
 10
861.2653556841805
 20
409.4738997765484
 30
0.0
 10
861.2652881508956
 20
409.4738997765484
 30
0.0
 10
861.265147677425
 20
409.4738997765484
 30
0.0
 10
861.2714454726097
 20
409.4738997765484
 30
0.0
 10
861.2812119601324
 20
409.4738997765484
 30
0.0
 10
861.2952563460102
 20
409.4738997765484
 30
0.0
 10
861.3133185606124
 20
409.4738997765484
 30
0.0
 10
861.3354681789414
 20
409.4738997765484
 30
0.0
 10
861.3616865970126
 20
409.4738997765484
 30
0.0
 10
861.3929890079097
 20
409.4738997765484
 30
0.0
 10
861.4298639298718
 20
409.4738997765484
 30
0.0
 10
861.4728187432569
 20
409.4738997765484
 30
0.0
 10
861.5205049939058
 20
409.4738997765484
 30
0.0
 10
861.5720364397696
 20
409.4738997765484
 30
0.0
 10
861.6358180310725
 20
409.4738997765484
 30
0.0
 10
861.7145396159078
 20
409.4738997765484
 30
0.0
 10
861.8122764224105
 20
409.4738997765484
 30
0.0
 10
861.9193385717508
 20
409.4738997765483
 30
0.0
 10
862.035725867571
 20
409.4738997765484
 30
0.0
 10
862.1614372225504
 20
409.4738997765483
 30
0.0
 10
862.299511786042
 20
409.4738997765483
 30
0.0
 10
862.4504106776798
 20
409.4738997765483
 30
0.0
 10
862.6146728116755
 20
409.4738997765483
 30
0.0
 10
862.788803561406
 20
409.4738997765483
 30
0.0
 10
862.9500112581438
 20
409.4738997765483
 30
0.0
 10
863.0944425401874
 20
409.4738997765483
 30
0.0
 10
863.2190151048961
 20
409.4738997765483
 30
0.0
 10
863.3480523961855
 20
409.4738997765483
 30
0.0
 10
863.4836224803203
 20
409.4738997765483
 30
0.0
 10
863.6492512037075
 20
409.4738997765483
 30
0.0
 10
863.8470176223274
 20
409.4738997765483
 30
0.0
 10
864.0777036521367
 20
409.4738997765483
 30
0.0
 10
864.3169582565868
 20
409.4738997765483
 30
0.0
 10
864.5647807594323
 20
409.4738997765483
 30
0.0
 10
864.8211689621102
 20
409.4738997765483
 30
0.0
 10
865.0562097227686
 20
409.4738997765483
 30
0.0
 10
865.2666721042674
 20
409.4738997765483
 30
0.0
 10
865.4499338127458
 20
409.4738997765483
 30
0.0
 10
865.636292088255
 20
409.4738997765483
 30
0.0
 10
865.8257465318493
 20
409.4738997765483
 30
0.0
 10
866.0182977061963
 20
409.4738997765483
 30
0.0
 10
866.2512220324719
 20
409.4738997765483
 30
0.0
 10
866.5269942297282
 20
409.4738997765483
 30
0.0
 10
866.8484260211388
 20
409.4738997765483
 30
0.0
 10
867.1630754444761
 20
409.4738997765483
 30
0.0
 10
867.4693154107166
 20
409.4738997765483
 30
0.0
 10
867.7657050473944
 20
409.4738997765483
 30
0.0
 10
868.0663638123284
 20
409.4738997765483
 30
0.0
 10
868.3712910865148
 20
409.4738997765483
 30
0.0
 10
868.6804865438453
 20
409.4738997765483
 30
0.0
 10
868.9939497221492
 20
409.4738997765483
 30
0.0
 10
869.3116802691411
 20
409.4738997765483
 30
0.0
 10
869.6487934800641
 20
409.4738997765483
 30
0.0
 10
870.0052450764975
 20
409.4738997765483
 30
0.0
 10
870.3809774069995
 20
409.4738997765483
 30
0.0
 10
870.7600363252785
 20
409.4738997765483
 30
0.0
 10
871.1424200760594
 20
409.4738997765483
 30
0.0
 10
871.5281282151748
 20
409.4738997765483
 30
0.0
 10
871.9171590359207
 20
409.4738997765483
 30
0.0
 10
872.2904845484252
 20
409.4738997765483
 30
0.0
 10
872.6470183154394
 20
409.4738997765483
 30
0.0
 10
872.9858116111448
 20
409.4738997765483
 30
0.0
 10
873.3253074097463
 20
409.4738997765483
 30
0.0
 10
873.6655056924898
 20
409.4738997765483
 30
0.0
 10
874.0064058807502
 20
409.4738997765483
 30
0.0
 10
874.3480078058036
 20
409.4738997765482
 30
0.0
 10
874.6903101915482
 20
409.4738997765483
 30
0.0
 10
874.9974459499024
 20
409.4738997765482
 30
0.0
 10
875.2689861800642
 20
409.4738997765483
 30
0.0
 10
875.504609718938
 20
409.4738997765482
 30
0.0
 10
875.7397534822849
 20
409.4738997765483
 30
0.0
 10
875.9744178556222
 20
409.4738997765483
 30
0.0
 10
876.208602631018
 20
409.4738997765483
 30
0.0
 10
876.4423078662982
 20
409.4738997765483
 30
0.0
 10
876.6833115525615
 20
409.4738997765483
 30
0.0
 10
876.9315610085005
 20
409.4738997765483
 30
0.0
 10
877.1869823638247
 20
409.4738997765483
 30
0.0
 10
877.4407751516633
 20
409.4738997765483
 30
0.0
 10
877.6890216995383
 20
409.4738997765482
 30
0.0
 10
877.9702698270975
 20
409.4738997765483
 30
0.0
 10
878.2846144966328
 20
409.4738997765483
 30
0.0
 10
878.6347045541654
 20
409.4738997765483
 30
0.0
 10
878.981847011982
 20
409.4738997765483
 30
0.0
 10
879.3260400366897
 20
409.4738997765483
 30
0.0
 10
879.6672840906755
 20
409.4738997765483
 30
0.0
 10
880.0131813173606
 20
409.4738997765483
 30
0.0
 10
880.362872902306
 20
409.4738997765483
 30
0.0
 10
880.7154197017978
 20
409.4738997765483
 30
0.0
 10
881.0627120728602
 20
409.4738997765483
 30
0.0
 10
881.3623837323844
 20
409.4738997765483
 30
0.0
 10
881.6164215036113
 20
409.4738997765483
 30
0.0
 10
881.8266012925915
 20
409.4738997765483
 30
0.0
 10
882.0356265351829
 20
409.4738997765483
 30
0.0
 10
882.2465862667203
 20
409.4738997765483
 30
0.0
 10
882.4940973437881
 20
409.4738997765483
 30
0.0
 10
882.7749880104737
 20
409.4738997765483
 30
0.0
 10
883.0835771836415
 20
409.4738997765483
 30
0.0
 10
883.3852791262468
 20
409.4738997765483
 30
0.0
 10
883.6800921437657
 20
409.4738997765483
 30
0.0
 10
883.9680159347232
 20
409.4738997765483
 30
0.0
 10
884.2173155571124
 20
409.4738997765483
 30
0.0
 10
884.4302963848813
 20
409.4738997765483
 30
0.0
 10
884.6089149723275
 20
409.4738997765483
 30
0.0
 10
884.7838264092038
 20
409.4738997765483
 30
0.0
 10
884.9550315712112
 20
409.4738997765483
 30
0.0
 10
885.1225304826424
 20
409.4738997765483
 30
0.0
 10
885.3175307953076
 20
409.4738997765483
 30
0.0
 10
885.5372123614012
 20
409.4738997765483
 30
0.0
 10
885.7780161426648
 20
409.4738997765483
 30
0.0
 10
885.9994986043085
 20
409.4738997765483
 30
0.0
 10
886.2027051450864
 20
409.4738997765483
 30
0.0
 10
886.3885798585613
 20
409.4738997765483
 30
0.0
 10
886.5664860904762
 20
409.4738997765483
 30
0.0
 10
886.736424856823
 20
409.4738997765483
 30
0.0
 10
886.8983956312338
 20
409.4738997765483
 30
0.0
 10
887.0523980153541
 20
409.4738997765483
 30
0.0
 10
887.198432894098
 20
409.4738997765483
 30
0.0
 10
887.3429774882807
 20
409.4738997765483
 30
0.0
 10
887.4843783861987
 20
409.4738997765484
 30
0.0
 10
887.6207816593259
 20
409.4738997765483
 30
0.0
 10
887.7458538691063
 20
409.4738997765483
 30
0.0
 10
887.8595955427036
 20
409.4738997765484
 30
0.0
 10
887.9620059404875
 20
409.4738997765484
 30
0.0
 10
888.053085875123
 20
409.4738997765483
 30
0.0
 10
888.1289640246653
 20
409.4738997765484
 30
0.0
 10
888.1914025639155
 20
409.4738997765484
 30
0.0
 10
888.2419743152119
 20
409.4738997765484
 30
0.0
 10
888.2839198586305
 20
409.4738997765484
 30
0.0
 10
888.3171879758602
 20
409.4738997765484
 30
0.0
 10
888.3419724318583
 20
409.4738997765484
 30
0.0
 10
888.3575486273288
 20
409.4738997765484
 30
0.0
 10
888.3646927839458
 20
409.4738997765484
 30
0.0
 10
888.3636756258242
 20
409.4738997765484
 30
0.0
 10
888.3634047052982
 20
409.4738997765484
 30
0.0
  0
SPLINE
  5
B8
330
1F
100
AcDbEntity
  8
0
  6
Continuous
 62
     7
370
    30
100
AcDbSpline
210
0.0
220
0.0
230
1.0
 70
     8
 71
     3
 72
    25
 73
    21
 74
     0
 42
0.000000001
 43
0.00000001
 40
0.0
 40
0.0
 40
0.0
 40
0.0
 40
0.0518666211098404
 40
0.1040948816097381
 40
0.1574620083458918
 40
0.2112218319656785
 40
0.2632751963488403
 40
0.3156913744755444
 40
0.3686685452011724
 40
0.4224135405600879
 40
0.474413857894124
 40
0.5267739407291682
 40
0.5802679040093018
 40
0.6341534062180241
 40
0.6862600445634282
 40
0.7387283979560495
 40
0.7923382863463502
 40
0.846342998516721
 40
0.9225938637093585
 40
1.0
 40
1.0
 40
1.0
 40
1.0
 10
629.7586781583477
 20
382.1840303738327
 30
0.0
 10
629.7448462591715
 20
382.1840509133333
 30
0.0
 10
629.7170860180686
 20
382.1840921355458
 30
0.0
 10
629.6752843103353
 20
382.1885873669788
 30
0.0
 10
629.6335003689735
 20
382.1964382327307
 30
0.0
 10
629.5925863776059
 20
382.2078926334742
 30
0.0
 10
629.5530234258409
 20
382.2226524698852
 30
0.0
 10
629.5150118978041
 20
382.240572861902
 30
0.0
 10
629.4782432858012
 20
382.2618470284243
 30
0.0
 10
629.4434992647268
 20
382.2861064113501
 30
0.0
 10
629.4110434224723
 20
382.3130951524443
 30
0.0
 10
629.3809802073071
 20
382.3426384467967
 30
0.0
 10
629.353173166854
 20
382.3749906900985
 30
0.0
 10
629.3282606393274
 20
382.4095446469226
 30
0.0
 10
629.3064812916354
 20
382.445836843658
 30
0.0
 10
629.2878242482795
 20
382.4837489017313
 30
0.0
 10
629.2722152149897
 20
382.5235762754188
 30
0.0
 10
629.258355322257
 20
382.5706815394333
 30
0.0
 10
629.2477837377262
 20
382.6253074900449
 30
0.0
 10
629.2463244248345
 20
382.6663429458173
 30
0.0
 10
629.2455892824622
 20
382.6870149363651
 30
0.0
  0
LINE
  5
B9
330
1F
100
AcDbEntity
  8
0
  6
Continuous
 62
     7
370
    30
100
AcDbLine
 10
629.2455892825
 20
382.6870149364
 30
0.0
 11
629.2455892825
 21
551.474071114
 31
0.0
  0
LINE
  5
BA
330
1F
100
AcDbEntity
  8
0
  6
Continuous
 62
     7
370
    30
100
AcDbLine
 10
631.7455892825
 20
382.1685272987
 30
0.0
 11
631.7455892825
 21
382.0259288861
 31
0.0
  0
SPLINE
  5
BB
330
1F
100
AcDbEntity
  8
0
  6
Continuous
 62
     7
370
    30
100
AcDbSpline
210
0.0
220
0.0
230
1.0
 70
     8
 71
     3
 72
    21
 73
    17
 74
     0
 42
0.000000001
 43
0.00000001
 40
0.0
 40
0.0
 40
0.0
 40
0.0
 40
0.0737534642337071
 40
0.147742026824461
 40
0.2214952827705946
 40
0.2952480559145557
 40
0.3692360739203631
 40
0.4429893081814822
 40
0.5167640832838606
 40
0.590773613999173
 40
0.6645491677641072
 40
0.7384567532966525
 40
0.8125993231201645
 40
0.8865075761102155
 40
0.9432537679733665
 40
1.0
 40
1.0
 40
1.0
 40
1.0
 10
630.7979252386946
 20
382.2074910127374
 30
0.0
 10
630.8351531755267
 20
382.2082449921016
 30
0.0
 10
630.9097277178782
 20
382.2097553542332
 30
0.0
 10
631.0193057814438
 20
382.210869497059
 30
0.0
 10
631.1255599217012
 20
382.2111417035115
 30
0.0
 10
631.2269076610243
 20
382.2104634750392
 30
0.0
 10
631.3222520856918
 20
382.2089220342993
 30
0.0
 10
631.4104516534561
 20
382.2065506966541
 30
0.0
 10
631.4900889216747
 20
382.2033766488212
 30
0.0
 10
631.5604577102821
 20
382.199493651234
 30
0.0
 10
631.6207533290099
 20
382.1949691387001
 30
0.0
 10
631.6697821699839
 20
382.1898641091101
 30
0.0
 10
631.707384066348
 20
382.1842809657227
 30
0.0
 10
631.7308188042132
 20
382.1787620407284
 30
0.0
 10
631.7434319034402
 20
382.1734889907287
 30
0.0
 10
631.7448701559521
 20
382.170181196519
 30
0.0
 10
631.7455892824623
 20
382.1685272988289
 30
0.0
  0
LINE
  5
BC
330
1F
100
AcDbEntity
  8
0
  6
Continuous
 62
     7
370
    30
100
AcDbLine
 10
629.7586777565
 20
382.1840298059
 30
0.0
 11
630.7979218174
 21
382.2074909268
 31
0.0
  0
SPLINE
  5
BD
330
1F
100
AcDbEntity
  8
0
  6
Continuous
 62
     7
370
    30
100
AcDbSpline
210
0.0
220
0.0
230
1.0
 70
     8
 71
     3
 72
   111
 73
   107
 74
     0
 42
0.000000001
 43
0.00000001
 40
0.0
 40
0.0
 40
0.0
 40
0.0
 40
0.0019529926669153
 40
0.0118211023729209
 40
0.0216982524789662
 40
0.0315754025684082
 40
0.041443512251752
 40
0.0510356862947967
 40
0.0606361619218444
 40
0.0702366379963009
 40
0.0798288126499764
 40
0.0896997004873449
 40
0.0995796344278315
 40
0.1094595693314142
 40
0.1193304584832992
 40
0.1289260800783661
 40
0.1385300086069205
 40
0.1481339383106975
 40
0.1577295615097283
 40
0.1676040577574723
 40
0.1774876045645367
 40
0.1873711528933802
 40
0.1972456512181794
 40
0.2068440863622378
 40
0.2164508298717602
 40
0.2260575747691153
 40
0.2356560118073102
 40
0.2455333642171235
 40
0.255419768436805
 40
0.2653061740693866
 40
0.2751835284076473
 40
0.2847829085196274
 40
0.2943905938819808
 40
0.3039982802354815
 40
0.3135976617001952
 40
0.3234758647287138
 40
0.333363117063382
 40
0.3432503700820031
 40
0.3531285740440394
 40
0.3627266165901847
 40
0.3723329580969939
 40
0.3819392997642216
 40
0.3915373425293091
 40
0.4014140182401995
 40
0.4112997381018482
 40
0.4211854576194521
 40
0.4310621328607597
 40
0.4406571429764722
 40
0.4502604453498114
 40
0.4598637469843379
 40
0.4694587560917072
 40
0.4793321975006328
 40
0.4892146775152342
 40
0.4990971563101091
 40
0.5089705960542497
 40
0.5185622082057794
 40
0.528162108431001
 40
0.5377620073429793
 40
0.5473536177021756
 40
0.5572235354685577
 40
0.5671024883317883
 40
0.5769814396345164
 40
0.5868513552709926
 40
0.596440691799341
 40
0.6060383165633778
 40
0.615635940014501
 40
0.6252252747509639
 40
0.6350929223044077
 40
0.6449696050156896
 40
0.654846286508631
 40
0.6647139323991806
 40
0.674303112159992
 40
0.6839005845960405
 40
0.6934980562941743
 40
0.7030872350478681
 40
0.7129548600507006
 40
0.7228315238181224
 40
0.7327081872430207
 40
0.742575811778348
 40
0.75216702341841
 40
0.7617665345132609
 40
0.7713660457697273
 40
0.7809572576303648
 40
0.7908271189419857
 40
0.800706024595508
 40
0.8105849309337705
 40
0.8204547931799836
 40
0.8300493361415683
 40
0.8396521847070312
 40
0.8492550342646932
 40
0.8588495785804482
 40
0.8687229562664505
 40
0.8786053833974504
 40
0.8884878119416965
 40
0.8983611915566189
 40
0.9079589046639662
 40
0.9175649261907224
 40
0.9271709491057173
 40
0.9367686641077562
 40
0.9466452962766496
 40
0.9565309802769291
 40
0.9664166657992349
 40
0.9762933000455203
 40
0.9858926310846153
 40
0.9955002687866473
 40
1.0
 40
1.0
 40
1.0
 40
1.0
 10
642.6687040441087
 20
421.5437799332234
 30
0.0
 10
642.6687457648762
 20
421.5485010308496
 30
0.0
 10
642.6689982929432
 20
421.5770769591147
 30
0.0
 10
642.669235529271
 20
421.6216608664137
 30
0.0
 10
642.6693984306206
 20
421.6768145437173
 30
0.0
 10
642.6693058507267
 20
421.7228866101509
 30
0.0
 10
642.6689859141654
 20
421.7602919119167
 30
0.0
 10
642.6684383194528
 20
421.7889533775867
 30
0.0
 10
642.6676748336389
 20
421.8092282038978
 30
0.0
 10
642.6666917180141
 20
421.8213462965135
 30
0.0
 10
642.6654790527682
 20
421.8253112306999
 30
0.0
 10
642.6640294721656
 20
421.8207740309521
 30
0.0
 10
642.6623393928115
 20
421.8075191064703
 30
0.0
 10
642.6604266367372
 20
421.7856358058898
 30
0.0
 10
642.6583146162661
 20
421.7554361483849
 30
0.0
 10
642.6560121384827
 20
421.7171846530434
 30
0.0
 10
642.6535308584778
 20
421.6712691192557
 30
0.0
 10
642.6508543138387
 20
421.6174340439526
 30
0.0
 10
642.6479597730495
 20
421.5551765073928
 30
0.0
 10
642.6448435165021
 20
421.484260703711
 30
0.0
 10
642.6415054090174
 20
421.4045883444115
 30
0.0
 10
642.6379825330548
 20
421.3170190527006
 30
0.0
 10
642.6343164624561
 20
421.2226103847902
 30
0.0
 10
642.6305173672487
 20
421.1217044676687
 30
0.0
 10
642.6265972972203
 20
421.0147393816766
 30
0.0
 10
642.6225283308046
 20
420.9009844586885
 30
0.0
 10
642.618277611391
 20
420.7794910953059
 30
0.0
 10
642.613845452763
 20
420.6501621679603
 30
0.0
 10
642.6092351916785
 20
420.5130280822856
 30
0.0
 10
642.6044989793369
 20
420.369621670859
 30
0.0
 10
642.5996921127607
 20
420.2216353747612
 30
0.0
 10
642.5948249785449
 20
420.0694506921055
 30
0.0
 10
642.5899086581948
 20
419.9135067299275
 30
0.0
 10
642.5849066576701
 20
419.7526709080067
 30
0.0
 10
642.579779716683
 20
419.5856563887971
 30
0.0
 10
642.5745321435721
 20
419.4125155777214
 30
0.0
 10
642.5691703678708
 20
419.2334040329891
 30
0.0
 10
642.5637556998915
 20
419.0503539512633
 30
0.0
 10
642.5583510814802
 20
418.8655091149201
 30
0.0
 10
642.5529659125015
 20
418.6792464004308
 30
0.0
 10
642.5476090249997
 20
418.4919554206822
 30
0.0
 10
642.5422393107891
 20
418.3022219329379
 30
0.0
 10
642.5368155519309
 20
418.1085667229174
 30
0.0
 10
642.5313455605196
 20
417.9111856097127
 30
0.0
 10
642.5258381317416
 20
417.7103416532968
 30
0.0
 10
642.5203567999317
 20
417.5083362721647
 30
0.0
 10
642.5149649731725
 20
417.3075220372554
 30
0.0
 10
642.5096699704462
 20
417.1082273340116
 30
0.0
 10
642.5044773495134
 20
416.9107471478702
 30
0.0
 10
642.4993461183856
 20
416.7135462592964
 30
0.0
 10
642.4942377522832
 20
416.5151201683442
 30
0.0
 10
642.4891626846161
 20
416.3157859146119
 30
0.0
 10
642.4841310853775
 20
416.1158843957234
 30
0.0
 10
642.4792015559334
 20
415.9177267250743
 30
0.0
 10
642.4744305791223
 20
415.7236008663763
 30
0.0
 10
642.4698225637184
 20
415.5337492104771
 30
0.0
 10
642.4653791674972
 20
415.3483385922383
 30
0.0
 10
642.461064393306
 20
415.1658946398055
 30
0.0
 10
642.4568467372676
 20
414.9850567536672
 30
0.0
 10
642.4527380812037
 20
414.8062275335704
 30
0.0
 10
642.448748826377
 20
414.6297873871785
 30
0.0
 10
642.4449260633943
 20
414.4577975245624
 30
0.0
 10
642.4413128066997
 20
414.2922155581364
 30
0.0
 10
642.437910087586
 20
414.1331714233584
 30
0.0
 10
642.4347155067115
 20
413.9806859182465
 30
0.0
 10
642.4317022971233
 20
413.8335197678895
 30
0.0
 10
642.4288495073641
 20
413.690608888794
 30
0.0
 10
642.4261691333288
 20
413.552396255248
 30
0.0
 10
642.4236706372661
 20
413.4192590155015
 30
0.0
 10
642.4213843143566
 20
413.2927771708372
 30
0.0
 10
642.4193349173339
 20
413.1743571609169
 30
0.0
 10
642.4175200193118
 20
413.0640032170862
 30
0.0
 10
642.4159334648173
 20
412.9615890014255
 30
0.0
 10
642.4145606658079
 20
412.8662498377723
 30
0.0
 10
642.4133935795203
 20
412.7773377308944
 30
0.0
 10
642.4124429654933
 20
412.6952862214843
 30
0.0
 10
642.4117162794349
 20
412.6204266978175
 30
0.0
 10
642.4112236019135
 20
412.5536800042382
 30
0.0
 10
642.4109688676759
 20
412.4957505160472
 30
0.0
 10
642.4109464730556
 20
412.4465169040801
 30
0.0
 10
642.411147202848
 20
412.4057203379669
 30
0.0
 10
642.4115700423148
 20
412.3729599669749
 30
0.0
 10
642.412220778327
 20
412.3480773036459
 30
0.0
 10
642.4131077176596
 20
412.3314475140169
 30
0.0
 10
642.4142354655323
 20
412.3233187672738
 30
0.0
 10
642.4155927226252
 20
412.3238480471229
 30
0.0
 10
642.4171623542916
 20
412.3329665161252
 30
0.0
 10
642.4189361843585
 20
412.3504402193964
 30
0.0
 10
642.4209029488193
 20
412.3759061914551
 30
0.0
 10
642.4230751240929
 20
412.4094640468236
 30
0.0
 10
642.4254716951747
 20
412.4514634552046
 30
0.0
 10
642.4280975737682
 20
412.502178710108
 30
0.0
 10
642.4309539924296
 20
412.5617466584829
 30
0.0
 10
642.4340095188321
 20
412.6295415999925
 30
0.0
 10
642.4372278496819
 20
412.7047303234398
 30
0.0
 10
642.4405991213356
 20
412.7869912230564
 30
0.0
 10
642.4441112581666
 20
412.8758968066822
 30
0.0
 10
642.4477888660883
 20
412.9720352647727
 30
0.0
 10
642.4516619856731
 20
413.0762249349646
 30
0.0
 10
642.4557316152644
 20
413.188610187433
 30
0.0
 10
642.4599953310918
 20
413.3091934270999
 30
0.0
 10
642.4644056547027
 20
413.4366651801197
 30
0.0
 10
642.4689089689028
 20
413.5694083213673
 30
0.0
 10
642.4735021844805
 20
413.7074379842226
 30
0.0
 10
642.4773233340181
 20
413.8238044479966
 30
0.0
 10
642.4796642138878
 20
413.8965596647877
 30
0.0
 10
642.4804108683688
 20
413.9197658999045
 30
0.0
  0
LINE
  5
BE
330
1F
100
AcDbEntity
  8
0
  6
Continuous
 62
     7
370
    30
100
AcDbLine
 10
643.1930489524
 20
481.0738997765
 30
0.0
 11
643.1930489524
 21
452.8738997765
 31
0.0
  0
LINE
  5
BF
330
1F
100
AcDbEntity
  8
0
  6
Continuous
 62
     7
370
    30
100
AcDbLine
 10
642.4495446486
 20
414.6650423969
 30
0.0
 11
642.7136722296
 21
421.5404776761
 31
0.0
  0
ARC
  5
C0
330
1F
100
AcDbEntity
  8
0
  6
Continuous
 62
     7
370
    30
100
AcDbCircle
 10
31.5856198053
 20
417.3738997765
 30
0.0
 40
0.4000000000000341
100
AcDbArc
 50
180.0
 51
270.0
  0
ARC
  5
C1
330
1F
100
AcDbEntity
  8
0
  6
Continuous
 62
     7
370
    30
100
AcDbCircle
 10
58.7856198053
 20
417.3738997765
 30
0.0
 40
0.4000000000000341
100
AcDbArc
 50
270.0
 51
0.0
  0
LINE
  5
C2
330
1F
100
AcDbEntity
  8
0
  6
Continuous
 62
     7
370
    30
100
AcDbLine
 10
59.1856198053
 20
417.3738997765
 30
0.0
 11
59.1856198053
 21
425.9738997765
 31
0.0
  0
LINE
  5
C3
330
1F
100
AcDbEntity
  8
0
  6
Continuous
 62
     7
370
    30
100
AcDbLine
 10
31.1856198053
 20
425.9738997765
 30
0.0
 11
31.1856198053
 21
417.3738997765
 31
0.0
  0
ARC
  5
C4
330
1F
100
AcDbEntity
  8
0
  6
Continuous
 62
     7
370
    30
100
AcDbCircle
 10
86.1856198053
 20
425.9738997765
 30
0.0
 40
55.00000000000006
100
AcDbArc
 50
90.0
 51
180.0
  0
ARC
  5
C5
330
1F
100
AcDbEntity
  8
0
  6
Continuous
 62
     7
370
    30
100
AcDbCircle
 10
86.1856198053
 20
425.9738997765
 30
0.0
 40
27.00000000000006
100
AcDbArc
 50
90.0
 51
180.0
  0
LINE
  5
C6
330
1F
100
AcDbEntity
  8
0
  6
Continuous
 62
     7
370
    30
100
AcDbLine
 10
276.8069510476
 20
480.9738997765
 30
0.0
 11
86.1856198053
 21
480.9738997765
 31
0.0
  0
LINE
  5
C7
330
1F
100
AcDbEntity
  8
0
  6
Continuous
 62
     7
370
    30
100
AcDbLine
 10
265.6850157145
 20
452.9738997765
 30
0.0
 11
276.8069510476
 21
452.9738997765
 31
0.0
  0
LINE
  5
C8
330
1F
100
AcDbEntity
  8
0
  6
Continuous
 62
     7
370
    30
100
AcDbLine
 10
86.1856198053
 20
452.9738997765
 30
0.0
 11
260.0858845374
 21
452.9738997765
 31
0.0
  0
ARC
  5
C9
330
1F
100
AcDbEntity
  8
0
  6
Continuous
 62
     7
370
    30
100
AcDbCircle
 10
31.6356198053
 20
416.7738997765
 30
0.0
 40
0.1999999999999886
100
AcDbArc
 50
90.0
 51
180.0
  0
ARC
  5
CA
330
1F
100
AcDbEntity
  8
0
  6
Continuous
 62
     7
370
    30
100
AcDbCircle
 10
58.7356198053
 20
416.7738997765
 30
0.0
 40
0.1999999999999886
100
AcDbArc
 50
0.0
 51
90.0
  0
ARC
  5
CB
330
1F
100
AcDbEntity
  8
0
  6
Continuous
 62
     7
370
    30
100
AcDbCircle
 10
58.7356198053
 20
409.6738997765
 30
0.0
 40
0.2000000000000455
100
AcDbArc
 50
270.0
 51
0.0
  0
ARC
  5
CC
330
1F
100
AcDbEntity
  8
0
  6
Continuous
 62
     7
370
    30
100
AcDbCircle
 10
31.6356198053
 20
409.6738997765
 30
0.0
 40
0.2000000000000455
100
AcDbArc
 50
180.0
 51
270.0
  0
LINE
  5
CD
330
1F
100
AcDbEntity
  8
0
  6
Continuous
 62
     7
370
    30
100
AcDbLine
 10
31.4356198053
 20
416.7738997765
 30
0.0
 11
31.4356198053
 21
409.6738997765
 31
0.0
  0
LINE
  5
CE
330
1F
100
AcDbEntity
  8
0
  6
Continuous
 62
     7
370
    30
100
AcDbLine
 10
58.9356198053
 20
409.6738997765
 30
0.0
 11
58.9356198053
 21
416.7738997765
 31
0.0
  0
ARC
  5
CF
330
1F
100
AcDbEntity
  8
0
  6
Continuous
 62
     7
370
    30
100
AcDbCircle
 10
290.2544107175
 20
551.474071114
 30
0.0
 40
0.5
100
AcDbArc
 50
0.0
 51
91.5
  0
LINE
  5
D0
330
1F
100
AcDbEntity
  8
0
  6
Continuous
 62
     7
370
    30
100
AcDbLine
 10
290.2413222434
 20
551.9738997762
 30
0.0
 11
280.5142737865
 21
551.7191880485
 31
0.0
  0
LINE
  5
D1
330
1F
100
AcDbEntity
  8
0
  6
Continuous
 62
     7
370
    30
100
AcDbLine
 10
280.5142737865
 20
382.2286115046
 30
0.0
 11
288.2544107175
 21
382.0259288863
 31
0.0
  0
ARC
  5
D2
330
1F
100
AcDbEntity
  8
0
  6
Continuous
 62
     7
370
    30
100
AcDbCircle
 10
280.5666276831
 20
549.7198733798
 30
0.0
 40
2.000000000000043
100
AcDbArc
 50
91.4999999859
 51
177.4907349552
  0
ARC
  5
D3
330
1F
100
AcDbEntity
  8
0
  6
Continuous
 62
     7
370
    30
100
AcDbCircle
 10
280.5666276831
 20
384.2279261358
 30
0.0
 40
1.999999999999989
100
AcDbArc
 50
182.5092650448
 51
268.5000000141
  0
ARC
  5
D4
330
1F
100
AcDbEntity
  8
0
  6
Continuous
 62
     7
370
    30
100
AcDbCircle
 10
2168.7544106775
 20
466.9738997578
 30
0.0
 40
1892.0
100
AcDbArc
 50
180.4269968123
 51
181.3759704848
  0
ARC
  5
D5
330
1F
100
AcDbEntity
  8
0
  6
Continuous
 62
     7
370
    30
100
AcDbCircle
 10
2168.7544106775
 20
466.9738997578
 30
0.0
 40
1892.0
100
AcDbArc
 50
181.6031384334
 51
182.5092650448
  0
ARC
  5
D6
330
1F
100
AcDbEntity
  8
0
  6
Continuous
 62
     7
370
    30
100
AcDbCircle
 10
2168.7544106775
 20
466.9738997578
 30
0.0
 40
1892.000000000069
100
AcDbArc
 50
177.4907349552
 51
179.5730031872
  0
LINE
  5
D7
330
1F
100
AcDbEntity
  8
0
  6
Continuous
 62
     7
370
    30
100
AcDbLine
 10
277.352434944
 20
421.5453322835
 30
0.0
 11
277.2863277704
 21
421.5404776761
 31
0.0
  0
SPLINE
  5
D8
330
1F
100
AcDbEntity
  8
0
  6
Continuous
 62
     7
370
    30
100
AcDbSpline
210
0.0
220
0.0
230
1.0
 70
     8
 71
     3
 72
    37
 73
    33
 74
     0
 42
0.000000001
 43
0.00000001
 40
0.0
 40
0.0
 40
0.0
 40
0.0
 40
0.0221400537947854
 40
0.0422063589519374
 40
0.060948205384788
 40
0.0791129283786303
 40
0.0974195288139584
 40
0.1161454845990626
 40
0.1352005533598811
 40
0.188484125137905
 40
0.2422259708371544
 40
0.3068395414425463
 40
0.3724021253201373
 40
0.4392566032952211
 40
0.4905199951942107
 40
0.5430680784180988
 40
0.5972487183938855
 40
0.6533618857903155
 40
0.6886501656194793
 40
0.7222424854537943
 40
0.7529641917847766
 40
0.7816305901972377
 40
0.8098173128108765
 40
0.8361511299813502
 40
0.8642634186708358
 40
0.8950411585939642
 40
0.9291977225754784
 40
0.9455041976422295
 40
0.9622590362466544
 40
0.9793527112941368
 40
0.9966755131279634
 40
1.0
 40
1.0
 40
1.0
 40
1.0
 10
276.9006892216222
 20
416.9863836009098
 30
0.0
 10
276.9019173920961
 20
416.9602740803267
 30
0.0
 10
276.9042586964287
 20
416.9105005879943
 30
0.0
 10
276.9090185770439
 20
416.8387004214744
 30
0.0
 10
276.9144330358543
 20
416.7716563768292
 30
0.0
 10
276.9205489775878
 20
416.7067595448609
 30
0.0
 10
276.9271966041034
 20
416.6419349091746
 30
0.0
 10
276.9343643354824
 20
416.5761080930651
 30
0.0
 10
276.946756475199
 20
416.4693161271861
 30
0.0
 10
276.9660089219076
 20
416.3217055572445
 30
0.0
 10
276.9970195344362
 20
416.1214416307803
 30
0.0
 10
277.035861645537
 20
415.9077863109021
 30
0.0
 10
277.0836508431431
 20
415.6801144479329
 30
0.0
 10
277.1331325064148
 20
415.4689722940729
 30
0.0
 10
277.182080661929
 20
415.2735213437899
 30
0.0
 10
277.2293570148432
 20
415.0930884911556
 30
0.0
 10
277.2794666527918
 20
414.9074873857799
 30
0.0
 10
277.324421425453
 20
414.7416010326301
 30
0.0
 10
277.3625983091483
 20
414.5990609520192
 30
0.0
 10
277.3925809909904
 20
414.4853597713926
 30
0.0
 10
277.4198618163491
 20
414.3790327002029
 30
0.0
 10
277.4445520228125
 20
414.2786335920915
 30
0.0
 10
277.4668495357209
 20
414.1829882293285
 30
0.0
 10
277.487897034393
 20
414.0877286355434
 30
0.0
 10
277.507733103825
 20
413.9890825553406
 30
0.0
 10
277.5268117704495
 20
413.8808919132243
 30
0.0
 10
277.5410232443055
 20
413.786030641284
 30
0.0
 10
277.551689214934
 20
413.707395066417
 30
0.0
 10
277.5591916772863
 20
413.6486600341462
 30
0.0
 10
277.5663838155679
 20
413.5886782582745
 30
0.0
 10
277.5714852119486
 20
413.5444146681201
 30
0.0
 10
277.5740768649269
 20
413.520177255709
 30
0.0
 10
277.5744941553725
 20
413.5162747113836
 30
0.0
  0
SPLINE
  5
D9
330
1F
100
AcDbEntity
  8
0
  6
Continuous
 62
     7
370
    30
100
AcDbSpline
210
0.0
220
0.0
230
1.0
 70
     8
 71
     3
 72
    51
 73
    47
 74
     0
 42
0.000000001
 43
0.00000001
 40
0.0
 40
0.0
 40
0.0
 40
0.0
 40
0.0258665079085053
 40
0.0493006923983963
 40
0.0704590108980802
 40
0.0894979304688052
 40
0.1065739299948864
 40
0.1218435026823735
 40
0.1354631587127709
 40
0.1517837071398453
 40
0.1656878010516297
 40
0.1775824854126375
 40
0.1878748263573051
 40
0.2045466397684097
 40
0.2196451452545949
 40
0.2346300932137273
 40
0.249464873715311
 40
0.2640323432517653
 40
0.2782155424492124
 40
0.2918977710520974
 40
0.3049627301265054
 40
0.324124954808272
 40
0.3418637254195687
 40
0.3585134158122113
 40
0.3744049774853764
 40
0.3964493796723831
 40
0.4188890682450792
 40
0.4429859351774268
 40
0.4693388330108662
 40
0.4969757938345191
 40
0.5247051106490468
 40
0.5518170964266177
 40
0.5783321254489672
 40
0.6322998171221423
 40
0.6846232290735399
 40
0.7357708082954286
 40
0.7860528187990193
 40
0.8357026769421672
 40
0.8848907970277804
 40
0.9012564942340149
 40
0.9173716830603561
 40
0.9331313927401957
 40
0.9485849645705997
 40
0.9643653002448926
 40
0.9812452363111788
 40
1.0
 40
1.0
 40
1.0
 40
1.0
 10
277.2863277704256
 20
421.540477676148
 30
0.0
 10
277.287828783202
 20
421.5009765771977
 30
0.0
 10
277.2906896629711
 20
421.4256888137456
 30
0.0
 10
277.2946119448675
 20
421.3180836653029
 30
0.0
 10
277.2980155197123
 20
421.2209006730608
 30
0.0
 10
277.3009228376487
 20
421.1334230574346
 30
0.0
 10
277.3033674781106
 20
421.05493446886
 30
0.0
 10
277.3053805305788
 20
420.9847184477367
 30
0.0
 10
277.3071581093303
 20
420.9156509315574
 30
0.0
 10
277.308614051144
 20
420.848662897457
 30
0.0
 10
277.3096361950254
 20
420.7843031458032
 30
0.0
 10
277.3101162270887
 20
420.7291496775198
 30
0.0
 10
277.3101483023504
 20
420.6697642723827
 30
0.0
 10
277.3093293614094
 20
420.6054856637487
 30
0.0
 10
277.3074715330017
 20
420.5340568851374
 30
0.0
 10
277.3053016781196
 20
420.4654460736214
 30
0.0
 10
277.3026592241728
 20
420.3976636710483
 30
0.0
 10
277.2995621175797
 20
420.3311270649348
 30
0.0
 10
277.2960008574466
 20
420.2663774545618
 30
0.0
 10
277.2919748602783
 20
420.2039555984654
 30
0.0
 10
277.2866953199247
 20
420.1339935446403
 30
0.0
 10
277.2797131852695
 20
420.0579492063505
 30
0.0
 10
277.2706486220987
 20
419.976611156451
 30
0.0
 10
277.2608156904799
 20
419.9004009497657
 30
0.0
 10
277.2490163472186
 20
419.8178195521248
 30
0.0
 10
277.2350173774335
 20
419.7266183811278
 30
0.0
 10
277.2178473252029
 20
419.6232255787157
 30
0.0
 10
277.1984926288623
 20
419.5135278623979
 30
0.0
 10
277.1769809759269
 20
419.3961489320629
 30
0.0
 10
277.1539995886505
 20
419.2733969791583
 30
0.0
 10
277.130536620623
 20
419.149555435985
 30
0.0
 10
277.1073412690835
 20
419.0274082287936
 30
0.0
 10
277.0769600902554
 20
418.8658114593922
 30
0.0
 10
277.0408883855434
 20
418.6660806342973
 30
0.0
 10
277.0017558253917
 20
418.4286719398952
 30
0.0
 10
276.9681704166433
 20
418.1960961541664
 30
0.0
 10
276.9410143311993
 20
417.9667881513338
 30
0.0
 10
276.9205283149109
 20
417.7397927461316
 30
0.0
 10
276.9097517790643
 20
417.5640414238727
 30
0.0
 10
276.9043166001934
 20
417.4393512593617
 30
0.0
 10
276.901690191496
 20
417.3656751349969
 30
0.0
 10
276.8996556819575
 20
417.2933752301391
 30
0.0
 10
276.8981527830412
 20
417.2215732127969
 30
0.0
 10
276.8976023990463
 20
417.1480447142167
 30
0.0
 10
276.8982445611607
 20
417.0694685113217
 30
0.0
 10
276.899846245311
 20
417.0150332282863
 30
0.0
 10
276.9006892216221
 20
416.9863836009096
 30
0.0
  0
LINE
  5
DA
330
1F
100
AcDbEntity
  8
0
  6
Continuous
 62
     7
370
    30
100
AcDbLine
 10
31.5856198053
 20
416.9738997765
 30
0.0
 11
58.7856198053
 21
416.9738997765
 31
0.0
  0
SPLINE
  5
DB
330
1F
100
AcDbEntity
  8
0
  6
Continuous
 62
     7
370
    30
100
AcDbSpline
210
0.0
220
0.0
230
1.0
 70
     8
 71
     3
 72
    62
 73
    58
 74
     0
 42
0.000000001
 43
0.00000001
 40
0.0
 40
0.0
 40
0.0
 40
0.0
 40
0.0154798697409443
 40
0.0309597961695529
 40
0.04651722889493
 40
0.062074710780801
 40
0.0778669562579484
 40
0.093659245034925
 40
0.1095291338349934
 40
0.1253990583504307
 40
0.1438966392667364
 40
0.1623942710820624
 40
0.181011623397918
 40
0.199629013717186
 40
0.218617863876072
 40
0.2376067422313977
 40
0.2567216849093624
 40
0.2758366454839953
 40
0.2951355793881882
 40
0.3144345221583952
 40
0.3338643933976478
 40
0.3532942646886693
 40
0.3731367912519176
 40
0.3929793078817576
 40
0.4129646120920498
 40
0.4329498944368449
 40
0.4524590690167
 40
0.4719682111659596
 40
0.4916154902914751
 40
0.5112627203245405
 40
0.5313528416679754
 40
0.5514428881171909
 40
0.5716899837945703
 40
0.591936975896392
 40
0.6110529044677201
 40
0.6301687275857332
 40
0.6494289293730718
 40
0.668688997499394
 40
0.6884242615412601
 40
0.7081593502165546
 40
0.7280688836785455
 40
0.7479782089966209
 40
0.7658591173818202
 40
0.7837398781923139
 40
0.8017645919741059
 40
0.8197891482572796
 40
0.8382918274359996
 40
0.856794336486318
 40
0.8754732538227895
 40
0.8941520133322797
 40
0.9103303294365565
 40
0.9265085742668543
 40
0.9428130543670608
 40
0.9591174841590013
 40
0.9758285414623193
 40
0.9925395743394215
 40
0.9999999999999999
 40
0.9999999999999999
 40
0.9999999999999999
 40
0.9999999999999999
 10
260.9455578548161
 20
453.0961029570088
 30
0.0
 10
260.9702275715148
 20
453.0989634137077
 30
0.0
 10
261.0195670952535
 20
453.1046843375805
 30
0.0
 10
261.0965357189095
 20
453.1131807406666
 30
0.0
 10
261.1755771283759
 20
453.1215630617111
 30
0.0
 10
261.2572077147748
 20
453.1298264419649
 30
0.0
 10
261.3411634869545
 20
453.1379126595271
 30
0.0
 10
261.4275147358347
 20
453.1457904432734
 30
0.0
 10
261.5157365359763
 20
453.1533774688737
 30
0.0
 10
261.6106856223751
 20
453.1610358431474
 30
0.0
 10
261.7124124568592
 20
453.1686391821577
 30
0.0
 10
261.8212856622433
 20
453.1760705212265
 30
0.0
 10
261.9320846394532
 20
453.1828952951465
 30
0.0
 10
262.0453814623409
 20
453.1891073882008
 30
0.0
 10
262.160788653919
 20
453.1946310536187
 30
0.0
 10
262.2783982035945
 20
453.1994255776582
 30
0.0
 10
262.3972680020369
 20
453.2034115878196
 30
0.0
 10
262.5175890372301
 20
453.2065694055544
 30
0.0
 10
262.6389093042838
 20
453.2088542541163
 30
0.0
 10
262.7613053472137
 20
453.2102478587909
 30
0.0
 10
262.884188375026
 20
453.2107211828049
 30
0.0
 10
263.0082221489444
 20
453.2102651934358
 30
0.0
 10
263.1329164635495
 20
453.2088539663115
 30
0.0
 10
263.2583435063111
 20
453.2064741695422
 30
0.0
 10
263.3834037227234
 20
453.2031402394707
 30
0.0
 10
263.5068775567919
 20
453.1989085298223
 30
0.0
 10
263.6282667182675
 20
453.1938391188333
 30
0.0
 10
263.7476750707673
 20
453.1879836388972
 30
0.0
 10
263.8658544149304
 20
453.1813328773752
 30
0.0
 10
263.9834558954228
 20
453.1738783567284
 30
0.0
 10
264.0999288858399
 20
453.1656686665879
 30
0.0
 10
264.2152918149606
 20
453.1567311844551
 30
0.0
 10
264.3284187905264
 20
453.1471881353687
 30
0.0
 10
264.4369916774458
 20
453.137302744219
 30
0.0
 10
264.5406586265604
 20
453.12720689574
 30
0.0
 10
264.6396603465588
 20
453.1169769670685
 30
0.0
 10
264.7357574635337
 20
453.1064905996862
 30
0.0
 10
264.8294792434682
 20
453.0957411293936
 30
0.0
 10
264.920254168904
 20
453.0848360189739
 30
0.0
 10
265.0080088706015
 20
453.0738347389182
 30
0.0
 10
265.0917155664417
 20
453.0629215252125
 30
0.0
 10
265.1684045803635
 20
453.0525599069553
 30
0.0
 10
265.2381268789435
 20
453.0428454638475
 30
0.0
 10
265.3014240238456
 20
453.0337885159304
 30
0.0
 10
265.3606110882678
 20
453.0251112261593
 30
0.0
 10
265.4159746091398
 20
453.0168131130451
 30
0.0
 10
265.4670296642436
 20
453.0090055680752
 30
0.0
 10
265.513621914613
 20
453.0017499649277
 30
0.0
 10
265.5550672738352
 20
452.9951927193043
 30
0.0
 10
265.5895636619861
 20
452.9896581754546
 30
0.0
 10
265.6176622477078
 20
452.9851019363122
 30
0.0
 10
265.6401610647218
 20
452.9814218238278
 30
0.0
 10
265.658288753033
 20
452.9784365852209
 30
0.0
 10
265.6721698200739
 20
452.9761374060179
 30
0.0
 10
265.6812134550221
 20
452.9746343932208
 30
0.0
 10
265.685601892389
 20
452.9739026889874
 30
0.0
 10
265.6851539654179
 20
452.9739774476466
 30
0.0
 10
265.6850157145191
 20
452.9740005216129
 30
0.0
  0
SPLINE
  5
DC
330
1F
100
AcDbEntity
  8
0
  6
Continuous
 62
     7
370
    30
100
AcDbSpline
210
0.0
220
0.0
230
1.0
 70
     8
 71
     3
 72
    26
 73
    22
 74
     0
 42
0.000000001
 43
0.00000001
 40
0.0
 40
0.0
 40
0.0
 40
0.0
 40
0.0392422931454331
 40
0.0859125888486161
 40
0.1325829483864377
 40
0.1803054086187825
 40
0.2280280093594732
 40
0.2761085059843909
 40
0.324189209109697
 40
0.3698853989514153
 40
0.415581793851472
 40
0.4615738326357935
 40
0.5075661048305669
 40
0.5544566764166193
 40
0.6013475110442782
 40
0.648533223535881
 40
0.6957192039516354
 40
0.7710886517712705
 40
0.8467397864788194
 40
0.9232324648866195
 40
1.0
 40
1.0
 40
1.0
 40
1.0
 10
260.0858845374311
 20
452.9739439877862
 30
0.0
 10
260.0860589666781
 20
452.9739730187068
 30
0.0
 10
260.0864408421237
 20
452.9740365756844
 30
0.0
 10
260.0919985588989
 20
452.9749625229632
 30
0.0
 10
260.1016232794062
 20
452.9765609700618
 30
0.0
 10
260.1156310992292
 20
452.9788790032182
 30
0.0
 10
260.133976048026
 20
452.9818971604049
 30
0.0
 10
260.156590082728
 20
452.9855923259207
 30
0.0
 10
260.182975527492
 20
452.989866194661
 30
0.0
 10
260.2127802181772
 20
452.9946467837576
 30
0.0
 10
260.2457612857423
 20
452.9998782854834
 30
0.0
 10
260.2823840180908
 20
453.0056154584689
 30
0.0
 10
260.3228387436006
 20
453.0118641386508
 30
0.0
 10
260.3670400752216
 20
453.0185852161429
 30
0.0
 10
260.4150541832466
 20
453.0257590311571
 30
0.0
 10
260.4665210469559
 20
453.0333023450513
 30
0.0
 10
260.5322630694497
 20
453.0427360886041
 30
0.0
 10
260.6147244691002
 20
453.0542310249829
 30
0.0
 10
260.7170830677242
 20
453.0678992347005
 30
0.0
 10
260.826821692805
 20
453.0819421121804
 30
0.0
 10
260.9059318421239
 20
453.0913770352117
 30
0.0
 10
260.9455578548127
 20
453.0961029570179
 30
0.0
  0
SPLINE
  5
DD
330
1F
100
AcDbEntity
  8
0
  6
Continuous
 62
     7
370
    30
100
AcDbSpline
210
0.0
220
0.0
230
1.0
 70
    24
 71
     3
 72
   119
 73
   115
 74
     0
 42
0.000000001
 43
0.00000001
 40
0.0
 40
0.0
 40
0.0
 40
0.0
 40
0.0104577345679333
 40
0.0208959147048949
 40
0.0313231387770897
 40
0.0417480322601705
 40
0.0483036374061378
 40
0.0548638731947692
 40
0.0614308761769463
 40
0.0680936382614204
 40
0.0750653707928078
 40
0.0854213567713556
 40
0.095762756604277
 40
0.1060979709703768
 40
0.1164354156282445
 40
0.1267835008950038
 40
0.1371506111912306
 40
0.1440321632400172
 40
0.150902574382206
 40
0.1577642761817189
 40
0.1646197094698753
 40
0.1714713217773163
 40
0.1783215647302914
 40
0.1890891297125932
 40
0.1998688809288922
 40
0.2106702964219986
 40
0.2200810179872399
 40
0.2294720641932393
 40
0.2388496695987249
 40
0.2482200955907388
 40
0.2575896179497311
 40
0.2669645142708938
 40
0.2763510513673125
 40
0.2857554727809574
 40
0.2965087412202551
 40
0.3072374725917121
 40
0.3179509828763285
 40
0.3286586277836229
 40
0.3393697783925558
 40
0.3500937965918209
 40
0.3608400106401977
 40
0.3700536141747326
 40
0.3792487131290665
 40
0.3884311602971151
 40
0.3976068326830293
 40
0.4067816203099368
 40
0.415961414904028
 40
0.4251520985622867
 40
0.4343595325125384
 40
0.4407003313726284
 40
0.4470319190433716
 40
0.4533561985222486
 40
0.4596750794095636
 40
0.4659904762027715
 40
0.4723043065686985
 40
0.4786184896013821
 40
0.4855667698216872
 40
0.4925203493556342
 40
0.4994817732716478
 40
0.5063677020645331
 40
0.5129430735203604
 40
0.5227120536179085
 40
0.5324685839357889
 40
0.5422197136900828
 40
0.5519725038072933
 40
0.5617340116108823
 40
0.5715112755468028
 40
0.58197088220384
 40
0.5924102434236939
 40
0.602837950958914
 40
0.6132626253761049
 40
0.6198177317212288
 40
0.6263771894356507
 40
0.6329431349107432
 40
0.6396048747191152
 40
0.646576607249803
 40
0.6569325932276052
 40
0.667273993060138
 40
0.6776092074262051
 40
0.687946652084398
 40
0.6982947373518389
 40
0.7086618476491036
 40
0.7155433996972976
 40
0.7224138108390135
 40
0.7292755126381756
 40
0.736130945926104
 40
0.74298255823344
 40
0.7498328011864337
 40
0.7606003661690094
 40
0.7713801173858863
 40
0.7821815328798701
 40
0.7915922544449673
 40
0.800983300650863
 40
0.810360906056286
 40
0.8197313320482779
 40
0.8291008544072923
 40
0.8384757507285203
 40
0.8478622878250505
 40
0.8572667092388518
 40
0.8680199776779893
 40
0.8787487090493407
 40
0.8894622193339057
 40
0.9001698642411997
 40
0.9108810148501827
 40
0.9216050330495469
 40
0.9323512470980693
 40
0.9415648506322347
 40
0.9507599495863039
 40
0.9599423967541925
 40
0.9691180691400535
 40
0.9782928567670146
 40
0.9874726513612669
 40
0.9966633350197945
 40
1.0
 40
1.0
 40
1.0
 40
1.0
 10
32.66910511600887
 20
409.4738997765484
 30
0.0
 10
32.71982070881088
 20
409.4738997765484
 30
0.0
 10
32.82115706368918
 20
409.4738997765484
 30
0.0
 10
32.98597546702239
 20
409.4738997765485
 30
0.0
 10
33.15994092050453
 20
409.4738997765484
 30
0.0
 10
33.32118943878324
 20
409.4738997765485
 30
0.0
 10
33.46562467986377
 20
409.4738997765485
 30
0.0
 10
33.59021455790853
 20
409.4738997765485
 30
0.0
 10
33.7192710167816
 20
409.4738997765485
 30
0.0
 10
33.85485510701322
 20
409.4738997765485
 30
0.0
 10
34.02049078280725
 20
409.4738997765485
 30
0.0
 10
34.21825724260982
 20
409.4738997765485
 30
0.0
 10
34.44894326005457
 20
409.4738997765485
 30
0.0
 10
34.68819786781477
 20
409.4738997765485
 30
0.0
 10
34.93602036977209
 20
409.4738997765485
 30
0.0
 10
35.19240857268682
 20
409.4738997765485
 30
0.0
 10
35.42744933329286
 20
409.4738997765485
 30
0.0
 10
35.63791171481698
 20
409.4738997765485
 30
0.0
 10
35.82117342331362
 20
409.4738997765485
 30
0.0
 10
36.007531698839
 20
409.4738997765485
 30
0.0
 10
36.19698614244296
 20
409.4738997765485
 30
0.0
 10
36.38953731679476
 20
409.4738997765485
 30
0.0
 10
36.62246164306745
 20
409.4738997765485
 30
0.0
 10
36.89823384031052
 20
409.4738997765485
 30
0.0
 10
37.21966563169551
 20
409.4738997765485
 30
0.0
 10
37.53431505502267
 20
409.4738997765485
 30
0.0
 10
37.84055502126873
 20
409.4738997765485
 30
0.0
 10
38.13694465796861
 20
409.4738997765485
 30
0.0
 10
38.43760342291594
 20
409.4738997765485
 30
0.0
 10
38.74253069710667
 20
409.4738997765485
 30
0.0
 10
39.05172615443273
 20
409.4738997765485
 30
0.0
 10
39.36518933272312
 20
409.4738997765485
 30
0.0
 10
39.68291987969261
 20
409.4738997765485
 30
0.0
 10
40.02003309061256
 20
409.4738997765485
 30
0.0
 10
40.37648468706048
 20
409.4738997765485
 30
0.0
 10
40.75221701759232
 20
409.4738997765485
 30
0.0
 10
41.13127593588645
 20
409.4738997765485
 30
0.0
 10
41.51365968666718
 20
409.4738997765485
 30
0.0
 10
41.8993678257677
 20
409.4738997765486
 30
0.0
 10
42.28839864648356
 20
409.4738997765485
 30
0.0
 10
42.66172415897299
 20
409.4738997765485
 30
0.0
 10
43.01825792598871
 20
409.4738997765485
 30
0.0
 10
43.35705122171421
 20
409.4738997765485
 30
0.0
 10
43.69654702032799
 20
409.4738997765485
 30
0.0
 10
44.03674530307553
 20
409.4738997765485
 30
0.0
 10
44.37764549133172
 20
409.4738997765485
 30
0.0
 10
44.7192474163727
 20
409.4738997765485
 30
0.0
 10
45.06154980209709
 20
409.4738997765485
 30
0.0
 10
45.36868556041729
 20
409.4738997765485
 30
0.0
 10
45.64022579053783
 20
409.4738997765485
 30
0.0
 10
45.8758493293692
 20
409.4738997765485
 30
0.0
 10
46.11099309268399
 20
409.4738997765485
 30
0.0
 10
46.34565746599925
 20
409.4738997765485
 30
0.0
 10
46.57984224138406
 20
409.4738997765485
 30
0.0
 10
46.81354747666322
 20
409.4738997765485
 30
0.0
 10
47.054551162937
 20
409.4738997765485
 30
0.0
 10
47.30280061889849
 20
409.4738997765485
 30
0.0
 10
47.5582219742578
 20
409.4738997765485
 30
0.0
 10
47.81201476213401
 20
409.4738997765485
 30
0.0
 10
48.06026131001395
 20
409.4738997765485
 30
0.0
 10
48.34150943753898
 20
409.4738997765485
 30
0.0
 10
48.65585410701787
 20
409.4738997765485
 30
0.0
 10
49.00594416451476
 20
409.4738997765485
 30
0.0
 10
49.35308662232826
 20
409.4738997765485
 30
0.0
 10
49.69727964706558
 20
409.4738997765485
 30
0.0
 10
50.03852370111372
 20
409.4738997765485
 30
0.0
 10
50.38442092783507
 20
409.4738997765485
 30
0.0
 10
50.73411251278551
 20
409.4738997765485
 30
0.0
 10
51.08665931224532
 20
409.4738997765485
 30
0.0
 10
51.43395168329454
 20
409.4738997765485
 30
0.0
 10
51.73362334282064
 20
409.4738997765485
 30
0.0
 10
51.98766111406075
 20
409.4738997765485
 30
0.0
 10
52.19784090306176
 20
409.4738997765485
 30
0.0
 10
52.40686614567588
 20
409.4738997765485
 30
0.0
 10
52.6178258772193
 20
409.4738997765485
 30
0.0
 10
52.86533695427234
 20
409.4738997765485
 30
0.0
 10
53.14622762093102
 20
409.4738997765485
 30
0.0
 10
53.45481679408157
 20
409.4738997765485
 30
0.0
 10
53.75651873668527
 20
409.4738997765485
 30
0.0
 10
54.0513317542182
 20
409.4738997765485
 30
0.0
 10
54.33925554520525
 20
409.4738997765485
 30
0.0
 10
54.58855516762223
 20
409.4738997765485
 30
0.0
 10
54.8015359954104
 20
409.4738997765485
 30
0.0
 10
54.98015458286132
 20
409.4738997765485
 30
0.0
 10
55.15506601974118
 20
409.4738997765485
 30
0.0
 10
55.32627118175082
 20
409.4738997765485
 30
0.0
 10
55.49377009318315
 20
409.4738997765485
 30
0.0
 10
55.68877040584783
 20
409.4738997765485
 30
0.0
 10
55.90845197193911
 20
409.4738997765485
 30
0.0
 10
56.14925575319718
 20
409.4738997765485
 30
0.0
 10
56.37073821483293
 20
409.4738997765485
 30
0.0
 10
56.57394475560379
 20
409.4738997765485
 30
0.0
 10
56.75981946907493
 20
409.4738997765484
 30
0.0
 10
56.93772570098757
 20
409.4738997765485
 30
0.0
 10
57.10766446733348
 20
409.4738997765485
 30
0.0
 10
57.26963524174494
 20
409.4738997765485
 30
0.0
 10
57.42363762586772
 20
409.4738997765485
 30
0.0
 10
57.56967250461523
 20
409.4738997765484
 30
0.0
 10
57.71421709880001
 20
409.4738997765485
 30
0.0
 10
57.85561799671751
 20
409.4738997765484
 30
0.0
 10
57.9920212698401
 20
409.4738997765484
 30
0.0
 10
58.11709347961833
 20
409.4738997765484
 30
0.0
 10
58.23083515321545
 20
409.4738997765484
 30
0.0
 10
58.33324555100122
 20
409.4738997765484
 30
0.0
 10
58.42432548564067
 20
409.4738997765484
 30
0.0
 10
58.50020363518544
 20
409.4738997765484
 30
0.0
 10
58.5626421744361
 20
409.4738997765484
 30
0.0
 10
58.61321392573019
 20
409.4738997765484
 30
0.0
 10
58.65515946914762
 20
409.4738997765484
 30
0.0
 10
58.68842758637677
 20
409.4738997765484
 30
0.0
 10
58.71321204237512
 20
409.4738997765484
 30
0.0
 10
58.72878823784708
 20
409.4738997765484
 30
0.0
 10
58.73593239446539
 20
409.4738997765484
 30
0.0
 10
58.73491523634517
 20
409.4738997765484
 30
0.0
 10
58.73464431581943
 20
409.4738997765484
 30
0.0
  0
SPLINE
  5
DE
330
1F
100
AcDbEntity
  8
0
  6
Continuous
 62
     7
370
    30
100
AcDbSpline
210
0.0
220
0.0
230
1.0
 70
    24
 71
     3
 72
    26
 73
    22
 74
     0
 42
0.000000001
 43
0.00000001
 40
0.0
 40
0.0
 40
0.0
 40
0.0
 40
0.0410478776657747
 40
0.0853821611784367
 40
0.1296520408988431
 40
0.1738708224106603
 40
0.2180518574638974
 40
0.2622085320489956
 40
0.3063542543163553
 40
0.3505024423952916
 40
0.3990841797932785
 40
0.44770296950335
 40
0.4963766064102657
 40
0.5445202822642436
 40
0.5904861819587089
 40
0.6587809693459294
 40
0.7269930312846808
 40
0.7951716442448615
 40
0.8633661572058027
 40
0.9316258846617017
 40
1.0
 40
1.0
 40
1.0
 40
1.0
 10
31.63659529470189
 20
409.4738997765484
 30
0.0
 10
31.63652776141748
 20
409.4738997765484
 30
0.0
 10
31.6363872879484
 20
409.4738997765484
 30
0.0
 10
31.64268508313508
 20
409.4738997765484
 30
0.0
 10
31.65245157066224
 20
409.4738997765484
 30
0.0
 10
31.66649595653278
 20
409.4738997765484
 30
0.0
 10
31.6845581711693
 20
409.4738997765484
 30
0.0
 10
31.70670778937443
 20
409.4738997765484
 30
0.0
 10
31.73292620790943
 20
409.4738997765484
 30
0.0
 10
31.76422861701736
 20
409.4738997765484
 30
0.0
 10
31.80110354631058
 20
409.4738997765484
 30
0.0
 10
31.84405833177103
 20
409.4738997765484
 30
0.0
 10
31.89174399574693
 20
409.4738997765484
 30
0.0
 10
31.94327113592169
 20
409.4738997765484
 30
0.0
 10
32.00704616682867
 20
409.4738997765484
 30
0.0
 10
32.08575747974443
 20
409.4738997765484
 30
0.0
 10
32.18349909823334
 20
409.4738997765484
 30
0.0
 10
32.29052480137076
 20
409.4738997765484
 30
0.0
 10
32.40705219176429
 20
409.4738997765484
 30
0.0
 10
32.53226660617995
 20
409.4738997765484
 30
0.0
 10
32.62346682889558
 20
409.4738997765484
 30
0.0
 10
32.66910511600887
 20
409.4738997765484
 30
0.0
  0
LINE
  5
DF
330
1F
100
AcDbEntity
  8
0
  6
Continuous
 62
     7
370
    30
100
AcDbLine
 10
290.7544107175
 20
551.474071114
 30
0.0
 11
290.7544107175
 21
382.6870149364
 31
0.0
  0
SPLINE
  5
E0
330
1F
100
AcDbEntity
  8
0
  6
Continuous
 62
     7
370
    30
100
AcDbSpline
210
0.0
220
0.0
230
1.0
 70
     8
 71
     3
 72
    25
 73
    21
 74
     0
 42
0.000000001
 43
0.00000001
 40
0.0
 40
0.0
 40
0.0
 40
0.0
 40
0.0520294184007421
 40
0.1044212188204669
 40
0.1579544599274303
 40
0.2118814403632689
 40
0.2640986314668389
 40
0.3166801676982524
 40
0.3698256038246246
 40
0.423743294641428
 40
0.4758490029077743
 40
0.5283163961979078
 40
0.5819252016597246
 40
0.6359287762228293
 40
0.6880184199477771
 40
0.7404708971502227
 40
0.7940696303803491
 40
0.8480652938932026
 40
0.9234702439650826
 40
1.0
 40
1.0
 40
1.0
 40
1.0
 10
290.7544107175377
 20
382.6870149363651
 30
0.0
 10
290.7540778231106
 20
382.67312456231
 30
0.0
 10
290.753409715665
 20
382.6452470685132
 30
0.0
 10
290.7479663143553
 20
382.6033689488532
 30
0.0
 10
290.7391640902035
 20
382.5615843092235
 30
0.0
 10
290.7267731870991
 20
382.5207538978582
 30
0.0
 10
290.7111014957657
 20
382.4813541568116
 30
0.0
 10
290.6922970513576
 20
382.4435835498649
 30
0.0
 10
290.6701578348611
 20
382.4071379455991
 30
0.0
 10
290.6450788682774
 20
382.3728093561899
 30
0.0
 10
290.6173252020033
 20
382.3408561060929
 30
0.0
 10
290.5870763407688
 20
382.3113774731886
 30
0.0
 10
290.5540618474728
 20
382.2842321395775
 30
0.0
 10
290.5189324936927
 20
382.2600699546746
 30
0.0
 10
290.482164761118
 20
382.239114558226
 30
0.0
 10
290.4438814152351
 20
382.2213451186163
 30
0.0
 10
290.403754019734
 20
382.206678965541
 30
0.0
 10
290.356613355352
 20
382.1940067142028
 30
0.0
 10
290.3022846295923
 20
382.1848119122882
 30
0.0
 10
290.2617430847677
 20
382.1842921632197
 30
0.0
 10
290.24132224338
 20
382.1840303647772
 30
0.0
  0
SPLINE
  5
E1
330
1F
100
AcDbEntity
  8
0
  6
Continuous
 62
     7
370
    30
100
AcDbSpline
210
0.0
220
0.0
230
1.0
 70
     8
 71
     3
 72
    21
 73
    17
 74
     0
 42
0.000000001
 43
0.00000001
 40
0.0
 40
0.0
 40
0.0
 40
0.0
 40
0.0737534642358895
 40
0.1477420268318878
 40
0.2214952827863015
 40
0.2952480559295249
 40
0.3692360739345959
 40
0.4429893081949771
 40
0.5167640832959774
 40
0.5907736140099079
 40
0.6645491677734642
 40
0.7384567533046281
 40
0.812599323126756
 40
0.8865075761154266
 40
0.9432537679759723
 40
1.0
 40
1.0
 40
1.0
 40
1.0
 10
289.2020747612934
 20
382.2074910125746
 30
0.0
 10
289.1648468244602
 20
382.2082449919491
 30
0.0
 10
289.0902722821049
 20
382.2097553541014
 30
0.0
 10
288.9806942185532
 20
382.2108694970264
 30
0.0
 10
288.8744400783049
 20
382.2111417035204
 30
0.0
 10
288.7730923389722
 20
382.2104634750368
 30
0.0
 10
288.6777479143052
 20
382.2089220342999
 30
0.0
 10
288.5895483465405
 20
382.2065506966538
 30
0.0
 10
288.5099110783221
 20
382.2033766488211
 30
0.0
 10
288.4395422897151
 20
382.1994936512338
 30
0.0
 10
288.3792466709878
 20
382.1949691386998
 30
0.0
 10
288.3302178300142
 20
382.1898641091099
 30
0.0
 10
288.2926159336506
 20
382.1842809657225
 30
0.0
 10
288.2691811957861
 20
382.1787620407283
 30
0.0
 10
288.2565680965597
 20
382.1734889907286
 30
0.0
 10
288.255129844048
 20
382.170181196519
 30
0.0
 10
288.2544107175377
 20
382.1685272988289
 30
0.0
  0
LINE
  5
E2
330
1F
100
AcDbEntity
  8
0
  6
Continuous
 62
     7
370
    30
100
AcDbLine
 10
288.2544107175
 20
382.0259288861
 30
0.0
 11
288.2544107175
 21
382.1685272987
 31
0.0
  0
LWPOLYLINE
  5
E3
330
1F
100
AcDbEntity
  8
0
  6
Continuous
 62
     7
370
    30
100
AcDbPolyline
 90
        9
 70
   128
 43
0.0
 10
290.2413222434
 20
382.1840303648
 10
290.1114162799
 20
382.1869616939
 10
289.9815103246
 20
382.1898933807
 10
289.8516043772
 20
382.1928254252
 10
289.7216984379
 20
382.1957578275
 10
289.5917925067
 20
382.1986905874
 10
289.4618865835
 20
382.2016237051
 10
289.3319806684
 20
382.2045571805
 10
289.2020747613
 20
382.2074910126
  0
SPLINE
  5
E4
330
1F
100
AcDbEntity
  8
0
  6
Continuous
 62
     7
370
    30
100
AcDbSpline
210
0.0
220
0.0
230
1.0
 70
     8
 71
     3
 72
    33
 73
    29
 74
     0
 42
0.000000001
 43
0.00000001
 40
0.0
 40
0.0
 40
0.0
 40
0.0
 40
0.0462866821587354
 40
0.0926374628298119
 40
0.1389882305082046
 40
0.1852748949251078
 40
0.2218562302646249
 40
0.2584691790872504
 40
0.2950821226231208
 40
0.331663450747197
 40
0.3693063438254427
 40
0.4069837000582501
 40
0.4446610508651131
 40
0.4823039365375714
 40
0.5188814158632279
 40
0.5554905200344858
 40
0.592099620359479
 40
0.628677094435694
 40
0.6663164757838518
 40
0.7039903294095868
 40
0.7416641803230388
 40
0.7793035579692409
 40
0.8158858861967564
 40
0.8524998630012245
 40
0.8891138390864081
 40
0.9256961663322325
 40
0.963341112713222
 40
1.0
 40
1.0
 40
1.0
 40
1.0
 10
277.3939660170031
 20
420.4159664594205
 30
0.0
 10
277.3920370113721
 20
420.4741906806866
 30
0.0
 10
277.3881763287933
 20
420.5907197530198
 30
0.0
 10
277.3826309861738
 20
420.7533492110339
 30
0.0
 10
277.3772846444874
 20
420.9065343136804
 30
0.0
 10
277.3725290246918
 20
421.03895393049
 30
0.0
 10
277.3683192278536
 20
421.1529038797245
 30
0.0
 10
277.3646080462457
 20
421.2505932082119
 30
0.0
 10
277.3610606349248
 20
421.3410990895377
 30
0.0
 10
277.357651767856
 20
421.4250295531749
 30
0.0
 10
277.354393552996
 20
421.5019545702541
 30
0.0
 10
277.3512959345783
 20
421.5715481751022
 30
0.0
 10
277.348395984607
 20
421.6329497968147
 30
0.0
 10
277.3457256944025
 20
421.6855114110589
 30
0.0
 10
277.3432839122737
 20
421.7293669641872
 30
0.0
 10
277.3410658224581
 20
421.7647876169736
 30
0.0
 10
277.3390520420045
 20
421.7921380658049
 30
0.0
 10
277.3372295189199
 20
421.8115346035686
 30
0.0
 10
277.335609623856
 20
421.8226090292376
 30
0.0
 10
277.3342006753242
 20
421.8251212477162
 30
0.0
 10
277.3330205547448
 20
421.8189789464463
 30
0.0
 10
277.3320811511499
 20
421.8043143983076
 30
0.0
 10
277.3313778781871
 20
421.7813752601797
 30
0.0
 10
277.3309029826693
 20
421.7505180086835
 30
0.0
 10
277.3306487465722
 20
421.7116547016021
 30
0.0
 10
277.330621670031
 20
421.6641903420866
 30
0.0
 10
277.330806967565
 20
421.609147157898
 30
0.0
 10
277.3311275826503
 20
421.5653748804463
 30
0.0
 10
277.33128576281
 20
421.5437791846903
 30
0.0
  0
LWPOLYLINE
  5
E5
330
1F
100
AcDbEntity
  8
0
  6
Continuous
 62
     7
370
    30
100
AcDbPolyline
 90
       78
 70
   128
 43
0.0
 10
277.5196069058
 20
413.9191704926
 10
277.5231040159
 20
413.8111374175
 10
277.5278645069
 20
413.6664687819
 10
277.53250093
 20
413.5280160512
 10
277.5370004168
 20
413.3961670161
 10
277.5412361215
 20
413.2745365805
 10
277.5453350252
 20
413.1593580663
 10
277.5492867162
 20
413.0509207648
 10
277.553080783
 20
412.9495139675
 10
277.5568163799
 20
412.852620611
 10
277.5603781447
 20
412.7633545179
 10
277.5637565678
 20
412.6819496738
 10
277.5669421397
 20
412.6086400644
 10
277.5698492746
 20
412.5452520584
 10
277.5725690631
 20
412.4896250891
 10
277.5750947156
 20
412.4418930873
 10
277.5774194424
 20
412.4021899838
 10
277.5795990886
 20
412.3697792782
 10
277.5815618177
 20
412.3459375053
 10
277.5833025516
 20
412.330718406
 10
277.5848162119
 20
412.3241757213
 10
277.5860676947
 20
412.326162244
 10
277.5871023136
 20
412.3363474746
 10
277.5879176718
 20
412.3546946318
 10
277.5885113726
 20
412.3811669348
 10
277.5888896364
 20
412.4168928258
 10
277.5890322729
 20
412.4611661977
 10
277.5889392139
 20
412.5138542366
 10
277.5886103914
 20
412.5748241286
 10
277.5880643861
 20
412.6419983565
 10
277.587296391
 20
412.716886182
 10
277.5863086821
 20
412.7992839268
 10
277.5851035351
 20
412.8889879127
 10
277.5836367694
 20
412.9888672246
 10
277.5819421975
 20
413.0963096062
 10
277.5800247759
 20
413.2110104551
 10
277.577889461
 20
413.3326651686
 10
277.5756060498
 20
413.4575075548
 10
277.5731205858
 20
413.5887068747
 10
277.5704397655
 20
413.7259154156
 10
277.5675702855
 20
413.868785465
 10
277.5644224836
 20
414.0216050377
 10
277.5610804286
 20
414.1801483709
 10
277.5575535432
 20
414.3439734473
 10
277.5538512501
 20
414.5126382494
 10
277.5500870537
 20
414.6810936595
 10
277.5461636189
 20
414.8538290618
 10
277.5420913034
 20
415.0303921377
 10
277.5378804648
 20
415.2103305688
 10
277.5334060797
 20
415.39886679
 10
277.5287929821
 20
415.5906390953
 10
277.5240539924
 20
415.7851181281
 10
277.5192019313
 20
415.981774532
 10
277.5143819686
 20
416.174818113
 10
277.5094636047
 20
416.3695803205
 10
277.5044596808
 20
416.5655555658
 10
277.4993830382
 20
416.7622382602
 10
277.4940874614
 20
416.965193582
 10
277.4887243961
 20
417.1685314507
 10
277.483308608
 20
417.3716950752
 10
277.4778548625
 20
417.5741276646
 10
277.4725238192
 20
417.7699496168
 10
277.46716628
 20
417.9647365464
 10
277.4617961178
 20
418.1579866599
 10
277.4564272057
 20
418.3491981637
 10
277.4509086669
 20
418.543650301
 10
277.445401435
 20
418.7355899781
 10
277.4399205564
 20
418.9244956645
 10
277.4344810773
 20
419.1098458296
 10
277.4292395645
 20
419.2863890027
 10
277.4240463965
 20
419.4592610924
 10
277.4189149284
 20
419.6280201337
 10
277.4138585148
 20
419.792224162
 10
277.4087385146
 20
419.9562753455
 10
277.4037073337
 20
420.1152014676
 10
277.3987786189
 20
420.2685745113
 10
277.393966017
 20
420.4159664594
 10
277.393966017
 20
420.4159664594
  0
LINE
  5
E6
330
1F
100
AcDbEntity
  8
0
  6
Continuous
 62
     7
370
    30
100
AcDbLine
 10
276.8069510476
 20
452.8738997765
 30
0.0
 11
276.8069510476
 21
481.0738997765
 31
0.0
  0
LINE
  5
E7
330
1F
100
AcDbEntity
  8
0
  6
Continuous
 62
     7
370
    30
100
AcDbLine
 10
277.2863277704
 20
421.5404776761
 30
0.0
 11
277.5504466819
 21
414.6652680703
 31
0.0
  0
LINE
  5
E8
330
1F
100
AcDbEntity
  8
0
  6
Continuous
 62
     7
370
    30
100
AcDbLine
 10
446.0
 20
313.8069510476
 30
0.0
 11
446.0
 21
123.1856198053
 31
0.0
  0
LINE
  5
E9
330
1F
100
AcDbEntity
  8
0
  6
Continuous
 62
     7
370
    30
100
AcDbLine
 10
474.0
 20
123.1856198053
 30
0.0
 11
474.0
 21
313.8069510476
 31
0.0
  0
LINE
  5
EA
330
1F
100
AcDbEntity
  8
0
  6
Continuous
 62
     7
370
    30
100
AcDbLine
 10
446.0
 20
123.1856198053
 30
0.0
 11
446.0
 21
82.1856198053
 31
0.0
  0
LINE
  5
EB
330
1F
100
AcDbEntity
  8
0
  6
Continuous
 62
     7
370
    30
100
AcDbLine
 10
474.0
 20
82.1856198053
 30
0.0
 11
474.0
 21
123.1856198053
 31
0.0
  0
ARC
  5
EC
330
1F
100
AcDbEntity
  8
0
  6
Continuous
 62
     7
370
    30
100
AcDbCircle
 10
375.4998286625
 20
327.2544107175
 30
0.0
 40
0.5000000000000151
100
AcDbArc
 50
90.0
 51
181.5
  0
ARC
  5
ED
330
1F
100
AcDbEntity
  8
0
  6
Continuous
 62
     7
370
    30
100
AcDbCircle
 10
544.5001713375
 20
327.2544107175
 30
0.0
 40
0.5
100
AcDbArc
 50
358.5
 51
90.0
  0
LINE
  5
EE
330
1F
100
AcDbEntity
  8
0
  6
Continuous
 62
     7
370
    30
100
AcDbLine
 10
375.0000000004
 20
327.2413222434
 30
0.0
 11
375.2547117281
 21
317.5142737865
 31
0.0
  0
LINE
  5
EF
330
1F
100
AcDbEntity
  8
0
  6
Continuous
 62
     7
370
    30
100
AcDbLine
 10
544.7452882719
 20
317.5142737865
 30
0.0
 11
544.9999999996
 21
327.2413222434
 31
0.0
  0
ARC
  5
F0
330
1F
100
AcDbEntity
  8
0
  6
Continuous
 62
     7
370
    30
100
AcDbCircle
 10
377.254026378
 20
317.5666276831
 30
0.0
 40
2.000000000000097
100
AcDbArc
 50
181.499999986
 51
267.4907349552
  0
ARC
  5
F1
330
1F
100
AcDbEntity
  8
0
  6
Continuous
 62
     7
370
    30
100
AcDbCircle
 10
542.745973622
 20
317.5666276831
 30
0.0
 40
1.999999999999986
100
AcDbArc
 50
272.5092650448
 51
358.500000014
  0
ARC
  5
F2
330
1F
100
AcDbEntity
  8
0
  6
Continuous
 62
     7
370
    30
100
AcDbCircle
 10
460.0
 20
2205.7544106775
 30
0.0
 40
1892.0
100
AcDbArc
 50
267.4907349552
 51
269.5730031875
  0
ARC
  5
F3
330
1F
100
AcDbEntity
  8
0
  6
Continuous
 62
     7
370
    30
100
AcDbCircle
 10
460.0
 20
2205.7544106775
 30
0.0
 40
1892.0
100
AcDbArc
 50
270.4269968125
 51
272.5092650448
  0
ARC
  5
F4
330
1F
100
AcDbEntity
  8
0
  6
Continuous
 62
     7
370
    30
100
AcDbCircle
 10
460.0
 20
82.1856198053
 30
0.0
 40
14.0
100
AcDbArc
 50
270.0
 51
0.0
  0
ARC
  5
F5
330
1F
100
AcDbEntity
  8
0
  6
Continuous
 62
     7
370
    30
100
AcDbCircle
 10
460.0
 20
82.1856198053
 30
0.0
 40
14.0
100
AcDbArc
 50
180.0
 51
270.0
  0
LINE
  5
F6
330
1F
100
AcDbEntity
  8
0
  6
Continuous
 62
     7
370
    30
100
AcDbLine
 10
375.4998286625
 20
327.7544107175
 30
0.0
 11
544.5001713375
 21
327.7544107175
 31
0.0
  0
LINE
  5
F7
330
1F
100
AcDbEntity
  8
0
  6
Continuous
 62
     7
370
    30
100
AcDbLine
 10
460.0
 20
313.8069510476
 30
0.0
 11
445.9
 21
313.8069510476
 31
0.0
  0
LINE
  5
F8
330
1F
100
AcDbEntity
  8
0
  6
Continuous
 62
     7
370
    30
100
AcDbLine
 10
474.1
 20
313.8069510476
 30
0.0
 11
460.0
 21
313.8069510476
 31
0.0
  0
SPLINE
  5
F9
330
1F
100
AcDbEntity
  8
0
  6
Continuous
 62
     7
370
    30
100
AcDbSpline
210
0.0
220
0.0
230
1.0
 70
     8
 71
     3
 72
    88
 73
    84
 74
     0
 42
0.000000001
 43
0.00000001
 40
0.0
 40
0.0
 40
0.0
 40
0.0
 40
0.0134858340099814
 40
0.0188801575446625
 40
0.0278472938065193
 40
0.0371534717897227
 40
0.0471361642122638
 40
0.0575579390061071
 40
0.0683235762552313
 40
0.0793570330910993
 40
0.0906042416018654
 40
0.1020251767521776
 40
0.1135896677409105
 40
0.1252745371778081
 40
0.1370616770900663
 40
0.1489367240808498
 40
0.1608881295279539
 40
0.1729064948314789
 40
0.1849840878482971
 40
0.1971144854231541
 40
0.2092923051728044
 40
0.2215130014542867
 40
0.2337727081774661
 40
0.2460681162808502
 40
0.2583963771837735
 40
0.270755025940202
 40
0.2831419194991186
 40
0.2955551866664012
 40
0.3079931872187894
 40
0.3204544782389432
 40
0.332937786194589
 40
0.3454419836224983
 40
0.3579660695311065
 40
0.3705091528245719
 40
0.3830704381986112
 40
0.3956492140692278
 40
0.4082448421823328
 40
0.4208567486201488
 40
0.4334844159742375
 40
0.4461273764955686
 40
0.4587852060664852
 40
0.4714575188682597
 40
0.4841439626346485
 40
0.4968442144058043
 40
0.5095579767055803
 40
0.5222849740814074
 40
0.5350249499520963
 40
0.5477776637191519
 40
0.5605428881039206
 40
0.5733204066761663
 40
0.5861100115479164
 40
0.5989115012066376
 40
0.6117246784685463
 40
0.6245493485327858
 40
0.63738531712276
 40
0.6502323887003453
 40
0.6630903647421247
 40
0.6759590420686179
 40
0.688838211218328
 40
0.7017276548600683
 40
0.7146271462387367
 40
0.7275364476504603
 40
0.7404553089443833
 40
0.7533834660498377
 40
0.7663206395277173
 40
0.7792665331471557
 40
0.7922208324887587
 40
0.8051832035773769
 40
0.818153291546934
 40
0.831130719344553
 40
0.8441150864755232
 40
0.8571059677999004
 40
0.8701029123856561
 40
0.8831054424277178
 40
0.8961130522428387
 40
0.9091252073488983
 40
0.9221413436424919
 40
0.9351608666831884
 40
0.9481831510996933
 40
0.9612074276324672
 40
0.9742328939404731
 40
0.9872588189926746
 40
1.0
 40
1.0
 40
1.0
 40
1.0
 10
655.3861080774958
 20
140.6121803892595
 30
0.0
 10
655.2984714156462
 20
140.4597793709092
 30
0.0
 10
655.1757801544915
 20
140.2464180590103
 30
0.0
 10
654.9966969113096
 20
139.9306645561466
 30
0.0
 10
654.8453190299656
 20
139.6618496242727
 30
0.0
 10
654.6659850696482
 20
139.3401725257122
 30
0.0
 10
654.4789341990082
 20
139.0011414420147
 30
0.0
 10
654.2843976606115
 20
138.6445876433403
 30
0.0
 10
654.0851392234424
 20
138.275103974657
 30
0.0
 10
653.8827268548421
 20
137.8952163213661
 30
0.0
 10
653.6783468961326
 20
137.5068413673469
 30
0.0
 10
653.4728748919557
 20
137.1113858708638
 30
0.0
 10
653.2669758731824
 20
136.7099140038054
 30
0.0
 10
653.0611653285154
 20
136.3032470499793
 30
0.0
 10
652.8558506228194
 20
135.8920313239386
 30
0.0
 10
652.6513593997171
 20
135.4767845698207
 30
0.0
 10
652.44795945043
 20
135.0579283543741
 30
0.0
 10
652.2458728838893
 20
134.6358111031102
 30
0.0
 10
652.0452864123292
 20
134.210724776201
 30
0.0
 10
651.8463589424567
 20
133.782917140288
 30
0.0
 10
651.6492272642603
 20
133.3526009379675
 30
0.0
 10
651.4540103748099
 20
132.9199608361148
 30
0.0
 10
651.260812807553
 20
132.4851587596903
 30
0.0
 10
651.0697272267538
 20
132.0483380353657
 30
0.0
 10
650.8808364717645
 20
131.6096266462332
 30
0.0
 10
650.6942151843566
 20
131.1691398145311
 30
0.0
 10
650.5099311164879
 20
130.7269820706209
 30
0.0
 10
650.3280461905583
 20
130.283248925089
 30
0.0
 10
650.1486173660724
 20
129.8380282312632
 30
0.0
 10
649.9716973535031
 20
129.3914013040574
 30
0.0
 10
649.7973352065176
 20
128.9434438454098
 30
0.0
 10
649.6255768166026
 20
128.4942267150137
 30
0.0
 10
649.4564653287848
 20
128.0438165763955
 30
0.0
 10
649.2900414931147
 20
127.5922764418727
 30
0.0
 10
649.1263439635027
 20
127.1396661349755
 30
0.0
 10
648.9654095531378
 20
126.6860426850997
 30
0.0
 10
648.8072734538856
 20
126.2314606662236
 30
0.0
 10
648.6519694256273
 20
125.7759724892182
 30
0.0
 10
648.4995299603814
 20
125.319628655486
 30
0.0
 10
648.3499864251552
 20
124.8624779782432
 30
0.0
 10
648.2033691867599
 20
124.4045677766139
 30
0.0
 10
648.0597077212585
 20
123.9459440468237
 30
0.0
 10
647.9190307102456
 20
123.486651614016
 30
0.0
 10
647.7813661257964
 20
123.0267342676705
 30
0.0
 10
647.6467413056015
 20
122.5662348830657
 30
0.0
 10
647.5151830195682
 20
122.1051955308896
 30
0.0
 10
647.3867175289522
 20
121.6436575767417
 30
0.0
 10
647.2613706389131
 20
121.1816617720167
 30
0.0
 10
647.1391677452502
 20
120.719248337439
 30
0.0
 10
647.0201338759396
 20
120.2564570403131
 30
0.0
 10
646.9042937280144
 20
119.79332726643
 30
0.0
 10
646.7916717002215
 20
119.3298980874001
 30
0.0
 10
646.6822919218336
 20
118.8662083241089
 30
0.0
 10
646.5761782779189
 20
118.4022966068552
 30
0.0
 10
646.4733544313269
 20
117.9382014326801
 30
0.0
 10
646.3738438416002
 20
117.4739612203014
 30
0.0
 10
646.2776697809761
 20
117.0096143630136
 30
0.0
 10
646.184855347621
 20
116.5451992798537
 30
0.0
 10
646.0954234761966
 20
116.080754465277
 30
0.0
 10
646.0093969458385
 20
115.6163185375462
 30
0.0
 10
645.9267983856096
 20
115.1519302859922
 30
0.0
 10
645.8476502774596
 20
114.6876287172582
 30
0.0
 10
645.7719749567204
 20
114.2234531006074
 30
0.0
 10
645.6997946101415
 20
113.7594430123336
 30
0.0
 10
645.6311312714687
 20
113.2956383792825
 30
0.0
 10
645.5660068145555
 20
112.8320795214556
 30
0.0
 10
645.5044429439941
 20
112.3688071936297
 30
0.0
 10
645.4464611832414
 20
111.9058626259072
 30
0.0
 10
645.3920828602525
 20
111.4432875630544
 30
0.0
 10
645.3413290904821
 20
110.9811243024691
 30
0.0
 10
645.294220757723
 20
110.5194157306831
 30
0.0
 10
645.2507784909529
 20
110.0582053577215
 30
0.0
 10
645.2110226440301
 20
109.5975373508871
 30
0.0
 10
645.1749732527148
 20
109.1374565608193
 30
0.0
 10
645.1426500644317
 20
108.6780085652667
 30
0.0
 10
645.1140722846437
 20
108.2192396341335
 30
0.0
 10
645.089259369889
 20
107.7611969743081
 30
0.0
 10
645.0682279017091
 20
107.3039279141161
 30
0.0
 10
645.0510031314564
 20
106.8474843435264
 30
0.0
 10
645.0375758212871
 20
106.3919111079369
 30
0.0
 10
645.028062842167
 20
105.9372881599154
 30
0.0
 10
645.0221505579431
 20
105.4868700128735
 30
0.0
 10
645.0214618995155
 20
105.1885500966086
 30
0.0
 10
645.0211213753738
 20
105.0410384574497
 30
0.0
  0
SPLINE
  5
FA
330
1F
100
AcDbEntity
  8
0
  6
Continuous
 62
     7
370
    30
100
AcDbSpline
210
0.0
220
0.0
230
1.0
 70
     8
 71
     3
 72
    85
 73
    81
 74
     0
 42
0.000000001
 43
0.00000001
 40
0.0
 40
0.0
 40
0.0
 40
0.0
 40
0.0010297667233628
 40
0.0145485519180421
 40
0.0280737119932635
 40
0.0416043582467102
 40
0.0551396443821212
 40
0.0686787675674744
 40
0.0822209692472097
 40
0.0957653530402245
 40
0.1093112009170147
 40
0.1228579026283917
 40
0.1364048938718845
 40
0.1499516554454047
 40
0.1634977128968684
 40
0.1770426360732908
 40
0.1905860385809779
 40
0.2041275771767631
 40
0.2176669511088864
 40
0.2312039014262784
 40
0.2447382102726063
 40
0.2582697001838574
 40
0.2717982334047941
 40
0.2853237112411047
 40
0.2988460734631115
 40
0.3123652977769445
 40
0.3258813993786868
 40
0.3393944306086853
 40
0.3529044807209286
 40
0.3664116757872293
 40
0.3799161787538183
 40
0.3934181896702357
 40
0.4069179461148413
 40
0.4204157238411218
 40
0.433911837673194
 40
0.447406642685117
 40
0.4609005357012566
 40
0.4743939571632856
 40
0.4878873934172014
 40
0.5013813794840869
 40
0.5148765023902586
 40
0.5283734051498044
 40
0.5418727915105711
 40
0.5553754316001717
 40
0.5688821686410528
 40
0.5823939269417153
 40
0.5959117214243731
 40
0.6094366690154864
 40
0.6229700023109744
 40
0.6365130860445897
 40
0.6500674370370352
 40
0.663634748509728
 40
0.677216919921795
 40
0.6908160938741457
 40
0.7044347021534723
 40
0.7180755237465581
 40
0.731741758741972
 40
0.7440086840338234
 40
0.7562706343839547
 40
0.7685264914540143
 40
0.7807760008641307
 40
0.7930188138553848
 40
0.8052544584502334
 40
0.8174822981275468
 40
0.8297014727258947
 40
0.841910811857297
 40
0.8541087044994788
 40
0.8662928962747946
 40
0.8784601625115473
 40
0.890605757618473
 40
0.9027224383457535
 40
0.9147986179368736
 40
0.9268145906721469
 40
0.9387339808176622
 40
0.9504815277092146
 40
0.9618727420262302
 40
0.9723014601767564
 40
0.980413685346599
 40
0.9880233042756643
 40
0.9999999999999999
 40
0.9999999999999999
 40
0.9999999999999999
 40
0.9999999999999999
 10
681.0130572090047
 20
167.3800942939911
 30
0.0
 10
681.002723824689
 20
167.3741848866328
 30
0.0
 10
680.8567336943095
 20
167.2906967355719
 30
0.0
 10
680.5760623774996
 20
167.1256740195464
 30
0.0
 10
680.171094495761
 20
166.8847081122976
 30
0.0
 10
679.767231871249
 20
166.6390549036629
 30
0.0
 10
679.3643649982928
 20
166.3893313301456
 30
0.0
 10
678.9625766752072
 20
166.1354222899373
 30
0.0
 10
678.561898273615
 20
165.8774102082471
 30
0.0
 10
678.1623742310784
 20
165.6153252870321
 30
0.0
 10
677.7640437958713
 20
165.3492117820911
 30
0.0
 10
677.3669439926247
 20
165.0791088005844
 30
0.0
 10
676.9711097005289
 20
164.8050558482393
 30
0.0
 10
676.576574633434
 20
164.5270918933212
 30
0.0
 10
676.1833712846712
 20
164.2452556654512
 30
0.0
 10
675.7915309835237
 20
163.9595855173444
 30
0.0
 10
675.4010839225284
 20
163.6701194068221
 30
0.0
 10
675.0120591943734
 20
163.3768948505457
 30
0.0
 10
674.6244848273635
 20
163.0799488888918
 30
0.0
 10
674.2383878218011
 20
162.7793180509875
 30
0.0
 10
673.8537941860667
 20
162.4750383223828
 30
0.0
 10
673.4707289721857
 20
162.1671451142147
 30
0.0
 10
673.0892163104195
 20
161.855673233648
 30
0.0
 10
672.7092794425256
 20
161.540656855108
 30
0.0
 10
672.3309407533222
 20
161.2221294918591
 30
0.0
 10
671.9542218002204
 20
160.9001239674425
 30
0.0
 10
671.5791433403879
 20
160.5746723864577
 30
0.0
 10
671.2057253552356
 20
160.2458061041512
 30
0.0
 10
670.8339870718858
 20
159.9135556942131
 30
0.0
 10
670.4639469813087
 20
159.5779509141588
 30
0.0
 10
670.0956228527739
 20
159.2390206675994
 30
0.0
 10
669.7290317442526
 20
158.8967929626404
 30
0.0
 10
669.3641900083711
 20
158.5512948655624
 30
0.0
 10
669.001113293465
 20
158.2025524488332
 30
0.0
 10
668.6398165392285
 20
157.8505907323725
 30
0.0
 10
668.2803139663778
 20
157.4954336168401
 30
0.0
 10
667.9226190596377
 20
157.1371038075163
 30
0.0
 10
667.5667445432554
 20
156.7756227271261
 30
0.0
 10
667.2127023480756
 20
156.4110104156539
 30
0.0
 10
666.860503569032
 20
156.0432854148548
 30
0.0
 10
666.5101584116587
 20
155.6724646347116
 30
0.0
 10
666.1616761259376
 20
155.2985631985506
 30
0.0
 10
665.8150649254095
 20
154.9215942628333
 30
0.0
 10
665.4703318890091
 20
154.5415688067744
 30
0.0
 10
665.1274828424785
 20
154.1584953858458
 30
0.0
 10
664.7865222154352
 20
153.7723798418123
 30
0.0
 10
664.4474528691869
 20
153.3832249601589
 30
0.0
 10
664.1102758890919
 20
152.9910300634356
 30
0.0
 10
663.7749903335616
 20
152.5957905259805
 30
0.0
 10
663.4415929296366
 20
152.1974971915478
 30
0.0
 10
663.1100777018872
 20
151.7961356697528
 30
0.0
 10
662.7804355180833
 20
151.3916854809825
 30
0.0
 10
662.4526535270354
 20
150.9841190061885
 30
0.0
 10
662.1267144659184
 20
150.5734001970957
 30
0.0
 10
661.8025957683412
 20
150.1594829361294
 30
0.0
 10
661.4802685216076
 20
149.7423090850359
 30
0.0
 10
661.170863895354
 20
149.3364550348037
 30
0.0
 10
660.8743515326158
 20
148.9425245729785
 30
0.0
 10
660.5907310385348
 20
148.5611486643743
 30
0.0
 10
660.3092058803542
 20
148.1779929040078
 30
0.0
 10
660.0298059697964
 20
147.7931074105969
 30
0.0
 10
659.7525559639698
 20
147.4065359421999
 30
0.0
 10
659.477483032058
 20
147.0183265742851
 30
0.0
 10
659.2046177114614
 20
146.6285331751333
 30
0.0
 10
658.9339951252117
 20
146.2372175084082
 30
0.0
 10
658.6656567881429
 20
145.8444523458336
 30
0.0
 10
658.3996533539312
 20
145.4503261964032
 30
0.0
 10
658.1360489405705
 20
145.0549507432371
 30
0.0
 10
657.8749282157085
 20
144.6584730129273
 30
0.0
 10
657.6164085738876
 20
144.2610962574483
 30
0.0
 10
657.3606622977151
 20
143.8631179380709
 30
0.0
 10
657.1079599972707
 20
143.4650039723673
 30
0.0
 10
656.858763833824
 20
143.0675482648934
 30
0.0
 10
656.6139557165558
 20
142.6722609564524
 30
0.0
 10
656.3755034042955
 20
142.2825059826091
 30
0.0
 10
656.1491463061437
 20
141.9080474038978
 30
0.0
 10
655.9489502111539
 20
141.5730967217934
 30
0.0
 10
655.7753087883051
 20
141.2796839174857
 30
0.0
 10
655.5924121380734
 20
140.9682794477863
 30
0.0
 10
655.4643908816599
 20
140.7473034342624
 30
0.0
 10
655.3861080774958
 20
140.6121803892595
 30
0.0
  0
SPLINE
  5
FB
330
1F
100
AcDbEntity
  8
0
  6
Continuous
 62
     7
370
    30
100
AcDbSpline
210
0.0
220
0.0
230
1.0
 70
     8
 71
     3
 72
    84
 73
    80
 74
     0
 42
0.000000001
 43
0.00000001
 40
0.0
 40
0.0
 40
0.0
 40
0.0
 40
0.0147431795562162
 40
0.0206506907061202
 40
0.0304692152783396
 40
0.0406598123979203
 40
0.0515911253652465
 40
0.063002361937597
 40
0.0747885812031721
 40
0.0868658636885712
 40
0.0991743770104823
 40
0.111669678188087
 40
0.1243181215419032
 40
0.1370937227117474
 40
0.149976049983995
 40
0.1629487725599195
 40
0.1759986419190838
 40
0.1891147637246057
 40
0.2022880683239592
 40
0.2155109194432613
 40
0.228776820689912
 40
0.2420801923846456
 40
0.2554161997225111
 40
0.2687806189125637
 40
0.2821697317821611
 40
0.2955802419711076
 40
0.3090092076823516
 40
0.3224539872639011
 40
0.3359121948286387
 40
0.3493816637998014
 40
0.3628604167668106
 40
0.3763466404056948
 40
0.3898386644950682
 40
0.4033349442670226
 40
0.4168340454926209
 40
0.4303346318238258
 40
0.443835454008257
 40
0.4573353406687214
 40
0.4708331903958429
 40
0.4843279649507878
 40
0.4978186834092831
 40
0.5113044171098416
 40
0.5247842852910798
 40
0.5382574513238121
 40
0.5517231194584532
 40
0.5651805320211517
 40
0.5786289670027598
 40
0.5920677359941653
 40
0.6054961824271714
 40
0.6189136800883025
 40
0.6323196318759335
 40
0.645713468776914
 40
0.6590946490416038
 40
0.6724626575402934
 40
0.6858170052843603
 40
0.6991572291013254
 40
0.7124828914510738
 40
0.7257935803751318
 40
0.7390889095705033
 40
0.7523685185813989
 40
0.765632073103945
 40
0.7788792653984218
 40
0.7921098148058305
 40
0.8053234683661135
 40
0.8185200015345385
 40
0.8316992189961061
 40
0.8448609555754913
 40
0.8580050772429849
 40
0.8711314822154904
 40
0.8842401021535051
 40
0.8973309034543565
 40
0.9104038886436598
 40
0.9234590978657032
 40
0.93649661047572
 40
0.949516546735773
 40
0.9625190696180889
 40
0.9755043867184121
 40
0.9884727522841372
 40
1.0
 40
1.0
 40
1.0
 40
1.0
 10
679.6354762241557
 20
126.6133181323561
 30
0.0
 10
679.6984609862986
 20
126.7219711253037
 30
0.0
 10
679.7866833970244
 20
126.8741607763285
 30
0.0
 10
679.918257014115
 20
127.0978582167951
 30
0.0
 10
680.0307802581177
 20
127.2877474227648
 30
0.0
 10
680.1661255466304
 20
127.5137856623992
 30
0.0
 10
680.3095183550006
 20
127.7507229998071
 30
0.0
 10
680.4611354844121
 20
127.9984339091324
 30
0.0
 10
680.6191024604365
 20
128.2535267530562
 30
0.0
 10
680.7823969295952
 20
128.5140907720121
 30
0.0
 10
680.9502356615831
 20
128.7786704422471
 30
0.0
 10
681.1220388390044
 20
129.0461857671984
 30
0.0
 10
681.2973623698849
 20
129.3158101839803
 30
0.0
 10
681.4758580516058
 20
129.5868970605651
 30
0.0
 10
681.6572463953181
 20
129.8589297178199
 30
0.0
 10
681.8412981098662
 20
130.1314872333675
 30
0.0
 10
682.0278211960745
 20
130.4042205550109
 30
0.0
 10
682.2166517892965
 20
130.6768354984631
 30
0.0
 10
682.4076475450263
 20
130.9490804304384
 30
0.0
 10
682.6006827832451
 20
131.2207371982622
 30
0.0
 10
682.7956448696843
 20
131.4916143485917
 30
0.0
 10
682.9924314813517
 20
131.761541986605
 30
0.0
 10
683.1909485137892
 20
132.030367828801
 30
0.0
 10
683.3911084606711
 20
132.2979541366411
 30
0.0
 10
683.592829145626
 20
132.5641753087902
 30
0.0
 10
683.7960327199241
 20
132.8289159718286
 30
0.0
 10
684.0006448631354
 20
133.0920694525369
 30
0.0
 10
684.2065941403661
 20
133.3535365453589
 30
0.0
 10
684.4138114814923
 20
133.6132245104648
 30
0.0
 10
684.6222297563122
 20
133.8710462536191
 30
0.0
 10
684.8317834257715
 20
134.12691965062
 30
0.0
 10
685.0424082540119
 20
134.380766987629
 30
0.0
 10
685.2540410694197
 20
134.6325144951006
 30
0.0
 10
685.4666195654423
 20
134.8820919578496
 30
0.0
 10
685.6800821338965
 20
135.1294323874683
 30
0.0
 10
685.8943677249997
 20
135.3744717461209
 30
0.0
 10
686.1094157295262
 20
135.6171487129391
 30
0.0
 10
686.3251658793764
 20
135.857404485927
 30
0.0
 10
686.5415581635823
 20
136.095182613642
 30
0.0
 10
686.7585327573089
 20
136.3304288519584
 30
0.0
 10
686.9760299618719
 20
136.5630910420737
 30
0.0
 10
687.1939901541407
 20
136.7931190065826
 30
0.0
 10
687.4123537439796
 20
137.0204644609915
 30
0.0
 10
687.6310611386186
 20
137.2450809384833
 30
0.0
 10
687.850052713028
 20
137.4669237261002
 30
0.0
 10
688.0692687855209
 20
137.6859498108017
 30
0.0
 10
688.2886495979412
 20
137.9021178340969
 30
0.0
 10
688.5081352998914
 20
138.1153880541457
 30
0.0
 10
688.7276659365447
 20
138.3257223143916
 30
0.0
 10
688.9471814396534
 20
138.5330840179165
 30
0.0
 10
689.1666216214271
 20
138.737438106832
 30
0.0
 10
689.3859261710037
 20
138.9387510461048
 30
0.0
 10
689.6050346532761
 20
139.1369908113059
 30
0.0
 10
689.8238865098748
 20
139.3321268798291
 30
0.0
 10
690.0424210621334
 20
139.5241302251887
 30
0.0
 10
690.2605775158893
 20
139.7129733140483
 30
0.0
 10
690.4782949679978
 20
139.8986301056803
 30
0.0
 10
690.6955124144466
 20
140.0810760535835
 30
0.0
 10
690.9121687599794
 20
140.2602881090174
 30
0.0
 10
691.1282028291497
 20
140.4362447262392
 30
0.0
 10
691.3435533787296
 20
140.6089258692478
 30
0.0
 10
691.5581591114197
 20
140.778313019859
 30
0.0
 10
691.7719586907994
 20
140.94438918695
 30
0.0
 10
691.984890757475
 20
141.1071389167323
 30
0.0
 10
692.1968939463707
 20
141.2665483038841
 30
0.0
 10
692.4079069051796
 20
141.4226050035494
 30
0.0
 10
692.6178683136999
 20
141.5752982435742
 30
0.0
 10
692.8267169049524
 20
141.7246188387851
 30
0.0
 10
693.0343914845403
 20
141.8705592000594
 30
0.0
 10
693.2408309613131
 20
142.0131133647094
 30
0.0
 10
693.4459743405155
 20
142.1522769489237
 30
0.0
 10
693.6497608611037
 20
142.2880473915106
 30
0.0
 10
693.8521296004112
 20
142.4204231132761
 30
0.0
 10
694.0530210667855
 20
142.549406715242
 30
0.0
 10
694.2523713920341
 20
142.6749931340638
 30
0.0
 10
694.4501340898368
 20
142.7972138240605
 30
0.0
 10
694.6461991460952
 20
142.9159722626194
 30
0.0
 10
694.8335733277222
 20
143.0274210724462
 30
0.0
 10
694.9547939184899
 20
143.0976756281048
 30
0.0
 10
695.0118384089453
 20
143.1307363094985
 30
0.0
  0
SPLINE
  5
FC
330
1F
100
AcDbEntity
  8
0
  6
Continuous
 62
     7
370
    30
100
AcDbSpline
210
0.0
220
0.0
230
1.0
 70
     8
 71
     3
 72
    81
 73
    77
 74
     0
 42
0.000000001
 43
0.00000001
 40
0.0
 40
0.0
 40
0.0
 40
0.0
 40
0.0089020142754177
 40
0.0224129445409054
 40
0.0359455537241805
 40
0.0495003287583708
 40
0.0630777072356649
 40
0.0766780805639281
 40
0.0903017970016521
 40
0.1039491645801079
 40
0.1176204539230827
 40
0.1313159009734697
 40
0.1450357096346302
 40
0.1587800543370749
 40
0.1725490825380897
 40
0.1863429171632594
 40
0.2001616589994394
 40
0.2140053890486398
 40
0.2278741708519122
 40
0.2417680527947102
 40
0.2556870704036086
 40
0.2696312486472018
 40
0.2836006042543658
 40
0.2975951480630427
 40
0.3116148874165654
 40
0.3256598286255022
 40
0.3397299795136294
 40
0.3538253520720345
 40
0.3679459652471924
 40
0.3820918478928181
 40
0.3962630419189019
 40
0.4104596056812488
 40
0.4246816176547322
 40
0.4389291804502805
 40
0.4532024252381662
 40
0.4675015166586132
 40
0.4818266583131355
 40
0.4961780989517212
 40
0.5105561394944967
 40
0.524961141057033
 40
0.5393935341899224
 40
0.5538538295898059
 40
0.5683426306080523
 40
0.5828606479633291
 40
0.5974087171774708
 40
0.611987819396326
 40
0.6265991064566607
 40
0.6412439313175781
 40
0.6559238853410556
 40
0.670640844400707
 40
0.6853970265061893
 40
0.7001950646306566
 40
0.7135090660042275
 40
0.7268294152653645
 40
0.7401544595489289
 40
0.7534834243406453
 40
0.7668154422777328
 40
0.7801495265712345
 40
0.7934845331637082
 40
0.8068191071181202
 40
0.8201516049598823
 40
0.8334799792974128
 40
0.8468016023266641
 40
0.860112986567772
 40
0.8734093251191235
 40
0.8866836982527195
 40
0.8999256238923203
 40
0.9131182163801937
 40
0.9262320979046905
 40
0.9392107294546957
 40
0.9519288414041573
 40
0.964041430074199
 40
0.9745719997811161
 40
0.9825396037404748
 40
0.9916207619856459
 40
1.0
 40
1.0
 40
1.0
 40
1.0
 10
673.0213229680234
 20
105.041313549466
 30
0.0
 10
673.021317623903
 20
105.0920932333831
 30
0.0
 10
673.021304168805
 20
105.2199432012921
 30
0.0
 10
673.0237731824986
 20
105.4286518611465
 30
0.0
 10
673.0284724048468
 20
105.6670326068104
 30
0.0
 10
673.0355355679438
 20
105.9090058384002
 30
0.0
 10
673.0448950984113
 20
106.1543594490458
 30
0.0
 10
673.0566203698935
 20
106.4030868024577
 30
0.0
 10
673.0707422078497
 20
106.6551247092029
 30
0.0
 10
673.0873000361221
 20
106.9104238716154
 30
0.0
 10
673.1063292195887
 20
107.1689300219717
 30
0.0
 10
673.127864473638
 20
107.430589051457
 30
0.0
 10
673.1519389592443
 20
107.6953456946936
 30
0.0
 10
673.1785845388581
 20
107.9631439459477
 30
0.0
 10
673.2078317222206
 20
108.2339270105412
 30
0.0
 10
673.2397096972752
 20
108.507637381592
 30
0.0
 10
673.2742463400357
 20
108.7842168836016
 30
0.0
 10
673.311468231954
 20
109.0636067255446
 30
0.0
 10
673.3514006771636
 20
109.345747552106
 30
0.0
 10
673.3940677217021
 20
109.6305794962432
 30
0.0
 10
673.4394921742146
 20
109.9180422323799
 30
0.0
 10
673.4876956283637
 20
110.2080750306143
 30
0.0
 10
673.5386984869928
 20
110.5006168120664
 30
0.0
 10
673.5925199881674
 20
110.79560620561
 30
0.0
 10
673.6491782332218
 20
111.0929816062464
 30
0.0
 10
673.708690216982
 20
111.3926812354376
 30
0.0
 10
673.7710718603531
 20
111.6946432037624
 30
0.0
 10
673.836338045515
 20
111.9988055763262
 30
0.0
 10
673.9045026540064
 20
112.3051064414404
 30
0.0
 10
673.9755786080342
 20
112.6134839831564
 30
0.0
 10
674.0495779154198
 20
112.9238765583729
 30
0.0
 10
674.1265117186614
 20
113.2362227793344
 30
0.0
 10
674.2063903487003
 20
113.5504616025334
 30
0.0
 10
674.2892233840906
 20
113.8665324251738
 30
0.0
 10
674.375019716412
 20
114.1843751906255
 30
0.0
 10
674.4637876229473
 20
114.5039305045501
 30
0.0
 10
674.5555348478557
 20
114.8251397637528
 30
0.0
 10
674.6502686933482
 20
115.1479453002437
 30
0.0
 10
674.747996122697
 20
115.4722905435367
 30
0.0
 10
674.8487238773433
 20
115.7981202049107
 30
0.0
 10
674.9524586108893
 20
116.1253804882227
 30
0.0
 10
675.0592070434518
 20
116.4540193330011
 30
0.0
 10
675.1689761407235
 20
116.7839866969687
 30
0.0
 10
675.2817733232381
 20
117.1152348870768
 30
0.0
 10
675.3976067127866
 20
117.4477189504799
 30
0.0
 10
675.5164854250602
 20
117.781397140561
 30
0.0
 10
675.6384199196551
 20
118.1162314760976
 30
0.0
 10
675.7634224243398
 20
118.4521884228901
 30
0.0
 10
675.8915074471649
 20
118.7892397157294
 30
0.0
 10
676.0226924276005
 20
119.1273634235151
 30
0.0
 10
676.1569984721264
 20
119.466545101201
 30
0.0
 10
676.2897177046124
 20
119.7950622975155
 30
0.0
 10
676.420425692722
 20
120.1125927113202
 30
0.0
 10
676.5486947834613
 20
120.4188016952087
 30
0.0
 10
676.6792046016367
 20
120.7250438516383
 30
0.0
 10
676.8119292175927
 20
121.0312456494818
 30
0.0
 10
676.9468438098085
 20
121.3373388286089
 30
0.0
 10
677.0839213019151
 20
121.6432526072273
 30
0.0
 10
677.223131855474
 20
121.9489127903858
 30
0.0
 10
677.3644421618499
 20
122.2542405384935
 30
0.0
 10
677.5078144019277
 20
122.5591505529845
 30
0.0
 10
677.6532046871689
 20
122.8635483565801
 30
0.0
 10
677.8005606483247
 20
123.1673260826204
 30
0.0
 10
677.9498175701211
 20
123.4703557182962
 30
0.0
 10
678.1008919223814
 20
123.7724777854419
 30
0.0
 10
678.2536699592224
 20
124.0734813624767
 30
0.0
 10
678.4079862804396
 20
124.373066486115
 30
0.0
 10
678.5635801363352
 20
124.670767338634
 30
0.0
 10
678.7199960757961
 20
124.9657775901004
 30
0.0
 10
678.8763223714517
 20
125.2564886113604
 30
0.0
 10
679.0303209718376
 20
125.5389541851288
 30
0.0
 10
679.1758733865706
 20
125.8024213964747
 30
0.0
 10
679.3030554681868
 20
126.0299113418518
 30
0.0
 10
679.4185221031389
 20
126.2344166778935
 30
0.0
 10
679.5256593617837
 20
126.4226094745978
 30
0.0
 10
679.5998649760222
 20
126.5514754136157
 30
0.0
 10
679.6354762241557
 20
126.6133181323561
 30
0.0
  0
LINE
  5
FD
330
1F
100
AcDbEntity
  8
0
  6
Continuous
 62
     7
370
    30
100
AcDbLine
 10
673.0210799678
 20
98.0187722163
 30
0.0
 11
673.0210799678
 21
105.0410231985
 31
0.0
  0
LINE
  5
FE
330
1F
100
AcDbEntity
  8
0
  6
Continuous
 62
     7
370
    30
100
AcDbLine
 10
645.0210799678
 20
105.0410231985
 30
0.0
 11
645.0210799678
 21
98.0187722163
 31
0.0
  0
LINE
  5
FF
330
1F
100
AcDbEntity
  8
0
  6
Continuous
 62
     7
370
    30
100
AcDbLine
 10
816.6408836679
 20
245.6765419986
 30
0.0
 11
681.013026868
 21
167.3802468515
 31
0.0
  0
LINE
  5
100
330
1F
100
AcDbEntity
  8
0
  6
Continuous
 62
     7
370
    30
100
AcDbLine
 10
695.0118891249
 20
143.1308787049
 30
0.0
 11
830.6397459248
 21
221.427173852
 31
0.0
  0
SPLINE
  5
101
330
1F
100
AcDbEntity
  8
0
  6
Continuous
 62
     7
370
    30
100
AcDbSpline
210
0.0
220
0.0
230
1.0
 70
     8
 71
     3
 72
    94
 73
    90
 74
     0
 42
0.000000001
 43
0.00000001
 40
0.0
 40
0.0
 40
0.0
 40
0.0
 40
0.0069205765919845
 40
0.0184001605765682
 40
0.0298993896641619
 40
0.0414201068140159
 40
0.0529640613030991
 40
0.064532881614871
 40
0.0761280501774492
 40
0.0877508805206804
 40
0.0994024974551889
 40
0.1110838208043079
 40
0.1227955531311369
 40
0.1345381717863849
 40
0.1463119254742829
 40
0.1581168353887752
 40
0.1699527008243432
 40
0.18181910901555
 40
0.193715448821818
 40
0.2056409277541589
 40
0.2175945917415566
 40
0.2295753469689168
 40
0.2415819830878437
 40
0.2536131970974567
 40
0.2656676172298367
 40
0.2777438262290867
 40
0.2898403835005847
 40
0.3019558457013496
 40
0.3140887854446806
 40
0.3262378079045371
 40
0.3384015651987267
 40
0.35057876852727
 40
0.3627681981158318
 40
0.3749687110829341
 40
0.3871792473904986
 40
0.3993988340825149
 40
0.4116265880245996
 40
0.4238617173774572
 40
0.4361035220310859
 40
0.4483513932214889
 40
0.4606048125402544
 40
0.4728633505342804
 40
0.4851266626686472
 40
0.4973943899119148
 40
0.5096663705414891
 40
0.5219425266875656
 40
0.5342228611459805
 40
0.546507456763368
 40
0.5587964764645826
 40
0.5710901639936276
 40
0.5833888455021009
 40
0.5956929321202681
 40
0.6080029236826732
 40
0.6203194137990847
 40
0.6326430965147886
 40
0.6449747748570254
 40
0.6573153716457644
 40
0.6696659430501621
 40
0.6820276955091565
 40
0.6944020068294361
 40
0.7067904525282898
 40
0.719194838841705
 40
0.730328478673559
 40
0.7414603216227842
 40
0.7525894002899562
 40
0.7637155509211402
 40
0.7748385720588344
 40
0.7859582150239448
 40
0.7970741706388489
 40
0.8081860514727056
 40
0.8192933676630869
 40
0.8303954933485472
 40
0.8414916190649223
 40
0.8525806826282832
 40
0.8636612660881684
 40
0.8747314373759149
 40
0.8857884983143823
 40
0.8968285668681004
 40
0.9078458500262717
 40
0.9188313013018895
 40
0.9297699540920039
 40
0.9406351080919031
 40
0.9513739933731669
 40
0.9618657543130628
 40
0.9717598328564341
 40
0.9800287581907864
 40
0.9867248836718759
 40
0.9946858928256764
 40
1.0
 40
1.0
 40
1.0
 40
1.0
 10
645.0222164417221
 20
97.94326259518286
 30
0.0
 10
645.0226294456787
 20
97.91272043799356
 30
0.0
 10
645.0237275245771
 20
97.83151613526404
 30
0.0
 10
645.0307543029749
 20
97.69963099369868
 30
0.0
 10
645.042785544837
 20
97.5475922961782
 30
0.0
 10
645.0597427105023
 20
97.39548365123872
 30
0.0
 10
645.0813834563942
 20
97.24334883804445
 30
0.0
 10
645.1077954960729
 20
97.09123574795763
 30
0.0
 10
645.13897686055
 20
96.93919323553887
 30
0.0
 10
645.1749483658022
 20
96.78727215529183
 30
0.0
 10
645.2157230116535
 20
96.63552523106632
 30
0.0
 10
645.261313813462
 20
96.48400719004242
 30
0.0
 10
645.3117312862639
 20
96.33277477091583
 30
0.0
 10
645.3669837088354
 20
96.18188670754772
 30
0.0
 10
645.4270766499718
 20
96.03140365917751
 30
0.0
 10
645.4920127153923
 20
95.88138809547485
 30
0.0
 10
645.5617912691607
 20
95.73190413695072
 30
0.0
 10
645.6364082062905
 20
95.58301735550135
 30
0.0
 10
645.7158557646483
 20
95.43479454067695
 30
0.0
 10
645.8001223859598
 20
95.2873034386905
 30
0.0
 10
645.8891926274723
 20
95.14061247201693
 30
0.0
 10
645.9830471254988
 20
94.99479044792248
 30
0.0
 10
646.0816626096369
 20
94.84990626431726
 30
0.0
 10
646.1850119647851
 20
94.70602862095552
 30
0.0
 10
646.2930643364961
 20
94.56322574330588
 30
0.0
 10
646.4057852740339
 20
94.42156512536724
 30
0.0
 10
646.5231369046872
 20
94.28111329648974
 30
0.0
 10
646.6450781324751
 20
94.1419356159034
 30
0.0
 10
646.7715648543466
 20
94.00409609728729
 30
0.0
 10
646.902550187243
 20
93.86765726440345
 30
0.0
 10
647.0379846999662
 20
93.73268003762213
 30
0.0
 10
647.1778166445208
 20
93.59922365017333
 30
0.0
 10
647.3219921824845
 20
93.4673455921292
 30
0.0
 10
647.4704556028687
 20
93.33710157955964
 30
0.0
 10
647.6231495288802
 20
93.20854554588053
 30
0.0
 10
647.7800151118442
 20
93.0817296522529
 30
0.0
 10
647.940992211386
 20
92.95670431382015
 30
0.0
 10
648.1060195616303
 20
92.83351823869499
 30
0.0
 10
648.2750349238063
 20
92.71221847678244
 30
0.0
 10
648.4479752261026
 20
92.59285047580403
 30
0.0
 10
648.6247766920258
 20
92.47545814218212
 30
0.0
 10
648.8053749469827
 20
92.360083912331
 30
0.0
 10
648.9897046255653
 20
92.246769125174
 30
0.0
 10
649.1776999990611
 20
92.13555371172681
 30
0.0
 10
649.3692951029751
 20
92.02647625000775
 30
0.0
 10
649.5644243837996
 20
91.91957375142633
 30
0.0
 10
649.763022224097
 20
91.81488207163972
 30
0.0
 10
649.9650230305145
 20
91.71243597238664
 30
0.0
 10
650.1703613382291
 20
91.61226917358371
 30
0.0
 10
650.378971923967
 20
91.5144144020391
 30
0.0
 10
650.5907899304104
 20
91.41890343704894
 30
0.0
 10
650.8057510055232
 20
91.32576715310158
 30
0.0
 10
651.0237914607665
 20
91.23503556001754
 30
0.0
 10
651.2448484530295
 20
91.14673784089936
 30
0.0
 10
651.4688601958609
 20
91.06090238838559
 30
0.0
 10
651.6957662074858
 20
90.97755683960689
 30
0.0
 10
651.9255076027171
 20
90.89672811085319
 30
0.0
 10
652.1580274459118
 20
90.81844243103339
 30
0.0
 10
652.3932711563325
 20
90.742725380568
 30
0.0
 10
652.6311870694544
 20
90.66960191452743
 30
0.0
 10
652.8717268599484
 20
90.59909645339039
 30
0.0
 10
653.1064277836473
 20
90.53358285878569
 30
0.0
 10
653.3348463449261
 20
90.47279910792217
 30
0.0
 10
653.5565546814123
 20
90.41648894818809
 30
0.0
 10
653.7798387601903
 20
90.36244405892079
 30
0.0
 10
654.0046226212843
 20
90.31068008383129
 30
0.0
 10
654.2308344290093
 20
90.26121070198316
 30
0.0
 10
654.4584008926076
 20
90.21404898200379
 30
0.0
 10
654.6872469516708
 20
90.16920738795868
 30
0.0
 10
654.917295408698
 20
90.12669777132244
 30
0.0
 10
655.1484664007565
 20
90.08653136764137
 30
0.0
 10
655.3806766590689
 20
90.04871879315705
 30
0.0
 10
655.6138384425783
 20
90.01327004349564
 30
0.0
 10
655.8478579692611
 20
89.98019449531206
 30
0.0
 10
656.0826330463003
 20
89.94950091329616
 30
0.0
 10
656.3180493774205
 20
89.92119746679244
 30
0.0
 10
656.5539745936215
 20
89.89529176477406
 30
0.0
 10
656.7902481692137
 20
89.87179092618979
 30
0.0
 10
657.0266634484244
 20
89.85070172771324
 30
0.0
 10
657.2629334016613
 20
89.83203091288054
 30
0.0
 10
657.4986195824401
 20
89.81578594972326
 30
0.0
 10
657.7329670777834
 20
89.80197685098986
 30
0.0
 10
657.9644547845668
 20
89.79062232451969
 30
0.0
 10
658.1892185376245
 20
89.78177200453973
 30
0.0
 10
658.3963397247813
 20
89.7755384292298
 30
0.0
 10
658.5761360696715
 20
89.77160451708137
 30
0.0
 10
658.7420103379492
 20
89.76911817076778
 30
0.0
 10
658.8865406759719
 20
89.76785165724417
 30
0.0
 10
658.9826191780653
 20
89.76771431202425
 30
0.0
 10
659.0210799677603
 20
89.76765933192462
 30
0.0
  0
SPLINE
  5
102
330
1F
100
AcDbEntity
  8
0
  6
Continuous
 62
     7
370
    30
100
AcDbSpline
210
0.0
220
0.0
230
1.0
 70
     8
 71
     3
 72
    98
 73
    94
 74
     0
 42
0.000000001
 43
0.00000001
 40
0.0
 40
0.0
 40
0.0
 40
0.0
 40
0.0117541876494477
 40
0.0166277621075163
 40
0.0247069486664043
 40
0.0331163220791928
 40
0.0421518666209339
 40
0.0515930561245241
 40
0.0613506812389318
 40
0.0713536227495477
 40
0.0815513658967349
 40
0.0919065405278859
 40
0.1023909889376179
 40
0.1129830818045774
 40
0.1236659157432947
 40
0.1344260738702313
 40
0.1452527571389895
 40
0.1561371641083915
 40
0.167072040325461
 40
0.1780513456036269
 40
0.1890700046496134
 40
0.2001237175675279
 40
0.2112088140132243
 40
0.2223221396209361
 40
0.2334609665903333
 40
0.2446229225813077
 40
0.2558059336353928
 40
0.2670081779502804
 40
0.27822804813769
 40
0.2894641201647921
 40
0.3007151276074844
 40
0.3119799401564483
 40
0.3232575455498919
 40
0.3345470342864981
 40
0.3458475866059909
 40
0.357158461328248
 40
0.368478986222077
 40
0.3798085496406535
 40
0.3911465932032704
 40
0.4024926053513177
 40
0.4138461156268278
 40
0.4252066895582311
 40
0.4365739240485194
 40
0.447947443184958
 40
0.4593268943979054
 40
0.4707119449124431
 40
0.4821022784451829
 40
0.493497592103481
 40
0.5048975934601371
 40
0.5163019977768358
 40
0.5277105253615868
 40
0.5391228990473684
 40
0.5505388417941083
 40
0.561957984050809
 40
0.5733800311259576
 40
0.5848046818365579
 40
0.5962316263633495
 40
0.6076605447597149
 40
0.619091105753767
 40
0.6305229659092852
 40
0.6419557692132005
 40
0.6533891471720765
 40
0.6648227194985278
 40
0.6762560954807069
 40
0.6876888761262887
 40
0.6991206571752332
 40
0.7105510330648104
 40
0.7219796019252381
 40
0.7334059716618468
 40
0.7448297671602023
 40
0.7562506386150669
 40
0.7676682709499328
 40
0.7790823942453576
 40
0.7904927950457928
 40
0.8018993283612289
 40
0.8133019301219434
 40
0.8247006297958207
 40
0.8360955628227742
 40
0.8474869824855319
 40
0.8588752708040955
 40
0.8702609480271944
 40
0.8816446802948167
 40
0.8930272850663977
 40
0.9044097339453341
 40
0.9157931525825217
 40
0.9271788174152885
 40
0.9385681490740091
 40
0.9499627023826588
 40
0.9613641529744943
 40
0.9727742806428671
 40
0.9841949496436151
 40
0.9956280862636671
 40
1.0
 40
1.0
 40
1.0
 40
1.0
 10
659.0210799677603
 20
89.76765933192462
 30
0.0
 10
659.1061345602989
 20
89.76790627956775
 30
0.0
 10
659.2264548727749
 20
89.7682556177599
 30
0.0
 10
659.4051915733263
 20
89.77061198728354
 30
0.0
 10
659.5596923951658
 20
89.77348842416603
 30
0.0
 10
659.7442033922922
 20
89.77833096989805
 30
0.0
 10
659.9384252852365
 20
89.78495975889233
 30
0.0
 10
660.1421953443995
 20
89.79362989272515
 30
0.0
 10
660.3526955376078
 20
89.80442868449771
 30
0.0
 10
660.5683334041122
 20
89.81743965283485
 30
0.0
 10
660.7878894795299
 20
89.83272163316073
 30
0.0
 10
661.0104533788425
 20
89.85031953802043
 30
0.0
 10
661.2353224444302
 20
89.87026734298385
 30
0.0
 10
661.4619411551095
 20
89.89259083162533
 30
0.0
 10
661.6898599498581
 20
89.9173093718734
 30
0.0
 10
661.9187071304973
 20
89.94443721352184
 30
0.0
 10
662.1481692796439
 20
89.97398442583703
 30
0.0
 10
662.3779773574776
 20
90.00595759687745
 30
0.0
 10
662.6078966550082
 20
90.04036036269163
 30
0.0
 10
662.837719414451
 20
90.07719381532988
 30
0.0
 10
663.0672593263795
 20
90.11645682229064
 30
0.0
 10
663.2963473691393
 20
90.15814628040579
 30
0.0
 10
663.5248286229566
 20
90.20225732042304
 30
0.0
 10
663.7525598018154
 20
90.24878347403174
 30
0.0
 10
663.9794073208918
 20
90.29771681192898
 30
0.0
 10
664.2052457684151
 20
90.34904805929999
 30
0.0
 10
664.4299566863725
 20
90.40276669350621
 30
0.0
 10
664.6534275895176
 20
90.45886102761551
 30
0.0
 10
664.8755511700017
 20
90.5173182825662
 30
0.0
 10
665.0962246478842
 20
90.57812465012128
 30
0.0
 10
665.3153492372103
 20
90.64126534829593
 30
0.0
 10
665.5328297043301
 20
90.70672467057338
 30
0.0
 10
665.7485740003488
 20
90.77448602995085
 30
0.0
 10
665.9624929535164
 20
90.84453199862948
 30
0.0
 10
666.1745000103662
 20
90.91684434399806
 30
0.0
 10
666.3845110166847
 20
90.99140406141314
 30
0.0
 10
666.5924440311995
 20
91.0681914041758
 30
0.0
 10
666.7982191662161
 20
91.14718591100424
 30
0.0
 10
667.0017584505703
 20
91.22836643123767
 30
0.0
 10
667.2029857110679
 20
91.3117111479297
 30
0.0
 10
667.4018264693286
 20
91.39719759894962
 30
0.0
 10
667.598207851452
 20
91.48480269615266
 30
0.0
 10
667.7920585084221
 20
91.57450274265365
 30
0.0
 10
667.9833085454896
 20
91.6662734481911
 30
0.0
 10
668.1718894591112
 20
91.76008994255254
 30
0.0
 10
668.3577340802693
 20
91.85592678700317
 30
0.0
 10
668.540776523205
 20
91.95375798364185
 30
0.0
 10
668.7209521388024
 20
92.05355698259552
 30
0.0
 10
668.8981974720036
 20
92.15529668695243
 30
0.0
 10
669.0724502228138
 20
92.2589494553427
 30
0.0
 10
669.2436492105447
 20
92.36448710206558
 30
0.0
 10
669.4117343410995
 20
92.4718808946854
 30
0.0
 10
669.5766461420984
 20
92.5811012608773
 30
0.0
 10
669.738326157058
 20
92.69211801163684
 30
0.0
 10
669.8967169285069
 20
92.80490032832776
 30
0.0
 10
670.0517623779184
 20
92.91941705448602
 30
0.0
 10
670.2034074062186
 20
93.03563642677864
 30
0.0
 10
670.3515978809085
 20
93.1535260572364
 30
0.0
 10
670.4962806295177
 20
93.27305291539693
 30
0.0
 10
670.6374034378608
 20
93.39418330955378
 30
0.0
 10
670.7749150535227
 20
93.51688286779671
 30
0.0
 10
670.9087651949333
 20
93.64111651962862
 30
0.0
 10
671.0389045663301
 20
93.76684847910265
 30
0.0
 10
671.1652848787847
 20
93.89404223053364
 30
0.0
 10
671.2878588773302
 20
94.0226605179809
 30
0.0
 10
671.4065803740199
 20
94.15266533977125
 30
0.0
 10
671.5214042865051
 20
94.28401794940271
 30
0.0
 10
671.6322866814253
 20
94.41667886415779
 30
0.0
 10
671.7391848215915
 20
94.55060788271173
 30
0.0
 10
671.8420572155832
 20
94.68576411286787
 30
0.0
 10
671.9408636680348
 20
94.82210601034417
 30
0.0
 10
672.0355653285351
 20
94.9595914292051
 30
0.0
 10
672.1261247367709
 20
95.09817768413424
 30
0.0
 10
672.2125058613055
 20
95.23782162423726
 30
0.0
 10
672.2946741292449
 20
95.37847971749886
 30
0.0
 10
672.3725964440415
 20
95.52010814439869
 30
0.0
 10
672.4462411888079
 20
95.66266289853563
 30
0.0
 10
672.5155782128602
 20
95.80609989149265
 30
0.0
 10
672.5805787995274
 20
95.95037505858846
 30
0.0
 10
672.6412156145374
 20
96.09544446169123
 30
0.0
 10
672.6974626327369
 20
96.24126438493303
 30
0.0
 10
672.7492950506133
 20
96.38779141894098
 30
0.0
 10
672.7966891602849
 20
96.53498252943417
 30
0.0
 10
672.8396222840527
 20
96.68279510545723
 30
0.0
 10
672.8780724128434
 20
96.83118698596425
 30
0.0
 10
672.9120188976048
 20
96.98011645288875
 30
0.0
 10
672.9414391795079
 20
97.12954222144447
 30
0.0
 10
672.9663203061999
 20
97.27942330326509
 30
0.0
 10
672.9866152502781
 20
97.42971920181824
 30
0.0
 10
673.0024054725119
 20
97.58038872381348
 30
0.0
 10
673.0132929613916
 20
97.7313938239832
 30
0.0
 10
673.0191498967877
 20
97.85147641492301
 30
0.0
 10
673.0197448920483
 20
97.92121470407399
 30
0.0
 10
673.0199094766523
 20
97.94050535974493
 30
0.0
  0
LINE
  5
103
330
1F
100
AcDbEntity
  8
0
  6
Continuous
 62
     7
370
    30
100
AcDbLine
 10
645.2710799678
 20
96.4571818154
 30
0.0
 11
645.2710799678
 21
91.7314079648
 31
0.0
  0
LINE
  5
104
330
1F
100
AcDbEntity
  8
0
  6
Continuous
 62
     7
370
    30
100
AcDbLine
 10
672.7710799678
 20
91.7314079648
 30
0.0
 11
672.7710799678
 21
96.4578584604
 31
0.0
  0
SPLINE
  5
105
330
1F
100
AcDbEntity
  8
0
  6
Continuous
 62
     7
370
    30
100
AcDbSpline
210
0.0
220
0.0
230
1.0
 70
     8
 71
     3
 72
   195
 73
   191
 74
     0
 42
0.000000001
 43
0.00000001
 40
0.0
 40
0.0
 40
0.0
 40
0.0
 40
0.0006942331701292
 40
0.0097461481598227
 40
0.0189967184330355
 40
0.0284458875849272
 40
0.0380936931614377
 40
0.0432680399798124
 40
0.0484978276024848
 40
0.0537750440226134
 40
0.0587744168692268
 40
0.06332646654136
 40
0.067361873995484
 40
0.07096589921299
 40
0.074138591026956
 40
0.0768799942346851
 40
0.078602875004661
 40
0.0800976707218515
 40
0.0813643938557396
 40
0.0824030552902653
 40
0.0832136642931987
 40
0.083808950765687
 40
0.0844926336349791
 40
0.0857875998621929
 40
0.0874934777397886
 40
0.0895721746273532
 40
0.0917655327256654
 40
0.0972543808331243
 40
0.1031186428629808
 40
0.1093581883293488
 40
0.1141040306444809
 40
0.1190459944735243
 40
0.1241888173557339
 40
0.1296643073061789
 40
0.1355318415821236
 40
0.1417912762194038
 40
0.148051849007874
 40
0.1546605332959646
 40
0.1616171753040791
 40
0.1689216093918337
 40
0.1765736575237754
 40
0.181624120850832
 40
0.1868152309514214
 40
0.1921450442476645
 40
0.1973690847858053
 40
0.2023167106658416
 40
0.2069070241301044
 40
0.211230883082744
 40
0.2152883685190553
 40
0.2190795565641545
 40
0.2216695696186188
 40
0.2241187932729799
 40
0.2264272514930698
 40
0.228529544735237
 40
0.2302604603228061
 40
0.2316119852749397
 40
0.2325841458777392
 40
0.2332371972997697
 40
0.2338484207865657
 40
0.2345648150570171
 40
0.2353863772188482
 40
0.2363131040188397
 40
0.2386270022262774
 40
0.2414140338929232
 40
0.2446741512484409
 40
0.2484072905695166
 40
0.2524582944212216
 40
0.2566766148967745
 40
0.2636433420209491
 40
0.2710231408803045
 40
0.2788159612647196
 40
0.2857835895653127
 40
0.2930511663457366
 40
0.300618664111608
 40
0.3084860563753832
 40
0.3166533176812131
 40
0.3251204236278664
 40
0.3338873508899655
 40
0.3429540772377137
 40
0.3513325557156387
 40
0.3599516914265687
 40
0.3688114709845643
 40
0.377911881758878
 40
0.3872529118821283
 40
0.3966613518538366
 40
0.4063018747930738
 40
0.4161688830418082
 40
0.426042054163697
 40
0.4371307780307353
 40
0.4480805488980871
 40
0.4588914169457812
 40
0.4695634310307513
 40
0.4800966386396963
 40
0.4904910858446792
 40
0.500746817261366
 40
0.5108638760098052
 40
0.522256341535839
 40
0.5334678039078536
 40
0.5444983197515442
 40
0.5553479429037605
 40
0.566016724359926
 40
0.5765047122260942
 40
0.5868119516755396
 40
0.5969384849097714
 40
0.6068843511239206
 40
0.6166495864764406
 40
0.6262342240630856
 40
0.6356382938951796
 40
0.6448618228821986
 40
0.6539038777442567
 40
0.6626759689086376
 40
0.6711202805049672
 40
0.6792367809958515
 40
0.6870254372212498
 40
0.6944862144389499
 40
0.7016190763689425
 40
0.7084239852423487
 40
0.7141092475932368
 40
0.7195433609212676
 40
0.7247262975793832
 40
0.7297107926970364
 40
0.7395799184771661
 40
0.7408030079822809
 40
0.7417952643247909
 40
0.7424200765462325
 40
0.7425946874834569
 40
0.742858635895873
 40
0.7432319778974328
 40
0.7437381056963767
 40
0.7449657635564896
 40
0.7466131209227636
 40
0.7486802064498336
 40
0.7511886430698822
 40
0.7541236301008578
 40
0.7574852180687806
 40
0.7612734643109306
 40
0.7654884327953358
 40
0.7700435636724537
 40
0.7750104535861857
 40
0.7803891806472426
 40
0.7860680982999002
 40
0.794059074912858
 40
0.8023743764732211
 40
0.8110143145195491
 40
0.819979206260344
 40
0.8292693693649708
 40
0.8387105614648263
 40
0.8484660985546763
 40
0.858536246584666
 40
0.8689212453661439
 40
0.8723493613653039
 40
0.8757474329184263
 40
0.8791091831591767
 40
0.8824345941198785
 40
0.8857236486516631
 40
0.888976330401002
 40
0.8920880378239988
 40
0.894575812041417
 40
0.8966130813308523
 40
0.8981997911238414
 40
0.8993359002315958
 40
0.9000307228013577
 40
0.9006914553307083
 40
0.901535640840895
 40
0.9029959511206934
 40
0.904803132409596
 40
0.9069572067166354
 40
0.9094581992507347
 40
0.9123678717749704
 40
0.915638829125503
 40
0.9192711069031104
 40
0.9232549545214911
 40
0.9273083462875121
 40
0.9313015501830687
 40
0.9352345551870586
 40
0.9433777962345606
 40
0.9512500437685152
 40
0.9588512093467203
 40
0.9661812119908014
 40
0.9732399777753159
 40
0.9779863476524567
 40
0.9823658011813814
 40
0.986344830858204
 40
0.9899233968842095
 40
0.9916380560364205
 40
0.9932428236711022
 40
0.9947376965966336
 40
0.9962260312398393
 40
0.9979692095008122
 40
0.9999999999999999
 40
0.9999999999999999
 40
0.9999999999999999
 40
0.9999999999999999
 10
645.291259804445
 20
91.30173004160324
 30
0.0
 10
645.2916731906244
 20
91.29583372013052
 30
0.0
 10
645.2974766052746
 20
91.21305688787372
 30
0.0
 10
645.3191678437801
 20
91.05318950427073
 30
0.0
 10
645.3575652253272
 20
90.82077427559925
 30
0.0
 10
645.409535021871
 20
90.58548198050937
 30
0.0
 10
645.4636345340812
 20
90.38575301406186
 30
0.0
 10
645.514649444703
 20
90.22196072657894
 30
0.0
 10
645.5579550319612
 20
90.09452722367715
 30
0.0
 10
645.6041469933867
 20
89.96925219488526
 30
0.0
 10
645.6515520458939
 20
89.84993042281263
 30
0.0
 10
645.6977587273074
 20
89.74097146984582
 30
0.0
 10
645.7414427794008
 20
89.64353162132892
 30
0.0
 10
645.7819348848244
 20
89.55738370817488
 30
0.0
 10
645.818944735449
 20
89.4817622089706
 30
0.0
 10
645.8495940316635
 20
89.4212404024171
 30
0.0
 10
645.8740715785104
 20
89.37410640438979
 30
0.0
 10
645.8927973629286
 20
89.33868454169229
 30
0.0
 10
645.9088893470445
 20
89.30870038086779
 30
0.0
 10
645.9222389496149
 20
89.28413380704438
 30
0.0
 10
645.9328112926546
 20
89.2648696204847
 30
0.0
 10
645.9419188974305
 20
89.24839779529307
 30
0.0
 10
645.9532249670846
 20
89.22808741399956
 30
0.0
 10
645.9695732024244
 20
89.19902290223787
 30
0.0
 10
645.9924409582391
 20
89.15899755092839
 30
0.0
 10
646.0198349903083
 20
89.11197258136265
 30
0.0
 10
646.0654181797755
 20
89.03539527543629
 30
0.0
 10
646.1308150332025
 20
88.92962092587288
 30
0.0
 10
646.2198184015447
 20
88.79324352900012
 30
0.0
 10
646.309198703911
 20
88.66366181549915
 30
0.0
 10
646.3972080076098
 20
88.54209287796077
 30
0.0
 10
646.4820328167253
 20
88.4296682313769
 30
0.0
 10
646.5741528045124
 20
88.31257834206801
 30
0.0
 10
646.675202937375
 20
88.18952642678205
 30
0.0
 10
646.7870041980716
 20
88.05931396776435
 30
0.0
 10
646.9081196366055
 20
87.92464159330298
 30
0.0
 10
647.0387201685089
 20
87.78603404302947
 30
0.0
 10
647.178935692465
 20
87.64401390327541
 30
0.0
 10
647.3318593011377
 20
87.49639404288658
 30
0.0
 10
647.4982318666231
 20
87.34353591830164
 30
0.0
 10
647.6556127544121
 20
87.20609326105188
 30
0.0
 10
647.8004634458406
 20
87.08483635451753
 30
0.0
 10
647.9293589080622
 20
86.98050952070578
 30
0.0
 10
648.0626139217319
 20
86.87628374943023
 30
0.0
 10
648.1966455933006
 20
86.77495606243117
 30
0.0
 10
648.3268435307999
 20
86.6796742043947
 30
0.0
 10
648.451325802246
 20
86.59129011531157
 30
0.0
 10
648.569731333219
 20
86.5095508282102
 30
0.0
 10
648.6825092547095
 20
86.43371740901033
 30
0.0
 10
648.780541869479
 20
86.36939637205563
 30
0.0
 10
648.864362977923
 20
86.31548248925196
 30
0.0
 10
648.9346890187783
 20
86.27095193034965
 30
0.0
 10
649.0008503026773
 20
86.22967274344744
 30
0.0
 10
649.0604975148107
 20
86.1929632039056
 30
0.0
 10
649.1111671208782
 20
86.1621469413693
 30
0.0
 10
649.1509869069722
 20
86.1381593577608
 30
0.0
 10
649.1803279625221
 20
86.12061085786581
 30
0.0
 10
649.2024259158628
 20
86.10746066161217
 30
0.0
 10
649.2220266168736
 20
86.0958420696079
 30
0.0
 10
649.24333403511
 20
86.08326353117997
 30
0.0
 10
649.2678234421662
 20
86.06887511339241
 30
0.0
 10
649.3082898043916
 20
86.04522776575206
 30
0.0
 10
649.3686259822662
 20
86.01032041411021
 30
0.0
 10
649.4529603163071
 20
85.96229197397233
 30
0.0
 10
649.5524979955118
 20
85.90665485981057
 30
0.0
 10
649.6660552165845
 20
85.8445396235819
 30
0.0
 10
649.7908378053525
 20
85.77791012251488
 30
0.0
 10
649.9510547688424
 20
85.69452761370431
 30
0.0
 10
650.1492426510199
 20
85.5949143258032
 30
0.0
 10
650.3900181372651
 20
85.47921255155059
 30
0.0
 10
650.6353718535606
 20
85.36682802121486
 30
0.0
 10
650.8837733152471
 20
85.2582860534609
 30
0.0
 10
651.133622821439
 20
85.15402387606373
 30
0.0
 10
651.3979820160043
 20
85.04895120985755
 30
0.0
 10
651.6772110488461
 20
84.94354962978692
 30
0.0
 10
651.9716508920906
 20
84.83832961171657
 30
0.0
 10
652.2816194012813
 20
84.73383073008505
 30
0.0
 10
652.6074058703783
 20
84.63062217286162
 30
0.0
 10
652.9368503923345
 20
84.53298266329661
 30
0.0
 10
653.268813898848
 20
84.44104537990064
 30
0.0
 10
653.6021546322936
 20
84.35487713990513
 30
0.0
 10
653.9487981751771
 20
84.27169251862217
 30
0.0
 10
654.3088056052943
 20
84.1920006393483
 30
0.0
 10
654.6798917104109
 20
84.11679632290468
 30
0.0
 10
655.0618423287299
 20
84.04650786663407
 30
0.0
 10
655.4543335622067
 20
83.9815737852898
 30
0.0
 10
655.8563814440827
 20
83.92258091840436
 30
0.0
 10
656.2812984397282
 20
83.86815509630456
 30
0.0
 10
656.7240694060209
 20
83.82008846015498
 30
0.0
 10
657.1824795048756
 20
83.77961911155955
 30
0.0
 10
657.6371260217821
 20
83.74849089583861
 30
0.0
 10
658.0874349269405
 20
83.72639935647554
 30
0.0
 10
658.5328711085062
 20
83.71303266092488
 30
0.0
 10
658.9729361650159
 20
83.70807299966137
 30
0.0
 10
659.4071693745192
 20
83.7111977995848
 30
0.0
 10
659.8550810887896
 20
83.72258761132171
 30
0.0
 10
660.3155613246295
 20
83.74318708900695
 30
0.0
 10
660.7873228900614
 20
83.77391378717917
 30
0.0
 10
661.2494007336394
 20
83.81335643028346
 30
0.0
 10
661.7013765250284
 20
83.86102140786637
 30
0.0
 10
662.142885698442
 20
83.91641752053611
 30
0.0
 10
662.5736138178529
 20
83.9790574189034
 30
0.0
 10
662.9932948146969
 20
84.04845894568385
 30
0.0
 10
663.4017086768349
 20
84.12414635228936
 30
0.0
 10
663.7986792270632
 20
84.20565139750062
 30
0.0
 10
664.184071884155
 20
84.29251434700411
 30
0.0
 10
664.5577912912477
 20
84.38428481641535
 30
0.0
 10
664.9197794291088
 20
84.48052268764022
 30
0.0
 10
665.2699998705016
 20
84.58079481645288
 30
0.0
 10
665.6073490870228
 20
84.68434105689364
 30
0.0
 10
665.9301029981043
 20
84.79009547716531
 30
0.0
 10
666.2367118394843
 20
84.89689088348064
 30
0.0
 10
666.5268185473936
 20
85.00388451821082
 30
0.0
 10
666.8008016796412
 20
85.11050009340283
 30
0.0
 10
667.0590619867165
 20
85.21619540136437
 30
0.0
 10
667.3020163526761
 20
85.32046130465937
 30
0.0
 10
667.5212494024555
 20
85.41885203270381
 30
0.0
 10
667.7185109530652
 20
85.51096494757228
 30
0.0
 10
667.8954515370447
 20
85.59653526198478
 30
0.0
 10
668.0624879961647
 20
85.68004745091453
 30
0.0
 10
668.2741316981726
 20
85.78926954112048
 30
0.0
 10
668.4405224071351
 20
85.87919035278775
 30
0.0
 10
668.5635917558051
 20
85.94802392955535
 30
0.0
 10
668.5924215722932
 20
85.96425953221578
 30
0.0
 10
668.610564485017
 20
85.9745279997505
 30
0.0
 10
668.6213198426484
 20
85.98063035043103
 30
0.0
 10
668.6295269239282
 20
85.9852931861214
 30
0.0
 10
668.6410708259777
 20
85.991864767537
 30
0.0
 10
668.6623150588068
 20
86.00399136873698
 30
0.0
 10
668.6963114845483
 20
86.02350144612667
 30
0.0
 10
668.7457826907546
 20
86.05214569240495
 30
0.0
 10
668.8077158146634
 20
86.0884195395976
 30
0.0
 10
668.8819284340244
 20
86.13250450155361
 30
0.0
 10
668.9681801788194
 20
86.1846108035264
 30
0.0
 10
669.0659640698132
 20
86.24484609550666
 30
0.0
 10
669.1748610379822
 20
86.31342952877706
 30
0.0
 10
669.2935723487655
 20
86.39007456929482
 30
0.0
 10
669.4214567926238
 20
86.47492702839337
 30
0.0
 10
669.5578334417437
 20
86.56814655865625
 30
0.0
 10
669.7017030622613
 20
86.66973529361931
 30
0.0
 10
669.8692189519959
 20
86.79222517199452
 30
0.0
 10
670.0576137976162
 20
86.9361129608047
 30
0.0
 10
670.2644709996935
 20
87.10264773845034
 30
0.0
 10
670.4717722533586
 20
87.27911110613458
 30
0.0
 10
670.6784520301221
 20
87.46577259067088
 30
0.0
 10
670.8820983206049
 20
87.66165491580831
 30
0.0
 10
671.0816454061176
 20
87.86683005241629
 30
0.0
 10
671.2760041650218
 20
88.08134474401054
 30
0.0
 10
671.4650476765812
 20
88.3065443225428
 30
0.0
 10
671.6048732578399
 20
88.48748279602016
 30
0.0
 10
671.7008622505722
 20
88.61919111839526
 30
0.0
 10
671.7562471561477
 20
88.69748680685156
 30
0.0
 10
671.8096657703217
 20
88.77531438940608
 30
0.0
 10
671.861122614922
 20
88.85260351404588
 30
0.0
 10
671.9106577751514
 20
88.9293345547557
 30
0.0
 10
671.957800059238
 20
89.00467159956384
 30
0.0
 10
671.9998481563182
 20
89.07398667902437
 30
0.0
 10
672.0352305582389
 20
89.13396636717157
 30
0.0
 10
672.0629662269661
 20
89.18207903686006
 30
0.0
 10
672.0842023929134
 20
89.21961436474287
 30
0.0
 10
672.099250030424
 20
89.24659364493641
 30
0.0
 10
672.1101155513533
 20
89.26626420106145
 30
0.0
 10
672.1196263411925
 20
89.28360657430389
 30
0.0
 10
672.1323454945735
 20
89.30698662287557
 30
0.0
 10
672.1497727199162
 20
89.33942167803869
 30
0.0
 10
672.1723718675574
 20
89.38223987098894
 30
0.0
 10
672.1987645577934
 20
89.43335757145178
 30
0.0
 10
672.2289142770778
 20
89.49331223231026
 30
0.0
 10
672.2625217282862
 20
89.56227474001165
 30
0.0
 10
672.2992248596851
 20
89.64042266406412
 30
0.0
 10
672.3383529586629
 20
89.72736632112026
 30
0.0
 10
672.378404787513
 20
89.82083213594687
 30
0.0
 10
672.4176400764075
 20
89.91748273315879
 30
0.0
 10
672.4546553050103
 20
90.01400503475458
 30
0.0
 10
672.5015851290646
 20
90.1438292776071
 30
0.0
 10
672.5546834396645
 20
90.30562392134007
 30
0.0
 10
672.6094003222265
 20
90.49803144646691
 30
0.0
 10
672.6546048154552
 20
90.6845134194824
 30
0.0
 10
672.6910747205437
 20
90.86489805789357
 30
0.0
 10
672.7168209484491
 20
91.02225010111869
 30
0.0
 10
672.7344347807709
 20
91.15556104266486
 30
0.0
 10
672.7460690604207
 20
91.26355522368286
 30
0.0
 10
672.7544678621737
 20
91.36192502395073
 30
0.0
 10
672.7594523504351
 20
91.43834386562415
 30
0.0
 10
672.7623374044598
 20
91.49510525561354
 30
0.0
 10
672.7640319417951
 20
91.53485155772948
 30
0.0
 10
672.7652041389081
 20
91.57218381063157
 30
0.0
 10
672.7665796932338
 20
91.6126252037645
 30
0.0
 10
672.7699688589353
 20
91.66653202283807
 30
0.0
 10
672.7706912472044
 20
91.70871098846469
 30
0.0
 10
672.77107996776
 20
91.73140769002836
 30
0.0
  0
SPLINE
  5
106
330
1F
100
AcDbEntity
  8
0
  6
Continuous
 62
     7
370
    30
100
AcDbSpline
210
0.0
220
0.0
230
1.0
 70
     8
 71
     3
 72
   194
 73
   190
 74
     0
 42
0.000000001
 43
0.00000001
 40
0.0
 40
0.0
 40
0.0
 40
0.0
 40
0.0027142624313918
 40
0.0079901895622611
 40
0.0132664815865034
 40
0.0185432579025814
 40
0.02382063662678
 40
0.0290987342927456
 40
0.0343776655579972
 40
0.0396575429183465
 40
0.0449384764315524
 40
0.0502205734512649
 40
0.0555039383723345
 40
0.0607886723886507
 40
0.0660748732640844
 40
0.0713626351177585
 40
0.0766520482242197
 40
0.081943198829333
 40
0.0872361689823852
 40
0.0925310363849376
 40
0.0978278742571233
 40
0.1031267512211689
 40
0.1084277312030886
 40
0.1137308733519453
 40
0.1190362319773415
 40
0.1243438565047828
 40
0.1296537914487558
 40
0.1349660764033077
 40
0.1402807460499874
 40
0.1455978301822655
 40
0.1509173537465076
 40
0.1562393368984481
 40
0.161563795074654
 40
0.1668907390783526
 40
0.17222017517869
 40
0.177552105222696
 40
0.1828865267588678
 40
0.1882234331718105
 40
0.193562813826368
 40
0.198904654221024
 40
0.2042489361489097
 40
0.209595637865738
 40
0.2149447342635614
 40
0.2202961970493772
 40
0.2256499949275257
 40
0.2310060937850108
 40
0.2363644568786351
 40
0.2417250450231844
 40
0.2470878167797439
 40
0.2524527286431958
 40
0.2578197352282608
 40
0.2631887894532674
 40
0.268559842720844
 40
0.2739328450952062
 40
0.2793077454750302
 40
0.2846844917618616
 40
0.2900630310230287
 40
0.2954433096492279
 40
0.3008252735060471
 40
0.3062088680791762
 40
0.3115940386131363
 40
0.3169807302433954
 40
0.3223688881214998
 40
0.3277584575332905
 40
0.3331493840101621
 40
0.3385416134332214
 40
0.3439350921304555
 40
0.3493297669670017
 40
0.3547255854284947
 40
0.3601224956978348
 40
0.3655204467250693
 40
0.3709193882913101
 40
0.3763192710659373
 40
0.3817200466582141
 40
0.3871216676627507
 40
0.3925240876998058
 40
0.397927261449881
 40
0.4033311446834568
 40
0.4087356942859274
 40
0.4141408682779034
 40
0.419546625831324
 40
0.4249529272813979
 40
0.4303597341348674
 40
0.4357670090747595
 40
0.4411747159617814
 40
0.4465828198326667
 40
0.4519912868958752
 40
0.4574000845244701
 40
0.4628091812469077
 40
0.4682185467354893
 40
0.473628151792877
 40
0.4790379683370711
 40
0.4844479693844991
 40
0.4898581290320375
 40
0.4952684224375102
 40
0.500678825799423
 40
0.5060893163355431
 40
0.5114998722607372
 40
0.5169104727642145
 40
0.5223210979863078
 40
0.5277317255195707
 40
0.5331423349936677
 40
0.5385529095466993
 40
0.5439634331629887
 40
0.5493738906488103
 40
0.5547842676077681
 40
0.5601945504165283
 40
0.5656047262006457
 40
0.5710147828104759
 40
0.5764247087975003
 40
0.5818344933910131
 40
0.587244126474845
 40
0.5926535985648578
 40
0.5980629007864613
 40
0.6034720248528687
 40
0.608880963043632
 40
0.6142897081836648
 40
0.6196982536227453
 40
0.6251065932155492
 40
0.630514721302229
 40
0.635922632689324
 40
0.6413303226313188
 40
0.646737786812806
 40
0.6521450213308809
 40
0.6575520226783856
 40
0.6629587877274196
 40
0.6683653137134784
 40
0.673771598220068
 40
0.6791776391638188
 40
0.68458343478006
 40
0.6899889836091193
 40
0.6953942844825585
 40
0.700799336510524
 40
0.7062041390691485
 40
0.7116086917884331
 40
0.7170129945408031
 40
0.7224170474298448
 40
0.727820850779601
 40
0.7332244051241854
 40
0.7386277111979006
 40
0.7440307699257067
 40
0.7494335824140185
 40
0.7548361499418237
 40
0.7602384739524167
 40
0.7656405560451687
 40
0.771042397967815
 40
0.7764440016089361
 40
0.7818453689909288
 40
0.7872465022631533
 40
0.7926474036953157
 40
0.7980480756713446
 40
0.8034485206833567
 40
0.8088487413258897
 40
0.8142487402905201
 40
0.8196485203606241
 40
0.8250480844063915
 40
0.8304474353801187
 40
0.8358465763115522
 40
0.8412455103037193
 40
0.8466442405287625
 40
0.8520427702239767
 40
0.8574411026881033
 40
0.8628392412777307
 40
0.8682371894040263
 40
0.8736349505294173
 40
0.8790325281645499
 40
0.8844299258653815
 40
0.8898271472305329
 40
0.895224195898497
 40
0.900621075545269
 40
0.9060177898820029
 40
0.9114143426527112
 40
0.9168107376322089
 40
0.9222069786241591
 40
0.9276030694590799
 40
0.9329990139926232
 40
0.9383948161038678
 40
0.9437904796937885
 40
0.9491860086836786
 40
0.9545814070138184
 40
0.9599766786420579
 40
0.9653718275426021
 40
0.970766857704904
 40
0.9761617731324239
 40
0.9815565778417091
 40
0.9869512758613667
 40
0.9923458712311622
 40
0.9977403680011493
 40
1.0
 40
1.0
 40
1.0
 40
1.0
 10
782.2027279435175
 20
307.4623770451786
 30
0.0
 10
782.1486131578966
 20
307.4286816175252
 30
0.0
 10
781.9893111721228
 20
307.3294897150702
 30
0.0
 10
781.7274290543778
 20
307.1604459123637
 30
0.0
 10
781.4169342967651
 20
306.9555336119594
 30
0.0
 10
781.108986150438
 20
306.7464293001256
 30
0.0
 10
780.8034439756487
 20
306.5334028782883
 30
0.0
 10
780.500364669518
 20
306.3163943432415
 30
0.0
 10
780.199752204398
 20
306.0954322242237
 30
0.0
 10
779.9016247585251
 20
305.8705214585207
 30
0.0
 10
779.6059967325658
 20
305.6416734554072
 30
0.0
 10
779.3128835759298
 20
305.4088980537202
 30
0.0
 10
779.0223004986351
 20
305.1722056929159
 30
0.0
 10
778.7342628207973
 20
304.9316068471166
 30
0.0
 10
778.4487858819936
 20
304.6871121930673
 30
0.0
 10
778.1658850673891
 20
304.4387325815918
 30
0.0
 10
777.8855758013548
 20
304.1864790618249
 30
0.0
 10
777.60787354859
 20
303.930362891304
 30
0.0
 10
777.3327938120397
 20
303.6703955497538
 30
0.0
 10
777.0603521304914
 20
303.4065887516808
 30
0.0
 10
776.7905640751089
 20
303.138954458989
 30
0.0
 10
776.5234452451285
 20
302.867504893193
 30
0.0
 10
776.2590112627068
 20
302.5922525472543
 30
0.0
 10
775.997277766961
 20
302.3132101969381
 30
0.0
 10
775.7382604072477
 20
302.030390911641
 30
0.0
 10
775.481974835723
 20
301.7438080646191
 30
0.0
 10
775.2284366992394
 20
301.4534753425672
 30
0.0
 10
774.9776616306284
 20
301.1594067544937
 30
0.0
 10
774.7296652394311
 20
300.8616166398511
 30
0.0
 10
774.4844631021308
 20
300.5601196758761
 30
0.0
 10
774.2420707519553
 20
300.2549308841126
 30
0.0
 10
774.0025036683072
 20
299.9460656360863
 30
0.0
 10
773.7657772658899
 20
299.6335396581134
 30
0.0
 10
773.5319068835942
 20
299.3173690352281
 30
0.0
 10
773.3009077732064
 20
298.9975702142191
 30
0.0
 10
773.0727950880078
 20
298.674160005778
 30
0.0
 10
772.8475838713232
 20
298.3471555857581
 30
0.0
 10
772.6252890450879
 20
298.0165744955636
 30
0.0
 10
772.4059253984832
 20
297.6824346416741
 30
0.0
 10
772.1895075767073
 20
297.3447542943363
 30
0.0
 10
771.976050069929
 20
297.0035520854403
 30
0.0
 10
771.7655672024814
 20
296.6588470056207
 30
0.0
 10
771.5580731223409
 20
296.3106584006122
 30
0.0
 10
771.3535817909383
 20
295.9590059669015
 30
0.0
 10
771.1521069733387
 20
295.6039097467154
 30
0.0
 10
770.9536622288326
 20
295.245390122395
 30
0.0
 10
770.7582609019674
 20
294.8834678101991
 30
0.0
 10
770.5659161140466
 20
294.5181638535889
 30
0.0
 10
770.3766407551243
 20
294.1494996160438
 30
0.0
 10
770.1904474765125
 20
293.7774967734602
 30
0.0
 10
770.0073486838163
 20
293.4021773061847
 30
0.0
 10
769.8273565305105
 20
293.023563490736
 30
0.0
 10
769.6504829120645
 20
292.6416778912625
 30
0.0
 10
769.4767394606165
 20
292.2565433507918
 30
0.0
 10
769.3061375402002
 20
291.8681829823121
 30
0.0
 10
769.13868824252
 20
291.4766201597461
 30
0.0
 10
768.9744023832656
 20
291.0818785088509
 30
0.0
 10
768.8132904989593
 20
290.6839818980962
 30
0.0
 10
768.6553628443208
 20
290.2829544295543
 30
0.0
 10
768.5006293901375
 20
289.8788204298496
 30
0.0
 10
768.34909982162
 20
289.4716044411953
 30
0.0
 10
768.2007835372266
 20
289.0613312125558
 30
0.0
 10
768.0556896479335
 20
288.6480256909621
 30
0.0
 10
767.9138269769323
 20
288.2317130130103
 30
0.0
 10
767.7752040597277
 20
287.8124184965656
 30
0.0
 10
767.6398291446135
 20
287.3901676326955
 30
0.0
 10
767.5077101935034
 20
286.9649860778499
 30
0.0
 10
767.3788548830888
 20
286.5368996463041
 30
0.0
 10
767.2532706063
 20
286.1059343028771
 30
0.0
 10
767.1309644740469
 20
285.6721161559404
 30
0.0
 10
767.0119433172108
 20
285.2354714507179
 30
0.0
 10
766.8962136888674
 20
284.7960265628942
 30
0.0
 10
766.7837818667114
 20
284.3538079925205
 30
0.0
 10
766.6746538556655
 20
283.9088423582381
 30
0.0
 10
766.5688353906444
 20
283.4611563917979
 30
0.0
 10
766.4663319394577
 20
283.0107769328944
 30
0.0
 10
766.3671487058276
 20
282.5577309242976
 30
0.0
 10
766.271290632502
 20
282.1020454072851
 30
0.0
 10
766.1787624044449
 20
281.6437475173643
 30
0.0
 10
766.0895684520843
 20
281.1828644802766
 30
0.0
 10
766.0037129546038
 20
280.7194236082809
 30
0.0
 10
765.9211998432595
 20
280.2534522967023
 30
0.0
 10
765.8420328047091
 20
279.784978020739
 30
0.0
 10
765.7662152843393
 20
279.3140283325143
 30
0.0
 10
765.69375048958
 20
278.8406308583675
 30
0.0
 10
765.6246413931926
 20
278.3648132963671
 30
0.0
 10
765.5588907365238
 20
277.8866034140422
 30
0.0
 10
765.4965010327139
 20
277.4060290463084
 30
0.0
 10
765.4374745698534
 20
276.9231180935924
 30
0.0
 10
765.38181341408
 20
276.4378985201305
 30
0.0
 10
765.3295194126075
 20
275.9503983524354
 30
0.0
 10
765.2805941966856
 20
275.4606456779217
 30
0.0
 10
765.2350391844808
 20
274.96866864367
 30
0.0
 10
765.1928555838789
 20
274.4744954553345
 30
0.0
 10
765.1540443952027
 20
273.9781543761627
 30
0.0
 10
765.1186064138436
 20
273.4796737261356
 30
0.0
 10
765.0865422328066
 20
272.9790818812069
 30
0.0
 10
765.0578522451633
 20
272.4764072726387
 30
0.0
 10
765.0325366464174
 20
271.9716783864163
 30
0.0
 10
765.0105954414743
 20
271.4649238712289
 30
0.0
 10
764.9920284415551
 20
270.9561725048418
 30
0.0
 10
764.9768352611524
 20
270.4454531124621
 30
0.0
 10
764.9650153189249
 20
269.9327944559822
 30
0.0
 10
764.9565678441487
 20
269.4182252675868
 30
0.0
 10
764.9514918815377
 20
268.9017743321986
 30
0.0
 10
764.9497862929628
 20
268.3834704872763
 30
0.0
 10
764.9514497590881
 20
267.8633426226373
 30
0.0
 10
764.956480780924
 20
267.341419680298
 30
0.0
 10
764.9648776813051
 20
266.8177306543227
 30
0.0
 10
764.9766386062873
 20
266.2923045906783
 30
0.0
 10
764.9917615264756
 20
265.7651705870923
 30
0.0
 10
765.0102442382764
 20
265.2363577929036
 30
0.0
 10
765.0320843650854
 20
264.7058954089159
 30
0.0
 10
765.0572793584063
 20
264.1738126872322
 30
0.0
 10
765.0858264989088
 20
263.6401389310815
 30
0.0
 10
765.1177228974249
 20
263.1049034946275
 30
0.0
 10
765.152965495889
 20
262.5681357827621
 30
0.0
 10
765.1915510682227
 20
262.0298652508767
 30
0.0
 10
765.2334762211668
 20
261.4901214046089
 30
0.0
 10
765.2787373950663
 20
260.9489337995678
 30
0.0
 10
765.3273308646064
 20
260.4063320410333
 30
0.0
 10
765.3792527395068
 20
259.8623457836263
 30
0.0
 10
765.4344989651722
 20
259.3170047309532
 30
0.0
 10
765.4930653233068
 20
258.7703386352154
 30
0.0
 10
765.5549474324897
 20
258.2223772967959
 30
0.0
 10
765.6201407487189
 20
257.6731505638072
 30
0.0
 10
765.6886405659211
 20
257.1226883316139
 30
0.0
 10
765.7604420164347
 20
256.5710205423188
 30
0.0
 10
765.8355400714628
 20
256.0181771842207
 30
0.0
 10
765.9139295415047
 20
255.4641882912306
 30
0.0
 10
765.99560507676
 20
254.9090839422679
 30
0.0
 10
766.0805611675156
 20
254.3528942606119
 30
0.0
 10
766.1687921445115
 20
253.795649413231
 30
0.0
 10
766.2602921792886
 20
253.2373796100699
 30
0.0
 10
766.3550552845228
 20
252.6781151033106
 30
0.0
 10
766.4530753143433
 20
252.1178861865996
 30
0.0
 10
766.5543459646409
 20
251.5567231942403
 30
0.0
 10
766.6588607733617
 20
250.9946565003606
 30
0.0
 10
766.7666131207951
 20
250.4317165180444
 30
0.0
 10
766.8775962298517
 20
249.8679336984337
 30
0.0
 10
766.991803166336
 20
249.3033385297998
 30
0.0
 10
767.1092268392111
 20
248.7379615365907
 30
0.0
 10
767.2298600008625
 20
248.1718332784426
 30
0.0
 10
767.3536952473559
 20
247.6049843491682
 30
0.0
 10
767.4807250186957
 20
247.0374453757109
 30
0.0
 10
767.6109415990798
 20
246.469247017083
 30
0.0
 10
767.744337117156
 20
245.9004199632681
 30
0.0
 10
767.8809035462792
 20
245.3309949341015
 30
0.0
 10
768.02063270477
 20
244.7610026781258
 30
0.0
 10
768.163516256176
 20
244.1904739714218
 30
0.0
 10
768.3095457095359
 20
243.6194396164155
 30
0.0
 10
768.4587124196488
 20
243.0479304406635
 30
0.0
 10
768.6110075873472
 20
242.4759772956157
 30
0.0
 10
768.7664222597757
 20
241.903611055357
 30
0.0
 10
768.9249473306755
 20
241.330862615326
 30
0.0
 10
769.0865735406766
 20
240.7577628910147
 30
0.0
 10
769.2512914775942
 20
240.184342816653
 30
0.0
 10
769.4190915767363
 20
239.6106333438677
 30
0.0
 10
769.5899641212161
 20
239.0366654403279
 30
0.0
 10
769.7638992422751
 20
238.4624700883698
 30
0.0
 10
769.9408869196141
 20
237.8880782836075
 30
0.0
 10
770.1209169817317
 20
237.3135210335305
 30
0.0
 10
770.3039791062756
 20
236.7388293560772
 30
0.0
 10
770.4900628204011
 20
236.1640342782008
 30
0.0
 10
770.6791575011416
 20
235.589166834417
 30
0.0
 10
770.8712523757861
 20
235.0142580653437
 30
0.0
 10
771.0663365222725
 20
234.439339016219
 30
0.0
 10
771.2643988695869
 20
233.8644407354147
 30
0.0
 10
771.4654281981766
 20
233.289594272933
 30
0.0
 10
771.6694131403729
 20
232.7148306788957
 30
0.0
 10
771.8763421808263
 20
232.1401810020194
 30
0.0
 10
772.0862036569523
 20
231.5656762880821
 30
0.0
 10
772.2989857593925
 20
230.9913475783798
 30
0.0
 10
772.5146765324713
 20
230.4172259081716
 30
0.0
 10
772.733263874724
 20
229.8433423051305
 30
0.0
 10
772.954735539218
 20
229.2697277877338
 30
0.0
 10
773.179079134696
 20
228.6964133638421
 30
0.0
 10
773.4062821237172
 20
228.1234300285243
 30
0.0
 10
773.6363318320565
 20
227.5508087646758
 30
0.0
 10
773.8692154161425
 20
226.9785805331765
 30
0.0
 10
774.1049199871504
 20
226.4067763020689
 30
0.0
 10
774.3434321505301
 20
225.8354269300757
 30
0.0
 10
774.5847397271458
 20
225.2645635936908
 30
0.0
 10
774.8288253328499
 20
224.6942161856727
 30
0.0
 10
775.0756903418923
 20
224.1244192841017
 30
0.0
 10
775.3252654598449
 20
223.5551898685682
 30
0.0
 10
775.5777444631113
 20
222.9866104743487
 30
0.0
 10
775.7830233691731
 20
222.5285591648083
 30
0.0
 10
775.9051126302442
 20
222.2602875063507
 30
0.0
 10
775.9411555045365
 20
222.1810890446912
 30
0.0
  0
SPLINE
  5
107
330
1F
100
AcDbEntity
  8
0
  6
Continuous
 62
     7
370
    30
100
AcDbSpline
210
0.0
220
0.0
230
1.0
 70
     8
 71
     3
 72
   194
 73
   190
 74
     0
 42
0.000000001
 43
0.00000001
 40
0.0
 40
0.0
 40
0.0
 40
0.0
 40
0.0045254361303441
 40
0.0099201181117768
 40
0.0153148980942514
 40
0.020709780158734
 40
0.0261047683776879
 40
0.0314998668144894
 40
0.0368950795224544
 40
0.0422904105440681
 40
0.0476858639099788
 40
0.0530814436380359
 40
0.0584771537322182
 40
0.0638729981814444
 40
0.0692689809584278
 40
0.0746651060184093
 40
0.0800613772976582
 40
0.085457798712187
 40
0.0908543741560556
 40
0.0962511074999125
 40
0.10164800258908
 40
0.1070450632418668
 40
0.1124422932475418
 40
0.1178396963643442
 40
0.123237276317288
 40
0.1286350367958745
 40
0.1340329814517165
 40
0.1394311138959133
 40
0.1448294376964575
 40
0.1502279563753998
 40
0.1556266734057829
 40
0.1610255922086287
 40
0.1664247161495506
 40
0.1718240485353851
 40
0.1772235926104025
 40
0.1826233515526387
 40
0.1880233284698
 40
0.1934235263950103
 40
0.1988239482824785
 40
0.2042245970027886
 40
0.2096254753380482
 40
0.2150265859768488
 40
0.2204279315088591
 40
0.2258295144192897
 40
0.2312313370829568
 40
0.2366334017583297
 40
0.2420357105809666
 40
0.2474382655569282
 40
0.2528410685558086
 40
0.2582441213033763
 40
0.2636474253739617
 40
0.2690509821826725
 40
0.2744547929768761
 40
0.2798588588277524
 40
0.2852631806212108
 40
0.2906677590485461
 40
0.2960725945966841
 40
0.3014776875380036
 40
0.3068830379198711
 40
0.3122886455535351
 40
0.3176945100028429
 40
0.3231006305723099
 40
0.3285070062948668
 40
0.3339136359191384
 40
0.3393205178962016
 40
0.3447276503658554
 40
0.350135031142486
 40
0.355542657700366
 40
0.3609505271585012
 40
0.3663586362648888
 40
0.3717669813804
 40
0.3771755584619843
 40
0.3825843630454675
 40
0.3879933902277251
 40
0.3934026346485799
 40
0.3988120904717316
 40
0.404221751365654
 40
0.4096316104836333
 40
0.4150416604434166
 40
0.4204518933064493
 40
0.4258623005565612
 40
0.4312728730779996
 40
0.4366836011334096
 40
0.4420944743410883
 40
0.447505481651837
 40
0.4529166113256491
 40
0.4583278509078358
 40
0.4637391872050562
 40
0.4691506062609143
 40
0.4745620933314989
 40
0.4799736328606635
 40
0.4853852084552742
 40
0.4907968028604769
 40
0.4962083926316044
 40
0.501619957467816
 40
0.5070314770648786
 40
0.5124429301513193
 40
0.5178542944648302
 40
0.5232655467295056
 40
0.5286766626335047
 40
0.5340876168078474
 40
0.5394983828059118
 40
0.5449089330842285
 40
0.550319238984428
 40
0.5557292707168124
 40
0.561138997345335
 40
0.5665483867745863
 40
0.5719574057386854
 40
0.5773660197925455
 40
0.5827741933053366
 40
0.5881818894568491
 40
0.5935890702366086
 40
0.5989956964462827
 40
0.6044017277052909
 40
0.6098071224601896
 40
0.6152118379979484
 40
0.6206158304632535
 40
0.6260190548803853
 40
0.6314214651797979
 40
0.6368230142293642
 40
0.6422236538712198
 40
0.6476233349637684
 40
0.6530220074294761
 40
0.6584196203086099
 40
0.6638161218191466
 40
0.6692114594229907
 40
0.6746055798988153
 40
0.6799984294213978
 40
0.6853899536482624
 40
0.6907800978128087
 40
0.6961688068247374
 40
0.701556025377662
 40
0.7069416980636452
 40
0.7123257694949063
 40
0.7177081844326061
 40
0.7230888879224702
 40
0.7284678254371787
 40
0.7338449430252958
 40
0.7392201874664283
 40
0.7445935064322063
 40
0.7499648486531038
 40
0.7553341640899716
 40
0.7607014041105191
 40
0.7660665216696123
 40
0.7714294714930813
 40
0.7767902102643902
 40
0.7821486968130502
 40
0.7875048923047202
 40
0.792858760431318
 40
0.7982102676009813
 40
0.8035593831265115
 40
0.8089060794115678
 40
0.81425033213365
 40
0.8195921204226843
 40
0.8249314270343767
 40
0.8302682385171587
 40
0.8356025453718982
 40
0.8409343422030939
 40
0.8462636278606191
 40
0.8515904055712438
 40
0.8569146830585581
 40
0.8622364726507504
 40
0.8675557913750624
 40
0.8728726610383168
 40
0.8781871082925965
 40
0.883499164685359
 40
0.8888088666935097
 40
0.8941162557406768
 40
0.8994213781973553
 40
0.9047242853634774
 40
0.9100250334331093
 40
0.9153236834411642
 40
0.9206203011918801
 40
0.925914957169177
 40
0.9312077264290649
 40
0.9364986884739843
 40
0.9417879271099615
 40
0.9470755302861518
 40
0.9523615899181522
 40
0.957646201695065
 40
0.9629294648711547
 40
0.9682114820429406
 40
0.9734923589124983
 40
0.978772204037967
 40
0.9840511285719987
 40
0.9893292459896155
 40
0.9946066718062926
 40
0.999883523287446
 40
1.0
 40
1.0
 40
1.0
 40
1.0
 10
789.9398883786229
 20
197.9316462069209
 30
0.0
 10
790.0413346794638
 20
197.7900210146938
 30
0.0
 10
790.2637130883859
 20
197.4795672608389
 30
0.0
 10
790.609352106958
 20
197.0027304531154
 30
0.0
 10
790.9763146561769
 20
196.5006755601189
 30
0.0
 10
791.3452205424825
 20
196.0007566331025
 30
0.0
 10
791.7159815540438
 20
195.5029299360565
 30
0.0
 10
792.0885961110533
 20
195.0072417153923
 30
0.0
 10
792.4630393044263
 20
194.5137139680109
 30
0.0
 10
792.8392923621113
 20
194.0223750488477
 30
0.0
 10
793.2173347547908
 20
193.5332514676654
 30
0.0
 10
793.5971463126352
 20
193.0463700854911
 30
0.0
 10
793.9787066595227
 20
192.5617575244063
 30
0.0
 10
794.3619953660678
 20
192.0794403240566
 30
0.0
 10
794.7469919100439
 20
191.5994448980875
 30
0.0
 10
795.1336756884148
 20
191.1217975442105
 30
0.0
 10
795.5220260155422
 20
190.6465244399141
 30
0.0
 10
795.9120221250944
 20
190.1736516420425
 30
0.0
 10
796.3036431709701
 20
189.7032050853488
 30
0.0
 10
796.6968682284795
 20
189.2352105813484
 30
0.0
 10
797.0916762954608
 20
188.7696938171048
 30
0.0
 10
797.4880462934087
 20
188.3066803540567
 30
0.0
 10
797.8859570686021
 20
187.8461956268487
 30
0.0
 10
798.2853873932269
 20
187.3882649421825
 30
0.0
 10
798.6863159664979
 20
186.9329134776807
 30
0.0
 10
799.0887214157777
 20
186.4801662807673
 30
0.0
 10
799.4925822976907
 20
186.0300482675648
 30
0.0
 10
799.8978770992345
 20
185.5825842218034
 30
0.0
 10
800.3045842388867
 20
185.1377987937491
 30
0.0
 10
800.712682067705
 20
184.6957164991472
 30
0.0
 10
801.1221488704232
 20
184.2563617181803
 30
0.0
 10
801.5329628665373
 20
183.8197586944459
 30
0.0
 10
801.9451022113906
 20
183.3859315339446
 30
0.0
 10
802.3585449972429
 20
182.9549042040921
 30
0.0
 10
802.7732692543378
 20
182.5267005327408
 30
0.0
 10
803.1892529519566
 20
182.101344207222
 30
0.0
 10
803.6064739994642
 20
181.6788587734031
 30
0.0
 10
804.0249102473435
 20
181.2592676347607
 30
0.0
 10
804.4445394882168
 20
180.8425940514726
 30
0.0
 10
804.8653394578574
 20
180.4288611395231
 30
0.0
 10
805.2872878361862
 20
180.0180918698258
 30
0.0
 10
805.7103622482541
 20
179.610309067364
 30
0.0
 10
806.1345402652108
 20
179.2055354103445
 30
0.0
 10
806.5597994052533
 20
178.8037934293723
 30
0.0
 10
806.9861171345635
 20
178.4051055066344
 30
0.0
 10
807.4134708682228
 20
178.0094938751056
 30
0.0
 10
807.8418379711119
 20
177.616980617764
 30
0.0
 10
808.271195758787
 20
177.2275876668265
 30
0.0
 10
808.7015214983383
 20
176.8413368029949
 30
0.0
 10
809.1327924092227
 20
176.4582496547203
 30
0.0
 10
809.5649856640787
 20
176.078347697477
 30
0.0
 10
809.9980783895111
 20
175.7016522530538
 30
0.0
 10
810.432047666857
 20
175.3281844888545
 30
0.0
 10
810.8668705329176
 20
174.9579654172153
 30
0.0
 10
811.3025239806707
 20
174.5910158947284
 30
0.0
 10
811.738984959948
 20
174.2273566215807
 30
0.0
 10
812.1762303780856
 20
173.8670081409014
 30
0.0
 10
812.6142371005441
 20
173.5099908381165
 30
0.0
 10
813.0529819514934
 20
173.1563249403158
 30
0.0
 10
813.4924417143682
 20
172.8060305156233
 30
0.0
 10
813.9325931323835
 20
172.4591274725774
 30
0.0
 10
814.3734129090191
 20
172.1156355595134
 30
0.0
 10
814.8148777084646
 20
171.7755743639506
 30
0.0
 10
815.2569641560281
 20
171.4389633119814
 30
0.0
 10
815.6996488385033
 20
171.105821667662
 30
0.0
 10
816.142908304497
 20
170.7761685324027
 30
0.0
 10
816.5867190647148
 20
170.4500228443553
 30
0.0
 10
817.0310575922058
 20
170.1274033777952
 30
0.0
 10
817.475900322561
 20
169.8083287425003
 30
0.0
 10
817.9212236540698
 20
169.492817383118
 30
0.0
 10
818.3670039478278
 20
169.1808875785262
 30
0.0
 10
818.813217527802
 20
168.8725574411777
 30
0.0
 10
819.2598406808427
 20
168.567844916434
 30
0.0
 10
819.7068496566567
 20
168.2667677818759
 30
0.0
 10
820.1542206677224
 20
167.9693436466002
 30
0.0
 10
820.6019298891646
 20
167.6755899504866
 30
0.0
 10
821.0499534585715
 20
167.3855239634457
 30
0.0
 10
821.4982674757688
 20
167.0991627846323
 30
0.0
 10
821.9468480025414
 20
166.8165233416287
 30
0.0
 10
822.3956710623075
 20
166.5376223895901
 30
0.0
 10
822.8447126397411
 20
166.2624765103536
 30
0.0
 10
823.293948680348
 20
165.9911021115004
 30
0.0
 10
823.7433550899923
 20
165.7235154253742
 30
0.0
 10
824.1929077343784
 20
165.4597325080451
 30
0.0
 10
824.6425824384851
 20
165.1997692382205
 30
0.0
 10
825.0923549859538
 20
164.9436413160973
 30
0.0
 10
825.5422011184406
 20
164.6913642621459
 30
0.0
 10
825.992096534922
 20
164.4429534158297
 30
0.0
 10
826.4420168909674
 20
164.1984239342486
 30
0.0
 10
826.8919377979726
 20
163.9577907907063
 30
0.0
 10
827.3418348223653
 20
163.7210687731939
 30
0.0
 10
827.7916834847808
 20
163.4882724827855
 30
0.0
 10
828.2414591122906
 20
163.2594164067
 30
0.0
 10
828.6911369500203
 20
163.0345148532309
 30
0.0
 10
829.1406921862385
 20
162.8135819354259
 30
0.0
 10
829.5901000981047
 20
162.596631499782
 30
0.0
 10
830.0393359382095
 20
162.3836771826226
 30
0.0
 10
830.4883749076812
 20
162.1747324208436
 30
0.0
 10
830.9371921553393
 20
161.9698104495165
 30
0.0
 10
831.3857627768782
 20
161.7689242993609
 30
0.0
 10
831.8340618140785
 20
161.5720867940896
 30
0.0
 10
832.2820642540636
 20
161.3793105476139
 30
0.0
 10
832.7297450286028
 20
161.1906079611139
 30
0.0
 10
833.1770790134824
 20
161.0059912199638
 30
0.0
 10
833.6240410279446
 20
160.8254722905143
 30
0.0
 10
834.070605834216
 20
160.6490629167256
 30
0.0
 10
834.5167481371285
 20
160.4767746166544
 30
0.0
 10
834.962442583858
 20
160.3086186787872
 30
0.0
 10
835.4076637637811
 20
160.1446061582258
 30
0.0
 10
835.8523862084746
 20
159.9847478727216
 30
0.0
 10
836.2965843918632
 20
159.8290543985624
 30
0.0
 10
836.7402327305434
 20
159.6775360663098
 30
0.0
 10
837.183305584285
 20
159.5302029563956
 30
0.0
 10
837.6257772567373
 20
159.3870648945771
 30
0.0
 10
838.0676219963492
 20
159.2481314472596
 30
0.0
 10
838.5088139975231
 20
159.1134119166914
 30
0.0
 10
838.9493274020182
 20
158.9829153360385
 30
0.0
 10
839.3891363006218
 20
158.8566504643507
 30
0.0
 10
839.8282147350998
 20
158.7346257814272
 30
0.0
 10
840.2665367004512
 20
158.6168494825954
 30
0.0
 10
840.7040761474702
 20
158.5033294734177
 30
0.0
 10
841.1408069856467
 20
158.3940733643386
 30
0.0
 10
841.5767030864029
 20
158.289088465293
 30
0.0
 10
842.011738286694
 20
158.1883817802917
 30
0.0
 10
842.4458863929772
 20
158.0919600020059
 30
0.0
 10
842.8791211855638
 20
157.9998295063718
 30
0.0
 10
843.3114164233593
 20
157.9119963472407
 30
0.0
 10
843.7427458490104
 20
157.828466251098
 30
0.0
 10
844.1730831944515
 20
157.7492446118794
 30
0.0
 10
844.6024021868694
 20
157.6743364859121
 30
0.0
 10
845.0306765550745
 20
157.6037465870109
 30
0.0
 10
845.457880036288
 20
157.5374792817608
 30
0.0
 10
845.8839863833396
 20
157.4755385850167
 30
0.0
 10
846.3089693722657
 20
157.4179281556561
 30
0.0
 10
846.732802810304
 20
157.3646512926151
 30
0.0
 10
847.1554605442738
 20
157.3157109312454
 30
0.0
 10
847.5769164693205
 20
157.2711096400242
 30
0.0
 10
847.9971445380127
 20
157.2308496176543
 30
0.0
 10
848.4161187697609
 20
157.1949326905871
 30
0.0
 10
848.8338132605439
 20
157.1633603110029
 30
0.0
 10
849.2502021929022
 20
157.1361335552816
 30
0.0
 10
849.6652598461754
 20
157.1132531229964
 30
0.0
 10
850.0789606069395
 20
157.0947193364588
 30
0.0
 10
850.491278979609
 20
157.0805321408455
 30
0.0
 10
850.9021895971606
 20
157.0706911049327
 30
0.0
 10
851.3116672319295
 20
157.0651954224597
 30
0.0
 10
851.7196868064358
 20
157.0640439141451
 30
0.0
 10
852.12622340418
 20
157.0672350303699
 30
0.0
 10
852.5312522803664
 20
157.0747668545436
 30
0.0
 10
852.9347488724843
 20
157.0866371071609
 30
0.0
 10
853.3366888107021
 20
157.1028431505559
 30
0.0
 10
853.7370479280092
 20
157.1233819943525
 30
0.0
 10
854.1358022700498
 20
157.1482503016094
 30
0.0
 10
854.5329281045874
 20
157.1774443956497
 30
0.0
 10
854.9284019305392
 20
157.2109602675602
 30
0.0
 10
855.3222004865275
 20
157.2487935843436
 30
0.0
 10
855.7143007588872
 20
157.2909396976966
 30
0.0
 10
856.1046799890744
 20
157.3373936533863
 30
0.0
 10
856.4933156804248
 20
157.3881502011895
 30
0.0
 10
856.8801856042114
 20
157.4432038053543
 30
0.0
 10
857.2652678049575
 20
157.5025486555407
 30
0.0
 10
857.6485406049567
 20
157.5661786781905
 30
0.0
 10
858.0299826079695
 20
157.6340875482707
 30
0.0
 10
858.4095727020576
 20
157.7062687013361
 30
0.0
 10
858.7872900615312
 20
157.7827153458466
 30
0.0
 10
859.1631141479837
 20
157.863420475675
 30
0.0
 10
859.5370247104009
 20
157.9483768827384
 30
0.0
 10
859.909001784332
 20
158.0375771696822
 30
0.0
 10
860.2790256901167
 20
158.1310137625448
 30
0.0
 10
860.6470770301745
 20
158.2286789233301
 30
0.0
 10
861.0131366853603
 20
158.3305647624135
 30
0.0
 10
861.3771858104049
 20
158.4366632507054
 30
0.0
 10
861.7392058284541
 20
158.5469662315097
 30
0.0
 10
862.0991784247639
 20
158.6614654319523
 30
0.0
 10
862.4570855394649
 20
158.7801524741196
 30
0.0
 10
862.8129093598957
 20
158.9030188850272
 30
0.0
 10
863.1666323108338
 20
159.0300561084002
 30
0.0
 10
863.5182370490551
 20
159.1612555068078
 30
0.0
 10
863.8677064385067
 20
159.2966083966183
 30
0.0
 10
864.2150235948034
 20
159.4361059570622
 30
0.0
 10
864.5601716684159
 20
159.5797396052331
 30
0.0
 10
864.903134600294
 20
159.7274996289052
 30
0.0
 10
865.2438942475235
 20
159.8793803148163
 30
0.0
 10
865.5824410500945
 20
160.035360839018
 30
0.0
 10
865.9187341748851
 20
160.1954765835557
 30
0.0
 10
866.2528501632107
 20
160.359553060565
 30
0.0
 10
866.5844282330038
 20
160.5281987111822
 30
0.0
 10
866.8070767247076
 20
160.6433959735314
 30
0.0
 10
866.9185554609563
 20
160.7035111204817
 30
0.0
 10
866.9209630052873
 20
160.7048093939114
 30
0.0
  0
LINE
  5
108
330
1F
100
AcDbEntity
  8
0
  6
Continuous
 62
     7
370
    30
100
AcDbLine
 10
789.0253013846
 20
311.6990941534
 30
0.0
 11
782.2769216734
 21
307.5092800974
 31
0.0
  0
LINE
  5
109
330
1F
100
AcDbEntity
  8
0
  6
Continuous
 62
     7
370
    30
100
AcDbLine
 10
867.0007929794
 20
160.7473284184
 30
0.0
 11
874.0038200471
 21
164.4960325197
 31
0.0
  0
SPLINE
  5
10A
330
1F
100
AcDbEntity
  8
0
  6
Continuous
 62
     7
370
    30
100
AcDbSpline
210
0.0
220
0.0
230
1.0
 70
     8
 71
     3
 72
   435
 73
   431
 74
     0
 42
0.000000001
 43
0.00000001
 40
0.0
 40
0.0
 40
0.0
 40
0.0
 40
0.0012635743229243
 40
0.0035949535741413
 40
0.0059263180551962
 40
0.0082576805891233
 40
0.0105890535862984
 40
0.0129204521533725
 40
0.0152518913148864
 40
0.0175833859671469
 40
0.0199149508328885
 40
0.0222466004169947
 40
0.0245783489633662
 40
0.0269102104132652
 40
0.0292421983654629
 40
0.0315743260381443
 40
0.033906606232978
 40
0.0362390513014823
 40
0.0385716731137026
 40
0.040904483029537
 40
0.0432374918726913
 40
0.0455707099073273
 40
0.0479041468175996
 40
0.0502378116900658
 40
0.052571712998897
 40
0.0549058585941227
 40
0.0572402556925729
 40
0.059574910871834
 40
0.0619098300669133
 40
0.0642450185696183
 40
0.0665804810305832
 40
0.0689162214637784
 40
0.0712522432534955
 40
0.0735885491635877
 40
0.0759251413488051
 40
0.0782620213681436
 40
0.0805991902001259
 40
0.082936648259629
 40
0.0852743954162807
 40
0.0876124310142762
 40
0.0899507538932954
 40
0.0922893624104663
 40
0.0946282544632668
 40
0.0969674275130124
 40
0.0993068786089665
 40
0.1016466044128712
 40
0.1039866012236686
 40
0.1063268650024145
 40
0.108667391397124
 40
0.1110081757675167
 40
0.113349213209601
 40
0.1156904985797547
 40
0.1180320265185231
 40
0.1203737914737985
 40
0.1227157877234798
 40
0.1250580093973984
 40
0.1274004504986026
 40
0.1297431049237685
 40
0.132085966482876
 40
0.1344290289180341
 40
0.1367722859213514
 40
0.1391157311520254
 40
0.1414593582524408
 40
0.1438031608633721
 40
0.146147132638256
 40
0.1484912672566325
 40
0.1508355584365174
 40
0.1531799999460752
 40
0.1555245856142774
 40
0.1578693093407141
 40
0.1602141651046718
 40
0.1625591469732706
 40
0.164904249108945
 40
0.1672494657760242
 40
0.1695947913467819
 40
0.1719402203065892
 40
0.1742857472585755
 40
0.17663136692756
 40
0.1789770741634364
 40
0.1813228639439936
 40
0.1836687313771726
 40
0.1860146717028812
 40
0.1883606802943235
 40
0.190706752658869
 40
0.1930528844385299
 40
0.1953990714101718
 40
0.1977453094851646
 40
0.2000915947089549
 40
0.2024379232601602
 40
0.204784291449519
 40
0.207130695718535
 40
0.2094771326379776
 40
0.2118235989060609
 40
0.2141700913466269
 40
0.2165166069069912
 40
0.2188631426557835
 40
0.2212096957806456
 40
0.2235562635857933
 40
0.2259028434894895
 40
0.2282494330214875
 40
0.2305960298204096
 40
0.2329426316310552
 40
0.2352892363016719
 40
0.2376358414770881
 40
0.2399824448781301
 40
0.2423290446781172
 40
0.244675639141897
 40
0.2470222266231309
 40
0.2493688055615077
 40
0.2517153744800706
 40
0.2540619319825452
 40
0.2564084767507103
 40
0.2587550075417642
 40
0.2611015231857954
 40
0.263448022583248
 40
0.2657945047024893
 40
0.2681409685772997
 40
0.2704874133046298
 40
0.272833838042176
 40
0.2751802420061923
 40
0.2775266244692338
 40
0.2798729847580378
 40
0.2822193222514361
 40
0.284565636378298
 40
0.2869119266155667
 40
0.2892581924863175
 40
0.291604433557926
 40
0.2939506494402217
 40
0.2962968397837596
 40
0.2986430042781567
 40
0.3009891426503654
 40
0.3033352546631532
 40
0.3056813401135757
 40
0.3080273988314282
 40
0.3103734306778888
 40
0.3127194355440801
 40
0.3150654133497706
 40
0.3174113640421112
 40
0.3197572875943222
 40
0.3221031840045989
 40
0.3244490532948947
 40
0.3267948955098594
 40
0.3291407107157516
 40
0.3314864989994178
 40
0.3338322604673808
 40
0.3361779952448022
 40
0.3385237034746564
 40
0.3408693853168006
 40
0.3432150409472031
 40
0.3455606705571186
 40
0.3479062743523328
 40
0.3502518525524279
 40
0.3525974053900774
 40
0.3549429331103696
 40
0.3572884359702177
 40
0.3596339142376602
 40
0.3619793681913612
 40
0.3643247981199878
 40
0.3666702043216995
 40
0.3690155871036411
 40
0.3713609467814366
 40
0.3737062836787516
 40
0.3760515981268275
 40
0.3783968904640456
 40
0.3807421610355727
 40
0.3830874101929115
 40
0.3854326382935782
 40
0.3877778457007404
 40
0.3901230327829238
 40
0.3924681999135946
 40
0.3948133474709772
 40
0.397158475837688
 40
0.3995035854005333
 40
0.4018486765501804
 40
0.4041937496809548
 40
0.4065388051906272
 40
0.4088838434801433
 40
0.4112288649534719
 40
0.4135738700173533
 40
0.4159188590811687
 40
0.4182638325567479
 40
0.4206087908581605
 40
0.4229537344016296
 40
0.4252986636053496
 40
0.4276435788893416
 40
0.4299884806753352
 40
0.4323333693866451
 40
0.4346782454480627
 40
0.4370231092857087
 40
0.4393679613270101
 40
0.4417128020005102
 40
0.4440576317358643
 40
0.4464024509636921
 40
0.448747260115556
 40
0.4510920596238235
 40
0.4534368499216624
 40
0.4557816314429569
 40
0.4581264046222115
 40
0.4604711698945355
 40
0.4628159276956106
 40
0.4651606784615918
 40
0.467505422629093
 40
0.4698501606351367
 40
0.4721948929171458
 40
0.4745396199128574
 40
0.4768843420603189
 40
0.4792290597978713
 40
0.4815737735641126
 40
0.4839184837978236
 40
0.4862631909380341
 40
0.4886078954239061
 40
0.4909525976947955
 40
0.493297298190167
 40
0.4956419973496217
 40
0.4979866956128431
 40
0.5003313934195969
 40
0.5026760912097115
 40
0.5050207893313244
 40
0.507365488169455
 40
0.5097101881640406
 40
0.5120548897549758
 40
0.5143995933821905
 40
0.5167442994855488
 40
0.519089008504855
 40
0.5214337208798652
 40
0.5237784370502179
 40
0.5261231574554442
 40
0.5284678825349292
 40
0.5308126127278995
 40
0.5331573484733962
 40
0.5355020902102319
 40
0.5378468383769617
 40
0.5401915934118703
 40
0.542536355752918
 40
0.5448811258377041
 40
0.5472259041034311
 40
0.549570690986853
 40
0.5519154869242384
 40
0.5542602923513054
 40
0.5566051077031653
 40
0.5589499334142692
 40
0.5612947699183659
 40
0.5636396176483525
 40
0.5659844770363351
 40
0.5683293485134215
 40
0.5706742325096955
 40
0.5730191294540995
 40
0.5753640397743865
 40
0.577708963896968
 40
0.5800539022468258
 40
0.5823988552473883
 40
0.5847438233203929
 40
0.5870888068857943
 40
0.5894338063615647
 40
0.591778822163616
 40
0.5941238547055533
 40
0.5964689043985993
 40
0.5988139716513526
 40
0.601159056869608
 40
0.6035041604561989
 40
0.60584928281071
 40
0.6081944243293569
 40
0.6105395854046513
 40
0.6128847664252375
 40
0.6152299677755493
 40
0.617575189835598
 40
0.619920432980675
 40
0.6222656975810503
 40
0.6246109840015561
 40
0.6269562926014444
 40
0.6293016237338208
 40
0.631646977745447
 40
0.633992354976209
 40
0.6363377557588183
 40
0.6386831804183233
 40
0.6410286292716286
 40
0.6433741026271466
 40
0.6457196007841117
 40
0.6480651240322659
 40
0.6504106726511434
 40
0.6527562469096019
 40
0.6551018470651945
 40
0.6574474733635587
 40
0.6597931260377581
 40
0.6621388053075608
 40
0.6644845113788153
 40
0.6668302444426364
 40
0.6691760046746855
 40
0.6715217922342961
 40
0.673867607263671
 40
0.6762134498870372
 40
0.6785593202096314
 40
0.6809052183168827
 40
0.6832511442732814
 40
0.6855970981214417
 40
0.687943079880971
 40
0.6902890895473881
 40
0.6926351270909586
 40
0.6949811924554431
 40
0.6973272855568912
 40
0.6996734062823354
 40
0.7020195544884061
 40
0.7043657299999675
 40
0.7067119326086644
 40
0.7090581620713847
 40
0.7114044181087514
 40
0.7137507004034616
 40
0.71609700859868
 40
0.7184433422962683
 40
0.7207897010550418
 40
0.723136084388904
 40
0.7254824917650293
 40
0.7278289226017964
 40
0.7301753762669146
 40
0.7325218520752547
 40
0.7348683492868199
 40
0.7372148671044653
 40
0.7395614046717863
 40
0.7419079610707285
 40
0.7442545353192793
 40
0.7466011263690898
 40
0.7489477331030163
 40
0.7512943543326005
 40
0.753640988795549
 40
0.7559876351531182
 40
0.7583342919875414
 40
0.76068095779927
 40
0.7630276310043664
 40
0.7653743099317183
 40
0.7677209928202678
 40
0.770067677816325
 40
0.7724143624405908
 40
0.7747610444717465
 40
0.7771077217271533
 40
0.7794543919194171
 40
0.7818010526537216
 40
0.7841477014250848
 40
0.7864943356157429
 40
0.7888409524925641
 40
0.7911875492044944
 40
0.7935341227801912
 40
0.7958806701256386
 40
0.7982271880219799
 40
0.8005736731234588
 40
0.8029201219555074
 40
0.8052665309130108
 40
0.8076128962587852
 40
0.8099592141222904
 40
0.8123054804985211
 40
0.8146516912472728
 40
0.8169978420925929
 40
0.8193439286226325
 40
0.821689946289828
 40
0.8240358904114544
 40
0.8263817561705438
 40
0.8287275386173736
 40
0.8310732326712733
 40
0.8334188331230382
 40
0.8357643346378536
 40
0.8381097317587642
 40
0.8404550189107811
 40
0.8428001904056176
 40
0.845145240447041
 40
0.8474901631370534
 40
0.8498349524826467
 40
0.8521796024034637
 40
0.8545241067401077
 40
0.8568684592634545
 40
0.8592126536846058
 40
0.8615566836658686
 40
0.863900542832549
 40
0.866244224785617
 40
0.8685877231154048
 40
0.8709310314160438
 40
0.8732741433010257
 40
0.8756170524195401
 40
0.877959752473729
 40
0.880302237236982
 40
0.8826445005728962
 40
0.8849865364552822
 40
0.8873283389888275
 40
0.8896699024306333
 40
0.8920112212124154
 40
0.8943522899633752
 40
0.8966931035336226
 40
0.8990336570181368
 40
0.9013739457812018
 40
0.9037139654810257
 40
0.9060537120946826
 40
0.9083931819431064
 40
0.9107323717161061
 40
0.9130712784972296
 40
0.9154098997882238
 40
0.9177482335332152
 40
0.9200862781422483
 40
0.9224240325139861
 40
0.9247614960576803
 40
0.9270986687138962
 40
0.929435550974152
 40
0.9317721438990659
 40
0.9341084491349735
 40
0.9364444689287772
 40
0.9387802061410004
 40
0.9411156642567119
 40
0.9434508473943445
 40
0.9457857603120576
 40
0.9481204084118413
 40
0.9504547977409259
 40
0.952788934990552
 40
0.9551228274920619
 40
0.957456483210059
 40
0.9597899107328862
 40
0.9621231192599594
 40
0.9644561185864551
 40
0.9667889190849325
 40
0.9691215316841577
 40
0.9714539678450788
 40
0.9737862395341759
 40
0.976118359193983
 40
0.978450339711296
 40
0.9807821943827967
 40
0.9831139368786777
 40
0.9854455812040056
 40
0.9877771416583674
 40
0.990108632793843
 40
0.9924400693715497
 40
0.9947714663170326
 40
0.9971028386747369
 40
0.9994342015617501
 40
1.0
 40
1.0
 40
1.0
 40
1.0
 10
874.3027675885587
 20
164.6590069198263
 30
0.0
 10
874.3607110174113
 20
164.6908086617279
 30
0.0
 10
874.5255639531448
 20
164.7812867472976
 30
0.0
 10
874.7947899898685
 20
164.9348929377978
 30
0.0
 10
875.1106117751456
 20
165.1194781284916
 30
0.0
 10
875.4239692991184
 20
165.3082930700753
 30
0.0
 10
875.7349885184402
 20
165.5010762235466
 30
0.0
 10
876.0436146528316
 20
165.6978847016888
 30
0.0
 10
876.3498416283265
 20
165.8986901036527
 30
0.0
 10
876.6536504756426
 20
166.10348674002
 30
0.0
 10
876.9550258004705
 20
166.3122626106035
 30
0.0
 10
877.2539513672435
 20
166.5250071775851
 30
0.0
 10
877.5504112799277
 20
166.7417092788466
 30
0.0
 10
877.8443896634196
 20
166.9623576830819
 30
0.0
 10
878.1358707471147
 20
167.1869409368135
 30
0.0
 10
878.4248388411254
 20
167.415447400991
 30
0.0
 10
878.7112783416854
 20
167.6478652366644
 30
0.0
 10
878.9951737291683
 20
167.8841824042217
 30
0.0
 10
879.2765095685229
 20
168.1243866589506
 30
0.0
 10
879.5552705094993
 20
168.3684655475829
 30
0.0
 10
879.8314412873674
 20
168.6164064046145
 30
0.0
 10
880.1050067239306
 20
168.8681963487625
 30
0.0
 10
880.3759517288822
 20
169.1238222795008
 30
0.0
 10
880.6442613014734
 20
169.383270873725
 30
0.0
 10
880.9099205324907
 20
169.6465285825692
 30
0.0
 10
881.1729146065137
 20
169.9135816283942
 30
0.0
 10
881.4332288044513
 20
170.1844160019769
 30
0.0
 10
881.690848506323
 20
170.4590174599168
 30
0.0
 10
881.9457591942747
 20
170.7373715222791
 30
0.0
 10
882.1979464558
 20
171.0194634704896
 30
0.0
 10
882.4473959871447
 20
171.3052783454918
 30
0.0
 10
882.6940935968744
 20
171.5948009461805
 30
0.0
 10
882.9380252095789
 20
171.8880158281189
 30
0.0
 10
883.1791768696862
 20
172.1849073025444
 30
0.0
 10
883.4175347453646
 20
172.4854594356624
 30
0.0
 10
883.653085132488
 20
172.7896560482358
 30
0.0
 10
883.8858144586412
 20
173.0974807154631
 30
0.0
 10
884.1157092871407
 20
173.408916767144
 30
0.0
 10
884.3427563210491
 20
173.7239472881245
 30
0.0
 10
884.5669424071634
 20
174.0425551190166
 30
0.0
 10
884.7882545399564
 20
174.3647228571825
 30
0.0
 10
885.0066798654514
 20
174.690432857971
 30
0.0
 10
885.2222056850147
 20
175.0196672361961
 30
0.0
 10
885.4348194590493
 20
175.3524078678431
 30
0.0
 10
885.6445088105737
 20
175.6886363919891
 30
0.0
 10
885.8512615286767
 20
176.028334212922
 30
0.0
 10
886.0550655718354
 20
176.3714825024455
 30
0.0
 10
886.2559090710839
 20
176.7180622023484
 30
0.0
 10
886.4537803330284
 20
177.068054027027
 30
0.0
 10
886.6486678427023
 20
177.4214384662444
 30
0.0
 10
886.8405602662523
 20
177.7781957880077
 30
0.0
 10
887.0294464534569
 20
178.138306041549
 30
0.0
 10
887.2153154400687
 20
178.5017490603915
 30
0.0
 10
887.3981564499871
 20
178.8685044654924
 30
0.0
 10
887.5779588972543
 20
179.2385516684396
 30
0.0
 10
887.754712387883
 20
179.6118698746967
 30
0.0
 10
887.9284067215103
 20
179.9884380868734
 30
0.0
 10
888.0990318928862
 20
180.3682351080165
 30
0.0
 10
888.2665780932007
 20
180.7512395449053
 30
0.0
 10
888.4310357112504
 20
181.1374298113421
 30
0.0
 10
888.5923953344553
 20
181.5267841314287
 30
0.0
 10
888.7506477497265
 20
181.9192805428154
 30
0.0
 10
888.905783944194
 20
182.3148968999197
 30
0.0
 10
889.0577951058018
 20
182.7136108771005
 30
0.0
 10
889.2066726237745
 20
183.1153999717884
 30
0.0
 10
889.3524080889653
 20
183.5202415075585
 30
0.0
 10
889.4949932940925
 20
183.9281126371503
 30
0.0
 10
889.6344202338698
 20
184.3389903454179
 30
0.0
 10
889.7706811050392
 20
184.7528514522185
 30
0.0
 10
889.9037683063144
 20
185.1696726152287
 30
0.0
 10
890.0336744382406
 20
185.589430332688
 30
0.0
 10
890.1603923029804
 20
186.0121009460749
 30
0.0
 10
890.2839149040268
 20
186.4376606426991
 30
0.0
 10
890.4042354458597
 20
186.866085458229
 30
0.0
 10
890.5213473335417
 20
187.2973512791348
 30
0.0
 10
890.6352441722681
 20
187.731433845066
 30
0.0
 10
890.7459197668712
 20
188.1683087511475
 30
0.0
 10
890.8533681212886
 20
188.6079514502093
 30
0.0
 10
890.9575834379979
 20
189.0503372549422
 30
0.0
 10
891.0585601174246
 20
189.4954413399848
 30
0.0
 10
891.1562927573276
 20
189.9432387439441
 30
0.0
 10
891.2507761521656
 20
190.3937043713523
 30
0.0
 10
891.3420052924512
 20
190.84681299456
 30
0.0
 10
891.4299753640921
 20
191.3025392555685
 30
0.0
 10
891.5146817477284
 20
191.76085766781
 30
0.0
 10
891.5961200180637
 20
192.221742617868
 30
0.0
 10
891.6742859431986
 20
192.6851683671538
 30
0.0
 10
891.7491754839613
 20
193.1511090535244
 30
0.0
 10
891.8207847932478
 20
193.6195386928656
 30
0.0
 10
891.8891102153639
 20
194.0904311806234
 30
0.0
 10
891.9541482853791
 20
194.5637602933044
 30
0.0
 10
892.015895728487
 20
195.0394996899314
 30
0.0
 10
892.0743494593787
 20
195.5176229134731
 30
0.0
 10
892.1295065816288
 20
195.9981033922332
 30
0.0
 10
892.1813643870928
 20
196.4809144412197
 30
0.0
 10
892.229920355321
 20
196.9660292634831
 30
0.0
 10
892.2751721529853
 20
197.4534209514349
 30
0.0
 10
892.3171176333225
 20
197.9430624881425
 30
0.0
 10
892.3557548355918
 20
198.4349267486043
 30
0.0
 10
892.3910819845499
 20
198.9289865010108
 30
0.0
 10
892.4230974899407
 20
199.4252144079933
 30
0.0
 10
892.4517999460005
 20
199.9235830278569
 30
0.0
 10
892.4771881298843
 20
200.4240647941819
 30
0.0
 10
892.4992610019202
 20
200.9266320149745
 30
0.0
 10
892.518017706961
 20
201.4312568989797
 30
0.0
 10
892.5334575743202
 20
201.9379115789196
 30
0.0
 10
892.5455801165083
 20
202.4465681147682
 30
0.0
 10
892.5543850277124
 20
202.9571984693686
 30
0.0
 10
892.5598721834107
 20
203.4697745096258
 30
0.0
 10
892.5620416400016
 20
203.9842680076963
 30
0.0
 10
892.5608936344444
 20
204.5006506421875
 30
0.0
 10
892.5564285839125
 20
205.0188939993538
 30
0.0
 10
892.5486470854563
 20
205.5389695743002
 30
0.0
 10
892.5375499156783
 20
206.0608487721888
 30
0.0
 10
892.5231380304157
 20
206.5845029094561
 30
0.0
 10
892.5054125644347
 20
207.1099032150275
 30
0.0
 10
892.4843748311308
 20
207.6370208315503
 30
0.0
 10
892.4600263222383
 20
208.1658268166237
 30
0.0
 10
892.4323687075454
 20
208.6962921440486
 30
0.0
 10
892.4014038346176
 20
209.2283877050741
 30
0.0
 10
892.3671337285241
 20
209.7620843096626
 30
0.0
 10
892.3295605915717
 20
210.2973526877608
 30
0.0
 10
892.2886868030412
 20
210.8341634905811
 30
0.0
 10
892.2445149189277
 20
211.3724872918939
 30
0.0
 10
892.1970476716851
 20
211.912294589327
 30
0.0
 10
892.1462879699714
 20
212.4535558056799
 30
0.0
 10
892.0922388983965
 20
212.9962412902456
 30
0.0
 10
892.0349037172718
 20
213.5403213201457
 30
0.0
 10
891.9742858623596
 20
214.0857661016763
 30
0.0
 10
891.9103889446218
 20
214.6325457716623
 30
0.0
 10
891.8432167499705
 20
215.1806303988251
 30
0.0
 10
891.7727732390157
 20
215.7299899851594
 30
0.0
 10
891.699062546812
 20
216.2805944673226
 30
0.0
 10
891.6220889826034
 20
216.8324137180354
 30
0.0
 10
891.5418570295666
 20
217.3854175474883
 30
0.0
 10
891.4583713445496
 20
217.9395757047663
 30
0.0
 10
891.3716367578086
 20
218.4948578792796
 30
0.0
 10
891.281658272741
 20
219.051233702204
 30
0.0
 10
891.1884410656132
 20
219.608672747936
 30
0.0
 10
891.0919904852859
 20
220.167144535551
 30
0.0
 10
890.9923120529326
 20
220.7266185302805
 30
0.0
 10
890.8894114617549
 20
221.28706414499
 30
0.0
 10
890.7832945766918
 20
221.8484507416709
 30
0.0
 10
890.673967434121
 20
222.4107476329448
 30
0.0
 10
890.5614362415583
 20
222.973924083571
 30
0.0
 10
890.4457073773473
 20
223.5379493119696
 30
0.0
 10
890.3267873903443
 20
224.1027924917422
 30
0.0
 10
890.2046829995965
 20
224.6684227532145
 30
0.0
 10
890.0794010940116
 20
225.2348091849782
 30
0.0
 10
889.9509487320223
 20
225.8019208354472
 30
0.0
 10
889.8193331412407
 20
226.3697267144167
 30
0.0
 10
889.6845617181086
 20
226.9381957946312
 30
0.0
 10
889.5466420275374
 20
227.5072970133595
 30
0.0
 10
889.4055818025398
 20
228.0769992739812
 30
0.0
 10
889.2613889438563
 20
228.6472714475734
 30
0.0
 10
889.114071519569
 20
229.2180823745119
 30
0.0
 10
888.9636377647117
 20
229.7894008660692
 30
0.0
 10
888.8100960808678
 20
230.3611957060286
 30
0.0
 10
888.6534550357617
 20
230.9334356522972
 30
0.0
 10
888.4937233628407
 20
231.5060894385277
 30
0.0
 10
888.3309099608476
 20
232.0791257757475
 30
0.0
 10
888.1650238933854
 20
232.6525133539895
 30
0.0
 10
887.9960743884719
 20
233.2262208439298
 30
0.0
 10
887.8240708380863
 20
233.8002168985308
 30
0.0
 10
887.649022797706
 20
234.3744701546865
 30
0.0
 10
887.4709399858341
 20
234.9489492348763
 30
0.0
 10
887.2898322835182
 20
235.5236227488175
 30
0.0
 10
887.1057097338579
 20
236.0984592951313
 30
0.0
 10
886.918582541507
 20
236.6734274629999
 30
0.0
 10
886.7284610721613
 20
237.2484958338378
 30
0.0
 10
886.5353558520422
 20
237.8236329829573
 30
0.0
 10
886.3392775673649
 20
238.3988074812505
 30
0.0
 10
886.1402370638025
 20
238.9739878968591
 30
0.0
 10
885.9382453459378
 20
239.5491427968569
 30
0.0
 10
885.7333135767059
 20
240.1242407489306
 30
0.0
 10
885.5254530768285
 20
240.6992503230647
 30
0.0
 10
885.3146753242356
 20
241.2741400932296
 30
0.0
 10
885.100991953483
 20
241.8488786390662
 30
0.0
 10
884.8844147551544
 20
242.4234345475805
 30
0.0
 10
884.6649556752575
 20
242.9977764148334
 30
0.0
 10
884.4426268146103
 20
243.5718728476344
 30
0.0
 10
884.2174404282168
 20
244.1456924652361
 30
0.0
 10
883.9894089246341
 20
244.7192039010294
 30
0.0
 10
883.758544865329
 20
245.292375804242
 30
0.0
 10
883.5248609640271
 20
245.8651768416332
 30
0.0
 10
883.2883700860503
 20
246.4375756991922
 30
0.0
 10
883.0490852476465
 20
247.0095410838372
 30
0.0
 10
882.80701961531
 20
247.5810417251109
 30
0.0
 10
882.5621865050894
 20
248.1520463768828
 30
0.0
 10
882.3145993818925
 20
248.7225238190419
 30
0.0
 10
882.0642718587748
 20
249.2924428592005
 30
0.0
 10
881.8112176962248
 20
249.8617723343852
 30
0.0
 10
881.555450801435
 20
250.4304811127394
 30
0.0
 10
881.2969852275689
 20
250.9985380952128
 30
0.0
 10
881.0358351730148
 20
251.5659122172614
 30
0.0
 10
880.7720149806319
 20
252.1325724505379
 30
0.0
 10
880.5055391369881
 20
252.6984878045856
 30
0.0
 10
880.2364222715894
 20
253.2636273285266
 30
0.0
 10
879.9646791560975
 20
253.8279601127535
 30
0.0
 10
879.6903247035414
 20
254.3914552906168
 30
0.0
 10
879.413373967518
 20
254.9540820401102
 30
0.0
 10
879.1338421413877
 20
255.5158095855515
 30
0.0
 10
878.8517445574561
 20
256.076607199268
 30
0.0
 10
878.5670966861511
 20
256.636444203273
 30
0.0
 10
878.2799141351899
 20
257.1952899709424
 30
0.0
 10
877.9902126487382
 20
257.7531139286882
 30
0.0
 10
877.6980081065587
 20
258.309885557632
 30
0.0
 10
877.403316523155
 20
258.86557439527
 30
0.0
 10
877.1061540469036
 20
259.4201500371403
 30
0.0
 10
876.8065369591815
 20
259.9735821384812
 30
0.0
 10
876.5044816734793
 20
260.5258404158957
 30
0.0
 10
876.2000047345142
 20
261.0768946490014
 30
0.0
 10
875.8931228173277
 20
261.6267146820858
 30
0.0
 10
875.5838527263802
 20
262.1752704257511
 30
0.0
 10
875.2722113946357
 20
262.7225318585597
 30
0.0
 10
874.9582158826394
 20
263.2684690286731
 30
0.0
 10
874.6418833817111
 20
263.8130520483858
 30
0.0
 10
874.3232312115051
 20
264.3562510987026
 30
0.0
 10
874.0022768166538
 20
264.8980364352598
 30
0.0
 10
873.679037761551
 20
265.4383783969719
 30
0.0
 10
873.3535317309463
 20
265.9772474047406
 30
0.0
 10
873.0257765314652
 20
266.514613958826
 30
0.0
 10
872.6957900906305
 20
267.0504486404577
 30
0.0
 10
872.3635904558811
 20
267.5847221134359
 30
0.0
 10
872.0291957935813
 20
268.1174051257298
 30
0.0
 10
871.6926243880223
 20
268.6484685110716
 30
0.0
 10
871.3538946404193
 20
269.1778831905408
 30
0.0
 10
871.0130250678991
 20
269.7056201741491
 30
0.0
 10
870.6700343024813
 20
270.2316505624149
 30
0.0
 10
870.3249410900544
 20
270.7559455479345
 30
0.0
 10
869.9777642893432
 20
271.2784764169451
 30
0.0
 10
869.6285228708721
 20
271.7992145508834
 30
0.0
 10
869.2772359159188
 20
272.3181314279385
 30
0.0
 10
868.9239226154633
 20
272.8351986245978
 30
0.0
 10
868.5686022691315
 20
273.3503878171855
 30
0.0
 10
868.2112942841309
 20
273.8636707833961
 30
0.0
 10
867.8520181741808
 20
274.3750194038208
 30
0.0
 10
867.490793558437
 20
274.8844056634665
 30
0.0
 10
867.1276401604098
 20
275.3918016532686
 30
0.0
 10
866.7625778068782
 20
275.8971795715956
 30
0.0
 10
866.3956264267938
 20
276.4005117257499
 30
0.0
 10
866.0268060501861
 20
276.9017705334549
 30
0.0
 10
865.6561368070537
 20
277.4009285243446
 30
0.0
 10
865.2836389262591
 20
277.8979583414347
 30
0.0
 10
864.9093327344098
 20
278.3928327425957
 30
0.0
 10
864.5332386547442
 20
278.8855246020069
 30
0.0
 10
864.1553772060026
 20
279.3760069116163
 30
0.0
 10
863.7757690012985
 20
279.8642527825824
 30
0.0
 10
863.3944347469826
 20
280.3502354467137
 30
0.0
 10
863.0113952415064
 20
280.8339282578952
 30
0.0
 10
862.6266713742777
 20
281.3153046935086
 30
0.0
 10
862.2402841245124
 20
281.7943383558465
 30
0.0
 10
861.8522545600829
 20
282.2710029735134
 30
0.0
 10
861.4626038363596
 20
282.7452724028248
 30
0.0
 10
861.0713531950549
 20
283.2171206291875
 30
0.0
 10
860.6785239630545
 20
283.6865217684829
 30
0.0
 10
860.2841375512539
 20
284.1534500684311
 30
0.0
 10
859.8882154533839
 20
284.617879909952
 30
0.0
 10
859.4907792448381
 20
285.0797858085157
 30
0.0
 10
859.091850581496
 20
285.5391424154802
 30
0.0
 10
858.6914511985393
 20
285.9959245194285
 30
0.0
 10
858.2896029092713
 20
286.4501070474846
 30
0.0
 10
857.8863276039274
 20
286.9016650666317
 30
0.0
 10
857.4816472484908
 20
287.3505737850088
 30
0.0
 10
857.0755838834987
 20
287.7968085532079
 30
0.0
 10
856.6681596228494
 20
288.2403448655544
 30
0.0
 10
856.2593966526055
 20
288.681158361385
 30
0.0
 10
855.8493172298009
 20
289.1192248263038
 30
0.0
 10
855.4379436812383
 20
289.554520193442
 30
0.0
 10
855.0252984022943
 20
289.9870205446937
 30
0.0
 10
854.6114038557105
 20
290.416702111958
 30
0.0
 10
854.1962825704009
 20
290.8435412783502
 30
0.0
 10
853.7799571402417
 20
291.2675145794231
 30
0.0
 10
853.3624502228727
 20
291.6885987043625
 30
0.0
 10
852.9437845384928
 20
292.1067704971794
 30
0.0
 10
852.523982868654
 20
292.5220069578934
 30
0.0
 10
852.1030680550643
 20
292.9342852436959
 30
0.0
 10
851.6810629983758
 20
293.3435826701177
 30
0.0
 10
851.2579906569928
 20
293.7498767121685
 30
0.0
 10
850.8338740458621
 20
294.1531450054821
 30
0.0
 10
850.4087362352795
 20
294.5533653474371
 30
0.0
 10
849.9826003496868
 20
294.9505156982784
 30
0.0
 10
849.5554895664764
 20
295.3445741822199
 30
0.0
 10
849.1274271147988
 20
295.7355190885382
 30
0.0
 10
848.6984362743694
 20
296.123328872658
 30
0.0
 10
848.2685403742788
 20
296.5079821572244
 30
0.0
 10
847.8377627918023
 20
296.8894577331688
 30
0.0
 10
847.4061269512224
 20
297.2677345607563
 30
0.0
 10
846.9736563226458
 20
297.6427917706288
 30
0.0
 10
846.5403744208276
 20
298.0146086648364
 30
0.0
 10
846.1063048040005
 20
298.3831647178559
 30
0.0
 10
845.6714710727035
 20
298.7484395776051
 30
0.0
 10
845.2358968686249
 20
299.1104130664371
 30
0.0
 10
844.7996058734382
 20
299.4690651821351
 30
0.0
 10
844.3626218076573
 20
299.8243760988872
 30
0.0
 10
843.9249684294848
 20
300.1763261682601
 30
0.0
 10
843.4866695336729
 20
300.5248959201585
 30
0.0
 10
843.0477489503907
 20
300.8700660637755
 30
0.0
 10
842.6082305440965
 20
301.2118174885343
 30
0.0
 10
842.1681382124195
 20
301.5501312650205
 30
0.0
 10
841.7274958850454
 20
301.884988645907
 30
0.0
 10
841.2863275226131
 20
302.2163710668686
 30
0.0
 10
840.8446571156187
 20
302.5442601474898
 30
0.0
 10
840.402508683327
 20
302.8686376921639
 30
0.0
 10
839.9599062726928
 20
303.1894856909854
 30
0.0
 10
839.5168739572928
 20
303.5067863206329
 30
0.0
 10
839.0734358362625
 20
303.8205219452501
 30
0.0
 10
838.6296160332482
 20
304.130675117315
 30
0.0
 10
838.1854386953644
 20
304.4372285785081
 30
0.0
 10
837.7409279921666
 20
304.7401652605703
 30
0.0
 10
837.2961081146275
 20
305.0394682861624
 30
0.0
 10
836.8510032741336
 20
305.3351209697126
 30
0.0
 10
836.4056377014824
 20
305.6271068182683
 30
0.0
 10
835.9600356459024
 20
305.9154095323366
 30
0.0
 10
835.5142213740705
 20
306.200013006732
 30
0.0
 10
835.0682191691575
 20
306.4809013314118
 30
0.0
 10
834.6220533298693
 20
306.7580587923205
 30
0.0
 10
834.1757481695131
 20
307.0314698722259
 30
0.0
 10
833.7293280150659
 20
307.3011192515614
 30
0.0
 10
833.2828172062626
 20
307.5669918092663
 30
0.0
 10
832.8362400946887
 20
307.8290726236305
 30
0.0
 10
832.3896210428902
 20
308.0873469731418
 30
0.0
 10
831.9429844234929
 20
308.3418003373365
 30
0.0
 10
831.496354618336
 20
308.592418397655
 30
0.0
 10
831.0497560176107
 20
308.8391870383066
 30
0.0
 10
830.6032130190168
 20
309.0820923471367
 30
0.0
 10
830.1567500269241
 20
309.3211206165072
 30
0.0
 10
829.7103914515485
 20
309.5562583441819
 30
0.0
 10
829.2641617081343
 20
309.7874922342246
 30
0.0
 10
828.8180852161469
 20
310.0148091979099
 30
0.0
 10
828.3721864320481
 20
310.2381963378231
 30
0.0
 10
827.9264898258689
 20
310.4576409615341
 30
0.0
 10
827.4810198715271
 20
310.6731305873745
 30
0.0
 10
827.0358010125773
 20
310.8846529609755
 30
0.0
 10
826.5908576840692
 20
311.0921960444982
 30
0.0
 10
826.146214320673
 20
311.2957480132638
 30
0.0
 10
825.7018953558959
 20
311.4952972567888
 30
0.0
 10
825.2579252213011
 20
311.6908323798414
 30
0.0
 10
824.8143283457247
 20
311.882342203519
 30
0.0
 10
824.3711291544855
 20
312.0698157663506
 30
0.0
 10
823.9283520685918
 20
312.2532423254221
 30
0.0
 10
823.4860215039344
 20
312.4326113575295
 30
0.0
 10
823.0441618704718
 20
312.6079125603553
 30
0.0
 10
822.6027975713985
 20
312.7791358536761
 30
0.0
 10
822.1619530022966
 20
312.9462713805949
 30
0.0
 10
821.7216525502712
 20
313.1093095088024
 30
0.0
 10
821.2819205930574
 20
313.2682408318691
 30
0.0
 10
820.8427814981064
 20
313.4230561705638
 30
0.0
 10
820.4042596216384
 20
313.5737465742034
 30
0.0
 10
819.9663793076658
 20
313.7203033220306
 30
0.0
 10
819.5291648869763
 20
313.8627179246214
 30
0.0
 10
819.0926406760789
 20
314.00098212532
 30
0.0
 10
818.6568309761014
 20
314.1350879017025
 30
0.0
 10
818.2217600716452
 20
314.2650274670655
 30
0.0
 10
817.787452229581
 20
314.3907932719411
 30
0.0
 10
817.3539316977933
 20
314.5123780056345
 30
0.0
 10
816.9212227038574
 20
314.6297745977848
 30
0.0
 10
816.4893494536565
 20
314.7429762199427
 30
0.0
 10
816.0583361299241
 20
314.8519762871663
 30
0.0
 10
815.6282068907143
 20
314.9567684596302
 30
0.0
 10
815.1989858677917
 20
315.0573466442435
 30
0.0
 10
814.7706971649404
 20
315.1537049962742
 30
0.0
 10
814.343364856181
 20
315.2458379209758
 30
0.0
 10
813.9170129839009
 20
315.3337400752093
 30
0.0
 10
813.4916655568833
 20
315.417406369058
 30
0.0
 10
813.0673465482457
 20
315.4968319674259
 30
0.0
 10
812.6440798932658
 20
315.5720122916175
 30
0.0
 10
812.2218894871116
 20
315.6429430208887
 30
0.0
 10
811.8007991824549
 20
315.7096200939637
 30
0.0
 10
811.3808327869821
 20
315.7720397105096
 30
0.0
 10
810.9620140607897
 20
315.8301983325596
 30
0.0
 10
810.5443667136664
 20
315.8840926858791
 30
0.0
 10
810.1279144022669
 20
315.9337197612616
 30
0.0
 10
809.7126807271663
 20
315.9790768157499
 30
0.0
 10
809.2986892298093
 20
316.0201613737685
 30
0.0
 10
808.8859633893463
 20
316.0569712281608
 30
0.0
 10
808.474526619365
 20
316.0895044411186
 30
0.0
 10
808.0644022645189
 20
316.1177593449959
 30
0.0
 10
807.6556135970543
 20
316.1417345429948
 30
0.0
 10
807.2481838132524
 20
316.1614289097142
 30
0.0
 10
806.842136029778
 20
316.1768415915517
 30
0.0
 10
806.4374932799568
 20
316.1879720069473
 30
0.0
 10
806.0342785099806
 20
316.1948198464606
 30
0.0
 10
805.6325145750574
 20
316.1973850726714
 30
0.0
 10
805.2322242355161
 20
316.1956679198964
 30
0.0
 10
804.8334301528719
 20
316.1896688937115
 30
0.0
 10
804.4361548858751
 20
316.1793887702752
 30
0.0
 10
804.0404208865533
 20
316.1648285954451
 30
0.0
 10
803.646250496266
 20
316.1459896836822
 30
0.0
 10
803.2536659417832
 20
316.1228736167401
 30
0.0
 10
802.8626893314055
 20
316.0954822421335
 30
0.0
 10
802.4733426511519
 20
316.0638176713887
 30
0.0
 10
802.0856477610263
 20
316.0278822780716
 30
0.0
 10
801.6996263913841
 20
315.9876786955976
 30
0.0
 10
801.3153001394195
 20
315.9432098148261
 30
0.0
 10
800.9326904657921
 20
315.8944787814439
 30
0.0
 10
800.5518186914163
 20
315.8414889931457
 30
0.0
 10
800.1727059944261
 20
315.7842440966191
 30
0.0
 10
799.7953734073424
 20
315.7227479843458
 30
0.0
 10
799.4198418144554
 20
315.6570047912309
 30
0.0
 10
799.0461319494466
 20
315.5870188910768
 30
0.0
 10
798.6742643932605
 20
315.5127948929143
 30
0.0
 10
798.304259572245
 20
315.434337637214
 30
0.0
 10
797.9361377565724
 20
315.3516521919925
 30
0.0
 10
797.5699190589614
 20
315.2647438488418
 30
0.0
 10
797.2056234337009
 20
315.1736181188978
 30
0.0
 10
796.843270675989
 20
315.0782807287789
 30
0.0
 10
796.4828804215922
 20
314.9787376165141
 30
0.0
 10
796.124472146831
 20
314.8749949274927
 30
0.0
 10
795.7680651688931
 20
314.7670590104595
 30
0.0
 10
795.4136786464674
 20
314.6549364135832
 30
0.0
 10
795.0613315807061
 20
314.5386338806287
 30
0.0
 10
794.7110428164953
 20
314.4181583472578
 30
0.0
 10
794.3628310440405
 20
314.2935169374831
 30
0.0
 10
794.0167148007221
 20
314.1647169603324
 30
0.0
 10
793.6727124733038
 20
314.0317659066108
 30
0.0
 10
793.3308423001407
 20
313.8946714463271
 30
0.0
 10
792.9911223745842
 20
313.7534414247638
 30
0.0
 10
792.6535706450528
 20
313.6080838648548
 30
0.0
 10
792.3182049285385
 20
313.4586069473561
 30
0.0
 10
791.9850428748877
 20
313.3050190753214
 30
0.0
 10
791.6541021155055
 20
313.1473286254644
 30
0.0
 10
791.3253997244806
 20
312.9855448695677
 30
0.0
 10
790.9989542460985
 20
312.8196745311074
 30
0.0
 10
790.674778145313
 20
312.6497346322677
 30
0.0
 10
790.3529059988143
 20
312.4757045487473
 30
0.0
 10
790.0332893050239
 20
312.297704938007
 30
0.0
 10
789.7161890664113
 20
312.115329987217
 30
0.0
 10
789.4803490830355
 20
311.9768883949614
 30
0.0
 10
789.3509660126028
 20
311.8979661627558
 30
0.0
 10
789.3256982656711
 20
311.8825531184991
 30
0.0
  0
LINE
  5
10B
330
1F
100
AcDbEntity
  8
0
  6
Continuous
 62
     7
370
    30
100
AcDbLine
 10
830.4427593159
 20
191.7703261286
 30
0.0
 11
829.6724969008
 21
191.2454554909
 31
0.0
  0
LINE
  5
10C
330
1F
100
AcDbEntity
  8
0
  6
Continuous
 62
     7
370
    30
100
AcDbLine
 10
834.4606997628
 20
183.5430365219
 30
0.0
 11
835.054513774
 21
183.8784945375
 31
0.0
  0
LINE
  5
10D
330
1F
100
AcDbEntity
  8
0
  6
Continuous
 62
     7
370
    30
100
AcDbLine
 10
812.7801790207
 20
201.9857096017
 30
0.0
 11
811.9948273711
 21
201.4505568887
 31
0.0
  0
LINE
  5
10E
330
1F
100
AcDbEntity
  8
0
  6
Continuous
 62
     7
370
    30
100
AcDbLine
 10
816.7830302331
 20
193.7481379197
 30
0.0
 11
817.3398253772
 21
194.0626831992
 31
0.0
  0
LINE
  5
10F
330
1F
100
AcDbEntity
  8
0
  6
Continuous
 62
     7
370
    30
100
AcDbLine
 10
673.0204925562
 20
97.9447370585
 30
0.0
 11
673.0210799678
 21
98.0187722163
 31
0.0
  0
LINE
  5
110
330
1F
100
AcDbEntity
  8
0
  6
Continuous
 62
     7
370
    30
100
AcDbLine
 10
645.0210799678
 20
98.0187722163
 30
0.0
 11
645.0216267767
 21
97.9473415211
 31
0.0
  0
LINE
  5
111
330
1F
100
AcDbEntity
  8
0
  6
Continuous
 62
     7
370
    30
100
AcDbLine
 10
782.2057811041
 20
307.4649654262
 30
0.0
 11
782.3468122301
 21
307.5525319128
 31
0.0
  0
LINE
  5
112
330
1F
100
AcDbEntity
  8
0
  6
Continuous
 62
     7
370
    30
100
AcDbLine
 10
867.0798306915
 20
160.7897985783
 30
0.0
 11
866.9245796536
 21
160.7066812062
 31
0.0
  0
LINE
  5
113
330
1F
100
AcDbEntity
  8
0
  6
Continuous
 62
     7
370
    30
100
AcDbLine
 10
789.0253013846
 20
311.6990941534
 30
0.0
 11
789.3219947557
 21
311.88078793
 31
0.0
  0
LINE
  5
114
330
1F
100
AcDbEntity
  8
0
  6
Continuous
 62
     7
370
    30
100
AcDbLine
 10
874.2995773423
 20
164.6566156946
 30
0.0
 11
874.0038200471
 21
164.4960325197
 31
0.0
  0
SPLINE
  5
115
330
1F
100
AcDbEntity
  8
0
  6
Continuous
 62
     7
370
    30
100
AcDbSpline
210
0.0
220
0.0
230
1.0
 70
    11
 71
     3
 72
   119
 73
   115
 74
     0
 42
0.000000001
 43
0.00000001
 40
0.0
 40
0.0
 40
0.0
 40
0.0
 40
0.0083639775824242
 40
0.0167395377301843
 40
0.0251150955301737
 40
0.0334790699066587
 40
0.0422937618540101
 40
0.0511152307350043
 40
0.0599299207595766
 40
0.069000471637034
 40
0.0780784108439847
 40
0.0871489597479532
 40
0.0959627230007402
 40
0.10478326583212
 40
0.1135970276860299
 40
0.1226667327134178
 40
0.1317438284165404
 40
0.1408135324574339
 40
0.1496284646867608
 40
0.1584501820331941
 40
0.1672651140009191
 40
0.1763361603831594
 40
0.1854146021729609
 40
0.194485648988952
 40
0.2033033371839327
 40
0.2121278165064595
 40
0.2209455056943427
 40
0.2300194945487609
 40
0.2391008838577168
 40
0.2481748743783627
 40
0.2569956982742223
 40
0.2658233171414889
 40
0.2746441428512739
 40
0.2837213861643956
 40
0.2928060330783206
 40
0.3018832785606465
 40
0.3107062423903943
 40
0.3195360011769043
 40
0.3283589668456899
 40
0.337438348861252
 40
0.3465251343394156
 40
0.3556045180751685
 40
0.3644276871717778
 40
0.3732576473595607
 40
0.3820808175131982
 40
0.3911602841667496
 40
0.4002471509225841
 40
0.4093266180927783
 40
0.4181479685627293
 40
0.4269761041089606
 40
0.4357974543919954
 40
0.4448749154659897
 40
0.4539597715378964
 40
0.4630372317001767
 40
0.4718555379275099
 40
0.4806806237048515
 40
0.4894989285857614
 40
0.4985731741038378
 40
0.5076548100087915
 40
0.5167290535882311
 40
0.5255444238598834
 40
0.5343665710591455
 40
0.5431819394155112
 40
0.5522531681912896
 40
0.5613317852519005
 40
0.570403011911479
 40
0.5792168399041799
 40
0.588037446250759
 40
0.5968512725972492
 40
0.6059210041344235
 40
0.6149981252822474
 40
0.6240678554517268
 40
0.6328822105691003
 40
0.6417033488952258
 40
0.6505177033566253
 40
0.6595881133017824
 40
0.6686659170345906
 40
0.6777363269603038
 40
0.6865530489132627
 40
0.6953765602375148
 40
0.704193282814476
 40
0.7132662509943473
 40
0.7223466181637387
 40
0.7314195876831453
 40
0.7402394796362071
 40
0.7490661657276575
 40
0.7578860593134138
 40
0.7669623450380678
 40
0.7760460336964657
 40
0.7851223215338001
 40
0.7939447962477885
 40
0.8027740663744827
 40
0.8115965430138319
 40
0.820675450304217
 40
0.8297617614805751
 40
0.8388406707297373
 40
0.847664007703518
 40
0.8564941373117346
 40
0.8653174756581045
 40
0.8743971582545745
 40
0.8834842422801008
 40
0.8925639258217816
 40
0.9013864342096453
 40
0.9102157305676369
 40
0.9190382391743688
 40
0.9281169554967075
 40
0.9372030695516357
 40
0.9462817853924327
 40
0.9551043185980569
 40
0.9639336403109227
 40
0.9727561724868439
 40
0.9818349821438653
 40
0.9909211920405145
 40
0.9999999999999999
 40
0.9999999999999999
 40
0.9999999999999999
 40
0.9999999999999999
 10
834.4427546145677
 20
188.8107440884629
 30
0.0
 10
834.3993567825208
 20
188.8817647292678
 30
0.0
 10
834.3125010204394
 20
189.0239043613579
 30
0.0
 10
834.1743383730395
 20
189.2319301581206
 30
0.0
 10
834.0309458817547
 20
189.4354264621997
 30
0.0
 10
833.8794958471252
 20
189.6369400339966
 30
0.0
 10
833.7201602021254
 20
189.8356389929263
 30
0.0
 10
833.5531066440223
 20
190.0305943655869
 30
0.0
 10
833.3799533262394
 20
190.2195841869741
 30
0.0
 10
833.2010475030428
 20
190.4016752078776
 30
0.0
 10
833.0168855122238
 20
190.5760509162722
 30
0.0
 10
832.8315200211006
 20
190.738873477
 30
0.0
 10
832.6456239883285
 20
190.8898532460311
 30
0.0
 10
832.459853000878
 20
191.0289709520326
 30
0.0
 10
832.2711764262217
 20
191.1584959957874
 30
0.0
 10
832.080138259738
 20
191.2775495050476
 30
0.0
 10
831.8873607849841
 20
191.3854514759408
 30
0.0
 10
831.6970734029774
 20
191.4798337508747
 30
0.0
 10
831.5098779127002
 20
191.560688645365
 30
0.0
 10
831.3262830212698
 20
191.6283035731097
 30
0.0
 10
831.1433073036867
 20
191.6837758520409
 30
0.0
 10
830.9616285526457
 20
191.7263787187744
 30
0.0
 10
830.7819254479933
 20
191.7556459762885
 30
0.0
 10
830.6081324183509
 20
191.7709356866469
 30
0.0
 10
830.4407136579672
 20
191.7725235905087
 30
0.0
 10
830.2799746373519
 20
191.7609722595736
 30
0.0
 10
830.1233140566382
 20
191.7360936850074
 30
0.0
 10
829.9714670436872
 20
191.6973955903211
 30
0.0
 10
829.8250919824168
 20
191.6446784948623
 30
0.0
 10
829.6873930133696
 20
191.5790952878084
 30
0.0
 10
829.5586440586824
 20
191.5011762763573
 30
0.0
 10
829.4389123135993
 20
191.4116978648836
 30
0.0
 10
829.326261528542
 20
191.3092118642629
 30
0.0
 10
829.2214009470697
 20
191.1935163643116
 30
0.0
 10
829.1248941502485
 20
191.0647012190597
 30
0.0
 10
829.0388572315168
 20
190.9255905336731
 30
0.0
 10
828.9633412361904
 20
190.7769111858441
 30
0.0
 10
828.8981658643738
 20
190.6195672193721
 30
0.0
 10
828.8422745841925
 20
190.451007238045
 30
0.0
 10
828.7962704791051
 20
190.2713424207477
 30
0.0
 10
828.7605586687205
 20
190.0809416118046
 30
0.0
 10
828.7359240445522
 20
189.8839922521348
 30
0.0
 10
828.7221875298434
 20
189.6813355052973
 30
0.0
 10
828.7189405158376
 20
189.4739004467284
 30
0.0
 10
828.7261298203564
 20
189.2583094960003
 30
0.0
 10
828.7441843807277
 20
189.0349739639016
 30
0.0
 10
828.7733053337301
 20
188.8044997457043
 30
0.0
 10
828.812849545676
 20
188.5719702787497
 30
0.0
 10
828.862428151847
 20
188.3382440322527
 30
0.0
 10
828.9214507377633
 20
188.104168304238
 30
0.0
 10
828.9908818767444
 20
187.8659151758771
 30
0.0
 10
829.0709283209723
 20
187.6241493117353
 30
0.0
 10
829.1615648278226
 20
187.3796451860907
 30
0.0
 10
829.2607885028337
 20
187.1378036521094
 30
0.0
 10
829.3680461748162
 20
186.8994017635092
 30
0.0
 10
829.4826337877844
 20
186.6651080145424
 30
0.0
 10
829.6064293124394
 20
186.4310810911612
 30
0.0
 10
829.739394337759
 20
186.1981640674097
 30
0.0
 10
829.8812802314773
 20
185.9672128630121
 30
0.0
 10
830.0289539720251
 20
185.7433263036568
 30
0.0
 10
830.1817620397388
 20
185.5271125115543
 30
0.0
 10
830.3389673736235
 20
185.3189862788825
 30
0.0
 10
830.5031458693838
 20
185.1155366084968
 30
0.0
 10
830.6740183152809
 20
184.9176903296129
 30
0.0
 10
830.8511405940102
 20
184.7262886639012
 30
0.0
 10
831.0306110724849
 20
184.54554783572
 30
0.0
 10
831.2117496139361
 20
184.3758405026601
 30
0.0
 10
831.3938689900845
 20
184.2172829855973
 30
0.0
 10
831.5799442540548
 20
184.0672850755512
 30
0.0
 10
831.7694865751599
 20
183.9267532928877
 30
0.0
 10
831.9619061438485
 20
183.7964195146195
 30
0.0
 10
832.1529775760562
 20
183.6791464785563
 30
0.0
 10
832.3420692623494
 20
183.5750314266531
 30
0.0
 10
832.5286197515607
 20
183.4838807446872
 30
0.0
 10
832.7156627149124
 20
183.4042126804061
 30
0.0
 10
832.9025544670832
 20
183.3368113019916
 30
0.0
 10
833.0886258345224
 20
183.2822164801759
 30
0.0
 10
833.2698010549582
 20
183.2416251783092
 30
0.0
 10
833.4455665715934
 20
183.2148484217159
 30
0.0
 10
833.6155486390805
 20
183.2014042453446
 30
0.0
 10
833.7825004420678
 20
183.2010758702728
 30
0.0
 10
833.9456959401215
 20
183.2144361486257
 30
0.0
 10
834.1044621401336
 20
183.2417717260973
 30
0.0
 10
834.2553242304732
 20
183.2824854834793
 30
0.0
 10
834.3979443577329
 20
183.33612163895
 30
0.0
 10
834.5321787029009
 20
183.401962300437
 30
0.0
 10
834.6601977959017
 20
183.4810732773542
 30
0.0
 10
834.7812753702511
 20
183.5737511723811
 30
0.0
 10
834.8948107634237
 20
183.6799968635278
 30
0.0
 10
834.9983162067296
 20
183.797483028957
 30
0.0
 10
835.0916690646962
 20
183.9255362915786
 30
0.0
 10
835.1749731215424
 20
184.0632819838903
 30
0.0
 10
835.2495773503615
 20
184.2129516617907
 30
0.0
 10
835.3148375006862
 20
184.3745321304947
 30
0.0
 10
835.3702931517564
 20
184.5477385155441
 30
0.0
 10
835.4147262436733
 20
184.7287653866554
 30
0.0
 10
835.4482449422197
 20
184.9167972859517
 30
0.0
 10
835.4711903982924
 20
185.1109014086116
 30
0.0
 10
835.483935853286
 20
185.3142338171375
 30
0.0
 10
835.4859918151155
 20
185.5264733408473
 30
0.0
 10
835.4770899398469
 20
185.7470818170283
 30
0.0
 10
835.4574268890983
 20
185.9712006641842
 30
0.0
 10
835.4273292998338
 20
186.1979662976493
 30
0.0
 10
835.3873367859615
 20
186.4264948842081
 30
0.0
 10
835.3367971715204
 20
186.6605155938159
 30
0.0
 10
835.2754305382457
 20
186.8994358302415
 30
0.0
 10
835.203190847251
 20
187.1425251066866
 30
0.0
 10
835.1216649486801
 20
187.3844393846471
 30
0.0
 10
835.0313609226729
 20
187.6243681373185
 30
0.0
 10
834.9329398017088
 20
187.8615697110426
 30
0.0
 10
834.8248470620066
 20
188.0999339329162
 30
0.0
 10
834.7068596913444
 20
188.3385589807392
 30
0.0
 10
834.5798546075445
 20
188.5769968877974
 30
0.0
 10
834.48844219589
 20
188.7328495240111
 30
0.0
 10
834.4427546145677
 20
188.8107440884629
 30
0.0
  0
SPLINE
  5
116
330
1F
100
AcDbEntity
  8
0
  6
Continuous
 62
     7
370
    30
100
AcDbSpline
210
0.0
220
0.0
230
1.0
 70
    11
 71
     3
 72
   119
 73
   115
 74
     0
 42
0.000000001
 43
0.00000001
 40
0.0
 40
0.0
 40
0.0
 40
0.0
 40
0.0083601768975366
 40
0.0167319339147339
 40
0.0251036893084526
 40
0.0334638639890874
 40
0.0422782158848655
 40
0.0510993509751318
 40
0.0599137022121795
 40
0.0689841084862585
 40
0.0780619085355742
 40
0.0871323147866178
 40
0.0959490292117947
 40
0.1047725329920077
 40
0.1135892480378924
 40
0.1226622081826566
 40
0.1317425673031681
 40
0.1408155287841323
 40
0.1496354122867221
 40
0.1584620899174495
 40
0.1672819750504727
 40
0.1763582520105458
 40
0.1854419318960852
 40
0.1945182109674755
 40
0.2033406804168175
 40
0.2121699452802364
 40
0.2209924166549732
 40
0.2300713187310144
 40
0.2391576246947663
 40
0.248236528731065
 40
0.2570598662896525
 40
0.2658899964954
 40
0.2747133354290451
 40
0.2837930190106274
 40
0.2928801040324115
 40
0.3019597885629101
 40
0.3107818961101292
 40
0.3196107907040508
 40
0.3284328984738248
 40
0.3375111778153076
 40
0.3465968538175742
 40
0.3556751326817286
 40
0.3644944525109731
 40
0.3733205534120783
 40
0.3821398722163393
 40
0.3912151784556777
 40
0.4002978763416659
 40
0.4093731808887572
 40
0.4181893773486408
 40
0.4270123511449616
 40
0.4358285457829328
 40
0.4449006132135177
 40
0.4539800692352746
 40
0.4630521345008191
 40
0.4718662395766914
 40
0.4806871221235197
 40
0.4895012253779356
 40
0.4985712063532103
 40
0.5076485761577573
 40
0.5167185554427075
 40
0.5255325169549898
 40
0.5343532598859109
 40
0.5431672203744558
 40
0.5522371810047877
 40
0.561314533894281
 40
0.570384494049396
 40
0.5792003237358256
 40
0.5880229408793006
 40
0.596838770789946
 40
0.6059107873102942
 40
0.6149902012136871
 40
0.6240622186840442
 40
0.6328811107190906
 40
0.641706795694935
 40
0.650525689106499
 40
0.659600937923788
 40
0.6686835886960233
 40
0.6777588394740508
 40
0.6865806453445669
 40
0.6954092466740907
 40
0.7042310544705656
 40
0.7133092946043017
 40
0.722394938703378
 40
0.7314731809487742
 40
0.7402964735702923
 40
0.7491265600953498
 40
0.7579498543465396
 40
0.7670295321845266
 40
0.7761166125533825
 40
0.7851962917269348
 40
0.7940189923152219
 40
0.8028484818653759
 40
0.8116711830724809
 40
0.8207501149766705
 40
0.8298364451660807
 40
0.8389153770447945
 40
0.8477356677173635
 40
0.8565627411966497
 40
0.8653830312083433
 40
0.8744593620683634
 40
0.8835430860218032
 40
0.8926194155088462
 40
0.9014373862868794
 40
0.910262137164332
 40
0.919080106293086
 40
0.9281540492464957
 40
0.937235383699092
 40
0.946309324534214
 40
0.9551273228889712
 40
0.9639521061353908
 40
0.972770102572935
 40
0.9818442698560677
 40
0.9909258346547698
 40
1.0
 40
1.0
 40
1.0
 40
1.0
 10
816.5398252881306
 20
199.3108403554593
 30
0.0
 10
816.4940407939038
 20
199.3800920703453
 30
0.0
 10
816.4024083869448
 20
199.5186914243011
 30
0.0
 10
816.2578931494443
 20
199.720387909423
 30
0.0
 10
816.1087625727873
 20
199.9168365073001
 30
0.0
 10
815.9521545543154
 20
200.1104161263696
 30
0.0
 10
815.7882862795864
 20
200.3002772110619
 30
0.0
 10
815.6173784731644
 20
200.4854681865945
 30
0.0
 10
815.441130767502
 20
200.6638243927565
 30
0.0
 10
815.2599353094319
 20
200.8344117416397
 30
0.0
 10
815.0743168080352
 20
200.9964333653179
 30
0.0
 10
814.8883405448635
 20
201.1463394594808
 30
0.0
 10
814.702660540075
 20
201.2838951097486
 30
0.0
 10
814.5178964028893
 20
201.4091445365197
 30
0.0
 10
814.3310550944634
 20
201.5241158060024
 30
0.0
 10
814.1427107954439
 20
201.6279518895774
 30
0.0
 10
813.95349766202
 20
201.7200110542749
 30
0.0
 10
813.7675563999558
 20
201.7982777373625
 30
0.0
 10
813.5854555094688
 20
201.862804476117
 30
0.0
 10
813.4076555145349
 20
201.9139409645345
 30
0.0
 10
813.2312809461939
 20
201.9525133250681
 30
0.0
 10
813.0570214726546
 20
201.9778369818666
 30
0.0
 10
812.8855494461469
 20
201.98949847865
 30
0.0
 10
812.7206218182791
 20
201.9872418429574
 30
0.0
 10
812.562656823024
 20
201.9714035102198
 30
0.0
 10
812.4119030776714
 20
201.9426013337787
 30
0.0
 10
812.2659189816482
 20
201.9003682934346
 30
0.0
 10
812.1254315752258
 20
201.8442697625548
 30
0.0
 10
811.9910753409508
 20
201.7741672362705
 30
0.0
 10
811.8658017627248
 20
201.691601111891
 30
0.0
 10
811.7498298551868
 20
201.5971552559463
 30
0.0
 10
811.6431666468814
 20
201.4916470167302
 30
0.0
 10
811.5440776837235
 20
201.3733609969501
 30
0.0
 10
811.4532451471807
 20
201.2421613862594
 30
0.0
 10
811.3711940527926
 20
201.0981999799661
 30
0.0
 10
811.2997318390678
 20
200.9446500266291
 30
0.0
 10
811.2388523900017
 20
200.7822762094367
 30
0.0
 10
811.1883194963721
 20
200.6120021533475
 30
0.0
 10
811.1473071800028
 20
200.4310471932947
 30
0.0
 10
811.1163759343136
 20
200.2395891892593
 30
0.0
 10
811.095882310961
 20
200.0380527804752
 30
0.0
 10
811.0862779158401
 20
199.8308891349678
 30
0.0
 10
811.08733269979
 20
199.6189552458133
 30
0.0
 10
811.0985945898766
 20
199.4031747605989
 30
0.0
 10
811.1202473183922
 20
199.1800122368871
 30
0.0
 10
811.1526668470583
 20
198.9499388019065
 30
0.0
 10
811.1960013348473
 20
198.7136039674378
 30
0.0
 10
811.2492929667104
 20
198.4762278479738
 30
0.0
 10
811.3121154501362
 20
198.2386614845257
 30
0.0
 10
811.3838534576232
 20
198.0017232322882
 30
0.0
 10
811.465682532631
 20
197.7615285513631
 30
0.0
 10
811.5577520052452
 20
197.5187888047747
 30
0.0
 10
811.659985029557
 20
197.2743053885665
 30
0.0
 10
811.7701275216355
 20
197.033468447321
 30
0.0
 10
811.8876063588709
 20
196.7970276700815
 30
0.0
 10
812.0117133314617
 20
196.5656047225832
 30
0.0
 10
812.1444781456621
 20
196.335414432745
 30
0.0
 10
812.2858066215448
 20
196.1073286385427
 30
0.0
 10
812.4354054003106
 20
195.8822106193868
 30
0.0
 10
812.5899864133447
 20
195.665008960606
 30
0.0
 10
812.7488940071057
 20
195.4562897009208
 30
0.0
 10
812.9114063555197
 20
195.2564098284672
 30
0.0
 10
813.0801702535304
 20
195.0621143639856
 30
0.0
 10
813.2548582973646
 20
194.8743377105029
 30
0.0
 10
813.4349934154397
 20
194.6939078359354
 30
0.0
 10
813.6166277506038
 20
194.5247801114857
 30
0.0
 10
813.7990953498515
 20
194.3672749229495
 30
0.0
 10
813.9817405363082
 20
194.2214456977237
 30
0.0
 10
814.1675251539115
 20
194.0849284346181
 30
0.0
 10
814.3559251774791
 20
193.9586147215972
 30
0.0
 10
814.5463334902192
 20
193.8432036587483
 30
0.0
 10
814.7345830794688
 20
193.7412220113474
 30
0.0
 10
814.9200712968252
 20
193.6527080903955
 30
0.0
 10
815.1022814022357
 20
193.5774050839445
 30
0.0
 10
815.2841607569825
 20
193.5140958381717
 30
0.0
 10
815.4650477985236
 20
193.4635281866069
 30
0.0
 10
815.6442739615755
 20
193.4261931874263
 30
0.0
 10
815.8179146483899
 20
193.4029090442369
 30
0.0
 10
815.9854985845542
 20
193.3934255358221
 30
0.0
 10
816.1467066400339
 20
193.3972025011634
 30
0.0
 10
816.3041477042088
 20
193.414301754411
 30
0.0
 10
816.4570975785616
 20
193.4452426507088
 30
0.0
 10
816.6049019016824
 20
193.4902526757598
 30
0.0
 10
816.7443167028852
 20
193.5483438747824
 30
0.0
 10
816.8750568268873
 20
193.6190037406484
 30
0.0
 10
816.9970383089978
 20
193.7014681325856
 30
0.0
 10
817.1122418344161
 20
193.7970761239833
 30
0.0
 10
817.2199625456836
 20
193.9060600229066
 30
0.0
 10
817.3196342029826
 20
194.0283582741087
 30
0.0
 10
817.4090629206011
 20
194.1612775651779
 30
0.0
 10
817.4881833916679
 20
194.3041009449333
 30
0.0
 10
817.5571575351146
 20
194.4559268889284
 30
0.0
 10
817.617110876552
 20
194.6192314344491
 30
0.0
 10
817.6674373995534
 20
194.793934045991
 30
0.0
 10
817.7077226999851
 20
194.9796914232899
 30
0.0
 10
817.7370785130802
 20
195.1724026929151
 30
0.0
 10
817.7556668036503
 20
195.3712293154937
 30
0.0
 10
817.7638768695449
 20
195.5752360204426
 30
0.0
 10
817.7618439265129
 20
195.7877626948701
 30
0.0
 10
817.7491288290614
 20
196.0084254712213
 30
0.0
 10
817.7255154533838
 20
196.2366382078674
 30
0.0
 10
817.6915251841787
 20
196.4673664530241
 30
0.0
 10
817.6475263232836
 20
196.6997471638331
 30
0.0
 10
817.5940890897344
 20
196.9329186108187
 30
0.0
 10
817.5303393076935
 20
197.1706968196949
 30
0.0
 10
817.4560537070751
 20
197.4124376974832
 30
0.0
 10
817.3712388672911
 20
197.6573781383161
 30
0.0
 10
817.2777570189804
 20
197.9001352961072
 30
0.0
 10
817.1761420768786
 20
198.1399202953662
 30
0.0
 10
817.0670675417682
 20
198.3760315141717
 30
0.0
 10
816.9488008326922
 20
198.6123462453754
 30
0.0
 10
816.8211937600322
 20
198.8479046415151
 30
0.0
 10
816.6851033723555
 20
199.0823324371996
 30
0.0
 10
816.5882381569136
 20
199.2346917476247
 30
0.0
 10
816.5398252881305
 20
199.3108403554593
 30
0.0
  0
LWPOLYLINE
  5
117
330
1F
100
AcDbEntity
  8
0
  6
Continuous
 62
     7
370
    30
100
AcDbPolyline
 90
       36
 70
   128
 43
0.0
 10
822.8020939567
 20
244.5811887821
 10
822.5411043997
 20
244.7279095516
 10
822.2802937119
 20
244.8666391763
 10
822.0198406399
 20
244.9972825779
 10
821.7599236853
 20
245.1197502201
 10
821.5007209822
 20
245.2339581694
 10
821.242410175
 20
245.3398281537
 10
820.9851682972
 20
245.4372876148
 10
820.7291716495
 20
245.5262697588
 10
820.4745956793
 20
245.606713602
 10
820.22161486
 20
245.6785640121
 10
819.9704025723
 20
245.7417717463
 10
819.7211309843
 20
245.7962934854
 10
819.4739709345
 20
245.8420918628
 10
819.229091814
 20
245.8791354905
 10
818.9866614507
 20
245.9073989808
 10
818.7468459942
 20
245.9268629632
 10
818.5098098021
 20
245.9375140982
 10
818.2757153272
 20
245.9393450859
 10
818.044723006
 20
245.9323546715
 10
817.8169911493
 20
245.9165476458
 10
817.5926758331
 20
245.8919348423
 10
817.3719307918
 20
245.8585331293
 10
817.1549073131
 20
245.8163653986
 10
816.941754134
 20
245.76546055
 10
816.7326173392
 20
245.705853471
 10
816.5276402604
 20
245.6375850134
 10
816.3269633788
 20
245.560701965
 10
816.1307242282
 20
245.4752570175
 10
815.9390573012
 20
245.3813087307
 10
815.7520939567
 20
245.2789214921
 10
815.5699623301
 20
245.1681654726
 10
815.3927872452
 20
245.0491165791
 10
815.220690129
 20
244.9218564016
 10
815.0537889283
 20
244.7864721578
 10
814.9644419886
 20
244.7087528171
  0
LWPOLYLINE
  5
118
330
1F
100
AcDbEntity
  8
0
  6
Continuous
 62
     7
370
    30
100
AcDbPolyline
 90
       96
 70
   128
 43
0.0
 10
828.9633042455
 20
220.4593846705
 10
829.076547653
 20
220.4983416557
 10
829.2772245346
 20
220.5752247041
 10
829.4734636852
 20
220.6606696516
 10
829.6651306122
 20
220.7546179384
 10
829.8520939567
 20
220.857005177
 10
830.0342255834
 20
220.9677611965
 10
830.2114006682
 20
221.08681009
 10
830.3834977844
 20
221.2140702675
 10
830.5503989851
 20
221.3494545113
 10
830.7119898845
 20
221.4928700356
 10
830.8681597364
 20
221.6442185506
 10
831.0188015097
 20
221.8033963297
 10
831.1638119621
 20
221.9702942804
 10
831.3030917107
 20
222.1447980191
 10
831.4365453
 20
222.3267879497
 10
831.5640812677
 20
222.5161393453
 10
831.6856122069
 20
222.712722434
 10
831.8010548265
 20
222.9164024876
 10
831.9103300078
 20
223.1270399139
 10
832.0133628591
 20
223.3444903526
 10
832.1100827668
 20
223.568604774
 10
832.2004234439
 20
223.7992295812
 10
832.2843229754
 20
224.0362067155
 10
832.3617238608
 20
224.2793737647
 10
832.4325730534
 20
224.5285640741
 10
832.4968219966
 20
224.7836068613
 10
832.5544266576
 20
225.0443273326
 10
832.6053475568
 20
225.3105468032
 10
832.6495497957
 20
225.5820828196
 10
832.6870030803
 20
225.8587492846
 10
832.7176817419
 20
226.1403565848
 10
832.7415647549
 20
226.4267117206
 10
832.7586357511
 20
226.7176184385
 10
832.768883031
 20
227.0128773656
 10
832.7722995714
 20
227.3122861462
 10
832.768883031
 20
227.6156395804
 10
832.7586357511
 20
227.922729765
 10
832.7415647549
 20
228.2333462356
 10
832.7176817419
 20
228.5472761114
 10
832.6870030803
 20
228.8643042403
 10
832.6495497957
 20
229.1842133472
 10
832.6053475568
 20
229.5067841823
 10
832.5544266576
 20
229.8317956717
 10
832.4968219966
 20
230.1590250688
 10
832.4325730534
 20
230.4882481069
 10
832.3617238608
 20
230.819239153
 10
832.2843229754
 20
231.1517713623
 10
832.2004234439
 20
231.4856168338
 10
832.1100827668
 20
231.8205467666
 10
832.0133628591
 20
232.1563316164
 10
831.9103300078
 20
232.492741253
 10
831.8010548265
 20
232.8295451181
 10
831.6856122069
 20
233.1665123832
 10
831.5640812677
 20
233.5034121076
 10
831.4365453
 20
233.8400133973
 10
831.3030917107
 20
234.1760855623
 10
831.1638119621
 20
234.5113982758
 10
831.0188015097
 20
234.845721731
 10
830.8681597364
 20
235.1788267995
 10
830.7119898845
 20
235.5104851875
 10
830.5503989851
 20
235.8404695931
 10
830.3834977844
 20
236.1685538614
 10
830.2114006682
 20
236.4945131398
 10
830.0342255833
 20
236.8181240321
 10
829.8520939567
 20
237.1391647517
 10
829.6651306122
 20
237.4574152731
 10
829.4734636852
 20
237.7726574834
 10
829.2772245346
 20
238.0846753314
 10
829.076547653
 20
238.3932549756
 10
828.8715705742
 20
238.6981849308
 10
828.6624337794
 20
238.9992562135
 10
828.4492806003
 20
239.2962624842
 10
828.2322571216
 20
239.5890001898
 10
828.0115120803
 20
239.8772687025
 10
827.7871967641
 20
240.1608704575
 10
827.5594649074
 20
240.4396110882
 10
827.3284725862
 20
240.7132995597
 10
827.0943781113
 20
240.9817482997
 10
826.8573419192
 20
241.2447733268
 10
826.6175264627
 20
241.5021943767
 10
826.3750960994
 20
241.753835026
 10
826.1302169789
 20
241.9995228127
 10
825.8830569291
 20
242.2390893547
 10
825.6337853411
 20
242.472370465
 10
825.3825730534
 20
242.6992062645
 10
825.1295922342
 20
242.9194412911
 10
824.8750162639
 20
243.1329246068
 10
824.6190196162
 20
243.3395099008
 10
824.3617777384
 20
243.5390555899
 10
824.1034669312
 20
243.7314249154
 10
823.8442642281
 20
243.9164860369
 10
823.5843472735
 20
244.0941121229
 10
823.3238942015
 20
244.2641814373
 10
823.0630835137
 20
244.4265774231
 10
822.8020939567
 20
244.5811887821
  0
LWPOLYLINE
  5
119
330
1F
100
AcDbEntity
  8
0
  6
Continuous
 62
     7
370
    30
100
AcDbPolyline
 90
      187
 70
   128
 43
0.0
 10
831.9932413758
 20
191.055150546
 10
832.1016384422
 20
190.9905438736
 10
832.2100523131
 20
190.9218690609
 10
832.3183592863
 20
190.8492044672
 10
832.4264357815
 20
190.7726330041
 10
832.5341584814
 20
190.692242041
 10
832.6414044726
 20
190.6081233054
 10
832.7480513854
 20
190.5203727785
 10
832.8539775338
 20
190.4290905851
 10
832.959062054
 20
190.3343808798
 10
833.0631850428
 20
190.2363517282
 10
833.1662276939
 20
190.1351149832
 10
833.2680724338
 20
190.030786158
 10
833.3686030557
 20
189.9234842934
 10
833.4677048526
 20
189.813331823
 10
833.5652647473
 20
189.7004544326
 10
833.6611714222
 20
189.5849809175
 10
833.7553154462
 20
189.467043035
 10
833.8475893992
 20
189.3467753543
 10
833.9378879949
 20
189.2243151031
 10
834.026108201
 20
189.0998020107
 10
834.1121493566
 20
188.9733781489
 10
834.1959132873
 20
188.8451877695
 10
834.2773044168
 20
188.7153771401
 10
834.3562298763
 20
188.584094377
 10
834.4325996106
 20
188.4514892763
 10
834.5063264804
 20
188.3177131426
 10
834.5773263619
 20
188.1829186171
 10
834.6455182431
 20
188.0472595026
 10
834.7108243156
 20
187.9108905888
 10
834.7731700643
 20
187.7739674751
 10
834.8324843513
 20
187.6366463931
 10
834.888699498
 20
187.4990840288
 10
834.9417513619
 20
187.3614373432
 10
834.9915794099
 20
187.2238633939
 10
835.0381267873
 20
187.086519155
 10
835.0813403827
 20
186.9495613389
 10
835.1211708885
 20
186.813146217
 10
835.1575728574
 20
186.6774294414
 10
835.1905047542
 20
186.5425658673
 10
835.219929003
 20
186.4087093766
 10
835.2458120301
 20
186.276012702
 10
835.2681243025
 20
186.1446272527
 10
835.2868403616
 20
186.014702942
 10
835.3019388519
 20
185.8863880158
 10
835.3134025458
 20
185.7598288837
 10
835.3212183631
 20
185.6351699522
 10
835.3253773857
 20
185.5125534592
 10
835.3258748682
 20
185.3921193124
 10
835.3227102428
 20
185.2740049294
 10
835.3158871205
 20
185.1583450808
 10
835.3054132866
 20
185.0452717366
 10
835.291300692
 20
184.9349139155
 10
835.2735654393
 20
184.8273975378
 10
835.2522277647
 20
184.7228452816
 10
835.2273120151
 20
184.621376443
 10
835.1988466196
 20
184.5231067998
 10
835.1668640579
 20
184.4281484794
 10
835.1314008226
 20
184.3366098309
 10
835.0924973778
 20
184.2485953016
 10
835.0501981132
 20
184.1642053177
 10
835.004551293
 20
184.0835361698
 10
834.955609001
 20
184.0066799026
 10
834.9034270813
 20
183.9337242108
 10
834.8480650743
 20
183.8647523379
 10
834.7895861492
 20
183.7998429823
 10
834.7280570314
 20
183.7390702065
 10
834.6635479268
 20
183.6825033535
 10
834.5961324414
 20
183.6302069672
 10
834.5258874976
 20
183.5822407185
 10
834.452893246
 20
183.5386593378
 10
834.3772329745
 20
183.4995125524
 10
834.2989930128
 20
183.4648450294
 10
834.2182626342
 20
183.434696325
 10
834.1351339533
 20
183.4091008396
 10
834.0497018217
 20
183.3880877779
 10
833.9620637188
 20
183.3716811163
 10
833.8723196414
 20
183.3598995751
 10
833.780571989
 20
183.3527565973
 10
833.6869254475
 20
183.3502603331
 10
833.5914868691
 20
183.3524136307
 10
833.4943651512
 20
183.3592140333
 10
833.3956711112
 20
183.3706537814
 10
833.2955173609
 20
183.3867198222
 10
833.1940181775
 20
183.4073938238
 10
833.0912893735
 20
183.4326521971
 10
832.9874481643
 20
183.4624661216
 10
832.8826130345
 20
183.4968015791
 10
832.776903603
 20
183.5356193923
 10
832.6704404862
 20
183.5788752694
 10
832.5633451603
 20
183.6265198545
 10
832.4557398231
 20
183.6784987845
 10
832.3477472543
 20
183.7347527502
 10
832.2394906753
 20
183.7952175651
 10
832.1310936088
 20
183.8598242376
 10
832.0226797379
 20
183.9284990502
 10
831.9143727648
 20
184.001163644
 10
831.8062962696
 20
184.0777351071
 10
831.6985735696
 20
184.1581260702
 10
831.5913275784
 20
184.2422448057
 10
831.4846806657
 20
184.3299953326
 10
831.3787545173
 20
184.4212775261
 10
831.2736699971
 20
184.5159872313
 10
831.1695470083
 20
184.614016383
 10
831.0665043572
 20
184.7152531279
 10
830.9646596173
 20
184.8195819532
 10
830.8641289953
 20
184.9268838177
 10
830.7650271985
 20
185.0370362881
 10
830.6674673038
 20
185.1499136785
 10
830.5715606288
 20
185.2653871936
 10
830.4774166048
 20
185.3833250762
 10
830.3851426519
 20
185.5035927568
 10
830.2948440562
 20
185.6260530081
 10
830.2066238501
 20
185.7505661004
 10
830.1205826944
 20
185.8769899622
 10
830.0368187638
 20
186.0051803416
 10
829.9554276343
 20
186.134990971
 10
829.8765021747
 20
186.2662737341
 10
829.8001324404
 20
186.3988788349
 10
829.7264055707
 20
186.5326549685
 10
829.6554056891
 20
186.6674494941
 10
829.587213808
 20
186.8031086085
 10
829.5219077354
 20
186.9394775223
 10
829.4595619868
 20
187.076400636
 10
829.4002476998
 20
187.213721718
 10
829.3440325531
 20
187.3512840823
 10
829.2909806892
 20
187.4889307679
 10
829.2411526412
 20
187.6265047173
 10
829.1946052638
 20
187.7638489561
 10
829.1513916684
 20
187.9008067722
 10
829.1115611626
 20
188.0372218941
 10
829.0751591936
 20
188.1729386697
 10
829.0422272968
 20
188.3078022438
 10
829.0128030481
 20
188.4416587345
 10
828.986920021
 20
188.5743554091
 10
828.9646077486
 20
188.7057408584
 10
828.9458916895
 20
188.8356651692
 10
828.9307931992
 20
188.9639800954
 10
828.9193295052
 20
189.0905392274
 10
828.911513688
 20
189.2151981589
 10
828.9073546653
 20
189.3378146519
 10
828.9068571829
 20
189.4582487987
 10
828.9100218083
 20
189.5763631817
 10
828.9168449305
 20
189.6920230303
 10
828.9273187644
 20
189.8050963746
 10
828.9414313591
 20
189.9154541957
 10
828.9591666118
 20
190.0229705733
 10
828.9805042863
 20
190.1275228295
 10
829.005420036
 20
190.2289916681
 10
829.0338854315
 20
190.3272613113
 10
829.0658679932
 20
190.4222196318
 10
829.1013312285
 20
190.5137582803
 10
829.1402346732
 20
190.6017728095
 10
829.1825339378
 20
190.6861627934
 10
829.2281807581
 20
190.7668319414
 10
829.2771230501
 20
190.8436882085
 10
829.3293049698
 20
190.9166439004
 10
829.3846669768
 20
190.9856157732
 10
829.4431459019
 20
191.0505251289
 10
829.5046750197
 20
191.1112979046
 10
829.5691841243
 20
191.1678647576
 10
829.6365996097
 20
191.220161144
 10
829.7068445535
 20
191.2681273927
 10
829.7798388051
 20
191.3117087733
 10
829.8554990765
 20
191.3508555587
 10
829.9337390382
 20
191.3855230817
 10
830.0144694169
 20
191.4156717861
 10
830.0975980977
 20
191.4412672716
 10
830.1830302294
 20
191.4622803332
 10
830.2706683323
 20
191.4786869948
 10
830.3604124097
 20
191.490468536
 10
830.452160062
 20
191.4976115138
 10
830.5458066036
 20
191.5001077781
 10
830.6412451819
 20
191.4979544804
 10
830.7383668999
 20
191.4911540778
 10
830.8370609399
 20
191.4797143297
 10
830.9372146902
 20
191.463648289
 10
831.0387138736
 20
191.4429742873
 10
831.1414426776
 20
191.4177159141
 10
831.2452838868
 20
191.3879019896
 10
831.3501190166
 20
191.353566532
 10
831.4558284481
 20
191.3147487188
 10
831.5622915649
 20
191.2714928417
 10
831.6693868908
 20
191.2238482566
 10
831.7769922279
 20
191.1718693267
 10
831.8849847968
 20
191.1156153609
 10
831.9932413758
 20
191.055150546
  0
LWPOLYLINE
  5
11A
330
1F
100
AcDbEntity
  8
0
  6
Continuous
 62
     7
370
    30
100
AcDbPolyline
 90
      187
 70
   128
 43
0.0
 10
814.3155718461
 20
201.2602519438
 10
814.4239689126
 20
201.1956452714
 10
814.5323827835
 20
201.1269704587
 10
814.6406897566
 20
201.054305865
 10
814.7487662518
 20
200.9777344018
 10
814.8564889518
 20
200.8973434387
 10
814.963734943
 20
200.8132247032
 10
815.0703818558
 20
200.7254741763
 10
815.1763080041
 20
200.6341919829
 10
815.2813925243
 20
200.5394822776
 10
815.3855155131
 20
200.441453126
 10
815.4885581642
 20
200.340216381
 10
815.5904029041
 20
200.2358875558
 10
815.6909335261
 20
200.1285856912
 10
815.7900353229
 20
200.0184332208
 10
815.8875952176
 20
199.9055558304
 10
815.9835018926
 20
199.7900823153
 10
816.0776459166
 20
199.6721444327
 10
816.1699198696
 20
199.5518767521
 10
816.2602184653
 20
199.4294165009
 10
816.3484386713
 20
199.3049034085
 10
816.434479827
 20
199.1784795467
 10
816.5182437576
 20
199.0502891673
 10
816.5996348871
 20
198.9204785379
 10
816.6785603467
 20
198.7891957748
 10
816.754930081
 20
198.656590674
 10
816.8286569507
 20
198.5228145404
 10
816.8996568323
 20
198.3880200148
 10
816.9678487134
 20
198.2523609004
 10
817.033154786
 20
198.1159919866
 10
817.0955005346
 20
197.9790688729
 10
817.1548148216
 20
197.8417477909
 10
817.2110299683
 20
197.7041854266
 10
817.2640818322
 20
197.566538741
 10
817.3139098803
 20
197.4289647916
 10
817.3604572576
 20
197.2916205528
 10
817.403670853
 20
197.1546627367
 10
817.4435013588
 20
197.0182476148
 10
817.4799033278
 20
196.8825308392
 10
817.5128352246
 20
196.7476672651
 10
817.5422594733
 20
196.6138107744
 10
817.5681425004
 20
196.4811140998
 10
817.5904547728
 20
196.3497286505
 10
817.6091708319
 20
196.2198043397
 10
817.6242693222
 20
196.0914894135
 10
817.6357330162
 20
195.9649302815
 10
817.6435488334
 20
195.84027135
 10
817.6477078561
 20
195.717654857
 10
817.6482053385
 20
195.5972207102
 10
817.6450407132
 20
195.4791063272
 10
817.6382175909
 20
195.3634464786
 10
817.627743757
 20
195.2503731344
 10
817.6136311623
 20
195.1400153133
 10
817.5958959096
 20
195.0324989356
 10
817.5745582351
 20
194.9279466794
 10
817.5496424854
 20
194.8264778408
 10
817.52117709
 20
194.7282081976
 10
817.4891945282
 20
194.6332498771
 10
817.4537312929
 20
194.5417112287
 10
817.4148278482
 20
194.4536966994
 10
817.3725285836
 20
194.3693067155
 10
817.3268817634
 20
194.2886375675
 10
817.2779394713
 20
194.2117813004
 10
817.2257575516
 20
194.1388256086
 10
817.1703955446
 20
194.0698537357
 10
817.1119166195
 20
194.00494438
 10
817.0503875017
 20
193.9441716043
 10
816.9858783971
 20
193.8876047513
 10
816.9184629117
 20
193.8353083649
 10
816.8482179679
 20
193.7873421162
 10
816.7752237164
 20
193.7437607356
 10
816.6995634449
 20
193.7046139502
 10
816.6213234832
 20
193.6699464272
 10
816.5405931045
 20
193.6397977228
 10
816.4574644237
 20
193.6142022373
 10
816.372032292
 20
193.5931891757
 10
816.2843941891
 20
193.5767825141
 10
816.1946501117
 20
193.5650009729
 10
816.1029024594
 20
193.5578579951
 10
816.0092559178
 20
193.5553617308
 10
815.9138173395
 20
193.5575150285
 10
815.8166956215
 20
193.5643154311
 10
815.7180015815
 20
193.5757551792
 10
815.6178478312
 20
193.5918212199
 10
815.5163486479
 20
193.6124952216
 10
815.4136198438
 20
193.6377535948
 10
815.3097786346
 20
193.6675675193
 10
815.2049435048
 20
193.7019029769
 10
815.0992340733
 20
193.7407207901
 10
814.9927709565
 20
193.7839766672
 10
814.8856756306
 20
193.8316212523
 10
814.7780702935
 20
193.8836001822
 10
814.6700777246
 20
193.939854148
 10
814.5618211456
 20
194.0003189629
 10
814.4534240792
 20
194.0649256353
 10
814.3450102083
 20
194.133600448
 10
814.2367032351
 20
194.2062650417
 10
814.1286267399
 20
194.2828365049
 10
814.02090404
 20
194.363227468
 10
813.9136580488
 20
194.4473462035
 10
813.807011136
 20
194.5350967304
 10
813.7010849876
 20
194.6263789238
 10
813.5960004674
 20
194.7210886291
 10
813.4918774786
 20
194.8191177807
 10
813.3888348275
 20
194.9203545257
 10
813.2869900877
 20
195.0246833509
 10
813.1864594657
 20
195.1319852155
 10
813.0873576688
 20
195.2421376859
 10
812.9897977741
 20
195.3550150763
 10
812.8938910992
 20
195.4704885914
 10
812.7997470752
 20
195.588426474
 10
812.7074731222
 20
195.7086941546
 10
812.6171745265
 20
195.8311544058
 10
812.5289543204
 20
195.9556674982
 10
812.4429131648
 20
196.08209136
 10
812.3591492341
 20
196.2102817394
 10
812.2777581046
 20
196.3400923688
 10
812.1988326451
 20
196.4713751319
 10
812.1224629108
 20
196.6039802327
 10
812.048736041
 20
196.7377563663
 10
811.9777361595
 20
196.8725508919
 10
811.9095442783
 20
197.0082100063
 10
811.8442382058
 20
197.1445789201
 10
811.7818924572
 20
197.2815020338
 10
811.7225781702
 20
197.4188231158
 10
811.6663630234
 20
197.5563854801
 10
811.6133111595
 20
197.6940321657
 10
811.5634831115
 20
197.8316061151
 10
811.5169357341
 20
197.9689503539
 10
811.4737221388
 20
198.10590817
 10
811.4338916329
 20
198.2423232919
 10
811.397489664
 20
198.3780400675
 10
811.3645577672
 20
198.5129036416
 10
811.3351335184
 20
198.6467601323
 10
811.3092504913
 20
198.7794568069
 10
811.2869382189
 20
198.9108422562
 10
811.2682221598
 20
199.0407665669
 10
811.2531236695
 20
199.1690814932
 10
811.2416599756
 20
199.2956406252
 10
811.2338441583
 20
199.4202995567
 10
811.2296851357
 20
199.5429160497
 10
811.2291876532
 20
199.6633501965
 10
811.2323522786
 20
199.7814645795
 10
811.2391754009
 20
199.8971244281
 10
811.2496492348
 20
200.0101977723
 10
811.2637618294
 20
200.1205555934
 10
811.2814970822
 20
200.2280719711
 10
811.3028347567
 20
200.3326242273
 10
811.3277505063
 20
200.4340930659
 10
811.3562159018
 20
200.5323627091
 10
811.3881984635
 20
200.6273210296
 10
811.4236616989
 20
200.718859678
 10
811.4625651436
 20
200.8068742073
 10
811.5048644082
 20
200.8912641912
 10
811.5505112284
 20
200.9719333392
 10
811.5994535204
 20
201.0487896063
 10
811.6516354401
 20
201.1217452981
 10
811.7069974471
 20
201.190717171
 10
811.7654763723
 20
201.2556265267
 10
811.82700549
 20
201.3163993024
 10
811.8915145947
 20
201.3729661554
 10
811.95893008
 20
201.4252625418
 10
812.0291750239
 20
201.4732287905
 10
812.1021692754
 20
201.5168101711
 10
812.1778295469
 20
201.5559569565
 10
812.2560695086
 20
201.5906244795
 10
812.3367998872
 20
201.6207731839
 10
812.4199285681
 20
201.6463686694
 10
812.5053606997
 20
201.667381731
 10
812.5929988026
 20
201.6837883926
 10
812.68274288
 20
201.6955699338
 10
812.7744905324
 20
201.7027129116
 10
812.8681370739
 20
201.7052091759
 10
812.9635756523
 20
201.7030558782
 10
813.0606973703
 20
201.6962554756
 10
813.1593914102
 20
201.6848157275
 10
813.2595451605
 20
201.6687496868
 10
813.3610443439
 20
201.6480756851
 10
813.4637731479
 20
201.6228173119
 10
813.5676143571
 20
201.5930033874
 10
813.6724494869
 20
201.5586679298
 10
813.7781589184
 20
201.5198501166
 10
813.8846220352
 20
201.4765942395
 10
813.9917173611
 20
201.4289496544
 10
814.0993226983
 20
201.3769707245
 10
814.2073152671
 20
201.3207167587
 10
814.3155718461
 20
201.2602519438
  0
ENDSEC
  0
SECTION
  2
OBJECTS
  0
DICTIONARY
  5
C
330
0
100
AcDbDictionary
281
     1
  3
ACAD_GROUP
350
D
  3
ACAD_LAYOUT
350
1A
  3
ACAD_MLINESTYLE
350
17
  3
ACAD_PLOTSETTINGS
350
19
  3
ACAD_PLOTSTYLENAME
350
E
  3
ACAD_SCALELIST
350
47
  0
DICTIONARY
  5
D
102
{ACAD_REACTORS
330
C
102
}
330
C
100
AcDbDictionary
281
     1
  0
DICTIONARY
  5
1A
102
{ACAD_REACTORS
330
C
102
}
330
C
100
AcDbDictionary
281
     1
  3
Layout1
350
1E
  3
Layout2
350
26
  3
Model
350
22
  0
DICTIONARY
  5
17
102
{ACAD_REACTORS
330
C
102
}
330
C
100
AcDbDictionary
281
     1
  3
Standard
350
18
  0
DICTIONARY
  5
19
102
{ACAD_REACTORS
330
C
102
}
330
C
100
AcDbDictionary
281
     1
  0
ACDBDICTIONARYWDFLT
  5
E
102
{ACAD_REACTORS
330
C
102
}
330
C
100
AcDbDictionary
281
     1
  3
Normal
350
F
100
AcDbDictionaryWithDefault
340
F
  0
DICTIONARY
  5
47
102
{ACAD_REACTORS
330
C
102
}
330
C
100
AcDbDictionary
281
     1
  3
A0
350
48
  3
A1
350
49
  3
A2
350
4A
  3
A3
350
4B
  3
A4
350
4C
  3
A5
350
4D
  3
A6
350
4E
  3
A7
350
4F
  3
A8
350
50
  3
A9
350
51
  3
B0
350
52
  3
B1
350
53
  3
B2
350
54
  3
B3
350
55
  3
B4
350
56
  3
B5
350
57
  3
B6
350
58
  3
B7
350
59
  3
B8
350
5A
  3
B9
350
5B
  3
C0
350
5C
  3
C1
350
5D
  3
C2
350
5E
  3
C3
350
5F
  3
C4
350
60
  3
C5
350
61
  3
C6
350
62
  3
C7
350
63
  3
C8
350
64
  3
C9
350
65
  3
D0
350
66
  3
D1
350
67
  3
D2
350
68
  0
LAYOUT
  5
1E
102
{ACAD_REACTORS
330
1A
102
}
330
1A
100
AcDbPlotSettings
  1

  2
none_device
  4

  6

 40
0.0
 41
0.0
 42
0.0
 43
0.0
 44
0.0
 45
0.0
 46
0.0
 47
0.0
 48
0.0
 49
0.0
140
0.0
141
0.0
142
1.0
143
1.0
 70
   688
 72
     1
 73
     0
 74
     5
  7

 75
    16
147
1.0
148
0.0
149
0.0
100
AcDbLayout
  1
Layout1
 70
     1
 71
     1
 10
0.0
 20
0.0
 11
420.0
 21
297.0
 12
0.0
 22
0.0
 32
0.0
 14
1.0000000000E+20
 24
1.0000000000E+20
 34
1.0000000000E+20
 15
-1.0000000000E+20
 25
-1.0000000000E+20
 35
-1.0000000000E+20
146
0.0
 13
0.0
 23
0.0
 33
0.0
 16
1.0
 26
0.0
 36
0.0
 17
0.0
 27
1.0
 37
0.0
 76
     0
330
1B
  0
LAYOUT
  5
26
102
{ACAD_REACTORS
330
1A
102
}
330
1A
100
AcDbPlotSettings
  1

  2
none_device
  4

  6

 40
0.0
 41
0.0
 42
0.0
 43
0.0
 44
0.0
 45
0.0
 46
0.0
 47
0.0
 48
0.0
 49
0.0
140
0.0
141
0.0
142
1.0
143
1.0
 70
   688
 72
     1
 73
     0
 74
     5
  7

 75
    16
147
1.0
148
0.0
149
0.0
100
AcDbLayout
  1
Layout2
 70
     1
 71
     2
 10
0.0
 20
0.0
 11
0.0
 21
0.0
 12
0.0
 22
0.0
 32
0.0
 14
0.0
 24
0.0
 34
0.0
 15
0.0
 25
0.0
 35
0.0
146
0.0
 13
0.0
 23
0.0
 33
0.0
 16
1.0
 26
0.0
 36
0.0
 17
0.0
 27
1.0
 37
0.0
 76
     0
330
23
  0
LAYOUT
  5
22
102
{ACAD_REACTORS
330
1A
102
}
330
1A
100
AcDbPlotSettings
  1

  2
none_device
  4
Letter_(8.50_x_11.00_Inches)
  6

 40
6.35
 41
6.35
 42
6.35000508
 43
6.35000508
 44
215.9
 45
279.4
 46
0.0
 47
0.0
 48
0.0
 49
0.0
140
0.0
141
0.0
142
1.0
143
1.0
 70
  1712
 72
     1
 73
     0
 74
     0
  7

 75
     0
147
1.0
148
0.0
149
0.0
100
AcDbLayout
  1
Model
 70
     1
 71
     0
 10
0.0
 20
0.0
 11
920.0
 21
579.0
 12
0.0
 22
0.0
 32
0.0
 14
0.0
 24
0.0
 34
0.0
 15
920.0
 25
579.0
 35
0.0
146
0.0
 13
0.0
 23
0.0
 33
0.0
 16
1.0
 26
0.0
 36
0.0
 17
0.0
 27
1.0
 37
0.0
 76
     0
330
1F
331
29
  0
MLINESTYLE
  5
18
102
{ACAD_REACTORS
330
17
102
}
330
17
100
AcDbMlineStyle
  2
Standard
 70
     0
  3

 62
   256
 51
90.0
 52
90.0
 71
     2
 49
0.5
 62
   256
  6
BYLAYER
 49
-0.5
 62
   256
  6
BYLAYER
  0
ACDBPLACEHOLDER
  5
F
102
{ACAD_REACTORS
330
E
102
}
330
E
  0
SCALE
  5
48
102
{ACAD_REACTORS
330
47
102
}
330
47
100
AcDbScale
 70
     0
300
1:1
140
1.0
141
1.0
290
     1
  0
SCALE
  5
49
102
{ACAD_REACTORS
330
47
102
}
330
47
100
AcDbScale
 70
     0
300
1:2
140
1.0
141
2.0
290
     0
  0
SCALE
  5
4A
102
{ACAD_REACTORS
330
47
102
}
330
47
100
AcDbScale
 70
     0
300
1:4
140
1.0
141
4.0
290
     0
  0
SCALE
  5
4B
102
{ACAD_REACTORS
330
47
102
}
330
47
100
AcDbScale
 70
     0
300
1:5
140
1.0
141
5.0
290
     0
  0
SCALE
  5
4C
102
{ACAD_REACTORS
330
47
102
}
330
47
100
AcDbScale
 70
     0
300
1:8
140
1.0
141
8.0
290
     0
  0
SCALE
  5
4D
102
{ACAD_REACTORS
330
47
102
}
330
47
100
AcDbScale
 70
     0
300
1:10
140
1.0
141
10.0
290
     0
  0
SCALE
  5
4E
102
{ACAD_REACTORS
330
47
102
}
330
47
100
AcDbScale
 70
     0
300
1:16
140
1.0
141
16.0
290
     0
  0
SCALE
  5
4F
102
{ACAD_REACTORS
330
47
102
}
330
47
100
AcDbScale
 70
     0
300
1:20
140
1.0
141
20.0
290
     0
  0
SCALE
  5
50
102
{ACAD_REACTORS
330
47
102
}
330
47
100
AcDbScale
 70
     0
300
1:30
140
1.0
141
30.0
290
     0
  0
SCALE
  5
51
102
{ACAD_REACTORS
330
47
102
}
330
47
100
AcDbScale
 70
     0
300
1:40
140
1.0
141
40.0
290
     0
  0
SCALE
  5
52
102
{ACAD_REACTORS
330
47
102
}
330
47
100
AcDbScale
 70
     0
300
1:50
140
1.0
141
50.0
290
     0
  0
SCALE
  5
53
102
{ACAD_REACTORS
330
47
102
}
330
47
100
AcDbScale
 70
     0
300
1:100
140
1.0
141
100.0
290
     0
  0
SCALE
  5
54
102
{ACAD_REACTORS
330
47
102
}
330
47
100
AcDbScale
 70
     0
300
2:1
140
2.0
141
1.0
290
     0
  0
SCALE
  5
55
102
{ACAD_REACTORS
330
47
102
}
330
47
100
AcDbScale
 70
     0
300
4:1
140
4.0
141
1.0
290
     0
  0
SCALE
  5
56
102
{ACAD_REACTORS
330
47
102
}
330
47
100
AcDbScale
 70
     0
300
8:1
140
8.0
141
1.0
290
     0
  0
SCALE
  5
57
102
{ACAD_REACTORS
330
47
102
}
330
47
100
AcDbScale
 70
     0
300
10:1
140
10.0
141
1.0
290
     0
  0
SCALE
  5
58
102
{ACAD_REACTORS
330
47
102
}
330
47
100
AcDbScale
 70
     0
300
100:1
140
100.0
141
1.0
290
     0
  0
SCALE
  5
59
102
{ACAD_REACTORS
330
47
102
}
330
47
100
AcDbScale
 70
     0
300
1/128" = 1'-0"
140
0.0078125
141
12.0
290
     0
  0
SCALE
  5
5A
102
{ACAD_REACTORS
330
47
102
}
330
47
100
AcDbScale
 70
     0
300
1/64" = 1'-0"
140
0.015625
141
12.0
290
     0
  0
SCALE
  5
5B
102
{ACAD_REACTORS
330
47
102
}
330
47
100
AcDbScale
 70
     0
300
1/32" = 1'-0"
140
0.03125
141
12.0
290
     0
  0
SCALE
  5
5C
102
{ACAD_REACTORS
330
47
102
}
330
47
100
AcDbScale
 70
     0
300
1/16" = 1'-0"
140
0.0625
141
12.0
290
     0
  0
SCALE
  5
5D
102
{ACAD_REACTORS
330
47
102
}
330
47
100
AcDbScale
 70
     0
300
3/32" = 1'-0"
140
0.09375
141
12.0
290
     0
  0
SCALE
  5
5E
102
{ACAD_REACTORS
330
47
102
}
330
47
100
AcDbScale
 70
     0
300
1/8" = 1'-0"
140
0.125
141
12.0
290
     0
  0
SCALE
  5
5F
102
{ACAD_REACTORS
330
47
102
}
330
47
100
AcDbScale
 70
     0
300
3/16" = 1'-0"
140
0.1875
141
12.0
290
     0
  0
SCALE
  5
60
102
{ACAD_REACTORS
330
47
102
}
330
47
100
AcDbScale
 70
     0
300
1/4" = 1'-0"
140
0.25
141
12.0
290
     0
  0
SCALE
  5
61
102
{ACAD_REACTORS
330
47
102
}
330
47
100
AcDbScale
 70
     0
300
3/8" = 1'-0"
140
0.375
141
12.0
290
     0
  0
SCALE
  5
62
102
{ACAD_REACTORS
330
47
102
}
330
47
100
AcDbScale
 70
     0
300
1/2" = 1'-0"
140
0.5
141
12.0
290
     0
  0
SCALE
  5
63
102
{ACAD_REACTORS
330
47
102
}
330
47
100
AcDbScale
 70
     0
300
3/4" = 1'-0"
140
0.75
141
12.0
290
     0
  0
SCALE
  5
64
102
{ACAD_REACTORS
330
47
102
}
330
47
100
AcDbScale
 70
     0
300
1" = 1'-0"
140
1.0
141
12.0
290
     0
  0
SCALE
  5
65
102
{ACAD_REACTORS
330
47
102
}
330
47
100
AcDbScale
 70
     0
300
1-1/2" = 1'-0"
140
1.5
141
12.0
290
     0
  0
SCALE
  5
66
102
{ACAD_REACTORS
330
47
102
}
330
47
100
AcDbScale
 70
     0
300
3" = 1'-0"
140
3.0
141
12.0
290
     0
  0
SCALE
  5
67
102
{ACAD_REACTORS
330
47
102
}
330
47
100
AcDbScale
 70
     0
300
6" = 1'-0"
140
6.0
141
12.0
290
     0
  0
SCALE
  5
68
102
{ACAD_REACTORS
330
47
102
}
330
47
100
AcDbScale
 70
     0
300
1'-0" = 1'-0"
140
12.0
141
12.0
290
     0
  0
ENDSEC
  0
EOF
