  0
SECTION
  2
HEADER
  9
$ACADVER
  1
AC1015
  9
$ACADMAINTVER
 70
     6
  9
$DWGCODEPAGE
  3
ANSI_1252
  9
$INSBASE
 10
0.0
 20
0.0
 30
0.0
  9
$EXTMIN
 10
0.0
 20
0.0
 30
0.0
  9
$EXTMAX
 10
770.0
 20
548.0
 30
0.0
  9
$LIMMIN
 10
0.0
 20
0.0
  9
$LIMMAX
 10
770.0
 20
548.0
  9
$ORTHOMODE
 70
     0
  9
$REGENMODE
 70
     1
  9
$FILLMODE
 70
     1
  9
$QTEXTMODE
 70
     0
  9
$MIRRTEXT
 70
     1
  9
$LTSCALE
 40
1.0
  9
$ATTMODE
 70
     1
  9
$TEXTSIZE
 40
3.5
  9
$TRACEWID
 40
1.0
  9
$TEXTSTYLE
  7
Standard
  9
$CLAYER
  8
0
  9
$CELTYPE
  6
ByLayer
  9
$CECOLOR
 62
   256
  9
$CELTSCALE
 40
1.0
  9
$DISPSILH
 70
     0
  9
$DIMSCALE
 40
1.0
  9
$DIMASZ
 40
3.302
  9
$DIMEXO
 40
1.0
  9
$DIMDLI
 40
3.75
  9
$DIMRND
 40
0.0
  9
$DIMDLE
 40
0.0
  9
$DIMEXE
 40
1.0
  9
$DIMTP
 40
0.0
  9
$DIMTM
 40
0.0
  9
$DIMTXT
 40
2.8
  9
$DIMCEN
 40
2.5
  9
$DIMTSZ
 40
0.0
  9
$DIMTOL
 70
     0
  9
$DIMLIM
 70
     0
  9
$DIMTIH
 70
     1
  9
$DIMTOH
 70
     1
  9
$DIMSE1
 70
     0
  9
$DIMSE2
 70
     0
  9
$DIMTAD
 70
     1
  9
$DIMZIN
 70
     0
  9
$DIMBLK
  1

  9
$DIMASO
 70
     1
  9
$DIMSHO
 70
     1
  9
$DIMPOST
  1

  9
$DIMAPOST
  1

  9
$DIMALT
 70
     0
  9
$DIMALTD
 70
     3
  9
$DIMALTF
 40
0.0393700787
  9
$DIMLFAC
 40
1.0
  9
$DIMTOFL
 70
     1
  9
$DIMTVP
 40
0.0
  9
$DIMTIX
 70
     0
  9
$DIMSOXD
 70
     0
  9
$DIMSAH
 70
     0
  9
$DIMBLK1
  1

  9
$DIMBLK2
  1

  9
$DIMSTYLE
  2
ISO-25
  9
$DIMCLRD
 70
     0
  9
$DIMCLRE
 70
     0
  9
$DIMCLRT
 70
     0
  9
$DIMTFAC
 40
1.0
  9
$DIMGAP
 40
1.524
  9
$DIMJUST
 70
     0
  9
$DIMSD1
 70
     0
  9
$DIMSD2
 70
     0
  9
$DIMTOLJ
 70
     0
  9
$DIMTZIN
 70
     0
  9
$DIMALTZ
 70
     0
  9
$DIMALTTZ
 70
     0
  9
$DIMUPT
 70
     0
  9
$DIMDEC
 70
     2
  9
$DIMTDEC
 70
     2
  9
$DIMALTU
 70
     2
  9
$DIMALTTD
 70
     3
  9
$DIMTXSTY
  7
Standard
  9
$DIMAUNIT
 70
     0
  9
$DIMADEC
 70
     2
  9
$DIMALTRND
 40
0.0
  9
$DIMAZIN
 70
     0
  9
$DIMDSEP
 70
    44
  9
$DIMATFIT
 70
     3
  9
$DIMFRAC
 70
     0
  9
$DIMLDRBLK
  1

  9
$DIMLUNIT
 70
     2
  9
$DIMLWD
 70
    -2
  9
$DIMLWE
 70
    -2
  9
$DIMTMOVE
 70
     0
  9
$LUNITS
 70
     2
  9
$LUPREC
 70
     2
  9
$SKETCHINC
 40
1.0
  9
$FILLETRAD
 40
10.0
  9
$AUNITS
 70
     0
  9
$AUPREC
 70
     2
  9
$MENU
  1
.
  9
$ELEVATION
 40
0.0
  9
$PELEVATION
 40
0.0
  9
$THICKNESS
 40
0.0
  9
$LIMCHECK
 70
     0
  9
$CHAMFERA
 40
0.0
  9
$CHAMFERB
 40
0.0
  9
$CHAMFERC
 40
0.0
  9
$CHAMFERD
 40
0.0
  9
$SKPOLY
 70
     0
  9
$TDCREATE
 40
2459369.351560278
  9
$TDUCREATE
 40
2459369.226560278
  9
$TDUPDATE
 40
2459369.351560857
  9
$TDUUPDATE
 40
2459369.226560857
  9
$TDINDWG
 40
0.0000000116
  9
$TDUSRTIMER
 40
0.0000000116
  9
$USRTIMER
 70
     1
  9
$ANGBASE
 50
0.0
  9
$ANGDIR
 70
     0
  9
$PDMODE
 70
     0
  9
$PDSIZE
 40
-1.0
  9
$PLINEWID
 40
0.0
  9
$SPLFRAME
 70
     0
  9
$SPLINETYPE
 70
     6
  9
$SPLINESEGS
 70
     8
  9
$HANDSEED
  5
11C
  9
$SURFTAB1
 70
     6
  9
$SURFTAB2
 70
     6
  9
$SURFTYPE
 70
     6
  9
$SURFU
 70
     6
  9
$SURFV
 70
     6
  9
$UCSBASE
  2

  9
$UCSNAME
  2

  9
$UCSORG
 10
0.0
 20
0.0
 30
0.0
  9
$UCSXDIR
 10
1.0
 20
0.0
 30
0.0
  9
$UCSYDIR
 10
0.0
 20
1.0
 30
0.0
  9
$UCSORTHOREF
  2

  9
$UCSORTHOVIEW
 70
     0
  9
$UCSORGTOP
 10
0.0
 20
0.0
 30
0.0
  9
$UCSORGBOTTOM
 10
0.0
 20
0.0
 30
0.0
  9
$UCSORGLEFT
 10
0.0
 20
0.0
 30
0.0
  9
$UCSORGRIGHT
 10
0.0
 20
0.0
 30
0.0
  9
$UCSORGFRONT
 10
0.0
 20
0.0
 30
0.0
  9
$UCSORGBACK
 10
0.0
 20
0.0
 30
0.0
  9
$PUCSBASE
  2

  9
$PUCSNAME
  2

  9
$PUCSORG
 10
0.0
 20
0.0
 30
0.0
  9
$PUCSXDIR
 10
1.0
 20
0.0
 30
0.0
  9
$PUCSYDIR
 10
0.0
 20
1.0
 30
0.0
  9
$PUCSORTHOREF
  2

  9
$PUCSORTHOVIEW
 70
     0
  9
$PUCSORGTOP
 10
0.0
 20
0.0
 30
0.0
  9
$PUCSORGBOTTOM
 10
0.0
 20
0.0
 30
0.0
  9
$PUCSORGLEFT
 10
0.0
 20
0.0
 30
0.0
  9
$PUCSORGRIGHT
 10
0.0
 20
0.0
 30
0.0
  9
$PUCSORGFRONT
 10
0.0
 20
0.0
 30
0.0
  9
$PUCSORGBACK
 10
0.0
 20
0.0
 30
0.0
  9
$USERI1
 70
     0
  9
$USERI2
 70
     0
  9
$USERI3
 70
     0
  9
$USERI4
 70
     0
  9
$USERI5
 70
     0
  9
$USERR1
 40
0.0
  9
$USERR2
 40
0.0
  9
$USERR3
 40
0.0
  9
$USERR4
 40
0.0
  9
$USERR5
 40
0.0
  9
$WORLDVIEW
 70
     1
  9
$SHADEDGE
 70
     3
  9
$SHADEDIF
 70
    70
  9
$TILEMODE
 70
     1
  9
$MAXACTVP
 70
    64
  9
$PINSBASE
 10
0.0
 20
0.0
 30
0.0
  9
$PLIMCHECK
 70
     0
  9
$PEXTMIN
 10
1.0000000000E+20
 20
1.0000000000E+20
 30
1.0000000000E+20
  9
$PEXTMAX
 10
-1.0000000000E+20
 20
-1.0000000000E+20
 30
-1.0000000000E+20
  9
$PLIMMIN
 10
0.0
 20
0.0
  9
$PLIMMAX
 10
420.0
 20
297.0
  9
$UNITMODE
 70
     0
  9
$VISRETAIN
 70
     1
  9
$PLINEGEN
 70
     0
  9
$PSLTSCALE
 70
     1
  9
$TREEDEPTH
 70
  3020
  9
$CMLSTYLE
  2
Standard
  9
$CMLJUST
 70
     0
  9
$CMLSCALE
 40
20.0
  9
$PROXYGRAPHICS
 70
     1
  9
$MEASUREMENT
 70
     1
  9
$CELWEIGHT
370
    -1
  9
$ENDCAPS
280
     0
  9
$JOINSTYLE
280
     0
  9
$LWDISPLAY
290
     1
  9
$INSUNITS
 70
     4
  9
$HYPERLINKBASE
  1

  9
$STYLESHEET
  1

  9
$XEDIT
290
     1
  9
$CEPSNTYPE
380
     0
  9
$PSTYLEMODE
290
     1
  9
$FINGERPRINTGUID
  2
{F8A2CBB9-DB7B-4EB1-BD8C-9AB6FDA9C756}
  9
$VERSIONGUID
  2
{FAEB1C32-E019-11D5-929B-00C0DF256EC4}
  9
$EXTNAMES
290
     1
  9
$PSVPSCALE
 40
0.0
  9
$OLESTARTUP
290
     0
  0
ENDSEC
  0
SECTION
  2
CLASSES
  0
CLASS
  1
ACDBDICTIONARYWDFLT
  2
AcDbDictionaryWithDefault
  3
ObjectDBX Classes
 90
        0
280
     0
281
     0
  0
CLASS
  1
VISUALSTYLE
  2
AcDbVisualStyle
  3
ObjectDBX Classes
 90
     4095
280
     0
281
     0
  0
CLASS
  1
MATERIAL
  2
AcDbMaterial
  3
ObjectDBX Classes
 90
     1153
280
     0
281
     0
  0
CLASS
  1
SCALE
  2
AcDbScale
  3
ObjectDBX Classes
 90
     1153
280
     0
281
     0
  0
CLASS
  1
TABLESTYLE
  2
AcDbTableStyle
  3
ObjectDBX Classes
 90
     4095
280
     0
281
     0
  0
CLASS
  1
MLEADERSTYLE
  2
AcDbMLeaderStyle
  3
ACDB_MLEADERSTYLE_CLASS
 90
     4095
280
     0
281
     0
  0
CLASS
  1
SUN
  2
AcDbSun
  3
SCENEOE
 90
     1153
280
     0
281
     0
  0
CLASS
  1
ACDBPLACEHOLDER
  2
AcDbPlaceHolder
  3
ObjectDBX Classes
 90
        0
280
     0
281
     0
  0
CLASS
  1
LAYOUT
  2
AcDbLayout
  3
ObjectDBX Classes
 90
        0
280
     0
281
     0
  0
ENDSEC
  0
SECTION
  2
TABLES
  0
TABLE
  2
VPORT
  5
8
330
0
100
AcDbSymbolTable
 70
     1
  0
VPORT
  5
29
330
8
100
AcDbSymbolTableRecord
100
AcDbViewportTableRecord
  2
*Active
 70
     0
 10
0.0
 20
0.0
 11
1.0
 21
1.0
 12
385.0
 22
274.0
 13
0.0
 23
0.0
 14
10.0
 24
10.0
 15
10.0
 25
10.0
 16
0.0
 26
0.0
 36
1.0
 17
0.0
 27
0.0
 37
0.0
 40
548.0
 41
1.4051094891
 42
50.0
 43
0.0
 44
0.0
 50
0.0
 51
0.0
 71
     0
 72
  2000
 73
     1
 74
     3
 75
     0
 76
     0
 77
     0
 78
     0
281
     0
 65
     1
110
0.0
120
0.0
130
0.0
111
1.0
121
0.0
131
0.0
112
0.0
122
1.0
132
0.0
 79
     0
146
0.0
  0
ENDTAB
  0
TABLE
  2
LTYPE
  5
5
330
0
100
AcDbSymbolTable
 70
     6
  0
LTYPE
  5
14
330
5
100
AcDbSymbolTableRecord
100
AcDbLinetypeTableRecord
  2
ByBlock
 70
     0
  3

 72
    65
 73
     0
 40
0.0
  0
LTYPE
  5
15
330
5
100
AcDbSymbolTableRecord
100
AcDbLinetypeTableRecord
  2
ByLayer
 70
     0
  3

 72
    65
 73
     0
 40
0.0
  0
LTYPE
  5
16
330
5
100
AcDbSymbolTableRecord
100
AcDbLinetypeTableRecord
  2
Continuous
 70
     0
  3
Solid line
 72
    65
 73
     0
 40
0.0
  0
LTYPE
  5
6E
330
5
100
AcDbSymbolTableRecord
100
AcDbLinetypeTableRecord
  2
HIDDEN
 70
     0
  3
Hidden __ __ __ __ __ __ __ __ __ __ __ __ __ __
 72
    65
 73
     2
 40
1.905
 49
1.27
 74
     0
 49
-0.635
 74
     0
  0
LTYPE
  5
6F
330
5
100
AcDbSymbolTableRecord
100
AcDbLinetypeTableRecord
  2
PHANTOM
 70
     0
  3
Phantom ______  __  __  ______  __  __  ______
 72
    65
 73
     6
 40
12.7
 49
6.35
 74
     0
 49
-1.27
 74
     0
 49
1.27
 74
     0
 49
-1.27
 74
     0
 49
1.27
 74
     0
 49
-1.27
 74
     0
  0
LTYPE
  5
70
330
5
100
AcDbSymbolTableRecord
100
AcDbLinetypeTableRecord
  2
CENTER
 70
     0
  3
Center ____ _ ____ _ ____ _ ____ _ ____ _ ____
 72
    65
 73
     4
 40
10.16
 49
6.35
 74
     0
 49
-1.27
 74
     0
 49
1.27
 74
     0
 49
-1.27
 74
     0
  0
LTYPE
  5
71
330
5
100
AcDbSymbolTableRecord
100
AcDbLinetypeTableRecord
  2
CENTERX2
 70
     0
  3
Center (2x) ________  __  ________  __  _____
 72
    65
 73
     4
 40
20.32
 49
12.7
 74
     0
 49
-2.54
 74
     0
 49
2.54
 74
     0
 49
-2.54
 74
     0
  0
LTYPE
  5
72
330
5
100
AcDbSymbolTableRecord
100
AcDbLinetypeTableRecord
  2
DOT2
 70
     0
  3
Dot (.5x) ........................................
 72
    65
 73
     2
 40
0.635
 49
0.0
 74
     0
 49
-0.635
 74
     0
  0
ENDTAB
  0
TABLE
  2
LAYER
  5
2
330
0
100
AcDbSymbolTable
 70
     2
  0
LAYER
  5
10
330
2
100
AcDbSymbolTableRecord
100
AcDbLayerTableRecord
  2
0
 70
     0
 62
     7
  6
Continuous
370
    -3
390
F
  0
LAYER
  5
73
330
2
100
AcDbSymbolTableRecord
100
AcDbLayerTableRecord
  2
FORMAT
 70
     0
 62
     7
  6
Continuous
370
    -3
390
F
  0
ENDTAB
  0
TABLE
  2
STYLE
  5
3
330
0
100
AcDbSymbolTable
 70
     2
  0
STYLE
  5
11
330
3
100
AcDbSymbolTableRecord
100
AcDbTextStyleTableRecord
  2
Standard
 70
     0
 40
0.0
 41
1.0
 50
0.0
 71
     0
 42
3.5
  3
txt
  4

  0
STYLE
  5
74
330
3
100
AcDbSymbolTableRecord
100
AcDbTextStyleTableRecord
  2
SLDTEXTSTYLE0
 70
     0
 40
0.0
 41
0.605
 50
0.0
 71
     0
 42
3.5
  3
TXT
  4

  0
ENDTAB
  0
TABLE
  2
VIEW
  5
6
330
0
100
AcDbSymbolTable
 70
     0
  0
ENDTAB
  0
TABLE
  2
UCS
  5
7
330
0
100
AcDbSymbolTable
 70
     0
  0
ENDTAB
  0
TABLE
  2
APPID
  5
9
330
0
100
AcDbSymbolTable
 70
     1
  0
APPID
  5
12
330
9
100
AcDbSymbolTableRecord
100
AcDbRegAppTableRecord
  2
ACAD
 70
     0
  0
ENDTAB
  0
TABLE
  2
DIMSTYLE
  5
A
330
0
100
AcDbSymbolTable
 70
     1
100
AcDbDimStyleTable
  0
DIMSTYLE
105
27
330
A
100
AcDbSymbolTableRecord
100
AcDbDimStyleTableRecord
  2
ISO-25
 70
     0
 41
2.5
 42
0.625
 43
3.75
 44
1.25
 73
     0
 74
     0
 77
     1
 78
     8
140
2.5
141
2.5
143
0.0393700787
147
0.625
171
     3
172
     1
178
     0
271
     2
272
     2
274
     3
278
    44
283
     0
284
     8
340
11
  0
ENDTAB
  0
TABLE
  2
BLOCK_RECORD
  5
1
330
0
100
AcDbSymbolTable
 70
     1
  0
BLOCK_RECORD
  5
1F
330
1
100
AcDbSymbolTableRecord
100
AcDbBlockTableRecord
  2
*Model_Space
340
22
  0
BLOCK_RECORD
  5
1B
330
1
100
AcDbSymbolTableRecord
100
AcDbBlockTableRecord
  2
*Paper_Space
340
1E
  0
BLOCK_RECORD
  5
23
330
1
100
AcDbSymbolTableRecord
100
AcDbBlockTableRecord
  2
*Paper_Space0
340
26
  0
ENDTAB
  0
ENDSEC
  0
SECTION
  2
BLOCKS
  0
BLOCK
  5
20
330
1F
100
AcDbEntity
  8
0
100
AcDbBlockBegin
  2
*Model_Space
 70
     0
 10
0.0
 20
0.0
 30
0.0
  3
*Model_Space
  1

  0
ENDBLK
  5
21
330
1F
100
AcDbEntity
  8
0
100
AcDbBlockEnd
  0
BLOCK
  5
1C
330
1B
100
AcDbEntity
 67
     1
  8
0
100
AcDbBlockBegin
  2
*Paper_Space
 70
     0
 10
0.0
 20
0.0
 30
0.0
  3
*Paper_Space
  1

  0
ENDBLK
  5
1D
330
1B
100
AcDbEntity
 67
     1
  8
0
100
AcDbBlockEnd
  0
BLOCK
  5
24
330
23
100
AcDbEntity
  8
0
100
AcDbBlockBegin
  2
*Paper_Space0
 70
     0
 10
0.0
 20
0.0
 30
0.0
  3
*Paper_Space0
  1

  0
ENDBLK
  5
25
330
23
100
AcDbEntity
  8
0
100
AcDbBlockEnd
  0
ENDSEC
  0
SECTION
  2
ENTITIES
  0
MTEXT
  5
75
330
1F
100
AcDbEntity
  8
0
  6
Continuous
 62
     7
370
     0
100
AcDbMText
 10
7.2782978723
 20
22.1884790273
 30
0.0
 40
10.0
 41
0.0
 71
     1
 72
     1
  1
1:1
  7
SLDTEXTSTYLE0
 73
     1
 44
1.0
  0
ARC
  5
76
330
1F
100
AcDbEntity
  8
0
  6
Continuous
 62
     7
370
    30
100
AcDbCircle
 10
385.0
 20
435.9738997765
 30
0.0
 40
85.00017133749999
100
AcDbArc
 50
274.030090101
 51
265.9699129617
  0
LINE
  5
77
330
1F
100
AcDbEntity
  8
0
  6
Continuous
 62
     7
370
    30
100
AcDbLine
 10
399.4092962577
 20
381.8877026967
 30
0.0
 11
399.4794966234
 21
381.9198646396
 31
0.0
  0
LINE
  5
78
330
1F
100
AcDbEntity
  8
0
  6
Continuous
 62
     7
370
    30
100
AcDbLine
 10
370.5582405997
 20
381.9198646396
 30
0.0
 11
370.6284409653
 21
381.8877026967
 31
0.0
  0
ARC
  5
79
330
1F
100
AcDbEntity
  8
0
  6
Continuous
 62
     7
370
    30
100
AcDbCircle
 10
398.55
 20
378.6738997765
 30
0.0
 40
0.1999999999999886
100
AcDbArc
 50
270.0
 51
0.0
  0
ARC
  5
7A
330
1F
100
AcDbEntity
  8
0
  6
Continuous
 62
     7
370
    30
100
AcDbCircle
 10
371.45
 20
378.6738997765
 30
0.0
 40
0.2000000000000455
100
AcDbArc
 50
180.0
 51
270.0
  0
ARC
  5
7B
330
1F
100
AcDbEntity
  8
0
  6
Continuous
 62
     7
370
    30
100
AcDbCircle
 10
371.45
 20
385.7738997765
 30
0.0
 40
0.1999999999999886
100
AcDbArc
 50
90.0
 51
180.0
  0
ARC
  5
7C
330
1F
100
AcDbEntity
  8
0
  6
Continuous
 62
     7
370
    30
100
AcDbCircle
 10
398.55
 20
385.7738997765
 30
0.0
 40
0.2000000000000455
100
AcDbArc
 50
0.0
 51
90.0
  0
LINE
  5
7D
330
1F
100
AcDbEntity
  8
0
  6
Continuous
 62
     7
370
    30
100
AcDbLine
 10
371.25
 20
385.7738997765
 30
0.0
 11
371.25
 21
378.6738997765
 31
0.0
  0
LINE
  5
7E
330
1F
100
AcDbEntity
  8
0
  6
Continuous
 62
     7
370
    30
100
AcDbLine
 10
398.75
 20
378.6738997765
 30
0.0
 11
398.75
 21
385.7738997765
 31
0.0
  0
ARC
  5
7F
330
1F
100
AcDbEntity
  8
0
  6
Continuous
 62
     7
370
    30
100
AcDbCircle
 10
371.4
 20
386.3738997765
 30
0.0
 40
0.4000000000000341
100
AcDbArc
 50
180.0
 51
270.0
  0
ARC
  5
80
330
1F
100
AcDbEntity
  8
0
  6
Continuous
 62
     7
370
    30
100
AcDbCircle
 10
398.6
 20
386.3738997765
 30
0.0
 40
0.3999999999999773
100
AcDbArc
 50
270.0
 51
0.0
  0
LINE
  5
81
330
1F
100
AcDbEntity
  8
0
  6
Continuous
 62
     7
370
    30
100
AcDbLine
 10
399.0
 20
386.3738997765
 30
0.0
 11
399.0
 21
394.9738997765
 31
0.0
  0
LINE
  5
82
330
1F
100
AcDbEntity
  8
0
  6
Continuous
 62
     7
370
    30
100
AcDbLine
 10
371.0
 20
394.9738997765
 30
0.0
 11
371.0
 21
386.3738997765
 31
0.0
  0
LINE
  5
83
330
1F
100
AcDbEntity
  8
0
  6
Continuous
 62
     7
370
    30
100
AcDbLine
 10
371.0
 20
435.9738997765
 30
0.0
 11
371.0
 21
394.9738997765
 31
0.0
  0
LINE
  5
84
330
1F
100
AcDbEntity
  8
0
  6
Continuous
 62
     7
370
    30
100
AcDbLine
 10
399.0
 20
394.9738997765
 30
0.0
 11
399.0
 21
435.9738997765
 31
0.0
  0
SPLINE
  5
85
330
1F
100
AcDbEntity
  8
0
  6
Continuous
 62
     7
370
    30
100
AcDbSpline
210
0.0
220
0.0
230
1.0
 70
     8
 71
     3
 72
    19
 73
    15
 74
     0
 42
0.000000001
 43
0.00000001
 40
0.0
 40
0.0
 40
0.0
 40
0.0
 40
0.0896179738534215
 40
0.1793548990114824
 40
0.2691317344046269
 40
0.3588686232520821
 40
0.448486566611037
 40
0.5370336815633489
 40
0.6256573186736646
 40
0.7142809429871014
 40
0.8028280404740454
 40
0.8939447137611558
 40
0.9851448069912581
 40
1.0
 40
1.0
 40
1.0
 40
1.0
 10
400.8753652079789
 20
389.4159664594205
 30
0.0
 10
400.8279635416441
 20
389.4626804227161
 30
0.0
 10
400.7330972920193
 20
389.5561703534638
 30
0.0
 10
400.5834086982191
 20
389.6886962929495
 30
0.0
 10
400.428652083085
 20
389.8153405126392
 30
0.0
 10
400.2686860427425
 20
389.9352261627751
 30
0.0
 10
400.1045980266358
 20
390.0477943618882
 30
0.0
 10
399.9366044063917
 20
390.1529000124135
 30
0.0
 10
399.7650439808147
 20
390.2506024301765
 30
0.0
 10
399.5895656667746
 20
390.3410660849211
 30
0.0
 10
399.4088659109648
 20
390.4251537408015
 30
0.0
 10
399.222749054512
 20
390.5014760049973
 30
0.0
 10
399.0856690268517
 20
390.5532769836632
 30
0.0
 10
399.0105253898332
 20
390.5768775253142
 30
0.0
 10
399.0000000000023
 20
390.5801832596512
 30
0.0
  0
SPLINE
  5
86
330
1F
100
AcDbEntity
  8
0
  6
Continuous
 62
     7
370
    30
100
AcDbSpline
210
0.0
220
0.0
230
1.0
 70
     8
 71
     3
 72
    57
 73
    53
 74
     0
 42
0.000000001
 43
0.00000001
 40
0.0
 40
0.0
 40
0.0
 40
0.0
 40
0.0083400339010366
 40
0.0288369618407069
 40
0.0487607562320913
 40
0.068701793771399
 40
0.0886428322449466
 40
0.1085666279113957
 40
0.1290693361729232
 40
0.1495908340068011
 40
0.1701123338461058
 40
0.1906150448448133
 40
0.2105460021878773
 40
0.2304942137760006
 40
0.2504424278085487
 40
0.2703733884878055
 40
0.290883593380639
 40
0.3114125970897671
 40
0.3319416039618021
 40
0.3524518131716458
 40
0.3723886073032983
 40
0.3923426586271423
 40
0.4122967128335823
 40
0.4322335108994512
 40
0.4527496402676258
 40
0.4732845710270054
 40
0.4938195047188842
 40
0.5143356380895857
 40
0.5342743817848408
 40
0.554230376175578
 40
0.5741863726213192
 40
0.5941251191212755
 40
0.6146430012899005
 40
0.6351796796276259
 40
0.6557163593804316
 40
0.6762342434804807
 40
0.6961711158455441
 40
0.7161252282189837
 40
0.7360793409201065
 40
0.7560162137323977
 40
0.7765319129718072
 40
0.7970664004208732
 40
0.8176008871490194
 40
0.8381165854044553
 40
0.8580535133156497
 40
0.8780076838408866
 40
0.8979618528244788
 40
0.9178987786316127
 40
0.9384146875862679
 40
0.9589493923208592
 40
0.9794840945140568
 40
1.0
 40
1.0
 40
1.0
 40
1.0
 10
398.7500000000018
 20
381.4924355226674
 30
0.0
 10
398.7766335385437
 20
381.4994323820658
 30
0.0
 10
398.8687231323905
 20
381.5236251095617
 30
0.0
 10
399.022000943284
 20
381.5731878496808
 30
0.0
 10
399.2095430668115
 20
381.6406618597231
 30
0.0
 10
399.3922728162754
 20
381.7156573271262
 30
0.0
 10
399.5717794275673
 20
381.798023807804
 30
0.0
 10
399.7493541730928
 20
381.8886463427971
 30
0.0
 10
399.9245990613208
 20
381.9876545765982
 30
0.0
 10
400.0971281530473
 20
382.0951007673423
 30
0.0
 10
400.2649216878885
 20
382.2097978045157
 30
0.0
 10
400.4261018030292
 20
382.3303869830781
 30
0.0
 10
400.5805494930045
 20
382.4565042053853
 30
0.0
 10
400.7282578037275
 20
382.587705898529
 30
0.0
 10
400.8704027145184
 20
382.7249117575928
 30
0.0
 10
401.008008908947
 20
382.8692411396195
 30
0.0
 10
401.1406312482152
 20
383.0207231206492
 30
0.0
 10
401.2678953242882
 20
383.1792686620695
 30
0.0
 10
401.3882856959233
 20
383.3430909066363
 30
0.0
 10
401.5004778369717
 20
383.5102807042417
 30
0.0
 10
401.6044806134836
 20
383.6804546876619
 30
0.0
 10
401.7004351524972
 20
383.8531914808552
 30
0.0
 10
401.7891493936175
 20
384.0297527190461
 30
0.0
 10
401.8712196618454
 20
384.2115339059746
 30
0.0
 10
401.9462162841878
 20
384.3984150804659
 30
0.0
 10
402.0138153890133
 20
384.5901882801309
 30
0.0
 10
402.0731786219501
 20
384.784665612789
 30
0.0
 10
402.1236850869166
 20
384.9795945624431
 30
0.0
 10
402.1654719563775
 20
385.1746158212494
 30
0.0
 10
402.1988137017275
 20
385.3693782695815
 30
0.0
 10
402.2240575297911
 20
385.5653527233783
 30
0.0
 10
402.241303881104
 20
385.7640527774792
 30
0.0
 10
402.2501871006242
 20
385.9652231331767
 30
0.0
 10
402.2504703681997
 20
386.1685604802727
 30
0.0
 10
402.24208694788
 20
386.3717237372097
 30
0.0
 10
402.2251976515054
 20
386.5723702330765
 30
0.0
 10
402.2000524678951
 20
386.7702065366148
 30
0.0
 10
402.1670280601227
 20
386.9649925434862
 30
0.0
 10
402.1259632460442
 20
387.1582430181728
 30
0.0
 10
402.0764516490852
 20
387.3514185748205
 30
0.0
 10
402.0182327157279
 20
387.5441574907841
 30
0.0
 10
401.9511832397289
 20
387.7360953114347
 30
0.0
 10
401.8760147742349
 20
387.9250020402955
 30
0.0
 10
401.7936513214145
 20
388.1087271379421
 30
0.0
 10
401.7044248400623
 20
388.2870761815858
 30
0.0
 10
401.6087683401205
 20
388.4599458523501
 30
0.0
 10
401.5060341346427
 20
388.6287081143264
 30
0.0
 10
401.3953441735058
 20
388.7945965567803
 30
0.0
 10
401.2766120322622
 20
388.9572229662116
 30
0.0
 10
401.1496905979768
 20
389.1160526151935
 30
0.0
 10
401.0165565287397
 20
389.2697768895121
 30
0.0
 10
400.9224146126511
 20
389.3672514803663
 30
0.0
 10
400.8753652079789
 20
389.4159664594205
 30
0.0
  0
SPLINE
  5
87
330
1F
100
AcDbEntity
  8
0
  6
Continuous
 62
     7
370
    30
100
AcDbSpline
210
0.0
220
0.0
230
1.0
 70
     8
 71
     3
 72
    69
 73
    65
 74
     0
 42
0.000000001
 43
0.00000001
 40
0.0
 40
0.0
 40
0.0
 40
0.0
 40
0.006681549772755
 40
0.0234250669309927
 40
0.0401839305121233
 40
0.056942796673632
 40
0.0736863173537921
 40
0.0899617363214675
 40
0.1062512432239818
 40
0.1225407524797502
 40
0.1388161746591852
 40
0.1555645348187684
 40
0.172328243521714
 40
0.189091954620419
 40
0.2058403180499403
 40
0.2221173393359736
 40
0.2384084432747963
 40
0.2546995488942406
 40
0.2709765724740129
 40
0.2877263749703523
 40
0.3044915217646675
 40
0.3212566697187154
 40
0.3380064737979578
 40
0.3542812270638365
 40
0.3705700523174689
 40
0.3868588778431121
 40
0.4031336314802362
 40
0.4198808442071055
 40
0.4366433924903014
 40
0.4534059401901238
 40
0.4701531521207533
 40
0.4864227634989135
 40
0.5027064354989393
 40
0.5189901062462102
 40
0.5352597159145911
 40
0.5520014444538033
 40
0.5687584991469197
 40
0.5855155517718281
 40
0.6022572774881766
 40
0.6185211271676972
 40
0.6347990303746676
 40
0.6510769313548596
 40
0.6673407779952414
 40
0.684076531731496
 40
0.700827605671973
 40
0.7175786769664111
 40
0.7343144270911279
 40
0.7505744181499324
 40
0.7668484630108733
 40
0.7831225056455947
 40
0.7993824936660201
 40
0.8161143979553427
 40
0.8328616225523037
 40
0.8496088450834068
 40
0.8663407465530722
 40
0.8826004717917395
 40
0.8988742583603865
 40
0.9151480436778012
 40
0.9314077672087674
 40
0.9481396332605398
 40
0.9648868257356752
 40
0.9816340176300165
 40
0.9983658828890717
 40
1.0
 40
1.0
 40
1.0
 40
1.0
 10
371.0000000000023
 20
390.5797857335114
 30
0.0
 10
370.9742858168738
 20
390.5714831155352
 30
0.0
 10
370.8841336094744
 20
390.5423746918296
 30
0.0
 10
370.7323919979784
 20
390.4839512955776
 30
0.0
 10
370.5452191191241
 20
390.4046712903301
 30
0.0
 10
370.3617787588684
 20
390.3169968291196
 30
0.0
 10
370.1839311775313
 20
390.2226161521231
 30
0.0
 10
370.0119053155342
 20
390.1217029394076
 30
0.0
 10
369.8457609896564
 20
390.0147397913064
 30
0.0
 10
369.68419419383
 20
389.900984349139
 30
0.0
 10
369.5260193343936
 20
389.7794911255987
 30
0.0
 10
369.3716720926001
 20
389.6501621597369
 30
0.0
 10
369.2215360815635
 20
389.5130280844901
 30
0.0
 10
369.0773833659724
 20
389.3696216702683
 30
0.0
 10
368.9408247739606
 20
389.2216353749145
 30
0.0
 10
368.811909040109
 20
389.0694506920649
 30
0.0
 10
368.6905599998305
 20
388.9135067299383
 30
0.0
 10
368.5757771619714
 20
388.7526709080038
 30
0.0
 10
368.4667573362411
 20
388.5856563887978
 30
0.0
 10
368.3639433942565
 20
388.4125155777211
 30
0.0
 10
368.2676873059127
 20
388.2334040329892
 30
0.0
 10
368.1791532501961
 20
388.0503539512633
 30
0.0
 10
368.0993067568266
 20
387.8655091149202
 30
0.0
 10
368.0280655896479
 20
387.6792464004307
 30
0.0
 10
367.9652106666661
 20
387.4919554206822
 30
0.0
 10
367.9101677866081
 20
387.3022219329379
 30
0.0
 10
367.8626055787356
 20
387.1085667229174
 30
0.0
 10
367.8229244441404
 20
386.9111856097127
 30
0.0
 10
367.7914050156274
 20
386.7103416532968
 30
0.0
 10
367.7684729263434
 20
386.5083362721646
 30
0.0
 10
367.7543304443815
 20
386.3075220372554
 30
0.0
 10
367.7487739321813
 20
386.1082273340116
 30
0.0
 10
367.7514665324273
 20
385.9107471478702
 30
0.0
 10
367.7623346155822
 20
385.7135462592963
 30
0.0
 10
367.7815552752626
 20
385.5151201683441
 30
0.0
 10
367.8094414711824
 20
385.3157859146119
 30
0.0
 10
367.8461709888729
 20
385.1158843957233
 30
0.0
 10
367.8913841024187
 20
384.9177267250744
 30
0.0
 10
367.9444929167764
 20
384.7236008663763
 30
0.0
 10
368.0051966764966
 20
384.5337492104771
 30
0.0
 10
368.0730799838011
 20
384.3483385922383
 30
0.0
 10
368.1485820899078
 20
384.1658946398055
 30
0.0
 10
368.2323679357403
 20
383.9850567536672
 30
0.0
 10
368.3246279448798
 20
383.8062275335704
 30
0.0
 10
368.4254170852297
 20
383.6297873871783
 30
0.0
 10
368.5336315012681
 20
383.4577975245627
 30
0.0
 10
368.6479641592614
 20
383.292215558135
 30
0.0
 10
368.7680522024534
 20
383.1331714233634
 30
0.0
 10
368.8934494162262
 20
382.9806859182278
 30
0.0
 10
369.0250531293743
 20
382.8335197679592
 30
0.0
 10
369.1639411861916
 20
382.6906088885308
 30
0.0
 10
369.3101600355076
 20
382.5523962562626
 30
0.0
 10
369.4636355776867
 20
382.4192590117145
 30
0.0
 10
369.6226438284044
 20
382.2927771849635
 30
0.0
 10
369.7853150729522
 20
382.1743571088791
 30
0.0
 10
369.9512652180449
 20
382.0640034052773
 30
0.0
 10
370.1200668536984
 20
381.9615882977374
 30
0.0
 10
370.2929660092205
 20
381.8662524631174
 30
0.0
 10
370.4713273420465
 20
381.7773278222477
 30
0.0
 10
370.6550679180895
 20
381.695324414425
 30
0.0
 10
370.843917167055
 20
381.6202841501955
 30
0.0
 10
371.0360073563012
 20
381.5542117408538
 30
0.0
 10
371.1715859978618
 20
381.5115609648927
 30
0.0
 10
371.2435931487381
 20
381.4933316721298
 30
0.0
 10
371.2500000000019
 20
381.4917097170052
 30
0.0
  0
ARC
  5
88
330
1F
100
AcDbEntity
  8
0
  6
Continuous
 62
     7
370
    30
100
AcDbCircle
 10
385.0
 20
435.9738997765
 30
0.0
 40
14.10000000000002
100
AcDbArc
 50
90.0
 51
186.8278674815
  0
ARC
  5
89
330
1F
100
AcDbEntity
  8
0
  6
Continuous
 62
     7
370
    30
100
AcDbCircle
 10
385.0
 20
435.9738997765
 30
0.0
 40
14.10000000000002
100
AcDbArc
 50
353.1721325185
 51
90.0
  0
SPLINE
  5
8A
330
1F
100
AcDbEntity
  8
0
  6
Continuous
 62
     7
370
    30
100
AcDbSpline
210
0.0
220
0.0
230
1.0
 70
     8
 71
     3
 72
    25
 73
    21
 74
     0
 42
0.000000001
 43
0.00000001
 40
0.0
 40
0.0
 40
0.0
 40
0.0
 40
0.0552765880480468
 40
0.1107507068123926
 40
0.1662247223560867
 40
0.221501169145661
 40
0.2767772845462462
 40
0.3322508343018539
 40
0.3877246125796062
 40
0.4430010407141003
 40
0.4982937397471682
 40
0.55378336035814
 40
0.6092733668651847
 40
0.664566593993593
 40
0.7199588434567105
 40
0.7755482436755735
 40
0.8311379746791744
 40
0.8865306768173261
 40
0.9432653183310096
 40
1.0
 40
1.0
 40
1.0
 40
1.0
 10
390.9186455200095
 20
351.2074910125746
 30
0.0
 10
390.9164846241918
 20
351.2080726618326
 30
0.0
 10
390.9121551106018
 20
351.2092380388705
 30
0.0
 10
390.8967322497282
 20
351.210338110774
 30
0.0
 10
390.8750137624271
 20
351.2109662800302
 30
0.0
 10
390.8464607819755
 20
351.2110703211254
 30
0.0
 10
390.8112329576252
 20
351.2106526096813
 30
0.0
 10
390.7696851505099
 20
351.2097370252926
 30
0.0
 10
390.7222148814051
 20
351.208344855592
 30
0.0
 10
390.6691531895025
 20
351.206492301235
 30
0.0
 10
390.6106681299938
 20
351.204188190486
 30
0.0
 10
390.547263273227
 20
351.2014701332783
 30
0.0
 10
390.4794932795282
 20
351.1983732926194
 30
0.0
 10
390.4078308721996
 20
351.1949277191969
 30
0.0
 10
390.332600764075
 20
351.1911554025418
 30
0.0
 10
390.2543477014237
 20
351.1870948172781
 30
0.0
 10
390.1737690989814
 20
351.1827900631411
 30
0.0
 10
390.0908314014957
 20
351.1782414181305
 30
0.0
 10
390.0060704633663
 20
351.1734889786926
 30
0.0
 10
389.9487008179315
 20
351.170181192507
 30
0.0
 10
389.9200159850629
 20
351.1685272988288
 30
0.0
  0
ARC
  5
8B
330
1F
100
AcDbEntity
  8
0
  6
Continuous
 62
     7
370
    30
100
AcDbCircle
 10
385.0
 20
435.9738997766
 30
0.0
 40
84.94797089044822
100
AcDbArc
 50
266.6796853455
 51
273.3203146545
  0
SPLINE
  5
8C
330
1F
100
AcDbEntity
  8
0
  6
Continuous
 62
     7
370
    30
100
AcDbSpline
210
0.0
220
0.0
230
1.0
 70
     8
 71
     3
 72
    25
 73
    21
 74
     0
 42
0.000000001
 43
0.00000001
 40
0.0
 40
0.0
 40
0.0
 40
0.0
 40
0.0552765880461934
 40
0.1107507068081181
 40
0.1662247223463691
 40
0.2215011691299545
 40
0.2767772845310933
 40
0.3322508342872532
 40
0.3877246125655578
 40
0.4430010407006056
 40
0.4982937397347071
 40
0.5537833603467148
 40
0.6092733668547962
 40
0.6645665939842367
 40
0.7199588434483897
 40
0.7755482436682897
 40
0.8311379746729289
 40
0.8865306768121157
 40
0.9432653183284041
 40
1.0
 40
1.0
 40
1.0
 40
1.0
 10
379.0813544801649
 20
351.2074910127374
 30
0.0
 10
379.0835153759763
 20
351.2080726619894
 30
0.0
 10
379.0878448895535
 20
351.2092380390154
 30
0.0
 10
379.103267750359
 20
351.210338110855
 30
0.0
 10
379.1249862375947
 20
351.2109662800494
 30
0.0
 10
379.1535392180202
 20
351.2110703211203
 30
0.0
 10
379.1887670423751
 20
351.2106526096827
 30
0.0
 10
379.230314849488
 20
351.2097370252922
 30
0.0
 10
379.2777851185925
 20
351.2083448555921
 30
0.0
 10
379.3308468104946
 20
351.2064923012351
 30
0.0
 10
379.3893318700027
 20
351.2041881904861
 30
0.0
 10
379.4527367267693
 20
351.2014701332785
 30
0.0
 10
379.5205067204679
 20
351.1983732926195
 30
0.0
 10
379.5921691277962
 20
351.1949277191972
 30
0.0
 10
379.6673992359206
 20
351.1911554025419
 30
0.0
 10
379.7456522985718
 20
351.1870948172783
 30
0.0
 10
379.8262309010139
 20
351.1827900631414
 30
0.0
 10
379.9091685985003
 20
351.1782414181306
 30
0.0
 10
379.9939295366312
 20
351.1734889786928
 30
0.0
 10
380.0512991820676
 20
351.170181192507
 30
0.0
 10
380.079984014937
 20
351.1685272988288
 30
0.0
  0
LINE
  5
8D
330
1F
100
AcDbEntity
  8
0
  6
Continuous
 62
     7
370
    30
100
AcDbLine
 10
379.0268977614
 20
351.1840298059
 30
0.0
 11
379.0813543009
 21
351.2074909268
 31
0.0
  0
LWPOLYLINE
  5
8E
330
1F
100
AcDbEntity
  8
0
  6
Continuous
 62
     7
370
    30
100
AcDbPolyline
 90
        9
 70
   128
 43
0.0
 10
390.9731101725
 20
351.1840303648
 10
390.9663020894
 20
351.1869616939
 10
390.9594940068
 20
351.1898933807
 10
390.9526859246
 20
351.1928254252
 10
390.9458778428
 20
351.1957578275
 10
390.9390697614
 20
351.1986905874
 10
390.9322616805
 20
351.2016237051
 10
390.9254535999
 20
351.2045571805
 10
390.9186455198
 20
351.2074910126
  0
LINE
  5
8F
330
1F
100
AcDbEntity
  8
0
  6
Continuous
 62
     7
370
    30
100
AcDbLine
 10
390.9737954742
 20
351.1845352253
 30
0.0
 11
390.9731101725
 21
351.1840303648
 31
0.0
  0
LINE
  5
90
330
1F
100
AcDbEntity
  8
0
  6
Continuous
 62
     7
370
    30
100
AcDbLine
 10
379.0268898486
 20
351.1840303738
 30
0.0
 11
379.0262025462
 21
351.1844835129
 31
0.0
  0
ARC
  5
91
330
1F
100
AcDbEntity
  8
0
  6
Continuous
 62
     7
370
    30
100
AcDbCircle
 10
397.5227439604
 20
386.0078332623
 30
0.0
 40
4.531733266005391
100
AcDbArc
 50
285.7127001716
 51
70.9750196473
  0
ARC
  5
92
330
1F
100
AcDbEntity
  8
0
  6
Continuous
 62
     7
370
    30
100
AcDbCircle
 10
397.5231002137
 20
386.1933466445
 30
0.0
 40
4.700014399776753
100
AcDbArc
 50
294.5982663143
 51
12.6145648667
  0
ARC
  5
93
330
1F
100
AcDbEntity
  8
0
  6
Continuous
 62
     7
370
    30
100
AcDbCircle
 10
372.5149493472
 20
386.0078334502
 30
0.0
 40
4.531704385560256
100
AcDbArc
 50
109.5299845969
 51
253.7915191619
  0
ARC
  5
94
330
1F
100
AcDbEntity
  8
0
  6
Continuous
 62
     7
370
    30
100
AcDbCircle
 10
372.5141038737
 20
386.1929420221
 30
0.0
 40
4.699424588568458
100
AcDbArc
 50
148.8184604528
 51
245.405590376
  0
SPLINE
  5
95
330
1F
100
AcDbEntity
  8
0
  6
Continuous
 62
     7
370
    30
100
AcDbSpline
210
0.0
220
0.0
230
1.0
 70
    24
 71
     3
 72
    61
 73
    57
 74
     0
 42
0.000000001
 43
0.00000001
 40
0.0
 40
0.0
 40
0.0
 40
0.0
 40
0.0244059352691422
 40
0.0487662350162307
 40
0.0731009658405491
 40
0.097430257608572
 40
0.1127295247493861
 40
0.1280395987398455
 40
0.1433654657958649
 40
0.1589148124627802
 40
0.1751852247370177
 40
0.1993537023168163
 40
0.2234881392041837
 40
0.2476081406417015
 40
0.2717333470646962
 40
0.2958833862093598
 40
0.3200778253753342
 40
0.3338452757951978
 40
0.3475930296769555
 40
0.3613246572762196
 40
0.375043741438726
 40
0.3887538748440765
 40
0.4024586572111414
 40
0.4161616924758638
 40
0.4350069518649963
 40
0.4538650908466859
 40
0.4727454567658963
 40
0.4916573640101555
 40
0.5080611073418134
 40
0.5244372024645646
 40
0.5407916935971561
 40
0.5571306489340472
 40
0.5734601539894318
 40
0.5897863048451952
 40
0.609031714172991
 40
0.6282909166925494
 40
0.6475738704732753
 40
0.6668904968519943
 40
0.6888529450443861
 40
0.7107694758557475
 40
0.7326546391861055
 40
0.7545230475455836
 40
0.7763893470346744
 40
0.7982681879890219
 40
0.8201741955817788
 40
0.8421219406776068
 40
0.8581818909227479
 40
0.874215841466038
 40
0.8902294668795677
 40
0.906228463362382
 40
0.922218542747465
 40
0.9382054264255738
 40
0.9570506856915145
 40
0.9759088242008256
 40
0.9947891890732515
 40
1.0
 40
1.0
 40
1.0
 40
1.0
 10
390.1903140592589
 20
378.4738997765484
 30
0.0
 10
390.3098275552085
 20
378.4738997765484
 30
0.0
 10
390.5486310743861
 20
378.4738997765484
 30
0.0
 10
390.9009002090692
 20
378.4738997765484
 30
0.0
 10
391.2482418618879
 20
378.4738997765484
 30
0.0
 10
391.5478996576694
 20
378.4738997765484
 30
0.0
 10
391.8019555442186
 20
378.4738997765484
 30
0.0
 10
392.0121590188034
 20
378.4738997765484
 30
0.0
 10
392.2212140382136
 20
378.4738997765484
 30
0.0
 10
392.4321954805304
 20
378.4738997765484
 30
0.0
 10
392.6797171678635
 20
378.4738997765484
 30
0.0
 10
392.9606078090137
 20
378.4738997765484
 30
0.0
 10
393.2691969937553
 20
378.4738997765484
 30
0.0
 10
393.5708989186608
 20
378.4738997765484
 30
0.0
 10
393.8657119954385
 20
378.4738997765484
 30
0.0
 10
394.1536355667325
 20
378.4738997765484
 30
0.0
 10
394.3940619723303
 20
378.4738997765484
 30
0.0
 10
394.5899730726009
 20
378.4738997765484
 30
0.0
 10
394.7437476605989
 20
378.4738997765484
 30
0.0
 10
394.8947987352179
 20
378.4738997765484
 30
0.0
 10
395.0431271681886
 20
378.4738997765484
 30
0.0
 10
395.1887326398097
 20
378.4738997765484
 30
0.0
 10
395.3316153479973
 20
378.4738997765484
 30
0.0
 10
395.4892988839159
 20
378.4738997765484
 30
0.0
 10
395.6604827327429
 20
378.4738997765484
 30
0.0
 10
395.8436278900946
 20
378.4738997765484
 30
0.0
 10
396.0216241493144
 20
378.4738997765484
 30
0.0
 10
396.1867049818206
 20
378.4738997765484
 30
0.0
 10
396.3394806767122
 20
378.4738997765484
 30
0.0
 10
396.4805043180913
 20
378.4738997765484
 30
0.0
 10
396.6170867178475
 20
378.4738997765484
 30
0.0
 10
396.7492284581494
 20
378.4738997765484
 30
0.0
 10
396.8769293871276
 20
378.4738997765484
 30
0.0
 10
397.0075279534267
 20
378.4738997765484
 30
0.0
 10
397.1400604923078
 20
378.4738997765484
 30
0.0
 10
397.273469723502
 20
378.4738997765484
 30
0.0
 10
397.4007100089127
 20
378.4738997765484
 30
0.0
 10
397.5272138162761
 20
378.4738997765484
 30
0.0
 10
397.6517488456045
 20
378.4738997765484
 30
0.0
 10
397.7729459132408
 20
378.4738997765484
 30
0.0
 10
397.885469368443
 20
378.4738997765484
 30
0.0
 10
397.9893196621629
 20
378.4738997765484
 30
0.0
 10
398.0844964918206
 20
378.4738997765485
 30
0.0
 10
398.1709996482504
 20
378.4738997765485
 30
0.0
 10
398.2488295792576
 20
378.4738997765484
 30
0.0
 10
398.3117427003638
 20
378.4738997765485
 30
0.0
 10
398.3622294979511
 20
378.4738997765485
 30
0.0
 10
398.4024333539282
 20
378.4738997765484
 30
0.0
 10
398.4378237146185
 20
378.4738997765484
 30
0.0
 10
398.4683985125448
 20
378.4738997765485
 30
0.0
 10
398.4941673103551
 20
378.4738997765484
 30
0.0
 10
398.5163397351284
 20
378.4738997765485
 30
0.0
 10
398.5340213757233
 20
378.4738997765485
 30
0.0
 10
398.5454399718869
 20
378.4738997765484
 30
0.0
 10
398.550481122729
 20
378.4738997765485
 30
0.0
 10
398.5495549067031
 20
378.4738997765484
 30
0.0
 10
398.5493545704211
 20
378.4738997765485
 30
0.0
  0
SPLINE
  5
96
330
1F
100
AcDbEntity
  8
0
  6
Continuous
 62
     7
370
    30
100
AcDbSpline
210
0.0
220
0.0
230
1.0
 70
    24
 71
     3
 72
    98
 73
    94
 74
     0
 42
0.000000001
 43
0.00000001
 40
0.0
 40
0.0
 40
0.0
 40
0.0
 40
0.008216238286012
 40
0.0170902415201157
 40
0.025951353614108
 40
0.0348022378295398
 40
0.0436455666686664
 40
0.0524840194873498
 40
0.0613202800770171
 40
0.070157034226489
 40
0.0798812129124388
 40
0.0896128080335173
 40
0.0993553814351494
 40
0.108992298755104
 40
0.1181945883805773
 40
0.1318663611161598
 40
0.14552071027537
 40
0.1591675012975088
 40
0.1728166160107136
 40
0.1864779312006425
 40
0.2001612972337137
 40
0.2147996078540493
 40
0.2294095848078992
 40
0.2440032523277845
 40
0.2585926749717455
 40
0.2677666033951626
 40
0.2769466215974851
 40
0.2861357194770471
 40
0.2954588823607813
 40
0.3052158827616458
 40
0.3197091753381783
 40
0.3341820544766428
 40
0.3486462770001957
 40
0.3631136208362862
 40
0.3775958562969832
 40
0.3921047174519174
 40
0.4003607479066107
 40
0.4086049667904189
 40
0.4168395151053566
 40
0.4250665414034466
 40
0.4332882001338675
 40
0.4415066499670835
 40
0.449724052102444
 40
0.4610251304224692
 40
0.472333932344804
 40
0.483656063262045
 40
0.4949971088029533
 40
0.5048340648403247
 40
0.5146544408685289
 40
0.5244618614696475
 40
0.5342599656034562
 40
0.5440524026159901
 40
0.5538428281904826
 40
0.5653838674311646
 40
0.5769331781388913
 40
0.58849673194398
 40
0.600080478449047
 40
0.613250864805155
 40
0.626393715540014
 40
0.6395177559015103
 40
0.6526317486833974
 40
0.6657444768228183
 40
0.6788647257966431
 40
0.6920012659923603
 40
0.7051628352298812
 40
0.714793626283665
 40
0.7244088259008588
 40
0.7340118369947523
 40
0.7436060754478352
 40
0.7531949665179167
 40
0.7627819411943912
 40
0.7740830194402897
 40
0.7853918210788626
 40
0.7967139513676499
 40
0.8080549958013437
 40
0.8169289990354873
 40
0.8257901111295125
 40
0.834640995344968
 40
0.84348432418411
 40
0.8523227770028011
 40
0.8611590375924699
 40
0.8699957917419342
 40
0.8797199704278699
 40
0.8894515655489243
 40
0.8991941389505254
 40
0.9088306347136674
 40
0.9180312241949998
 40
0.9317011905535677
 40
0.9453545984873888
 40
0.9590013112336361
 40
0.9726512065430615
 40
0.986314155263827
 40
1.0
 40
1.0
 40
1.0
 40
1.0
 10
371.4506454295794
 20
378.4738997765482
 30
0.0
 10
371.4507163383386
 20
378.4738997765482
 30
0.0
 10
371.4508638325785
 20
378.4738997765481
 30
0.0
 10
371.4570386648594
 20
378.4738997765481
 30
0.0
 10
371.4668388830112
 20
378.4738997765482
 30
0.0
 10
371.480874246833
 20
378.4738997765482
 30
0.0
 10
371.4989388756797
 20
378.4738997765482
 30
0.0
 10
371.5210878477172
 20
378.4738997765481
 30
0.0
 10
371.5473064387428
 20
378.4738997765481
 30
0.0
 10
371.5786088023166
 20
378.4738997765482
 30
0.0
 10
371.6154837381744
 20
378.4738997765482
 30
0.0
 10
371.6584385477124
 20
378.4738997765482
 30
0.0
 10
371.706124799388
 20
378.4738997765482
 30
0.0
 10
371.7576562449829
 20
378.4738997765482
 30
0.0
 10
371.8214378363648
 20
378.4738997765482
 30
0.0
 10
371.9001594211758
 20
378.4738997765482
 30
0.0
 10
371.9978962276899
 20
378.4738997765482
 30
0.0
 10
372.104958377028
 20
378.4738997765482
 30
0.0
 10
372.2213456728464
 20
378.4738997765481
 30
0.0
 10
372.3470570278203
 20
378.4738997765482
 30
0.0
 10
372.4851315913076
 20
378.4738997765482
 30
0.0
 10
372.6360304829425
 20
378.4738997765482
 30
0.0
 10
372.8002926169373
 20
378.4738997765482
 30
0.0
 10
372.9744233666675
 20
378.4738997765482
 30
0.0
 10
373.1356310634052
 20
378.4738997765482
 30
0.0
 10
373.2800623454494
 20
378.4738997765482
 30
0.0
 10
373.4046349101573
 20
378.4738997765482
 30
0.0
 10
373.5336722014537
 20
378.4738997765482
 30
0.0
 10
373.6692422855687
 20
378.4738997765482
 30
0.0
 10
373.8348710090661
 20
378.4738997765482
 30
0.0
 10
374.0326374271036
 20
378.4738997765482
 30
0.0
 10
374.2633234592623
 20
378.4738997765482
 30
0.0
 10
374.5025780549963
 20
378.4738997765482
 30
0.0
 10
374.750400590374
 20
378.4738997765482
 30
0.0
 10
375.0067886714224
 20
378.4738997765482
 30
0.0
 10
375.2334634516242
 20
378.4738997765482
 30
0.0
 10
375.4265414484037
 20
378.4738997765482
 30
0.0
 10
375.5830474804054
 20
378.4738997765482
 30
0.0
 10
375.7418282189477
 20
378.4738997765483
 30
0.0
 10
375.9028835705213
 20
378.4738997765482
 30
0.0
 10
376.0662134679102
 20
378.4738997765482
 30
0.0
 10
376.2318181025352
 20
378.4738997765483
 30
0.0
 10
376.4206866174846
 20
378.4738997765482
 30
0.0
 10
376.6339450409622
 20
378.4738997765482
 30
0.0
 10
376.8728212586047
 20
378.4738997765482
 30
0.0
 10
377.1159981009558
 20
378.4738997765483
 30
0.0
 10
377.3523606321489
 20
378.4738997765482
 30
0.0
 10
377.5809888857708
 20
378.4738997765482
 30
0.0
 10
377.8010512091117
 20
378.4738997765483
 30
0.0
 10
378.0234928289166
 20
378.4738997765483
 30
0.0
 10
378.2483134019238
 20
378.4738997765483
 30
0.0
 10
378.4755131055532
 20
378.4738997765483
 30
0.0
 10
378.7187599971364
 20
378.4738997765483
 30
0.0
 10
378.9785933656379
 20
378.4738997765483
 30
0.0
 10
379.2555461211958
 20
378.4738997765483
 30
0.0
 10
379.5358032694328
 20
378.4738997765483
 30
0.0
 10
379.832095622266
 20
378.4738997765483
 30
0.0
 10
380.1443667055185
 20
378.4738997765483
 30
0.0
 10
380.4725543434379
 20
378.4738997765483
 30
0.0
 10
380.8032882000805
 20
378.4738997765483
 30
0.0
 10
381.136567253956
 20
378.4738997765483
 30
0.0
 10
381.4723911656022
 20
378.4738997765483
 30
0.0
 10
381.8107596735834
 20
378.4738997765483
 30
0.0
 10
382.1516714350209
 20
378.4738997765483
 30
0.0
 10
382.4641303584465
 20
378.4738997765483
 30
0.0
 10
382.7471363739622
 20
378.4738997765483
 30
0.0
 10
382.9998675297909
 20
378.4738997765483
 30
0.0
 10
383.2529899663605
 20
378.4738997765483
 30
0.0
 10
383.5065038920368
 20
378.4738997765483
 30
0.0
 10
383.7604093286701
 20
378.4738997765483
 30
0.0
 10
384.029845820871
 20
378.4738997765483
 30
0.0
 10
384.3149181714349
 20
378.4738997765483
 30
0.0
 10
384.6156910059132
 20
378.4738997765483
 30
0.0
 10
384.9170067148825
 20
378.4738997765483
 30
0.0
 10
385.1967647093459
 20
378.4738997765483
 30
0.0
 10
385.4546060668482
 20
378.4738997765483
 30
0.0
 10
385.6902295024006
 20
378.4738997765483
 30
0.0
 10
385.9253732933865
 20
378.4738997765483
 30
0.0
 10
386.1600376593197
 20
378.4738997765484
 30
0.0
 10
386.3942224367299
 20
378.4738997765483
 30
0.0
 10
386.6279276713524
 20
378.4738997765483
 30
0.0
 10
386.8689313582532
 20
378.4738997765484
 30
0.0
 10
387.1171808121296
 20
378.4738997765483
 30
0.0
 10
387.3726021751563
 20
378.4738997765483
 30
0.0
 10
387.6263912592125
 20
378.4738997765484
 30
0.0
 10
387.8746195034471
 20
378.4738997765483
 30
0.0
 10
388.1558333129577
 20
378.4738997765484
 30
0.0
 10
388.4701402859183
 20
378.4738997765484
 30
0.0
 10
388.8202016448654
 20
378.4738997765484
 30
0.0
 10
389.1673569522963
 20
378.4738997765484
 30
0.0
 10
389.5115141219419
 20
378.4738997765484
 30
0.0
 10
389.8530107415534
 20
378.4738997765484
 30
0.0
 10
390.0778168852034
 20
378.4738997765484
 30
0.0
 10
390.1903140592589
 20
378.4738997765484
 30
0.0
  0
SPLINE
  5
97
330
1F
100
AcDbEntity
  8
0
  6
Continuous
 62
     7
370
    30
100
AcDbSpline
210
0.0
220
0.0
230
1.0
 70
    24
 71
     3
 72
    79
 73
    75
 74
     0
 42
0.000000001
 43
0.00000001
 40
0.0
 40
0.0
 40
0.0
 40
0.0
 40
0.0182917219327514
 40
0.0365516915114335
 40
0.0547949510231988
 40
0.0730365840932609
 40
0.0845089269551469
 40
0.0959903301440657
 40
0.1074845262535831
 40
0.1191440876632112
 40
0.1313345141755515
 40
0.1465501021298079
 40
0.1617490034159225
 40
0.1769399321117349
 40
0.1921316160145239
 40
0.200092534527445
 40
0.208057307450919
 40
0.2160271856867234
 40
0.2240034177346573
 40
0.2319872491137237
 40
0.2399799217902528
 40
0.2580215586494707
 40
0.2760279648563323
 40
0.2940135594817367
 40
0.3119928116683175
 40
0.3232975351342149
 40
0.3346090700496974
 40
0.3459310042567
 40
0.3572669157229687
 40
0.368620369201722
 40
0.3850756977373729
 40
0.4014997278447864
 40
0.4179033839919646
 40
0.4342976313761215
 40
0.4506934540716658
 40
0.4671018329893689
 40
0.4835337238672553
 40
0.5000000355128907
 40
0.5184275569295131
 40
0.5368174589123854
 40
0.5551851015798074
 40
0.5735459009146813
 40
0.5850906381841191
 40
0.596642599224384
 40
0.6082056065341901
 40
0.6197834716712882
 40
0.6313799915429749
 40
0.6494216300426972
 40
0.6674280369972875
 40
0.6854136318230477
 40
0.7033928840105282
 40
0.7114672009778759
 40
0.719544469600691
 40
0.7276259986487887
 40
0.7357130948235326
 40
0.743807062129993
 40
0.751909201255599
 40
0.7600208089567568
 40
0.7755378211654269
 40
0.7910289276256202
 40
0.8065032979912327
 40
0.8219701316826346
 40
0.8374386415668147
 40
0.8495997618981433
 40
0.8617720624530508
 40
0.8739599905113467
 40
0.8860134845116872
 40
0.897510270434728
 40
0.9145945025388322
 40
0.9316612307267557
 40
0.9487227994195951
 40
0.9657915642327528
 40
0.9828798651722803
 40
0.9999999999999999
 40
0.9999999999999999
 40
0.9999999999999999
 40
0.9999999999999999
 10
385.0000000000025
 20
385.9738997765481
 30
0.0
 10
385.1302564891948
 20
385.9738997765481
 30
0.0
 10
385.390543357092
 20
385.9738997765481
 30
0.0
 10
385.7804226601467
 20
385.9738997765481
 30
0.0
 10
386.1693026743226
 20
385.9738997765481
 30
0.0
 10
386.5091260780534
 20
385.9738997765481
 30
0.0
 10
386.8002377014015
 20
385.9738997765481
 30
0.0
 10
387.0430830414618
 20
385.9738997765481
 30
0.0
 10
387.2865794562001
 20
385.9738997765481
 30
0.0
 10
387.5342960735197
 20
385.9738997765481
 30
0.0
 10
387.8071328552118
 20
385.9738997765481
 30
0.0
 10
388.1033593459717
 20
385.9738997765481
 30
0.0
 10
388.4186751240275
 20
385.9738997765481
 30
0.0
 10
388.7318704295923
 20
385.9738997765481
 30
0.0
 10
388.9935388605714
 20
385.9738997765482
 30
0.0
 10
389.2046845855683
 20
385.9738997765481
 30
0.0
 10
389.3661679604155
 20
385.9738997765482
 30
0.0
 10
389.5270695592301
 20
385.9738997765481
 30
0.0
 10
389.6873895958624
 20
385.9738997765481
 30
0.0
 10
389.8471283034512
 20
385.9738997765481
 30
0.0
 10
390.0729149963767
 20
385.9738997765481
 30
0.0
 10
390.3628993043707
 20
385.9738997765482
 30
0.0
 10
390.714389881884
 20
385.9738997765481
 30
0.0
 10
391.0608997227023
 20
385.9738997765482
 30
0.0
 10
391.3601277519863
 20
385.9738997765482
 30
0.0
 10
391.6139528748076
 20
385.9738997765481
 30
0.0
 10
391.8240589784672
 20
385.9738997765482
 30
0.0
 10
392.0321968180223
 20
385.9738997765482
 30
0.0
 10
392.2383670256926
 20
385.9738997765482
 30
0.0
 10
392.4730264948592
 20
385.9738997765482
 30
0.0
 10
392.7344678299337
 20
385.9738997765482
 30
0.0
 10
393.0206170996914
 20
385.9738997765482
 30
0.0
 10
393.3010738769431
 20
385.9738997765482
 30
0.0
 10
393.5758366413133
 20
385.9738997765482
 30
0.0
 10
393.8449052855215
 20
385.9738997765482
 30
0.0
 10
394.1082794952891
 20
385.9738997765482
 30
0.0
 10
394.3659585596705
 20
385.9738997765482
 30
0.0
 10
394.6277149376706
 20
385.9738997765482
 30
0.0
 10
394.8921833023404
 20
385.9738997765482
 30
0.0
 10
395.1578387834633
 20
385.9738997765482
 30
0.0
 10
395.4146870814222
 20
385.9738997765482
 30
0.0
 10
395.6320063341054
 20
385.9738997765483
 30
0.0
 10
395.8131713749695
 20
385.9738997765482
 30
0.0
 10
395.961058918364
 20
385.9738997765483
 30
0.0
 10
396.1054677031062
 20
385.9738997765482
 30
0.0
 10
396.2463978613545
 20
385.9738997765482
 30
0.0
 10
396.4092233110248
 20
385.9738997765483
 30
0.0
 10
396.5909065679278
 20
385.9738997765482
 30
0.0
 10
396.7876827749494
 20
385.9738997765483
 30
0.0
 10
396.9747906554015
 20
385.9738997765482
 30
0.0
 10
397.1196289191983
 20
385.9738997765483
 30
0.0
 10
397.2274096281404
 20
385.9738997765482
 30
0.0
 10
397.3019593904212
 20
385.9738997765483
 30
0.0
 10
397.3745610035902
 20
385.9738997765482
 30
0.0
 10
397.445214678165
 20
385.9738997765483
 30
0.0
 10
397.5139204214809
 20
385.9738997765483
 30
0.0
 10
397.5806779738205
 20
385.9738997765483
 30
0.0
 10
397.6651812933757
 20
385.9738997765483
 30
0.0
 10
397.7646028927572
 20
385.9738997765483
 30
0.0
 10
397.8751847512209
 20
385.9738997765483
 30
0.0
 10
397.9780215977234
 20
385.9738997765483
 30
0.0
 10
398.073111964832
 20
385.9738997765483
 30
0.0
 10
398.1542120980783
 20
385.9738997765483
 30
0.0
 10
398.2231381794003
 20
385.9738997765483
 30
0.0
 10
398.2815447464681
 20
385.9738997765483
 30
0.0
 10
398.334942258737
 20
385.9738997765483
 30
0.0
 10
398.3826332512311
 20
385.9738997765483
 30
0.0
 10
398.4316297958516
 20
385.9738997765483
 30
0.0
 10
398.4794854403734
 20
385.9738997765483
 30
0.0
 10
398.5234457185884
 20
385.9738997765483
 30
0.0
 10
398.557685079185
 20
385.9738997765483
 30
0.0
 10
398.5819668471082
 20
385.9738997765483
 30
0.0
 10
398.5971752074202
 20
385.9738997765483
 30
0.0
 10
398.5990578184978
 20
385.9738997765483
 30
0.0
 10
398.6000000000024
 20
385.9738997765483
 30
0.0
  0
SPLINE
  5
98
330
1F
100
AcDbEntity
  8
0
  6
Continuous
 62
     7
370
    30
100
AcDbSpline
210
0.0
220
0.0
230
1.0
 70
    24
 71
     3
 72
    79
 73
    75
 74
     0
 42
0.000000001
 43
0.00000001
 40
0.0
 40
0.0
 40
0.0
 40
0.0
 40
0.0182884571786569
 40
0.0365463661370128
 40
0.0547887806897872
 40
0.0730307930109669
 40
0.0845040035032356
 40
0.0959867609718643
 40
0.107482798286939
 40
0.1191441394859714
 40
0.131334564336663
 40
0.1465501502167801
 40
0.1617490494308806
 40
0.1769399760556124
 40
0.1921316578870654
 40
0.2000925753144842
 40
0.2080573471518863
 40
0.2160272243008838
 40
0.2240034552611016
 40
0.2319872855513763
 40
0.2399799571378675
 40
0.2580215915358388
 40
0.2760279952867171
 40
0.2940135874594352
 40
0.3119928371946459
 40
0.3232975591194413
 40
0.3346090924930669
 40
0.3459310251569719
 40
0.3572669350784079
 40
0.36862038701011
 40
0.3850757133022998
 40
0.4014997411704848
 40
0.417903395081183
 40
0.4342976402301182
 40
0.4506934606902064
 40
0.4671018373707297
 40
0.483533726008222
 40
0.5000000354087663
 40
0.518427554314346
 40
0.5368174537908504
 40
0.5551850939544812
 40
0.5735458907860324
 40
0.5850906264812135
 40
0.5966425859460487
 40
0.6082055916787303
 40
0.6197834552364907
 40
0.631379973526107
 40
0.6494216095644814
 40
0.6674280140630156
 40
0.6854136064360482
 40
0.7033928561721587
 40
0.711467172038778
 40
0.7195444395605622
 40
0.7276259675071457
 40
0.7357130625797147
 40
0.7438070287831601
 40
0.7519091668047363
 40
0.7600207734006718
 40
0.7755377834927037
 40
0.7910288878400774
 40
0.8065032560954434
 40
0.8219700876779169
 40
0.8374385954532321
 40
0.8495997141268087
 40
0.861772013022619
 40
0.873959939419868
 40
0.8860139571183648
 40
0.897512860180189
 40
0.9145993410448809
 40
0.9316672398490594
 40
0.94872890376183
 40
0.9657966934836277
 40
0.9828829564201265
 40
1.0
 40
1.0
 40
1.0
 40
1.0
 10
371.4000000000024
 20
385.973899776548
 30
0.0
 10
371.4010674370022
 20
385.973899776548
 30
0.0
 10
371.4032005280027
 20
385.973899776548
 30
0.0
 10
371.4205690571789
 20
385.973899776548
 30
0.0
 10
371.4483166054303
 20
385.973899776548
 30
0.0
 10
371.4826098699057
 20
385.973899776548
 30
0.0
 10
371.5188491870455
 20
385.973899776548
 30
0.0
 10
371.553551011826
 20
385.973899776548
 30
0.0
 10
371.5928341392582
 20
385.973899776548
 30
0.0
 10
371.6374042073281
 20
385.973899776548
 30
0.0
 10
371.6917439574877
 20
385.973899776548
 30
0.0
 10
371.7573833483069
 20
385.973899776548
 30
0.0
 10
371.8352116377228
 20
385.973899776548
 30
0.0
 10
371.9205294573662
 20
385.973899776548
 30
0.0
 10
371.9985968060323
 20
385.973899776548
 30
0.0
 10
372.0658116997349
 20
385.973899776548
 30
0.0
 10
372.1194565097076
 20
385.973899776548
 30
0.0
 10
372.1751553718125
 20
385.973899776548
 30
0.0
 10
372.2329082511382
 20
385.973899776548
 30
0.0
 10
372.2927155053137
 20
385.973899776548
 30
0.0
 10
372.3804733874797
 20
385.973899776548
 30
0.0
 10
372.4999991442941
 20
385.973899776548
 30
0.0
 10
372.6566394277843
 20
385.973899776548
 30
0.0
 10
372.8229872038036
 20
385.973899776548
 30
0.0
 10
372.9772378249176
 20
385.973899776548
 30
0.0
 10
373.1155998457147
 20
385.973899776548
 30
0.0
 10
373.2350362754927
 20
385.973899776548
 30
0.0
 10
373.3583058318
 20
385.973899776548
 30
0.0
 10
373.4854093431609
 20
385.973899776548
 30
0.0
 10
373.6358738414885
 20
385.973899776548
 30
0.0
 10
373.8116007751337
 20
385.973899776548
 30
0.0
 10
374.0148276680443
 20
385.973899776548
 30
0.0
 10
374.2251180383408
 20
385.973899776548
 30
0.0
 10
374.4424716793735
 20
385.973899776548
 30
0.0
 10
374.6668883671943
 20
385.973899776548
 30
0.0
 10
374.8983675141556
 20
385.973899776548
 30
0.0
 10
375.1369097827708
 20
385.973899776548
 30
0.0
 10
375.3920345953657
 20
385.973899776548
 30
0.0
 10
375.6641729107189
 20
385.973899776548
 30
0.0
 10
375.9538106266985
 20
385.973899776548
 30
0.0
 10
376.2506572801501
 20
385.973899776548
 30
0.0
 10
376.5170554928802
 20
385.973899776548
 30
0.0
 10
376.7501596044784
 20
385.973899776548
 30
0.0
 10
376.9477681401959
 20
385.973899776548
 30
0.0
 10
377.1482229709314
 20
385.973899776548
 30
0.0
 10
377.3515253956981
 20
385.973899776548
 30
0.0
 10
377.5957254843968
 20
385.973899776548
 30
0.0
 10
377.8823027324222
 20
385.973899776548
 30
0.0
 10
378.213001135755
 20
385.973899776548
 30
0.0
 10
378.5487552775286
 20
385.9738997765481
 30
0.0
 10
378.8269506624404
 20
385.973899776548
 30
0.0
 10
379.0447900223575
 20
385.973899776548
 30
0.0
 10
379.2004205218834
 20
385.973899776548
 30
0.0
 10
379.3570692147341
 20
385.973899776548
 30
0.0
 10
379.5147365088941
 20
385.9738997765481
 30
0.0
 10
379.6734221602019
 20
385.9738997765481
 30
0.0
 10
379.8331266587286
 20
385.9738997765481
 30
0.0
 10
380.0426842082382
 20
385.973899776548
 30
0.0
 10
380.3029341178801
 20
385.9738997765481
 30
0.0
 10
380.6149427324227
 20
385.9738997765481
 30
0.0
 10
380.9292143187187
 20
385.9738997765481
 30
0.0
 10
381.2457472021561
 20
385.973899776548
 30
0.0
 10
381.5417519579935
 20
385.9738997765481
 30
0.0
 10
381.8166823440981
 20
385.973899776548
 30
0.0
 10
382.0701171951398
 20
385.9738997765481
 30
0.0
 10
382.3238744883756
 20
385.9738997765481
 30
0.0
 10
382.573885383281
 20
385.9738997765481
 30
0.0
 10
382.8591062245002
 20
385.9738997765481
 30
0.0
 10
383.1806944726237
 20
385.9738997765481
 30
0.0
 10
383.5427772281104
 20
385.9738997765481
 30
0.0
 10
383.9057809904687
 20
385.9738997765481
 30
0.0
 10
384.2697040124547
 20
385.9738997765481
 30
0.0
 10
384.6345460861816
 20
385.9738997765481
 30
0.0
 10
384.8781089654017
 20
385.9738997765481
 30
0.0
 10
385.0000000000025
 20
385.9738997765481
 30
0.0
  0
ARC
  5
99
330
1F
100
AcDbEntity
  8
0
  6
Continuous
 62
     7
370
    30
100
AcDbCircle
 10
385.0
 20
435.9738997765
 30
0.0
 40
14.00000000000006
100
AcDbArc
 50
0.0
 51
90.0
  0
ARC
  5
9A
330
1F
100
AcDbEntity
  8
0
  6
Continuous
 62
     7
370
    30
100
AcDbCircle
 10
385.0
 20
435.9738997765
 30
0.0
 40
14.00000000000006
100
AcDbArc
 50
90.0
 51
180.0
  0
ARC
  5
9B
330
1F
100
AcDbEntity
  8
0
  6
Continuous
 62
     7
370
    30
100
AcDbCircle
 10
554.7455892825
 20
520.474071114
 30
0.0
 40
0.5
100
AcDbArc
 50
88.5
 51
180.0
  0
LINE
  5
9C
330
1F
100
AcDbEntity
  8
0
  6
Continuous
 62
     7
370
    30
100
AcDbLine
 10
556.7455892825
 20
351.0259288863
 30
0.0
 11
564.4857262135
 21
351.2286115046
 31
0.0
  0
LINE
  5
9D
330
1F
100
AcDbEntity
  8
0
  6
Continuous
 62
     7
370
    30
100
AcDbLine
 10
564.4857262135
 20
520.7191880485
 30
0.0
 11
554.7586777566
 21
520.9738997762
 31
0.0
  0
ARC
  5
9E
330
1F
100
AcDbEntity
  8
0
  6
Continuous
 62
     7
370
    30
100
AcDbCircle
 10
564.4333723169
 20
353.2279261358
 30
0.0
 40
1.99999999999998
100
AcDbArc
 50
271.4999999859
 51
357.4907349552
  0
ARC
  5
9F
330
1F
100
AcDbEntity
  8
0
  6
Continuous
 62
     7
370
    30
100
AcDbCircle
 10
564.4333723169
 20
518.7198733798
 30
0.0
 40
2.000000000000043
100
AcDbArc
 50
2.5092650448
 51
88.500000014
  0
ARC
  5
A0
330
1F
100
AcDbEntity
  8
0
  6
Continuous
 62
     7
370
    30
100
AcDbCircle
 10
-1323.7544106775
 20
435.9738997578
 30
0.0
 40
1892.0
100
AcDbArc
 50
357.4907349552
 51
358.396939906
  0
ARC
  5
A1
330
1F
100
AcDbEntity
  8
0
  6
Continuous
 62
     7
370
    30
100
AcDbCircle
 10
-1323.7544106775
 20
435.9738997578
 30
0.0
 40
1892.0
100
AcDbArc
 50
358.6240295152
 51
359.5730031877
  0
ARC
  5
A2
330
1F
100
AcDbEntity
  8
0
  6
Continuous
 62
     7
370
    30
100
AcDbCircle
 10
-1323.7544106775
 20
435.9738997578
 30
0.0
 40
1892.00000000007
100
AcDbArc
 50
0.4269968128
 51
2.5092650448
  0
LINE
  5
A3
330
1F
100
AcDbEntity
  8
0
  6
Continuous
 62
     7
370
    30
100
AcDbLine
 10
567.7136722296
 20
390.5404776761
 30
0.0
 11
567.6475545393
 21
390.5453330558
 31
0.0
  0
SPLINE
  5
A4
330
1F
100
AcDbEntity
  8
0
  6
Continuous
 62
     7
370
    30
100
AcDbSpline
210
0.0
220
0.0
230
1.0
 70
     8
 71
     3
 72
    54
 73
    50
 74
     0
 42
0.000000001
 43
0.00000001
 40
0.0
 40
0.0
 40
0.0
 40
0.0
 40
0.0171035049485006
 40
0.0326050097205575
 40
0.0470833513804047
 40
0.0611158570144474
 40
0.0752579649803108
 40
0.0897240308898408
 40
0.104444341231699
 40
0.1456066546581397
 40
0.1871229911755853
 40
0.2370378890720787
 40
0.2876859131546096
 40
0.3393319437141921
 40
0.3789336395884697
 40
0.4195277776960127
 40
0.4613830890032046
 40
0.5047313050977335
 40
0.5275083048830262
 40
0.5495093216714948
 40
0.5700831768636899
 40
0.5891736755660751
 40
0.6074426920302005
 40
0.6255954453273983
 40
0.6417819450706166
 40
0.6587606055374898
 40
0.6768808596891599
 40
0.6964958105513461
 40
0.7178191466768481
 40
0.7288208389873545
 40
0.7400958086353681
 40
0.7515873931197962
 40
0.7632388409619134
 40
0.7749933325752772
 40
0.7867939964452615
 40
0.7988010641690394
 40
0.8121253350867471
 40
0.8207652751186957
 40
0.8305143815441276
 40
0.8416213068080248
 40
0.8543347036062937
 40
0.8689031972479183
 40
0.8855753754166339
 40
0.9003126568921193
 40
0.9166226295045377
 40
0.9346258283543654
 40
0.9544427790393383
 40
0.9761939992216703
 40
0.9999999999999999
 40
0.9999999999999999
 40
0.9999999999999999
 40
0.9999999999999999
 10
568.0993107783779
 20
385.9863836009096
 30
0.0
 10
568.1000893246708
 20
386.0125103943114
 30
0.0
 10
568.1015734947002
 20
386.0623168144223
 30
0.0
 10
568.1023360816274
 20
386.1342705414762
 30
0.0
 10
568.1020811345155
 20
386.2015323827278
 30
0.0
 10
568.1009620398548
 20
386.2667071567584
 30
0.0
 10
568.0993072885902
 20
386.3318507376272
 30
0.0
 10
568.097210851648
 20
386.3980334471848
 30
0.0
 10
568.0930482104721
 20
386.5054613835958
 30
0.0
 10
568.0851770449545
 20
386.6541139376131
 30
0.0
 10
568.0696218822234
 20
386.8561667407263
 30
0.0
 10
568.0472856768023
 20
387.0721722944281
 30
0.0
 10
568.0171040904172
 20
387.3028394928995
 30
0.0
 10
567.9839668807566
 20
387.5171555432893
 30
0.0
 10
567.9501578002877
 20
387.7157857071266
 30
0.0
 10
567.9168633947311
 20
387.8993137716128
 30
0.0
 10
567.8811406605032
 20
388.0882122416673
 30
0.0
 10
567.8503243346695
 20
388.2503270022393
 30
0.0
 10
567.8255406285056
 20
388.3827031395925
 30
0.0
 10
567.807456491907
 20
388.4809242872136
 30
0.0
 10
567.7908255137529
 20
388.5736837965094
 30
0.0
 10
567.7758152448502
 20
388.660937823775
 30
0.0
 10
567.7621855554962
 20
388.7446719794046
 30
0.0
 10
567.7500750247796
 20
388.8241527437495
 30
0.0
 10
567.7389876912985
 20
388.901791474931
 30
0.0
 10
567.7289914179437
 20
388.9795300584904
 30
0.0
 10
567.7197993817035
 20
389.0626429887458
 30
0.0
 10
567.7116678058882
 20
389.1525366185962
 30
0.0
 10
567.706115574015
 20
389.231722474
 30
0.0
 10
567.7022111811144
 20
389.2982385499591
 30
0.0
 10
567.6995501820026
 20
389.3497755645534
 30
0.0
 10
567.6971750993496
 20
389.402320414332
 30
0.0
 10
567.695084859319
 20
389.4556107288524
 30
0.0
 10
567.6932781580292
 20
389.5093840157787
 30
0.0
 10
567.6917422080942
 20
389.563709254949
 30
0.0
 10
567.6904395388857
 20
389.6204407487105
 30
0.0
 10
567.6898852618493
 20
389.6723549849413
 30
0.0
 10
567.6898694921531
 20
389.7208201884289
 30
0.0
 10
567.6901765073923
 20
389.7658957599882
 30
0.0
 10
567.6908536493052
 20
389.8171929628659
 30
0.0
 10
567.6919488352825
 20
389.8758494351061
 30
0.0
 10
567.6935112380866
 20
389.9430028193811
 30
0.0
 10
567.69541268711
 20
390.0132415276041
 30
0.0
 10
567.6975874414127
 20
390.0861348073491
 30
0.0
 10
567.6999817039642
 20
390.1610563564496
 30
0.0
 10
567.70277350658
 20
390.243731856624
 30
0.0
 10
567.705989027409
 20
390.3347130724438
 30
0.0
 10
567.709644703702
 20
390.4345521361387
 30
0.0
 10
567.7122899511616
 20
390.5041232014756
 30
0.0
 10
567.7136722295744
 20
390.540477676148
 30
0.0
  0
SPLINE
  5
A5
330
1F
100
AcDbEntity
  8
0
  6
Continuous
 62
     7
370
    30
100
AcDbSpline
210
0.0
220
0.0
230
1.0
 70
     8
 71
     3
 72
    38
 73
    34
 74
     0
 42
0.000000001
 43
0.00000001
 40
0.0
 40
0.0
 40
0.0
 40
0.0
 40
0.0089928300906064
 40
0.0233604635172507
 40
0.0375577135008839
 40
0.0699859932822823
 40
0.1002936077102508
 40
0.125098565369575
 40
0.1480609020110207
 40
0.1696134551247191
 40
0.1901846320621516
 40
0.2157570201634085
 40
0.241603513188696
 40
0.2689014407230342
 40
0.298591901402785
 40
0.3301342454464821
 40
0.372377918180723
 40
0.4138147453446025
 40
0.4541626393362652
 40
0.5240222892024118
 40
0.5917534654932765
 40
0.6579625595857409
 40
0.7230511994634563
 40
0.7873215359971976
 40
0.8509941656802494
 40
0.8695459444449001
 40
0.8878624399514263
 40
0.9058526601727616
 40
0.923451911455639
 40
0.941001512837623
 40
0.9591618276275828
 40
0.9786037953855228
 40
0.9999999999999999
 40
0.9999999999999999
 40
0.9999999999999999
 40
0.9999999999999999
 10
567.4255071327516
 20
382.5162687344537
 30
0.0
 10
567.4266580621104
 20
382.5268228556862
 30
0.0
 10
567.4296478042744
 20
382.5542390485336
 30
0.0
 10
567.4347513174336
 20
382.5982843152896
 30
0.0
 10
567.4433824284741
 20
382.6697720560314
 30
0.0
 10
567.4551737951459
 20
382.759832069088
 30
0.0
 10
567.4703125542478
 20
382.8620725710866
 30
0.0
 10
567.4857559483107
 20
382.9529490436303
 30
0.0
 10
567.5010345113817
 20
383.0333519013396
 30
0.0
 10
567.516685003902
 20
383.1085831494937
 30
0.0
 10
567.534026462496
 20
383.186600570133
 30
0.0
 10
567.5532743581388
 20
383.2693833520855
 30
0.0
 10
567.5753177063798
 20
383.3596636945759
 30
0.0
 10
567.5994160273397
 20
383.4544415879745
 30
0.0
 10
567.6258763747162
 20
383.5555540184596
 30
0.0
 10
567.6573132150086
 20
383.673601326206
 30
0.0
 10
567.6927244752604
 20
383.8049401900734
 30
0.0
 10
567.7310254070825
 20
383.9462664870118
 30
0.0
 10
567.7775729262702
 20
384.1191363359967
 30
0.0
 10
567.8306604514786
 20
384.322392890149
 30
0.0
 10
567.8878909984492
 20
384.5560998014031
 30
0.0
 10
567.939220489445
 20
384.7854134555308
 30
0.0
 10
567.9838889378515
 20
385.011962248616
 30
0.0
 10
568.0217289307105
 20
385.2367169821146
 30
0.0
 10
568.0455308454976
 20
385.4080440306515
 30
0.0
 10
568.0598448066946
 20
385.5258738700002
 30
0.0
 10
568.0672066308463
 20
385.5902190552098
 30
0.0
 10
568.0740113317215
 20
385.6534944246573
 30
0.0
 10
568.0803482243448
 20
385.7159084152648
 30
0.0
 10
568.0861609685693
 20
385.7785760562392
 30
0.0
 10
568.0913187574993
 20
385.8434839076916
 30
0.0
 10
568.095867964019
 20
385.9129908595918
 30
0.0
 10
568.0981271373736
 20
385.9611511460113
 30
0.0
 10
568.0993107783778
 20
385.9863836009097
 30
0.0
  0
ARC
  5
A6
330
1F
100
AcDbEntity
  8
0
  6
Continuous
 62
     7
370
    30
100
AcDbCircle
 10
738.3643801947
 20
378.6738997765
 30
0.0
 40
0.2000000000000455
100
AcDbArc
 50
270.0
 51
0.0
  0
ARC
  5
A7
330
1F
100
AcDbEntity
  8
0
  6
Continuous
 62
     7
370
    30
100
AcDbCircle
 10
711.2643801947
 20
378.6738997765
 30
0.0
 40
0.2000000000000455
100
AcDbArc
 50
180.0
 51
270.0
  0
ARC
  5
A8
330
1F
100
AcDbEntity
  8
0
  6
Continuous
 62
     7
370
    30
100
AcDbCircle
 10
711.2643801947
 20
385.7738997765
 30
0.0
 40
0.1999999999999318
100
AcDbArc
 50
90.0
 51
180.0
  0
ARC
  5
A9
330
1F
100
AcDbEntity
  8
0
  6
Continuous
 62
     7
370
    30
100
AcDbCircle
 10
738.3643801947
 20
385.7738997765
 30
0.0
 40
0.1999999999999318
100
AcDbArc
 50
0.0
 51
90.0
  0
LINE
  5
AA
330
1F
100
AcDbEntity
  8
0
  6
Continuous
 62
     7
370
    30
100
AcDbLine
 10
711.0643801947
 20
385.7738997765
 30
0.0
 11
711.0643801947
 21
378.6738997765
 31
0.0
  0
LINE
  5
AB
330
1F
100
AcDbEntity
  8
0
  6
Continuous
 62
     7
370
    30
100
AcDbLine
 10
738.5643801947
 20
378.6738997765
 30
0.0
 11
738.5643801947
 21
385.7738997765
 31
0.0
  0
ARC
  5
AC
330
1F
100
AcDbEntity
  8
0
  6
Continuous
 62
     7
370
    30
100
AcDbCircle
 10
711.2143801947
 20
386.3738997765
 30
0.0
 40
0.3999999999999773
100
AcDbArc
 50
180.0
 51
270.0
  0
ARC
  5
AD
330
1F
100
AcDbEntity
  8
0
  6
Continuous
 62
     7
370
    30
100
AcDbCircle
 10
738.4143801947
 20
386.3738997765
 30
0.0
 40
0.4000000000000909
100
AcDbArc
 50
270.0
 51
0.0
  0
LINE
  5
AE
330
1F
100
AcDbEntity
  8
0
  6
Continuous
 62
     7
370
    30
100
AcDbLine
 10
584.9139344988
 20
421.9738997765
 30
0.0
 11
683.8143801947
 21
421.9738997765
 31
0.0
  0
LINE
  5
AF
330
1F
100
AcDbEntity
  8
0
  6
Continuous
 62
     7
370
    30
100
AcDbLine
 10
568.1930489524
 20
421.9738997765
 30
0.0
 11
579.315018102
 21
421.9738997765
 31
0.0
  0
LINE
  5
B0
330
1F
100
AcDbEntity
  8
0
  6
Continuous
 62
     7
370
    30
100
AcDbLine
 10
683.8143801947
 20
449.9738997765
 30
0.0
 11
568.1930489524
 21
449.9738997765
 31
0.0
  0
ARC
  5
B1
330
1F
100
AcDbEntity
  8
0
  6
Continuous
 62
     7
370
    30
100
AcDbCircle
 10
683.8143801947
 20
394.9738997765
 30
0.0
 40
55.00000000000006
100
AcDbArc
 50
0.0
 51
90.0
  0
ARC
  5
B2
330
1F
100
AcDbEntity
  8
0
  6
Continuous
 62
     7
370
    30
100
AcDbCircle
 10
683.8143801947
 20
394.9738997765
 30
0.0
 40
27.0
100
AcDbArc
 50
0.0
 51
90.0
  0
LINE
  5
B3
330
1F
100
AcDbEntity
  8
0
  6
Continuous
 62
     7
370
    30
100
AcDbLine
 10
738.8143801947
 20
386.3738997765
 30
0.0
 11
738.8143801947
 21
394.9738997765
 31
0.0
  0
LINE
  5
B4
330
1F
100
AcDbEntity
  8
0
  6
Continuous
 62
     7
370
    30
100
AcDbLine
 10
710.8143801947
 20
394.9738997765
 30
0.0
 11
710.8143801947
 21
386.3738997765
 31
0.0
  0
SPLINE
  5
B5
330
1F
100
AcDbEntity
  8
0
  6
Continuous
 62
     7
370
    30
100
AcDbSpline
210
0.0
220
0.0
230
1.0
 70
     8
 71
     3
 72
    25
 73
    21
 74
     0
 42
0.000000001
 43
0.00000001
 40
0.0
 40
0.0
 40
0.0
 40
0.0
 40
0.0520473667498432
 40
0.10409484625688
 40
0.1576582224047147
 40
0.2112217248941708
 40
0.2632673846438138
 40
0.3153131445056145
 40
0.3688631927495009
 40
0.4224133269130816
 40
0.4745934902550663
 40
0.5267736989940782
 40
0.58046339414747
 40
0.6341530986309148
 40
0.6864405944969378
 40
0.7387280603047438
 40
0.7925353619022802
 40
0.8463425900707525
 40
0.9225936579509225
 40
0.9999999999999999
 40
0.9999999999999999
 40
0.9999999999999999
 40
0.9999999999999999
 10
554.7586781583478
 20
351.1840303738327
 30
0.0
 10
554.7447981112891
 20
351.1840537359004
 30
0.0
 10
554.7170379871015
 20
351.1841004600865
 30
0.0
 10
554.6751844288999
 20
351.1885989706967
 30
0.0
 10
554.6334505573893
 20
351.1964566646402
 30
0.0
 10
554.5925383707506
 20
351.207907411331
 30
0.0
 10
554.5531220791478
 20
351.2226219324788
 30
0.0
 10
554.5150551281262
 20
351.2405440944785
 30
0.0
 10
554.4782853377237
 20
351.2618229085432
 30
0.0
 10
554.4434181083006
 20
351.2861646322333
 30
0.0
 10
554.4110115715932
 20
351.3131319803451
 30
0.0
 10
554.3809094130037
 20
351.3427093220006
 30
0.0
 10
554.353145756081
 20
351.3750360888999
 30
0.0
 10
554.328202937582
 20
351.4096268845898
 30
0.0
 10
554.3064632560918
 20
351.4458823897916
 30
0.0
 10
554.2877806263853
 20
351.4838399025544
 30
0.0
 10
554.2722037520971
 20
351.5236285436433
 30
0.0
 10
554.2583431181866
 20
351.5707326986666
 30
0.0
 10
554.2477843591364
 20
351.6253077298347
 30
0.0
 10
554.2463246330068
 20
351.6663430261469
 30
0.0
 10
554.2455892824622
 20
351.6870149363651
 30
0.0
  0
LINE
  5
B6
330
1F
100
AcDbEntity
  8
0
  6
Continuous
 62
     7
370
    30
100
AcDbLine
 10
554.2455892825
 20
351.6870149364
 30
0.0
 11
554.2455892825
 21
520.474071114
 31
0.0
  0
LINE
  5
B7
330
1F
100
AcDbEntity
  8
0
  6
Continuous
 62
     7
370
    30
100
AcDbLine
 10
556.7455892825
 20
351.1685272987
 30
0.0
 11
556.7455892825
 21
351.0259288863
 31
0.0
  0
SPLINE
  5
B8
330
1F
100
AcDbEntity
  8
0
  6
Continuous
 62
     7
370
    30
100
AcDbSpline
210
0.0
220
0.0
230
1.0
 70
     8
 71
     3
 72
    25
 73
    21
 74
     0
 42
0.000000001
 43
0.00000001
 40
0.0
 40
0.0
 40
0.0
 40
0.0
 40
0.0552765880461934
 40
0.1107507068081181
 40
0.1662247223463691
 40
0.2215011691299545
 40
0.2767772845310933
 40
0.3322508342872532
 40
0.3877246125655578
 40
0.4430010407006056
 40
0.4982937397347071
 40
0.5537833603467148
 40
0.6092733668547962
 40
0.6645665939842367
 40
0.7199588434483897
 40
0.7755482436682897
 40
0.8311379746729289
 40
0.8865306768121157
 40
0.9432653183284041
 40
1.0
 40
1.0
 40
1.0
 40
1.0
 10
555.7979252386946
 20
351.2074910127374
 30
0.0
 10
555.8258382962631
 20
351.2080726619894
 30
0.0
 10
555.8817641586246
 20
351.2092380390154
 30
0.0
 10
555.9646422937562
 20
351.210338110855
 30
0.0
 10
556.0460234641722
 20
351.2109662800494
 30
0.0
 10
556.1252008778366
 20
351.2110703211203
 30
0.0
 10
556.2016285571488
 20
351.2106526096827
 30
0.0
 10
556.2749215096812
 20
351.2097370252922
 30
0.0
 10
556.3445157536436
 20
351.2083448555921
 30
0.0
 10
556.4098249836628
 20
351.2064923012351
 30
0.0
 10
556.470321167943
 20
351.2041881904861
 30
0.0
 10
556.5257767151861
 20
351.2014701332785
 30
0.0
 10
556.5757824250289
 20
351.1983732926195
 30
0.0
 10
556.6199194362842
 20
351.1949277191972
 30
0.0
 10
556.6577403636666
 20
351.1911554025419
 30
0.0
 10
556.6891708858459
 20
351.1870948172783
 30
0.0
 10
556.7140425906291
 20
351.1827900631414
 30
0.0
 10
556.7320493676311
 20
351.1782414181306
 30
0.0
 10
556.7434356595281
 20
351.1734889786928
 30
0.0
 10
556.7448714079816
 20
351.170181192507
 30
0.0
 10
556.7455892824623
 20
351.1685272988288
 30
0.0
  0
LINE
  5
B9
330
1F
100
AcDbEntity
  8
0
  6
Continuous
 62
     7
370
    30
100
AcDbLine
 10
554.7586777565
 20
351.1840298059
 30
0.0
 11
555.7979218174
 21
351.2074909268
 31
0.0
  0
SPLINE
  5
BA
330
1F
100
AcDbEntity
  8
0
  6
Continuous
 62
     7
370
    30
100
AcDbSpline
210
0.0
220
0.0
230
1.0
 70
     8
 71
     3
 72
   111
 73
   107
 74
     0
 42
0.000000001
 43
0.00000001
 40
0.0
 40
0.0
 40
0.0
 40
0.0
 40
0.0019529926669153
 40
0.0118211023729211
 40
0.0216982524789665
 40
0.0315754025684085
 40
0.0414435122517524
 40
0.0510356862947972
 40
0.060636161921845
 40
0.0702366379963016
 40
0.0798288126499772
 40
0.0896997004873458
 40
0.0995796344278324
 40
0.1094595693314153
 40
0.1193304584833004
 40
0.1289260800783674
 40
0.1385300086069219
 40
0.148133938310699
 40
0.1577295615097298
 40
0.167604057757474
 40
0.1774876045645385
 40
0.187371152893382
 40
0.1972456512181814
 40
0.2068440863622399
 40
0.2164508298717624
 40
0.2260575747691176
 40
0.2356560118073125
 40
0.245533364217126
 40
0.2554197684368076
 40
0.2653061740693892
 40
0.27518352840765
 40
0.2847829085196302
 40
0.2943905938819837
 40
0.3039982802354845
 40
0.3135976617001983
 40
0.323475864728717
 40
0.3333631170633853
 40
0.3432503700820065
 40
0.3531285740440429
 40
0.3627266165901883
 40
0.3723329580969976
 40
0.3819392997642254
 40
0.3915373425293129
 40
0.4014140182402035
 40
0.4112997381018523
 40
0.4211854576194563
 40
0.431062132860764
 40
0.4406571429764766
 40
0.4502604453498159
 40
0.4598637469843425
 40
0.4694587560917119
 40
0.4793321975006375
 40
0.4892146775152391
 40
0.4990971563101141
 40
0.5089705960542547
 40
0.5185622082057845
 40
0.5281621084310062
 40
0.5377620073429846
 40
0.547353617702181
 40
0.5572235354685633
 40
0.567102488331794
 40
0.5769814396345221
 40
0.5868513552709984
 40
0.5964406917993469
 40
0.6060383165633839
 40
0.615635940014507
 40
0.6252252747509701
 40
0.635092922304414
 40
0.644969605015696
 40
0.6548462865086374
 40
0.6647139323991873
 40
0.6743031121599986
 40
0.6839005845960473
 40
0.6934980562941812
 40
0.7030872350478751
 40
0.7129548600507077
 40
0.7228315238181297
 40
0.7327081872430279
 40
0.7425758117783553
 40
0.7521670234184175
 40
0.7617665345132685
 40
0.771366045769735
 40
0.7809572576303726
 40
0.7908271189419934
 40
0.8007060245955159
 40
0.8105849309337786
 40
0.8204547931799917
 40
0.8300493361415765
 40
0.8396521847070395
 40
0.8492550342647016
 40
0.8588495785804567
 40
0.8687229562664591
 40
0.8786053833974591
 40
0.8884878119417053
 40
0.8983611915566277
 40
0.9079589046639752
 40
0.9175649261907315
 40
0.9271709491057265
 40
0.9367686641077655
 40
0.9466452962766589
 40
0.9565309802769385
 40
0.9664166657992445
 40
0.9762933000455299
 40
0.9858926310846252
 40
0.9955002687866573
 40
1.0
 40
1.0
 40
1.0
 40
1.0
 10
567.6687040441086
 20
390.5437799332234
 30
0.0
 10
567.6687457648761
 20
390.5485010308496
 30
0.0
 10
567.6689982929431
 20
390.5770769591147
 30
0.0
 10
567.669235529271
 20
390.6216608664137
 30
0.0
 10
567.6693984306206
 20
390.6768145437173
 30
0.0
 10
567.6693058507267
 20
390.7228866101507
 30
0.0
 10
567.6689859141653
 20
390.7602919119167
 30
0.0
 10
567.6684383194528
 20
390.7889533775867
 30
0.0
 10
567.6676748336389
 20
390.8092282038978
 30
0.0
 10
567.6666917180142
 20
390.8213462965134
 30
0.0
 10
567.6654790527681
 20
390.8253112306999
 30
0.0
 10
567.6640294721656
 20
390.8207740309521
 30
0.0
 10
567.6623393928114
 20
390.8075191064703
 30
0.0
 10
567.6604266367372
 20
390.7856358058897
 30
0.0
 10
567.658314616266
 20
390.7554361483849
 30
0.0
 10
567.6560121384827
 20
390.7171846530434
 30
0.0
 10
567.6535308584777
 20
390.6712691192557
 30
0.0
 10
567.6508543138386
 20
390.6174340439525
 30
0.0
 10
567.6479597730494
 20
390.5551765073928
 30
0.0
 10
567.644843516502
 20
390.484260703711
 30
0.0
 10
567.6415054090173
 20
390.4045883444114
 30
0.0
 10
567.6379825330548
 20
390.3170190527006
 30
0.0
 10
567.6343164624562
 20
390.2226103847902
 30
0.0
 10
567.6305173672487
 20
390.1217044676687
 30
0.0
 10
567.6265972972203
 20
390.0147393816766
 30
0.0
 10
567.6225283308045
 20
389.9009844586884
 30
0.0
 10
567.6182776113909
 20
389.7794910953058
 30
0.0
 10
567.6138454527629
 20
389.6501621679603
 30
0.0
 10
567.6092351916785
 20
389.5130280822855
 30
0.0
 10
567.6044989793369
 20
389.3696216708589
 30
0.0
 10
567.5996921127609
 20
389.2216353747611
 30
0.0
 10
567.5948249785449
 20
389.0694506921056
 30
0.0
 10
567.5899086581946
 20
388.9135067299273
 30
0.0
 10
567.58490665767
 20
388.7526709080067
 30
0.0
 10
567.5797797166831
 20
388.5856563887971
 30
0.0
 10
567.574532143572
 20
388.4125155777214
 30
0.0
 10
567.5691703678708
 20
388.2334040329891
 30
0.0
 10
567.5637556998915
 20
388.0503539512633
 30
0.0
 10
567.5583510814802
 20
387.8655091149201
 30
0.0
 10
567.5529659125013
 20
387.6792464004307
 30
0.0
 10
567.5476090249997
 20
387.4919554206822
 30
0.0
 10
567.5422393107891
 20
387.3022219329379
 30
0.0
 10
567.5368155519308
 20
387.1085667229174
 30
0.0
 10
567.5313455605195
 20
386.9111856097127
 30
0.0
 10
567.5258381317416
 20
386.7103416532968
 30
0.0
 10
567.5203567999316
 20
386.5083362721646
 30
0.0
 10
567.5149649731725
 20
386.3075220372554
 30
0.0
 10
567.5096699704462
 20
386.1082273340116
 30
0.0
 10
567.5044773495134
 20
385.9107471478702
 30
0.0
 10
567.4993461183855
 20
385.7135462592963
 30
0.0
 10
567.4942377522831
 20
385.5151201683441
 30
0.0
 10
567.4891626846161
 20
385.3157859146119
 30
0.0
 10
567.4841310853774
 20
385.1158843957233
 30
0.0
 10
567.4792015559333
 20
384.9177267250744
 30
0.0
 10
567.4744305791223
 20
384.7236008663763
 30
0.0
 10
567.4698225637183
 20
384.5337492104771
 30
0.0
 10
567.4653791674972
 20
384.3483385922383
 30
0.0
 10
567.461064393306
 20
384.1658946398055
 30
0.0
 10
567.4568467372675
 20
383.9850567536672
 30
0.0
 10
567.4527380812036
 20
383.8062275335704
 30
0.0
 10
567.4487488263769
 20
383.6297873871785
 30
0.0
 10
567.4449260633943
 20
383.4577975245624
 30
0.0
 10
567.4413128066998
 20
383.2922155581364
 30
0.0
 10
567.4379100875859
 20
383.1331714233584
 30
0.0
 10
567.4347155067114
 20
382.9806859182465
 30
0.0
 10
567.4317022971231
 20
382.8335197678894
 30
0.0
 10
567.428849507364
 20
382.690608888794
 30
0.0
 10
567.4261691333288
 20
382.552396255248
 30
0.0
 10
567.423670637266
 20
382.4192590155014
 30
0.0
 10
567.4213843143565
 20
382.2927771708373
 30
0.0
 10
567.419334917334
 20
382.1743571609169
 30
0.0
 10
567.4175200193118
 20
382.0640032170863
 30
0.0
 10
567.4159334648173
 20
381.9615890014255
 30
0.0
 10
567.4145606658078
 20
381.8662498377722
 30
0.0
 10
567.4133935795203
 20
381.7773377308943
 30
0.0
 10
567.4124429654934
 20
381.6952862214843
 30
0.0
 10
567.4117162794349
 20
381.6204266978175
 30
0.0
 10
567.4112236019134
 20
381.5536800042382
 30
0.0
 10
567.4109688676758
 20
381.4957505160472
 30
0.0
 10
567.4109464730554
 20
381.4465169040801
 30
0.0
 10
567.411147202848
 20
381.4057203379669
 30
0.0
 10
567.4115700423147
 20
381.3729599669749
 30
0.0
 10
567.4122207783269
 20
381.3480773036458
 30
0.0
 10
567.4131077176595
 20
381.3314475140169
 30
0.0
 10
567.4142354655322
 20
381.3233187672737
 30
0.0
 10
567.4155927226251
 20
381.3238480471229
 30
0.0
 10
567.4171623542915
 20
381.3329665161251
 30
0.0
 10
567.4189361843585
 20
381.3504402193964
 30
0.0
 10
567.4209029488193
 20
381.375906191455
 30
0.0
 10
567.4230751240929
 20
381.4094640468236
 30
0.0
 10
567.4254716951748
 20
381.4514634552046
 30
0.0
 10
567.4280975737682
 20
381.502178710108
 30
0.0
 10
567.4309539924296
 20
381.5617466584828
 30
0.0
 10
567.434009518832
 20
381.6295415999924
 30
0.0
 10
567.437227849682
 20
381.7047303234398
 30
0.0
 10
567.4405991213356
 20
381.7869912230564
 30
0.0
 10
567.4441112581666
 20
381.8758968066822
 30
0.0
 10
567.4477888660882
 20
381.9720352647726
 30
0.0
 10
567.4516619856731
 20
382.0762249349646
 30
0.0
 10
567.4557316152644
 20
382.188610187433
 30
0.0
 10
567.4599953310917
 20
382.3091934270999
 30
0.0
 10
567.4644056547025
 20
382.4366651801197
 30
0.0
 10
567.4689089689028
 20
382.5694083213673
 30
0.0
 10
567.4735021844805
 20
382.7074379842225
 30
0.0
 10
567.4773233340181
 20
382.8238044479965
 30
0.0
 10
567.4796642138878
 20
382.8965596647876
 30
0.0
 10
567.4804108683687
 20
382.9197658999043
 30
0.0
  0
LINE
  5
BB
330
1F
100
AcDbEntity
  8
0
  6
Continuous
 62
     7
370
    30
100
AcDbLine
 10
568.1930489524
 20
450.0738997765
 30
0.0
 11
568.1930489524
 21
421.8738997765
 31
0.0
  0
LINE
  5
BC
330
1F
100
AcDbEntity
  8
0
  6
Continuous
 62
     7
370
    30
100
AcDbLine
 10
567.4495593488
 20
383.6654250539
 30
0.0
 11
567.7136722296
 21
390.5404776761
 31
0.0
  0
SPLINE
  5
BD
330
1F
100
AcDbEntity
  8
0
  6
Continuous
 62
     7
370
    30
100
AcDbSpline
210
0.0
220
0.0
230
1.0
 70
    24
 71
     3
 72
   152
 73
   148
 74
     0
 42
0.000000001
 43
0.00000001
 40
0.0
 40
0.0
 40
0.0
 40
0.0
 40
0.0051361841426257
 40
0.0106835542530158
 40
0.0162228657767202
 40
0.0217557835877697
 40
0.0272839783367981
 40
0.0328091249588088
 40
0.0383329011615912
 40
0.0438569859015558
 40
0.0499358227889869
 40
0.0560192958829574
 40
0.0621096317856382
 40
0.0681339193249065
 40
0.07388650979293
 40
0.0824330903421249
 40
0.0909687789609752
 40
0.0994997427920503
 40
0.1080321592230084
 40
0.1165722024893221
 40
0.1251260303111094
 40
0.1342768188188388
 40
0.1434098952150173
 40
0.1525327761599777
 40
0.1616530035225847
 40
0.1673878646662506
 40
0.1731265326889964
 40
0.1788708766539967
 40
0.1846990281381824
 40
0.1907983827322153
 40
0.1998585166902961
 40
0.2089058896777585
 40
0.2179478511903877
 40
0.2269917639168097
 40
0.2360449857850794
 40
0.2451148520671563
 40
0.2502759113286159
 40
0.255429586870103
 40
0.2605772170876327
 40
0.2657201450969323
 40
0.2708597177001888
 40
0.2759972843384279
 40
0.2811341960335459
 40
0.2881987938752864
 40
0.2952682199416994
 40
0.3023459783094173
 40
0.3094355607001833
 40
0.3155848976410633
 40
0.3217238699872892
 40
0.3278547435593442
 40
0.3339797931655812
 40
0.3401013001070756
 40
0.3462215496464491
 40
0.3534361532977759
 40
0.3606559276582972
 40
0.3678846057493622
 40
0.3751259068222318
 40
0.3833590577102315
 40
0.3915749953660528
 40
0.3997791741689748
 40
0.4079770719691732
 40
0.4161741792089779
 40
0.424375987918369
 40
0.4325879806945604
 40
0.4408156197759248
 40
0.4468360776260474
 40
0.4528467888639353
 40
0.4588498807391518
 40
0.4648474886086401
 40
0.4708417536901008
 40
0.4768348207841975
 40
0.4838994185796556
 40
0.4909688444687894
 40
0.4980466024438041
 40
0.5051361841426325
 40
0.5106835542536223
 40
0.5162228657778093
 40
0.5217557835892239
 40
0.5272839783384987
 40
0.5328091249606376
 40
0.5383329011634291
 40
0.5438569859032851
 40
0.5499358227904587
 40
0.5560192958840284
 40
0.5621096317861649
 40
0.5681339193250005
 40
0.5738865097933972
 40
0.5824330903429895
 40
0.5909687789620478
 40
0.5994997427931397
 40
0.6080321592239245
 40
0.6165722024898748
 40
0.6251260303111076
 40
0.6342768188186617
 40
0.6434098952147319
 40
0.6525327761596478
 40
0.6616530035222743
 40
0.6673878646659848
 40
0.6731265326887996
 40
0.6788708766538929
 40
0.6846990281382597
 40
0.6907983827326624
 40
0.6998585166911337
 40
0.7089058896787989
 40
0.7179478511914448
 40
0.7269917639177
 40
0.7360449857856206
 40
0.7451148520671731
 40
0.7502759113288799
 40
0.7554295868705724
 40
0.7605772170882656
 40
0.7657201450976857
 40
0.7708597177010192
 40
0.7759972843392918
 40
0.7811341960343985
 40
0.7881987938760503
 40
0.7952682199422899
 40
0.8023459783097466
 40
0.8094355607001641
 40
0.8155848976414801
 40
0.8217238699880507
 40
0.8278547435603599
 40
0.8339797931667615
 40
0.8401013001083316
 40
0.8462215496476925
 40
0.8534361532988921
 40
0.8606559276591669
 40
0.8678846057498671
 40
0.8751259068222557
 40
0.8833590577119554
 40
0.8915749953689942
 40
0.899779174172648
 40
0.9079770719730902
 40
0.9161741792126513
 40
0.9243759879213103
 40
0.9325879806962823
 40
0.9408156197759429
 40
0.946836077626536
 40
0.9528467888648
 40
0.9588498807402958
 40
0.964847488609966
 40
0.9708417536915117
 40
0.9768348207855941
 40
0.9838994185809077
 40
0.9909688444697599
 40
0.998046602444354
 40
1.0
 40
1.0
 40
1.0
 40
1.0
 10
711.2650256243188
 20
378.4738997765483
 30
0.0
 10
711.265096533077
 20
378.4738997765483
 30
0.0
 10
711.2652440273148
 20
378.4738997765483
 30
0.0
 10
711.2714188595924
 20
378.4738997765483
 30
0.0
 10
711.2812190777414
 20
378.4738997765483
 30
0.0
 10
711.2952544415612
 20
378.4738997765483
 30
0.0
 10
711.3133190704064
 20
378.4738997765483
 30
0.0
 10
711.3354680424433
 20
378.4738997765483
 30
0.0
 10
711.3616866334689
 20
378.4738997765483
 30
0.0
 10
711.3929889970434
 20
378.4738997765483
 30
0.0
 10
711.4298639329027
 20
378.4738997765483
 30
0.0
 10
711.4728187424431
 20
378.4738997765483
 30
0.0
 10
711.5205049941213
 20
378.4738997765483
 30
0.0
 10
711.5720364397156
 20
378.4738997765483
 30
0.0
 10
711.6358180310945
 20
378.4738997765483
 30
0.0
 10
711.714539615901
 20
378.4738997765483
 30
0.0
 10
711.8122764224123
 20
378.4738997765483
 30
0.0
 10
711.9193385717504
 20
378.4738997765483
 30
0.0
 10
712.0357258675712
 20
378.4738997765483
 30
0.0
 10
712.1614372225503
 20
378.4738997765483
 30
0.0
 10
712.299511786042
 20
378.4738997765483
 30
0.0
 10
712.4504106776798
 20
378.4738997765483
 30
0.0
 10
712.6146728116755
 20
378.4738997765483
 30
0.0
 10
712.788803561406
 20
378.4738997765483
 30
0.0
 10
712.9500112581437
 20
378.4738997765483
 30
0.0
 10
713.0944425401877
 20
378.4738997765482
 30
0.0
 10
713.219015104895
 20
378.4738997765483
 30
0.0
 10
713.3480523961902
 20
378.4738997765483
 30
0.0
 10
713.483622480302
 20
378.4738997765483
 30
0.0
 10
713.6492512037942
 20
378.4738997765483
 30
0.0
 10
713.8470176218258
 20
378.4738997765483
 30
0.0
 10
714.0777036539808
 20
378.4738997765483
 30
0.0
 10
714.3169582497145
 20
378.4738997765483
 30
0.0
 10
714.5647807850955
 20
378.4738997765482
 30
0.0
 10
714.8211688661507
 20
378.4738997765483
 30
0.0
 10
715.047843646354
 20
378.4738997765483
 30
0.0
 10
715.2409216431299
 20
378.4738997765482
 30
0.0
 10
715.3974276751229
 20
378.4738997765482
 30
0.0
 10
715.5562084136584
 20
378.4738997765482
 30
0.0
 10
715.7172637652269
 20
378.4738997765483
 30
0.0
 10
715.8805936626127
 20
378.4738997765482
 30
0.0
 10
716.0461982972363
 20
378.4738997765482
 30
0.0
 10
716.2350668121866
 20
378.4738997765482
 30
0.0
 10
716.4483252356678
 20
378.4738997765482
 30
0.0
 10
716.6872014533176
 20
378.4738997765482
 30
0.0
 10
716.9303782956791
 20
378.4738997765482
 30
0.0
 10
717.1667408268761
 20
378.4738997765482
 30
0.0
 10
717.3953690804946
 20
378.4738997765482
 30
0.0
 10
717.6154314038246
 20
378.4738997765482
 30
0.0
 10
717.8378730236213
 20
378.4738997765482
 30
0.0
 10
718.0626935966233
 20
378.4738997765482
 30
0.0
 10
718.2898933002502
 20
378.4738997765482
 30
0.0
 10
718.5331401918343
 20
378.4738997765482
 30
0.0
 10
718.7929735603399
 20
378.4738997765482
 30
0.0
 10
719.069926315906
 20
378.4738997765482
 30
0.0
 10
719.3501834641551
 20
378.4738997765482
 30
0.0
 10
719.6464758169736
 20
378.4738997765482
 30
0.0
 10
719.9587469001913
 20
378.4738997765482
 30
0.0
 10
720.2869345380608
 20
378.4738997765482
 30
0.0
 10
720.6176683946736
 20
378.4738997765482
 30
0.0
 10
720.9509474485392
 20
378.4738997765482
 30
0.0
 10
721.2867713601954
 20
378.4738997765482
 30
0.0
 10
721.6251398682066
 20
378.4738997765482
 30
0.0
 10
721.9660516296942
 20
378.4738997765482
 30
0.0
 10
722.2785105531527
 20
378.4738997765482
 30
0.0
 10
722.5615165686793
 20
378.4738997765482
 30
0.0
 10
722.8142477244918
 20
378.4738997765482
 30
0.0
 10
723.0673701610493
 20
378.4738997765482
 30
0.0
 10
723.3208840867178
 20
378.4738997765481
 30
0.0
 10
723.5747895233474
 20
378.4738997765482
 30
0.0
 10
723.8442260155495
 20
378.4738997765482
 30
0.0
 10
724.1292983661195
 20
378.4738997765482
 30
0.0
 10
724.4300712006099
 20
378.4738997765482
 30
0.0
 10
724.731386909597
 20
378.4738997765482
 30
0.0
 10
725.0111449040742
 20
378.4738997765481
 30
0.0
 10
725.2689862615836
 20
378.4738997765482
 30
0.0
 10
725.5046096971357
 20
378.4738997765482
 30
0.0
 10
725.7397534881185
 20
378.4738997765482
 30
0.0
 10
725.9744178540604
 20
378.4738997765482
 30
0.0
 10
726.2086026314362
 20
378.4738997765482
 30
0.0
 10
726.4423078661864
 20
378.4738997765481
 30
0.0
 10
726.6833115525945
 20
378.4738997765482
 30
0.0
 10
726.9315610084913
 20
378.4738997765482
 30
0.0
 10
727.186982363827
 20
378.4738997765482
 30
0.0
 10
727.4407751516625
 20
378.4738997765482
 30
0.0
 10
727.6890216995384
 20
378.4738997765482
 30
0.0
 10
727.9702698270974
 20
378.4738997765482
 30
0.0
 10
728.2846144966327
 20
378.4738997765482
 30
0.0
 10
728.6347045541654
 20
378.4738997765482
 30
0.0
 10
728.9818470119819
 20
378.4738997765482
 30
0.0
 10
729.3260400366896
 20
378.4738997765482
 30
0.0
 10
729.6672840906755
 20
378.4738997765482
 30
0.0
 10
730.0131813173606
 20
378.4738997765482
 30
0.0
 10
730.362872902306
 20
378.4738997765482
 30
0.0
 10
730.7154197017977
 20
378.4738997765482
 30
0.0
 10
731.0627120728602
 20
378.4738997765482
 30
0.0
 10
731.362383732384
 20
378.4738997765482
 30
0.0
 10
731.6164215036117
 20
378.4738997765482
 30
0.0
 10
731.8266012925891
 20
378.4738997765482
 30
0.0
 10
732.0356265351915
 20
378.4738997765482
 30
0.0
 10
732.2465862666872
 20
378.4738997765482
 30
0.0
 10
732.4940973439446
 20
378.4738997765482
 30
0.0
 10
732.7749880095685
 20
378.4738997765482
 30
0.0
 10
733.08357718697
 20
378.4738997765482
 30
0.0
 10
733.3852791138426
 20
378.4738997765482
 30
0.0
 10
733.6800921900883
 20
378.4738997765482
 30
0.0
 10
733.9680157615143
 20
378.4738997765482
 30
0.0
 10
734.208442167062
 20
378.4738997765482
 30
0.0
 10
734.4043532673212
 20
378.4738997765483
 30
0.0
 10
734.5581278553036
 20
378.4738997765482
 30
0.0
 10
734.7091789299113
 20
378.4738997765483
 30
0.0
 10
734.8575073628735
 20
378.4738997765482
 30
0.0
 10
735.003112834489
 20
378.4738997765483
 30
0.0
 10
735.1459955426744
 20
378.4738997765482
 30
0.0
 10
735.3036790785943
 20
378.4738997765483
 30
0.0
 10
735.4748629274274
 20
378.4738997765482
 30
0.0
 10
735.6580080847908
 20
378.4738997765482
 30
0.0
 10
735.8360043440282
 20
378.4738997765483
 30
0.0
 10
736.0010851765504
 20
378.4738997765482
 30
0.0
 10
736.153860871453
 20
378.4738997765483
 30
0.0
 10
736.2948845128352
 20
378.4738997765483
 30
0.0
 10
736.431466912594
 20
378.4738997765483
 30
0.0
 10
736.5636086528972
 20
378.4738997765483
 30
0.0
 10
736.6913095818761
 20
378.4738997765483
 30
0.0
 10
736.8219081481752
 20
378.4738997765482
 30
0.0
 10
736.9544406870551
 20
378.4738997765483
 30
0.0
 10
737.0878499182471
 20
378.4738997765483
 30
0.0
 10
737.2150902036545
 20
378.4738997765483
 30
0.0
 10
737.3415940110145
 20
378.4738997765483
 30
0.0
 10
737.4661290403412
 20
378.4738997765483
 30
0.0
 10
737.587326107979
 20
378.4738997765483
 30
0.0
 10
737.6998495631822
 20
378.4738997765483
 30
0.0
 10
737.8036998569022
 20
378.4738997765483
 30
0.0
 10
737.8988766865599
 20
378.4738997765483
 30
0.0
 10
737.985379842989
 20
378.4738997765483
 30
0.0
 10
738.063209773995
 20
378.4738997765483
 30
0.0
 10
738.1261228951017
 20
378.4738997765483
 30
0.0
 10
738.1766096926902
 20
378.4738997765483
 30
0.0
 10
738.2168135486695
 20
378.4738997765483
 30
0.0
 10
738.2522039093614
 20
378.4738997765483
 30
0.0
 10
738.2827787072887
 20
378.4738997765483
 30
0.0
 10
738.3085475050995
 20
378.4738997765483
 30
0.0
 10
738.3307199298728
 20
378.4738997765483
 30
0.0
 10
738.3484015704669
 20
378.4738997765483
 30
0.0
 10
738.3598201666289
 20
378.4738997765483
 30
0.0
 10
738.3648613174694
 20
378.4738997765483
 30
0.0
 10
738.363935101442
 20
378.4738997765483
 30
0.0
 10
738.3637347651598
 20
378.4738997765483
 30
0.0
  0
LINE
  5
BE
330
1F
100
AcDbEntity
  8
0
  6
Continuous
 62
     7
370
    30
100
AcDbLine
 10
711.2143801947
 20
385.9738997765
 30
0.0
 11
738.4143801947
 21
385.9738997765
 31
0.0
  0
SPLINE
  5
BF
330
1F
100
AcDbEntity
  8
0
  6
Continuous
 62
     7
370
    30
100
AcDbSpline
210
0.0
220
0.0
230
1.0
 70
     8
 71
     3
 72
    64
 73
    60
 74
     0
 42
0.000000001
 43
0.00000001
 40
0.0
 40
0.0
 40
0.0
 40
0.0
 40
0.0029133062583503
 40
0.0197094305531266
 40
0.0349327058658297
 40
0.0501678249324803
 40
0.0653914119464038
 40
0.0810477058887749
 40
0.096716394250421
 40
0.112373310682992
 40
0.1278022133958585
 40
0.1432421785119171
 40
0.1586717746361823
 40
0.1744900351900842
 40
0.1903192430883737
 40
0.2061382373824922
 40
0.2227256450700963
 40
0.2393245927137643
 40
0.2559127340430191
 40
0.272906795471213
 40
0.2899122740312028
 40
0.3069069254258115
 40
0.3249724025391586
 40
0.3430507148999918
 40
0.3611166763227465
 40
0.3796477935896405
 40
0.3981921275443584
 40
0.4167235398403875
 40
0.4358879881277989
 40
0.4550666669126466
 40
0.4742312551588156
 40
0.4939276969591652
 40
0.5136394183532436
 40
0.5333358500130378
 40
0.5529218192016465
 40
0.5725228465218305
 40
0.5921086365826329
 40
0.6122715662676237
 40
0.6324512111513041
 40
0.6526136666352914
 40
0.672034967486793
 40
0.691471793539658
 40
0.7108923469368098
 40
0.7309326826974396
 40
0.750991212204025
 40
0.771030219268797
 40
0.7895221766846532
 40
0.8080298237687776
 40
0.8265204905601626
 40
0.8456593115011707
 40
0.8648174452184687
 40
0.8839546211754746
 40
0.9007809778968805
 40
0.9176218761976528
 40
0.9344473929337366
 40
0.951855971181881
 40
0.96928182600763
 40
0.986689908240474
 40
1.0
 40
1.0
 40
1.0
 40
1.0
 10
579.3150181020469
 20
421.9740081238332
 30
0.0
 10
579.3148224334157
 20
421.9739755419703
 30
0.0
 10
579.3134986737566
 20
421.9737551154487
 30
0.0
 10
579.319127036622
 20
421.9746898544462
 30
0.0
 10
579.3317175177059
 20
421.9767849763413
 30
0.0
 10
579.3515337344384
 20
421.9800598279028
 30
0.0
 10
579.378291083181
 20
421.9844444490047
 30
0.0
 10
579.4123914077728
 20
421.9899793051459
 30
0.0
 10
579.453758530979
 20
421.996602028732
 30
0.0
 10
579.50166605698
 20
422.0041487693889
 30
0.0
 10
579.5558363318492
 20
422.0125273932747
 30
0.0
 10
579.6158742587206
 20
422.0216169647467
 30
0.0
 10
579.6823597005108
 20
422.0314427278172
 30
0.0
 10
579.7552530497402
 20
422.0419245575334
 30
0.0
 10
579.8343966162824
 20
422.0529566390409
 30
0.0
 10
579.9202738863836
 20
422.0645215350345
 30
0.0
 10
580.0129296391038
 20
422.0765173710569
 30
0.0
 10
580.1122874975995
 20
422.0888209352796
 30
0.0
 10
580.2174162520943
 20
422.1012138125661
 30
0.0
 10
580.3281502880131
 20
422.1135589481733
 30
0.0
 10
580.4442391672318
 20
422.1257216108636
 30
0.0
 10
580.5669729286948
 20
422.1377226716074
 30
0.0
 10
580.6963237698629
 20
422.1493904433555
 30
0.0
 10
580.8321385000277
 20
422.1605559367469
 30
0.0
 10
580.9726036162609
 20
422.1709470456918
 30
0.0
 10
581.1174331556932
 20
422.1804005599673
 30
0.0
 10
581.2662631608722
 20
422.1887913936857
 30
0.0
 10
581.4191659787642
 20
422.1960249080824
 30
0.0
 10
581.5758093120503
 20
422.2019409754877
 30
0.0
 10
581.735776392731
 20
422.2064351372421
 30
0.0
 10
581.8983438600143
 20
422.2094146818834
 30
0.0
 10
582.0630682376243
 20
422.2107619940538
 30
0.0
 10
582.2294441399066
 20
422.2104367893917
 30
0.0
 10
582.3951568479504
 20
422.2084348949593
 30
0.0
 10
582.5596882911598
 20
422.2047624764095
 30
0.0
 10
582.7225453262178
 20
422.1995081768134
 30
0.0
 10
582.8851157383787
 20
422.1926654276605
 30
0.0
 10
583.0467971788083
 20
422.1842430952066
 30
0.0
 10
583.2069639628
 20
422.1743371286532
 30
0.0
 10
583.3615931605096
 20
422.1633007127231
 30
0.0
 10
583.5102632041503
 20
422.1513159668414
 30
0.0
 10
583.6526842659108
 20
422.1386068592276
 30
0.0
 10
583.7916821389811
 20
422.1250470140249
 30
0.0
 10
583.9265006600872
 20
422.1107847611287
 30
0.0
 10
584.0564009615695
 20
422.0960267898795
 30
0.0
 10
584.17624606169
 20
422.0815233557954
 30
0.0
 10
584.2860345456301
 20
422.0674961292154
 30
0.0
 10
584.3860175778975
 20
422.05412264039
 30
0.0
 10
584.4798004243778
 20
422.0410552407023
 30
0.0
 10
584.5665270425989
 20
422.0285180451247
 30
0.0
 10
584.6454578738798
 20
422.016730260325
 30
0.0
 10
584.7123343121245
 20
422.0064562877936
 30
0.0
 10
584.7679149318983
 20
421.9977303563785
 30
0.0
 10
584.8132918905443
 20
421.9904778953883
 30
0.0
 10
584.8510633897739
 20
421.9843492769235
 30
0.0
 10
584.8806520896404
 20
421.9794978213515
 30
0.0
 10
584.901344176032
 20
421.9760730681029
 30
0.0
 10
584.9127898030831
 20
421.9741639894422
 30
0.0
 10
584.9135884482855
 20
421.9740323456955
 30
0.0
 10
584.913934498833
 20
421.9739753048588
 30
0.0
  0
ARC
  5
C0
330
1F
100
AcDbEntity
  8
0
  6
Continuous
 62
     7
370
    30
100
AcDbCircle
 10
215.2544107175
 20
520.474071114
 30
0.0
 40
0.5
100
AcDbArc
 50
0.0
 51
91.5
  0
LINE
  5
C1
330
1F
100
AcDbEntity
  8
0
  6
Continuous
 62
     7
370
    30
100
AcDbLine
 10
215.2413222434
 20
520.9738997762
 30
0.0
 11
205.5142737865
 21
520.7191880485
 31
0.0
  0
LINE
  5
C2
330
1F
100
AcDbEntity
  8
0
  6
Continuous
 62
     7
370
    30
100
AcDbLine
 10
205.5142737865
 20
351.2286115046
 30
0.0
 11
213.2544107175
 21
351.0259288863
 31
0.0
  0
ARC
  5
C3
330
1F
100
AcDbEntity
  8
0
  6
Continuous
 62
     7
370
    30
100
AcDbCircle
 10
205.5666276831
 20
518.7198733798
 30
0.0
 40
1.999999999999986
100
AcDbArc
 50
91.4999999859
 51
177.4907349552
  0
ARC
  5
C4
330
1F
100
AcDbEntity
  8
0
  6
Continuous
 62
     7
370
    30
100
AcDbCircle
 10
205.5666276831
 20
353.2279261358
 30
0.0
 40
1.999999999999989
100
AcDbArc
 50
182.5092650448
 51
268.5000000141
  0
ARC
  5
C5
330
1F
100
AcDbEntity
  8
0
  6
Continuous
 62
     7
370
    30
100
AcDbCircle
 10
2093.7544106775
 20
435.9738997578
 30
0.0
 40
1892.0
100
AcDbArc
 50
180.4269968123
 51
181.3759704848
  0
ARC
  5
C6
330
1F
100
AcDbEntity
  8
0
  6
Continuous
 62
     7
370
    30
100
AcDbCircle
 10
2093.7544106775
 20
435.9738997578
 30
0.0
 40
1892.0
100
AcDbArc
 50
181.6030404391
 51
182.5092650448
  0
ARC
  5
C7
330
1F
100
AcDbEntity
  8
0
  6
Continuous
 62
     7
370
    30
100
AcDbCircle
 10
2093.7544106775
 20
435.9738997578
 30
0.0
 40
1892.00000000007
100
AcDbArc
 50
177.4907349552
 51
179.5730031872
  0
LINE
  5
C8
330
1F
100
AcDbEntity
  8
0
  6
Continuous
 62
     7
370
    30
100
AcDbLine
 10
202.352434944
 20
390.5453322835
 30
0.0
 11
202.2863277704
 21
390.5404776761
 31
0.0
  0
SPLINE
  5
C9
330
1F
100
AcDbEntity
  8
0
  6
Continuous
 62
     7
370
    30
100
AcDbSpline
210
0.0
220
0.0
230
1.0
 70
     8
 71
     3
 72
    39
 73
    35
 74
     0
 42
0.000000001
 43
0.00000001
 40
0.0
 40
0.0
 40
0.0
 40
0.0
 40
0.0221403528360507
 40
0.0422069290247612
 40
0.0609490285999719
 40
0.079113996941084
 40
0.0974208446399938
 40
0.1161470533528244
 40
0.1352023794866344
 40
0.1884866709551737
 40
0.2422292425347526
 40
0.3068436858626806
 40
0.3724071552809398
 40
0.4392625362460467
 40
0.4905266205493869
 40
0.5430754135296905
 40
0.5972567853125105
 40
0.6533707106182349
 40
0.6828553579645829
 40
0.7113355014156048
 40
0.737968195388249
 40
0.7626806960341468
 40
0.7863297943740064
 40
0.8098283909573342
 40
0.8307816877567084
 40
0.8527604303917393
 40
0.8762169570864088
 40
0.9016083569344654
 40
0.9292112480893391
 40
0.9434528523851672
 40
0.9580482120482583
 40
0.972923977915934
 40
0.9880066856446729
 40
1.0
 40
1.0
 40
1.0
 40
1.0
 10
201.9006892216222
 20
385.9863836009097
 30
0.0
 10
201.901917392096
 20
385.9602740803266
 30
0.0
 10
201.9042586964287
 20
385.9105005879942
 30
0.0
 10
201.9090185770438
 20
385.8387004214744
 30
0.0
 10
201.9144330358543
 20
385.7716563768291
 30
0.0
 10
201.9205489775878
 20
385.7067595448609
 30
0.0
 10
201.9271966041033
 20
385.6419349091746
 30
0.0
 10
201.9343643354825
 20
385.5761080930651
 30
0.0
 10
201.9467564751985
 20
385.4693161271859
 30
0.0
 10
201.9660089219138
 20
385.3217055572461
 30
0.0
 10
201.9970195344114
 20
385.121441630774
 30
0.0
 10
202.0358616456508
 20
384.9077863109314
 30
0.0
 10
202.0836508427101
 20
384.6801144478217
 30
0.0
 10
202.1331325079013
 20
384.4689722944542
 30
0.0
 10
202.1820806577594
 20
384.2735213427204
 30
0.0
 10
202.2293570311946
 20
384.0930884953499
 30
0.0
 10
202.2794665887109
 20
383.9074873693425
 30
0.0
 10
202.3226293780727
 20
383.748214599706
 30
0.0
 10
202.3574958091196
 20
383.6181299894791
 30
0.0
 10
202.3830620782715
 20
383.5215857213008
 30
0.0
 10
202.4067604602228
 20
383.4303755097438
 30
0.0
 10
202.4284205342896
 20
383.3445302149551
 30
0.0
 10
202.4484340567055
 20
383.2620885011602
 30
0.0
 10
202.4666065813545
 20
383.1837710944318
 30
0.0
 10
202.483617606832
 20
383.107211793399
 30
0.0
 10
202.4995484429251
 20
383.0304692286077
 30
0.0
 10
202.515089749145
 20
382.9483064588036
 30
0.0
 10
202.5300938356298
 20
382.859301606083
 30
0.0
 10
202.5417050243111
 20
382.7807751211786
 30
0.0
 10
202.5507004036193
 20
382.7147545650283
 30
0.0
 10
202.5573091991734
 20
382.6635737857843
 30
0.0
 10
202.5637016414547
 20
382.6113652648811
 30
0.0
 10
202.5694579160254
 20
382.5621741367995
 30
0.0
 10
202.5729474846427
 20
382.5304004234433
 30
0.0
 10
202.574493187821
 20
382.5163262684093
 30
0.0
  0
SPLINE
  5
CA
330
1F
100
AcDbEntity
  8
0
  6
Continuous
 62
     7
370
    30
100
AcDbSpline
210
0.0
220
0.0
230
1.0
 70
     8
 71
     3
 72
    54
 73
    50
 74
     0
 42
0.000000001
 43
0.00000001
 40
0.0
 40
0.0
 40
0.0
 40
0.0
 40
0.0227694211940683
 40
0.0436616216821759
 40
0.0627814146341619
 40
0.0802336185724859
 40
0.0961230584410302
 40
0.1105545668250231
 40
0.1236329852872949
 40
0.1354631657323699
 40
0.148725950814985
 40
0.1603901076880773
 40
0.1706640353056564
 40
0.1797561518942696
 40
0.1878748721259078
 40
0.2005794240216004
 40
0.2120329062394535
 40
0.2232490992612056
 40
0.2344311753236955
 40
0.2455304010102493
 40
0.2564980027730078
 40
0.2815493654597069
 40
0.304962480380443
 40
0.3241247052946506
 40
0.3418634761211216
 40
0.3585131667157275
 40
0.37440472858166
 40
0.3941598057367902
 40
0.4141266333119946
 40
0.4352147171655882
 40
0.4581510709850791
 40
0.4825180342021824
 40
0.5151519442960127
 40
0.547162553334357
 40
0.5783319441513642
 40
0.6322996364791752
 40
0.6846230490652645
 40
0.7357706289075818
 40
0.7860526400211014
 40
0.8357024987665086
 40
0.8848906194487833
 40
0.899222164058907
 40
0.9133719486042631
 40
0.927269680294513
 40
0.9408653822519936
 40
0.9544227288701534
 40
0.9684518613241316
 40
0.9834710911115428
 40
1.0
 40
1.0
 40
1.0
 40
1.0
 10
202.2863277704257
 20
390.540477676148
 30
0.0
 10
202.287650262094
 20
390.5057062278913
 30
0.0
 10
202.2901862128504
 20
390.4390300569784
 30
0.0
 10
202.2937047262
 20
390.3431510255876
 30
0.0
 10
202.2968202261002
 20
390.255388598018
 30
0.0
 10
202.2995466064756
 20
390.1752625465151
 30
0.0
 10
202.3019067077107
 20
390.1022929852996
 30
0.0
 10
202.3039212391829
 20
390.0359999480418
 30
0.0
 10
202.3056114285394
 20
389.9759034824602
 30
0.0
 10
202.3070985301168
 20
389.9175882652037
 30
0.0
 10
202.3083416104021
 20
389.8614290496325
 30
0.0
 10
202.3092891991161
 20
389.8076426610955
 30
0.0
 10
202.3098728117234
 20
389.7602251620127
 30
0.0
 10
202.3101329002909
 20
389.7182230091849
 30
0.0
 10
202.3101064552453
 20
389.6725055498964
 30
0.0
 10
202.3095965923923
 20
389.6231808632538
 30
0.0
 10
202.3083944715335
 20
389.5691341357125
 30
0.0
 10
202.3069613757849
 20
389.5174210782839
 30
0.0
 10
202.3052917980912
 20
389.4662566827913
 30
0.0
 10
202.3033649081582
 20
389.4154814641544
 30
0.0
 10
202.3002328262918
 20
389.3435425952899
 30
0.0
 10
202.295391306732
 20
389.2528432031812
 30
0.0
 10
202.2881392276658
 20
389.149742654073
 30
0.0
 10
202.2797136697191
 20
389.0579492030452
 30
0.0
 10
202.2706484819465
 20
388.976611158658
 30
0.0
 10
202.2608158037999
 20
388.9004009444046
 30
0.0
 10
202.2495108701391
 20
388.8212830407567
 30
0.0
 10
202.2366707191215
 20
388.7372675602708
 30
0.0
 10
202.2216185577177
 20
388.6455621520815
 30
0.0
 10
202.2048625284962
 20
388.5492147928498
 30
0.0
 10
202.1862374136743
 20
388.4463703536172
 30
0.0
 10
202.1639497002764
 20
388.3262591567005
 30
0.0
 10
202.1387189957688
 20
388.1925906635361
 30
0.0
 10
202.111373362434
 20
388.0487424799459
 30
0.0
 10
202.0782254371248
 20
387.8728110408046
 30
0.0
 10
202.040888019302
 20
387.6660807107392
 30
0.0
 10
202.0017559120314
 20
387.4286719197162
 30
0.0
 10
201.9681704224444
 20
387.1960961610815
 30
0.0
 10
201.941014226252
 20
386.9667881434725
 30
0.0
 10
201.9205287219484
 20
386.7397927703852
 30
0.0
 10
201.9099410019572
 20
386.5671446053405
 30
0.0
 10
201.9047090183097
 20
386.4485638865319
 30
0.0
 10
201.9023053913519
 20
386.3838435505318
 30
0.0
 10
201.9003751704645
 20
386.3202326192383
 30
0.0
 10
201.8988452949348
 20
386.2575164178821
 30
0.0
 10
201.8978574828183
 20
386.1945875258855
 30
0.0
 10
201.8976945624515
 20
386.1294752733997
 30
0.0
 10
201.8984912693684
 20
386.0598241650057
 30
0.0
 10
201.8999335647258
 20
386.011632497299
 30
0.0
 10
201.9006892216221
 20
385.9863836009096
 30
0.0
  0
ARC
  5
CB
330
1F
100
AcDbEntity
  8
0
  6
Continuous
 62
     7
370
    30
100
AcDbCircle
 10
31.6356198053
 20
385.7738997765
 30
0.0
 40
0.2000000000000064
100
AcDbArc
 50
90.0
 51
180.0
  0
ARC
  5
CC
330
1F
100
AcDbEntity
  8
0
  6
Continuous
 62
     7
370
    30
100
AcDbCircle
 10
58.7356198053
 20
385.7738997765
 30
0.0
 40
0.1999999999999815
100
AcDbArc
 50
0.0
 51
90.0
  0
ARC
  5
CD
330
1F
100
AcDbEntity
  8
0
  6
Continuous
 62
     7
370
    30
100
AcDbCircle
 10
58.7356198053
 20
378.6738997765
 30
0.0
 40
0.2000000000000455
100
AcDbArc
 50
270.0
 51
0.0
  0
ARC
  5
CE
330
1F
100
AcDbEntity
  8
0
  6
Continuous
 62
     7
370
    30
100
AcDbCircle
 10
31.6356198053
 20
378.6738997765
 30
0.0
 40
0.2000000000000455
100
AcDbArc
 50
180.0
 51
270.0
  0
LINE
  5
CF
330
1F
100
AcDbEntity
  8
0
  6
Continuous
 62
     7
370
    30
100
AcDbLine
 10
31.4356198053
 20
385.7738997765
 30
0.0
 11
31.4356198053
 21
378.6738997765
 31
0.0
  0
LINE
  5
D0
330
1F
100
AcDbEntity
  8
0
  6
Continuous
 62
     7
370
    30
100
AcDbLine
 10
58.9356198053
 20
378.6738997765
 30
0.0
 11
58.9356198053
 21
385.7738997765
 31
0.0
  0
ARC
  5
D1
330
1F
100
AcDbEntity
  8
0
  6
Continuous
 62
     7
370
    30
100
AcDbCircle
 10
31.5856198053
 20
386.3738997765
 30
0.0
 40
0.4000000000000128
100
AcDbArc
 50
180.0
 51
270.0
  0
ARC
  5
D2
330
1F
100
AcDbEntity
  8
0
  6
Continuous
 62
     7
370
    30
100
AcDbCircle
 10
58.7856198053
 20
386.3738997765
 30
0.0
 40
0.4000000000000128
100
AcDbArc
 50
270.0
 51
0.0
  0
LINE
  5
D3
330
1F
100
AcDbEntity
  8
0
  6
Continuous
 62
     7
370
    30
100
AcDbLine
 10
59.1856198053
 20
386.3738997765
 30
0.0
 11
59.1856198053
 21
394.9738997765
 31
0.0
  0
LINE
  5
D4
330
1F
100
AcDbEntity
  8
0
  6
Continuous
 62
     7
370
    30
100
AcDbLine
 10
31.1856198053
 20
394.9738997765
 30
0.0
 11
31.1856198053
 21
386.3738997765
 31
0.0
  0
ARC
  5
D5
330
1F
100
AcDbEntity
  8
0
  6
Continuous
 62
     7
370
    30
100
AcDbCircle
 10
86.1856198053
 20
394.9738997765
 30
0.0
 40
55.00000000000006
100
AcDbArc
 50
90.0
 51
180.0
  0
ARC
  5
D6
330
1F
100
AcDbEntity
  8
0
  6
Continuous
 62
     7
370
    30
100
AcDbCircle
 10
86.1856198053
 20
394.9738997765
 30
0.0
 40
27.0
100
AcDbArc
 50
90.0
 51
180.0
  0
LINE
  5
D7
330
1F
100
AcDbEntity
  8
0
  6
Continuous
 62
     7
370
    30
100
AcDbLine
 10
201.8069510476
 20
449.9738997765
 30
0.0
 11
86.1856198053
 21
449.9738997765
 31
0.0
  0
LINE
  5
D8
330
1F
100
AcDbEntity
  8
0
  6
Continuous
 62
     7
370
    30
100
AcDbLine
 10
190.6850157145
 20
421.9738997765
 30
0.0
 11
201.8069510476
 21
421.9738997765
 31
0.0
  0
LINE
  5
D9
330
1F
100
AcDbEntity
  8
0
  6
Continuous
 62
     7
370
    30
100
AcDbLine
 10
86.1856198053
 20
421.9738997765
 30
0.0
 11
185.0858845374
 21
421.9738997765
 31
0.0
  0
LINE
  5
DA
330
1F
100
AcDbEntity
  8
0
  6
Continuous
 62
     7
370
    30
100
AcDbLine
 10
215.7544107175
 20
520.474071114
 30
0.0
 11
215.7544107175
 21
351.6870149364
 31
0.0
  0
SPLINE
  5
DB
330
1F
100
AcDbEntity
  8
0
  6
Continuous
 62
     7
370
    30
100
AcDbSpline
210
0.0
220
0.0
230
1.0
 70
     8
 71
     3
 72
    25
 73
    21
 74
     0
 42
0.000000001
 43
0.00000001
 40
0.0
 40
0.0
 40
0.0
 40
0.0
 40
0.0520294190705223
 40
0.1044212201646923
 40
0.1579544619607949
 40
0.2118814430908411
 40
0.2639105989963017
 40
0.3163001471237106
 40
0.3698255957123227
 40
0.4237432872232142
 40
0.4758489961603229
 40
0.5283163901258747
 40
0.5819251962778033
 40
0.6359287715361017
 40
0.6880184159316051
 40
0.740470893809277
 40
0.7940696277293855
 40
0.8480652919373309
 40
0.9234702429799069
 40
1.0
 40
1.0
 40
1.0
 40
1.0
 10
215.7544107175377
 20
351.6870149363651
 30
0.0
 10
215.7540778231822
 20
351.673124562415
 30
0.0
 10
215.7534097158803
 20
351.645247068829
 30
0.0
 10
215.7479663134791
 20
351.6033689475681
 30
0.0
 10
215.7391640935791
 20
351.561584314174
 30
0.0
 10
215.7267877660999
 20
351.5208019613437
 30
0.0
 10
215.7111595823221
 20
351.4814945380269
 30
0.0
 10
215.6923724134921
 20
351.4437158370701
 30
0.0
 10
215.6702176761412
 20
351.4072198371437
 30
0.0
 10
215.6450788771109
 20
351.3728093735564
 30
0.0
 10
215.6173251996542
 20
351.3408561014748
 30
0.0
 10
215.5870763414152
 20
351.3113774744595
 30
0.0
 10
215.5540618472964
 20
351.2842321392306
 30
0.0
 10
215.5189324937382
 20
351.2600699547642
 30
0.0
 10
215.4821647611059
 20
351.2391145582022
 30
0.0
 10
215.4438814152384
 20
351.2213451186228
 30
0.0
 10
215.4037540197332
 20
351.2066789655392
 30
0.0
 10
215.3566133553523
 20
351.1940067142034
 30
0.0
 10
215.3022846295922
 20
351.184811912288
 30
0.0
 10
215.2617430847677
 20
351.1842921632195
 30
0.0
 10
215.2413222433799
 20
351.1840303647772
 30
0.0
  0
SPLINE
  5
DC
330
1F
100
AcDbEntity
  8
0
  6
Continuous
 62
     7
370
    30
100
AcDbSpline
210
0.0
220
0.0
230
1.0
 70
     8
 71
     3
 72
    25
 73
    21
 74
     0
 42
0.000000001
 43
0.00000001
 40
0.0
 40
0.0
 40
0.0
 40
0.0
 40
0.0552765880480468
 40
0.1107507068123926
 40
0.1662247223560867
 40
0.221501169145661
 40
0.2767772845462462
 40
0.3322508343018539
 40
0.3877246125796062
 40
0.4430010407141003
 40
0.4982937397471682
 40
0.55378336035814
 40
0.6092733668651847
 40
0.664566593993593
 40
0.7199588434567105
 40
0.7755482436755735
 40
0.8311379746791744
 40
0.8865306768173261
 40
0.9432653183310096
 40
1.0
 40
1.0
 40
1.0
 40
1.0
 10
214.2020747612934
 20
351.2074910125746
 30
0.0
 10
214.1741617037239
 20
351.2080726618326
 30
0.0
 10
214.1182358413599
 20
351.2092380388705
 30
0.0
 10
214.0353577062341
 20
351.210338110774
 30
0.0
 10
213.9539765358279
 20
351.2109662800302
 30
0.0
 10
213.8747991221668
 20
351.2110703211254
 30
0.0
 10
213.7983714428484
 20
351.2106526096813
 30
0.0
 10
213.725078490316
 20
351.2097370252926
 30
0.0
 10
213.655484246353
 20
351.208344855592
 30
0.0
 10
213.5901750163337
 20
351.206492301235
 30
0.0
 10
213.5296788320536
 20
351.204188190486
 30
0.0
 10
213.4742232848108
 20
351.2014701332783
 30
0.0
 10
213.4242175749684
 20
351.1983732926194
 30
0.0
 10
213.3800805637133
 20
351.1949277191969
 30
0.0
 10
213.3422596363314
 20
351.1911554025418
 30
0.0
 10
213.3108291141525
 20
351.1870948172781
 30
0.0
 10
213.2859574093697
 20
351.1827900631411
 30
0.0
 10
213.2679506323682
 20
351.1782414181305
 30
0.0
 10
213.2565643404717
 20
351.1734889786926
 30
0.0
 10
213.2551285920183
 20
351.170181192507
 30
0.0
 10
213.2544107175376
 20
351.1685272988288
 30
0.0
  0
LINE
  5
DD
330
1F
100
AcDbEntity
  8
0
  6
Continuous
 62
     7
370
    30
100
AcDbLine
 10
213.2544107175
 20
351.0259288863
 30
0.0
 11
213.2544107175
 21
351.1685272987
 31
0.0
  0
LWPOLYLINE
  5
DE
330
1F
100
AcDbEntity
  8
0
  6
Continuous
 62
     7
370
    30
100
AcDbPolyline
 90
        9
 70
   128
 43
0.0
 10
215.2413222434
 20
351.1840303648
 10
215.1114162799
 20
351.1869616939
 10
214.9815103246
 20
351.1898933807
 10
214.8516043772
 20
351.1928254252
 10
214.7216984379
 20
351.1957578275
 10
214.5917925067
 20
351.1986905874
 10
214.4618865835
 20
351.2016237051
 10
214.3319806684
 20
351.2045571805
 10
214.2020747613
 20
351.2074910126
  0
SPLINE
  5
DF
330
1F
100
AcDbEntity
  8
0
  6
Continuous
 62
     7
370
    30
100
AcDbSpline
210
0.0
220
0.0
230
1.0
 70
     8
 71
     3
 72
    34
 73
    30
 74
     0
 42
0.000000001
 43
0.00000001
 40
0.0
 40
0.0
 40
0.0
 40
0.0
 40
0.0370234533018362
 40
0.074096048398372
 40
0.1111851314231811
 40
0.1482577115188867
 40
0.1852811522226868
 40
0.2218622066081746
 40
0.2584748742339712
 40
0.2950875365730532
 40
0.3316685837431555
 40
0.3693111877143364
 40
0.4069882545753932
 40
0.4446653160105473
 40
0.4823079125759976
 40
0.5188851109772399
 40
0.5554939339811968
 40
0.5921027531389186
 40
0.6286799462907597
 40
0.6663190385588237
 40
0.703992602839709
 40
0.7416661644083321
 40
0.7793052529744688
 40
0.8158873002403294
 40
0.8525009958400733
 40
0.8891146907205384
 40
0.9256967370047154
 40
0.9633413942628702
 40
1.0
 40
1.0
 40
1.0
 40
1.0
 10
202.3939660170031
 20
389.4159664594205
 30
0.0
 10
202.3924202802145
 20
389.4626804216893
 30
0.0
 10
202.3893267549571
 20
389.5561703503821
 30
0.0
 10
202.3848410314464
 20
389.6886963052978
 30
0.0
 10
202.3804770021574
 20
389.8153404663211
 30
0.0
 10
202.3762568581181
 20
389.9352263355105
 30
0.0
 10
202.3722025616734
 20
390.0477937214079
 30
0.0
 10
202.3683192524612
 20
390.1529023719156
 30
0.0
 10
202.36460803965
 20
390.2505936123593
 30
0.0
 10
202.3610606366887
 20
390.3410989814543
 30
0.0
 10
202.3576517673682
 20
390.425029583061
 30
0.0
 10
202.3543935531285
 20
390.5019545621412
 30
0.0
 10
202.3512959345428
 20
390.5715481772771
 30
0.0
 10
202.3483959846165
 20
390.6329497962319
 30
0.0
 10
202.3457256944001
 20
390.68551141121
 30
0.0
 10
202.3432839122743
 20
390.7293669641471
 30
0.0
 10
202.3410658224579
 20
390.7647876169843
 30
0.0
 10
202.3390520420045
 20
390.7921380658019
 30
0.0
 10
202.3372295189199
 20
390.8115346035694
 30
0.0
 10
202.335609623856
 20
390.8226090292373
 30
0.0
 10
202.3342006753242
 20
390.8251212477163
 30
0.0
 10
202.3330205547448
 20
390.8189789464462
 30
0.0
 10
202.3320811511499
 20
390.8043143983076
 30
0.0
 10
202.3313778781871
 20
390.7813752601796
 30
0.0
 10
202.3309029826693
 20
390.7505180086835
 30
0.0
 10
202.3306487465722
 20
390.711654701602
 30
0.0
 10
202.330621670031
 20
390.6641903420866
 30
0.0
 10
202.3308069675649
 20
390.609147157898
 30
0.0
 10
202.3311275826503
 20
390.5653748804463
 30
0.0
 10
202.33128576281
 20
390.5437791846903
 30
0.0
  0
LWPOLYLINE
  5
E0
330
1F
100
AcDbEntity
  8
0
  6
Continuous
 62
     7
370
    30
100
AcDbPolyline
 90
       78
 70
   128
 43
0.0
 10
202.5195863239
 20
382.9198063102
 10
202.5231040159
 20
382.8111374175
 10
202.5278645069
 20
382.6664687819
 10
202.53250093
 20
382.5280160512
 10
202.5370004168
 20
382.3961670161
 10
202.5412361215
 20
382.2745365805
 10
202.5453350252
 20
382.1593580663
 10
202.5492867162
 20
382.0509207648
 10
202.553080783
 20
381.9495139675
 10
202.5568163799
 20
381.852620611
 10
202.5603781447
 20
381.7633545179
 10
202.5637565678
 20
381.6819496738
 10
202.5669421397
 20
381.6086400644
 10
202.5698492746
 20
381.5452520584
 10
202.5725690631
 20
381.4896250891
 10
202.5750947156
 20
381.4418930873
 10
202.5774194424
 20
381.4021899838
 10
202.5795990886
 20
381.3697792782
 10
202.5815618177
 20
381.3459375053
 10
202.5833025516
 20
381.330718406
 10
202.5848162119
 20
381.3241757213
 10
202.5860676947
 20
381.326162244
 10
202.5871023136
 20
381.3363474746
 10
202.5879176718
 20
381.3546946318
 10
202.5885113726
 20
381.3811669348
 10
202.5888896364
 20
381.4168928258
 10
202.5890322729
 20
381.4611661977
 10
202.5889392139
 20
381.5138542366
 10
202.5886103914
 20
381.5748241286
 10
202.5880643861
 20
381.6419983565
 10
202.587296391
 20
381.716886182
 10
202.5863086821
 20
381.7992839268
 10
202.5851035351
 20
381.8889879127
 10
202.5836367694
 20
381.9888672246
 10
202.5819421975
 20
382.0963096062
 10
202.5800247759
 20
382.2110104551
 10
202.577889461
 20
382.3326651686
 10
202.5756060498
 20
382.4575075548
 10
202.5731205858
 20
382.5887068747
 10
202.5704397655
 20
382.7259154156
 10
202.5675702855
 20
382.868785465
 10
202.5644224836
 20
383.0216050377
 10
202.5610804286
 20
383.1801483709
 10
202.5575535432
 20
383.3439734473
 10
202.5538512501
 20
383.5126382494
 10
202.5500870537
 20
383.6810936595
 10
202.5461636189
 20
383.8538290618
 10
202.5420913034
 20
384.0303921377
 10
202.5378804648
 20
384.2103305688
 10
202.5334060797
 20
384.39886679
 10
202.5287929821
 20
384.5906390953
 10
202.5240539924
 20
384.7851181281
 10
202.5192019313
 20
384.981774532
 10
202.5143819686
 20
385.174818113
 10
202.5094636047
 20
385.3695803205
 10
202.5044596808
 20
385.5655555658
 10
202.4993830382
 20
385.7622382602
 10
202.4940874614
 20
385.965193582
 10
202.4887243961
 20
386.1685314507
 10
202.483308608
 20
386.3716950752
 10
202.4778548625
 20
386.5741276646
 10
202.4725238192
 20
386.7699496168
 10
202.46716628
 20
386.9647365464
 10
202.4617961178
 20
387.1579866599
 10
202.4564272057
 20
387.3491981637
 10
202.4509086669
 20
387.543650301
 10
202.445401435
 20
387.7355899781
 10
202.4399205564
 20
387.9244956645
 10
202.4344810773
 20
388.1098458296
 10
202.4292395645
 20
388.2863890027
 10
202.4240463965
 20
388.4592610924
 10
202.4189149284
 20
388.6280201337
 10
202.4138585148
 20
388.792224162
 10
202.4087385146
 20
388.9562753455
 10
202.4037073337
 20
389.1152014676
 10
202.3987786189
 20
389.2685745113
 10
202.393966017
 20
389.4159664594
 10
202.393966017
 20
389.4159664594
  0
LINE
  5
E1
330
1F
100
AcDbEntity
  8
0
  6
Continuous
 62
     7
370
    30
100
AcDbLine
 10
201.8069510476
 20
421.8738997765
 30
0.0
 11
201.8069510476
 21
450.0738997765
 31
0.0
  0
LINE
  5
E2
330
1F
100
AcDbEntity
  8
0
  6
Continuous
 62
     7
370
    30
100
AcDbLine
 10
202.2863277704
 20
390.5404776761
 30
0.0
 11
202.550432768
 21
383.6656302606
 31
0.0
  0
SPLINE
  5
E3
330
1F
100
AcDbEntity
  8
0
  6
Continuous
 62
     7
370
    30
100
AcDbSpline
210
0.0
220
0.0
230
1.0
 70
    24
 71
     3
 72
   133
 73
   129
 74
     0
 42
0.000000001
 43
0.00000001
 40
0.0
 40
0.0
 40
0.0
 40
0.0
 40
0.0104576780568357
 40
0.0208958017883673
 40
0.0313229695143356
 40
0.041747806663784
 40
0.0483033763848283
 40
0.0548635767235138
 40
0.061430544219177
 40
0.0680932702996771
 40
0.0750649651574885
 40
0.0854208951747632
 40
0.095762239125233
 40
0.1060973976423045
 40
0.1164347864390925
 40
0.1267828157872727
 40
0.1371498700621138
 40
0.1430490729636473
 40
0.1489398361126351
 40
0.1548236893248096
 40
0.1607021678106352
 40
0.166576810994283
 40
0.1724491613161726
 40
0.1783207630236933
 40
0.1863957518907776
 40
0.1944762595233163
 40
0.202566291157056
 40
0.2106698379058358
 40
0.2176986636729162
 40
0.2247156424829181
 40
0.2317233642178955
 40
0.2387244290332333
 40
0.2457214445056378
 40
0.2527170227399514
 40
0.2609634715075418
 40
0.2692158305079199
 40
0.2774783666656157
 40
0.2857553311656496
 40
0.2951660015621383
 40
0.3045569968598157
 40
0.3139345515327363
 40
0.323304926882702
 40
0.3326743986046228
 40
0.3420492442081247
 40
0.35143573042098
 40
0.3608401007003633
 40
0.3677216148656831
 40
0.3745919884412836
 40
0.3814536529196453
 40
0.3883090490601585
 40
0.395160624321192
 40
0.4020108302565129
 40
0.4100858190708115
 40
0.4181663265009419
 40
0.4262563576861444
 40
0.4343599036444594
 40
0.4407006682403881
 40
0.4470322216967451
 40
0.4533564670007276
 40
0.4596753137423208
 40
0.4659906764086342
 40
0.4723044726561313
 40
0.4786186215684792
 40
0.485566864241939
 40
0.4925204062004044
 40
0.4994817924985473
 40
0.5063676840815196
 40
0.5129430200056113
 40
0.5227119473139263
 40
0.5324684249098491
 40
0.5422195019713689
 40
0.551972239386833
 40
0.5617336944415674
 40
0.5715109055434908
 40
0.581970455679314
 40
0.5924097604873554
 40
0.6028374116737368
 40
0.6132620297584792
 40
0.6198171006813753
 40
0.6263765229500559
 40
0.6329424329443486
 40
0.6396041367542712
 40
0.646575831611383
 40
0.6569317616279127
 40
0.6672731055779928
 40
0.6776082640950322
 40
0.6879456528921453
 40
0.6982936822410071
 40
0.7086607365168861
 40
0.7145599394179042
 40
0.720450702566464
 40
0.7263345557783013
 40
0.7322130342638793
 40
0.738087677447369
 40
0.743960027769191
 40
0.749831629476735
 40
0.757906618343997
 40
0.7659871259768836
 40
0.7740771576111406
 40
0.7821807043606066
 40
0.7892095301275761
 40
0.7962265089374893
 40
0.8032342306723997
 40
0.8102352954876945
 40
0.8172323109600791
 40
0.8242278891943958
 40
0.8324743379620214
 40
0.8407266969624684
 40
0.8489892331202689
 40
0.8572661976204428
 40
0.8666768680167896
 40
0.8760678633143656
 40
0.8854454179872264
 40
0.8948157933371724
 40
0.9041852650591129
 40
0.9135601106626718
 40
0.922946596875621
 40
0.9323509671551341
 40
0.9392324813201677
 40
0.9461028548955409
 40
0.9529645193737335
 40
0.9598199155141369
 40
0.966671490775119
 40
0.9735216967104484
 40
0.9815966855248338
 40
0.9896771929551349
 40
0.9977672241405923
 40
1.0
 40
1.0
 40
1.0
 40
1.0
 10
32.66910511600884
 20
378.4738997765484
 30
0.0
 10
32.71982070881088
 20
378.4738997765484
 30
0.0
 10
32.82115706368913
 20
378.4738997765484
 30
0.0
 10
32.98597546702242
 20
378.4738997765484
 30
0.0
 10
33.15994092050467
 20
378.4738997765484
 30
0.0
 10
33.32118943878301
 20
378.4738997765484
 30
0.0
 10
33.46562467986422
 20
378.4738997765484
 30
0.0
 10
33.59021455790725
 20
378.4738997765484
 30
0.0
 10
33.7192710167864
 20
378.4738997765484
 30
0.0
 10
33.85485510699482
 20
378.4738997765484
 30
0.0
 10
34.02049078289399
 20
378.4738997765484
 30
0.0
 10
34.21825724210825
 20
378.4738997765484
 30
0.0
 10
34.44894326189871
 20
378.4738997765484
 30
0.0
 10
34.68819786094263
 20
378.4738997765484
 30
0.0
 10
34.93602039543514
 20
378.4738997765484
 30
0.0
 10
35.19240847672781
 20
378.4738997765484
 30
0.0
 10
35.41908325687845
 20
378.4738997765484
 30
0.0
 10
35.61216125367619
 20
378.4738997765484
 30
0.0
 10
35.76866728568609
 20
378.4738997765484
 30
0.0
 10
35.92744802423684
 20
378.4738997765484
 30
0.0
 10
36.08850337581626
 20
378.4738997765484
 30
0.0
 10
36.25183327320888
 20
378.4738997765484
 30
0.0
 10
36.41743790783533
 20
378.4738997765484
 30
0.0
 10
36.60630642278373
 20
378.4738997765484
 30
0.0
 10
36.81956484625673
 20
378.4738997765484
 30
0.0
 10
37.05844106389108
 20
378.4738997765484
 30
0.0
 10
37.30161790622974
 20
378.4738997765484
 30
0.0
 10
37.53798043741757
 20
378.4738997765484
 30
0.0
 10
37.76660869104073
 20
378.4738997765485
 30
0.0
 10
37.98667101438982
 20
378.4738997765484
 30
0.0
 10
38.20911263420065
 20
378.4738997765484
 30
0.0
 10
38.43393320721194
 20
378.4738997765485
 30
0.0
 10
38.66113291084303
 20
378.4738997765484
 30
0.0
 10
38.90437980242581
 20
378.4738997765485
 30
0.0
 10
39.16421317092409
 20
378.4738997765484
 30
0.0
 10
39.44116592647598
 20
378.4738997765485
 30
0.0
 10
39.72142307470391
 20
378.4738997765484
 30
0.0
 10
40.01771542751961
 20
378.4738997765485
 30
0.0
 10
40.32998651075059
 20
378.4738997765485
 30
0.0
 10
40.65817414864892
 20
378.4738997765485
 30
0.0
 10
40.98890800527877
 20
378.4738997765485
 30
0.0
 10
41.32218705915014
 20
378.4738997765485
 30
0.0
 10
41.6580109708006
 20
378.4738997765485
 30
0.0
 10
41.9963794787947
 20
378.4738997765485
 30
0.0
 10
42.33729124025356
 20
378.4738997765485
 30
0.0
 10
42.64975016369677
 20
378.4738997765485
 30
0.0
 10
42.93275617922332
 20
378.4738997765485
 30
0.0
 10
43.18548733505315
 20
378.4738997765485
 30
0.0
 10
43.43860977162359
 20
378.4738997765485
 30
0.0
 10
43.69212369730047
 20
378.4738997765485
 30
0.0
 10
43.94602913393392
 20
378.4738997765485
 30
0.0
 10
44.21546562613493
 20
378.4738997765485
 30
0.0
 10
44.50053797669823
 20
378.4738997765485
 30
0.0
 10
44.80131081117558
 20
378.4738997765485
 30
0.0
 10
45.10262652014374
 20
378.4738997765485
 30
0.0
 10
45.38238451458823
 20
378.4738997765485
 30
0.0
 10
45.64022587205732
 20
378.4738997765485
 30
0.0
 10
45.87584930756683
 20
378.4738997765485
 30
0.0
 10
46.11099309851762
 20
378.4738997765485
 30
0.0
 10
46.34565746443764
 20
378.4738997765484
 30
0.0
 10
46.5798422418022
 20
378.4738997765485
 30
0.0
 10
46.81354747655151
 20
378.4738997765484
 30
0.0
 10
47.05455116297028
 20
378.4738997765485
 30
0.0
 10
47.30280061888928
 20
378.4738997765485
 30
0.0
 10
47.55822197426032
 20
378.4738997765485
 30
0.0
 10
47.81201476213342
 20
378.4738997765485
 30
0.0
 10
48.06026131001409
 20
378.4738997765484
 30
0.0
 10
48.34150943753904
 20
378.4738997765485
 30
0.0
 10
48.65585410701792
 20
378.4738997765485
 30
0.0
 10
49.00594416451473
 20
378.4738997765485
 30
0.0
 10
49.35308662232823
 20
378.4738997765485
 30
0.0
 10
49.69727964706555
 20
378.4738997765485
 30
0.0
 10
50.03852370111375
 20
378.4738997765485
 30
0.0
 10
50.3844209278351
 20
378.4738997765485
 30
0.0
 10
50.73411251278551
 20
378.4738997765485
 30
0.0
 10
51.08665931224527
 20
378.4738997765485
 30
0.0
 10
51.43395168329462
 20
378.4738997765484
 30
0.0
 10
51.73362334282042
 20
378.4738997765484
 30
0.0
 10
51.98766111406133
 20
378.4738997765484
 30
0.0
 10
52.19784090305951
 20
378.4738997765485
 30
0.0
 10
52.40686614568435
 20
378.4738997765484
 30
0.0
 10
52.61782587718625
 20
378.4738997765485
 30
0.0
 10
52.86533695442897
 20
378.4738997765485
 30
0.0
 10
53.14622762002577
 20
378.4738997765484
 30
0.0
 10
53.45481679741012
 20
378.4738997765484
 30
0.0
 10
53.75651872428097
 20
378.4738997765484
 30
0.0
 10
54.05133180054072
 20
378.4738997765484
 30
0.0
 10
54.33925537199622
 20
378.4738997765484
 30
0.0
 10
54.5796817775715
 20
378.4738997765484
 30
0.0
 10
54.77559287784977
 20
378.4738997765484
 30
0.0
 10
54.92936746583618
 20
378.4738997765484
 30
0.0
 10
55.08041854044735
 20
378.4738997765484
 30
0.0
 10
55.22874697341187
 20
378.4738997765484
 30
0.0
 10
55.3743524450292
 20
378.4738997765484
 30
0.0
 10
55.51723515321508
 20
378.4738997765484
 30
0.0
 10
55.67491868913469
 20
378.4738997765484
 30
0.0
 10
55.84610253796618
 20
378.4738997765484
 30
0.0
 10
56.0292476953263
 20
378.4738997765484
 30
0.0
 10
56.20724395455842
 20
378.4738997765484
 30
0.0
 10
56.37232478707463
 20
378.4738997765484
 30
0.0
 10
56.52510048197188
 20
378.4738997765484
 30
0.0
 10
56.66612412335081
 20
378.4738997765484
 30
0.0
 10
56.80270652310707
 20
378.4738997765484
 30
0.0
 10
56.93484826340877
 20
378.4738997765484
 30
0.0
 10
57.06254919238682
 20
378.4738997765484
 30
0.0
 10
57.193147758686
 20
378.4738997765484
 30
0.0
 10
57.32568029756721
 20
378.4738997765484
 30
0.0
 10
57.45908952876155
 20
378.4738997765484
 30
0.0
 10
57.58632981417236
 20
378.4738997765484
 30
0.0
 10
57.71283362153437
 20
378.4738997765484
 30
0.0
 10
57.83736865086031
 20
378.4738997765484
 30
0.0
 10
57.95856571849381
 20
378.4738997765484
 30
0.0
 10
58.07108917369416
 20
378.4738997765483
 30
0.0
 10
58.17493946741359
 20
378.4738997765484
 30
0.0
 10
58.27011629707182
 20
378.4738997765484
 30
0.0
 10
58.35661945350321
 20
378.4738997765484
 30
0.0
 10
58.43444938451334
 20
378.4738997765484
 30
0.0
 10
58.49736250562226
 20
378.4738997765484
 30
0.0
 10
58.5478493032115
 20
378.4738997765483
 30
0.0
 10
58.58805315918869
 20
378.4738997765484
 30
0.0
 10
58.62344351987942
 20
378.4738997765484
 30
0.0
 10
58.65401831780562
 20
378.4738997765484
 30
0.0
 10
58.67978711561611
 20
378.4738997765484
 30
0.0
 10
58.70195954038934
 20
378.4738997765483
 30
0.0
 10
58.71964118098416
 20
378.4738997765484
 30
0.0
 10
58.73105977714751
 20
378.4738997765484
 30
0.0
 10
58.73610092798934
 20
378.4738997765483
 30
0.0
 10
58.73517471196318
 20
378.4738997765483
 30
0.0
 10
58.73497437568115
 20
378.4738997765483
 30
0.0
  0
SPLINE
  5
E4
330
1F
100
AcDbEntity
  8
0
  6
Continuous
 62
     7
370
    30
100
AcDbSpline
210
0.0
220
0.0
230
1.0
 70
    24
 71
     3
 72
    26
 73
    22
 74
     0
 42
0.000000001
 43
0.00000001
 40
0.0
 40
0.0
 40
0.0
 40
0.0
 40
0.0410480979435174
 40
0.0853823712722968
 40
0.1296522408236144
 40
0.1738710121780805
 40
0.2180520370826371
 40
0.2622087015246501
 40
0.3063544136514415
 40
0.3505025915892425
 40
0.3990843178276788
 40
0.447703096369687
 40
0.4963767220959423
 40
0.5445203868909934
 40
0.5904862760267816
 40
0.658781047726232
 40
0.7269930939962147
 40
0.7951716912953086
 40
0.8633661885915137
 40
0.9316259003676932
 40
1.0
 40
1.0
 40
1.0
 40
1.0
 10
31.63626523484012
 20
378.4738997765483
 30
0.0
 10
31.63633614359909
 20
378.4738997765483
 30
0.0
 10
31.63648363783838
 20
378.4738997765483
 30
0.0
 10
31.64265847011785
 20
378.4738997765484
 30
0.0
 10
31.6524586882713
 20
378.4738997765483
 30
0.0
 10
31.66649405208374
 20
378.4738997765483
 30
0.0
 10
31.68455868096337
 20
378.4738997765483
 30
0.0
 10
31.7067076528765
 20
378.4738997765484
 30
0.0
 10
31.73292624436583
 20
378.4738997765483
 30
0.0
 10
31.76422860615105
 20
378.4738997765484
 30
0.0
 10
31.80110354934154
 20
378.4738997765484
 30
0.0
 10
31.84405833095724
 20
378.4738997765484
 30
0.0
 10
31.89174399596256
 20
378.4738997765484
 30
0.0
 10
31.94327113586779
 20
378.4738997765484
 30
0.0
 10
32.00704616685071
 20
378.4738997765484
 30
0.0
 10
32.08575747973763
 20
378.4738997765484
 30
0.0
 10
32.18349909823517
 20
378.4738997765484
 30
0.0
 10
32.29052480137021
 20
378.4738997765484
 30
0.0
 10
32.40705219176446
 20
378.4738997765484
 30
0.0
 10
32.53226660617977
 20
378.4738997765484
 30
0.0
 10
32.62346682889555
 20
378.4738997765484
 30
0.0
 10
32.66910511600887
 20
378.4738997765484
 30
0.0
  0
LINE
  5
E5
330
1F
100
AcDbEntity
  8
0
  6
Continuous
 62
     7
370
    30
100
AcDbLine
 10
31.5856198053
 20
385.9738997765
 30
0.0
 11
58.7856198053
 21
385.9738997765
 31
0.0
  0
SPLINE
  5
E6
330
1F
100
AcDbEntity
  8
0
  6
Continuous
 62
     7
370
    30
100
AcDbSpline
210
0.0
220
0.0
230
1.0
 70
     8
 71
     3
 72
    62
 73
    58
 74
     0
 42
0.000000001
 43
0.00000001
 40
0.0
 40
0.0
 40
0.0
 40
0.0
 40
0.0154798697409438
 40
0.0309597961695528
 40
0.046517228894929
 40
0.0620747107808
 40
0.0778669562579473
 40
0.0936592450349239
 40
0.1095291338349924
 40
0.1253990583504302
 40
0.143896639266736
 40
0.1623942710820625
 40
0.181011623397918
 40
0.1996290137171861
 40
0.218617863876072
 40
0.2376067422313971
 40
0.2567216849093617
 40
0.2758366454839947
 40
0.2951355793881869
 40
0.3144345221583944
 40
0.333864393397647
 40
0.3532942646886683
 40
0.3731367912519161
 40
0.3929793078817566
 40
0.4129646120920493
 40
0.4329498944368436
 40
0.4524590690166981
 40
0.4719682111659574
 40
0.4916154902914719
 40
0.5112627203245381
 40
0.5313528416679729
 40
0.5514428881171882
 40
0.5716899837945676
 40
0.5919369758963893
 40
0.611052904467718
 40
0.6301687275857303
 40
0.6494289293730683
 40
0.6686889974993908
 40
0.6884242615412569
 40
0.7081593502165511
 40
0.7280688836785416
 40
0.7479782089966177
 40
0.7658591173818172
 40
0.7837398781923107
 40
0.8017645919741024
 40
0.8197891482572761
 40
0.8382918274359964
 40
0.856794336486315
 40
0.8754732538227862
 40
0.8941520133322765
 40
0.9103303294365535
 40
0.926508574266851
 40
0.9428130543670573
 40
0.9591174841589981
 40
0.9758285414623161
 40
0.9925395743394183
 40
1.0
 40
1.0
 40
1.0
 40
1.0
 10
185.945557854816
 20
422.0961029570088
 30
0.0
 10
185.9702275715148
 20
422.0989634137077
 30
0.0
 10
186.0195670952535
 20
422.1046843375805
 30
0.0
 10
186.0965357189095
 20
422.1131807406665
 30
0.0
 10
186.1755771283759
 20
422.1215630617111
 30
0.0
 10
186.2572077147748
 20
422.1298264419649
 30
0.0
 10
186.3411634869544
 20
422.137912659527
 30
0.0
 10
186.4275147358347
 20
422.1457904432734
 30
0.0
 10
186.5157365359763
 20
422.1533774688737
 30
0.0
 10
186.610685622375
 20
422.1610358431474
 30
0.0
 10
186.7124124568592
 20
422.1686391821576
 30
0.0
 10
186.8212856622433
 20
422.1760705212264
 30
0.0
 10
186.9320846394532
 20
422.1828952951465
 30
0.0
 10
187.0453814623409
 20
422.1891073882007
 30
0.0
 10
187.1607886539191
 20
422.1946310536186
 30
0.0
 10
187.2783982035945
 20
422.1994255776581
 30
0.0
 10
187.3972680020369
 20
422.2034115878196
 30
0.0
 10
187.51758903723
 20
422.2065694055544
 30
0.0
 10
187.6389093042838
 20
422.2088542541163
 30
0.0
 10
187.7613053472137
 20
422.2102478587908
 30
0.0
 10
187.884188375026
 20
422.2107211828048
 30
0.0
 10
188.0082221489444
 20
422.2102651934358
 30
0.0
 10
188.1329164635495
 20
422.2088539663114
 30
0.0
 10
188.2583435063111
 20
422.2064741695422
 30
0.0
 10
188.3834037227234
 20
422.2031402394707
 30
0.0
 10
188.5068775567919
 20
422.1989085298223
 30
0.0
 10
188.6282667182674
 20
422.1938391188333
 30
0.0
 10
188.7476750707673
 20
422.1879836388972
 30
0.0
 10
188.8658544149304
 20
422.1813328773752
 30
0.0
 10
188.9834558954228
 20
422.1738783567284
 30
0.0
 10
189.0999288858399
 20
422.1656686665879
 30
0.0
 10
189.2152918149606
 20
422.156731184455
 30
0.0
 10
189.3284187905264
 20
422.1471881353686
 30
0.0
 10
189.4369916774458
 20
422.137302744219
 30
0.0
 10
189.5406586265604
 20
422.12720689574
 30
0.0
 10
189.6396603465588
 20
422.1169769670685
 30
0.0
 10
189.7357574635337
 20
422.1064905996863
 30
0.0
 10
189.8294792434682
 20
422.0957411293935
 30
0.0
 10
189.9202541689039
 20
422.0848360189738
 30
0.0
 10
190.0080088706015
 20
422.0738347389182
 30
0.0
 10
190.0917155664417
 20
422.0629215252125
 30
0.0
 10
190.1684045803634
 20
422.0525599069553
 30
0.0
 10
190.2381268789435
 20
422.0428454638475
 30
0.0
 10
190.3014240238456
 20
422.0337885159304
 30
0.0
 10
190.3606110882677
 20
422.0251112261593
 30
0.0
 10
190.4159746091398
 20
422.0168131130451
 30
0.0
 10
190.4670296642436
 20
422.0090055680751
 30
0.0
 10
190.513621914613
 20
422.0017499649277
 30
0.0
 10
190.5550672738352
 20
421.9951927193043
 30
0.0
 10
190.589563661986
 20
421.9896581754545
 30
0.0
 10
190.6176622477078
 20
421.9851019363122
 30
0.0
 10
190.6401610647218
 20
421.9814218238278
 30
0.0
 10
190.658288753033
 20
421.9784365852209
 30
0.0
 10
190.6721698200738
 20
421.9761374060179
 30
0.0
 10
190.6812134550221
 20
421.9746343932208
 30
0.0
 10
190.685601892389
 20
421.9739026889874
 30
0.0
 10
190.6851539654179
 20
421.9739774476466
 30
0.0
 10
190.6850157145191
 20
421.9740005216128
 30
0.0
  0
SPLINE
  5
E7
330
1F
100
AcDbEntity
  8
0
  6
Continuous
 62
     7
370
    30
100
AcDbSpline
210
0.0
220
0.0
230
1.0
 70
     8
 71
     3
 72
    26
 73
    22
 74
     0
 42
0.000000001
 43
0.00000001
 40
0.0
 40
0.0
 40
0.0
 40
0.0
 40
0.0392422931454244
 40
0.085912588848608
 40
0.1325829483864301
 40
0.1803054086187754
 40
0.228028009359467
 40
0.2761085059843854
 40
0.3241892091096921
 40
0.3698853989514106
 40
0.4155817938514685
 40
0.4615738326357912
 40
0.5075661048305639
 40
0.5544566764166168
 40
0.6013475110442762
 40
0.6485332235358796
 40
0.695719203951634
 40
0.7710886517712694
 40
0.8467397864788185
 40
0.9232324648866191
 40
1.0
 40
1.0
 40
1.0
 40
1.0
 10
185.0858845374311
 20
421.9739439877861
 30
0.0
 10
185.0860589666781
 20
421.9739730187068
 30
0.0
 10
185.0864408421237
 20
421.9740365756844
 30
0.0
 10
185.0919985588989
 20
421.9749625229632
 30
0.0
 10
185.1016232794062
 20
421.9765609700618
 30
0.0
 10
185.1156310992292
 20
421.9788790032182
 30
0.0
 10
185.133976048026
 20
421.9818971604049
 30
0.0
 10
185.1565900827279
 20
421.9855923259207
 30
0.0
 10
185.182975527492
 20
421.9898661946609
 30
0.0
 10
185.2127802181772
 20
421.9946467837576
 30
0.0
 10
185.2457612857423
 20
421.9998782854835
 30
0.0
 10
185.2823840180908
 20
422.0056154584689
 30
0.0
 10
185.3228387436006
 20
422.0118641386507
 30
0.0
 10
185.3670400752215
 20
422.0185852161428
 30
0.0
 10
185.4150541832466
 20
422.0257590311571
 30
0.0
 10
185.4665210469559
 20
422.0333023450512
 30
0.0
 10
185.5322630694497
 20
422.0427360886041
 30
0.0
 10
185.6147244691002
 20
422.0542310249829
 30
0.0
 10
185.7170830677242
 20
422.0678992347005
 30
0.0
 10
185.826821692805
 20
422.0819421121803
 30
0.0
 10
185.905931842124
 20
422.0913770352117
 30
0.0
 10
185.9455578548127
 20
422.0961029570178
 30
0.0
  0
ARC
  5
E8
330
1F
100
AcDbEntity
  8
0
  6
Continuous
 62
     7
370
    30
100
AcDbCircle
 10
300.4998286625
 20
296.2544107175
 30
0.0
 40
0.4999999999999583
100
AcDbArc
 50
90.0
 51
181.5
  0
ARC
  5
E9
330
1F
100
AcDbEntity
  8
0
  6
Continuous
 62
     7
370
    30
100
AcDbCircle
 10
469.5001713375
 20
296.2544107175
 30
0.0
 40
0.5000000000000151
100
AcDbArc
 50
358.5
 51
90.0
  0
LINE
  5
EA
330
1F
100
AcDbEntity
  8
0
  6
Continuous
 62
     7
370
    30
100
AcDbLine
 10
300.0000000004
 20
296.2413222434
 30
0.0
 11
300.2547117281
 21
286.5142737865
 31
0.0
  0
LINE
  5
EB
330
1F
100
AcDbEntity
  8
0
  6
Continuous
 62
     7
370
    30
100
AcDbLine
 10
469.7452882719
 20
286.5142737865
 30
0.0
 11
469.9999999996
 21
296.2413222434
 31
0.0
  0
ARC
  5
EC
330
1F
100
AcDbEntity
  8
0
  6
Continuous
 62
     7
370
    30
100
AcDbCircle
 10
302.254026378
 20
286.5666276831
 30
0.0
 40
1.999999999999989
100
AcDbArc
 50
181.499999986
 51
267.4907349552
  0
ARC
  5
ED
330
1F
100
AcDbEntity
  8
0
  6
Continuous
 62
     7
370
    30
100
AcDbCircle
 10
467.745973622
 20
286.5666276831
 30
0.0
 40
2.000000000000039
100
AcDbArc
 50
272.5092650448
 51
358.5000000141
  0
ARC
  5
EE
330
1F
100
AcDbEntity
  8
0
  6
Continuous
 62
     7
370
    30
100
AcDbCircle
 10
385.0
 20
2174.7544106775
 30
0.0
 40
1892.0
100
AcDbArc
 50
267.4907349552
 51
269.5730031875
  0
ARC
  5
EF
330
1F
100
AcDbEntity
  8
0
  6
Continuous
 62
     7
370
    30
100
AcDbCircle
 10
385.0
 20
2174.7544106775
 30
0.0
 40
1892.0
100
AcDbArc
 50
270.4269968125
 51
272.5092650448
  0
LINE
  5
F0
330
1F
100
AcDbEntity
  8
0
  6
Continuous
 62
     7
370
    30
100
AcDbLine
 10
371.0
 20
282.8069510476
 30
0.0
 11
371.0
 21
167.1856198053
 31
0.0
  0
LINE
  5
F1
330
1F
100
AcDbEntity
  8
0
  6
Continuous
 62
     7
370
    30
100
AcDbLine
 10
399.0
 20
167.1856198053
 30
0.0
 11
399.0
 21
282.8069510476
 31
0.0
  0
LINE
  5
F2
330
1F
100
AcDbEntity
  8
0
  6
Continuous
 62
     7
370
    30
100
AcDbLine
 10
371.0
 20
167.1856198053
 30
0.0
 11
371.0
 21
126.1856198053
 31
0.0
  0
LINE
  5
F3
330
1F
100
AcDbEntity
  8
0
  6
Continuous
 62
     7
370
    30
100
AcDbLine
 10
399.0
 20
126.1856198053
 30
0.0
 11
399.0
 21
167.1856198053
 31
0.0
  0
LINE
  5
F4
330
1F
100
AcDbEntity
  8
0
  6
Continuous
 62
     7
370
    30
100
AcDbLine
 10
300.4998286625
 20
296.7544107175
 30
0.0
 11
469.5001713375
 21
296.7544107175
 31
0.0
  0
LINE
  5
F5
330
1F
100
AcDbEntity
  8
0
  6
Continuous
 62
     7
370
    30
100
AcDbLine
 10
385.0
 20
282.8069510476
 30
0.0
 11
370.9
 21
282.8069510476
 31
0.0
  0
LINE
  5
F6
330
1F
100
AcDbEntity
  8
0
  6
Continuous
 62
     7
370
    30
100
AcDbLine
 10
399.1
 20
282.8069510476
 30
0.0
 11
385.0
 21
282.8069510476
 31
0.0
  0
ARC
  5
F7
330
1F
100
AcDbEntity
  8
0
  6
Continuous
 62
     7
370
    30
100
AcDbCircle
 10
385.0
 20
126.1856198053
 30
0.0
 40
14.00000000000001
100
AcDbArc
 50
270.0
 51
0.0
  0
ARC
  5
F8
330
1F
100
AcDbEntity
  8
0
  6
Continuous
 62
     7
370
    30
100
AcDbCircle
 10
385.0
 20
126.1856198053
 30
0.0
 40
14.00000000000001
100
AcDbArc
 50
180.0
 51
270.0
  0
SPLINE
  5
F9
330
1F
100
AcDbEntity
  8
0
  6
Continuous
 62
     7
370
    30
100
AcDbSpline
210
0.0
220
0.0
230
1.0
 70
     8
 71
     3
 72
   211
 73
   207
 74
     0
 42
0.000000001
 43
0.00000001
 40
0.0
 40
0.0
 40
0.0
 40
0.0
 40
0.0004759551037313
 40
0.0053293631149059
 40
0.0101830348149505
 40
0.0150370636075488
 40
0.0198915420936653
 40
0.0247465618712802
 40
0.0296022133386116
 40
0.0344585855019576
 40
0.0393157657882611
 40
0.0441738398636271
 40
0.0490328914579376
 40
0.0538930021965471
 40
0.0587542514392326
 40
0.0636167161273742
 40
0.0684804706393303
 40
0.0733455866549889
 40
0.0782121330295631
 40
0.0830801756770839
 40
0.0879497774638394
 40
0.0928209981122698
 40
0.097693894115282
 40
0.1025685186611647
 40
0.1074449215696632
 40
0.1123231492383557
 40
0.1172032446006508
 40
0.1220852470940346
 40
0.1269691926396026
 40
0.1318551136319675
 40
0.1367430389398901
 40
0.1416329939171479
 40
0.146525000423341
 40
0.1514190768546264
 40
0.156315238183608
 40
0.1612134960085707
 40
0.1661138586109271
 40
0.1710163310211331
 40
0.1759209150921112
 40
0.1808276095799167
 40
0.1857364102310798
 40
0.1906473098760575
 40
0.1955602985281851
 40
0.2004753634879169
 40
0.2053924894511483
 40
0.2103116586217544
 40
0.2152328508273045
 40
0.2201560436374724
 40
0.2250812124849091
 40
0.2300083307874129
 40
0.2349373700716138
 40
0.2398683000969757
 40
0.2448010889801815
 40
0.2497357033188926
 40
0.2546721083149748
 40
0.2596102678964238
 40
0.2645501448375077
 40
0.2694917008771955
 40
0.2744348968349919
 40
0.2793796927243467
 40
0.2843260478628666
 40
0.2892739209796585
 40
0.294223270318992
 40
0.2991740537403778
 40
0.3041262288149655
 40
0.309079752917992
 40
0.3140345833170028
 40
0.3189906772562601
 40
0.3239479920365795
 40
0.3289064850911676
 40
0.3338661140571617
 40
0.3388268368428797
 40
0.3437886116907237
 40
0.3487513972360626
 40
0.3537151525618139
 40
0.3586798372490387
 40
0.3636454114234738
 40
0.368611835798178
 40
0.3735790717123991
 40
0.3785470811667115
 40
0.3835158268546122
 40
0.3884852721907584
 40
0.3934553813356828
 40
0.398426119217582
 40
0.4033974515509871
 40
0.4083693448524893
 40
0.4133417664538457
 40
0.4183146845124093
 40
0.4232880680191501
 40
0.4282618868043051
 40
0.4332361115409861
 40
0.4382107137466848
 40
0.443185665782823
 40
0.4481609408526785
 40
0.4531365129976447
 40
0.4581123570919264
 40
0.463088448835881
 40
0.4680647647481139
 40
0.4730412821564521
 40
0.4780179791877783
 40
0.4829948347570058
 40
0.4879718285552104
 40
0.4929489410368518
 40
0.4979261534066181
 40
0.5029034476054004
 40
0.5078808062958814
 40
0.5128582128477653
 40
0.5178356513225938
 40
0.5228131064581212
 40
0.5277905601519743
 40
0.5327679974338929
 40
0.5377454051819504
 40
0.5427227708812217
 40
0.5477000826076802
 40
0.5526773290122209
 40
0.5576544993042954
 40
0.5626315832361508
 40
0.5676085710867947
 40
0.5725854536463362
 40
0.5775622222004348
 40
0.5825388685148383
 40
0.5875153848203724
 40
0.5924917637978518
 40
0.5974679985636228
 40
0.602444082654923
 40
0.6074200100158591
 40
0.6123957749835556
 40
0.617371372274532
 40
0.6223467969715053
 40
0.6273220445103238
 40
0.6322971106674127
 40
0.637271991547344
 40
0.6422466835708309
 40
0.6472211834630671
 40
0.6521954882421366
 40
0.6571695952081585
 40
0.6621435019323333
 40
0.6671172062465128
 40
0.6720907062330765
 40
0.6770640002150217
 40
0.6820370867464449
 40
0.6870099646031834
 40
0.6919826327740153
 40
0.6969550904517954
 40
0.7019273370251825
 40
0.7068993720704351
 40
0.7118711953436585
 40
0.7168428067730931
 40
0.7218142064518973
 40
0.7267853946310245
 40
0.7317563717123808
 40
0.7367271382423674
 40
0.7416976949053434
 40
0.7466680425177219
 40
0.7516381820219264
 40
0.7566081144808334
 40
0.7615778410722315
 40
0.7665473630836497
 40
0.7715166819072424
 40
0.7764857990349652
 40
0.7814547160539547
 40
0.7864234346419294
 40
0.79139195656304
 40
0.7963602836635916
 40
0.8013284178681918
 40
0.8062963611758422
 40
0.8112641156563903
 40
0.8162316834469822
 40
0.8211990667486707
 40
0.8261662678232933
 40
0.8311332889903059
 40
0.8361001326239215
 40
0.8410668011501742
 40
0.8460332970443957
 40
0.8509996228284583
 40
0.8559657810684574
 40
0.8609317743722054
 40
0.865897605387108
 40
0.8708632767979841
 40
0.8758287913250187
 40
0.8807941517217417
 40
0.8857593607732619
 40
0.8907244212944199
 40
0.8956893361281139
 40
0.9006541081437027
 40
0.9056187402354429
 40
0.9105832353210849
 40
0.9155475963403947
 40
0.9205118262539171
 40
0.9254759280416746
 40
0.9304399047019923
 40
0.9354037592503696
 40
0.9403674947184107
 40
0.9453311141527927
 40
0.9502946206143363
 40
0.9552580171770777
 40
0.9602213069273955
 40
0.9651844929632069
 40
0.97014757839325
 40
0.975110566336205
 40
0.9800734599202403
 40
0.9850362622821635
 40
0.989998976566906
 40
0.9949616059269514
 40
0.9999241535217827
 40
1.0
 40
1.0
 40
1.0
 40
1.0
 10
632.1995870986277
 20
276.6635527901421
 30
0.0
 10
632.1900729380154
 20
276.6576811068351
 30
0.0
 10
632.083541006246
 20
276.5919347114425
 30
0.0
 10
631.8818954949672
 20
276.4631141269563
 30
0.0
 10
631.594813685936
 20
276.2768524633345
 30
0.0
 10
631.3099866639244
 20
276.086855485463
 30
0.0
 10
631.027158314391
 20
275.8935799141923
 30
0.0
 10
630.7464122561245
 20
275.6969128759588
 30
0.0
 10
630.4677410709705
 20
275.4968942198859
 30
0.0
 10
630.191161749802
 20
275.2935229567232
 30
0.0
 10
629.9166847595068
 20
275.0868091408402
 30
0.0
 10
629.6443223379605
 20
274.8767599754549
 30
0.0
 10
629.3740862751698
 20
274.6633835464693
 30
0.0
 10
629.105988511517
 20
274.4466878319981
 30
0.0
 10
628.8400409802592
 20
274.2266809783384
 30
0.0
 10
628.5762556518637
 20
274.0033712367035
 30
0.0
 10
628.3146445235086
 20
273.7767669910223
 30
0.0
 10
628.055219622548
 20
273.5468767614121
 30
0.0
 10
627.7979930054953
 20
273.3137092141977
 30
0.0
 10
627.542976757481
 20
273.0772731701434
 30
0.0
 10
627.2901829908594
 20
272.8375776130762
 30
0.0
 10
627.0396238433334
 20
272.5946316982575
 30
0.0
 10
626.7913114755162
 20
272.348444760622
 30
0.0
 10
626.5452580679654
 20
272.099026322797
 30
0.0
 10
626.3014758177147
 20
271.8463861028789
 30
0.0
 10
626.0599769343082
 20
271.5905340219149
 30
0.0
 10
625.8207736353792
 20
271.3314802110685
 30
0.0
 10
625.5838781417825
 20
271.0692350184177
 30
0.0
 10
625.3493026723249
 20
270.8038090153728
 30
0.0
 10
625.1170594381075
 20
270.5352130026662
 30
0.0
 10
624.887160636524
 20
270.2634580159029
 30
0.0
 10
624.6596184449409
 20
269.9885553306398
 30
0.0
 10
624.4344450140969
 20
269.7105164669773
 30
0.0
 10
624.2116524612567
 20
269.4293531936478
 30
0.0
 10
623.9912528631488
 20
269.14507753158
 30
0.0
 10
623.773258248735
 20
268.8577017569388
 30
0.0
 10
623.5576805918352
 20
268.5672384036238
 30
0.0
 10
623.3445318036531
 20
268.2737002652334
 30
0.0
 10
623.133823725236
 20
267.9771003964814
 30
0.0
 10
622.9255681199003
 20
267.6774521140798
 30
0.0
 10
622.7197766656641
 20
267.3747689970863
 30
0.0
 10
622.516460947717
 20
267.0690648867294
 30
0.0
 10
622.315632450956
 20
266.7603538857188
 30
0.0
 10
622.1173025526296
 20
266.4486503570582
 30
0.0
 10
621.9214825151049
 20
266.1339689223744
 30
0.0
 10
621.7281834788007
 20
265.816324459784
 30
0.0
 10
621.5374164553008
 20
265.4957321013172
 30
0.0
 10
621.3491923206793
 20
265.1722072299187
 30
0.0
 10
621.1635218090577
 20
264.8457654760584
 30
0.0
 10
620.980415506411
 20
264.5164227139642
 30
0.0
 10
620.7998838446482
 20
264.1841950575192
 30
0.0
 10
620.6219370959737
 20
263.8490988558345
 30
0.0
 10
620.4465853675518
 20
263.5111506885431
 30
0.0
 10
620.2738385964789
 20
263.1703673608288
 30
0.0
 10
620.1037065450778
 20
262.8267658982284
 30
0.0
 10
619.9361987965174
 20
262.4803635412323
 30
0.0
 10
619.7713247507652
 20
262.1311777397133
 30
0.0
 10
619.6090936208745
 20
261.7792261472147
 30
0.0
 10
619.4495144296072
 20
261.4245266151181
 30
0.0
 10
619.2925960063926
 20
261.0670971867292
 30
0.0
 10
619.1383469846168
 20
260.7069560912958
 30
0.0
 10
618.9867757992427
 20
260.3441217379929
 30
0.0
 10
618.8378906847513
 20
259.9786127098947
 30
0.0
 10
618.6916996733993
 20
259.6104477579578
 30
0.0
 10
618.5482105937839
 20
259.2396457950361
 30
0.0
 10
618.407431069704
 20
258.8662258899489
 30
0.0
 10
618.2693685193101
 20
258.4902072616174
 30
0.0
 10
618.1340301545308
 20
258.1116092732966
 30
0.0
 10
618.0014229807605
 20
257.7304514269055
 30
0.0
 10
617.8715537968005
 20
257.3467533574822
 30
0.0
 10
617.7444291950371
 20
256.9605348277642
 30
0.0
 10
617.6200555618434
 20
256.5718157229186
 30
0.0
 10
617.4984390781925
 20
256.1806160454229
 30
0.0
 10
617.3795857204668
 20
255.7869559101101
 30
0.0
 10
617.2635012614489
 20
255.3908555393801
 30
0.0
 10
617.1501912714816
 20
254.9923352585892
 30
0.0
 10
617.039661119781
 20
254.5914154916182
 30
0.0
 10
616.9319159758909
 20
254.188116756624
 30
0.0
 10
616.8269608112639
 20
253.782459661978
 30
0.0
 10
616.7248004009554
 20
253.3744649023899
 30
0.0
 10
616.6254393254192
 20
252.9641532552185
 30
0.0
 10
616.5288819723911
 20
252.5515455769711
 30
0.0
 10
616.4351325388493
 20
252.1366627999856
 30
0.0
 10
616.3441950330387
 20
251.7195259292979
 30
0.0
 10
616.2560732765502
 20
251.3001560396852
 30
0.0
 10
616.1707709064431
 20
250.8785742728888
 30
0.0
 10
616.0882913774011
 20
250.4548018350071
 30
0.0
 10
616.0086379639122
 20
250.0288599940558
 30
0.0
 10
615.9318137624657
 20
249.6007700776922
 30
0.0
 10
615.8578216937558
 20
249.170553471094
 30
0.0
 10
615.786664504884
 20
248.7382316149895
 30
0.0
 10
615.7183447715572
 20
248.3038260038334
 30
0.0
 10
615.6528649002692
 20
247.8673581841215
 30
0.0
 10
615.5902271304658
 20
247.4288497528375
 30
0.0
 10
615.5304335366824
 20
246.9883223560243
 30
0.0
 10
615.4734860306543
 20
246.5457976874772
 30
0.0
 10
615.4193863633913
 20
246.1012974875508
 30
0.0
 10
615.3681361272161
 20
245.6548435420701
 30
0.0
 10
615.3197367577599
 20
245.2064576813421
 30
0.0
 10
615.2741895359145
 20
244.7561617792623
 30
0.0
 10
615.2314955897376
 20
244.3039777525065
 30
0.0
 10
615.1916558963097
 20
243.8499275598083
 30
0.0
 10
615.1546712835383
 20
243.394033201306
 30
0.0
 10
615.120542431912
 20
242.9363167179651
 30
0.0
 10
615.0892698762001
 20
242.4768001910599
 30
0.0
 10
615.060854007098
 20
242.0155057417173
 30
0.0
 10
615.0352950728173
 20
241.5524555305088
 30
0.0
 10
615.0125931806225
 20
241.0876717570948
 30
0.0
 10
614.9927483029614
 20
240.6211767692742
 30
0.0
 10
614.975760272379
 20
240.1529929868993
 30
0.0
 10
614.9616287806662
 20
239.6831428638042
 30
0.0
 10
614.9503533787616
 20
239.2116487764551
 30
0.0
 10
614.9419334826002
 20
238.7385331008987
 30
0.0
 10
614.9363683757022
 20
238.263818251022
 30
0.0
 10
614.9336572103151
 20
237.7875266784239
 30
0.0
 10
614.9337990085061
 20
237.3096808722941
 30
0.0
 10
614.9367926632035
 20
236.8303033593128
 30
0.0
 10
614.9426369391913
 20
236.3494167035467
 30
0.0
 10
614.9513304740544
 20
235.8670435063572
 30
0.0
 10
614.9628717790812
 20
235.3832064063079
 30
0.0
 10
614.9772592401182
 20
234.8979280790711
 30
0.0
 10
614.9944911183857
 20
234.411231237336
 30
0.0
 10
615.0145655512498
 20
233.923138630704
 30
0.0
 10
615.0374805529548
 20
233.433673045588
 30
0.0
 10
615.0632340153195
 20
232.9428573050958
 30
0.0
 10
615.0918237083939
 20
232.4507142689098
 30
0.0
 10
615.1232472810833
 20
231.9572668331506
 30
0.0
 10
615.1575022617384
 20
231.4625379302292
 30
0.0
 10
615.1945860587119
 20
230.9665505286904
 30
0.0
 10
615.2344959608873
 20
230.4693276330345
 30
0.0
 10
615.2772291381765
 20
229.9708922835308
 30
0.0
 10
615.3227826419914
 20
229.4712675560091
 30
0.0
 10
615.3711534056882
 20
228.9704765616356
 30
0.0
 10
615.4223382449894
 20
228.4685424466758
 30
0.0
 10
615.4763338583796
 20
227.9654883922308
 30
0.0
 10
615.5331368274824
 20
227.4613376139633
 30
0.0
 10
615.5927436174147
 20
226.9561133617976
 30
0.0
 10
615.6551505771238
 20
226.449838919606
 30
0.0
 10
615.7203539397049
 20
225.9425376048719
 30
0.0
 10
615.7883498227023
 20
225.4342327683337
 30
0.0
 10
615.8591342283964
 20
224.9249477936123
 30
0.0
 10
615.932703044075
 20
224.4147060968128
 30
0.0
 10
616.0090520422913
 20
223.9035311261116
 30
0.0
 10
616.0881768811113
 20
223.3914463613188
 30
0.0
 10
616.1700731043485
 20
222.8784753134262
 30
0.0
 10
616.2547361417891
 20
222.364641524129
 30
0.0
 10
616.3421613094082
 20
221.8499685653339
 30
0.0
 10
616.432343809578
 20
221.3344800386433
 30
0.0
 10
616.5252787312672
 20
220.8181995748246
 30
0.0
 10
616.6209610502359
 20
220.3011508332567
 30
0.0
 10
616.7193856292236
 20
219.7833575013578
 30
0.0
 10
616.820547218132
 20
219.2648432939991
 30
0.0
 10
616.9244404542055
 20
218.7456319528926
 30
0.0
 10
617.0310598622058
 20
218.2257472459708
 30
0.0
 10
617.1403998545851
 20
217.7052129667381
 30
0.0
 10
617.2524547316575
 20
217.1840529336146
 30
0.0
 10
617.3672186817678
 20
216.6622909892554
 30
0.0
 10
617.4846857814599
 20
216.1399509998596
 30
0.0
 10
617.604849995645
 20
215.6170568544585
 30
0.0
 10
617.72770517777
 20
215.0936324641898
 30
0.0
 10
617.8532450699855
 20
214.5697017615572
 30
0.0
 10
617.9814633033171
 20
214.0452886996717
 30
0.0
 10
618.1123533978358
 20
213.5204172514836
 30
0.0
 10
618.2459087628322
 20
212.9951114089936
 30
0.0
 10
618.3821226969919
 20
212.4693951824573
 30
0.0
 10
618.5209883885753
 20
211.9432925995689
 30
0.0
 10
618.6624989155991
 20
211.4168277046367
 30
0.0
 10
618.8066472460209
 20
210.8900245577441
 30
0.0
 10
618.9534262379304
 20
210.362907233898
 30
0.0
 10
619.1028286397409
 20
209.8354998221673
 30
0.0
 10
619.2548470903885
 20
209.3078264248051
 30
0.0
 10
619.4094741195333
 20
208.7799111563669
 30
0.0
 10
619.5667021477685
 20
208.2517781428087
 30
0.0
 10
619.7265234868314
 20
207.7234515205845
 30
0.0
 10
619.8889303398229
 20
207.1949554357234
 30
0.0
 10
620.0539148014287
 20
206.6663140429089
 30
0.0
 10
620.2214688581508
 20
206.1375515045377
 30
0.0
 10
620.3915843885411
 20
205.6086919897764
 30
0.0
 10
620.5642531634442
 20
205.0797596736035
 30
0.0
 10
620.7394668462439
 20
204.5507787358497
 30
0.0
 10
620.9172169931171
 20
204.0217733602259
 30
0.0
 10
621.0974950532944
 20
203.4927677333463
 30
0.0
 10
621.2802923693272
 20
202.9637860437404
 30
0.0
 10
621.4656001773612
 20
202.4348524808611
 30
0.0
 10
621.6534096074171
 20
201.9059912340851
 30
0.0
 10
621.8437116836786
 20
201.3772264917049
 30
0.0
 10
622.0364973247862
 20
200.8485824399189
 30
0.0
 10
622.2317573441394
 20
200.3200832618115
 30
0.0
 10
622.4294824502036
 20
199.7917531363306
 30
0.0
 10
622.6296632468323
 20
199.263616237259
 30
0.0
 10
622.832290233568
 20
198.7356967321759
 30
0.0
 10
623.0373538060519
 20
198.2080187814372
 30
0.0
 10
623.2448442560707
 20
197.6806065370605
 30
0.0
 10
623.4547517729814
 20
197.1534841419489
 30
0.0
 10
623.6670664400391
 20
196.626675727825
 30
0.0
 10
623.881778249774
 20
196.1002054179662
 30
0.0
 10
624.0988770483164
 20
195.5740973120024
 30
0.0
 10
624.3183527449129
 20
195.0483755376405
 30
0.0
 10
624.5401945318115
 20
194.5230640526042
 30
0.0
 10
624.7643937974098
 20
193.9981873787532
 30
0.0
 10
624.9909332564134
 20
193.4737678573302
 30
0.0
 10
625.2198275173678
 20
192.9498358871786
 30
0.0
 10
625.4509716886314
 20
192.4263917111559
 30
0.0
 10
625.6847063756204
 20
191.9035480223479
 30
0.0
 10
625.8425733843591
 20
191.5525162039244
 30
0.0
 10
625.9231623732338
 20
191.3759359904028
 30
0.0
 10
625.9243755357815
 20
191.3732778046547
 30
0.0
  0
SPLINE
  5
FA
330
1F
100
AcDbEntity
  8
0
  6
Continuous
 62
     7
370
    30
100
AcDbSpline
210
0.0
220
0.0
230
1.0
 70
     8
 71
     3
 72
   210
 73
   206
 74
     0
 42
0.000000001
 43
0.00000001
 40
0.0
 40
0.0
 40
0.0
 40
0.0
 40
0.0017848455815619
 40
0.0067478621669306
 40
0.011710959804709
 40
0.0166741416763568
 40
0.0216374109576792
 40
0.0266007708181907
 40
0.0315642244206511
 40
0.0365277749205887
 40
0.0414914254655957
 40
0.0464551791947686
 40
0.0514190392380806
 40
0.056383008715609
 40
0.0613470907368379
 40
0.0663112883998308
 40
0.0712756047904976
 40
0.0762400429815929
 40
0.0812046060318458
 40
0.0861692969850182
 40
0.0911341188687513
 40
0.0960990746936081
 40
0.1010641674518505
 40
0.1060294001162115
 40
0.1109947756386195
 40
0.1159602969489092
 40
0.1209259669533401
 40
0.1258917885331582
 40
0.1308577645429496
 40
0.1358238978090875
 40
0.1407901911279616
 40
0.1457566472641863
 40
0.1507232689486773
 40
0.155690058876606
 40
0.1606570197054448
 40
0.1656241540526805
 40
0.1705914644935185
 40
0.1755589535585138
 40
0.180526623731098
 40
0.1854944774448385
 40
0.190462517080799
 40
0.1954307449646619
 40
0.2003991633635761
 40
0.2053677744833124
 40
0.2103365804646474
 40
0.2153055833802716
 40
0.2202747852310014
 40
0.2252441879421311
 40
0.2302137933596076
 40
0.2351836032459534
 40
0.2401536192760175
 40
0.2451238430326818
 40
0.2500942760022309
 40
0.2550649195696315
 40
0.2600357750136079
 40
0.2650068435014605
 40
0.2699781260837448
 40
0.2749496236887944
 40
0.2799213371167978
 40
0.2848932670339494
 40
0.2898654139661881
 40
0.2948377782927468
 40
0.2998103602394536
 40
0.3047831598717733
 40
0.3097561770877144
 40
0.3147294116102308
 40
0.3197028629796674
 40
0.3246765305456339
 40
0.3296504134589123
 40
0.3346245106627042
 40
0.3395988208840123
 40
0.3445733426243874
 40
0.3495480741505665
 40
0.3545230134847696
 40
0.3594981583946591
 40
0.3644735063829426
 40
0.3694490546769054
 40
0.3744248002173006
 40
0.3794007396471509
 40
0.3843768693001162
 40
0.3893531851886615
 40
0.3943296829918209
 40
0.399306358042547
 40
0.4042832053150695
 40
0.4092602194114809
 40
0.4142373945485366
 40
0.4192147245436756
 40
0.4241922028011086
 40
0.4291698222973678
 40
0.434147575566726
 40
0.4391254546864262
 40
0.4441034512613612
 40
0.449081556408877
 40
0.4540597607431375
 40
0.4590380543594123
 40
0.4640164268180383
 40
0.4689948671284793
 40
0.473973363733061
 40
0.4789519044907066
 40
0.4839304766606237
 40
0.4889090668859744
 40
0.4938876582686588
 40
0.498866234057505
 40
0.5038447787253375
 40
0.5088232760592404
 40
0.5138017091448049
 40
0.5187800603508689
 40
0.5237583113145803
 40
0.5287364429269569
 40
0.533714435318804
 40
0.5386922678475794
 40
0.5436699190845862
 40
0.5486473668030984
 40
0.553624587967426
 40
0.5586015587228179
 40
0.563578254386614
 40
0.568554649440307
 40
0.573530717523273
 40
0.5785064314275533
 40
0.583481763094544
 40
0.5884566836129497
 40
0.5934311632189802
 40
0.5984051712981061
 40
0.6033786763890967
 40
0.6083516461902823
 40
0.6133240475680517
 40
0.6182958465679186
 40
0.6232670084283315
 40
0.6282374975971771
 40
0.6332072777511494
 40
0.6381763118184487
 40
0.6431445620044427
 40
0.6481119898210441
 40
0.6530785561190933
 40
0.6580442211248424
 40
0.6630089444800492
 40
0.6679726852858
 40
0.6729354021504216
 40
0.6778970532415495
 40
0.6828575963421994
 40
0.687816988911092
 40
0.6927751881472585
 40
0.6977321510590154
 40
0.70268783453715
 40
0.7076421954323819
 40
0.7125951906374306
 40
0.717546777172832
 40
0.7224969122773861
 40
0.7274455535023301
 40
0.7323926588097335
 40
0.7373381866744508
 40
0.742282096189891
 40
0.7472243471770487
 40
0.752164900296777
 40
0.7571037171649271
 40
0.7620407604701431
 40
0.7669759940938401
 40
0.7719093832321615
 40
0.7768408945194601
 40
0.7817704961528823
 40
0.7866981580175532
 40
0.7916238518121989
 40
0.7965475511741857
 40
0.801469231803976
 40
0.8063888715882198
 40
0.8113064507209498
 40
0.8162219518224368
 40
0.8211353600549901
 40
0.826046663235216
 40
0.830955851942151
 40
0.8358629196207603
 40
0.8407678626799759
 40
0.8456706805850369
 40
0.8505713759434844
 40
0.855469954583896
 40
0.8603664256276183
 40
0.8652608015521892
 40
0.8701530982464559
 40
0.8750433350568528
 40
0.8799315348244309
 40
0.8848177239120794
 40
0.8897019322220145
 40
0.8945841932028517
 40
0.8994645438461452
 40
0.9043430246723388
 40
0.9092196797058137
 40
0.9140945564388901
 40
0.9189677057849702
 40
0.9238391820205348
 40
0.9287090427162293
 40
0.9335773486571867
 40
0.9384441637523787
 40
0.9433095549338282
 40
0.9481735920453056
 40
0.9530363477211025
 40
0.9578978972553417
 40
0.9627583184620585
 40
0.9676176915263968
 40
0.9724760988476095
 40
0.9773336248742951
 40
0.9821903559324716
 40
0.9870463800468636
 40
0.9919017867563431
 40
0.9967566669239738
 40
1.0
 40
1.0
 40
1.0
 40
1.0
 10
639.9234555767536
 20
167.1240353820615
 30
0.0
 10
639.9633914911012
 20
167.0680844614361
 30
0.0
 10
640.1143748861426
 20
166.8565540610513
 30
0.0
 10
640.3780998377371
 20
166.4912018768919
 30
0.0
 10
640.7146104303822
 20
166.0280014486374
 30
0.0
 10
641.0528416310405
 20
165.5666601139045
 30
0.0
 10
641.3926388905802
 20
165.1070551875947
 30
0.0
 10
641.7340240462773
 20
164.6492465247603
 30
0.0
 10
642.0769715878727
 20
164.1932449697152
 30
0.0
 10
642.4214686093968
 20
163.7390744003986
 30
0.0
 10
642.7674987456211
 20
163.2867551020624
 30
0.0
 10
643.1150464773241
 20
162.8363082212889
 30
0.0
 10
643.4640959786001
 20
162.3877545713996
 30
0.0
 10
643.8146314266681
 20
161.9411149514592
 30
0.0
 10
644.1666369197922
 20
161.4964100597126
 30
0.0
 10
644.5200965002167
 20
161.0536605157019
 30
0.0
 10
644.8749941489614
 20
160.6128868532762
 30
0.0
 10
645.2313137881588
 20
160.1741095214092
 30
0.0
 10
645.5890392813695
 20
159.7373488829362
 30
0.0
 10
645.9481544344419
 20
159.3026252138602
 30
0.0
 10
646.3086429962256
 20
158.8699587025129
 30
0.0
 10
646.6704886593238
 20
158.4393694487691
 30
0.0
 10
647.0336750608357
 20
158.010877463256
 30
0.0
 10
647.3981857830979
 20
157.5845026665769
 30
0.0
 10
647.7640043544283
 20
157.1602648885412
 30
0.0
 10
648.1311142498665
 20
156.7381838674038
 30
0.0
 10
648.4994988919154
 20
156.3182792491131
 30
0.0
 10
648.8691416512755
 20
155.9005705865718
 30
0.0
 10
649.2400258475828
 20
155.4850773389032
 30
0.0
 10
649.6121347501418
 20
155.071818870729
 30
0.0
 10
649.9854515786568
 20
154.6608144514541
 30
0.0
 10
650.3599595039598
 20
154.2520832545646
 30
0.0
 10
650.7356416487321
 20
153.8456443569353
 30
0.0
 10
651.1124810882275
 20
153.4415167381436
 30
0.0
 10
651.4904608509878
 20
153.0397192797959
 30
0.0
 10
651.869563919556
 20
152.6402707648621
 30
0.0
 10
652.2497732311815
 20
152.243189877023
 30
0.0
 10
652.6310716785239
 20
151.8484952000239
 30
0.0
 10
653.0134421103483
 20
151.4562052170414
 30
0.0
 10
653.3968673322163
 20
151.0663383100575
 30
0.0
 10
653.7813301071693
 20
150.6789127592456
 30
0.0
 10
654.1668131564047
 20
150.2939467423674
 30
0.0
 10
654.5532991599478
 20
149.9114583341741
 30
0.0
 10
654.940770757309
 20
149.531465505828
 30
0.0
 10
655.3292105481434
 20
149.15398612432
 30
0.0
 10
655.7186010928889
 20
148.7790379519112
 30
0.0
 10
656.1089249134067
 20
148.4066386455734
 30
0.0
 10
656.5001644936023
 20
148.0368057564465
 30
0.0
 10
656.8923022800436
 20
147.6695567292998
 30
0.0
 10
657.2853206825639
 20
147.3049089020074
 30
0.0
 10
657.679202074855
 20
146.9428795050293
 30
0.0
 10
658.0739287950465
 20
146.5834856609052
 30
0.0
 10
658.4694831462764
 20
146.2267443837532
 30
0.0
 10
658.865847397244
 20
145.8726725787803
 30
0.0
 10
659.2630037827519
 20
145.5212870418006
 30
0.0
 10
659.6609345042323
 20
145.1726044587613
 30
0.0
 10
660.0596217302603
 20
144.8266414052765
 30
0.0
 10
660.4590475970487
 20
144.4834143461697
 30
0.0
 10
660.8591942089282
 20
144.1429396350227
 30
0.0
 10
661.2600436388108
 20
143.8052335137321
 30
0.0
 10
661.661577928636
 20
143.4703121120704
 30
0.0
 10
662.0637790897986
 20
143.1381914472558
 30
0.0
 10
662.4666291035545
 20
142.808887423527
 30
0.0
 10
662.8701099214135
 20
142.4824158317209
 30
0.0
 10
663.2742034655048
 20
142.1587923488588
 30
0.0
 10
663.6788916289283
 20
141.8380325377307
 30
0.0
 10
664.084156276078
 20
141.5201518464902
 30
0.0
 10
664.4899792429504
 20
141.2051656082438
 30
0.0
 10
664.8963423374215
 20
140.8930890406502
 30
0.0
 10
665.3032273395095
 20
140.5839372455134
 30
0.0
 10
665.7106160016044
 20
140.2777252083824
 30
0.0
 10
666.1184900486815
 20
139.9744677981439
 30
0.0
 10
666.5268311784823
 20
139.6741797666183
 30
0.0
 10
666.9356210616754
 20
139.3768757481502
 30
0.0
 10
667.344841341985
 20
139.0825702591981
 30
0.0
 10
667.7544736362972
 20
138.7912776979143
 30
0.0
 10
668.1644995347367
 20
138.503012343724
 30
0.0
 10
668.5749006007171
 20
138.2177883568923
 30
0.0
 10
668.9856583709588
 20
137.9356197780876
 30
0.0
 10
669.3967543554822
 20
137.6565205279299
 30
0.0
 10
669.8081700375719
 20
137.3805044065296
 30
0.0
 10
670.2198868737064
 20
137.1075850930148
 30
0.0
 10
670.631886293465
 20
136.8377761450402
 30
0.0
 10
671.044149699396
 20
136.5710909982849
 30
0.0
 10
671.4566584668672
 20
136.3075429659243
 30
0.0
 10
671.8693939438725
 20
136.0471452380903
 30
0.0
 10
672.2823374508224
 20
135.7899108813015
 30
0.0
 10
672.6954702802923
 20
135.5358528378766
 30
0.0
 10
673.1087736967494
 20
135.2849839253169
 30
0.0
 10
673.5222289362491
 20
135.0373168356615
 30
0.0
 10
673.9358172061011
 20
134.7928641348133
 30
0.0
 10
674.3495196845095
 20
134.5516382618304
 30
0.0
 10
674.7633175201836
 20
134.3136515281848
 30
0.0
 10
675.1771918319267
 20
134.0789161169794
 30
0.0
 10
675.5911237081949
 20
133.8474440821301
 30
0.0
 10
676.0050942066364
 20
133.6192473475003
 30
0.0
 10
676.4190843536048
 20
133.3943377059939
 30
0.0
 10
676.8330751436578
 20
133.1727268185971
 30
0.0
 10
677.2470475390296
 20
132.954426213372
 30
0.0
 10
677.6609824690935
 20
132.7394472843957
 30
0.0
 10
678.0748607491988
 20
132.5278013318627
 30
0.0
 10
678.4886631022263
 20
132.3194995462339
 30
0.0
 10
678.9023702104491
 20
132.1145529784425
 30
0.0
 10
679.3159627954124
 20
131.9129725000655
 30
0.0
 10
679.729421595117
 20
131.7147688156115
 30
0.0
 10
680.1427273109806
 20
131.5199524874718
 30
0.0
 10
680.5558606072769
 20
131.3285339343848
 30
0.0
 10
680.9688021105895
 20
131.1405234298225
 30
0.0
 10
681.3815324092786
 20
130.9559311003019
 30
0.0
 10
681.7940320529743
 20
130.7747669236125
 30
0.0
 10
682.2062815520901
 20
130.5970407269645
 30
0.0
 10
682.6182613773742
 20
130.4227621850502
 30
0.0
 10
683.0299519594931
 20
130.2519408180213
 30
0.0
 10
683.4413336886618
 20
130.0845859893778
 30
0.0
 10
683.8523869143273
 20
129.920706903766
 30
0.0
 10
684.2630919449049
 20
129.7603126046897
 30
0.0
 10
684.6734290475832
 20
129.6034119721276
 30
0.0
 10
685.0833784481968
 20
129.4500137200629
 30
0.0
 10
685.4929203311871
 20
129.3001263939171
 30
0.0
 10
685.902034839641
 20
129.1537583678986
 30
0.0
 10
686.3107020754376
 20
129.0109178422567
 30
0.0
 10
686.7189020994883
 20
128.871612840451
 30
0.0
 10
687.1266149321016
 20
128.7358512062314
 30
0.0
 10
687.5338205534625
 20
128.6036406006363
 30
0.0
 10
687.9404989042505
 20
128.4749884989087
 30
0.0
 10
688.3466298863932
 20
128.3499021873354
 30
0.0
 10
688.7521933639741
 20
128.2283887600138
 30
0.0
 10
689.1571691643004
 20
128.1104551155501
 30
0.0
 10
689.5615370791367
 20
127.9961079536965
 30
0.0
 10
689.9652768661193
 20
127.8853537719329
 30
0.0
 10
690.3683682503533
 20
127.7781988620015
 30
0.0
 10
690.770790926215
 20
127.6746493063992
 30
0.0
 10
691.1725245593456
 20
127.5747109748424
 30
0.0
 10
691.5735487888658
 20
127.4783895207096
 30
0.0
 10
691.9738432298046
 20
127.3856903774746
 30
0.0
 10
692.373387475759
 20
127.2966187551398
 30
0.0
 10
692.7721611017812
 20
127.2111796366865
 30
0.0
 10
693.1701436675052
 20
127.1293777745498
 30
0.0
 10
693.5673147205177
 20
127.0512176871367
 30
0.0
 10
693.9636537999742
 20
126.9767036554002
 30
0.0
 10
694.3591404404602
 20
126.905839719486
 30
0.0
 10
694.7537541761078
 20
126.8386296754672
 30
0.0
 10
695.1474745449599
 20
126.7750770721856
 30
0.0
 10
695.5402810935819
 20
126.7151852082156
 30
0.0
 10
695.932153381926
 20
126.6589571289709
 30
0.0
 10
696.3230709884314
 20
126.6063956239699
 30
0.0
 10
696.7130135153689
 20
126.5575032242824
 30
0.0
 10
697.1019605944073
 20
126.512282200173
 30
0.0
 10
697.4898918924098
 20
126.4707345589645
 30
0.0
 10
697.8767871174333
 20
126.4328620431364
 30
0.0
 10
698.2626260249325
 20
126.398666128682
 30
0.0
 10
698.6473884241423
 20
126.3681480237394
 30
0.0
 10
699.0310541846322
 20
126.3413086675181
 30
0.0
 10
699.4136032430079
 20
126.3181487295358
 30
0.0
 10
699.7950156097447
 20
126.2986686091862
 30
0.0
 10
700.1752713761306
 20
126.28286843565
 30
0.0
 10
700.5543507212926
 20
126.2707480681691
 30
0.0
 10
700.9322339192862
 20
126.2623070966923
 30
0.0
 10
701.3089013462187
 20
126.2575448429105
 30
0.0
 10
701.6843334873793
 20
126.2564603616881
 30
0.0
 10
702.058510944348
 20
126.259052442902
 30
0.0
 10
702.4314144420518
 20
126.2653196136942
 30
0.0
 10
702.8030248357376
 20
126.2752601411443
 30
0.0
 10
703.1733231178282
 20
126.2888720353642
 30
0.0
 10
703.5422904246321
 20
126.3061530530151
 30
0.0
 10
703.9099080428733
 20
126.3271007012461
 30
0.0
 10
704.2761574160047
 20
126.3517122420501
 30
0.0
 10
704.6410201502766
 20
126.3799846970283
 30
0.0
 10
705.0044780205232
 20
126.4119148525571
 30
0.0
 10
705.3665129756391
 20
126.4474992653417
 30
0.0
 10
705.7271071437124
 20
126.4867342683435
 30
0.0
 10
706.0862428367824
 20
126.529615977064
 30
0.0
 10
706.4439025551976
 20
126.5761402961635
 30
0.0
 10
706.8000689915402
 20
126.6263029263938
 30
0.0
 10
707.1547250340999
 20
126.6800993718169
 30
0.0
 10
707.5078537698628
 20
126.7375249472853
 30
0.0
 10
707.8594384870062
 20
126.7985747861517
 30
0.0
 10
708.2094626768685
 20
126.8632438481764
 30
0.0
 10
708.5579100353879
 20
126.9315269275995
 30
0.0
 10
708.9047644639892
 20
127.0034186613402
 30
0.0
 10
709.2500100699144
 20
127.0789135372886
 30
0.0
 10
709.5936311659835
 20
127.1580059026489
 30
0.0
 10
709.9356122697874
 20
127.2406899722951
 30
0.0
 10
710.2759381023063
 20
127.3269598371001
 30
0.0
 10
710.6145935859602
 20
127.4168094721949
 30
0.0
 10
710.9515638420954
 20
127.510232745117
 30
0.0
 10
711.2868341879164
 20
127.6072234238096
 30
0.0
 10
711.620390132873
 20
127.707775184424
 30
0.0
 10
711.9522173745212
 20
127.8118816188938
 30
0.0
 10
712.2823017938815
 20
127.9195362422228
 30
0.0
 10
712.6106294502811
 20
128.0307324995067
 30
0.0
 10
712.9371865758368
 20
128.1454637724291
 30
0.0
 10
713.2619595691281
 20
128.2637233860348
 30
0.0
 10
713.5849349898473
 20
128.3855046126019
 30
0.0
 10
713.9060995479244
 20
128.510800684323
 30
0.0
 10
714.2254401115287
 20
128.6396047709526
 30
0.0
 10
714.5429436430824
 20
128.7719100858462
 30
0.0
 10
714.8585974024519
 20
128.9077095105704
 30
0.0
 10
715.1723881521206
 20
129.0469970130957
 30
0.0
 10
715.4843050848892
 20
129.189762371587
 30
0.0
 10
715.7943288618527
 20
129.3360108725434
 30
0.0
 10
716.1024724742476
 20
129.4856898233359
 30
0.0
 10
716.4086287375163
 20
129.6389627598241
 30
0.0
 10
716.6794551456661
 20
129.7779052445389
 30
0.0
 10
716.8473988813251
 20
129.8672409174442
 30
0.0
 10
716.9146603199149
 20
129.9030198397923
 30
0.0
  0
LINE
  5
FB
330
1F
100
AcDbEntity
  8
0
  6
Continuous
 62
     7
370
    30
100
AcDbLine
 10
639.0087970901
 20
280.8914420567
 30
0.0
 11
632.2604173789
 21
276.7016280007
 31
0.0
  0
LINE
  5
FC
330
1F
100
AcDbEntity
  8
0
  6
Continuous
 62
     7
370
    30
100
AcDbLine
 10
716.9842886849
 20
129.9396763217
 30
0.0
 11
723.9873157526
 21
133.688380423
 31
0.0
  0
SPLINE
  5
FD
330
1F
100
AcDbEntity
  8
0
  6
Continuous
 62
     7
370
    30
100
AcDbSpline
210
0.0
220
0.0
230
1.0
 70
     8
 71
     3
 72
   472
 73
   468
 74
     0
 42
0.000000001
 43
0.00000001
 40
0.0
 40
0.0
 40
0.0
 40
0.0
 40
0.0020610450462703
 40
0.004204829391071
 40
0.0063486044127086
 40
0.0084923793711034
 40
0.0106361646530064
 40
0.0127799720167374
 40
0.0149238131608459
 40
0.017067699693649
 40
0.0192116431032957
 40
0.0213556547284699
 40
0.0234997457296932
 40
0.025643927061623
 40
0.027788209446128
 40
0.0299326033467416
 40
0.0320771189440243
 40
0.0342217661124487
 40
0.0363665543986056
 40
0.0385114930009125
 40
0.0406565907508817
 40
0.0428018560959309
 40
0.0449472970840159
 40
0.0470929213498035
 40
0.0492387361027524
 40
0.0513847481167397
 40
0.0535309637216231
 40
0.0556773887964847
 40
0.0578240287645971
 40
0.059970888590126
 40
0.0621179727764778
 40
0.0642652853663492
 40
0.0664128299432995
 40
0.0685606096348471
 40
0.0707086271170565
 40
0.072856884620518
 40
0.0750053839375645
 40
0.0771541264308159
 40
0.0793031130428214
 40
0.0814523443067314
 40
0.0836018203579457
 40
0.085751540946739
 40
0.0879015054514847
 40
0.0900517128927425
 40
0.092202161947804
 40
0.0943528509658741
 40
0.0965037779835685
 40
0.0986549407408463
 40
0.1008063366970376
 40
0.1029579630472626
 40
0.1051098167387553
 40
0.107261894487249
 40
0.1094141927934118
 40
0.1115667079590834
 40
0.1137194361033142
 40
0.1158723731782741
 40
0.1180255149848065
 40
0.1201788571876586
 40
0.1223323953303904
 40
0.1244861248498734
 40
0.126640041090278
 40
0.1287941393167063
 40
0.130948414728275
 40
0.1331028624706524
 40
0.1352574776481335
 40
0.1374122553351965
 40
0.1395671905874226
 40
0.1417222784518981
 40
0.1438775139771375
 40
0.1460328922222986
 40
0.1481884082660163
 40
0.1503440572145172
 40
0.1524998342093615
 40
0.1546557344344888
 40
0.1568117531228314
 40
0.1589678855624848
 40
0.16112412710222
 40
0.1632804731566052
 40
0.1654369192107211
 40
0.1675934608242443
 40
0.1697500936353668
 40
0.1719068133640118
 40
0.1740636158148961
 40
0.1762204968800202
 40
0.1783774525409947
 40
0.1805344788708171
 40
0.1826915720354981
 40
0.1848487282952984
 40
0.1870059440056969
 40
0.189163215618089
 40
0.1913205396802367
 40
0.1934779128364602
 40
0.1956353318276622
 40
0.1977927934911273
 40
0.1999502947600646
 40
0.2021078326631216
 40
0.2042654043235798
 40
0.2064230069585562
 40
0.2085806378779262
 40
0.2107382944832309
 40
0.2128959742664985
 40
0.2150536748088123
 40
0.2172113937789559
 40
0.2193691289319354
 40
0.2215268781074009
 40
0.223684639228015
 40
0.2258424102978198
 40
0.22800018940051
 40
0.2301579746977044
 40
0.232315764427153
 40
0.2344735569009845
 40
0.236631350428639
 40
0.2387891430409268
 40
0.2409469332848197
 40
0.2431047197737466
 40
0.2452625011858551
 40
0.2474202762621561
 40
0.2495780438047398
 40
0.2517358026749779
 40
0.253893551791836
 40
0.2560512901300605
 40
0.2582090167184988
 40
0.2603667306383787
 40
0.2625244310216918
 40
0.2646821170495196
 40
0.2668397879504564
 40
0.2689974429990199
 40
0.2711550815140802
 40
0.2733127028574277
 40
0.2754703064322058
 40
0.2776278916815164
 40
0.2797854580870331
 40
0.2819430051675784
 40
0.2841005324777883
 40
0.2862580396068352
 40
0.2884155261771506
 40
0.2905729918431713
 40
0.2927304362901473
 40
0.2948878592330057
 40
0.297045260415134
 40
0.2992026396073721
 40
0.3013599966069092
 40
0.3035173312361995
 40
0.3056746433420722
 40
0.3078319327946539
 40
0.3099891994864609
 40
0.3121464433315257
 40
0.3143036642644688
 40
0.3164608622396873
 40
0.3186180372305095
 40
0.3207751892283938
 40
0.3229323182421852
 40
0.3250894242974016
 40
0.3272465074354211
 40
0.3294035677128975
 40
0.3315606052010471
 40
0.3337176199850269
 40
0.3358746121633112
 40
0.3380315818470769
 40
0.3401885291596685
 40
0.3423454542360546
 40
0.3445023572222493
 40
0.3466592382748455
 40
0.3488160975605014
 40
0.350972935255496
 40
0.3531297515452692
 40
0.3552865466239731
 40
0.357443320694073
 40
0.3596000739659166
 40
0.3617568066574006
 40
0.3639135189935654
 40
0.3660702112062822
 40
0.3682268835338369
 40
0.3703835362206913
 40
0.3725401695171464
 40
0.3746967836789948
 40
0.3768533789673212
 40
0.3790099556481871
 40
0.3811665139923163
 40
0.3833230542749643
 40
0.3854795767755944
 40
0.3876360817776641
 40
0.3897925695684186
 40
0.3919490404386965
 40
0.3941054946827284
 40
0.3962619325978885
 40
0.3984183544846089
 40
0.4005747606461561
 40
0.4027311513884779
 40
0.4048875270200236
 40
0.407043887851634
 40
0.409200234196378
 40
0.4113565663694492
 40
0.4135128846879807
 40
0.4156691894709882
 40
0.4178254810391962
 40
0.4199817597149987
 40
0.4221380258222775
 40
0.4242942796864011
 40
0.4264505216339877
 40
0.4286067519929961
 40
0.4307629710924882
 40
0.4329191792626538
 40
0.4350753768346923
 40
0.4372315641407342
 40
0.4393877415137949
 40
0.4415439092877211
 40
0.4437000677971213
 40
0.4458562173773037
 40
0.4480123583642125
 40
0.4501684910944416
 40
0.452324615905118
 40
0.4544807331338862
 40
0.4566368431188808
 40
0.4587929461986897
 40
0.4609490427122574
 40
0.4631051329990031
 40
0.4652612173985748
 40
0.4674172962510123
 40
0.469573369896627
 40
0.4717294386760008
 40
0.4738855029299447
 40
0.4760415629994811
 40
0.4781976192258793
 40
0.480353671950552
 40
0.4825097215150734
 40
0.4846657682611799
 40
0.4868218125307698
 40
0.4889778546657909
 40
0.4911338950083479
 40
0.493289933900629
 40
0.4954459716848755
 40
0.4976020087034248
 40
0.4997580452986536
 40
0.5019140818129874
 40
0.5040701185401039
 40
0.5062261557571017
 40
0.5083821938064825
 40
0.5105382330307353
 40
0.5126942737723353
 40
0.5148503163737564
 40
0.5170063611774258
 40
0.5191624085257199
 40
0.5213184587609598
 40
0.5234745122254274
 40
0.5256305692612593
 40
0.5277866302105269
 40
0.5299426954151865
 40
0.532098765217024
 40
0.5342548399577199
 40
0.5364109199787298
 40
0.5385670056213615
 40
0.5407230972266601
 40
0.5428791951354549
 40
0.5450352996882871
 40
0.5471914112254114
 40
0.5493475300867675
 40
0.5515036566119008
 40
0.5536597911400006
 40
0.5558159340097975
 40
0.5579720855595549
 40
0.5601282461270225
 40
0.5622844160494075
 40
0.564440595663287
 40
0.566596785304611
 40
0.5687529853085947
 40
0.5709091960096849
 40
0.5730654177415151
 40
0.5752216508367828
 40
0.5773778956272845
 40
0.5795341524437103
 40
0.5816904216156962
 40
0.5838467034716277
 40
0.5860029983386399
 40
0.5881593065424912
 40
0.5903156284074231
 40
0.5924719642561711
 40
0.5946283144097113
 40
0.5967846791872885
 40
0.5989410589061714
 40
0.6010974538816226
 40
0.6032538644267276
 40
0.6054102908522188
 40
0.6075667334664002
 40
0.6097231925749277
 40
0.6118796684806973
 40
0.6140361614836348
 40
0.6161926718805466
 40
0.6183491999648985
 40
0.6205057460266595
 40
0.622662310352057
 40
0.6248188932234112
 40
0.6269754949188181
 40
0.6291321157120228
 40
0.631288755872093
 40
0.6334454156631769
 40
0.6356020953442943
 40
0.6377587951689093
 40
0.6399155153847872
 40
0.6420722562336065
 40
0.6442290179506585
 40
0.6463858007644847
 40
0.6485426048965317
 40
0.6506994305608562
 40
0.6528562779635968
 40
0.6550131473027083
 40
0.6571700387675138
 40
0.6593269525382179
 40
0.6614838887855002
 40
0.6636408476700535
 40
0.6657978293420707
 40
0.667954833940777
 40
0.670111861593823
 40
0.6722689124168331
 40
0.6744259865127633
 40
0.6765830839713405
 40
0.6787402048684322
 40
0.6808973492654391
 40
0.6830545172085952
 40
0.6852117087282851
 40
0.6873689238383555
 40
0.6895261625353404
 40
0.6916834247977535
 40
0.6938407105852341
 40
0.6959980198377441
 40
0.6981553524747167
 40
0.7003127083942157
 40
0.7024700874719776
 40
0.7046274895604742
 40
0.7067849144879846
 40
0.7089423620575063
 40
0.7110998320458713
 40
0.7132573242024998
 40
0.7154148382484122
 40
0.7175723738750971
 40
0.7197299307432721
 40
0.7218875084817366
 40
0.7240451066861059
 40
0.726202724917591
 40
0.728360362701588
 40
0.7305180195264743
 40
0.7326756948421094
 40
0.7348333880584812
 40
0.7369910985442565
 40
0.7391488256252915
 40
0.7413065685831014
 40
0.7434643266533868
 40
0.7456220990243402
 40
0.747779884835124
 40
0.7499376831741997
 40
0.7520954930776436
 40
0.7542533135274614
 40
0.7564111434499217
 40
0.7585689817136733
 40
0.7607268271281247
 40
0.7628846784415796
 40
0.7650425343394228
 40
0.7672003934423604
 40
0.7693582543045043
 40
0.7715161150412235
 40
0.7736739738950585
 40
0.775831829185135
 40
0.7779896791562076
 40
0.7801475219766474
 40
0.7823053557368673
 40
0.7844631784473641
 40
0.7866209880371515
 40
0.7887787823519448
 40
0.7909365591526135
 40
0.7930943161135217
 40
0.7952520508210799
 40
0.797409760772245
 40
0.7995674433731709
 40
0.8017250959379714
 40
0.8038827156874907
 40
0.806040299748354
 40
0.8081978451519872
 40
0.8103553488338713
 40
0.812512807632899
 40
0.8146702182909843
 40
0.816827577452752
 40
0.8189848816655169
 40
0.8211421273794325
 40
0.823299310947882
 40
0.8254564286280671
 40
0.8276134765820345
 40
0.8297704508777697
 40
0.8319273474906861
 40
0.8340841623055125
 40
0.8362408911184015
 40
0.8383975296394113
 40
0.8405540734954711
 40
0.8427105182335893
 40
0.8448668593245549
 40
0.8470230921671326
 40
0.8491792120925257
 40
0.8513352143695291
 40
0.8534910942099132
 40
0.8556468467745891
 40
0.857802467180005
 40
0.8599579505052558
 40
0.8621132917996227
 40
0.8642684860907645
 40
0.8664235283933198
 40
0.8685784137181638
 40
0.8707331370821837
 40
0.8728876935186913
 40
0.8750420780882338
 40
0.8771962858901008
 40
0.8793503120743459
 40
0.8815041518542965
 40
0.8836578005196146
 40
0.8858112534498199
 40
0.8879645061283328
 40
0.8901175541569505
 40
0.8922703932706969
 40
0.8944230193530804
 40
0.8965754284517342
 40
0.8987276167942144
 40
0.9008795808041757
 40
0.9030313171176477
 40
0.905182822599479
 40
0.9073340943598021
 40
0.9094851297705442
 40
0.9116359264817613
 40
0.913786482437955
 40
0.9159367958940031
 40
0.9180868654309162
 40
0.9202366899710125
 40
0.9223862687927854
 40
0.9245356015450389
 40
0.9266846882604256
 40
0.9288335293681996
 40
0.9309821257060171
 40
0.93313047853102
 40
0.9352785895295261
 40
0.9374264608259167
 40
0.9395740949900959
 40
0.9417214950436863
 40
0.9438686644649692
 40
0.9460156071921384
 40
0.9481623276253144
 40
0.9503088306266878
 40
0.9524551215192838
 40
0.9546012060838943
 40
0.9567470905543433
 40
0.9588927816110328
 40
0.9610382863726836
 40
0.9631836123864073
 40
0.9653287676158636
 40
0.9674737604278737
 40
0.969618599577137
 40
0.9717632941894017
 40
0.9739078537429288
 40
0.9760522880484018
 40
0.9781966072273636
 40
0.9803408216892504
 40
0.9824849421070021
 40
0.9846289793915647
 40
0.9867729446652816
 40
0.9889168492341042
 40
0.9910607045591988
 40
0.9932045222276112
 40
0.9953483139224244
 40
0.9974920913924369
 40
0.9996358655274848
 40
1.0
 40
1.0
 40
1.0
 40
1.0
 10
724.2578314788069
 20
133.8351421763036
 30
0.0
 10
724.3522343571005
 20
133.8873530857409
 30
0.0
 10
724.54482985518
 20
133.9938708772536
 30
0.0
 10
724.8331608514209
 20
134.1589961240841
 30
0.0
 10
725.12342530517
 20
134.3294228597597
 30
0.0
 10
725.4116562022231
 20
134.5033349250365
 30
0.0
 10
725.6978927982574
 20
134.6806322000789
 30
0.0
 10
725.9821082180607
 20
134.8613314386774
 30
0.0
 10
726.2642934902088
 20
135.0454179759037
 30
0.0
 10
726.5444349505553
 20
135.2328854164722
 30
0.0
 10
726.8225202780554
 20
135.4237249878698
 30
0.0
 10
727.0985368754791
 20
135.6179283909372
 30
0.0
 10
727.3724723015696
 20
135.8154870335668
 30
0.0
 10
727.6443141537178
 20
136.0163922334186
 30
0.0
 10
727.9140500981229
 20
136.2206351608527
 30
0.0
 10
728.1816678606698
 20
136.4282068513618
 30
0.0
 10
728.4471552285949
 20
136.6390981992975
 30
0.0
 10
728.710500049516
 20
136.8532999565419
 30
0.0
 10
728.9716902314382
 20
137.0708027298159
 30
0.0
 10
729.2307137427628
 20
137.2915969783341
 30
0.0
 10
729.4875586125595
 20
137.5156730113686
 30
0.0
 10
729.7422129310366
 20
137.7430209858648
 30
0.0
 10
729.9946648502142
 20
137.9736309040896
 30
0.0
 10
730.2449025848045
 20
138.2074926113445
 30
0.0
 10
730.492914413279
 20
138.4445957937441
 30
0.0
 10
730.7386886791267
 20
138.6849299760896
 30
0.0
 10
730.9822137922874
 20
138.9284845198396
 30
0.0
 10
731.2234782307584
 20
139.1752486212002
 30
0.0
 10
731.4624705423545
 20
139.4252113093405
 30
0.0
 10
731.6991793466162
 20
139.6783614447437
 30
0.0
 10
731.9335933368537
 20
139.9346877177086
 30
0.0
 10
732.165701282313
 20
140.1941786470046
 30
0.0
 10
732.3954920304495
 20
140.4568225786909
 30
0.0
 10
732.6229545092986
 20
140.7226076850998
 30
0.0
 10
732.8480777299272
 20
140.9915219639961
 30
0.0
 10
733.0708507889539
 20
141.2635532379087
 30
0.0
 10
733.291262871123
 20
141.5386891536408
 30
0.0
 10
733.509303251921
 20
141.8169171819565
 30
0.0
 10
733.7249613002189
 20
142.098224617446
 30
0.0
 10
733.9382264809285
 20
142.382598578562
 30
0.0
 10
734.1490883576629
 20
142.6700260078328
 30
0.0
 10
734.3575365953844
 20
142.9604936722413
 30
0.0
 10
734.5635609630336
 20
143.2539881637704
 30
0.0
 10
734.767151336121
 20
143.5504959001012
 30
0.0
 10
734.96829769928
 20
143.8500031254699
 30
0.0
 10
735.1669901487649
 20
144.1524959116645
 30
0.0
 10
735.3632188948905
 20
144.4579601591648
 30
0.0
 10
735.5569742643975
 20
144.7663815984052
 30
0.0
 10
735.7482467027482
 20
145.0777457911659
 30
0.0
 10
735.9370267763337
 20
145.392038132072
 30
0.0
 10
736.1233051745954
 20
145.7092438501995
 30
0.0
 10
736.3070727120539
 20
146.0293480107735
 30
0.0
 10
736.4883203302397
 20
146.3523355169552
 30
0.0
 10
736.6670390995255
 20
146.6781911117052
 30
0.0
 10
736.8432202208542
 20
147.0068993797139
 30
0.0
 10
737.0168550273632
 20
147.3384447493897
 30
0.0
 10
737.1879349859042
 20
147.6728114949003
 30
0.0
 10
737.3564516984553
 20
148.0099837382536
 30
0.0
 10
737.5223969034304
 20
148.3499454514136
 30
0.0
 10
737.6857624768815
 20
148.6926804584421
 30
0.0
 10
737.8465404335988
 20
149.0381724376591
 30
0.0
 10
738.0047229281092
 20
149.386404923814
 30
0.0
 10
738.1603022555744
 20
149.7373613102613
 30
0.0
 10
738.3132708525916
 20
150.0910248511342
 30
0.0
 10
738.4636212979024
 20
150.447378663512
 30
0.0
 10
738.611346313009
 20
150.8064057295755
 30
0.0
 10
738.756438762704
 20
151.1680888987414
 30
0.0
 10
738.8988916555151
 20
151.5324108897774
 30
0.0
 10
739.0386981440705
 20
151.8993542928875
 30
0.0
 10
739.1758515253907
 20
152.2689015717727
 30
0.0
 10
739.3103452411027
 20
152.6410350656514
 30
0.0
 10
739.4421728775935
 20
153.0157369912516
 30
0.0
 10
739.5713281660935
 20
153.3929894447568
 30
0.0
 10
739.6978049827042
 20
153.7727744037161
 30
0.0
 10
739.8215973483691
 20
154.1550737289117
 30
0.0
 10
739.9426994287948
 20
154.5398691661832
 30
0.0
 10
740.0611055343222
 20
154.9271423482068
 30
0.0
 10
740.1768101197569
 20
155.3168747962281
 30
0.0
 10
740.2898077841564
 20
155.7090479217494
 30
0.0
 10
740.400093270587
 20
156.103643028177
 30
0.0
 10
740.507661465843
 20
156.5006413124133
 30
0.0
 10
740.6125074001403
 20
156.9000238664161
 30
0.0
 10
740.7146262467827
 20
157.3017716786979
 30
0.0
 10
740.8140133218078
 20
157.7058656357974
 30
0.0
 10
740.9106640836106
 20
158.1122865236946
 30
0.0
 10
741.0045741325531
 20
158.5210150291936
 30
0.0
 10
741.0957392105583
 20
158.9320317412572
 30
0.0
 10
741.1841552006944
 20
159.3453171523088
 30
0.0
 10
741.2698181267474
 20
159.7608516594913
 30
0.0
 10
741.35272415279
 20
160.1786155658905
 30
0.0
 10
741.4328695827417
 20
160.5985890817227
 30
0.0
 10
741.5102508599293
 20
161.0207523254894
 30
0.0
 10
741.5848645666441
 20
161.4450853251011
 30
0.0
 10
741.6567074236999
 20
161.8715680189676
 30
0.0
 10
741.7257762899927
 20
162.3001802570631
 30
0.0
 10
741.7920681620619
 20
162.7309018019579
 30
0.0
 10
741.8555801736585
 20
163.163712329834
 30
0.0
 10
741.9163095953147
 20
163.598591431466
 30
0.0
 10
741.9742538339221
 20
164.0355186131871
 30
0.0
 10
742.0294104323159
 20
164.4744732978322
 30
0.0
 10
742.0817770688656
 20
164.9154348256605
 30
0.0
 10
742.131351557075
 20
165.3583824552622
 30
0.0
 10
742.1781318451901
 20
165.8032953644449
 30
0.0
 10
742.2221160158153
 20
166.2501526511125
 30
0.0
 10
742.26330228554
 20
166.698933334124
 30
0.0
 10
742.3016890045734
 20
167.1496163541423
 30
0.0
 10
742.3372746563895
 20
167.6021805744717
 30
0.0
 10
742.3700578573819
 20
168.0566047818879
 30
0.0
 10
742.4000373565276
 20
168.5128676874554
 30
0.0
 10
742.4272120350616
 20
168.9709479273424
 30
0.0
 10
742.4515809058769
 20
169.4308240582805
 30
0.0
 10
742.4731431122331
 20
169.8924745333393
 30
0.0
 10
742.4918979297676
 20
170.3558777341081
 30
0.0
 10
742.5078447662892
 20
170.8210119769359
 30
0.0
 10
742.5209831617467
 20
171.2878555391728
 30
0.0
 10
742.5313127864707
 20
171.7563866280155
 30
0.0
 10
742.538833440914
 20
172.2265833812961
 30
0.0
 10
742.5435450554023
 20
172.698423868262
 30
0.0
 10
742.5454476898907
 20
173.1718860903673
 30
0.0
 10
742.5445415337286
 20
173.6469479820589
 30
0.0
 10
742.5408269054317
 20
174.1235874115683
 30
0.0
 10
742.5343042524601
 20
174.6017821816994
 30
0.0
 10
742.5249741510038
 20
175.0815100306278
 30
0.0
 10
742.5128373057735
 20
175.5627486326982
 30
0.0
 10
742.4978945497962
 20
176.0454755992307
 30
0.0
 10
742.4801468442181
 20
176.5296684793258
 30
0.0
 10
742.4595952781103
 20
177.0153047606756
 30
0.0
 10
742.4362410682799
 20
177.5023618703838
 30
0.0
 10
742.4100855590843
 20
177.9908171757846
 30
0.0
 10
742.3811302222514
 20
178.4806479852736
 30
0.0
 10
742.3493766566994
 20
178.9718315491398
 30
0.0
 10
742.314826588363
 20
179.4643450604066
 30
0.0
 10
742.2774818700201
 20
179.958165655676
 30
0.0
 10
742.2373444811215
 20
180.4532704159787
 30
0.0
 10
742.1944165276218
 20
180.9496363676348
 30
0.0
 10
742.148700241813
 20
181.4472404831181
 30
0.0
 10
742.1001979821573
 20
181.946059681926
 30
0.0
 10
742.0489122331227
 20
182.4460708314594
 30
0.0
 10
741.9948456050175
 20
182.9472507479029
 30
0.0
 10
741.9380008338265
 20
183.4495761971195
 30
0.0
 10
741.878380781046
 20
183.9530238955458
 30
0.0
 10
741.8159884335178
 20
184.4575705110965
 30
0.0
 10
741.7508269032645
 20
184.9631926640778
 30
0.0
 10
741.6828994273224
 20
185.4698669281013
 30
0.0
 10
741.6122093675727
 20
185.9775698310106
 30
0.0
 10
741.5387602105733
 20
186.4862778558095
 30
0.0
 10
741.4625555673866
 20
186.9959674416001
 30
0.0
 10
741.383599173406
 20
187.5066149845286
 30
0.0
 10
741.3018948881816
 20
188.0181968387325
 30
0.0
 10
741.2174466952409
 20
188.5306893172971
 30
0.0
 10
741.1302587019101
 20
189.0440686932176
 30
0.0
 10
741.0403351391287
 20
189.5583112003701
 30
0.0
 10
740.9476803612653
 20
190.0733930344825
 30
0.0
 10
740.852298845926
 20
190.5892903541169
 30
0.0
 10
740.7541951937646
 20
191.1059792816521
 30
0.0
 10
740.6533741282823
 20
191.6234359042812
 30
0.0
 10
740.5498404956303
 20
192.1416362750054
 30
0.0
 10
740.4435992644059
 20
192.6605564136362
 30
0.0
 10
740.3346555254429
 20
193.1801723078035
 30
0.0
 10
740.2230144916016
 20
193.7004599139711
 30
0.0
 10
740.10868149755
 20
194.2213951584538
 30
0.0
 10
739.9916619995462
 20
194.742953938441
 30
0.0
 10
739.8719615752108
 20
195.265112123022
 30
0.0
 10
739.7495859232988
 20
195.7878455542221
 30
0.0
 10
739.6245408634642
 20
196.3111300480396
 30
0.0
 10
739.4968323360212
 20
196.8349413954874
 30
0.0
 10
739.3664664016995
 20
197.3592553636388
 30
0.0
 10
739.2334492413972
 20
197.8840476966756
 30
0.0
 10
739.097787155925
 20
198.4092941169448
 30
0.0
 10
738.9594865657472
 20
198.9349703260162
 30
0.0
 10
738.8185540107174
 20
199.4610520057476
 30
0.0
 10
738.6749961498092
 20
199.9875148193455
 30
0.0
 10
738.5288197608415
 20
200.514334412437
 30
0.0
 10
738.3800317401973
 20
201.0414864141418
 30
0.0
 10
738.2286391025389
 20
201.5689464381481
 30
0.0
 10
738.0746489805159
 20
202.0966900837927
 30
0.0
 10
737.9180686244692
 20
202.6246929371421
 30
0.0
 10
737.758905402129
 20
203.1529305720765
 30
0.0
 10
737.5971667983057
 20
203.6813785513796
 30
0.0
 10
737.4328604145783
 20
204.2100124278267
 30
0.0
 10
737.2659939689729
 20
204.7388077452816
 30
0.0
 10
737.0965752956408
 20
205.267740039787
 30
0.0
 10
736.9246123445262
 20
205.796784840665
 30
0.0
 10
736.7501131810296
 20
206.3259176716184
 30
0.0
 10
736.5730859856681
 20
206.855114051829
 30
0.0
 10
736.3935390537254
 20
207.384349497063
 30
0.0
 10
736.2114807949007
 20
207.913599520776
 30
0.0
 10
736.0269197329468
 20
208.4428396352239
 30
0.0
 10
735.8398645053077
 20
208.9720453525671
 30
0.0
 10
735.6503238627469
 20
209.5011921859819
 30
0.0
 10
735.4583066689713
 20
210.0302556507728
 30
0.0
 10
735.2638219002478
 20
210.5592112654879
 30
0.0
 10
735.0668786450163
 20
211.0880345530298
 30
0.0
 10
734.8674861034953
 20
211.6167010417738
 30
0.0
 10
734.6656535872835
 20
212.1451862666793
 30
0.0
 10
734.4613905189525
 20
212.6734657704133
 30
0.0
 10
734.2547064316376
 20
213.2015151044621
 30
0.0
 10
734.0456109686178
 20
213.7293098302575
 30
0.0
 10
733.8341138828981
 20
214.2568255202848
 30
0.0
 10
733.6202250367762
 20
214.7840377592131
 30
0.0
 10
733.4039544014128
 20
215.310922145005
 30
0.0
 10
733.1853120563871
 20
215.8374542900472
 30
0.0
 10
732.9643081892553
 20
216.3636098222625
 30
0.0
 10
732.7409530950976
 20
216.8893643862339
 30
0.0
 10
732.5152571760615
 20
217.4146936443222
 30
0.0
 10
732.2872309409005
 20
217.9395732777874
 30
0.0
 10
732.0568850045046
 20
218.4639789879099
 30
0.0
 10
731.8242300874267
 20
218.9878864971089
 30
0.0
 10
731.5892770154051
 20
219.511271550059
 30
0.0
 10
731.3520367188775
 20
220.0341099148123
 30
0.0
 10
731.1125202324904
 20
220.5563773839143
 30
0.0
 10
730.8707386946043
 20
221.078049775523
 30
0.0
 10
730.6267033467923
 20
221.5991029345225
 30
0.0
 10
730.3804255333326
 20
222.1195127336419
 30
0.0
 10
730.1319167006986
 20
222.6392550745662
 30
0.0
 10
729.8811883970375
 20
223.1583058890571
 30
0.0
 10
729.6282522716526
 20
223.6766411400556
 30
0.0
 10
729.3731200744702
 20
224.1942368228033
 30
0.0
 10
729.1158036555107
 20
224.7110689659433
 30
0.0
 10
728.8563149643459
 20
225.2271136326388
 30
0.0
 10
728.5946660495573
 20
225.7423469216731
 30
0.0
 10
728.3308690581879
 20
226.2567449685564
 30
0.0
 10
728.0649362351851
 20
226.7702839466337
 30
0.0
 10
727.7968799228432
 20
227.2829400681846
 30
0.0
 10
727.5267125602386
 20
227.7946895855255
 30
0.0
 10
727.2544466826606
 20
228.3055087921057
 30
0.0
 10
726.980094921035
 20
228.8153740236096
 30
0.0
 10
726.7036700013467
 20
229.3242616590478
 30
0.0
 10
726.4251847440538
 20
229.832148121852
 30
0.0
 10
726.1446520634992
 20
230.3390098809637
 30
0.0
 10
725.862084967315
 20
230.8448234519262
 30
0.0
 10
725.5774965558239
 20
231.3495653979695
 30
0.0
 10
725.2909000214356
 20
231.8532123310934
 30
0.0
 10
725.0023086480369
 20
232.355740913152
 30
0.0
 10
724.7117358125699
 20
232.8571278531488
 30
0.0
 10
724.4191949852477
 20
233.3573499070794
 30
0.0
 10
724.1246997260594
 20
233.8563838841188
 30
0.0
 10
723.8282636818833
 20
234.3542066514369
 30
0.0
 10
723.5299005850009
 20
234.8507951364894
 30
0.0
 10
723.2296242554153
 20
235.3461263230275
 30
0.0
 10
722.9274486002112
 20
235.8401772521604
 30
0.0
 10
722.6233876129089
 20
236.3329250234151
 30
0.0
 10
722.3174553728154
 20
236.8243467957915
 30
0.0
 10
722.009666044368
 20
237.3144197888193
 30
0.0
 10
721.7000338764782
 20
237.8031212836037
 30
0.0
 10
721.3885732018674
 20
238.2904286238753
 30
0.0
 10
721.0752984364012
 20
238.776319217031
 30
0.0
 10
720.7602240784177
 20
239.2607705351759
 30
0.0
 10
720.4433647080507
 20
239.7437601161604
 30
0.0
 10
720.124734986554
 20
240.2252655646095
 30
0.0
 10
719.8043496556138
 20
240.7052645529579
 30
0.0
 10
719.4822235366655
 20
241.1837348224689
 30
0.0
 10
719.1583715301996
 20
241.6606541842616
 30
0.0
 10
718.8328086150693
 20
242.136000520324
 30
0.0
 10
718.5055498477898
 20
242.6097517845313
 30
0.0
 10
718.1766103618353
 20
243.0818860036544
 30
0.0
 10
717.846005366935
 20
243.5523812783652
 30
0.0
 10
717.5137501483606
 20
244.0212157842397
 30
0.0
 10
717.1798600662158
 20
244.4883677727536
 30
0.0
 10
716.8443505547172
 20
244.9538155722774
 30
0.0
 10
716.5072371214757
 20
245.4175375890636
 30
0.0
 10
716.168535346771
 20
245.8795123082339
 30
0.0
 10
715.8282608828256
 20
246.3397182947574
 30
0.0
 10
715.4864294530726
 20
246.7981341944285
 30
0.0
 10
715.143056851425
 20
247.2547387348353
 30
0.0
 10
714.7981589415368
 20
247.7095107263276
 30
0.0
 10
714.4517516560645
 20
248.1624290629777
 30
0.0
 10
714.103850995925
 20
248.6134727235359
 30
0.0
 10
713.754473029546
 20
249.062620772388
 30
0.0
 10
713.4036338921231
 20
249.509852360495
 30
0.0
 10
713.0513497848619
 20
249.9551467263434
 30
0.0
 10
712.6976369742306
 20
250.3984831968736
 30
0.0
 10
712.3425117911975
 20
250.8398411884196
 30
0.0
 10
711.9859906304752
 20
251.2792002076309
 30
0.0
 10
711.6280899497579
 20
251.7165398523953
 30
0.0
 10
711.2688262689556
 20
252.1518398127576
 30
0.0
 10
710.9082161694313
 20
252.5850798718251
 30
0.0
 10
710.5462762932262
 20
253.0162399066811
 30
0.0
 10
710.1830233422955
 20
253.4452998892757
 30
0.0
 10
709.8184740777295
 20
253.8722398873288
 30
0.0
 10
709.4526453189817
 20
254.2970400652138
 30
0.0
 10
709.0855539430904
 20
254.7196806848431
 30
0.0
 10
708.7172168839006
 20
255.1401421065452
 30
0.0
 10
708.3476511312845
 20
255.5584047899348
 30
0.0
 10
707.9768737303561
 20
255.9744492947826
 30
0.0
 10
707.6049017806909
 20
256.3882562818718
 30
0.0
 10
707.231752435538
 20
256.7998065138553
 30
0.0
 10
706.8574429010367
 20
257.2090808561012
 30
0.0
 10
706.4819904354257
 20
257.616060277537
 30
0.0
 10
706.1054123482571
 20
258.0207258514848
 30
0.0
 10
705.7277259996027
 20
258.4230587564937
 30
0.0
 10
705.3489487992689
 20
258.8230402771595
 30
0.0
 10
704.9690982059996
 20
259.2206518049469
 30
0.0
 10
704.5881917266889
 20
259.6158748389968
 30
0.0
 10
704.2062469155852
 20
260.0086909869356
 30
0.0
 10
703.8232813734973
 20
260.3990819656731
 30
0.0
 10
703.4393127470058
 20
260.7870296021918
 30
0.0
 10
703.0543587276646
 20
261.1725158343377
 30
0.0
 10
702.6684370512121
 20
261.5555227115954
 30
0.0
 10
702.2815654967712
 20
261.9360323958678
 30
0.0
 10
701.8937618860615
 20
262.3140271622376
 30
0.0
 10
701.5050440826061
 20
262.6894893997286
 30
0.0
 10
701.1154299909357
 20
263.0624016120627
 30
0.0
 10
700.7249375558016
 20
263.432746418403
 30
0.0
 10
700.3335847613807
 20
263.8005065540985
 30
0.0
 10
699.9413896304886
 20
264.1656648714163
 30
0.0
 10
699.5483702237883
 20
264.5282043402715
 30
0.0
 10
699.1545446390045
 20
264.8881080489465
 30
0.0
 10
698.7599310101381
 20
265.2453592048061
 30
0.0
 10
698.3645475066804
 20
265.5999411350068
 30
0.0
 10
697.9684123328287
 20
265.9518372872003
 30
0.0
 10
697.5715437267093
 20
266.3010312302252
 30
0.0
 10
697.1739599595955
 20
266.6475066547999
 30
0.0
 10
696.7756793351348
 20
266.9912473742012
 30
0.0
 10
696.3767201885702
 20
267.3322373249449
 30
0.0
 10
695.9771008859739
 20
267.670460567452
 30
0.0
 10
695.5768398234744
 20
268.0059012867156
 30
0.0
 10
695.1759554264931
 20
268.3385437929574
 30
0.0
 10
694.7744661489816
 20
268.6683725222787
 30
0.0
 10
694.3723904726629
 20
268.9953720373059
 30
0.0
 10
693.9697469062774
 20
269.3195270278298
 30
0.0
 10
693.5665539848263
 20
269.6408223114418
 30
0.0
 10
693.1628302688288
 20
269.9592428341595
 30
0.0
 10
692.7585943435748
 20
270.2747736710502
 30
0.0
 10
692.3538648183896
 20
270.587400026846
 30
0.0
 10
691.948660325896
 20
270.8971072365576
 30
0.0
 10
691.5429995212831
 20
271.2038807660807
 30
0.0
 10
691.1369010815832
 20
271.5077062127962
 30
0.0
 10
690.7303837049502
 20
271.8085693061678
 30
0.0
 10
690.3234661099482
 20
272.1064559083306
 30
0.0
 10
689.9161670348343
 20
272.4013520146851
 30
0.0
 10
689.5085052368623
 20
272.6932437544738
 30
0.0
 10
689.1004994915785
 20
272.9821173913649
 30
0.0
 10
688.6921685921337
 20
273.2679593240248
 30
0.0
 10
688.2835313485942
 20
273.5507560866919
 30
0.0
 10
687.874606587262
 20
273.8304943497448
 30
0.0
 10
687.4654131500048
 20
274.1071609202659
 30
0.0
 10
687.0559698935833
 20
274.3807427426082
 30
0.0
 10
686.6462956889965
 20
274.6512268989523
 30
0.0
 10
686.236409420822
 20
274.9186006098693
 30
0.0
 10
685.8263299865756
 20
275.1828512348735
 30
0.0
 10
685.4160762960664
 20
275.4439662729825
 30
0.0
 10
685.0056672707682
 20
275.7019333632683
 30
0.0
 10
684.5951218431924
 20
275.9567402854148
 30
0.0
 10
684.1844589562703
 20
276.2083749602705
 30
0.0
 10
683.7736975627398
 20
276.4568254504063
 30
0.0
 10
683.3628566245447
 20
276.7020799606685
 30
0.0
 10
682.9519551122353
 20
276.9441268387384
 30
0.0
 10
682.5410120043819
 20
277.1829545756897
 30
0.0
 10
682.1300462869903
 20
277.4185518065515
 30
0.0
 10
681.7190769529278
 20
277.650907310872
 30
0.0
 10
681.3081230013514
 20
277.8800100132891
 30
0.0
 10
680.8972034371503
 20
278.1058489840997
 30
0.0
 10
680.4863372703854
 20
278.3284134398395
 30
0.0
 10
680.075543515745
 20
278.5476927438633
 30
0.0
 10
679.6648411919971
 20
278.763676406935
 30
0.0
 10
679.2542493214532
 20
278.9763540878217
 30
0.0
 10
678.8437869294397
 20
279.1857155938941
 30
0.0
 10
678.4334730672418
 20
279.3917508699505
 30
0.0
 10
678.0233267990266
 20
279.5944500060628
 30
0.0
 10
677.6133671918633
 20
279.7938032432836
 30
0.0
 10
677.2036132917923
 20
279.9898009852719
 30
0.0
 10
676.7940841358845
 20
280.1824337922193
 30
0.0
 10
676.384798761174
 20
280.3716923768457
 30
0.0
 10
675.9757762041546
 20
280.5575676050709
 30
0.0
 10
675.5670355002529
 20
280.7400504967099
 30
0.0
 10
675.158595683322
 20
280.9191322261715
 30
0.0
 10
674.750475785114
 20
281.0948041231786
 30
0.0
 10
674.342694834764
 20
281.2670576734975
 30
0.0
 10
673.9352718582585
 20
281.4358845196864
 30
0.0
 10
673.5282258779048
 20
281.6012764618562
 30
0.0
 10
673.1215759117902
 20
281.7632254584497
 30
0.0
 10
672.7153409732327
 20
281.9217236270355
 30
0.0
 10
672.3095400702257
 20
282.0767632451194
 30
0.0
 10
671.9041922048623
 20
282.2283367509739
 30
0.0
 10
671.4993163727548
 20
282.3764367444837
 30
0.0
 10
671.0949315624321
 20
282.5210559880105
 30
0.0
 10
670.691056754727
 20
282.662187407273
 30
0.0
 10
670.2877109221399
 20
282.7998240922467
 30
0.0
 10
669.8849130281817
 20
282.9339592980801
 30
0.0
 10
669.4826820266935
 20
283.06458644603
 30
0.0
 10
669.0810368611435
 20
283.1916991244116
 30
0.0
 10
668.6799964638919
 20
283.3152910895663
 30
0.0
 10
668.279579755434
 20
283.4353562668452
 30
0.0
 10
667.8798056436007
 20
283.551888751608
 30
0.0
 10
667.4806930227317
 20
283.6648828102358
 30
0.0
 10
667.0822607728088
 20
283.7743328811583
 30
0.0
 10
666.6845277585535
 20
283.8802335758896
 30
0.0
 10
666.2875128284761
 20
283.982579680079
 30
0.0
 10
665.8912348138858
 20
284.0813661545667
 30
0.0
 10
665.4957125278518
 20
284.1765881364486
 30
0.0
 10
665.1009647641162
 20
284.2682409401448
 30
0.0
 10
664.7070102959547
 20
284.3563200584706
 30
0.0
 10
664.3138678749823
 20
284.4408211637083
 30
0.0
 10
663.9215562299058
 20
284.521740108675
 30
0.0
 10
663.5300940652112
 20
284.5990729277855
 30
0.0
 10
663.1395000598034
 20
284.6728158381049
 30
0.0
 10
662.7497928655672
 20
284.7429652403895
 30
0.0
 10
662.3609911058808
 20
284.809517720111
 30
0.0
 10
661.9731133740501
 20
284.8724700484599
 30
0.0
 10
661.5861782316898
 20
284.9318191833245
 30
0.0
 10
661.2002042070246
 20
284.987562270241
 30
0.0
 10
660.8152097931304
 20
285.039696643309
 30
0.0
 10
660.4312134461035
 20
285.0882198260698
 30
0.0
 10
660.0482335831659
 20
285.133129532339
 30
0.0
 10
659.6662885806953
 20
285.1744236669915
 30
0.0
 10
659.2853967721938
 20
285.2121003266918
 30
0.0
 10
658.9055764461892
 20
285.2461578005637
 30
0.0
 10
658.5268458440717
 20
285.2765945707955
 30
0.0
 10
658.1492231578673
 20
285.3034093131725
 30
0.0
 10
657.7727265279523
 20
285.3266008975344
 30
0.0
 10
657.3973740407142
 20
285.3461683881482
 30
0.0
 10
657.0231837261585
 20
285.3621110439935
 30
0.0
 10
656.6501735554656
 20
285.3744283189544
 30
0.0
 10
656.2783614385067
 20
285.383119861911
 30
0.0
 10
655.9077652213218
 20
285.3881855167272
 30
0.0
 10
655.5384026835644
 20
285.3896253221284
 30
0.0
 10
655.1702915359249
 20
285.3874395114649
 30
0.0
 10
654.803449417531
 20
285.3816285123578
 30
0.0
 10
654.4378938933459
 20
285.3721929462208
 30
0.0
 10
654.073642451556
 20
285.3591336276568
 30
0.0
 10
653.7107125009724
 20
285.3424515637272
 30
0.0
 10
653.3491213684453
 20
285.3221479530873
 30
0.0
 10
652.9888862963085
 20
285.2982241849916
 30
0.0
 10
652.6300244398558
 20
285.2706818381641
 30
0.0
 10
652.2725528648693
 20
285.2395226795354
 30
0.0
 10
651.9164885451991
 20
285.2047486628462
 30
0.0
 10
651.5618483604189
 20
285.1663619271204
 30
0.0
 10
651.2086490935561
 20
285.1243647950074
 30
0.0
 10
650.856907428916
 20
285.0787597710003
 30
0.0
 10
650.5066399500043
 20
285.0295495395311
 30
0.0
 10
650.1578631375658
 20
284.9767369629508
 30
0.0
 10
649.8105933677467
 20
284.9203250793996
 30
0.0
 10
649.4648469103864
 20
284.8603171005728
 30
0.0
 10
649.1206399274613
 20
284.7967164093954
 30
0.0
 10
648.7779884716717
 20
284.7295265576076
 30
0.0
 10
648.436908485202
 20
284.6587512632793
 30
0.0
 10
648.0974157986429
 20
284.5843944082578
 30
0.0
 10
647.7595261300935
 20
284.5064600355642
 30
0.0
 10
647.4232550844499
 20
284.4249523467516
 30
0.0
 10
647.0886181528756
 20
284.3398756992344
 30
0.0
 10
646.7556307124759
 20
284.2512346036097
 30
0.0
 10
646.4243080261573
 20
284.159033720977
 30
0.0
 10
646.094665242693
 20
284.0632778602795
 30
0.0
 10
645.7667173969819
 20
283.9639719756742
 30
0.0
 10
645.4404794105059
 20
283.8611211639538
 30
0.0
 10
645.1159660919842
 20
283.7547306620311
 30
0.0
 10
644.7931921382141
 20
283.6448058445019
 30
0.0
 10
644.472172135103
 20
283.5313522213048
 30
0.0
 10
644.1529205588732
 20
283.414375435489
 30
0.0
 10
643.8354517774467
 20
283.2938812611034
 30
0.0
 10
643.5197800519697
 20
283.1698756012482
 30
0.0
 10
643.2059195385567
 20
283.0423644861708
 30
0.0
 10
642.893884289927
 20
282.911354071938
 30
0.0
 10
642.5836882580799
 20
282.7768506377366
 30
0.0
 10
642.2753452936731
 20
282.638860589134
 30
0.0
 10
641.9688691582079
 20
282.4973904399736
 30
0.0
 10
641.6642734888687
 20
282.3524468749355
 30
0.0
 10
641.3615719403941
 20
282.2040365120229
 30
0.0
 10
641.0607776665784
 20
282.0521667858624
 30
0.0
 10
640.7619052663766
 20
281.8968426492922
 30
0.0
 10
640.4649635324747
 20
281.7380788816685
 30
0.0
 10
640.169982524392
 20
281.5758541551276
 30
0.0
 10
639.8769125439187
 20
281.410282458474
 30
0.0
 10
639.586001209341
 20
281.2409733703878
 30
0.0
 10
639.3765271754366
 20
281.116891142523
 30
0.0
 10
639.2646353686424
 20
281.0482192338852
 30
0.0
 10
639.2483892965474
 20
281.0382484521936
 30
0.0
  0
LINE
  5
FE
330
1F
100
AcDbEntity
  8
0
  6
Continuous
 62
     7
370
    30
100
AcDbLine
 10
680.4262550214
 20
160.9626740319
 30
0.0
 11
679.6559926063
 21
160.4378033943
 31
0.0
  0
LINE
  5
FF
330
1F
100
AcDbEntity
  8
0
  6
Continuous
 62
     7
370
    30
100
AcDbLine
 10
684.4441954683
 20
152.7353844252
 30
0.0
 11
685.0380094795
 21
153.0708424408
 31
0.0
  0
LINE
  5
100
330
1F
100
AcDbEntity
  8
0
  6
Continuous
 62
     7
370
    30
100
AcDbLine
 10
662.7636747262
 20
171.178057505
 30
0.0
 11
661.9783230766
 21
170.642904792
 31
0.0
  0
LINE
  5
101
330
1F
100
AcDbEntity
  8
0
  6
Continuous
 62
     7
370
    30
100
AcDbLine
 10
666.7665259387
 20
162.940485823
 30
0.0
 11
667.3233210827
 21
163.2550311025
 31
0.0
  0
LINE
  5
102
330
1F
100
AcDbEntity
  8
0
  6
Continuous
 62
     7
370
    30
100
AcDbLine
 10
548.2875842623
 20
96.2652611657
 30
0.0
 11
548.2875842623
 21
91.5390600614
 31
0.0
  0
LINE
  5
103
330
1F
100
AcDbEntity
  8
0
  6
Continuous
 62
     7
370
    30
100
AcDbLine
 10
575.7875842623
 20
91.5390600614
 30
0.0
 11
575.7875842623
 21
96.2642291025
 31
0.0
  0
SPLINE
  5
104
330
1F
100
AcDbEntity
  8
0
  6
Continuous
 62
     7
370
    30
100
AcDbSpline
210
0.0
220
0.0
230
1.0
 70
     8
 71
     3
 72
   271
 73
   267
 74
     0
 42
0.000000001
 43
0.00000001
 40
0.0
 40
0.0
 40
0.0
 40
0.0
 40
0.001106150365463
 40
0.0060597327491644
 40
0.0106641983851741
 40
0.0149195346530903
 40
0.0188257411567521
 40
0.0223223695563236
 40
0.0254822491397698
 40
0.028305399045861
 40
0.0307918407739145
 40
0.0330265895599074
 40
0.0348950630013471
 40
0.0363972845878208
 40
0.0375336186554031
 40
0.0385420700914403
 40
0.039626872892058
 40
0.0414858169866235
 40
0.0435332862860793
 40
0.0457693170765052
 40
0.0490595615598753
 40
0.0526882088513269
 40
0.0566551956462223
 40
0.0609604402811093
 40
0.0669188222349496
 40
0.0726997668073465
 40
0.0782982634660013
 40
0.0815119858027938
 40
0.0846623760284899
 40
0.0877154613162516
 40
0.0905203618928195
 40
0.0931028175950298
 40
0.0954094085517364
 40
0.0974401732001475
 40
0.0993599385694738
 40
0.101434515900514
 40
0.1036262209026304
 40
0.105970689059455
 40
0.1084678971396446
 40
0.1111489047985147
 40
0.1146257978280571
 40
0.118412687492304
 40
0.1225094974652124
 40
0.1269161433451521
 40
0.1316325321632352
 40
0.1366585618660213
 40
0.1392749460270847
 40
0.1419083687721444
 40
0.1443329748637427
 40
0.1465269309534406
 40
0.1484902704646896
 40
0.1502230237703661
 40
0.1517252180222778
 40
0.1528997101933145
 40
0.1538805044249949
 40
0.1546676139379149
 40
0.1552610493588968
 40
0.1556684471934421
 40
0.1562043990631743
 40
0.1570339293003107
 40
0.15815702212103
 40
0.1595376862386014
 40
0.1610151756278632
 40
0.1625701650274222
 40
0.1642026472834455
 40
0.1669245207398501
 40
0.1698377033895158
 40
0.1729421618591679
 40
0.1786009020198729
 40
0.1840970770493953
 40
0.1893989237092682
 40
0.1945065073682467
 40
0.1994198921878058
 40
0.2041391408134913
 40
0.2086643140895646
 40
0.213034880212884
 40
0.2173190373233761
 40
0.2215180125144589
 40
0.2256318291431469
 40
0.2296605103035282
 40
0.2336040787822082
 40
0.237435945946386
 40
0.2391181643342396
 40
0.2404933072066043
 40
0.2415613964546645
 40
0.2423224490573457
 40
0.2428141987615933
 40
0.2433511949632524
 40
0.2444289337646109
 40
0.245792524484646
 40
0.2474419522157989
 40
0.249441349829912
 40
0.2517444241201988
 40
0.254351149451792
 40
0.2572614969987828
 40
0.2604754347041301
 40
0.2639851174864355
 40
0.2724519178750724
 40
0.280882854423554
 40
0.2908728547668252
 40
0.3008121452242319
 40
0.3107007901695236
 40
0.319487263651194
 40
0.328233460769394
 40
0.3369394288024931
 40
0.3456052153055593
 40
0.3542308680316053
 40
0.3629378718962661
 40
0.3716533566289997
 40
0.380601199410633
 40
0.3897814175757944
 40
0.3991940320274435
 40
0.4088390672365513
 40
0.4187165512362848
 40
0.4288265156108144
 40
0.4369154649131925
 40
0.4451473569576153
 40
0.4535222117585934
 40
0.4620400506456241
 40
0.4707008962529429
 40
0.4793463156694427
 40
0.4881297274453723
 40
0.4970511566454867
 40
0.5061106294996132
 40
0.5154766678122198
 40
0.5249858731238367
 40
0.5346382767247743
 40
0.5444339110838969
 40
0.5543728098266835
 40
0.5622556847163407
 40
0.5699813662913085
 40
0.5775018171983073
 40
0.5848170324645383
 40
0.5919270068070058
 40
0.5992435886067777
 40
0.60632928621765
 40
0.613184092102618
 40
0.6198079983449774
 40
0.6262009966511988
 40
0.6323630783540324
 40
0.6393290301153598
 40
0.6459742087386304
 40
0.6522985976061516
 40
0.6583021794348222
 40
0.6637101034319359
 40
0.6688282811593251
 40
0.6736566962909748
 40
0.6781953319991543
 40
0.6824441709722799
 40
0.6864031954373464
 40
0.6889061605483677
 40
0.6913128013586431
 40
0.6939099403944374
 40
0.6967607927851568
 40
0.6998653877279322
 40
0.7032237576094077
 40
0.7068359379580701
 40
0.7106221597143778
 40
0.7146522174584614
 40
0.7189261530802148
 40
0.7234440111073712
 40
0.7270690890051467
 40
0.730473760945507
 40
0.733640837356288
 40
0.7365702880669833
 40
0.7381375630772732
 40
0.7396272313967729
 40
0.741039288337503
 40
0.7423737294224593
 40
0.7436305503845073
 40
0.7447320472164927
 40
0.7455166384440028
 40
0.745953048746337
 40
0.7462149237288717
 40
0.746578989007072
 40
0.747062628270102
 40
0.7476658447105161
 40
0.7483886423365774
 40
0.7499521069796203
 40
0.7518864096214783
 40
0.7541915899529809
 40
0.756867695135055
 40
0.7599147796261682
 40
0.7628963071400923
 40
0.7661639632072372
 40
0.7697177980037199
 40
0.7735196613786642
 40
0.7773060067290415
 40
0.7810266243868077
 40
0.7846815020711104
 40
0.791211250563211
 40
0.7975199342206415
 40
0.8036074818249905
 40
0.8098843696309715
 40
0.8159072422925211
 40
0.8216760202369318
 40
0.827173076791263
 40
0.8323443310728501
 40
0.8336414297731183
 40
0.8349160098223408
 40
0.8361680696440852
 40
0.837397166785862
 40
0.8384897187081288
 40
0.8393575178365322
 40
0.8399698618518529
 40
0.8403823860488114
 40
0.8407083141312469
 40
0.841160008640011
 40
0.8417423750479899
 40
0.8428509110195482
 40
0.844248844539195
 40
0.8459362035456107
 40
0.8479130214796304
 40
0.8501793370591834
 40
0.8527351940110138
 40
0.8565928899551252
 40
0.8604839434406472
 40
0.8642071571939858
 40
0.8677624866848941
 40
0.8711498902196518
 40
0.8743693288238983
 40
0.8774207661285848
 40
0.880304168259521
 40
0.8842656744961926
 40
0.8878592503595133
 40
0.891139478965346
 40
0.8941396907211047
 40
0.8968598315098116
 40
0.8984902694776111
 40
0.9001862135149575
 40
0.9020815974311801
 40
0.904176444289429
 40
0.9064707789567692
 40
0.9089646278543111
 40
0.9125527005846501
 40
0.9162392349739094
 40
0.9200109303902425
 40
0.9238678022409916
 40
0.9278098640659701
 40
0.931837127264185
 40
0.9359238510085758
 40
0.9398012857877854
 40
0.9438802892741774
 40
0.9475940628225029
 40
0.9509425388234585
 40
0.9539710735547318
 40
0.9568120781783974
 40
0.9583280797373591
 40
0.9598137666048016
 40
0.9614748508244467
 40
0.9633553813120954
 40
0.9654553645534599
 40
0.9677748072651521
 40
0.9703137163163152
 40
0.9730720986355601
 40
0.9760499611059668
 40
0.9790970374777807
 40
0.9819620831603215
 40
0.9846411715937479
 40
0.9871342948345625
 40
0.9894414460651507
 40
0.9917645069559216
 40
0.9938625285405844
 40
0.9957874863803959
 40
0.9978172259363907
 40
1.0
 40
1.0
 40
1.0
 40
1.0
 10
548.2891214835038
 20
91.43195959445275
 30
0.0
 10
548.2892351916348
 20
91.42254914142498
 30
0.0
 10
548.289858109556
 20
91.3709966290565
 30
0.0
 10
548.2943380643328
 20
91.28032484446638
 30
0.0
 10
548.30209948146
 20
91.16295298792058
 30
0.0
 10
548.3121247614838
 20
91.05459116678865
 30
0.0
 10
548.3233985998505
 20
90.9557474176324
 30
0.0
 10
548.3354132015379
 20
90.86630805444071
 30
0.0
 10
548.3476294292458
 20
90.78615223924338
 30
0.0
 10
548.3596936458771
 20
90.71464650678739
 30
0.0
 10
548.3713430201685
 20
90.65105613057081
 30
0.0
 10
548.3822144145336
 20
90.5956125473969
 30
0.0
 10
548.3919682702902
 20
90.54855537042425
 30
0.0
 10
548.4001397911703
 20
90.51080738733152
 30
0.0
 10
548.4069391164171
 20
90.48040500637724
 30
0.0
 10
548.4130983697811
 20
90.45356439506224
 30
0.0
 10
548.4208320464256
 20
90.42068318922512
 30
0.0
 10
548.4309321020328
 20
90.37916300169287
 30
0.0
 10
548.4439070031702
 20
90.32807342735917
 30
0.0
 10
548.4606418417718
 20
90.26509566060689
 30
0.0
 10
548.4820481264572
 20
90.18889917602702
 30
0.0
 10
548.5092338678523
 20
90.0983050185445
 30
0.0
 10
548.5410249187928
 20
89.99933460447146
 30
0.0
 10
548.5817328009732
 20
89.8811309469301
 30
0.0
 10
548.6313444473179
 20
89.74825843140712
 30
0.0
 10
548.6894239413635
 20
89.60548439006567
 30
0.0
 10
548.741944704406
 20
89.48596253985019
 30
0.0
 10
548.78728185087
 20
89.38843900280385
 30
0.0
 10
548.8242649117753
 20
89.31193051350476
 30
0.0
 10
548.8608400988467
 20
89.23900051588137
 30
0.0
 10
548.8961808579273
 20
89.17086967424181
 30
0.0
 10
548.9292876815442
 20
89.1089452034656
 30
0.0
 10
548.9597873889401
 20
89.05340482771764
 30
0.0
 10
548.9879423490368
 20
89.00331401322578
 30
0.0
 10
549.0155538004652
 20
88.95520250902516
 30
0.0
 10
549.0444250947088
 20
88.9059266232835
 30
0.0
 10
549.0758743515815
 20
88.85340531937688
 30
0.0
 10
549.1100075522941
 20
88.79768214239522
 30
0.0
 10
549.1472844740149
 20
88.73825894865435
 30
0.0
 10
549.1911109443066
 20
88.67012009019335
 30
0.0
 10
549.2427403378877
 20
88.59215392942485
 30
0.0
 10
549.3034348270083
 20
88.50352347533772
 30
0.0
 10
549.3711032423023
 20
88.40815774181718
 30
0.0
 10
549.4462083333394
 20
88.30619077471636
 30
0.0
 10
549.5292418286666
 20
88.19777395981563
 30
0.0
 10
549.604226275755
 20
88.1037604309727
 30
0.0
 10
549.6681631669239
 20
88.02605314037048
 30
0.0
 10
549.7167272823642
 20
87.96825741498587
 30
0.0
 10
549.7633581936789
 20
87.91386142492458
 30
0.0
 10
549.8062906401939
 20
87.86467611574972
 30
0.0
 10
549.8451998474915
 20
87.82081169513306
 30
0.0
 10
549.8799218377214
 20
87.78221909175215
 30
0.0
 10
549.9096574435732
 20
87.74957349540094
 30
0.0
 10
549.9345150819852
 20
87.72255834926254
 30
0.0
 10
549.9546369617442
 20
87.70086679529679
 30
0.0
 10
549.9708658302728
 20
87.68348756483115
 30
0.0
 10
549.9832009553796
 20
87.6703460820075
 30
0.0
 10
549.9938290474926
 20
87.6590653958359
 30
0.0
 10
550.0061164316171
 20
87.6460692086899
 30
0.0
 10
550.0234308943363
 20
87.62784848501003
 30
0.0
 10
550.0467486618726
 20
87.60348677791266
 30
0.0
 10
550.0747941672065
 20
87.57445455219869
 30
0.0
 10
550.1061221141899
 20
87.54236215876354
 30
0.0
 10
550.1395082208296
 20
87.50853705896382
 30
0.0
 10
550.1821598231373
 20
87.46582057150725
 30
0.0
 10
550.2352185988616
 20
87.41350690154248
 30
0.0
 10
550.2999617842623
 20
87.35094271700056
 30
0.0
 10
550.3877944108568
 20
87.26785073062285
 30
0.0
 10
550.4974205058198
 20
87.16726572754764
 30
0.0
 10
550.6273766280766
 20
87.05251565329176
 30
0.0
 10
550.7561545987331
 20
86.94289186295809
 30
0.0
 10
550.8831254397008
 20
86.8385053300437
 30
0.0
 10
551.0079305773859
 20
86.73924417009727
 30
0.0
 10
551.1302311983554
 20
86.644995310142
 30
0.0
 10
551.2500521635773
 20
86.55538763519895
 30
0.0
 10
551.3680801684638
 20
86.46961538015593
 30
0.0
 10
551.4851097740609
 20
86.38689358859409
 30
0.0
 10
551.6016240910576
 20
86.30673188625127
 30
0.0
 10
551.717505255471
 20
86.22908005108492
 30
0.0
 10
551.8326275507869
 20
86.15389592854469
 30
0.0
 10
551.946613708479
 20
86.08129981786186
 30
0.0
 10
552.03913573739
 20
86.02379615505802
 30
0.0
 10
552.1071452723086
 20
85.98225226533253
 30
0.0
 10
552.1480742934395
 20
85.95748912423198
 30
0.0
 10
552.1799889725253
 20
85.93832718995337
 30
0.0
 10
552.2031718566033
 20
85.92448746939229
 30
0.0
 10
552.2210824809151
 20
85.9138370632904
 30
0.0
 10
552.2421863507267
 20
85.90132818007068
 30
0.0
 10
552.2720922511752
 20
85.88369143987343
 30
0.0
 10
552.3133176220435
 20
85.85956415548401
 30
0.0
 10
552.3640629067348
 20
85.83014393878034
 30
0.0
 10
552.4246552553622
 20
85.79541346998221
 30
0.0
 10
552.4954532763531
 20
85.75537587516729
 30
0.0
 10
552.5761779627057
 20
85.71042069696973
 30
0.0
 10
552.6670437106725
 20
85.66068482075877
 30
0.0
 10
552.768204135105
 20
85.60636707920366
 30
0.0
 10
552.9292475448058
 20
85.52170175388719
 30
0.0
 10
553.149238916095
 20
85.41032733576189
 30
0.0
 10
553.4456247324548
 20
85.26810249460127
 30
0.0
 10
553.7655370859186
 20
85.12338517049919
 30
0.0
 10
554.1098525853023
 20
84.97740409613334
 30
0.0
 10
554.4475574276354
 20
84.84333983943223
 30
0.0
 10
554.7774607121994
 20
84.72041857212598
 30
0.0
 10
555.0985445436258
 20
84.60787143369676
 30
0.0
 10
555.4232723724227
 20
84.5009498633832
 30
0.0
 10
555.7513373707515
 20
84.39965915595602
 30
0.0
 10
556.0839912665791
 20
84.30354998071056
 30
0.0
 10
556.4216295965869
 20
84.2125350219652
 30
0.0
 10
556.7676125908677
 20
84.12583288357204
 30
0.0
 10
557.1238500358073
 20
84.04324970710354
 30
0.0
 10
557.4933135943825
 20
83.96456188981466
 30
0.0
 10
557.8759988374482
 20
83.8902985926798
 30
0.0
 10
558.2718578713966
 20
83.82100543642473
 30
0.0
 10
558.6807943036183
 20
83.75724373281484
 30
0.0
 10
559.071321344248
 20
83.70387252883744
 30
0.0
 10
559.4412448347493
 20
83.6597114020255
 30
0.0
 10
559.7885884381399
 20
83.62357006300093
 30
0.0
 10
560.1434911949049
 20
83.59212657297863
 30
0.0
 10
560.5057852653077
 20
83.56567760292795
 30
0.0
 10
560.8730235328362
 20
83.54465202924285
 30
0.0
 10
561.244894610984
 20
83.52923051446423
 30
0.0
 10
561.6210757871698
 20
83.51958631217643
 30
0.0
 10
562.0034929058781
 20
83.51591791958543
 30
0.0
 10
562.3942657756637
 20
83.51853094240992
 30
0.0
 10
562.7931458861912
 20
83.52785669931005
 30
0.0
 10
563.1998343006294
 20
83.54433603568447
 30
0.0
 10
563.6116018521607
 20
83.56821628762567
 30
0.0
 10
564.02801843028
 20
83.5997960925783
 30
0.0
 10
564.4176011480309
 20
83.63645150085834
 30
0.0
 10
564.7761902309655
 20
83.67615762681841
 30
0.0
 10
565.099223018507
 20
83.71668091616064
 30
0.0
 10
565.4126090786135
 20
83.76054677635956
 30
0.0
 10
565.7156506942605
 20
83.8072976459586
 30
0.0
 10
566.0139956009841
 20
83.8575226923103
 30
0.0
 10
566.3071830789978
 20
83.91106070711261
 30
0.0
 10
566.5947617097645
 20
83.96772761543906
 30
0.0
 10
566.8708404915359
 20
84.02604643654537
 30
0.0
 10
567.1355107750203
 20
84.08564430129555
 30
0.0
 10
567.3888824681106
 20
84.14616397225086
 30
0.0
 10
567.6446376595292
 20
84.21068363274797
 30
0.0
 10
567.9013373874742
 20
84.27910582655143
 30
0.0
 10
568.157556588364
 20
84.3512658762498
 30
0.0
 10
568.3989609605433
 20
84.42279522188385
 30
0.0
 10
568.6223664005527
 20
84.49217063518627
 30
0.0
 10
568.8285639113014
 20
84.55897323616857
 30
0.0
 10
569.0183263524448
 20
84.62284906958092
 30
0.0
 10
569.1957213014035
 20
84.68471981312382
 30
0.0
 10
569.3609989910645
 20
84.74429255651746
 30
0.0
 10
569.5144057516536
 20
84.80129548329774
 30
0.0
 10
569.6422611430976
 20
84.85015733222406
 30
0.0
 10
569.7474303355649
 20
84.89123915035857
 30
0.0
 10
569.8359995571167
 20
84.9264128323223
 30
0.0
 10
569.9281901269676
 20
84.96364258236771
 30
0.0
 10
570.0279873143256
 20
85.00468082768987
 30
0.0
 10
570.1359579538274
 20
85.04996254559454
 30
0.0
 10
570.2519072900726
 20
85.09963345659
 30
0.0
 10
570.3747090590248
 20
85.15344998375988
 30
0.0
 10
570.5040409697716
 20
85.21150425328331
 30
0.0
 10
570.639568270678
 20
85.27389123603804
 30
0.0
 10
570.781814343606
 20
85.34113640502933
 30
0.0
 10
570.9180210563992
 20
85.40735575413377
 30
0.0
 10
571.0433355110894
 20
85.46987336176556
 30
0.0
 10
571.1529457633546
 20
85.52578459460345
 30
0.0
 10
571.2541574741861
 20
85.57849208517217
 30
0.0
 10
571.3351009471788
 20
85.62146047288344
 30
0.0
 10
571.3979240668847
 20
85.65528399464102
 30
0.0
 10
571.4446176473604
 20
85.68066573988095
 30
0.0
 10
571.4886930546742
 20
85.7048432679361
 30
0.0
 10
571.530179539878
 20
85.72779737434189
 30
0.0
 10
571.5683031235003
 20
85.74906275578668
 30
0.0
 10
571.6006374611088
 20
85.76723261022104
 30
0.0
 10
571.6244635962361
 20
85.78070070873355
 30
0.0
 10
571.6396476663373
 20
85.78931661935776
 30
0.0
 10
571.6505168607163
 20
85.79549763569247
 30
0.0
 10
571.6618628551354
 20
85.80196245755259
 30
0.0
 10
571.6766814287902
 20
85.81042837189564
 30
0.0
 10
571.695134805908
 20
85.82100682646382
 30
0.0
 10
571.7245407755061
 20
85.83793407263013
 30
0.0
 10
571.7673437213666
 20
85.86275028843063
 30
0.0
 10
571.8258754988813
 20
85.89705972644829
 30
0.0
 10
571.8951649030025
 20
85.93821815804536
 30
0.0
 10
571.9749634206122
 20
85.98636510208834
 30
0.0
 10
572.0606797533192
 20
86.03901946052295
 30
0.0
 10
572.1513067946975
 20
86.09575427671903
 30
0.0
 10
572.2458655777341
 20
86.15612515021098
 30
0.0
 10
572.347133008695
 20
86.22218360638915
 30
0.0
 10
572.4519679550315
 20
86.2921764732207
 30
0.0
 10
572.5569245567178
 20
86.36395586493875
 30
0.0
 10
572.6590889911288
 20
86.4355142848674
 30
0.0
 10
572.7845989790328
 20
86.5255206699956
 30
0.0
 10
572.9305559953048
 20
86.63367287961248
 30
0.0
 10
573.0937548686577
 20
86.75974246896733
 30
0.0
 10
573.2506327388858
 20
86.88595868447716
 30
0.0
 10
573.400989061103
 20
87.01200164933188
 30
0.0
 10
573.5446581000845
 20
87.13753821878171
 30
0.0
 10
573.6783395830149
 20
87.25916263317113
 30
0.0
 10
573.8019594177716
 20
87.37613463002874
 30
0.0
 10
573.8895308912669
 20
87.46219079760827
 30
0.0
 10
573.9452426208904
 20
87.51822784936334
 30
0.0
 10
573.9725672297374
 20
87.54596960218258
 30
0.0
 10
573.9992241212733
 20
87.57328381823665
 30
0.0
 10
574.0244195362116
 20
87.59933616641874
 30
0.0
 10
574.0467622664063
 20
87.62263699054785
 30
0.0
 10
574.0646857164887
 20
87.64146488924082
 30
0.0
 10
574.077817429953
 20
87.65533514594384
 30
0.0
 10
574.0871625466335
 20
87.6652435057103
 30
0.0
 10
574.0953825675039
 20
87.67398295431717
 30
0.0
 10
574.1047584683133
 20
87.68398028525323
 30
0.0
 10
574.1194881661474
 20
87.69974709712572
 30
0.0
 10
574.1406229813915
 20
87.72251388718982
 30
0.0
 10
574.169112926457
 20
87.75349482279817
 30
0.0
 10
574.2031934545262
 20
87.79099084532459
 30
0.0
 10
574.2426892871034
 20
87.83505668832095
 30
0.0
 10
574.2873940268623
 20
87.88575534656248
 30
0.0
 10
574.3436277573838
 20
87.95073567687525
 30
0.0
 10
574.4090570220526
 20
88.02827597024819
 30
0.0
 10
574.4801029357609
 20
88.11512748660064
 30
0.0
 10
574.5475500814825
 20
88.20018481992145
 30
0.0
 10
574.6103720091129
 20
88.28184915658319
 30
0.0
 10
574.668780724124
 20
88.36005082711674
 30
0.0
 10
574.7229801100583
 20
88.43472554301779
 30
0.0
 10
574.7731656507659
 20
88.50581413963319
 30
0.0
 10
574.8262028895479
 20
88.58297945960891
 30
0.0
 10
574.8806614568456
 20
88.66474943728178
 30
0.0
 10
574.9354894576846
 20
88.75006347569008
 30
0.0
 10
574.9840289030574
 20
88.82815082469473
 30
0.0
 10
575.0270801847861
 20
88.89960404360556
 30
0.0
 10
575.061352009792
 20
88.95816509213364
 30
0.0
 10
575.0889867546989
 20
89.00646406442517
 30
0.0
 10
575.1124868340814
 20
89.04826394321381
 30
0.0
 10
575.1376441927997
 20
89.09388088625833
 30
0.0
 10
575.1649135910671
 20
89.14441414480798
 30
0.0
 10
575.1941313181758
 20
89.19989351910627
 30
0.0
 10
575.2288222216949
 20
89.26757904340336
 30
0.0
 10
575.2679939782922
 20
89.34676146345181
 30
0.0
 10
575.3105660613076
 20
89.43667112049542
 30
0.0
 10
575.3523472585434
 20
89.52913106477168
 30
0.0
 10
575.393151045202
 20
89.62404413006854
 30
0.0
 10
575.4328375750862
 20
89.7214193469932
 30
0.0
 10
575.4711784581912
 20
89.82104167594525
 30
0.0
 10
575.5071686213214
 20
89.92050175736794
 30
0.0
 10
575.5411300565324
 20
90.02055982877773
 30
0.0
 10
575.5719190381923
 20
90.11763717416474
 30
0.0
 10
575.5993216850094
 20
90.21037076468079
 30
0.0
 10
575.6224978314732
 20
90.29434809464864
 30
0.0
 10
575.6423057530177
 20
90.37098954943883
 30
0.0
 10
575.6571965708708
 20
90.43243037386065
 30
0.0
 10
575.6683966063965
 20
90.48103256495985
 30
0.0
 10
575.6770155890408
 20
90.51981406193019
 30
0.0
 10
575.6859497806124
 20
90.56162877734414
 30
0.0
 10
575.6955255330801
 20
90.60856508521387
 30
0.0
 10
575.7056552574988
 20
90.66099877687103
 30
0.0
 10
575.7161537443565
 20
90.7189400767268
 30
0.0
 10
575.7268161742369
 20
90.78239869255006
 30
0.0
 10
575.7374181207274
 20
90.851383563683
 30
0.0
 10
575.7475423818297
 20
90.92464934204239
 30
0.0
 10
575.7565892609922
 20
90.99884696874875
 30
0.0
 10
575.7641922207298
 20
91.070577853771
 30
0.0
 10
575.7703045325051
 20
91.13770009678657
 30
0.0
 10
575.7751229314915
 20
91.20016755633058
 30
0.0
 10
575.7789443752788
 20
91.25966382331522
 30
0.0
 10
575.7818481486934
 20
91.31583204866372
 30
0.0
 10
575.7839702692071
 20
91.36884863043757
 30
0.0
 10
575.7853920726087
 20
91.41918632440212
 30
0.0
 10
575.7870740475064
 20
91.47555132974554
 30
0.0
 10
575.7874101209838
 20
91.5173837309064
 30
0.0
 10
575.7875842622535
 20
91.53905978670534
 30
0.0
  0
SPLINE
  5
105
330
1F
100
AcDbEntity
  8
0
  6
Continuous
 62
     7
370
    30
100
AcDbSpline
210
0.0
220
0.0
230
1.0
 70
     8
 71
     3
 72
    95
 73
    91
 74
     0
 42
0.000000001
 43
0.00000001
 40
0.0
 40
0.0
 40
0.0
 40
0.0
 40
0.012424847528513
 40
0.017389345506327
 40
0.0256426754830343
 40
0.0342073181848259
 40
0.043394110000852
 40
0.052984714830397
 40
0.0628915802984864
 40
0.0730447775912022
 40
0.0833945762341052
 40
0.0939041539231116
 40
0.1045457465886673
 40
0.115298018915099
 40
0.1261442958718229
 40
0.1370713449334342
 40
0.1480685213967178
 40
0.1591271573215193
 40
0.1702401170206679
 40
0.1814014684623888
 40
0.1926062367199601
 40
0.2038502164269976
 40
0.2151298272988052
 40
0.2264420015224233
 40
0.2377840950309304
 40
0.2491538168935205
 40
0.2605491725972904
 40
0.2719684180904862
 40
0.2834100222453497
 40
0.2948726359618944
 40
0.3063550665599203
 40
0.3178562564079173
 40
0.3293752649764662
 40
0.3409112536759987
 40
0.3524634729718729
 40
0.3640312513755229
 40
0.3756139859874859
 40
0.3872111343313056
 40
0.398822207268159
 40
0.4104467628156971
 40
0.4220844007339736
 40
0.433734757755024
 40
0.4453975033639445
 40
0.4570723360460298
 40
0.4687589799351396
 40
0.4804571818034593
 40
0.4921667083449224
 40
0.5038873437120086
 40
0.5156188872689357
 40
0.5273611515334159
 40
0.5391139602797193
 40
0.550877146781043
 40
0.562650552173223
 40
0.5744340239215331
 40
0.5862274143776754
 40
0.5980305794135498
 40
0.6098433771213561
 40
0.6216656665716895
 40
0.6334973066185797
 40
0.6453381547482783
 40
0.6571880659622458
 40
0.6690468916916135
 40
0.6809144787375545
 40
0.6927906682337879
 40
0.7046752946293724
 40
0.7165681846879931
 40
0.7284691565031395
 40
0.7403780185275202
 40
0.7522945686164363
 40
0.7642185930844445
 40
0.776149865776416
 40
0.7880881471545322
 40
0.8000331834007348
 40
0.8119847055391731
 40
0.8239424285801457
 40
0.8359060506878729
 40
0.8478752523771667
 40
0.8598496957424681
 40
0.8718290237235777
 40
0.8838128594136723
 40
0.8958008054150456
 40
0.9077924432479769
 40
0.919787332821012
 40
0.9317850119654559
 40
0.9437849960461933
 40
0.955786737839833
 40
0.9677895721062767
 40
0.9797929379912876
 40
0.99179625044262
 40
1.0
 40
1.0
 40
1.0
 40
1.0
 10
558.4026123719893
 20
140.4198324859364
 30
0.0
 10
558.3218518920673
 20
140.2794323893922
 30
0.0
 10
558.2088225864442
 20
140.0829337376119
 30
0.0
 10
558.043741294962
 20
139.79227560781
 30
0.0
 10
557.9042103797259
 20
139.5449873373372
 30
0.0
 10
557.7388096200689
 20
139.2491286733418
 30
0.0
 10
557.5661843093939
 20
138.9373792945171
 30
0.0
 10
557.3865235460079
 20
138.609584653873
 30
0.0
 10
557.202360403241
 20
138.2699678247001
 30
0.0
 10
557.0151284039783
 20
137.9208508996931
 30
0.0
 10
556.8259118809608
 20
137.5639949677819
 30
0.0
 10
556.6355103242497
 20
137.2006917669627
 30
0.0
 10
556.4445303648446
 20
136.8319176329437
 30
0.0
 10
556.2534416386742
 20
136.4584252633542
 30
0.0
 10
556.0626147429268
 20
136.0808062305713
 30
0.0
 10
555.8723472603692
 20
135.6995336932945
 30
0.0
 10
555.6828819633602
 20
135.3149922183316
 30
0.0
 10
555.4944197951753
 20
134.927498990712
 30
0.0
 10
555.3071292916932
 20
134.5373191694365
 30
0.0
 10
555.1211535340958
 20
134.1446771890448
 30
0.0
 10
554.9366153585183
 20
133.7497652050415
 30
0.0
 10
554.7536213150763
 20
133.3527494941918
 30
0.0
 10
554.5722647157934
 20
132.9537753680812
 30
0.0
 10
554.3926280093558
 20
132.5529709905547
 30
0.0
 10
554.2147846519105
 20
132.1504503763833
 30
0.0
 10
554.0388005959719
 20
131.7463157708728
 30
0.0
 10
553.8647354866557
 20
131.3406595561191
 30
0.0
 10
553.692643631233
 20
130.9335657915045
 30
0.0
 10
553.522574791413
 20
130.5251114688442
 30
0.0
 10
553.3545748357061
 20
130.1153675428417
 30
0.0
 10
553.188686280423
 20
129.7043997831835
 30
0.0
 10
553.0249487413159
 20
129.2922694838743
 30
0.0
 10
552.8633993129956
 20
128.8790340575098
 30
0.0
 10
552.7040728895524
 20
128.4647475361528
 30
0.0
 10
552.5470024370023
 20
128.0494609959157
 30
0.0
 10
552.3922192260162
 20
127.6332229188589
 30
0.0
 10
552.2397530317063
 20
127.2160795030881
 30
0.0
 10
552.0896323059385
 20
126.7980749298175
 30
0.0
 10
551.9418843266161
 20
126.3792515945391
 30
0.0
 10
551.7965353275431
 20
125.9596503080606
 30
0.0
 10
551.6536106118589
 20
125.5393104722247
 30
0.0
 10
551.5131346514781
 20
125.118270234186
 30
0.0
 10
551.3751311745839
 20
124.6965666225536
 30
0.0
 10
551.2396232428496
 20
124.274235668061
 30
0.0
 10
551.1066333198091
 20
123.8513125110673
 30
0.0
 10
550.9761833315572
 20
123.4278314977811
 30
0.0
 10
550.8482947207757
 20
123.003826266825
 30
0.0
 10
550.7229884949247
 20
122.5793298275099
 30
0.0
 10
550.6002852693097
 20
122.1543746309666
 30
0.0
 10
550.4802053056234
 20
121.728992635142
 30
0.0
 10
550.3627685464766
 20
121.3032153644982
 30
0.0
 10
550.2479946463477
 20
120.8770739651497
 30
0.0
 10
550.1359029993233
 20
120.4505992560704
 30
0.0
 10
550.0265127639396
 20
120.0238217769034
 30
0.0
 10
549.9198428853916
 20
119.5967718328585
 30
0.0
 10
549.8159121153377
 20
119.1694795370938
 30
0.0
 10
549.7147390294816
 20
118.7419748509277
 30
0.0
 10
549.6163420431026
 20
118.3142876222047
 30
0.0
 10
549.5207394246543
 20
117.8864476220543
 30
0.0
 10
549.4279493075567
 20
117.4584845802999
 30
0.0
 10
549.337989700258
 20
117.0304282196782
 30
0.0
 10
549.2508784946493
 20
116.6023082890611
 30
0.0
 10
549.1666334728843
 20
116.1741545958025
 30
0.0
 10
549.0852723126493
 20
115.7459970373286
 30
0.0
 10
549.0068125909189
 20
115.3178656320662
 30
0.0
 10
548.931271786216
 20
114.8897905497711
 30
0.0
 10
548.8586672793932
 20
114.4618021413158
 30
0.0
 10
548.7890163529399
 20
114.0339309679564
 30
0.0
 10
548.7223361888184
 20
113.6062078301027
 30
0.0
 10
548.6586438648224
 20
113.1786637955808
 30
0.0
 10
548.5979563494515
 20
112.7513302273599
 30
0.0
 10
548.5402904952899
 20
112.3242388107163
 30
0.0
 10
548.48566303088
 20
111.8974215797648
 30
0.0
 10
548.4340905510761
 20
111.4709109432939
 30
0.0
 10
548.3855895058607
 20
111.0447397098056
 30
0.0
 10
548.3401761876638
 20
110.6189411116735
 30
0.0
 10
548.2978667169746
 20
110.1935488282439
 30
0.0
 10
548.2586770270206
 20
109.7685970079468
 30
0.0
 10
548.2226228446217
 20
109.3441202884914
 30
0.0
 10
548.1897196780529
 20
108.920153817899
 30
0.0
 10
548.1599827715243
 20
108.4967332653056
 30
0.0
 10
548.1334271772187
 20
108.0738948620102
 30
0.0
 10
548.1100673814445
 20
107.6516753207163
 30
0.0
 10
548.0899185888128
 20
107.2301121998082
 30
0.0
 10
548.0729918286954
 20
106.8092430607869
 30
0.0
 10
548.0593121851847
 20
106.3891114952681
 30
0.0
 10
548.0488505759179
 20
105.9697472735825
 30
0.0
 10
548.0417778574728
 20
105.5512343959787
 30
0.0
 10
548.0379658836827
 20
105.1775291640354
 30
0.0
 10
548.0379479258457
 20
104.9437218424888
 30
0.0
 10
548.0379406352462
 20
104.8487997449654
 30
0.0
  0
SPLINE
  5
106
330
1F
100
AcDbEntity
  8
0
  6
Continuous
 62
     7
370
    30
100
AcDbSpline
210
0.0
220
0.0
230
1.0
 70
     8
 71
     3
 72
    91
 73
    87
 74
     0
 42
0.000000001
 43
0.00000001
 40
0.0
 40
0.0
 40
0.0
 40
0.0
 40
0.0072897667489329
 40
0.019712541671363
 40
0.0321401723259208
 40
0.0445719821565696
 40
0.0570073249314292
 40
0.0694455853599979
 40
0.0818861795638914
 40
0.0943283981406515
 40
0.1067716980253799
 40
0.1192156003838235
 40
0.1316596586587531
 40
0.1441034581252309
 40
0.1565466156620098
 40
0.1689887794567094
 40
0.1814296286525614
 40
0.193868872947475
 40
0.2063062521554943
 40
0.2187415357410323
 40
0.2311745223349972
 40
0.2436050392433635
 40
0.256032941955888
 40
0.2684581136645259
 40
0.2808804648012654
 40
0.2932999326010115
 40
0.3057164807009657
 40
0.3181300987825858
 40
0.33054080226543
 40
0.3429486320610403
 40
0.3553536543958051
 40
0.3677559607116598
 40
0.3801556676553424
 40
0.3925529171648655
 40
0.4049478766670181
 40
0.4173407393966966
 40
0.4297317248539375
 40
0.4421210794138365
 40
0.4545090771086422
 40
0.4668960206031294
 40
0.4792822423879495
 40
0.4916681062210267
 40
0.5040540088503527
 40
0.516440382059538
 40
0.5288276950834386
 40
0.5412164574532764
 40
0.5536072223397002
 40
0.5660005904776465
 40
0.5783972147767752
 40
0.5907978057410338
 40
0.6032031378520867
 40
0.6156140571069431
 40
0.6280314899474562
 40
0.6404564538803692
 40
0.6528900701641894
 40
0.6653335790458502
 40
0.6777883581664365
 40
0.6902559449419164
 40
0.7027380639774903
 40
0.7152366609207731
 40
0.7277539446467699
 40
0.7402924403500114
 40
0.7528550571120891
 40
0.7641374764248796
 40
0.7754157865938566
 40
0.7866889584286875
 40
0.7979567388135301
 40
0.809218788127529
 40
0.8204746539971964
 40
0.8317237337152988
 40
0.8429652205158222
 40
0.8541980249025005
 40
0.8654206562476964
 40
0.8766310389078946
 40
0.8878262160006606
 40
0.8990018512018803
 40
0.910151346499707
 40
0.9212641784375437
 40
0.9323225042224464
 40
0.9432935019495278
 40
0.9541095679090633
 40
0.964606072156628
 40
0.9742489481751874
 40
0.9817908635718512
 40
0.9887701697205599
 40
1.0
 40
1.0
 40
1.0
 40
1.0
 10
584.0296172126447
 20
167.1874547280287
 30
0.0
 10
583.9565442389414
 20
167.1453281034238
 30
0.0
 10
583.7589447698795
 20
167.0314118600655
 30
0.0
 10
583.4378232481399
 20
166.8417480737648
 30
0.0
 10
583.0661288370396
 20
166.6188331002819
 30
0.0
 10
582.6953262278456
 20
166.3922009242862
 30
0.0
 10
582.3253946915087
 20
166.1620847182768
 30
0.0
 10
581.956380853321
 20
165.9284612192918
 30
0.0
 10
581.5883136481933
 20
165.6913769732303
 30
0.0
 10
581.2212261944901
 20
165.4508603011489
 30
0.0
 10
580.8551492599714
 20
165.2069444301137
 30
0.0
 10
580.4901114082414
 20
164.9596601173961
 30
0.0
 10
580.1261398970421
 20
164.7090381296584
 30
0.0
 10
579.7632611323063
 20
164.45510896569
 30
0.0
 10
579.4015006584079
 20
164.1979029466664
 30
0.0
 10
579.0408831877194
 20
163.9374501538058
 30
0.0
 10
578.681432620462
 20
163.6737804090846
 30
0.0
 10
578.3231720684101
 20
163.4069232469451
 30
0.0
 10
577.9661238784631
 20
163.1369078907499
 30
0.0
 10
577.6103096568077
 20
162.8637632300844
 30
0.0
 10
577.2557502931459
 20
162.5875177997115
 30
0.0
 10
576.9024659848258
 20
162.3081997597211
 30
0.0
 10
576.5504762606275
 20
162.0258368767323
 30
0.0
 10
576.1998000039927
 20
161.7404565059065
 30
0.0
 10
575.8504554755037
 20
161.4520855735575
 30
0.0
 10
575.5024603344111
 20
161.1607505601023
 30
0.0
 10
575.1558316590452
 20
160.8664774831212
 30
0.0
 10
574.8105859659206
 20
160.5692918802448
 30
0.0
 10
574.4667392273799
 20
160.2692187916072
 30
0.0
 10
574.1243068876025
 20
159.9662827415609
 30
0.0
 10
573.783303876818
 20
159.6605077193496
 30
0.0
 10
573.443744623546
 20
159.351917158391
 30
0.0
 10
573.1056430646984
 20
159.0405339138233
 30
0.0
 10
572.769012653346
 20
158.7263802379023
 30
0.0
 10
572.4338663639577
 20
158.4094777528324
 30
0.0
 10
572.1002166948782
 20
158.0898474205285
 30
0.0
 10
571.7680756678022
 20
157.7675095087852
 30
0.0
 10
571.4374548239541
 20
157.4424835532323
 30
0.0
 10
571.1083652166552
 20
157.1147883143906
 30
0.0
 10
570.7808173998934
 20
156.7844417290345
 30
0.0
 10
570.4548214124561
 20
156.4514608549441
 30
0.0
 10
570.1303867571023
 20
156.1158618079868
 30
0.0
 10
569.807522374153
 20
155.7776596902815
 30
0.0
 10
569.4862366087694
 20
155.4368685079958
 30
0.0
 10
569.1665371710282
 20
155.0935010770369
 30
0.0
 10
568.8484310877325
 20
154.7475689145836
 30
0.0
 10
568.5319246446691
 20
154.3990821139903
 30
0.0
 10
568.2170233177462
 20
154.0480492000917
 30
0.0
 10
567.9037316911015
 20
153.6944769613065
 30
0.0
 10
567.5920533598194
 20
153.3383702541339
 30
0.0
 10
567.2819908143613
 20
152.9797317746464
 30
0.0
 10
566.9735453030877
 20
152.6185617902888
 30
0.0
 10
566.6667166683415
 20
152.2548578236498
 30
0.0
 10
566.361503150397
 20
151.8886142777592
 30
0.0
 10
566.057901152012
 20
151.5198219896588
 30
0.0
 10
565.7559049543285
 20
151.1484676953987
 30
0.0
 10
565.4555063720021
 20
150.7745333845315
 30
0.0
 10
565.1566943323041
 20
150.397995516337
 30
0.0
 10
564.8594543559964
 20
150.0188240584367
 30
0.0
 10
564.5637679180994
 20
149.6369813059687
 30
0.0
 10
564.2696116298962
 20
149.2524203853689
 30
0.0
 10
563.9769562710143
 20
148.8650834602431
 30
0.0
 10
563.6958681820639
 20
148.4884365647279
 30
0.0
 10
563.4263330298277
 20
148.1230067098068
 30
0.0
 10
563.1683642015299
 20
147.7693482653461
 30
0.0
 10
562.9121921948364
 20
147.4142230276704
 30
0.0
 10
562.6578422444666
 20
147.0576732093174
 30
0.0
 10
562.4053349463471
 20
146.6997352707295
 30
0.0
 10
562.1546931874939
 20
146.3404496192425
 30
0.0
 10
561.9059429229126
 20
145.979861949087
 30
0.0
 10
561.6591142827792
 20
145.6180251537604
 30
0.0
 10
561.4142432128639
 20
145.2550021541909
 30
0.0
 10
561.1713739673597
 20
144.8908701923588
 30
0.0
 10
560.9305630295398
 20
144.5257275761717
 30
0.0
 10
560.6918855253103
 20
144.1597047026431
 30
0.0
 10
560.4554462276305
 20
143.7929829440939
 30
0.0
 10
560.2213995435336
 20
143.4258289359028
 30
0.0
 10
559.9899885899506
 20
143.0586614369608
 30
0.0
 10
559.7616287823382
 20
142.6921945236836
 30
0.0
 10
559.5371114777743
 20
142.3277845462645
 30
0.0
 10
559.3181943817189
 20
141.9684397503938
 30
0.0
 10
559.1099490530454
 20
141.6228010835405
 30
0.0
 10
558.9251379435188
 20
141.3128324230036
 30
0.0
 10
558.764891382121
 20
141.0415832128323
 30
0.0
 10
558.595000381451
 20
140.7519864034287
 30
0.0
 10
558.4760009768106
 20
140.5465363936224
 30
0.0
 10
558.4026123719892
 20
140.4198324859364
 30
0.0
  0
SPLINE
  5
107
330
1F
100
AcDbEntity
  8
0
  6
Continuous
 62
     7
370
    30
100
AcDbSpline
210
0.0
220
0.0
230
1.0
 70
     8
 71
     3
 72
    91
 73
    87
 74
     0
 42
0.000000001
 43
0.00000001
 40
0.0
 40
0.0
 40
0.0
 40
0.0
 40
0.0135832737937967
 40
0.0190200830099462
 40
0.0280571096742241
 40
0.0374358758524521
 40
0.0474959930493804
 40
0.0579977045294538
 40
0.068844588349987
 40
0.0799595443088525
 40
0.091287614773807
 40
0.1027879900474246
 40
0.1144297870972158
 40
0.1261891667813898
 40
0.1380473953355209
 40
0.1499895097226149
 40
0.1620033810988977
 40
0.1740790453690522
 40
0.1862082163100949
 40
0.1983839257439542
 40
0.210600253630896
 40
0.2228521228255109
 40
0.2351351410230927
 40
0.2474454776257248
 40
0.2597797667795397
 40
0.2721350302610446
 40
0.2845086155860383
 40
0.2968981459139708
 40
0.3093014791799665
 40
0.3217166745116853
 40
0.3341419644448113
 40
0.3465757317927322
 40
0.3590164902768735
 40
0.3714628682200033
 40
0.3839135947487938
 40
0.3963674880656231
 40
0.4088234454373988
 40
0.4212804346165713
 40
0.4337374864635427
 40
0.4461936885825201
 40
0.4586481798156826
 40
0.4711001454691917
 40
0.4835488131643133
 40
0.4959934492271741
 40
0.5084333555429695
 40
0.5208678668128133
 40
0.5332963481628326
 40
0.5457181930595947
 40
0.5581328214965235
 40
0.570539678419221
 40
0.5829382323618612
 40
0.5953279742736212
 40
0.6077084165127871
 40
0.6200790919945554
 40
0.632439553475343
 40
0.644789372963231
 40
0.6571281412419366
 40
0.6694554675005793
 40
0.6817709790601689
 40
0.6940743211905751
 40
0.7063651570112599
 40
0.7186431674720185
 40
0.7309080514075442
 40
0.7431595256639225
 40
0.7553973252926368
 40
0.7676212038100999
 40
0.7798309335200603
 40
0.7920263058976135
 40
0.8042071320330462
 40
0.8163732431344631
 40
0.8285244910885309
 40
0.8406607490786048
 40
0.8527819122604211
 40
0.8648878984946622
 40
0.8769786491374081
 40
0.8890541298881611
 40
0.9011143316969841
 40
0.9131592717306133
 40
0.925188994399437
 40
0.9372035724467388
 40
0.9492031081004972
 40
0.9611877342918264
 40
0.9731576159392762
 40
0.9851129513040204
 40
0.9970539734163192
 40
1.0
 40
1.0
 40
1.0
 40
1.0
 10
582.6519805186492
 20
126.420970229033
 30
0.0
 10
582.70999585644
 20
126.521083288792
 30
0.0
 10
582.7912322768627
 20
126.6612673663495
 30
0.0
 10
582.912259695527
 20
126.8673366562099
 30
0.0
 10
583.0156671767364
 20
127.0422014725294
 30
0.0
 10
583.1399757990805
 20
127.2504048086641
 30
0.0
 10
583.271596844459
 20
127.4686989895513
 30
0.0
 10
583.4106858628556
 20
127.6969873815383
 30
0.0
 10
583.5555188006773
 20
127.9321605195929
 30
0.0
 10
583.7051556777153
 20
128.1724709833845
 30
0.0
 10
583.8588778059599
 20
128.4165892098639
 30
0.0
 10
584.0161543997584
 20
128.6635305445012
 30
0.0
 10
584.1765801794693
 20
128.9125430573512
 30
0.0
 10
584.3398385938985
 20
129.163040028272
 30
0.0
 10
584.5056767338891
 20
129.4145540329026
 30
0.0
 10
584.6738882330988
 20
129.6667055256383
 30
0.0
 10
584.8443013465253
 20
129.9191808919695
 30
0.0
 10
585.0167704884096
 20
130.1717168245992
 30
0.0
 10
585.1911701178412
 20
130.4240890035207
 30
0.0
 10
585.3673902482997
 20
130.6761037584392
 30
0.0
 10
585.5453330995922
 20
130.9275918341203
 30
0.0
 10
585.7249105666534
 20
131.1784036628016
 30
0.0
 10
585.9060422813085
 20
131.4284057331855
 30
0.0
 10
586.0886541105725
 20
131.6774777686742
 30
0.0
 10
586.2726769805524
 20
131.9255105106813
 30
0.0
 10
586.4580459461707
 20
132.1724039599021
 30
0.0
 10
586.6446994485897
 20
132.4180659681386
 30
0.0
 10
586.8325787174634
 20
132.6624111013021
 30
0.0
 10
587.0216272860459
 20
132.905359714257
 30
0.0
 10
587.2117905950362
 20
133.1468371926671
 30
0.0
 10
587.4030156668096
 20
133.3867733276338
 30
0.0
 10
587.595250835917
 20
133.6251017967639
 30
0.0
 10
587.7884455249155
 20
133.8617597311896
 30
0.0
 10
587.9825500569734
 20
134.0966873524855
 30
0.0
 10
588.1775154985161
 20
134.3298276668141
 30
0.0
 10
588.3732935265638
 20
134.5611262062176
 30
0.0
 10
588.5698363164923
 20
134.7905308089816
 30
0.0
 10
588.7670964467835
 20
135.0179914325648
 30
0.0
 10
588.9650268179892
 20
135.243459993813
 30
0.0
 10
589.1635805836459
 20
135.4668902321518
 30
0.0
 10
589.3627110913021
 20
135.6882375922258
 30
0.0
 10
589.5623718321293
 20
135.9074591230677
 30
0.0
 10
589.7625163978726
 20
136.1245133913854
 30
0.0
 10
589.9630984440961
 20
136.3393604069535
 30
0.0
 10
590.1640716588605
 20
136.5519615584276
 30
0.0
 10
590.3653897361078
 20
136.762279558168
 30
0.0
 10
590.5670063531442
 20
136.970278394877
 30
0.0
 10
590.7688751517137
 20
137.1759232930415
 30
0.0
 10
590.9709497222268
 20
137.379180678319
 30
0.0
 10
591.1731835907784
 20
137.5800181481323
 30
0.0
 10
591.3755302086504
 20
137.7784044468467
 30
0.0
 10
591.5779429440213
 20
137.9743094449798
 30
0.0
 10
591.7803750756727
 20
138.1677041219868
 30
0.0
 10
591.9827797884839
 20
138.3585605522038
 30
0.0
 10
592.1851101705629
 20
138.5468518936094
 30
0.0
 10
592.3873192118583
 20
138.7325523790827
 30
0.0
 10
592.589359804142
 20
138.9156373098993
 30
0.0
 10
592.7911847422452
 20
139.0960830512196
 30
0.0
 10
592.9927467264683
 20
139.2738670293647
 30
0.0
 10
593.1939983660757
 20
139.4489677306902
 30
0.0
 10
593.3948921838146
 20
139.6213647018946
 30
0.0
 10
593.5953806213938
 20
139.7910385516116
 30
0.0
 10
593.7954160458754
 20
139.9579709531556
 30
0.0
 10
593.994950756928
 20
140.1221446482962
 30
0.0
 10
594.193936994912
 20
140.2835434519589
 30
0.0
 10
594.3923269497506
 20
140.4421522577432
 30
0.0
 10
594.5900727705653
 20
140.5979570441761
 30
0.0
 10
594.7871265760439
 20
140.7509448816092
 30
0.0
 10
594.9834404655179
 20
140.9011039396882
 30
0.0
 10
595.1789665307263
 20
141.0484234953125
 30
0.0
 10
595.3736568682531
 20
141.1928939410439
 30
0.0
 10
595.5674635925757
 20
141.3345067938007
 30
0.0
 10
595.7603388498886
 20
141.4732547041531
 30
0.0
 10
595.9522348319879
 20
141.6091314647524
 30
0.0
 10
596.143103792808
 20
141.7421320231001
 30
0.0
 10
596.3328980578648
 20
141.8722524789979
 30
0.0
 10
596.5215700628484
 20
141.999490139674
 30
0.0
 10
596.7090722862517
 20
142.1238433604281
 30
0.0
 10
596.8953575792676
 20
142.2453121843616
 30
0.0
 10
597.0803780183246
 20
142.3638960054401
 30
0.0
 10
597.2640892631796
 20
142.4796023193978
 30
0.0
 10
597.4464344087888
 20
142.592414171324
 30
0.0
 10
597.62740422725
 20
142.7024114619115
 30
0.0
 10
597.8068128451697
 20
142.8093191018434
 30
0.0
 10
597.9404283068675
 20
142.8878989748101
 30
0.0
 10
598.0137906930687
 20
142.9299743443104
 30
0.0
 10
598.0283085162051
 20
142.9383007197793
 30
0.0
  0
SPLINE
  5
108
330
1F
100
AcDbEntity
  8
0
  6
Continuous
 62
     7
370
    30
100
AcDbSpline
210
0.0
220
0.0
230
1.0
 70
     8
 71
     3
 72
    87
 73
    83
 74
     0
 42
0.000000001
 43
0.00000001
 40
0.0
 40
0.0
 40
0.0
 40
0.0
 40
0.0023858682971696
 40
0.0147869215200079
 40
0.0272059118377336
 40
0.0396432340947015
 40
0.0520992463687475
 40
0.0645742720741911
 40
0.0770686019853942
 40
0.0895824961886803
 40
0.1021161859656436
 40
0.1146698756146614
 40
0.1272437442141509
 40
0.1398379473340498
 40
0.1524526186987644
 40
0.1650878718061
 40
0.1777438015090452
 40
0.19042048556269
 40
0.2031179861416298
 40
0.2158363513342607
 40
0.2285756166181652
 40
0.24133580632047
 40
0.2541169350727439
 40
0.2669190092626736
 40
0.2797420284918138
 40
0.2925859870458116
 40
0.3054508753843386
 40
0.3183366816609246
 40
0.3312433932815095
 40
0.3441709985128133
 40
0.3571194881522775
 40
0.370088857275003
 40
0.3830791070719102
 40
0.396090246797179
 40
0.4091222958469178
 40
0.4221752859924668
 40
0.4352492637957695
 40
0.448344293239817
 40
0.4614604586124453
 40
0.4745978676886708
 40
0.487756655264411
 40
0.500936987106427
 40
0.5141390643936656
 40
0.5273631287422469
 40
0.5406094679278921
 40
0.5538784224377312
 40
0.5671703930222146
 40
0.5804858494519368
 40
0.5938253407356534
 40
0.6071895071219096
 40
0.6205790942903384
 40
0.6339949702497419
 40
0.6474381456103979
 40
0.660909798090708
 40
0.6744113023959318
 40
0.6879442669679219
 40
0.701510579627985
 40
0.7151124648607505
 40
0.728752556535758
 40
0.741017707270222
 40
0.7532873971555829
 40
0.765560108080965
 40
0.7778351471694657
 40
0.790111727644787
 40
0.8023889410622845
 40
0.8146657175691174
 40
0.8269407691546391
 40
0.8392125066851918
 40
0.8514789153221862
 40
0.8637373615828344
 40
0.8759842836106493
 40
0.8882146724597598
 40
0.9004211582817734
 40
0.9125922981082254
 40
0.9247091115505025
 40
0.9367373454596277
 40
0.948607768670112
 40
0.9601555898882956
 40
0.9708664424851698
 40
0.9793987086586817
 40
0.9869745798989081
 40
1.0
 40
1.0
 40
1.0
 40
1.0
 10
576.0377254923235
 20
104.8488458938453
 30
0.0
 10
576.0376812858459
 20
104.8623908024593
 30
0.0
 10
576.0374073068859
 20
104.9463382277667
 30
0.0
 10
576.0386815266935
 20
105.1034538019788
 30
0.0
 10
576.0416869600721
 20
105.320383443862
 30
0.0
 10
576.0467530115819
 20
105.5405042500632
 30
0.0
 10
576.0537074022126
 20
105.7634693222284
 30
0.0
 10
576.0626370500445
 20
105.9893230800787
 30
0.0
 10
576.0735580013417
 20
106.2180038448678
 30
0.0
 10
576.0865040731818
 20
106.4494774600773
 30
0.0
 10
576.1015030511842
 20
106.6837014458851
 30
0.0
 10
576.1185830866843
 20
106.9206346660217
 30
0.0
 10
576.1377709842621
 20
107.1602347715558
 30
0.0
 10
576.1590926683701
 20
107.4024589277191
 30
0.0
 10
576.1825730657225
 20
107.6472636591472
 30
0.0
 10
576.2082361456337
 20
107.8946049320982
 30
0.0
 10
576.2361049189714
 20
108.1444381732269
 30
0.0
 10
576.2662014492663
 20
108.3967183056261
 30
0.0
 10
576.2985468616116
 20
108.6513997804872
 30
0.0
 10
576.333161353222
 20
108.9084366102394
 30
0.0
 10
576.3700642046359
 20
109.167782401644
 30
0.0
 10
576.4092737918598
 20
109.429390389324
 30
0.0
 10
576.4508075994053
 20
109.6932134696725
 30
0.0
 10
576.4946822342774
 20
109.9592042352667
 30
0.0
 10
576.5409134409497
 20
110.2273150098556
 30
0.0
 10
576.5895161173789
 20
110.4974978840435
 30
0.0
 10
576.6405043321245
 20
110.7697047517943
 30
0.0
 10
576.6938913426449
 20
111.0438873479042
 30
0.0
 10
576.7496896148646
 20
111.3199972866225
 30
0.0
 10
576.8079108441187
 20
111.597986101612
 30
0.0
 10
576.8685659775977
 20
111.8778052874896
 30
0.0
 10
576.9316652384501
 20
112.1594063432188
 30
0.0
 10
576.9972181517167
 20
112.4427408176637
 30
0.0
 10
577.0652335723044
 20
112.727760357672
 30
0.0
 10
577.1357197152527
 20
113.0144167591176
 30
0.0
 10
577.2086841885834
 20
113.3026620214047
 30
0.0
 10
577.2841340290802
 20
113.5924484060155
 30
0.0
 10
577.3620757414108
 20
113.8837284997947
 30
0.0
 10
577.4425153410807
 20
114.1764552837904
 30
0.0
 10
577.5254584018044
 20
114.4705822086205
 30
0.0
 10
577.6109101079869
 20
114.7660632775214
 30
0.0
 10
577.6988753131619
 20
115.0628531384605
 30
0.0
 10
577.7893586053841
 20
115.3609071869731
 30
0.0
 10
577.8823643808129
 20
115.6601816817485
 30
0.0
 10
577.9778969269596
 20
115.9606338753957
 30
0.0
 10
578.0759605174304
 20
116.262222163394
 30
0.0
 10
578.1765595203891
 20
116.5649062548942
 30
0.0
 10
578.2796985235178
 20
116.8686473699402
 30
0.0
 10
578.3853824789164
 20
117.1734084687883
 30
0.0
 10
578.4936168722704
 20
117.4791545204587
 30
0.0
 10
578.604407921761
 20
117.785852819578
 30
0.0
 10
578.7177628136712
 20
118.0934733630067
 30
0.0
 10
578.8336899837584
 20
118.4019893013534
 30
0.0
 10
578.9521994556835
 20
118.7113774839089
 30
0.0
 10
579.0733032532098
 20
119.0216191257147
 30
0.0
 10
579.1970159012549
 20
119.3327006186039
 30
0.0
 10
579.323355062849
 20
119.6446145773804
 30
0.0
 10
579.452342275535
 20
119.9573610135628
 30
0.0
 10
579.5794475408144
 20
120.2600966441239
 30
0.0
 10
579.7043000340956
 20
120.5525411803628
 30
0.0
 10
579.8265239143137
 20
120.8343982657455
 30
0.0
 10
579.9506111843667
 20
121.1161809275008
 30
0.0
 10
580.0765388197318
 20
121.3978289199037
 30
0.0
 10
580.2042850306598
 20
121.6792868147968
 30
0.0
 10
580.3338259428507
 20
121.9604965630661
 30
0.0
 10
580.4651350638568
 20
122.24139656064
 30
0.0
 10
580.5981825282628
 20
122.5219203358974
 30
0.0
 10
580.7329339804652
 20
122.8019946024519
 30
0.0
 10
580.8693488821201
 20
123.0815363076773
 30
0.0
 10
581.0073778608262
 20
123.360448004482
 30
0.0
 10
581.1469583933198
 20
123.6386103095669
 30
0.0
 10
581.2880074474712
 20
123.9158690294764
 30
0.0
 10
581.4304082015035
 20
124.1920119161252
 30
0.0
 10
581.5739843757231
 20
124.4667236113124
 30
0.0
 10
581.7184457455935
 20
124.7394901563753
 30
0.0
 10
581.8632583423362
 20
125.0093700638031
 30
0.0
 10
582.0072734192594
 20
125.2743430585162
 30
0.0
 10
582.1473288714602
 20
125.5288305753786
 30
0.0
 10
582.2748592884266
 20
125.757859665053
 30
0.0
 10
582.3868343162833
 20
125.9568880162024
 30
0.0
 10
582.509200830608
 20
126.1727118189208
 30
0.0
 10
582.5966743248864
 20
126.3248064964933
 30
0.0
 10
582.6519805186492
 20
126.420970229033
 30
0.0
  0
LINE
  5
109
330
1F
100
AcDbEntity
  8
0
  6
Continuous
 62
     7
370
    30
100
AcDbLine
 10
576.0375842623
 20
97.826424313
 30
0.0
 11
576.0375842623
 21
104.8486752952
 31
0.0
  0
LINE
  5
10A
330
1F
100
AcDbEntity
  8
0
  6
Continuous
 62
     7
370
    30
100
AcDbLine
 10
548.0375842623
 20
104.8486752952
 30
0.0
 11
548.0375842623
 21
97.826424313
 31
0.0
  0
LINE
  5
10B
330
1F
100
AcDbEntity
  8
0
  6
Continuous
 62
     7
370
    30
100
AcDbLine
 10
666.6243793734
 20
214.8688899019
 30
0.0
 11
584.0295311624
 21
167.1878989482
 31
0.0
  0
LINE
  5
10C
330
1F
100
AcDbEntity
  8
0
  6
Continuous
 62
     7
370
    30
100
AcDbLine
 10
598.0283934194
 20
142.9385308015
 30
0.0
 11
680.6232416303
 21
190.6195217553
 31
0.0
  0
SPLINE
  5
10D
330
1F
100
AcDbEntity
  8
0
  6
Continuous
 62
     7
370
    30
100
AcDbSpline
210
0.0
220
0.0
230
1.0
 70
     8
 71
     3
 72
   101
 73
    97
 74
     0
 42
0.000000001
 43
0.00000001
 40
0.0
 40
0.0
 40
0.0
 40
0.0
 40
0.0015039842097907
 40
0.0120448069813831
 40
0.0226001385905805
 40
0.0331714412640755
 40
0.0437601251203652
 40
0.0543675299083303
 40
0.0649949075251377
 40
0.0756434056934362
 40
0.0863140531510157
 40
0.0970077466813786
 40
0.1077252402758368
 40
0.1184671366711135
 40
0.129233881448882
 40
0.1400257598172467
 40
0.1508428961267718
 40
0.1616852560925328
 40
0.1725526516247901
 40
0.1834447480928586
 40
0.1943610737833599
 40
0.2053010312578943
 40
0.2162639102688334
 40
0.2272489018631475
 40
0.2382551132923288
 40
0.2492815833417233
 40
0.2603272977159261
 40
0.2713912041396832
 40
0.282472226876515
 40
0.2935692804127693
 40
0.3046812821068428
 40
0.3158071636571191
 40
0.3269458812935472
 40
0.3380964246451597
 40
0.3492578242835891
 40
0.3604291579760402
 40
0.371609555712558
 40
0.3827982035992166
 40
0.39399434672128
 40
0.405197291093225
 40
0.416406404821054
 40
0.4276211185960602
 40
0.438840925645283
 40
0.4500653812518149
 40
0.4612941019558475
 40
0.4725267645372445
 40
0.4837631048736991
 40
0.4950028364139333
 40
0.5062458162506177
 40
0.517491959292574
 40
0.5287412347679757
 40
0.5399936655622326
 40
0.5512493279059008
 40
0.5625083514271682
 40
0.573770919628045
 40
0.5850372708490139
 40
0.5963076997966206
 40
0.6075825597169797
 40
0.618862265313787
 40
0.6301472965305295
 40
0.6414382033407141
 40
0.6527356117257123
 40
0.6640402310629957
 40
0.6753528632057153
 40
0.686674413610892
 40
0.6980059049738102
 40
0.7093484939602852
 40
0.7207034918080731
 40
0.7320723898179505
 40
0.7434568910906738
 40
0.7536884295144409
 40
0.7650766276505192
 40
0.7753030634128036
 40
0.7855277375208476
 40
0.7957496131456335
 40
0.8059684442668448
 40
0.8161839243498826
 40
0.8263956694025731
 40
0.8366031938621602
 40
0.8468058769048298
 40
0.8570029143513846
 40
0.8671932483397798
 40
0.8773754616447336
 40
0.887547613826198
 40
0.8977069777906285
 40
0.9078495977341345
 40
0.9179695084568646
 40
0.928057268044067
 40
0.938096977256567
 40
0.9480595892983007
 40
0.9578857432211388
 40
0.9674324089375319
 40
0.9762444069544246
 40
0.9832008351310401
 40
0.9895075344287667
 40
1.0
 40
1.0
 40
1.0
 40
1.0
 10
548.0381993026361
 20
97.76573859769309
 30
0.0
 10
548.0382034327783
 20
97.75909355173113
 30
0.0
 10
548.038236509431
 20
97.70587604088671
 30
0.0
 10
548.0420858596708
 20
97.60604056488317
 30
0.0
 10
548.0500162310159
 20
97.4662303020673
 30
0.0
 10
548.0623121002961
 20
97.3263469731526
 30
0.0
 10
548.0785012512981
 20
97.18642415748454
 30
0.0
 10
548.0987270233901
 20
97.04649808235376
 30
0.0
 10
548.1229668979432
 20
96.90660555602759
 30
0.0
 10
548.1512421920016
 20
96.76678466689734
 30
0.0
 10
548.1835615087128
 20
96.62707471828202
 30
0.0
 10
548.2199356948099
 20
96.48751634288078
 30
0.0
 10
548.2603735685124
 20
96.34815153949431
 30
0.0
 10
548.3048828058029
 20
96.20902369816062
 30
0.0
 10
548.3534694372929
 20
96.07017759380781
 30
0.0
 10
548.4061377224305
 20
95.93165935265338
 30
0.0
 10
548.46288993292
 20
95.79351639019634
 30
0.0
 10
548.523726177768
 20
95.65579732221238
 30
0.0
 10
548.5886442403917
 20
95.51855185060015
 30
0.0
 10
548.657639441026
 20
95.38183062684436
 30
0.0
 10
548.73070452518
 20
95.24568509653794
 30
0.0
 10
548.8078295811088
 20
95.11016732896701
 30
0.0
 10
548.8890019874357
 20
94.97532983614786
 30
0.0
 10
548.9742063912603
 20
94.84122538589007
 30
0.0
 10
549.0634247160508
 20
94.70790681346645
 30
0.0
 10
549.1566361977402
 20
94.57542683626069
 30
0.0
 10
549.2538174466616
 20
94.44383787541838
 30
0.0
 10
549.354942532351
 20
94.31319188800869
 30
0.0
 10
549.4599830877983
 20
94.18354021261075
 30
0.0
 10
549.5689084294742
 20
94.0549334305707
 30
0.0
 10
549.6816856893707
 20
93.92742124447523
 30
0.0
 10
549.7982799553802
 20
93.8010523747237
 30
0.0
 10
549.9186544165344
 20
93.6758744744454
 30
0.0
 10
550.0427705099602
 20
93.55193406245183
 30
0.0
 10
550.1705880667905
 20
93.42927647343835
 30
0.0
 10
550.3020654547255
 20
93.30794582427998
 30
0.0
 10
550.4371597153889
 20
93.18798499498027
 30
0.0
 10
550.5758266950944
 20
93.0694356226594
 30
0.0
 10
550.71802116806
 20
92.95233810686344
 30
0.0
 10
550.8636969515261
 20
92.83673162445433
 30
0.0
 10
551.0128070125635
 20
92.72265415238846
 30
0.0
 10
551.1653035666938
 20
92.61014249676543
 30
0.0
 10
551.3211381686615
 20
92.49923232666917
 30
0.0
 10
551.4802617959449
 20
92.38995821145559
 30
0.0
 10
551.6426249257248
 20
92.2823536603094
 30
0.0
 10
551.8081776061683
 20
92.17645116305617
 30
0.0
 10
551.97686912094
 20
92.0722824796445
 30
0.0
 10
552.1486484547478
 20
91.96987839373553
 30
0.0
 10
552.3234643692994
 20
91.86926874754852
 30
0.0
 10
552.5012658982222
 20
91.7704822557115
 30
0.0
 10
552.6820019679777
 20
91.6735468133024
 30
0.0
 10
552.8656214424954
 20
91.57848953910818
 30
0.0
 10
553.0520731835443
 20
91.48533680889764
 30
0.0
 10
553.2413061150107
 20
91.39411428657345
 30
0.0
 10
553.4332692923149
 20
91.30484695339531
 30
0.0
 10
553.6279119785587
 20
91.21755913537346
 30
0.0
 10
553.8251837292111
 20
91.13227452897965
 30
0.0
 10
554.0250344873903
 20
91.04901622535432
 30
0.0
 10
554.2274146921437
 20
90.96780673322775
 30
0.0
 10
554.4322754025695
 20
90.88866800079686
 30
0.0
 10
554.6395684411916
 20
90.81162143683397
 30
0.0
 10
554.8492465607817
 20
90.73668793132165
 30
0.0
 10
555.0612636396457
 20
90.66388787597917
 30
0.0
 10
555.2755749122374
 20
90.59324118495
 30
0.0
 10
555.4921372415038
 20
90.5247673164576
 30
0.0
 10
555.7109094495779
 20
90.4584852944591
 30
0.0
 10
555.9318526966009
 20
90.39441373626532
 30
0.0
 10
556.1549310129059
 20
90.33257086652023
 30
0.0
 10
556.3801116789084
 20
90.27297459402465
 30
0.0
 10
556.5995785932604
 20
90.21760716685073
 30
0.0
 10
556.8207267897084
 20
90.16437706175715
 30
0.0
 10
557.0355601181511
 20
90.11512096064348
 30
0.0
 10
557.2517254076553
 20
90.06799522395534
 30
0.0
 10
557.4611778434438
 20
90.02453845044919
 30
0.0
 10
557.6717305490345
 20
89.9830447078911
 30
0.0
 10
557.8833190201331
 20
89.94352443930312
 30
0.0
 10
558.0958827314157
 20
89.90598649109587
 30
0.0
 10
558.3093592019021
 20
89.87043925628466
 30
0.0
 10
558.5236834221491
 20
89.83689068210127
 30
0.0
 10
558.738787113209
 20
89.80534826579832
 30
0.0
 10
558.9545976356552
 20
89.77581905582643
 30
0.0
 10
559.171036381372
 20
89.74830965498812
 30
0.0
 10
559.3880163259156
 20
89.72282622903754
 30
0.0
 10
559.60543818255
 20
89.69937452498307
 30
0.0
 10
559.8231841198813
 20
89.6779599070336
 30
0.0
 10
560.0411070117236
 20
89.65858743184315
 30
0.0
 10
560.2590109669916
 20
89.6412619924635
 30
0.0
 10
560.4766134718906
 20
89.62598867827263
 30
0.0
 10
560.6934647275443
 20
89.61277346157053
 30
0.0
 10
560.9087532712437
 20
89.6016257131846
 30
0.0
 10
561.1207467337986
 20
89.59256367969529
 30
0.0
 10
561.3246262094239
 20
89.58565054424794
 30
0.0
 10
561.5078792746017
 20
89.58095924998177
 30
0.0
 10
561.6677503757412
 20
89.57803439690187
 30
0.0
 10
561.8398375119972
 20
89.57583606018424
 30
0.0
 10
561.9615590876701
 20
89.57551312702448
 30
0.0
 10
562.037584262254
 20
89.57531142860157
 30
0.0
  0
SPLINE
  5
10E
330
1F
100
AcDbEntity
  8
0
  6
Continuous
 62
     7
370
    30
100
AcDbSpline
210
0.0
220
0.0
230
1.0
 70
     8
 71
     3
 72
   106
 73
   102
 74
     0
 42
0.000000001
 43
0.00000001
 40
0.0
 40
0.0
 40
0.0
 40
0.0
 40
0.0108055730075631
 40
0.0152836312220737
 40
0.0227075414895231
 40
0.0304347352506303
 40
0.0387373315980639
 40
0.0474128286165525
 40
0.056379324734524
 40
0.0655715241775737
 40
0.0749430458839198
 40
0.0844595755447921
 40
0.0940952556963717
 40
0.1038302217652429
 40
0.1136489474304219
 40
0.1235391068365478
 40
0.1334907771699029
 40
0.1434958692952293
 40
0.1535477140960179
 40
0.1636407570417519
 40
0.1737703292726769
 40
0.1839324736481881
 40
0.1941238108721919
 40
0.2043414352438655
 40
0.2145828325917352
 40
0.2248458150183184
 40
0.23512846852455
 40
0.2454291106036254
 40
0.2557462556273436
 40
0.2660785863757333
 40
0.2764249304505942
 40
0.2867842406016976
 40
0.2971555782086913
 40
0.3075380993269108
 40
0.3179310428264536
 40
0.3283337202513606
 40
0.3387455070990831
 40
0.3491658352773968
 40
0.3595941865411183
 40
0.3700300867491194
 40
0.3804731008063418
 40
0.3909228281828361
 40
0.4013788989175049
 40
0.4118409700296051
 40
0.4223087222750014
 40
0.4327818571912826
 40
0.443260094387713
 40
0.4537431690401826
 40
0.464230829559115
 40
0.4747228354026437
 40
0.4852189550131356
 40
0.4957189638575963
 40
0.5062226425580223
 40
0.5167297751009309
 40
0.5272401471186192
 40
0.5377535442387597
 40
0.5482697505028741
 40
0.5587884771722936
 40
0.5693094916143621
 40
0.5798325561886413
 40
0.5903574257580841
 40
0.6008838466535844
 40
0.6114115557912633
 40
0.6219402799950539
 40
0.6324697355634311
 40
0.6429996281226183
 40
0.6535296528143579
 40
0.6640594948681072
 40
0.674588830610903
 40
0.6851173289691666
 40
0.6956446535152223
 40
0.706170465107929
 40
0.7166944251725589
 40
0.7272161996531947
 40
0.7377354636625361
 40
0.7482519068340463
 40
0.7587652393666747
 40
0.7692751987253169
 40
0.7797815569387305
 40
0.7902841284062393
 40
0.8007827780970284
 40
0.8112774299971609
 40
0.8217680756292167
 40
0.8322547824490797
 40
0.8427377018977457
 40
0.8532170768766888
 40
0.8636932484033678
 40
0.8741666612043464
 40
0.8846378680120321
 40
0.8951075323488942
 40
0.9055764296051674
 40
0.916045446253642
 40
0.9265155770798728
 40
0.9369879203549238
 40
0.9474636709248752
 40
0.9579441112393773
 40
0.968430600399179
 40
0.9789245613447728
 40
0.9894274663648446
 40
0.9999408211405596
 40
1.0
 40
1.0
 40
1.0
 40
1.0
 10
562.037584262254
 20
89.57531142860157
 30
0.0
 10
562.1158934566694
 20
89.57552075269939
 30
0.0
 10
562.2266556391012
 20
89.57581682513495
 30
0.0
 10
562.391184235874
 20
89.57781363052305
 30
0.0
 10
562.5333781961566
 20
89.58025037977197
 30
0.0
 10
562.7032061378555
 20
89.5843525453992
 30
0.0
 10
562.8819916557995
 20
89.58996782385218
 30
0.0
 10
563.0695964253985
 20
89.59731260329633
 30
0.0
 10
563.2634376794902
 20
89.60646127943913
 30
0.0
 10
563.4620604309581
 20
89.61748514878704
 30
0.0
 10
563.6643528869516
 20
89.6304347127642
 30
0.0
 10
563.8694876406827
 20
89.64534878384772
 30
0.0
 10
564.0768284149913
 20
89.66225701076962
 30
0.0
 10
564.2858743051113
 20
89.68118220031496
 30
0.0
 10
564.4962218826215
 20
89.70214181940398
 30
0.0
 10
564.7075393322598
 20
89.7251490919714
 30
0.0
 10
564.919548423253
 20
89.75021379121134
 30
0.0
 10
565.1320117058433
 20
89.77734283008785
 30
0.0
 10
565.3447232565422
 20
89.80654070778027
 30
0.0
 10
565.5575018778951
 20
89.83780985346652
 30
0.0
 10
565.770186025593
 20
89.87115089504977
 30
0.0
 10
565.9826299711749
 20
89.90656287229504
 30
0.0
 10
566.1947008620637
 20
89.9440434081363
 30
0.0
 10
566.4062764425687
 20
89.98358884810203
 30
0.0
 10
566.6172432681477
 20
90.02519437513598
 30
0.0
 10
566.8274952922767
 20
90.06885410521895
 30
0.0
 10
567.0369327379628
 20
90.11456116785281
 30
0.0
 10
567.2454611889798
 20
90.1623077744952
 30
0.0
 10
567.4529908523555
 20
90.21208527731666
 30
0.0
 10
567.6594359555353
 20
90.26388422012049
 30
0.0
 10
567.8647142503352
 20
90.3176943828628
 30
0.0
 10
568.0687466022199
 20
90.3735048209054
 30
0.0
 10
568.2714566482523
 20
90.43130389989918
 30
0.0
 10
568.4727705106595
 20
90.49107932701288
 30
0.0
 10
568.6726165557264
 20
90.5528181790779
 30
0.0
 10
568.8709251898281
 20
90.61650692810737
 30
0.0
 10
569.0676286860491
 20
90.68213146455423
 30
0.0
 10
569.2626610361051
 20
90.74967711860157
 30
0.0
 10
569.4559578232872
 20
90.81912867971583
 30
0.0
 10
569.6474561129315
 20
90.89047041464538
 30
0.0
 10
569.8370943575524
 20
90.96368608400495
 30
0.0
 10
570.024812314274
 20
91.03875895754939
 30
0.0
 10
570.2105509726084
 20
91.11567182821344
 30
0.0
 10
570.3942524909578
 20
91.1944070249664
 30
0.0
 10
570.5758601404793
 20
91.27494642450759
 30
0.0
 10
570.7553182551959
 20
91.35727146181367
 30
0.0
 10
570.9325721873961
 20
91.4413631395255
 30
0.0
 10
571.1075682675478
 20
91.52720203615627
 30
0.0
 10
571.2802537680607
 20
91.61476831308218
 30
0.0
 10
571.4505768703663
 20
91.70404172027573
 30
0.0
 10
571.6184866348683
 20
91.79500160072743
 30
0.0
 10
571.7839329734139
 20
91.8876268935029
 30
0.0
 10
571.9468666240072
 20
91.98189613537674
 30
0.0
 10
572.107239127563
 20
92.0777874609886
 30
0.0
 10
572.2650028065634
 20
92.1752786014727
 30
0.0
 10
572.4201107455301
 20
92.27434688151801
 30
0.0
 10
572.5725164366783
 20
92.37496899259197
 30
0.0
 10
572.7221740853296
 20
92.47712116475358
 30
0.0
 10
572.869038605625
 20
92.58077916013461
 30
0.0
 10
573.0130659202017
 20
92.68591849775976
 30
0.0
 10
573.1542126560124
 20
92.79251424864252
 30
0.0
 10
573.2924361322308
 20
92.90054102006198
 30
0.0
 10
573.4276943570048
 20
93.00997294312211
 30
0.0
 10
573.5599460270904
 20
93.12078365963004
 30
0.0
 10
573.6891505306953
 20
93.23294630871305
 30
0.0
 10
573.8152679537588
 20
93.34643351360242
 30
0.0
 10
573.938259089866
 20
93.46121736908495
 30
0.0
 10
574.0580854539485
 20
93.57726943019901
 30
0.0
 10
574.174709299853
 20
93.69456070281784
 30
0.0
 10
574.2880936417804
 20
93.81306163682892
 30
0.0
 10
574.3982022794683
 20
93.9327421226569
 30
0.0
 10
574.5049998268772
 20
94.05357149191394
 30
0.0
 10
574.6084517439624
 20
94.17551852295159
 30
0.0
 10
574.7085243709588
 20
94.29855145206986
 30
0.0
 10
574.805184964406
 20
94.42263799105852
 30
0.0
 10
574.8984017339604
 20
94.54774535165109
 30
0.0
 10
574.9881438788467
 20
94.67384027730053
 30
0.0
 10
575.0743816226313
 20
94.80088908250062
 30
0.0
 10
575.1570862448586
 20
94.92885769961784
 30
0.0
 10
575.2362301079817
 20
95.05771173292273
 30
0.0
 10
575.3117866779767
 20
95.18741651918845
 30
0.0
 10
575.3837305370428
 20
95.31793719388358
 30
0.0
 10
575.4520373868837
 20
95.44923876165288
 30
0.0
 10
575.5166840412493
 20
95.58128616943208
 30
0.0
 10
575.5776484066594
 20
95.7140443802609
 30
0.0
 10
575.6349094506476
 20
95.84747844558794
 30
0.0
 10
575.6884471570127
 20
95.98155357368971
 30
0.0
 10
575.7382424690646
 20
96.11623519170968
 30
0.0
 10
575.7842772185543
 20
96.25148899882825
 30
0.0
 10
575.8265340527919
 20
96.38728100813957
 30
0.0
 10
575.8649963197305
 20
96.52357757507649
 30
0.0
 10
575.8996480700679
 20
96.66034541026568
 30
0.0
 10
575.9304735940747
 20
96.79755157596342
 30
0.0
 10
575.957458679981
 20
96.93516346240774
 30
0.0
 10
575.9805854451746
 20
97.07314875309308
 30
0.0
 10
575.9998511822112
 20
97.21147534314694
 30
0.0
 10
576.0151975520243
 20
97.35011134503266
 30
0.0
 10
576.0267747103076
 20
97.48902468335635
 30
0.0
 10
576.0339541614071
 20
97.62818414601462
 30
0.0
 10
576.0373374011406
 20
97.7213088301733
 30
0.0
 10
576.0372312403035
 20
97.76803010233938
 30
0.0
 10
576.0372306460772
 20
97.76829162069383
 30
0.0
  0
LINE
  5
10F
330
1F
100
AcDbEntity
  8
0
  6
Continuous
 62
     7
370
    30
100
AcDbLine
 10
632.2022390578
 20
276.6654095479
 30
0.0
 11
632.3217201695
 21
276.7395804009
 31
0.0
  0
LINE
  5
110
330
1F
100
AcDbEntity
  8
0
  6
Continuous
 62
     7
370
    30
100
AcDbLine
 10
717.0441806042
 20
129.9718289963
 30
0.0
 11
716.9179976393
 21
129.9043040897
 31
0.0
  0
LINE
  5
111
330
1F
100
AcDbEntity
  8
0
  6
Continuous
 62
     7
370
    30
100
AcDbLine
 10
639.0087970901
 20
280.8914420567
 30
0.0
 11
639.2454663147
 21
281.0367803177
 31
0.0
  0
LINE
  5
112
330
1F
100
AcDbEntity
  8
0
  6
Continuous
 62
     7
370
    30
100
AcDbLine
 10
724.2547246917
 20
133.8333742171
 30
0.0
 11
723.9873157526
 21
133.688380423
 31
0.0
  0
SPLINE
  5
113
330
1F
100
AcDbEntity
  8
0
  6
Continuous
 62
     7
370
    30
100
AcDbSpline
210
0.0
220
0.0
230
1.0
 70
    11
 71
     3
 72
   119
 73
   115
 74
     0
 42
0.000000001
 43
0.00000001
 40
0.0
 40
0.0
 40
0.0
 40
0.0
 40
0.0083639775824242
 40
0.0167395377301843
 40
0.0251150955301737
 40
0.0334790699066587
 40
0.0422937618540101
 40
0.0511152307350043
 40
0.0599299207595766
 40
0.069000471637034
 40
0.0780784108439847
 40
0.0871489597479532
 40
0.0959627230007402
 40
0.10478326583212
 40
0.1135970276860299
 40
0.1226667327134178
 40
0.1317438284165404
 40
0.1408135324574339
 40
0.1496284646867608
 40
0.1584501820331941
 40
0.1672651140009191
 40
0.1763361603831594
 40
0.1854146021729609
 40
0.194485648988952
 40
0.2033033371839327
 40
0.2121278165064595
 40
0.2209455056943427
 40
0.2300194945487609
 40
0.2391008838577168
 40
0.2481748743783627
 40
0.2569956982742223
 40
0.2658233171414889
 40
0.2746441428512739
 40
0.2837213861643956
 40
0.2928060330783206
 40
0.3018832785606465
 40
0.3107062423903943
 40
0.3195360011769043
 40
0.3283589668456899
 40
0.337438348861252
 40
0.3465251343394156
 40
0.3556045180751685
 40
0.3644276871717778
 40
0.3732576473595607
 40
0.3820808175131982
 40
0.3911602841667496
 40
0.4002471509225841
 40
0.4093266180927783
 40
0.4181479685627293
 40
0.4269761041089606
 40
0.4357974543919954
 40
0.4448749154659897
 40
0.4539597715378964
 40
0.4630372317001767
 40
0.4718555379275099
 40
0.4806806237048515
 40
0.4894989285857614
 40
0.4985731741038378
 40
0.5076548100087915
 40
0.5167290535882311
 40
0.5255444238598834
 40
0.5343665710591455
 40
0.5431819394155112
 40
0.5522531681912896
 40
0.5613317852519005
 40
0.570403011911479
 40
0.5792168399041799
 40
0.588037446250759
 40
0.5968512725972492
 40
0.6059210041344235
 40
0.6149981252822474
 40
0.6240678554517268
 40
0.6328822105691003
 40
0.6417033488952258
 40
0.6505177033566253
 40
0.6595881133017824
 40
0.6686659170345906
 40
0.6777363269603038
 40
0.6865530489132627
 40
0.6953765602375148
 40
0.704193282814476
 40
0.7132662509943473
 40
0.7223466181637387
 40
0.7314195876831453
 40
0.7402394796362071
 40
0.7490661657276575
 40
0.7578860593134138
 40
0.7669623450380678
 40
0.7760460336964657
 40
0.7851223215338001
 40
0.7939447962477885
 40
0.8027740663744827
 40
0.8115965430138319
 40
0.820675450304217
 40
0.8297617614805751
 40
0.8388406707297373
 40
0.847664007703518
 40
0.8564941373117346
 40
0.8653174756581045
 40
0.8743971582545745
 40
0.8834842422801008
 40
0.8925639258217816
 40
0.9013864342096453
 40
0.9102157305676369
 40
0.9190382391743688
 40
0.9281169554967075
 40
0.9372030695516357
 40
0.9462817853924327
 40
0.9551043185980569
 40
0.9639336403109227
 40
0.9727561724868439
 40
0.9818349821438653
 40
0.9909211920405145
 40
0.9999999999999999
 40
0.9999999999999999
 40
0.9999999999999999
 40
0.9999999999999999
 10
684.426250320072
 20
158.0030919917871
 30
0.0
 10
684.3828524880253
 20
158.074112632592
 30
0.0
 10
684.2959967259437
 20
158.2162522646821
 30
0.0
 10
684.1578340785439
 20
158.4242780614449
 30
0.0
 10
684.0144415872591
 20
158.627774365524
 30
0.0
 10
683.8629915526295
 20
158.8292879373209
 30
0.0
 10
683.7036559076297
 20
159.0279868962505
 30
0.0
 10
683.5366023495267
 20
159.2229422689111
 30
0.0
 10
683.3634490317437
 20
159.4119320902984
 30
0.0
 10
683.1845432085472
 20
159.5940231112019
 30
0.0
 10
683.0003812177281
 20
159.7683988195964
 30
0.0
 10
682.815015726605
 20
159.9312213803242
 30
0.0
 10
682.6291196938328
 20
160.0822011493553
 30
0.0
 10
682.4433487063824
 20
160.2213188553569
 30
0.0
 10
682.2546721317261
 20
160.3508438991116
 30
0.0
 10
682.0636339652423
 20
160.4698974083719
 30
0.0
 10
681.8708564904886
 20
160.5777993792651
 30
0.0
 10
681.6805691084819
 20
160.672181654199
 30
0.0
 10
681.4933736182045
 20
160.7530365486892
 30
0.0
 10
681.3097787267741
 20
160.8206514764339
 30
0.0
 10
681.126803009191
 20
160.8761237553651
 30
0.0
 10
680.9451242581501
 20
160.9187266220986
 30
0.0
 10
680.7654211534976
 20
160.9479938796127
 30
0.0
 10
680.5916281238553
 20
160.9632835899711
 30
0.0
 10
680.4242093634716
 20
160.9648714938329
 30
0.0
 10
680.2634703428562
 20
160.9533201628979
 30
0.0
 10
680.1068097621426
 20
160.9284415883317
 30
0.0
 10
679.9549627491916
 20
160.8897434936453
 30
0.0
 10
679.8085876879212
 20
160.8370263981866
 30
0.0
 10
679.6708887188739
 20
160.7714431911326
 30
0.0
 10
679.5421397641869
 20
160.6935241796815
 30
0.0
 10
679.4224080191037
 20
160.6040457682078
 30
0.0
 10
679.3097572340463
 20
160.5015597675871
 30
0.0
 10
679.2048966525741
 20
160.3858642676358
 30
0.0
 10
679.1083898557529
 20
160.2570491223839
 30
0.0
 10
679.0223529370212
 20
160.1179384369973
 30
0.0
 10
678.9468369416948
 20
159.9692590891683
 30
0.0
 10
678.8816615698781
 20
159.8119151226964
 30
0.0
 10
678.825770289697
 20
159.6433551413692
 30
0.0
 10
678.7797661846095
 20
159.463690324072
 30
0.0
 10
678.7440543742248
 20
159.2732895151289
 30
0.0
 10
678.7194197500565
 20
159.076340155459
 30
0.0
 10
678.7056832353477
 20
158.8736834086216
 30
0.0
 10
678.7024362213419
 20
158.6662483500527
 30
0.0
 10
678.7096255258608
 20
158.4506573993245
 30
0.0
 10
678.7276800862321
 20
158.2273218672259
 30
0.0
 10
678.7568010392346
 20
157.9968476490286
 30
0.0
 10
678.7963452511804
 20
157.7643181820739
 30
0.0
 10
678.8459238573513
 20
157.530591935577
 30
0.0
 10
678.9049464432676
 20
157.2965162075622
 30
0.0
 10
678.9743775822487
 20
157.0582630792013
 30
0.0
 10
679.0544240264767
 20
156.8164972150595
 30
0.0
 10
679.1450605333271
 20
156.5719930894149
 30
0.0
 10
679.2442842083382
 20
156.3301515554337
 30
0.0
 10
679.3515418803206
 20
156.0917496668335
 30
0.0
 10
679.4661294932888
 20
155.8574559178666
 30
0.0
 10
679.5899250179438
 20
155.6234289944855
 30
0.0
 10
679.7228900432633
 20
155.3905119707339
 30
0.0
 10
679.8647759369817
 20
155.1595607663364
 30
0.0
 10
680.0124496775294
 20
154.9356742069811
 30
0.0
 10
680.1652577452431
 20
154.7194604148785
 30
0.0
 10
680.3224630791279
 20
154.5113341822068
 30
0.0
 10
680.4866415748883
 20
154.3078845118211
 30
0.0
 10
680.6575140207854
 20
154.1100382329371
 30
0.0
 10
680.8346362995146
 20
153.9186365672254
 30
0.0
 10
681.0141067779892
 20
153.7378957390442
 30
0.0
 10
681.1952453194406
 20
153.5681884059844
 30
0.0
 10
681.3773646955889
 20
153.4096308889216
 30
0.0
 10
681.5634399595592
 20
153.2596329788754
 30
0.0
 10
681.7529822806642
 20
153.1191011962119
 30
0.0
 10
681.945401849353
 20
152.9887674179438
 30
0.0
 10
682.1364732815606
 20
152.8714943818805
 30
0.0
 10
682.3255649678537
 20
152.7673793299773
 30
0.0
 10
682.5121154570651
 20
152.6762286480115
 30
0.0
 10
682.6991584204168
 20
152.5965605837303
 30
0.0
 10
682.8860501725875
 20
152.5291592053158
 30
0.0
 10
683.0721215400267
 20
152.4745643835001
 30
0.0
 10
683.2532967604626
 20
152.4339730816334
 30
0.0
 10
683.4290622770978
 20
152.4071963250402
 30
0.0
 10
683.5990443445849
 20
152.3937521486688
 30
0.0
 10
683.7659961475723
 20
152.393423773597
 30
0.0
 10
683.9291916456258
 20
152.40678405195
 30
0.0
 10
684.0879578456379
 20
152.4341196294216
 30
0.0
 10
684.2388199359775
 20
152.4748333868035
 30
0.0
 10
684.3814400632372
 20
152.5284695422742
 30
0.0
 10
684.5156744084052
 20
152.5943102037613
 30
0.0
 10
684.6436935014062
 20
152.6734211806784
 30
0.0
 10
684.7647710757556
 20
152.7660990757053
 30
0.0
 10
684.8783064689281
 20
152.872344766852
 30
0.0
 10
684.981811912234
 20
152.9898309322813
 30
0.0
 10
685.0751647702006
 20
153.1178841949028
 30
0.0
 10
685.1584688270468
 20
153.2556298872145
 30
0.0
 10
685.2330730558659
 20
153.405299565115
 30
0.0
 10
685.2983332061905
 20
153.5668800338189
 30
0.0
 10
685.3537888572607
 20
153.7400864188684
 30
0.0
 10
685.3982219491777
 20
153.9211132899796
 30
0.0
 10
685.4317406477242
 20
154.1091451892759
 30
0.0
 10
685.4546861037968
 20
154.3032493119358
 30
0.0
 10
685.4674315587903
 20
154.5065817204618
 30
0.0
 10
685.4694875206199
 20
154.7188212441715
 30
0.0
 10
685.4605856453513
 20
154.9394297203525
 30
0.0
 10
685.4409225946026
 20
155.1635485675085
 30
0.0
 10
685.4108250053381
 20
155.3903142009736
 30
0.0
 10
685.3708324914658
 20
155.6188427875323
 30
0.0
 10
685.3202928770248
 20
155.8528634971401
 30
0.0
 10
685.25892624375
 20
156.0917837335657
 30
0.0
 10
685.1866865527555
 20
156.3348730100109
 30
0.0
 10
685.1051606541845
 20
156.5767872879713
 30
0.0
 10
685.0148566281773
 20
156.8167160406427
 30
0.0
 10
684.9164355072131
 20
157.0539176143669
 30
0.0
 10
684.8083427675109
 20
157.2922818362405
 30
0.0
 10
684.6903553968489
 20
157.5309068840635
 30
0.0
 10
684.5633503130489
 20
157.7693447911217
 30
0.0
 10
684.4719379013944
 20
157.9251974273353
 30
0.0
 10
684.426250320072
 20
158.0030919917871
 30
0.0
  0
SPLINE
  5
114
330
1F
100
AcDbEntity
  8
0
  6
Continuous
 62
     7
370
    30
100
AcDbSpline
210
0.0
220
0.0
230
1.0
 70
    11
 71
     3
 72
   119
 73
   115
 74
     0
 42
0.000000001
 43
0.00000001
 40
0.0
 40
0.0
 40
0.0
 40
0.0
 40
0.0083601768975366
 40
0.0167319339147339
 40
0.0251036893084526
 40
0.0334638639890874
 40
0.0422782158848655
 40
0.0510993509751318
 40
0.0599137022121795
 40
0.0689841084862585
 40
0.0780619085355742
 40
0.0871323147866178
 40
0.0959490292117947
 40
0.1047725329920077
 40
0.1135892480378924
 40
0.1226622081826566
 40
0.1317425673031681
 40
0.1408155287841323
 40
0.1496354122867221
 40
0.1584620899174495
 40
0.1672819750504727
 40
0.1763582520105458
 40
0.1854419318960852
 40
0.1945182109674755
 40
0.2033406804168175
 40
0.2121699452802364
 40
0.2209924166549732
 40
0.2300713187310144
 40
0.2391576246947663
 40
0.248236528731065
 40
0.2570598662896525
 40
0.2658899964954
 40
0.2747133354290451
 40
0.2837930190106274
 40
0.2928801040324115
 40
0.3019597885629101
 40
0.3107818961101292
 40
0.3196107907040508
 40
0.3284328984738248
 40
0.3375111778153076
 40
0.3465968538175742
 40
0.3556751326817286
 40
0.3644944525109731
 40
0.3733205534120783
 40
0.3821398722163393
 40
0.3912151784556777
 40
0.4002978763416659
 40
0.4093731808887572
 40
0.4181893773486408
 40
0.4270123511449616
 40
0.4358285457829328
 40
0.4449006132135177
 40
0.4539800692352746
 40
0.4630521345008191
 40
0.4718662395766914
 40
0.4806871221235197
 40
0.4895012253779356
 40
0.4985712063532103
 40
0.5076485761577573
 40
0.5167185554427075
 40
0.5255325169549898
 40
0.5343532598859109
 40
0.5431672203744558
 40
0.5522371810047877
 40
0.561314533894281
 40
0.570384494049396
 40
0.5792003237358256
 40
0.5880229408793006
 40
0.596838770789946
 40
0.6059107873102942
 40
0.6149902012136871
 40
0.6240622186840442
 40
0.6328811107190906
 40
0.641706795694935
 40
0.650525689106499
 40
0.659600937923788
 40
0.6686835886960233
 40
0.6777588394740508
 40
0.6865806453445669
 40
0.6954092466740907
 40
0.7042310544705656
 40
0.7133092946043017
 40
0.722394938703378
 40
0.7314731809487742
 40
0.7402964735702923
 40
0.7491265600953498
 40
0.7579498543465396
 40
0.7670295321845266
 40
0.7761166125533825
 40
0.7851962917269348
 40
0.7940189923152219
 40
0.8028484818653759
 40
0.8116711830724809
 40
0.8207501149766705
 40
0.8298364451660807
 40
0.8389153770447945
 40
0.8477356677173635
 40
0.8565627411966497
 40
0.8653830312083433
 40
0.8744593620683634
 40
0.8835430860218032
 40
0.8926194155088462
 40
0.9014373862868794
 40
0.910262137164332
 40
0.919080106293086
 40
0.9281540492464957
 40
0.937235383699092
 40
0.946309324534214
 40
0.9551273228889712
 40
0.9639521061353908
 40
0.972770102572935
 40
0.9818442698560677
 40
0.9909258346547698
 40
1.0
 40
1.0
 40
1.0
 40
1.0
 10
666.523320993635
 20
168.5031882587836
 30
0.0
 10
666.4775364994081
 20
168.5724399736696
 30
0.0
 10
666.3859040924492
 20
168.7110393276253
 30
0.0
 10
666.2413888549487
 20
168.9127358127472
 30
0.0
 10
666.0922582782916
 20
169.1091844106243
 30
0.0
 10
665.9356502598197
 20
169.3027640296939
 30
0.0
 10
665.7717819850907
 20
169.4926251143861
 30
0.0
 10
665.6008741786688
 20
169.6778160899187
 30
0.0
 10
665.4246264730065
 20
169.8561722960808
 30
0.0
 10
665.2434310149363
 20
170.0267596449639
 30
0.0
 10
665.0578125135396
 20
170.1887812686421
 30
0.0
 10
664.8718362503678
 20
170.338687362805
 30
0.0
 10
664.6861562455794
 20
170.4762430130728
 30
0.0
 10
664.5013921083937
 20
170.6014924398439
 30
0.0
 10
664.3145507999677
 20
170.7164637093266
 30
0.0
 10
664.1262065009482
 20
170.8202997929017
 30
0.0
 10
663.9369933675245
 20
170.9123589575992
 30
0.0
 10
663.7510521054603
 20
170.9906256406868
 30
0.0
 10
663.5689512149731
 20
171.0551523794413
 30
0.0
 10
663.3911512200392
 20
171.1062888678587
 30
0.0
 10
663.2147766516982
 20
171.1448612283923
 30
0.0
 10
663.0405171781589
 20
171.1701848851909
 30
0.0
 10
662.8690451516512
 20
171.1818463819742
 30
0.0
 10
662.7041175237836
 20
171.1795897462816
 30
0.0
 10
662.5461525285283
 20
171.1637514135441
 30
0.0
 10
662.3953987831758
 20
171.1349492371029
 30
0.0
 10
662.2494146871525
 20
171.0927161967588
 30
0.0
 10
662.1089272807301
 20
171.0366176658791
 30
0.0
 10
661.9745710464551
 20
170.9665151395947
 30
0.0
 10
661.8492974682292
 20
170.8839490152153
 30
0.0
 10
661.7333255606912
 20
170.7895031592705
 30
0.0
 10
661.6266623523858
 20
170.6839949200544
 30
0.0
 10
661.5275733892279
 20
170.5657089002743
 30
0.0
 10
661.4367408526851
 20
170.4345092895836
 30
0.0
 10
661.3546897582969
 20
170.2905478832903
 30
0.0
 10
661.2832275445721
 20
170.1369979299533
 30
0.0
 10
661.222348095506
 20
169.9746241127609
 30
0.0
 10
661.1718152018764
 20
169.8043500566718
 30
0.0
 10
661.1308028855073
 20
169.6233950966189
 30
0.0
 10
661.0998716398179
 20
169.4319370925835
 30
0.0
 10
661.0793780164653
 20
169.2304006837994
 30
0.0
 10
661.0697736213446
 20
169.023237038292
 30
0.0
 10
661.0708284052943
 20
168.8113031491375
 30
0.0
 10
661.0820902953809
 20
168.5955226639231
 30
0.0
 10
661.1037430238965
 20
168.3723601402114
 30
0.0
 10
661.1361625525627
 20
168.1422867052307
 30
0.0
 10
661.1794970403517
 20
167.905951870762
 30
0.0
 10
661.2327886722148
 20
167.668575751298
 30
0.0
 10
661.2956111556405
 20
167.43100938785
 30
0.0
 10
661.3673491631275
 20
167.1940711356125
 30
0.0
 10
661.4491782381355
 20
166.9538764546873
 30
0.0
 10
661.5412477107496
 20
166.711136708099
 30
0.0
 10
661.6434807350613
 20
166.4666532918908
 30
0.0
 10
661.7536232271398
 20
166.2258163506452
 30
0.0
 10
661.8711020643752
 20
165.9893755734058
 30
0.0
 10
661.9952090369661
 20
165.7579526259074
 30
0.0
 10
662.1279738511665
 20
165.5277623360693
 30
0.0
 10
662.2693023270492
 20
165.2996765418669
 30
0.0
 10
662.418901105815
 20
165.074558522711
 30
0.0
 10
662.573482118849
 20
164.8573568639303
 30
0.0
 10
662.73238971261
 20
164.6486376042451
 30
0.0
 10
662.894902061024
 20
164.4487577317914
 30
0.0
 10
663.0636659590348
 20
164.2544622673098
 30
0.0
 10
663.238354002869
 20
164.0666856138272
 30
0.0
 10
663.4184891209442
 20
163.8862557392597
 30
0.0
 10
663.6001234561082
 20
163.71712801481
 30
0.0
 10
663.7825910553559
 20
163.5596228262738
 30
0.0
 10
663.9652362418125
 20
163.4137936010479
 30
0.0
 10
664.1510208594158
 20
163.2772763379424
 30
0.0
 10
664.3394208829835
 20
163.1509626249214
 30
0.0
 10
664.5298291957236
 20
163.0355515620725
 30
0.0
 10
664.7180787849733
 20
162.9335699146717
 30
0.0
 10
664.9035670023295
 20
162.8450559937198
 30
0.0
 10
665.0857771077402
 20
162.7697529872687
 30
0.0
 10
665.2676564624869
 20
162.7064437414959
 30
0.0
 10
665.4485435040282
 20
162.6558760899312
 30
0.0
 10
665.62776966708
 20
162.6185410907505
 30
0.0
 10
665.8014103538943
 20
162.5952569475612
 30
0.0
 10
665.9689942900585
 20
162.5857734391464
 30
0.0
 10
666.1302023455384
 20
162.5895504044876
 30
0.0
 10
666.2876434097133
 20
162.6066496577352
 30
0.0
 10
666.440593284066
 20
162.6375905540331
 30
0.0
 10
666.5883976071868
 20
162.6826005790841
 30
0.0
 10
666.7278124083895
 20
162.7406917781066
 30
0.0
 10
666.8585525323916
 20
162.8113516439726
 30
0.0
 10
666.9805340145022
 20
162.8938160359098
 30
0.0
 10
667.0957375399205
 20
162.9894240273075
 30
0.0
 10
667.203458251188
 20
163.0984079262309
 30
0.0
 10
667.303129908487
 20
163.2207061774329
 30
0.0
 10
667.3925586261054
 20
163.3536254685022
 30
0.0
 10
667.4716790971723
 20
163.4964488482575
 30
0.0
 10
667.540653240619
 20
163.6482747922526
 30
0.0
 10
667.6006065820563
 20
163.8115793377734
 30
0.0
 10
667.6509331050578
 20
163.9862819493152
 30
0.0
 10
667.6912184054894
 20
164.1720393266141
 30
0.0
 10
667.7205742185846
 20
164.3647505962393
 30
0.0
 10
667.7391625091547
 20
164.563577218818
 30
0.0
 10
667.7473725750492
 20
164.7675839237668
 30
0.0
 10
667.7453396320174
 20
164.9801105981943
 30
0.0
 10
667.7326245345657
 20
165.2007733745455
 30
0.0
 10
667.7090111588882
 20
165.4289861111916
 30
0.0
 10
667.675020889683
 20
165.6597143563484
 30
0.0
 10
667.631022028788
 20
165.8920950671573
 30
0.0
 10
667.5775847952387
 20
166.1252665141429
 30
0.0
 10
667.5138350131979
 20
166.3630447230191
 30
0.0
 10
667.4395494125795
 20
166.6047856008074
 30
0.0
 10
667.3547345727956
 20
166.8497260416404
 30
0.0
 10
667.2612527244847
 20
167.0924831994314
 30
0.0
 10
667.159637782383
 20
167.3322681986905
 30
0.0
 10
667.0505632472725
 20
167.568379417496
 30
0.0
 10
666.9322965381965
 20
167.8046941486997
 30
0.0
 10
666.8046894655365
 20
168.0402525448394
 30
0.0
 10
666.6685990778598
 20
168.2746803405239
 30
0.0
 10
666.5717338624181
 20
168.427039650949
 30
0.0
 10
666.523320993635
 20
168.5031882587836
 30
0.0
  0
LWPOLYLINE
  5
115
330
1F
100
AcDbEntity
  8
0
  6
Continuous
 62
     7
370
    30
100
AcDbPolyline
 90
       36
 70
   128
 43
0.0
 10
672.7855896622
 20
213.7735366855
 10
672.5246001052
 20
213.9202574549
 10
672.2637894174
 20
214.0589870796
 10
672.0033363455
 20
214.1896304813
 10
671.7434193908
 20
214.3120981234
 10
671.4842166877
 20
214.4263060728
 10
671.2259058805
 20
214.532176057
 10
670.9686640027
 20
214.6296355181
 10
670.712667355
 20
214.7186176622
 10
670.4580913848
 20
214.7990615053
 10
670.2051105655
 20
214.8709119154
 10
669.9538982778
 20
214.9341196497
 10
669.7046266898
 20
214.9886413887
 10
669.45746664
 20
215.0344397661
 10
669.2125875195
 20
215.0714833938
 10
668.9701571562
 20
215.0997468841
 10
668.7303416997
 20
215.1192108666
 10
668.4933055076
 20
215.1298620015
 10
668.2592110327
 20
215.1316929892
 10
668.0282187115
 20
215.1247025748
 10
667.8004868548
 20
215.1088955492
 10
667.5761715386
 20
215.0842827456
 10
667.3554264973
 20
215.0508810326
 10
667.1384030186
 20
215.008713302
 10
666.9252498395
 20
214.9578084533
 10
666.7161130447
 20
214.8982013743
 10
666.5111359659
 20
214.8299329167
 10
666.3104590843
 20
214.7530498683
 10
666.1142199337
 20
214.6676049209
 10
665.9225530067
 20
214.5736566341
 10
665.7355896622
 20
214.4712693954
 10
665.5534580356
 20
214.360513376
 10
665.3762829507
 20
214.2414644824
 10
665.2041858345
 20
214.1142043049
 10
665.0372846338
 20
213.9788200612
 10
664.9479376941
 20
213.9011007205
  0
LWPOLYLINE
  5
116
330
1F
100
AcDbEntity
  8
0
  6
Continuous
 62
     7
370
    30
100
AcDbPolyline
 90
       96
 70
   128
 43
0.0
 10
678.946799951
 20
189.6517325738
 10
679.0600433585
 20
189.690689559
 10
679.2607202401
 20
189.7675726074
 10
679.4569593907
 20
189.8530175549
 10
679.6486263177
 20
189.9469658417
 10
679.8355896622
 20
190.0493530804
 10
680.0177212889
 20
190.1601090998
 10
680.1948963737
 20
190.2791579933
 10
680.3669934899
 20
190.4064181709
 10
680.5338946906
 20
190.5418024146
 10
680.69548559
 20
190.6852179389
 10
680.8516554419
 20
190.836566454
 10
681.0022972153
 20
190.9957442331
 10
681.1473076676
 20
191.1626421837
 10
681.2865874162
 20
191.3371459224
 10
681.4200410055
 20
191.519135853
 10
681.5475769732
 20
191.7084872486
 10
681.6691079124
 20
191.9050703374
 10
681.784550532
 20
192.108750391
 10
681.8938257133
 20
192.3193878173
 10
681.9968585646
 20
192.5368382559
 10
682.0935784723
 20
192.7609526773
 10
682.1839191494
 20
192.9915774845
 10
682.2678186809
 20
193.2285546188
 10
682.3452195663
 20
193.471721668
 10
682.4160687589
 20
193.7209119775
 10
682.4803177022
 20
193.9759547646
 10
682.5379223631
 20
194.2366752359
 10
682.5888432623
 20
194.5028947065
 10
682.6330455012
 20
194.7744307229
 10
682.6704987858
 20
195.0510971879
 10
682.7011774474
 20
195.3327044881
 10
682.7250604604
 20
195.6190596239
 10
682.7421314567
 20
195.9099663418
 10
682.7523787365
 20
196.2052252689
 10
682.7557952769
 20
196.5046340495
 10
682.7523787365
 20
196.8079874837
 10
682.7421314567
 20
197.1150776683
 10
682.7250604604
 20
197.425694139
 10
682.7011774474
 20
197.7396240147
 10
682.6704987858
 20
198.0566521436
 10
682.6330455012
 20
198.3765612505
 10
682.5888432623
 20
198.6991320856
 10
682.5379223631
 20
199.0241435751
 10
682.4803177022
 20
199.3513729722
 10
682.4160687589
 20
199.6805960103
 10
682.3452195663
 20
200.0115870563
 10
682.2678186809
 20
200.3441192656
 10
682.1839191494
 20
200.6779647371
 10
682.0935784723
 20
201.0128946699
 10
681.9968585646
 20
201.3486795197
 10
681.8938257133
 20
201.6850891563
 10
681.784550532
 20
202.0218930214
 10
681.6691079124
 20
202.3588602865
 10
681.5475769732
 20
202.695760011
 10
681.4200410055
 20
203.0323613006
 10
681.2865874162
 20
203.3684334656
 10
681.1473076676
 20
203.7037461791
 10
681.0022972153
 20
204.0380696343
 10
680.8516554419
 20
204.3711747028
 10
680.69548559
 20
204.7028330908
 10
680.5338946906
 20
205.0328174964
 10
680.3669934899
 20
205.3609017647
 10
680.1948963737
 20
205.6868610431
 10
680.0177212889
 20
206.0104719355
 10
679.8355896622
 20
206.331512655
 10
679.6486263177
 20
206.6497631764
 10
679.4569593907
 20
206.9650053868
 10
679.2607202401
 20
207.2770232347
 10
679.0600433585
 20
207.5856028789
 10
678.8550662797
 20
207.8905328342
 10
678.6459294849
 20
208.1916041168
 10
678.4327763058
 20
208.4886103875
 10
678.2157528271
 20
208.7813480932
 10
677.9950077858
 20
209.0696166059
 10
677.7706924696
 20
209.3532183608
 10
677.5429606129
 20
209.6319589915
 10
677.3119682917
 20
209.9056474631
 10
677.0778738168
 20
210.174096203
 10
676.8408376247
 20
210.4371212301
 10
676.6010221682
 20
210.6945422801
 10
676.3585918049
 20
210.9461829294
 10
676.1137126844
 20
211.1918707161
 10
675.8665526346
 20
211.431437258
 10
675.6172810466
 20
211.6647183684
 10
675.3660687589
 20
211.8915541678
 10
675.1130879397
 20
212.1117891944
 10
674.8585119694
 20
212.3252725101
 10
674.6025153217
 20
212.5318578041
 10
674.3452734439
 20
212.7314034932
 10
674.0869626367
 20
212.9237728187
 10
673.8277599336
 20
213.1088339403
 10
673.567842979
 20
213.2864600263
 10
673.307389907
 20
213.4565293406
 10
673.0465792192
 20
213.6189253264
 10
672.7855896622
 20
213.7735366855
  0
LWPOLYLINE
  5
117
330
1F
100
AcDbEntity
  8
0
  6
Continuous
 62
     7
370
    30
100
AcDbPolyline
 90
      203
 70
   128
 43
0.0
 10
681.9767370813
 20
160.2474984494
 10
682.0765460057
 20
160.1881584865
 10
682.1763774865
 20
160.1253641732
 10
682.2761349433
 20
160.0591762587
 10
682.3757218671
 20
159.9896587756
 10
682.4750419141
 20
159.9168789776
 10
682.5739989985
 20
159.8409072745
 10
682.6724973856
 20
159.7618171639
 10
682.7704417848
 20
159.6796851604
 10
682.8677374411
 20
159.5945907215
 10
682.9642902272
 20
159.5066161706
 10
683.0600067346
 20
159.4158466172
 10
683.1547943637
 20
159.3223698751
 10
683.2485614136
 20
159.226276377
 10
683.3412171708
 20
159.1276590872
 10
683.4326719967
 20
159.0266134115
 10
683.5228374148
 20
158.9232371051
 10
683.6116261958
 20
158.8176301779
 10
683.6989524424
 20
158.7098947977
 10
683.7847316719
 20
158.6001351916
 10
683.8688808986
 20
158.488457545
 10
683.9513187135
 20
158.3749698986
 10
684.0319653633
 20
158.2597820446
 10
684.1107428277
 20
158.1430054196
 10
684.1875748945
 20
158.0247529976
 10
684.2623872336
 20
157.9051391802
 10
684.3351074689
 20
157.7842796859
 10
684.4056652484
 20
157.6622914385
 10
684.4739923119
 20
157.5392924539
 10
684.5400225574
 20
157.4154017254
 10
684.6036921048
 20
157.2907391095
 10
684.6649393581
 20
157.1654252092
 10
684.7237050645
 20
157.0395812575
 10
684.7799323718
 20
156.9133290004
 10
684.833566884
 20
156.7867905788
 10
684.8845567129
 20
156.6600884103
 10
684.9328525293
 20
156.5333450713
 10
684.9784076101
 20
156.4066831776
 10
685.0211778836
 20
156.2802252665
 10
685.0611219724
 20
156.1540936779
 10
685.0982012332
 20
156.0284104358
 10
685.1323797942
 20
155.9032971308
 10
685.1636245898
 20
155.7788748018
 10
685.1919053927
 20
155.6552638195
 10
685.2171948431
 20
155.5325837695
 10
685.239468475
 20
155.4109533367
 10
685.2587047401
 20
155.2904901909
 10
685.2748850287
 20
155.1713108723
 10
685.2879936872
 20
155.0535306791
 10
685.298018034
 20
154.9372635562
 10
685.3049483711
 20
154.8226219844
 10
685.3087779939
 20
154.7097168722
 10
685.3095031975
 20
154.5986574478
 10
685.3071232802
 20
154.4895511541
 10
685.3016405445
 20
154.3825035444
 10
685.2930602946
 20
154.2776181803
 10
685.2813908313
 20
154.1749965318
 10
685.2666434441
 20
154.0747378784
 10
685.2488324001
 20
153.9769392142
 10
685.2279749304
 20
153.8816951529
 10
685.2040912131
 20
153.7890978369
 10
685.1772043543
 20
153.6992368484
 10
685.1473403653
 20
153.6121991219
 10
685.1145281375
 20
153.5280688608
 10
685.0787994147
 20
153.4469274557
 10
685.040188762
 20
153.3688534057
 10
684.9987335329
 20
153.2939222424
 10
684.9544738325
 20
153.2222064568
 10
684.9074524792
 20
153.1537754294
 10
684.8577149633
 20
153.0886953627
 10
684.8053094024
 20
153.0270292176
 10
684.7502864956
 20
152.9688366519
 10
684.6926994741
 20
152.9141739633
 10
684.6326040495
 20
152.8630940344
 10
684.5700583603
 20
152.8156462817
 10
684.5051229154
 20
152.7718766078
 10
684.4378605356
 20
152.7318273572
 10
684.368336293
 20
152.6955372748
 10
684.2966174477
 20
152.6630414689
 10
684.2227733832
 20
152.6343713772
 10
684.1468755387
 20
152.6095547361
 10
684.0689973406
 20
152.5886155541
 10
683.989214131
 20
152.5715740886
 10
683.9076030949
 20
152.5584468259
 10
683.8242431858
 20
152.549246466
 10
683.7392150491
 20
152.5439819096
 10
683.6526009438
 20
152.5426582497
 10
683.5644846637
 20
152.545276767
 10
683.4749514555
 20
152.5518349282
 10
683.3840879368
 20
152.5623263887
 10
683.2919820121
 20
152.5767409986
 10
683.1987227881
 20
152.5950648129
 10
683.104400487
 20
152.6172801043
 10
683.0091063595
 20
152.643365381
 10
682.9129325965
 20
152.6732954073
 10
682.81597224
 20
152.7070412277
 10
682.7183190928
 20
152.7445701953
 10
682.6200676281
 20
152.7858460032
 10
682.5213128978
 20
152.8308287199
 10
682.4221504407
 20
152.8794748274
 10
682.32267619
 20
152.9317372637
 10
682.2229863808
 20
152.9875654684
 10
682.1231774564
 20
153.0469054312
 10
682.0233459756
 20
153.1096997446
 10
681.9235885188
 20
153.1758876591
 10
681.824001595
 20
153.2454051422
 10
681.724681548
 20
153.3181849402
 10
681.6257244636
 20
153.3941566433
 10
681.5272260764
 20
153.4732467539
 10
681.4292816773
 20
153.5553787573
 10
681.331986021
 20
153.6404731962
 10
681.2354332349
 20
153.7284477472
 10
681.1397167275
 20
153.8192173006
 10
681.0449290984
 20
153.9126940427
 10
680.9511620485
 20
154.0087875408
 10
680.8585062913
 20
154.1074048306
 10
680.7670514654
 20
154.2084505063
 10
680.6768860473
 20
154.3118268127
 10
680.5880972663
 20
154.4174337399
 10
680.5007710197
 20
154.5251691201
 10
680.4149917902
 20
154.6349287262
 10
680.3308425635
 20
154.7466063728
 10
680.2484047486
 20
154.8600940192
 10
680.1677580988
 20
154.9752818732
 10
680.0889806344
 20
155.0920584981
 10
680.0121485676
 20
155.2103109201
 10
679.9373362285
 20
155.3299247376
 10
679.8646159932
 20
155.4507842319
 10
679.7940582137
 20
155.5727724792
 10
679.7257311502
 20
155.6957714639
 10
679.6597009047
 20
155.8196621924
 10
679.5960313573
 20
155.9443248083
 10
679.534784104
 20
156.0696387086
 10
679.4760183976
 20
156.1954826603
 10
679.4197910902
 20
156.3217349174
 10
679.3661565781
 20
156.448273339
 10
679.3151667492
 20
156.5749755075
 10
679.2668709328
 20
156.7017188465
 10
679.221315852
 20
156.8283807402
 10
679.1785455785
 20
156.9548386513
 10
679.1386014896
 20
157.0809702399
 10
679.1015222288
 20
157.206653482
 10
679.0673436679
 20
157.331766787
 10
679.0360988723
 20
157.4561891159
 10
679.0078180694
 20
157.5798000983
 10
678.982528619
 20
157.7024801483
 10
678.9602549871
 20
157.824110581
 10
678.941018722
 20
157.9445737269
 10
678.9248384334
 20
158.0637530455
 10
678.9117297749
 20
158.1815332387
 10
678.9017054281
 20
158.2978003616
 10
678.894775091
 20
158.4124419333
 10
678.8909454682
 20
158.5253470456
 10
678.8902202646
 20
158.63640647
 10
678.8926001819
 20
158.7455127637
 10
678.8980829176
 20
158.8525603734
 10
678.9066631675
 20
158.9574457374
 10
678.9183326308
 20
159.060067386
 10
678.933080018
 20
159.1603260393
 10
678.950891062
 20
159.2581247036
 10
678.9717485317
 20
159.3533687649
 10
678.995632249
 20
159.4459660808
 10
679.0225191078
 20
159.5358270694
 10
679.0523830968
 20
159.6228647959
 10
679.0851953246
 20
159.706995057
 10
679.1209240474
 20
159.7881364621
 10
679.1595347
 20
159.8662105121
 10
679.2009899292
 20
159.9411416754
 10
679.2452496296
 20
160.0128574609
 10
679.2922709829
 20
160.0812884884
 10
679.3420084988
 20
160.146368555
 10
679.3944140597
 20
160.2080347002
 10
679.4494369664
 20
160.2662272659
 10
679.507023988
 20
160.3208899545
 10
679.5671194126
 20
160.3719698834
 10
679.6296651018
 20
160.4194176361
 10
679.6946005467
 20
160.4631873099
 10
679.7618629265
 20
160.5032365606
 10
679.8313871691
 20
160.539526643
 10
679.9031060144
 20
160.5720224489
 10
679.9769500789
 20
160.6006925406
 10
680.0528479234
 20
160.6255091817
 10
680.1307261215
 20
160.6464483637
 10
680.2105093311
 20
160.6634898292
 10
680.2921203672
 20
160.6766170918
 10
680.3754802762
 20
160.6858174518
 10
680.460508413
 20
160.6910820082
 10
680.5471225182
 20
160.6924056681
 10
680.6352387984
 20
160.6897871508
 10
680.7247720066
 20
160.6832289896
 10
680.8156355253
 20
160.6727375291
 10
680.90774145
 20
160.6583229192
 10
681.001000674
 20
160.6399991049
 10
681.0953229751
 20
160.6177838135
 10
681.1906171026
 20
160.5916985367
 10
681.2867908656
 20
160.5617685105
 10
681.3837512221
 20
160.5280226901
 10
681.4814043692
 20
160.4904937225
 10
681.579655834
 20
160.4492179145
 10
681.6784105643
 20
160.4042351979
 10
681.7775730214
 20
160.3555890904
 10
681.8770472721
 20
160.303326654
 10
681.9767370813
 20
160.2474984494
  0
LWPOLYLINE
  5
118
330
1F
100
AcDbEntity
  8
0
  6
Continuous
 62
     7
370
    30
100
AcDbPolyline
 90
      203
 70
   128
 43
0.0
 10
664.2990675516
 20
170.4525998471
 10
664.398876476
 20
170.3932598843
 10
664.4987079568
 20
170.330465571
 10
664.5984654136
 20
170.2642776565
 10
664.6980523375
 20
170.1947601734
 10
664.7973723844
 20
170.1219803754
 10
664.8963294688
 20
170.0460086723
 10
664.994827856
 20
169.9669185617
 10
665.0927722552
 20
169.8847865582
 10
665.1900679114
 20
169.7996921193
 10
665.2866206976
 20
169.7117175683
 10
665.3823372049
 20
169.620948015
 10
665.4771248341
 20
169.5274712729
 10
665.570891884
 20
169.4313777748
 10
665.6635476411
 20
169.332760485
 10
665.7550024671
 20
169.2317148093
 10
665.8451678851
 20
169.1283385029
 10
665.9339566662
 20
169.0227315756
 10
666.0212829127
 20
168.9149961955
 10
666.1070621422
 20
168.8052365894
 10
666.1912113689
 20
168.6935589427
 10
666.2736491838
 20
168.5800712964
 10
666.3542958337
 20
168.4648834424
 10
666.433073298
 20
168.3481068174
 10
666.5099053648
 20
168.2298543954
 10
666.5847177039
 20
168.110240578
 10
666.6574379393
 20
167.9893810837
 10
666.7279957187
 20
167.8673928363
 10
666.7963227822
 20
167.7443938516
 10
666.8623530277
 20
167.6205031232
 10
666.9260225752
 20
167.4958405073
 10
666.9872698284
 20
167.370526607
 10
667.0460355348
 20
167.2446826553
 10
667.1022628422
 20
167.1184303982
 10
667.1558973543
 20
166.9918919765
 10
667.2068871833
 20
166.8651898081
 10
667.2551829997
 20
166.7384464691
 10
667.3007380804
 20
166.6117845754
 10
667.343508354
 20
166.4853266643
 10
667.3834524428
 20
166.3591950756
 10
667.4205317036
 20
166.2335118336
 10
667.4547102646
 20
166.1083985286
 10
667.4859550602
 20
165.9839761996
 10
667.5142358631
 20
165.8603652173
 10
667.5395253134
 20
165.7376851673
 10
667.5617989453
 20
165.6160547345
 10
667.5810352104
 20
165.4955915887
 10
667.597215499
 20
165.37641227
 10
667.6103241575
 20
165.2586320769
 10
667.6203485043
 20
165.142364954
 10
667.6272788415
 20
165.0277233822
 10
667.6311084643
 20
164.91481827
 10
667.6318336678
 20
164.8037588456
 10
667.6294537505
 20
164.6946525519
 10
667.6239710148
 20
164.5876049422
 10
667.6153907649
 20
164.4827195781
 10
667.6037213017
 20
164.3800979295
 10
667.5889739144
 20
164.2798392762
 10
667.5711628704
 20
164.182040612
 10
667.5503054007
 20
164.0867965506
 10
667.5264216834
 20
163.9941992347
 10
667.4995348247
 20
163.9043382462
 10
667.4696708356
 20
163.8173005196
 10
667.4368586079
 20
163.7331702586
 10
667.401129885
 20
163.6520288535
 10
667.3625192324
 20
163.5739548035
 10
667.3210640032
 20
163.4990236402
 10
667.2768043028
 20
163.4273078546
 10
667.2297829496
 20
163.3588768272
 10
667.1800454336
 20
163.2937967605
 10
667.1276398727
 20
163.2321306154
 10
667.072616966
 20
163.1739380497
 10
667.0150299444
 20
163.1192753611
 10
666.9549345198
 20
163.0681954322
 10
666.8923888306
 20
163.0207476795
 10
666.8274533857
 20
162.9769780056
 10
666.7601910059
 20
162.936928755
 10
666.6906667633
 20
162.9006386725
 10
666.618947918
 20
162.8681428667
 10
666.5451038535
 20
162.839472775
 10
666.4692060091
 20
162.8146561339
 10
666.391327811
 20
162.7937169519
 10
666.3115446013
 20
162.7766754863
 10
666.2299335653
 20
162.7635482237
 10
666.1465736562
 20
162.7543478638
 10
666.0615455194
 20
162.7490833074
 10
665.9749314142
 20
162.7477596475
 10
665.886815134
 20
162.7503781648
 10
665.7972819258
 20
162.756936326
 10
665.7064184071
 20
162.7674277864
 10
665.6143124824
 20
162.7818423964
 10
665.5210532584
 20
162.8001662107
 10
665.4267309573
 20
162.8223815021
 10
665.3314368298
 20
162.8484667788
 10
665.2352630668
 20
162.8783968051
 10
665.1383027103
 20
162.9121426254
 10
665.0406495632
 20
162.949671593
 10
664.9423980984
 20
162.990947401
 10
664.8436433681
 20
163.0359301177
 10
664.744480911
 20
163.0845762252
 10
664.6450066604
 20
163.1368386615
 10
664.5453168511
 20
163.1926668662
 10
664.4455079268
 20
163.252006829
 10
664.3456764459
 20
163.3148011424
 10
664.2459189891
 20
163.3809890569
 10
664.1463320653
 20
163.45050654
 10
664.0470120183
 20
163.5232863379
 10
663.948054934
 20
163.5992580411
 10
663.8495565468
 20
163.6783481517
 10
663.7516121476
 20
163.7604801551
 10
663.6543164913
 20
163.845574594
 10
663.5577637052
 20
163.933549145
 10
663.4620471978
 20
164.0243186984
 10
663.3672595687
 20
164.1177954405
 10
663.2734925188
 20
164.2138889385
 10
663.1808367616
 20
164.3125062284
 10
663.0893819357
 20
164.413551904
 10
662.9992165176
 20
164.5169282105
 10
662.9104277366
 20
164.6225351377
 10
662.8231014901
 20
164.7302705179
 10
662.7373222605
 20
164.8400301239
 10
662.6531730338
 20
164.9517077706
 10
662.5707352189
 20
165.0651954169
 10
662.4900885691
 20
165.180383271
 10
662.4113111047
 20
165.2971598959
 10
662.334479038
 20
165.4154123179
 10
662.2596666988
 20
165.5350261354
 10
662.1869464635
 20
165.6558856297
 10
662.116388684
 20
165.777873877
 10
662.0480616205
 20
165.9008728617
 10
661.9820313751
 20
166.0247635901
 10
661.9183618276
 20
166.149426206
 10
661.8571145743
 20
166.2747401064
 10
661.798348868
 20
166.400584058
 10
661.7421215606
 20
166.5268363152
 10
661.6884870484
 20
166.6533747368
 10
661.6374972195
 20
166.7800769052
 10
661.5892014031
 20
166.9068202443
 10
661.5436463223
 20
167.033482138
 10
661.5008760488
 20
167.1599400491
 10
661.46093196
 20
167.2860716377
 10
661.4238526992
 20
167.4117548798
 10
661.3896741382
 20
167.5368681848
 10
661.3584293426
 20
167.6612905137
 10
661.3301485397
 20
167.784901496
 10
661.3048590893
 20
167.9075815461
 10
661.2825854574
 20
168.0292119788
 10
661.2633491923
 20
168.1496751247
 10
661.2471689038
 20
168.2688544433
 10
661.2340602452
 20
168.3866346364
 10
661.2240358984
 20
168.5029017594
 10
661.2171055613
 20
168.6175433311
 10
661.2132759385
 20
168.7304484434
 10
661.2125507349
 20
168.8415078678
 10
661.2149306522
 20
168.9506141615
 10
661.2204133879
 20
169.0576617712
 10
661.2289936378
 20
169.1625471352
 10
661.2406631011
 20
169.2651687838
 10
661.2554104883
 20
169.3654274371
 10
661.2732215323
 20
169.4632261014
 10
661.2940790021
 20
169.5584701627
 10
661.3179627193
 20
169.6510674786
 10
661.3448495781
 20
169.7409284672
 10
661.3747135671
 20
169.8279661937
 10
661.4075257949
 20
169.9120964548
 10
661.4432545177
 20
169.9932378599
 10
661.4818651704
 20
170.0713119099
 10
661.5233203995
 20
170.1462430732
 10
661.5675800999
 20
170.2179588587
 10
661.6146014532
 20
170.2863898861
 10
661.6643389692
 20
170.3514699528
 10
661.71674453
 20
170.413136098
 10
661.7717674368
 20
170.4713286637
 10
661.8293544583
 20
170.5259913523
 10
661.8894498829
 20
170.5770712812
 10
661.9519955721
 20
170.6245190339
 10
662.0169310171
 20
170.6682887077
 10
662.0841933968
 20
170.7083379584
 10
662.1537176395
 20
170.7446280408
 10
662.2254364847
 20
170.7771238467
 10
662.2992805492
 20
170.8057939384
 10
662.3751783937
 20
170.8306105795
 10
662.4530565918
 20
170.8515497614
 10
662.5328398014
 20
170.868591227
 10
662.6144508375
 20
170.8817184896
 10
662.6978107466
 20
170.8909188495
 10
662.7828388833
 20
170.896183406
 10
662.8694529886
 20
170.8975070658
 10
662.9575692687
 20
170.8948885486
 10
663.0471024769
 20
170.8883303874
 10
663.1379659957
 20
170.8778389269
 10
663.2300719203
 20
170.8634243169
 10
663.3233311443
 20
170.8451005027
 10
663.4176534455
 20
170.8228852113
 10
663.512947573
 20
170.7967999345
 10
663.6091213359
 20
170.7668699083
 10
663.7060816924
 20
170.7331240879
 10
663.8037348396
 20
170.6955951203
 10
663.9019863043
 20
170.6543193123
 10
664.0007410346
 20
170.6093365957
 10
664.0999034918
 20
170.5606904882
 10
664.1993777424
 20
170.5084280518
 10
664.2990675516
 20
170.4525998471
  0
LWPOLYLINE
  5
119
330
1F
100
AcDbEntity
  8
0
  6
Continuous
 62
     7
370
    30
100
AcDbPolyline
 90
        3
 70
   128
 43
0.0
 10
548.2875842623
 20
91.5390600614
 10
548.2875853389
 20
91.5359188832
 10
548.2887603668
 20
91.4352421379
  0
LINE
  5
11A
330
1F
100
AcDbEntity
  8
0
  6
Continuous
 62
     7
370
    30
100
AcDbLine
 10
576.0372601902
 20
97.7714335668
 30
0.0
 11
576.0375842623
 21
97.826424313
 31
0.0
  0
LINE
  5
11B
330
1F
100
AcDbEntity
  8
0
  6
Continuous
 62
     7
370
    30
100
AcDbLine
 10
548.0375842623
 20
97.826424313
 30
0.0
 11
548.0379374382
 21
97.7690174039
 31
0.0
  0
ENDSEC
  0
SECTION
  2
OBJECTS
  0
DICTIONARY
  5
C
330
0
100
AcDbDictionary
281
     1
  3
ACAD_GROUP
350
D
  3
ACAD_LAYOUT
350
1A
  3
ACAD_MLINESTYLE
350
17
  3
ACAD_PLOTSETTINGS
350
19
  3
ACAD_PLOTSTYLENAME
350
E
  3
ACAD_SCALELIST
350
47
  0
DICTIONARY
  5
D
102
{ACAD_REACTORS
330
C
102
}
330
C
100
AcDbDictionary
281
     1
  0
DICTIONARY
  5
1A
102
{ACAD_REACTORS
330
C
102
}
330
C
100
AcDbDictionary
281
     1
  3
Layout1
350
1E
  3
Layout2
350
26
  3
Model
350
22
  0
DICTIONARY
  5
17
102
{ACAD_REACTORS
330
C
102
}
330
C
100
AcDbDictionary
281
     1
  3
Standard
350
18
  0
DICTIONARY
  5
19
102
{ACAD_REACTORS
330
C
102
}
330
C
100
AcDbDictionary
281
     1
  0
ACDBDICTIONARYWDFLT
  5
E
102
{ACAD_REACTORS
330
C
102
}
330
C
100
AcDbDictionary
281
     1
  3
Normal
350
F
100
AcDbDictionaryWithDefault
340
F
  0
DICTIONARY
  5
47
102
{ACAD_REACTORS
330
C
102
}
330
C
100
AcDbDictionary
281
     1
  3
A0
350
48
  3
A1
350
49
  3
A2
350
4A
  3
A3
350
4B
  3
A4
350
4C
  3
A5
350
4D
  3
A6
350
4E
  3
A7
350
4F
  3
A8
350
50
  3
A9
350
51
  3
B0
350
52
  3
B1
350
53
  3
B2
350
54
  3
B3
350
55
  3
B4
350
56
  3
B5
350
57
  3
B6
350
58
  3
B7
350
59
  3
B8
350
5A
  3
B9
350
5B
  3
C0
350
5C
  3
C1
350
5D
  3
C2
350
5E
  3
C3
350
5F
  3
C4
350
60
  3
C5
350
61
  3
C6
350
62
  3
C7
350
63
  3
C8
350
64
  3
C9
350
65
  3
D0
350
66
  3
D1
350
67
  3
D2
350
68
  0
LAYOUT
  5
1E
102
{ACAD_REACTORS
330
1A
102
}
330
1A
100
AcDbPlotSettings
  1

  2
none_device
  4

  6

 40
0.0
 41
0.0
 42
0.0
 43
0.0
 44
0.0
 45
0.0
 46
0.0
 47
0.0
 48
0.0
 49
0.0
140
0.0
141
0.0
142
1.0
143
1.0
 70
   688
 72
     1
 73
     0
 74
     5
  7

 75
    16
147
1.0
148
0.0
149
0.0
100
AcDbLayout
  1
Layout1
 70
     1
 71
     1
 10
0.0
 20
0.0
 11
420.0
 21
297.0
 12
0.0
 22
0.0
 32
0.0
 14
1.0000000000E+20
 24
1.0000000000E+20
 34
1.0000000000E+20
 15
-1.0000000000E+20
 25
-1.0000000000E+20
 35
-1.0000000000E+20
146
0.0
 13
0.0
 23
0.0
 33
0.0
 16
1.0
 26
0.0
 36
0.0
 17
0.0
 27
1.0
 37
0.0
 76
     0
330
1B
  0
LAYOUT
  5
26
102
{ACAD_REACTORS
330
1A
102
}
330
1A
100
AcDbPlotSettings
  1

  2
none_device
  4

  6

 40
0.0
 41
0.0
 42
0.0
 43
0.0
 44
0.0
 45
0.0
 46
0.0
 47
0.0
 48
0.0
 49
0.0
140
0.0
141
0.0
142
1.0
143
1.0
 70
   688
 72
     1
 73
     0
 74
     5
  7

 75
    16
147
1.0
148
0.0
149
0.0
100
AcDbLayout
  1
Layout2
 70
     1
 71
     2
 10
0.0
 20
0.0
 11
0.0
 21
0.0
 12
0.0
 22
0.0
 32
0.0
 14
0.0
 24
0.0
 34
0.0
 15
0.0
 25
0.0
 35
0.0
146
0.0
 13
0.0
 23
0.0
 33
0.0
 16
1.0
 26
0.0
 36
0.0
 17
0.0
 27
1.0
 37
0.0
 76
     0
330
23
  0
LAYOUT
  5
22
102
{ACAD_REACTORS
330
1A
102
}
330
1A
100
AcDbPlotSettings
  1

  2
none_device
  4
Letter_(8.50_x_11.00_Inches)
  6

 40
6.35
 41
6.35
 42
6.35000508
 43
6.35000508
 44
215.9
 45
279.4
 46
0.0
 47
0.0
 48
0.0
 49
0.0
140
0.0
141
0.0
142
1.0
143
1.0
 70
  1712
 72
     1
 73
     0
 74
     0
  7

 75
     0
147
1.0
148
0.0
149
0.0
100
AcDbLayout
  1
Model
 70
     1
 71
     0
 10
0.0
 20
0.0
 11
770.0
 21
548.0
 12
0.0
 22
0.0
 32
0.0
 14
0.0
 24
0.0
 34
0.0
 15
770.0
 25
548.0
 35
0.0
146
0.0
 13
0.0
 23
0.0
 33
0.0
 16
1.0
 26
0.0
 36
0.0
 17
0.0
 27
1.0
 37
0.0
 76
     0
330
1F
331
29
  0
MLINESTYLE
  5
18
102
{ACAD_REACTORS
330
17
102
}
330
17
100
AcDbMlineStyle
  2
Standard
 70
     0
  3

 62
   256
 51
90.0
 52
90.0
 71
     2
 49
0.5
 62
   256
  6
BYLAYER
 49
-0.5
 62
   256
  6
BYLAYER
  0
ACDBPLACEHOLDER
  5
F
102
{ACAD_REACTORS
330
E
102
}
330
E
  0
SCALE
  5
48
102
{ACAD_REACTORS
330
47
102
}
330
47
100
AcDbScale
 70
     0
300
1:1
140
1.0
141
1.0
290
     1
  0
SCALE
  5
49
102
{ACAD_REACTORS
330
47
102
}
330
47
100
AcDbScale
 70
     0
300
1:2
140
1.0
141
2.0
290
     0
  0
SCALE
  5
4A
102
{ACAD_REACTORS
330
47
102
}
330
47
100
AcDbScale
 70
     0
300
1:4
140
1.0
141
4.0
290
     0
  0
SCALE
  5
4B
102
{ACAD_REACTORS
330
47
102
}
330
47
100
AcDbScale
 70
     0
300
1:5
140
1.0
141
5.0
290
     0
  0
SCALE
  5
4C
102
{ACAD_REACTORS
330
47
102
}
330
47
100
AcDbScale
 70
     0
300
1:8
140
1.0
141
8.0
290
     0
  0
SCALE
  5
4D
102
{ACAD_REACTORS
330
47
102
}
330
47
100
AcDbScale
 70
     0
300
1:10
140
1.0
141
10.0
290
     0
  0
SCALE
  5
4E
102
{ACAD_REACTORS
330
47
102
}
330
47
100
AcDbScale
 70
     0
300
1:16
140
1.0
141
16.0
290
     0
  0
SCALE
  5
4F
102
{ACAD_REACTORS
330
47
102
}
330
47
100
AcDbScale
 70
     0
300
1:20
140
1.0
141
20.0
290
     0
  0
SCALE
  5
50
102
{ACAD_REACTORS
330
47
102
}
330
47
100
AcDbScale
 70
     0
300
1:30
140
1.0
141
30.0
290
     0
  0
SCALE
  5
51
102
{ACAD_REACTORS
330
47
102
}
330
47
100
AcDbScale
 70
     0
300
1:40
140
1.0
141
40.0
290
     0
  0
SCALE
  5
52
102
{ACAD_REACTORS
330
47
102
}
330
47
100
AcDbScale
 70
     0
300
1:50
140
1.0
141
50.0
290
     0
  0
SCALE
  5
53
102
{ACAD_REACTORS
330
47
102
}
330
47
100
AcDbScale
 70
     0
300
1:100
140
1.0
141
100.0
290
     0
  0
SCALE
  5
54
102
{ACAD_REACTORS
330
47
102
}
330
47
100
AcDbScale
 70
     0
300
2:1
140
2.0
141
1.0
290
     0
  0
SCALE
  5
55
102
{ACAD_REACTORS
330
47
102
}
330
47
100
AcDbScale
 70
     0
300
4:1
140
4.0
141
1.0
290
     0
  0
SCALE
  5
56
102
{ACAD_REACTORS
330
47
102
}
330
47
100
AcDbScale
 70
     0
300
8:1
140
8.0
141
1.0
290
     0
  0
SCALE
  5
57
102
{ACAD_REACTORS
330
47
102
}
330
47
100
AcDbScale
 70
     0
300
10:1
140
10.0
141
1.0
290
     0
  0
SCALE
  5
58
102
{ACAD_REACTORS
330
47
102
}
330
47
100
AcDbScale
 70
     0
300
100:1
140
100.0
141
1.0
290
     0
  0
SCALE
  5
59
102
{ACAD_REACTORS
330
47
102
}
330
47
100
AcDbScale
 70
     0
300
1/128" = 1'-0"
140
0.0078125
141
12.0
290
     0
  0
SCALE
  5
5A
102
{ACAD_REACTORS
330
47
102
}
330
47
100
AcDbScale
 70
     0
300
1/64" = 1'-0"
140
0.015625
141
12.0
290
     0
  0
SCALE
  5
5B
102
{ACAD_REACTORS
330
47
102
}
330
47
100
AcDbScale
 70
     0
300
1/32" = 1'-0"
140
0.03125
141
12.0
290
     0
  0
SCALE
  5
5C
102
{ACAD_REACTORS
330
47
102
}
330
47
100
AcDbScale
 70
     0
300
1/16" = 1'-0"
140
0.0625
141
12.0
290
     0
  0
SCALE
  5
5D
102
{ACAD_REACTORS
330
47
102
}
330
47
100
AcDbScale
 70
     0
300
3/32" = 1'-0"
140
0.09375
141
12.0
290
     0
  0
SCALE
  5
5E
102
{ACAD_REACTORS
330
47
102
}
330
47
100
AcDbScale
 70
     0
300
1/8" = 1'-0"
140
0.125
141
12.0
290
     0
  0
SCALE
  5
5F
102
{ACAD_REACTORS
330
47
102
}
330
47
100
AcDbScale
 70
     0
300
3/16" = 1'-0"
140
0.1875
141
12.0
290
     0
  0
SCALE
  5
60
102
{ACAD_REACTORS
330
47
102
}
330
47
100
AcDbScale
 70
     0
300
1/4" = 1'-0"
140
0.25
141
12.0
290
     0
  0
SCALE
  5
61
102
{ACAD_REACTORS
330
47
102
}
330
47
100
AcDbScale
 70
     0
300
3/8" = 1'-0"
140
0.375
141
12.0
290
     0
  0
SCALE
  5
62
102
{ACAD_REACTORS
330
47
102
}
330
47
100
AcDbScale
 70
     0
300
1/2" = 1'-0"
140
0.5
141
12.0
290
     0
  0
SCALE
  5
63
102
{ACAD_REACTORS
330
47
102
}
330
47
100
AcDbScale
 70
     0
300
3/4" = 1'-0"
140
0.75
141
12.0
290
     0
  0
SCALE
  5
64
102
{ACAD_REACTORS
330
47
102
}
330
47
100
AcDbScale
 70
     0
300
1" = 1'-0"
140
1.0
141
12.0
290
     0
  0
SCALE
  5
65
102
{ACAD_REACTORS
330
47
102
}
330
47
100
AcDbScale
 70
     0
300
1-1/2" = 1'-0"
140
1.5
141
12.0
290
     0
  0
SCALE
  5
66
102
{ACAD_REACTORS
330
47
102
}
330
47
100
AcDbScale
 70
     0
300
3" = 1'-0"
140
3.0
141
12.0
290
     0
  0
SCALE
  5
67
102
{ACAD_REACTORS
330
47
102
}
330
47
100
AcDbScale
 70
     0
300
6" = 1'-0"
140
6.0
141
12.0
290
     0
  0
SCALE
  5
68
102
{ACAD_REACTORS
330
47
102
}
330
47
100
AcDbScale
 70
     0
300
1'-0" = 1'-0"
140
12.0
141
12.0
290
     0
  0
ENDSEC
  0
EOF
