  0
SECTION
  2
HEADER
  9
$ACADVER
  1
AC1015
  9
$ACADMAINTVER
 70
     6
  9
$DWGCODEPAGE
  3
ANSI_1252
  9
$INSBASE
 10
0.0
 20
0.0
 30
0.0
  9
$EXTMIN
 10
0.0
 20
0.0
 30
0.0
  9
$EXTMAX
 10
593.0
 20
397.0
 30
0.0
  9
$LIMMIN
 10
0.0
 20
0.0
  9
$LIMMAX
 10
593.0
 20
397.0
  9
$ORTHOMODE
 70
     0
  9
$REGENMODE
 70
     1
  9
$FILLMODE
 70
     1
  9
$QTEXTMODE
 70
     0
  9
$MIRRTEXT
 70
     1
  9
$LTSCALE
 40
1.0
  9
$ATTMODE
 70
     1
  9
$TEXTSIZE
 40
3.5
  9
$TRACEWID
 40
1.0
  9
$TEXTSTYLE
  7
Standard
  9
$CLAYER
  8
0
  9
$CELTYPE
  6
ByLayer
  9
$CECOLOR
 62
   256
  9
$CELTSCALE
 40
1.0
  9
$DISPSILH
 70
     0
  9
$DIMSCALE
 40
1.0
  9
$DIMASZ
 40
3.302
  9
$DIMEXO
 40
1.0
  9
$DIMDLI
 40
3.75
  9
$DIMRND
 40
0.0
  9
$DIMDLE
 40
0.0
  9
$DIMEXE
 40
1.0
  9
$DIMTP
 40
0.0
  9
$DIMTM
 40
0.0
  9
$DIMTXT
 40
2.8
  9
$DIMCEN
 40
2.5
  9
$DIMTSZ
 40
0.0
  9
$DIMTOL
 70
     0
  9
$DIMLIM
 70
     0
  9
$DIMTIH
 70
     1
  9
$DIMTOH
 70
     1
  9
$DIMSE1
 70
     0
  9
$DIMSE2
 70
     0
  9
$DIMTAD
 70
     1
  9
$DIMZIN
 70
     0
  9
$DIMBLK
  1

  9
$DIMASO
 70
     1
  9
$DIMSHO
 70
     1
  9
$DIMPOST
  1

  9
$DIMAPOST
  1

  9
$DIMALT
 70
     0
  9
$DIMALTD
 70
     3
  9
$DIMALTF
 40
0.0393700787
  9
$DIMLFAC
 40
1.0
  9
$DIMTOFL
 70
     1
  9
$DIMTVP
 40
0.0
  9
$DIMTIX
 70
     0
  9
$DIMSOXD
 70
     0
  9
$DIMSAH
 70
     0
  9
$DIMBLK1
  1

  9
$DIMBLK2
  1

  9
$DIMSTYLE
  2
ISO-25
  9
$DIMCLRD
 70
     0
  9
$DIMCLRE
 70
     0
  9
$DIMCLRT
 70
     0
  9
$DIMTFAC
 40
1.0
  9
$DIMGAP
 40
1.524
  9
$DIMJUST
 70
     0
  9
$DIMSD1
 70
     0
  9
$DIMSD2
 70
     0
  9
$DIMTOLJ
 70
     0
  9
$DIMTZIN
 70
     0
  9
$DIMALTZ
 70
     0
  9
$DIMALTTZ
 70
     0
  9
$DIMUPT
 70
     0
  9
$DIMDEC
 70
     2
  9
$DIMTDEC
 70
     2
  9
$DIMALTU
 70
     2
  9
$DIMALTTD
 70
     3
  9
$DIMTXSTY
  7
Standard
  9
$DIMAUNIT
 70
     0
  9
$DIMADEC
 70
     2
  9
$DIMALTRND
 40
0.0
  9
$DIMAZIN
 70
     0
  9
$DIMDSEP
 70
    44
  9
$DIMATFIT
 70
     3
  9
$DIMFRAC
 70
     0
  9
$DIMLDRBLK
  1

  9
$DIMLUNIT
 70
     2
  9
$DIMLWD
 70
    -2
  9
$DIMLWE
 70
    -2
  9
$DIMTMOVE
 70
     0
  9
$LUNITS
 70
     2
  9
$LUPREC
 70
     2
  9
$SKETCHINC
 40
1.0
  9
$FILLETRAD
 40
10.0
  9
$AUNITS
 70
     0
  9
$AUPREC
 70
     2
  9
$MENU
  1
.
  9
$ELEVATION
 40
0.0
  9
$PELEVATION
 40
0.0
  9
$THICKNESS
 40
0.0
  9
$LIMCHECK
 70
     0
  9
$CHAMFERA
 40
0.0
  9
$CHAMFERB
 40
0.0
  9
$CHAMFERC
 40
0.0
  9
$CHAMFERD
 40
0.0
  9
$SKPOLY
 70
     0
  9
$TDCREATE
 40
2458898.456707268
  9
$TDUCREATE
 40
2458898.373373935
  9
$TDUPDATE
 40
2458898.456708033
  9
$TDUUPDATE
 40
2458898.373374699
  9
$TDINDWG
 40
0.0000000116
  9
$TDUSRTIMER
 40
0.0000000116
  9
$USRTIMER
 70
     1
  9
$ANGBASE
 50
0.0
  9
$ANGDIR
 70
     0
  9
$PDMODE
 70
     0
  9
$PDSIZE
 40
-1.0
  9
$PLINEWID
 40
0.0
  9
$SPLFRAME
 70
     0
  9
$SPLINETYPE
 70
     6
  9
$SPLINESEGS
 70
     8
  9
$HANDSEED
  5
180
  9
$SURFTAB1
 70
     6
  9
$SURFTAB2
 70
     6
  9
$SURFTYPE
 70
     6
  9
$SURFU
 70
     6
  9
$SURFV
 70
     6
  9
$UCSBASE
  2

  9
$UCSNAME
  2

  9
$UCSORG
 10
0.0
 20
0.0
 30
0.0
  9
$UCSXDIR
 10
1.0
 20
0.0
 30
0.0
  9
$UCSYDIR
 10
0.0
 20
1.0
 30
0.0
  9
$UCSORTHOREF
  2

  9
$UCSORTHOVIEW
 70
     0
  9
$UCSORGTOP
 10
0.0
 20
0.0
 30
0.0
  9
$UCSORGBOTTOM
 10
0.0
 20
0.0
 30
0.0
  9
$UCSORGLEFT
 10
0.0
 20
0.0
 30
0.0
  9
$UCSORGRIGHT
 10
0.0
 20
0.0
 30
0.0
  9
$UCSORGFRONT
 10
0.0
 20
0.0
 30
0.0
  9
$UCSORGBACK
 10
0.0
 20
0.0
 30
0.0
  9
$PUCSBASE
  2

  9
$PUCSNAME
  2

  9
$PUCSORG
 10
0.0
 20
0.0
 30
0.0
  9
$PUCSXDIR
 10
1.0
 20
0.0
 30
0.0
  9
$PUCSYDIR
 10
0.0
 20
1.0
 30
0.0
  9
$PUCSORTHOREF
  2

  9
$PUCSORTHOVIEW
 70
     0
  9
$PUCSORGTOP
 10
0.0
 20
0.0
 30
0.0
  9
$PUCSORGBOTTOM
 10
0.0
 20
0.0
 30
0.0
  9
$PUCSORGLEFT
 10
0.0
 20
0.0
 30
0.0
  9
$PUCSORGRIGHT
 10
0.0
 20
0.0
 30
0.0
  9
$PUCSORGFRONT
 10
0.0
 20
0.0
 30
0.0
  9
$PUCSORGBACK
 10
0.0
 20
0.0
 30
0.0
  9
$USERI1
 70
     0
  9
$USERI2
 70
     0
  9
$USERI3
 70
     0
  9
$USERI4
 70
     0
  9
$USERI5
 70
     0
  9
$USERR1
 40
0.0
  9
$USERR2
 40
0.0
  9
$USERR3
 40
0.0
  9
$USERR4
 40
0.0
  9
$USERR5
 40
0.0
  9
$WORLDVIEW
 70
     1
  9
$SHADEDGE
 70
     3
  9
$SHADEDIF
 70
    70
  9
$TILEMODE
 70
     1
  9
$MAXACTVP
 70
    64
  9
$PINSBASE
 10
0.0
 20
0.0
 30
0.0
  9
$PLIMCHECK
 70
     0
  9
$PEXTMIN
 10
1.0000000000E+20
 20
1.0000000000E+20
 30
1.0000000000E+20
  9
$PEXTMAX
 10
-1.0000000000E+20
 20
-1.0000000000E+20
 30
-1.0000000000E+20
  9
$PLIMMIN
 10
0.0
 20
0.0
  9
$PLIMMAX
 10
420.0
 20
297.0
  9
$UNITMODE
 70
     0
  9
$VISRETAIN
 70
     1
  9
$PLINEGEN
 70
     0
  9
$PSLTSCALE
 70
     1
  9
$TREEDEPTH
 70
  3020
  9
$CMLSTYLE
  2
Standard
  9
$CMLJUST
 70
     0
  9
$CMLSCALE
 40
20.0
  9
$PROXYGRAPHICS
 70
     1
  9
$MEASUREMENT
 70
     1
  9
$CELWEIGHT
370
    -1
  9
$ENDCAPS
280
     0
  9
$JOINSTYLE
280
     0
  9
$LWDISPLAY
290
     1
  9
$INSUNITS
 70
     4
  9
$HYPERLINKBASE
  1

  9
$STYLESHEET
  1

  9
$XEDIT
290
     1
  9
$CEPSNTYPE
380
     0
  9
$PSTYLEMODE
290
     1
  9
$FINGERPRINTGUID
  2
{E8B903D9-7B39-4EB7-883E-40FA1C46708D}
  9
$VERSIONGUID
  2
{FAEB1C32-E019-11D5-929B-00C0DF256EC4}
  9
$EXTNAMES
290
     1
  9
$PSVPSCALE
 40
0.0
  9
$OLESTARTUP
290
     0
  0
ENDSEC
  0
SECTION
  2
CLASSES
  0
CLASS
  1
ACDBDICTIONARYWDFLT
  2
AcDbDictionaryWithDefault
  3
ObjectDBX Classes
 90
        0
280
     0
281
     0
  0
CLASS
  1
VISUALSTYLE
  2
AcDbVisualStyle
  3
ObjectDBX Classes
 90
     4095
280
     0
281
     0
  0
CLASS
  1
MATERIAL
  2
AcDbMaterial
  3
ObjectDBX Classes
 90
     1153
280
     0
281
     0
  0
CLASS
  1
SCALE
  2
AcDbScale
  3
ObjectDBX Classes
 90
     1153
280
     0
281
     0
  0
CLASS
  1
TABLESTYLE
  2
AcDbTableStyle
  3
ObjectDBX Classes
 90
     4095
280
     0
281
     0
  0
CLASS
  1
MLEADERSTYLE
  2
AcDbMLeaderStyle
  3
ACDB_MLEADERSTYLE_CLASS
 90
     4095
280
     0
281
     0
  0
CLASS
  1
SUN
  2
AcDbSun
  3
SCENEOE
 90
     1153
280
     0
281
     0
  0
CLASS
  1
ACDBPLACEHOLDER
  2
AcDbPlaceHolder
  3
ObjectDBX Classes
 90
        0
280
     0
281
     0
  0
CLASS
  1
LAYOUT
  2
AcDbLayout
  3
ObjectDBX Classes
 90
        0
280
     0
281
     0
  0
ENDSEC
  0
SECTION
  2
TABLES
  0
TABLE
  2
VPORT
  5
8
330
0
100
AcDbSymbolTable
 70
     1
  0
VPORT
  5
29
330
8
100
AcDbSymbolTableRecord
100
AcDbViewportTableRecord
  2
*Active
 70
     0
 10
0.0
 20
0.0
 11
1.0
 21
1.0
 12
296.5
 22
198.5
 13
0.0
 23
0.0
 14
10.0
 24
10.0
 15
10.0
 25
10.0
 16
0.0
 26
0.0
 36
1.0
 17
0.0
 27
0.0
 37
0.0
 40
397.0
 41
1.4937027708
 42
50.0
 43
0.0
 44
0.0
 50
0.0
 51
0.0
 71
     0
 72
  2000
 73
     1
 74
     3
 75
     0
 76
     0
 77
     0
 78
     0
281
     0
 65
     1
110
0.0
120
0.0
130
0.0
111
1.0
121
0.0
131
0.0
112
0.0
122
1.0
132
0.0
 79
     0
146
0.0
  0
ENDTAB
  0
TABLE
  2
LTYPE
  5
5
330
0
100
AcDbSymbolTable
 70
     6
  0
LTYPE
  5
14
330
5
100
AcDbSymbolTableRecord
100
AcDbLinetypeTableRecord
  2
ByBlock
 70
     0
  3

 72
    65
 73
     0
 40
0.0
  0
LTYPE
  5
15
330
5
100
AcDbSymbolTableRecord
100
AcDbLinetypeTableRecord
  2
ByLayer
 70
     0
  3

 72
    65
 73
     0
 40
0.0
  0
LTYPE
  5
16
330
5
100
AcDbSymbolTableRecord
100
AcDbLinetypeTableRecord
  2
Continuous
 70
     0
  3
Solid line
 72
    65
 73
     0
 40
0.0
  0
LTYPE
  5
6E
330
5
100
AcDbSymbolTableRecord
100
AcDbLinetypeTableRecord
  2
HIDDEN
 70
     0
  3
Hidden __ __ __ __ __ __ __ __ __ __ __ __ __ __
 72
    65
 73
     2
 40
1.905
 49
1.27
 74
     0
 49
-0.635
 74
     0
  0
LTYPE
  5
6F
330
5
100
AcDbSymbolTableRecord
100
AcDbLinetypeTableRecord
  2
PHANTOM
 70
     0
  3
Phantom ______  __  __  ______  __  __  ______
 72
    65
 73
     6
 40
12.7
 49
6.35
 74
     0
 49
-1.27
 74
     0
 49
1.27
 74
     0
 49
-1.27
 74
     0
 49
1.27
 74
     0
 49
-1.27
 74
     0
  0
LTYPE
  5
70
330
5
100
AcDbSymbolTableRecord
100
AcDbLinetypeTableRecord
  2
CENTER
 70
     0
  3
Center ____ _ ____ _ ____ _ ____ _ ____ _ ____
 72
    65
 73
     4
 40
10.16
 49
6.35
 74
     0
 49
-1.27
 74
     0
 49
1.27
 74
     0
 49
-1.27
 74
     0
  0
LTYPE
  5
71
330
5
100
AcDbSymbolTableRecord
100
AcDbLinetypeTableRecord
  2
CENTERX2
 70
     0
  3
Center (2x) ________  __  ________  __  _____
 72
    65
 73
     4
 40
20.32
 49
12.7
 74
     0
 49
-2.54
 74
     0
 49
2.54
 74
     0
 49
-2.54
 74
     0
  0
LTYPE
  5
72
330
5
100
AcDbSymbolTableRecord
100
AcDbLinetypeTableRecord
  2
DOT2
 70
     0
  3
Dot (.5x) ........................................
 72
    65
 73
     2
 40
0.635
 49
0.0
 74
     0
 49
-0.635
 74
     0
  0
ENDTAB
  0
TABLE
  2
LAYER
  5
2
330
0
100
AcDbSymbolTable
 70
     2
  0
LAYER
  5
10
330
2
100
AcDbSymbolTableRecord
100
AcDbLayerTableRecord
  2
0
 70
     0
 62
     7
  6
Continuous
370
    -3
390
F
  0
LAYER
  5
73
330
2
100
AcDbSymbolTableRecord
100
AcDbLayerTableRecord
  2
FORMAT
 70
     0
 62
     7
  6
Continuous
370
    -3
390
F
  0
ENDTAB
  0
TABLE
  2
STYLE
  5
3
330
0
100
AcDbSymbolTable
 70
     2
  0
STYLE
  5
11
330
3
100
AcDbSymbolTableRecord
100
AcDbTextStyleTableRecord
  2
Standard
 70
     0
 40
0.0
 41
1.0
 50
0.0
 71
     0
 42
3.5
  3
txt
  4

  0
STYLE
  5
74
330
3
100
AcDbSymbolTableRecord
100
AcDbTextStyleTableRecord
  2
SLDTEXTSTYLE0
 70
     0
 40
0.0
 41
0.605
 50
0.0
 71
     0
 42
3.5
  3
TXT
  4

  0
ENDTAB
  0
TABLE
  2
VIEW
  5
6
330
0
100
AcDbSymbolTable
 70
     0
  0
ENDTAB
  0
TABLE
  2
UCS
  5
7
330
0
100
AcDbSymbolTable
 70
     0
  0
ENDTAB
  0
TABLE
  2
APPID
  5
9
330
0
100
AcDbSymbolTable
 70
     1
  0
APPID
  5
12
330
9
100
AcDbSymbolTableRecord
100
AcDbRegAppTableRecord
  2
ACAD
 70
     0
  0
ENDTAB
  0
TABLE
  2
DIMSTYLE
  5
A
330
0
100
AcDbSymbolTable
 70
     1
100
AcDbDimStyleTable
  0
DIMSTYLE
105
27
330
A
100
AcDbSymbolTableRecord
100
AcDbDimStyleTableRecord
  2
ISO-25
 70
     0
 41
2.5
 42
0.625
 43
3.75
 44
1.25
 73
     0
 74
     0
 77
     1
 78
     8
140
2.5
141
2.5
143
0.0393700787
147
0.625
171
     3
172
     1
178
     0
271
     2
272
     2
274
     3
278
    44
283
     0
284
     8
340
11
  0
ENDTAB
  0
TABLE
  2
BLOCK_RECORD
  5
1
330
0
100
AcDbSymbolTable
 70
     1
  0
BLOCK_RECORD
  5
1F
330
1
100
AcDbSymbolTableRecord
100
AcDbBlockTableRecord
  2
*Model_Space
340
22
  0
BLOCK_RECORD
  5
1B
330
1
100
AcDbSymbolTableRecord
100
AcDbBlockTableRecord
  2
*Paper_Space
340
1E
  0
BLOCK_RECORD
  5
23
330
1
100
AcDbSymbolTableRecord
100
AcDbBlockTableRecord
  2
*Paper_Space0
340
26
  0
ENDTAB
  0
ENDSEC
  0
SECTION
  2
BLOCKS
  0
BLOCK
  5
20
330
1F
100
AcDbEntity
  8
0
100
AcDbBlockBegin
  2
*Model_Space
 70
     0
 10
0.0
 20
0.0
 30
0.0
  3
*Model_Space
  1

  0
ENDBLK
  5
21
330
1F
100
AcDbEntity
  8
0
100
AcDbBlockEnd
  0
BLOCK
  5
1C
330
1B
100
AcDbEntity
 67
     1
  8
0
100
AcDbBlockBegin
  2
*Paper_Space
 70
     0
 10
0.0
 20
0.0
 30
0.0
  3
*Paper_Space
  1

  0
ENDBLK
  5
1D
330
1B
100
AcDbEntity
 67
     1
  8
0
100
AcDbBlockEnd
  0
BLOCK
  5
24
330
23
100
AcDbEntity
  8
0
100
AcDbBlockBegin
  2
*Paper_Space0
 70
     0
 10
0.0
 20
0.0
 30
0.0
  3
*Paper_Space0
  1

  0
ENDBLK
  5
25
330
23
100
AcDbEntity
  8
0
100
AcDbBlockEnd
  0
ENDSEC
  0
SECTION
  2
ENTITIES
  0
MTEXT
  5
75
330
1F
100
AcDbEntity
  8
0
  6
Continuous
 62
     7
370
     0
100
AcDbMText
 10
7.2782978723
 20
22.1884790273
 30
0.0
 40
10.0
 41
0.0
 71
     1
 72
     1
  1
1:1
  7
SLDTEXTSTYLE0
 73
     1
 44
1.0
  0
SPLINE
  5
76
330
1F
100
AcDbEntity
  8
0
  6
Continuous
 62
     7
370
    30
100
AcDbSpline
210
0.0
220
0.0
230
1.0
 70
     8
 71
     3
 72
    42
 73
    38
 74
     0
 42
0.000000001
 43
0.00000001
 40
0.0
 40
0.0
 40
0.0
 40
0.0
 40
0.0213217852664026
 40
0.0459545881389772
 40
0.0672760440317994
 40
0.0853245182012537
 40
0.0961912569671004
 40
0.1054780810131084
 40
0.1132467173073181
 40
0.1196025510413207
 40
0.1247372087665477
 40
0.1290074372164795
 40
0.1332587678225685
 40
0.1391422535801138
 40
0.1524023919702326
 40
0.1704819853149299
 40
0.1932164297971597
 40
0.2170904154444266
 40
0.240991412508978
 40
0.2856123382488122
 40
0.3301516728673006
 40
0.3744955940660296
 40
0.4017428139097784
 40
0.4326099700823607
 40
0.4671779085833342
 40
0.5054391663456066
 40
0.5433976039351056
 40
0.5843234570826106
 40
0.6281305344078499
 40
0.674696549854127
 40
0.723859151316245
 40
0.7666681289830849
 40
0.8109973022130347
 40
0.8566844398667192
 40
0.9035482003199293
 40
0.9513903916139524
 40
1.0
 40
1.0
 40
1.0
 40
1.0
 10
341.5767349626808
 20
308.9311315978157
 30
0.0
 10
341.5767520281398
 20
308.9311274519534
 30
0.0
 10
341.5767888091187
 20
308.931118516426
 30
0.0
 10
341.5782438130814
 20
308.9307808327532
 30
0.0
 10
341.5808228920846
 20
308.9301740589485
 30
0.0
 10
341.5841619734982
 20
308.9293764352483
 30
0.0
 10
341.5878724946478
 20
308.9284742111288
 30
0.0
 10
341.5914909741316
 20
308.9275809211317
 30
0.0
 10
341.5955329023919
 20
308.9265664113925
 30
0.0
 10
341.6000123835466
 20
308.9254212215268
 30
0.0
 10
341.6049616860847
 20
308.9241308755455
 30
0.0
 10
341.6107577774686
 20
308.92258559678
 30
0.0
 10
341.6178035481635
 20
308.9206586582456
 30
0.0
 10
341.6289986897527
 20
308.9175032255093
 30
0.0
 10
341.6469034677102
 20
308.9121804085256
 30
0.0
 10
341.6726663490363
 20
308.9038537131644
 30
0.0
 10
341.7032022879043
 20
308.8929408315432
 30
0.0
 10
341.7360414743819
 20
308.879889356894
 30
0.0
 10
341.7784348270464
 20
308.8612521982324
 30
0.0
 10
341.8290994338555
 20
308.8357892730699
 30
0.0
 10
341.8867721941427
 20
308.8017848764047
 30
0.0
 10
341.9348567234311
 20
308.7689185276599
 30
0.0
 10
341.9756361181136
 20
308.7376987321105
 30
0.0
 10
342.0112606780512
 20
308.7078699866056
 30
0.0
 10
342.049432247772
 20
308.672574245897
 30
0.0
 10
342.0880939455416
 20
308.6326847844817
 30
0.0
 10
342.1264905294328
 20
308.588235355323
 30
0.0
 10
342.1638786471133
 20
308.5393751193229
 30
0.0
 10
342.2004831110796
 20
308.4846408759925
 30
0.0
 10
342.2353480690583
 20
308.4239609605204
 30
0.0
 10
342.2655446904442
 20
308.3613734650353
 30
0.0
 10
342.2909229041821
 20
308.2979082827804
 30
0.0
 10
342.3115475841302
 20
308.2345700627327
 30
0.0
 10
342.328364581151
 20
308.1680074001657
 30
0.0
 10
342.3407284133986
 20
308.0987010385375
 30
0.0
 10
342.3486569794842
 20
308.0272242666974
 30
0.0
 10
342.3495503710388
 20
307.9788756000784
 30
0.0
 10
342.3500006209434
 20
307.9545089241
 30
0.0
  0
SPLINE
  5
77
330
1F
100
AcDbEntity
  8
0
  6
Continuous
 62
     7
370
    30
100
AcDbSpline
210
0.0
220
0.0
230
1.0
 70
     8
 71
     3
 72
    43
 73
    39
 74
     0
 42
0.000000001
 43
0.00000001
 40
0.0
 40
0.0
 40
0.0
 40
0.0
 40
0.0512084774944762
 40
0.1009815994083201
 40
0.1490364211505133
 40
0.1951176930453052
 40
0.2390020987205093
 40
0.2804997620713558
 40
0.3194540905952799
 40
0.3557402180988101
 40
0.3892623718103718
 40
0.4199505045181469
 40
0.4477565115140328
 40
0.4733646803178184
 40
0.4992467651779958
 40
0.5255951348596262
 40
0.5523859373355414
 40
0.5979428763889977
 40
0.64452141238154
 40
0.6919726240351477
 40
0.720796670964325
 40
0.7481710355890218
 40
0.7727010188972238
 40
0.7944418648575238
 40
0.8134498260627315
 40
0.8272417734211335
 40
0.8392034895610752
 40
0.8495768947656318
 40
0.8570539193473118
 40
0.8648983004290323
 40
0.8736157938868517
 40
0.8835796652478684
 40
0.8992176156519948
 40
0.9177523373249322
 40
0.9374633028174699
 40
0.9577394470852525
 40
0.9785840645147266
 40
1.0
 40
1.0
 40
1.0
 40
1.0
 10
350.6499996226472
 20
307.9545092814589
 30
0.0
 10
350.6505146162929
 20
307.9804724364848
 30
0.0
 10
350.6515301684939
 20
308.0316710084497
 30
0.0
 10
350.6603902090641
 20
308.1068006811225
 30
0.0
 10
350.6739124618967
 20
308.1785270738961
 30
0.0
 10
350.6918682293998
 20
308.2462043558007
 30
0.0
 10
350.7133105846551
 20
308.3093429617858
 30
0.0
 10
350.7374264779985
 20
308.36761221015
 30
0.0
 10
350.7633674229497
 20
308.4208298379955
 30
0.0
 10
350.7903299318058
 20
308.4689448218696
 30
0.0
 10
350.8175647535019
 20
308.5120153697629
 30
0.0
 10
350.8443944721652
 20
308.5501848714844
 30
0.0
 10
350.8704417944379
 20
308.5839445717199
 30
0.0
 10
350.8962715123863
 20
308.6147502415122
 30
0.0
 10
350.9227906838903
 20
308.6439742914313
 30
0.0
 10
350.9508700479798
 20
308.6725506335112
 30
0.0
 10
350.9873522288427
 20
308.7067952252546
 30
0.0
 10
351.0335433161972
 20
308.7456035651906
 30
0.0
 10
351.0908114778048
 20
308.7872441074198
 30
0.0
 10
351.1437112936349
 20
308.820202470042
 30
0.0
 10
351.1898484064801
 20
308.8453584598024
 30
0.0
 10
351.2265876964121
 20
308.8633991398184
 30
0.0
 10
351.2607229444283
 20
308.8785202465621
 30
0.0
 10
351.2914350328066
 20
308.8908513496531
 30
0.0
 10
351.3173899425876
 20
308.900350910572
 30
0.0
 10
351.3389054552567
 20
308.9076206198322
 30
0.0
 10
351.3563021431639
 20
308.9131253091971
 30
0.0
 10
351.370962032312
 20
308.9174852074631
 30
0.0
 10
351.3823084410643
 20
308.9206959894163
 30
0.0
 10
351.3910397921115
 20
308.9230754319244
 30
0.0
 10
351.398338758269
 20
308.9250001668213
 30
0.0
 10
351.4050861306812
 20
308.9267312084852
 30
0.0
 10
351.4105080920959
 20
308.9280831360254
 30
0.0
 10
351.4135465692615
 20
308.9288300398516
 30
0.0
 10
351.4162835775979
 20
308.9294968801618
 30
0.0
 10
351.418521547742
 20
308.9300352570829
 30
0.0
 10
351.4202702497999
 20
308.9304518698546
 30
0.0
 10
351.4209619280857
 20
308.9306153891401
 30
0.0
 10
351.4213124426087
 20
308.9306982540868
 30
0.0
  0
SPLINE
  5
78
330
1F
100
AcDbEntity
  8
0
  6
Continuous
 62
     7
370
    30
100
AcDbSpline
210
0.0
220
0.0
230
1.0
 70
     8
 71
     3
 72
    18
 73
    14
 74
     0
 42
0.000000001
 43
0.00000001
 40
0.0
 40
0.0
 40
0.0
 40
0.0
 40
0.015016724302575
 40
0.0880369146923943
 40
0.1646704417064404
 40
0.2841246535181866
 40
0.4036604911519885
 40
0.5231434531881827
 40
0.6425844870452856
 40
0.7597546867796542
 40
0.8690890618661445
 40
0.972669757740914
 40
1.0
 40
1.0
 40
1.0
 40
1.0
 10
351.4218251365896
 20
308.9308219276888
 30
0.0
 10
351.4218848533682
 20
308.9308361897471
 30
0.0
 10
351.422234948424
 20
308.9309198023636
 30
0.0
 10
351.4204701617782
 20
308.9305201074645
 30
0.0
 10
351.4155709172584
 20
308.9294299247391
 30
0.0
 10
351.4061366768091
 20
308.9273481397603
 30
0.0
 10
351.3938910451471
 20
308.9246742216216
 30
0.0
 10
351.3792721321679
 20
308.9215119543059
 30
0.0
 10
351.3626772724714
 20
308.9179565261373
 30
0.0
 10
351.3444098994636
 20
308.9140765836186
 30
0.0
 10
351.3244384771313
 20
308.9098787145077
 30
0.0
 10
351.3087604740982
 20
308.9066025900926
 30
0.0
 10
351.2991411604682
 20
308.9046178540658
 30
0.0
 10
351.2971329388816
 20
308.9042035012454
 30
0.0
  0
LINE
  5
79
330
1F
100
AcDbEntity
  8
0
  6
Continuous
 62
     7
370
    30
100
AcDbLine
 10
342.3499999996
 20
307.95701678
 30
0.0
 11
342.3499999996
 21
264.3263985401
 31
0.0
  0
LINE
  5
7A
330
1F
100
AcDbEntity
  8
0
  6
Continuous
 62
     7
370
    30
100
AcDbLine
 10
350.6499999996
 20
264.3263985401
 30
0.0
 11
350.6499999996
 21
307.9569997182
 31
0.0
  0
ARC
  5
7B
330
1F
100
AcDbEntity
  8
0
  6
Continuous
 62
     7
370
    30
100
AcDbCircle
 10
342.8499999996
 20
264.3263985401
 30
0.0
 40
0.5
100
AcDbArc
 50
180.0
 51
270.0
  0
ARC
  5
7C
330
1F
100
AcDbEntity
  8
0
  6
Continuous
 62
     7
370
    30
100
AcDbCircle
 10
350.1499999996
 20
264.3263985401
 30
0.0
 40
0.5
100
AcDbArc
 50
270.0
 51
0.0
  0
SPLINE
  5
7D
330
1F
100
AcDbEntity
  8
0
  6
Continuous
 62
     7
370
    30
100
AcDbSpline
210
0.0
220
0.0
230
1.0
 70
     8
 71
     3
 72
    13
 73
     9
 74
     0
 42
0.000000001
 43
0.00000001
 40
0.0
 40
0.0
 40
0.0
 40
0.0
 40
0.0608776988682653
 40
0.1767756914257949
 40
0.4269590893213402
 40
0.6941527416748569
 40
0.9602385038643555
 40
1.0
 40
1.0
 40
1.0
 40
1.0
 10
342.1484972004225
 20
308.8209417050457
 30
0.0
 10
342.1471980820517
 20
308.820968773604
 30
0.0
 10
342.1434257228382
 20
308.8210473748521
 30
0.0
 10
342.1374991800524
 20
308.8214747893316
 30
0.0
 10
342.1338190240625
 20
308.8218261404444
 30
0.0
 10
342.1337795716641
 20
308.8218153030753
 30
0.0
 10
342.1332040420635
 20
308.821861878915
 30
0.0
 10
342.1332957521194
 20
308.8218397277013
 30
0.0
 10
342.1333076748323
 20
308.8218368479455
 30
0.0
  0
SPLINE
  5
7E
330
1F
100
AcDbEntity
  8
0
  6
Continuous
 62
     7
370
    30
100
AcDbSpline
210
0.0
220
0.0
230
1.0
 70
     8
 71
     3
 72
     9
 73
     5
 74
     0
 42
0.000000001
 43
0.00000001
 40
0.0
 40
0.0
 40
0.0
 40
0.0
 40
0.4590012749001007
 40
1.0
 40
1.0
 40
1.0
 40
1.0
 10
350.8662262450392
 20
308.8222917458986
 30
0.0
 10
350.8657392161645
 20
308.8222257138465
 30
0.0
 10
350.8646781540252
 20
308.8220818535663
 30
0.0
 10
350.8619525849254
 20
308.8219666069245
 30
0.0
 10
350.8604780555172
 20
308.8219042586383
 30
0.0
  0
LINE
  5
7F
330
1F
100
AcDbEntity
  8
0
  6
Continuous
 62
     7
370
    30
100
AcDbLine
 10
236.0
 20
321.9642558973
 30
0.0
 11
236.0
 21
313.0564941922
 31
0.0
  0
LINE
  5
80
330
1F
100
AcDbEntity
  8
0
  6
Continuous
 62
     7
370
    30
100
AcDbLine
 10
257.0
 20
313.0564941922
 30
0.0
 11
257.0
 21
321.9642558973
 31
0.0
  0
LINE
  5
81
330
1F
100
AcDbEntity
  8
0
  6
Continuous
 62
     7
370
    30
100
AcDbLine
 10
236.0225
 20
313.0564941922
 30
0.0
 11
236.0225
 21
305.7403655861
 31
0.0
  0
LINE
  5
82
330
1F
100
AcDbEntity
  8
0
  6
Continuous
 62
     7
370
    30
100
AcDbLine
 10
256.9775
 20
305.7403655861
 30
0.0
 11
256.9775
 21
313.0564941922
 31
0.0
  0
LINE
  5
83
330
1F
100
AcDbEntity
  8
0
  6
Continuous
 62
     7
370
    30
100
AcDbLine
 10
236.0225000031
 20
305.7403655861
 30
0.0
 11
237.1845
 21
305.0564941922
 31
0.0
  0
LINE
  5
84
330
1F
100
AcDbEntity
  8
0
  6
Continuous
 62
     7
370
    30
100
AcDbLine
 10
255.8155
 20
305.0564941922
 30
0.0
 11
256.9774999969
 21
305.7403655861
 31
0.0
  0
CIRCLE
  5
85
330
1F
100
AcDbEntity
  8
0
  6
Continuous
 62
     7
370
    30
100
AcDbCircle
 10
346.4999999996
 20
332.6763985401
 30
0.0
 40
24.25
  0
LINE
  5
86
330
1F
100
AcDbEntity
  8
0
  6
Continuous
 62
     7
370
    30
100
AcDbLine
 10
342.8499999996
 20
263.8263985401
 30
0.0
 11
350.1499999996
 21
263.8263985401
 31
0.0
  0
LINE
  5
87
330
1F
100
AcDbEntity
  8
0
  6
Continuous
 62
     7
370
    30
100
AcDbLine
 10
238.3290852314
 20
313.0564941922
 30
0.0
 11
257.0
 21
313.0564941922
 31
0.0
  0
LINE
  5
88
330
1F
100
AcDbEntity
  8
0
  6
Continuous
 62
     7
370
    30
100
AcDbLine
 10
236.0
 20
313.0564941922
 30
0.0
 11
238.3290852314
 21
313.0564941922
 31
0.0
  0
LINE
  5
89
330
1F
100
AcDbEntity
  8
0
  6
Continuous
 62
     7
370
    30
100
AcDbLine
 10
238.3465943345
 20
305.7403655861
 30
0.0
 11
256.9775
 21
305.7403655861
 31
0.0
  0
LINE
  5
8A
330
1F
100
AcDbEntity
  8
0
  6
Continuous
 62
     7
370
    30
100
AcDbLine
 10
236.0225
 20
305.7403655861
 30
0.0
 11
238.3465943345
 21
305.7403655861
 31
0.0
  0
LINE
  5
8B
330
1F
100
AcDbEntity
  8
0
  6
Continuous
 62
     7
370
    30
100
AcDbLine
 10
239.2508422355
 20
305.0564941922
 30
0.0
 11
255.8155
 21
305.0564941922
 31
0.0
  0
LINE
  5
8C
330
1F
100
AcDbEntity
  8
0
  6
Continuous
 62
     7
370
    30
100
AcDbLine
 10
237.1845
 20
305.0564941922
 30
0.0
 11
239.2508422355
 21
305.0564941922
 31
0.0
  0
CIRCLE
  5
8D
330
1F
100
AcDbEntity
  8
0
  6
Continuous
 62
     7
370
    30
100
AcDbCircle
 10
246.5
 20
332.6763985401
 30
0.0
 40
15.00000000000006
  0
SPLINE
  5
8E
330
1F
100
AcDbEntity
  8
0
  6
Continuous
 62
     7
370
    30
100
AcDbSpline
210
0.0
220
0.0
230
1.0
 70
     8
 71
     3
 72
    15
 73
    11
 74
     0
 42
0.000000001
 43
0.00000001
 40
0.0
 40
0.0
 40
0.0
 40
0.0
 40
0.1286210279841613
 40
0.2521470226084984
 40
0.37513788228066
 40
0.5022111210545105
 40
0.6291264587150921
 40
0.7511939927329888
 40
0.873216018014505
 40
1.0
 40
1.0
 40
1.0
 40
1.0
 10
344.6074932379394
 20
308.3205250637199
 30
0.0
 10
344.616035138232
 20
308.3204378881129
 30
0.0
 10
344.6327805706077
 20
308.3202669901651
 30
0.0
 10
344.6830476169534
 20
308.3191318170013
 30
0.0
 10
344.7513178194311
 20
308.3174472106936
 30
0.0
 10
344.8368732487554
 20
308.3153625340443
 30
0.0
 10
344.9339122058269
 20
308.313188394544
 30
0.0
 10
345.0398668078435
 20
308.3111082601362
 30
0.0
 10
345.152143428189
 20
308.3092469453022
 30
0.0
 10
345.2280021778981
 20
308.3083765639204
 30
0.0
 10
345.2666574919807
 20
308.3079330440125
 30
0.0
  0
SPLINE
  5
8F
330
1F
100
AcDbEntity
  8
0
  6
Continuous
 62
     7
370
    30
100
AcDbSpline
210
0.0
220
0.0
230
1.0
 70
     8
 71
     3
 72
    26
 73
    22
 74
     0
 42
0.000000001
 43
0.00000001
 40
0.0
 40
0.0
 40
0.0
 40
0.0
 40
0.0573095498642968
 40
0.1136920617847914
 40
0.1691475122505066
 40
0.2236758781603755
 40
0.2772771368244704
 40
0.3299512659653439
 40
0.3816982437194867
 40
0.4325180486389161
 40
0.4824106596929142
 40
0.531376056269928
 40
0.5794142181796509
 40
0.6265251256553094
 40
0.6818299747501904
 40
0.7357998166370429
 40
0.7884346051411264
 40
0.8397342953510779
 40
0.8896988436287908
 40
0.9502703630213969
 40
1.0
 40
1.0
 40
1.0
 40
1.0
 10
371.4
 20
332.6763985401383
 30
0.0
 10
371.384529298562
 20
332.0092159252553
 30
0.0
 10
371.3538381493921
 20
330.6856430259282
 30
0.0
 10
371.1091586111058
 20
328.7291079092453
 30
0.0
 10
370.7295440202712
 20
326.8288912969181
 30
0.0
 10
370.210538889894
 20
324.99499706993
 30
0.0
 10
369.5660319362998
 20
323.2361261345126
 30
0.0
 10
368.8055582909387
 20
321.5597019946393
 30
0.0
 10
367.9400586727116
 20
319.9719057247992
 30
0.0
 10
366.9802186489228
 20
318.4777229043593
 30
0.0
 10
365.9367575907594
 20
317.0809978238753
 30
0.0
 10
364.8202319456868
 20
315.7845003397165
 30
0.0
 10
363.6409488598269
 20
314.5899789620429
 30
0.0
 10
362.3294701815133
 20
313.4278337989235
 30
0.0
 10
360.882634153118
 20
312.3204586711897
 30
0.0
 10
359.3014591908315
 20
311.2920344453148
 30
0.0
 10
357.6888151753838
 20
310.4073331291099
 30
0.0
 10
356.0586720562437
 20
309.6608680474504
 30
0.0
 10
354.2926359154826
 20
309.0033712376788
 30
0.0
 10
352.5002366541569
 20
308.4738313895862
 30
0.0
 10
351.2368330509775
 20
308.2426350929363
 30
0.0
 10
350.6672234057972
 20
308.1383994866974
 30
0.0
  0
SPLINE
  5
90
330
1F
100
AcDbEntity
  8
0
  6
Continuous
 62
     7
370
    30
100
AcDbSpline
210
0.0
220
0.0
230
1.0
 70
     8
 71
     3
 72
    27
 73
    23
 74
     0
 42
0.000000001
 43
0.00000001
 40
0.0
 40
0.0
 40
0.0
 40
0.0
 40
0.0197202204888349
 40
0.071740828497189
 40
0.126409225813228
 40
0.1739925978331346
 40
0.2234149524515278
 40
0.2746762137388953
 40
0.3277763020511195
 40
0.3827151341173764
 40
0.4394926231138232
 40
0.4972924120139953
 40
0.5530762031677977
 40
0.6068438956130796
 40
0.658595393661753
 40
0.7083306071014841
 40
0.7560494514399625
 40
0.8106462726032876
 40
0.8623399025145818
 40
0.9111301666829408
 40
0.9570169102419088
 40
1.0
 40
1.0
 40
1.0
 40
1.0
 10
342.3321374626726
 20
308.1422171190043
 30
0.0
 10
342.1052528580643
 20
308.1771663228782
 30
0.0
 10
341.2798620102756
 20
308.304309163023
 30
0.0
 10
339.8500436647692
 20
308.6621170186792
 30
0.0
 10
338.1358397016735
 20
309.1992513879326
 30
0.0
 10
336.4949057443219
 20
309.8542695009431
 30
0.0
 10
334.937506072615
 20
310.600295734943
 30
0.0
 10
333.3808142663126
 20
311.486689306876
 30
0.0
 10
331.8396030237076
 20
312.5202413106443
 30
0.0
 10
330.3304535283648
 20
313.7073292412056
 30
0.0
 10
328.8784905320801
 20
315.046076026422
 30
0.0
 10
327.5319289172388
 20
316.5043514633711
 30
0.0
 10
326.3274357643658
 20
318.0374505603957
 30
0.0
 10
325.2833815463802
 20
319.5997831888586
 30
0.0
 10
324.392456485197
 20
321.1735981120894
 30
0.0
 10
323.6460155279418
 20
322.7430658680036
 30
0.0
 10
322.9963443687869
 20
324.3905159970093
 30
0.0
 10
322.4596352949155
 20
326.1025627711523
 30
0.0
 10
322.048523093481
 20
327.8617506797972
 30
0.0
 10
321.7804891758666
 20
329.5451612160975
 30
0.0
 10
321.6268507433977
 20
331.141589080209
 30
0.0
 10
321.6087531462073
 20
332.1760618677378
 30
0.0
 10
321.6
 20
332.6763985401383
 30
0.0
  0
SPLINE
  5
91
330
1F
100
AcDbEntity
  8
0
  6
Continuous
 62
     7
370
    30
100
AcDbSpline
210
0.0
220
0.0
230
1.0
 70
     8
 71
     3
 72
    47
 73
    43
 74
     0
 42
0.000000001
 43
0.00000001
 40
0.0
 40
0.0
 40
0.0
 40
0.0
 40
0.0249998155263077
 40
0.0499996317368743
 40
0.0749994493245411
 40
0.09999926898215
 40
0.124999091402542
 40
0.1499989172785586
 40
0.1749987473030394
 40
0.1999985821688252
 40
0.2249984225687565
 40
0.2499982691956725
 40
0.2749981227424121
 40
0.2999979839018136
 40
0.3249978533667145
 40
0.3499977318299524
 40
0.3749976199843632
 40
0.399997518522783
 40
0.4249974281380459
 40
0.4499973495229863
 40
0.4749972833704358
 40
0.4999972303732274
 40
0.5249971912241906
 40
0.5499971666161558
 40
0.5749971572419508
 40
0.5999971637944027
 40
0.6249971869663369
 40
0.6499972274505784
 40
0.6749972859399495
 40
0.6999973631272717
 40
0.7249974597053644
 40
0.7499975763670463
 40
0.774997713805134
 40
0.7999978727124422
 40
0.8249980537817836
 40
0.8499982577059696
 40
0.8749984851778092
 40
0.8999987368901102
 40
0.9249990135356777
 40
0.9499993158073148
 40
0.9749996443978225
 40
1.0
 40
1.0
 40
1.0
 40
1.0
 10
371.4
 20
332.6763985401382
 30
0.0
 10
371.3852126456174
 20
333.3282788852261
 30
0.0
 10
371.3556379364475
 20
334.6320395932441
 30
0.0
 10
371.1168978943494
 20
336.5756234680024
 30
0.0
 10
370.7374084947276
 20
338.4951673228288
 30
0.0
 10
370.2055340673385
 20
340.3788365311059
 30
0.0
 10
369.5282984789675
 20
342.2150176453709
 30
0.0
 10
368.7088737273927
 20
343.9923899980828
 30
0.0
 10
367.7525806953129
 20
345.6999954973046
 30
0.0
 10
366.6652432077864
 20
347.3273061869853
 30
0.0
 10
365.4535843653971
 20
348.8642891553111
 30
0.0
 10
364.1250692759853
 20
350.3014683909444
 30
0.0
 10
362.687890063151
 20
351.6299832057849
 30
0.0
 10
361.1509070437129
 20
352.8416428640591
 30
0.0
 10
359.5235963290032
 20
353.9289770809298
 30
0.0
 10
357.8159908044695
 20
354.8852820792862
 30
0.0
 10
356.0386184335672
 20
355.7046619207582
 30
0.0
 10
354.2024373064959
 20
356.3820648561363
 30
0.0
 10
352.3187680914127
 20
356.9133144710846
 30
0.0
 10
350.3992242356671
 20
357.2951354351222
 30
0.0
 10
348.4556403658586
 20
357.5251736951236
 30
0.0
 10
346.4999993232053
 20
357.6020109888367
 30
0.0
 10
344.5443582853978
 20
357.5251735889398
 30
0.0
 10
342.6007744300763
 20
357.2951352237254
 30
0.0
 10
340.6812305983076
 20
356.9133141564056
 30
0.0
 10
338.7975614164409
 20
356.3820644410453
 30
0.0
 10
336.9613803314795
 20
355.7046614090332
 30
0.0
 10
335.1840080111408
 20
354.8852814755725
 30
0.0
 10
333.4764025450978
 20
353.9289763906889
 30
0.0
 10
331.8490918961962
 20
352.8416420935098
 30
0.0
 10
330.3121089491992
 20
351.629982361835
 30
0.0
 10
328.8749298146839
 20
350.3014674811171
 30
0.0
 10
327.546414808662
 20
348.8642881876562
 30
0.0
 10
326.3347560538477
 20
347.3273051700156
 30
0.0
 10
325.2474186572439
 20
345.6999944398104
 30
0.0
 10
324.2911257182701
 20
343.9923889093808
 30
0.0
 10
323.4717010617471
 20
342.2150165339104
 30
0.0
 10
322.7944655671504
 20
340.3788354091955
 30
0.0
 10
322.2625912380215
 20
338.4951661885116
 30
0.0
 10
321.8831019212762
 20
336.5756223722089
 30
0.0
 10
321.6443619930483
 20
334.6320383886911
 30
0.0
 10
321.6147873363417
 20
333.3282787244309
 30
0.0
 10
321.6
 20
332.6763985401383
 30
0.0
  0
ELLIPSE
  5
92
330
1F
100
AcDbEntity
  8
0
  6
Continuous
 62
     7
370
    30
100
AcDbEllipse
 10
211.000304656
 20
297.1767031962
 30
0.0
 11
1.414644378337698
 21
1.414644378337698
 31
0.0
210
0.0
220
0.0
230
1.0
 40
0.9996954599
 41
2.356346783452939
 42
3.92683852362669
  0
ELLIPSE
  5
93
330
1F
100
AcDbEntity
  8
0
  6
Continuous
 62
     7
370
    30
100
AcDbEllipse
 10
381.9996953439
 20
297.1767031962
 30
0.0
 11
1.414644378338721
 21
-1.414644378336675
 31
0.0
210
0.0
220
0.0
230
1.0
 40
0.9996954599
 41
5.497939437042036
 42
7.068431177315731
  0
ELLIPSE
  5
94
330
1F
100
AcDbEntity
  8
0
  6
Continuous
 62
     7
370
    30
100
AcDbEllipse
 10
381.9996953439
 20
368.176093859
 30
0.0
 11
-1.414644378439675
 21
-1.414644378235607
 31
0.0
210
0.0
220
0.0
230
1.0
 40
0.9996954599
 41
2.356346783475085
 42
3.926838523648781
  0
ELLIPSE
  5
95
330
1F
100
AcDbEntity
  8
0
  6
Continuous
 62
     7
370
    30
100
AcDbEllipse
 10
211.000304656
 20
368.1760938836
 30
0.0
 11
-1.414644378235664
 21
1.414644378439732
 31
0.0
210
0.0
220
0.0
230
1.0
 40
0.9996954599
 41
5.497939436714916
 42
7.068431177388549
  0
LINE
  5
96
330
1F
100
AcDbEntity
  8
0
  6
Continuous
 62
     7
370
    30
100
AcDbLine
 10
382.0003046097
 20
295.1763985401
 30
0.0
 11
350.6499999996
 21
295.1763985401
 31
0.0
  0
LINE
  5
97
330
1F
100
AcDbEntity
  8
0
  6
Continuous
 62
     7
370
    30
100
AcDbLine
 10
342.3499999996
 20
295.1763985401
 30
0.0
 11
210.99969539
 21
295.1763985401
 31
0.0
  0
LINE
  5
98
330
1F
100
AcDbEntity
  8
0
  6
Continuous
 62
     7
370
    30
100
AcDbLine
 10
382.00030461
 20
370.176398515
 30
0.0
 11
210.999695391
 21
370.1763985397
 31
0.0
  0
LINE
  5
99
330
1F
100
AcDbEntity
  8
0
  6
Continuous
 62
     7
370
    30
100
AcDbLine
 10
209.0
 20
297.1760939304
 30
0.0
 11
209.0
 21
368.1767031494
 31
0.0
  0
LINE
  5
9A
330
1F
100
AcDbEntity
  8
0
  6
Continuous
 62
     7
370
    30
100
AcDbLine
 10
384.0
 20
368.1767031247
 30
0.0
 11
384.0
 21
297.1760939304
 31
0.0
  0
ARC
  5
9B
330
1F
100
AcDbEntity
  8
0
  6
Continuous
 62
     7
370
    30
100
AcDbCircle
 10
346.4999999996
 20
332.6763985401
 30
0.0
 40
24.67150935257244
100
AcDbArc
 50
279.8981715377
 51
260.1009301647
  0
ARC
  5
9C
330
1F
100
AcDbEntity
  8
0
  6
Continuous
 62
     7
370
    30
100
AcDbCircle
 10
565.1796418713
 20
309.4263985401
 30
0.0
 40
1.0
100
AcDbArc
 50
270.0
 51
0.0
  0
ARC
  5
9D
330
1F
100
AcDbEntity
  8
0
  6
Continuous
 62
     7
370
    30
100
AcDbCircle
 10
565.1796418713
 20
355.9263985401
 30
0.0
 40
1.0
100
AcDbArc
 50
0.0
 51
90.0
  0
ARC
  5
9E
330
1F
100
AcDbEntity
  8
0
  6
Continuous
 62
     7
370
    30
100
AcDbCircle
 10
539.8796418713
 20
308.9263985401
 30
0.0
 40
0.4999999999999432
100
AcDbArc
 50
194.3762133731
 51
270.0
  0
ARC
  5
9F
330
1F
100
AcDbEntity
  8
0
  6
Continuous
 62
     7
370
    30
100
AcDbCircle
 10
539.8796418713
 20
356.4263985401
 30
0.0
 40
0.4999999999999432
100
AcDbArc
 50
90.0
 51
165.6237866269
  0
LINE
  5
A0
330
1F
100
AcDbEntity
  8
0
  6
Continuous
 62
     7
370
    30
100
AcDbLine
 10
564.261006762
 20
308.4263985401
 30
0.0
 11
565.1796418713
 21
308.4263985401
 31
0.0
  0
LINE
  5
A1
330
1F
100
AcDbEntity
  8
0
  6
Continuous
 62
     7
370
    30
100
AcDbLine
 10
553.6860738044
 20
308.4263985401
 30
0.0
 11
554.0529545027
 21
308.4263985401
 31
0.0
  0
LINE
  5
A2
330
1F
100
AcDbEntity
  8
0
  6
Continuous
 62
     7
370
    30
100
AcDbLine
 10
539.8796418713
 20
308.4263985401
 30
0.0
 11
544.7758555151
 21
308.4263985401
 31
0.0
  0
LINE
  5
A3
330
1F
100
AcDbEntity
  8
0
  6
Continuous
 62
     7
370
    30
100
AcDbLine
 10
565.1796418713
 20
356.9263985401
 30
0.0
 11
539.8796418713
 21
356.9263985401
 31
0.0
  0
ARC
  5
A4
330
1F
100
AcDbEntity
  8
0
  6
Continuous
 62
     7
370
    30
100
AcDbCircle
 10
539.5890359746
 20
308.851912214
 30
0.0
 40
0.2000000000004492
100
AcDbArc
 50
180.0
 51
194.3762133726
  0
ARC
  5
A5
330
1F
100
AcDbEntity
  8
0
  6
Continuous
 62
     7
370
    30
100
AcDbCircle
 10
539.5890359746
 20
356.5008848662
 30
0.0
 40
0.2000000000004492
100
AcDbArc
 50
165.6237866274
 51
180.0
  0
LINE
  5
A6
330
1F
100
AcDbEntity
  8
0
  6
Continuous
 62
     7
370
    30
100
AcDbLine
 10
539.3890359746
 20
356.5008848662
 30
0.0
 11
539.3890359746
 21
308.851912214
 31
0.0
  0
SPLINE
  5
A7
330
1F
100
AcDbEntity
  8
0
  6
Continuous
 62
     7
370
    30
100
AcDbSpline
210
0.0
220
0.0
230
1.0
 70
     8
 71
     3
 72
    33
 73
    29
 74
     0
 42
0.000000001
 43
0.00000001
 40
0.0
 40
0.0
 40
0.0
 40
0.0
 40
0.0290548853710954
 40
0.078875676787311
 40
0.1260540764549034
 40
0.1702342320328001
 40
0.2054862703730138
 40
0.2381501257022971
 40
0.2680921686444545
 40
0.2952039544902472
 40
0.3193995993291049
 40
0.3414981902906459
 40
0.3660160145488689
 40
0.3936101635612242
 40
0.4242885442651739
 40
0.4580435524159192
 40
0.4948468367198821
 40
0.5346437862149794
 40
0.5773480254480408
 40
0.6228363053633857
 40
0.6647964627679628
 40
0.7086256573700052
 40
0.7541599404320068
 40
0.8012095950409646
 40
0.8495608926530938
 40
0.8989791058229701
 40
0.9492127233373676
 40
1.0
 40
1.0
 40
1.0
 40
1.0
 10
554.052831162675
 20
308.4253690816245
 30
0.0
 10
554.0678490845618
 20
308.4251223786403
 30
0.0
 10
554.108618433249
 20
308.4244526508269
 30
0.0
 10
554.1734336644868
 20
308.4167947720966
 30
0.0
 10
554.2452528822786
 20
308.4037759650471
 30
0.0
 10
554.3086485919457
 20
308.3873410151681
 30
0.0
 10
554.3637611760265
 20
308.3694221540497
 30
0.0
 10
554.4109805683737
 20
308.3512590018422
 30
0.0
 10
554.4534102221451
 20
308.3325300227127
 30
0.0
 10
554.4910451322718
 20
308.3138870723373
 30
0.0
 10
554.5243483227325
 20
308.295706357828
 30
0.0
 10
554.5558233472216
 20
308.2770275347433
 30
0.0
 10
554.5880818471325
 20
308.2562722753799
 30
0.0
 10
554.6231076099481
 20
308.2316813187096
 30
0.0
 10
554.6607699280497
 20
308.2026142837088
 30
0.0
 10
554.7005560347393
 20
308.1686070591169
 30
0.0
 10
554.7418377014783
 20
308.1292176801435
 30
0.0
 10
554.7838649859871
 20
308.0840560839926
 30
0.0
 10
554.8257665945148
 20
308.032819546207
 30
0.0
 10
554.8647216911164
 20
307.9779206612714
 30
0.0
 10
554.9001662556125
 20
307.9200219240996
 30
0.0
 10
554.9316977948702
 20
307.8598692983465
 30
0.0
 10
554.9600505392164
 20
307.7952642369419
 30
0.0
 10
554.9844745081228
 20
307.7265847014627
 30
0.0
 10
555.0043182028953
 20
307.6543466656302
 30
0.0
 10
555.0188356890411
 20
307.5791956085578
 30
0.0
 10
555.0280877019667
 20
307.5018855827545
 30
0.0
 10
555.0291221937639
 20
307.4496647473251
 30
0.0
 10
555.029642274501
 20
307.423411227812
 30
0.0
  0
SPLINE
  5
A8
330
1F
100
AcDbEntity
  8
0
  6
Continuous
 62
     7
370
    30
100
AcDbSpline
210
0.0
220
0.0
230
1.0
 70
     8
 71
     3
 72
    33
 73
    29
 74
     0
 42
0.000000001
 43
0.00000001
 40
0.0
 40
0.0
 40
0.0
 40
0.0
 40
0.0453454634060579
 40
0.0897840364745228
 40
0.1331071803272972
 40
0.1751182868269256
 40
0.2287762692883077
 40
0.2794063661321712
 40
0.3266921658645631
 40
0.3643678375016789
 40
0.3992709899309428
 40
0.4313035422844144
 40
0.4603925458712119
 40
0.4864863918751939
 40
0.5097556473176439
 40
0.5345233857433092
 40
0.5625176898517809
 40
0.5937054421051937
 40
0.6280331216090382
 40
0.6654219929197135
 40
0.7057634287062168
 40
0.7489147251169198
 40
0.7946958319868138
 40
0.8428874504517043
 40
0.8932309292680848
 40
0.9454303032530782
 40
0.9991566576955158
 40
0.9999999999999999
 40
0.9999999999999999
 40
0.9999999999999999
 40
0.9999999999999999
 10
563.3296415004723
 20
307.4234111925443
 30
0.0
 10
563.3300233884775
 20
307.4461697976054
 30
0.0
 10
563.330779526887
 20
307.4912318451275
 30
0.0
 10
563.3376232722305
 20
307.5577458732208
 30
0.0
 10
563.3482483518607
 20
307.622025635077
 30
0.0
 10
563.3641104894996
 20
307.689989092128
 30
0.0
 10
563.3858974992116
 20
307.7601759518816
 30
0.0
 10
563.4141066650487
 20
307.8308846205637
 30
0.0
 10
563.4439269667913
 20
307.8921025183595
 30
0.0
 10
563.473683436001
 20
307.9444059889501
 30
0.0
 10
563.5021054502263
 20
307.9885651671166
 30
0.0
 10
563.5302007436343
 20
308.027731209315
 30
0.0
 10
563.5573257759456
 20
308.0620906356413
 30
0.0
 10
563.5829861011932
 20
308.0919559874225
 30
0.0
 10
563.608263080537
 20
308.1192545451426
 30
0.0
 10
563.6351840806321
 20
308.1462983368806
 30
0.0
 10
563.6660730007662
 20
308.174956839425
 30
0.0
 10
563.7018694372252
 20
308.2053171608069
 30
0.0
 10
563.7428644866388
 20
308.236747655124
 30
0.0
 10
563.7892917900988
 20
308.2685178255452
 30
0.0
 10
563.8412978065088
 20
308.2998055948636
 30
0.0
 10
563.8989113504836
 20
308.3297059069124
 30
0.0
 10
563.96201355817
 20
308.3572769642089
 30
0.0
 10
564.03031760869
 20
308.3814812582819
 30
0.0
 10
564.1033375313848
 20
308.4015982609529
 30
0.0
 10
564.1804467754438
 20
308.4158004596242
 30
0.0
 10
564.2336899001723
 20
308.4232272561252
 30
0.0
 10
564.2610604174274
 20
308.4240108723017
 30
0.0
 10
564.2614834125415
 20
308.424022982625
 30
0.0
  0
SPLINE
  5
A9
330
1F
100
AcDbEntity
  8
0
  6
Continuous
 62
     7
370
    30
100
AcDbSpline
210
0.0
220
0.0
230
1.0
 70
     8
 71
     3
 72
    25
 73
    21
 74
     0
 42
0.000000001
 43
0.00000001
 40
0.0
 40
0.0
 40
0.0
 40
0.0
 40
0.0406128676153753
 40
0.0825520999937915
 40
0.1142788710220098
 40
0.1359365030028812
 40
0.1520154673693808
 40
0.1905053139982418
 40
0.2396415534251809
 40
0.2790198533819766
 40
0.3240439940679519
 40
0.3754228860236239
 40
0.4152107748150927
 40
0.4740309398569947
 40
0.5526924343979708
 40
0.6792136582037857
 40
0.7953658013186525
 40
0.8667041046760485
 40
0.9518814708322266
 40
1.0
 40
1.0
 40
1.0
 40
1.0
 10
553.6805041074824
 20
308.4370839382025
 30
0.0
 10
553.6802779944504
 20
308.4371532226783
 30
0.0
 10
553.6798183838215
 20
308.437294054373
 30
0.0
 10
553.6788337900938
 20
308.4375989132373
 30
0.0
 10
553.6777033194218
 20
308.4379552737292
 30
0.0
 10
553.6765401744631
 20
308.4383276058517
 30
0.0
 10
553.6740410847198
 20
308.4391489040263
 30
0.0
 10
553.6691479799831
 20
308.4408421833741
 30
0.0
 10
553.6621212637147
 20
308.4435708445609
 30
0.0
 10
553.6543233779832
 20
308.4469817495121
 30
0.0
 10
553.6461496481653
 20
308.4509774214638
 30
0.0
 10
553.6381486418192
 20
308.455366163314
 30
0.0
 10
553.6284069728944
 20
308.4613545591718
 30
0.0
 10
553.6171358701018
 20
308.4692198916593
 30
0.0
 10
553.6011818917216
 20
308.4823703694124
 30
0.0
 10
553.5837704424536
 20
308.5006964744273
 30
0.0
 10
553.5694199684986
 20
308.5208688255651
 30
0.0
 10
553.5591186549514
 20
308.5396844828189
 30
0.0
 10
553.5523191602612
 20
308.5543562386684
 30
0.0
 10
553.5494475980624
 20
308.5644529958527
 30
0.0
 10
553.5484109918783
 20
308.5680978275551
 30
0.0
  0
LINE
  5
AA
330
1F
100
AcDbEntity
  8
0
  6
Continuous
 62
     7
370
    30
100
AcDbLine
 10
555.0296418713
 20
307.4264656012
 30
0.0
 11
555.0296418713
 21
264.3263985401
 31
0.0
  0
LINE
  5
AB
330
1F
100
AcDbEntity
  8
0
  6
Continuous
 62
     7
370
    30
100
AcDbLine
 10
563.3296418713
 20
264.3263985401
 30
0.0
 11
563.3296418713
 21
307.4263985401
 31
0.0
  0
ARC
  5
AC
330
1F
100
AcDbEntity
  8
0
  6
Continuous
 62
     7
370
    30
100
AcDbCircle
 10
555.5296418713
 20
264.3263985401
 30
0.0
 40
0.5
100
AcDbArc
 50
180.0
 51
270.0
  0
ARC
  5
AD
330
1F
100
AcDbEntity
  8
0
  6
Continuous
 62
     7
370
    30
100
AcDbCircle
 10
562.8296418713
 20
264.3263985401
 30
0.0
 40
0.5
100
AcDbArc
 50
270.0
 51
0.0
  0
LINE
  5
AE
330
1F
100
AcDbEntity
  8
0
  6
Continuous
 62
     7
370
    30
100
AcDbLine
 10
502.3600682937
 20
317.8545297401
 30
0.0
 11
502.3600682937
 21
313.0564941922
 31
0.0
  0
LINE
  5
AF
330
1F
100
AcDbEntity
  8
0
  6
Continuous
 62
     7
370
    30
100
AcDbLine
 10
523.3600682937
 20
313.0564941922
 30
0.0
 11
523.3600682937
 21
317.8545357143
 31
0.0
  0
LINE
  5
B0
330
1F
100
AcDbEntity
  8
0
  6
Continuous
 62
     7
370
    30
100
AcDbLine
 10
502.3825682937
 20
313.0564941922
 30
0.0
 11
502.3825682937
 21
305.7403655861
 31
0.0
  0
LINE
  5
B1
330
1F
100
AcDbEntity
  8
0
  6
Continuous
 62
     7
370
    30
100
AcDbLine
 10
523.3375682937
 20
305.7403655861
 30
0.0
 11
523.3375682937
 21
313.0564941922
 31
0.0
  0
LINE
  5
B2
330
1F
100
AcDbEntity
  8
0
  6
Continuous
 62
     7
370
    30
100
AcDbLine
 10
502.3825682968
 20
305.7403655861
 30
0.0
 11
503.5445682937
 21
305.0564941922
 31
0.0
  0
LINE
  5
B3
330
1F
100
AcDbEntity
  8
0
  6
Continuous
 62
     7
370
    30
100
AcDbLine
 10
522.1755682937
 20
305.0564941922
 30
0.0
 11
523.3375682906
 21
305.7403655861
 31
0.0
  0
LINE
  5
B4
330
1F
100
AcDbEntity
  8
0
  6
Continuous
 62
     7
370
    30
100
AcDbLine
 10
523.6093490471
 20
317.6763985401
 30
0.0
 11
526.8600682937
 21
317.6763985401
 31
0.0
  0
LINE
  5
B5
330
1F
100
AcDbEntity
  8
0
  6
Continuous
 62
     7
370
    30
100
AcDbLine
 10
488.6599728879
 20
317.6763985401
 30
0.0
 11
502.1100958393
 21
317.6763985401
 31
0.0
  0
LINE
  5
B6
330
1F
100
AcDbEntity
  8
0
  6
Continuous
 62
     7
370
    30
100
AcDbLine
 10
479.8600682937
 20
317.6763985401
 30
0.0
 11
483.4601636996
 21
317.6763985401
 31
0.0
  0
LINE
  5
B7
330
1F
100
AcDbEntity
  8
0
  6
Continuous
 62
     7
370
    30
100
AcDbLine
 10
526.8600682937
 20
347.6763985401
 30
0.0
 11
479.8600682937
 21
347.6763985401
 31
0.0
  0
ARC
  5
B8
330
1F
100
AcDbEntity
  8
0
  6
Continuous
 62
     7
370
    30
100
AcDbCircle
 10
526.8600682937
 20
318.6763985401
 30
0.0
 40
1.0
100
AcDbArc
 50
270.0
 51
0.0
  0
ARC
  5
B9
330
1F
100
AcDbEntity
  8
0
  6
Continuous
 62
     7
370
    30
100
AcDbCircle
 10
526.8600682937
 20
346.6763985401
 30
0.0
 40
1.0
100
AcDbArc
 50
0.0
 51
90.0
  0
LINE
  5
BA
330
1F
100
AcDbEntity
  8
0
  6
Continuous
 62
     7
370
    30
100
AcDbLine
 10
479.6759839604
 20
319.6763985401
 30
0.0
 11
479.8600682937
 21
319.6763985401
 31
0.0
  0
LINE
  5
BB
330
1F
100
AcDbEntity
  8
0
  6
Continuous
 62
     7
370
    30
100
AcDbLine
 10
479.8600682937
 20
345.6763985401
 30
0.0
 11
479.6759839604
 21
345.6763985401
 31
0.0
  0
LINE
  5
BC
330
1F
100
AcDbEntity
  8
0
  6
Continuous
 62
     7
370
    30
100
AcDbLine
 10
553.5011668211
 20
308.3854181738
 30
0.0
 11
553.511795866
 21
308.426517641
 31
0.0
  0
LINE
  5
BD
330
1F
100
AcDbEntity
  8
0
  6
Continuous
 62
     7
370
    30
100
AcDbLine
 10
546.3016123844
 20
308.3066838395
 30
0.0
 11
552.4898824191
 21
308.3183474374
 31
0.0
  0
SPLINE
  5
BE
330
1F
100
AcDbEntity
  8
0
  6
Continuous
 62
     7
370
    30
100
AcDbSpline
210
0.0
220
0.0
230
1.0
 70
     8
 71
     3
 72
    17
 73
    13
 74
     0
 42
0.000000001
 43
0.00000001
 40
0.0
 40
0.0
 40
0.0
 40
0.0
 40
0.0722756547925515
 40
0.1782938587889466
 40
0.2842161261440074
 40
0.3900258292110649
 40
0.4957063835946166
 40
0.6012410773609635
 40
0.7066129414426919
 40
0.8118046726948398
 40
0.9167986203608259
 40
1.0
 40
1.0
 40
1.0
 40
1.0
 10
552.5354607097859
 20
308.3182240163321
 30
0.0
 10
552.5530443202009
 20
308.3182538057682
 30
0.0
 10
552.5964206100643
 20
308.3183272921108
 30
0.0
 10
552.6655182738147
 20
308.3162323831208
 30
0.0
 10
552.7426108268239
 20
308.3122477538617
 30
0.0
 10
552.8193675539742
 20
308.3062947627917
 30
0.0
 10
552.8956831132119
 20
308.2984924741658
 30
0.0
 10
552.9714503412249
 20
308.2888434058734
 30
0.0
 10
553.0465751276218
 20
308.2774098171793
 30
0.0
 10
553.1209229930554
 20
308.2641709930195
 30
0.0
 10
553.1894772800929
 20
308.2504272318696
 30
0.0
 10
553.2328297415011
 20
308.2403362711818
 30
0.0
 10
553.251995916621
 20
308.2358750453737
 30
0.0
  0
SPLINE
  5
BF
330
1F
100
AcDbEntity
  8
0
  6
Continuous
 62
     7
370
    30
100
AcDbSpline
210
0.0
220
0.0
230
1.0
 70
     8
 71
     3
 72
    28
 73
    24
 74
     0
 42
0.000000001
 43
0.00000001
 40
0.0
 40
0.0
 40
0.0
 40
0.0
 40
0.1011299177678362
 40
0.1923590453402278
 40
0.2735380441307185
 40
0.3445344019686541
 40
0.4052561959903022
 40
0.4556830570959192
 40
0.495922801888306
 40
0.5263507083956607
 40
0.5492269218996306
 40
0.5754600067344173
 40
0.6073209301945494
 40
0.6448261249517494
 40
0.6729357362029232
 40
0.7034687271556732
 40
0.7368169532349395
 40
0.7609766530473425
 40
0.7937033920798299
 40
0.8346527701116672
 40
0.8832710418301543
 40
0.938747983323858
 40
1.0
 40
1.0
 40
1.0
 40
1.0
 10
553.249986719874
 20
308.2367914755947
 30
0.0
 10
553.2562460050593
 20
308.2354803136201
 30
0.0
 10
553.2681517808113
 20
308.2329863546483
 30
0.0
 10
553.2860150578744
 20
308.2310089922045
 30
0.0
 10
553.302595688085
 20
308.2303719647178
 30
0.0
 10
553.3178416570595
 20
308.2309246899705
 30
0.0
 10
553.3316779780204
 20
308.2323932201418
 30
0.0
 10
553.3440390587353
 20
308.2345111947824
 30
0.0
 10
553.3549968871882
 20
308.2370615360862
 30
0.0
 10
553.3645284145587
 20
308.2397839775624
 30
0.0
 10
553.3746740379622
 20
308.2432200917259
 30
0.0
 10
553.385152896978
 20
308.2473800637064
 30
0.0
 10
553.3973772484566
 20
308.2531022470683
 30
0.0
 10
553.4095120955104
 20
308.2599045352025
 30
0.0
 10
553.421037535292
 20
308.2674683787539
 30
0.0
 10
553.4316306348242
 20
308.2754133512647
 30
0.0
 10
553.4412413880094
 20
308.2837089068365
 30
0.0
 10
553.4505948190503
 20
308.2928550554579
 30
0.0
 10
553.4601204462292
 20
308.3033987873059
 30
0.0
 10
553.4709520425365
 20
308.317498363972
 30
0.0
 10
553.4820596635267
 20
308.3354009213755
 30
0.0
 10
553.4925312122564
 20
308.3570472134476
 30
0.0
 10
553.4973222180437
 20
308.3732236063288
 30
0.0
 10
553.4998362365956
 20
308.3817119600506
 30
0.0
  0
ARC
  5
C0
330
1F
100
AcDbEntity
  8
0
  6
Continuous
 62
     7
370
    30
100
AcDbCircle
 10
545.8247961539
 20
308.5204018125
 30
0.0
 40
0.2000000000000426
100
AcDbArc
 50
175.5256834201
 51
179.9220495858
  0
ARC
  5
C1
330
1F
100
AcDbEntity
  8
0
  6
Continuous
 62
     7
370
    30
100
AcDbCircle
 10
545.8247961539
 20
308.5204018125
 30
0.0
 40
0.2000000000000305
100
AcDbArc
 50
168.3165109326
 51
175.5256834201
  0
ARC
  5
C2
330
1F
100
AcDbEntity
  8
0
  6
Continuous
 62
     7
370
    30
100
AcDbCircle
 10
545.8247961539
 20
308.5204018125
 30
0.0
 40
0.2000000000000426
100
AcDbArc
 50
179.9220495858
 51
268.7689082445
  0
SPLINE
  5
C3
330
1F
100
AcDbEntity
  8
0
  6
Continuous
 62
     7
370
    30
100
AcDbSpline
210
0.0
220
0.0
230
1.0
 70
     8
 71
     3
 72
    21
 73
    17
 74
     0
 42
0.000000001
 43
0.00000001
 40
0.0
 40
0.0
 40
0.0
 40
0.0
 40
0.0929368718563559
 40
0.1849384747229497
 40
0.2765393695612706
 40
0.3670385271356296
 40
0.4550064269939251
 40
0.5425115725499329
 40
0.6100163826524897
 40
0.6808284442536954
 40
0.7557430806200334
 40
0.8319304677875552
 40
0.8815093113350725
 40
0.9287418843414263
 40
0.9724733569443192
 40
1.0
 40
1.0
 40
1.0
 40
1.0
 10
545.8246845895719
 20
308.3204018436358
 30
0.0
 10
545.8470504576715
 20
308.3203616135131
 30
0.0
 10
545.8915571152507
 20
308.3202815581233
 30
0.0
 10
545.9555534052316
 20
308.3198248862035
 30
0.0
 10
546.0161209238286
 20
308.3191657699854
 30
0.0
 10
546.0721351450767
 20
308.3183228976928
 30
0.0
 10
546.1230093484801
 20
308.3173507435488
 30
0.0
 10
546.1651860330285
 20
308.3163658670664
 30
0.0
 10
546.2006147748002
 20
308.3153933103192
 30
0.0
 10
546.230753322089
 20
308.3144391926418
 30
0.0
 10
546.2583148479116
 20
308.3134220716688
 30
0.0
 10
546.2787722968333
 20
308.3125221315403
 30
0.0
 10
546.2924857639551
 20
308.311798635291
 30
0.0
 10
546.3006383189337
 20
308.3112871708027
 30
0.0
 10
546.3050511593965
 20
308.3109331001991
 30
0.0
 10
546.305469034663
 20
308.3108766513354
 30
0.0
 10
546.3056304577261
 20
308.3108548454301
 30
0.0
  0
SPLINE
  5
C4
330
1F
100
AcDbEntity
  8
0
  6
Continuous
 62
     7
370
    30
100
AcDbSpline
210
0.0
220
0.0
230
1.0
 70
     8
 71
     3
 72
    18
 73
    14
 74
     0
 42
0.000000001
 43
0.00000001
 40
0.0
 40
0.0
 40
0.0
 40
0.0
 40
0.0689213789254008
 40
0.1573520728131382
 40
0.2022177485901075
 40
0.2428241120739677
 40
0.2931931252797611
 40
0.3575540373578705
 40
0.4524159370247329
 40
0.5671032070043087
 40
0.701612237357643
 40
0.8559385350769139
 40
1.0
 40
1.0
 40
1.0
 40
1.0
 10
546.2110557375763
 20
308.3150394236807
 30
0.0
 10
546.2127492764023
 20
308.314717169538
 30
0.0
 10
546.2166157377068
 20
308.3139814419868
 30
0.0
 10
546.2216630837462
 20
308.3131268678628
 30
0.0
 10
546.2260498872707
 20
308.3124229015394
 30
0.0
 10
546.2295397786154
 20
308.3118896469273
 30
0.0
 10
546.2334486206697
 20
308.3113218695187
 30
0.0
 10
546.2386659276804
 20
308.310612874123
 30
0.0
 10
546.2454284485952
 20
308.309780845361
 30
0.0
 10
546.2538757203137
 20
308.3088804070766
 30
0.0
 10
546.2637426018028
 20
308.3080270752906
 30
0.0
 10
546.2742978921892
 20
308.307321293814
 30
0.0
 10
546.2815503457729
 20
308.307069138019
 30
0.0
 10
546.2850518267929
 20
308.3069473973254
 30
0.0
  0
SPLINE
  5
C5
330
1F
100
AcDbEntity
  8
0
  6
Continuous
 62
     7
370
    30
100
AcDbSpline
210
0.0
220
0.0
230
1.0
 70
     8
 71
     3
 72
    11
 73
     7
 74
     0
 42
0.000000001
 43
0.00000001
 40
0.0
 40
0.0
 40
0.0
 40
0.0
 40
0.3389686242092293
 40
0.6495947126973173
 40
0.9334191622991584
 40
1.0
 40
1.0
 40
1.0
 40
1.0
 10
545.4963493599217
 20
308.4211055477695
 30
0.0
 10
545.5143417528358
 20
308.4209761889953
 30
0.0
 10
545.5488221220235
 20
308.4207282876565
 30
0.0
 10
545.5980544147602
 20
308.4198132098271
 30
0.0
 10
545.6326780425077
 20
308.4189908367974
 30
0.0
 10
545.6506044786353
 20
308.4183971362324
 30
0.0
 10
545.6540106975982
 20
308.4182843266306
 30
0.0
  0
ARC
  5
C6
330
1F
100
AcDbEntity
  8
0
  6
Continuous
 62
     7
370
    30
100
AcDbCircle
 10
545.4970557453
 20
308.6209461501
 30
0.0
 40
0.1999999999999767
100
AcDbArc
 50
268.9036212537
 51
269.7166819273
  0
LINE
  5
C7
330
1F
100
AcDbEntity
  8
0
  6
Continuous
 62
     7
370
    30
100
AcDbLine
 10
479.6449715901
 20
308.0381650757
 30
0.0
 11
502.3825682937
 21
308.1373771869
 31
0.0
  0
LINE
  5
C8
330
1F
100
AcDbEntity
  8
0
  6
Continuous
 62
     7
370
    30
100
AcDbLine
 10
523.3375682937
 20
308.2288112032
 30
0.0
 11
537.2997938974
 21
308.2897332917
 31
0.0
  0
LINE
  5
C9
330
1F
100
AcDbEntity
  8
0
  6
Continuous
 62
     7
370
    30
100
AcDbLine
 10
537.2997938974
 20
357.0630637886
 30
0.0
 11
479.6454367175
 21
357.314629975
 31
0.0
  0
ARC
  5
CA
330
1F
100
AcDbEntity
  8
0
  6
Continuous
 62
     7
370
    30
100
AcDbCircle
 10
537.2954305881
 20
309.2897237727
 30
0.0
 40
0.9999999999999891
100
AcDbArc
 50
270.25
 51
301.4024765725
  0
ARC
  5
CB
330
1F
100
AcDbEntity
  8
0
  6
Continuous
 62
     7
370
    30
100
AcDbCircle
 10
537.2954305881
 20
356.0630733076
 30
0.0
 40
0.9999999999999891
100
AcDbArc
 50
58.5975234275
 51
89.75
  0
ARC
  5
CC
330
1F
100
AcDbEntity
  8
0
  6
Continuous
 62
     7
370
    30
100
AcDbCircle
 10
523.0187557886
 20
332.6763985401
 30
0.0
 40
28.40000000000005
100
AcDbArc
 50
54.800981616
 51
58.5975234275
  0
ARC
  5
CD
330
1F
100
AcDbEntity
  8
0
  6
Continuous
 62
     7
370
    30
100
AcDbCircle
 10
523.0187557886
 20
332.6763985401
 30
0.0
 40
28.40000000000005
100
AcDbArc
 50
301.4024765725
 51
305.199018384
  0
LINE
  5
CE
330
1F
100
AcDbEntity
  8
0
  6
Continuous
 62
     7
370
    30
100
AcDbLine
 10
566.1796418713
 20
309.4263985401
 30
0.0
 11
566.1796418713
 21
355.9263985401
 31
0.0
  0
SPLINE
  5
CF
330
1F
100
AcDbEntity
  8
0
  6
Continuous
 62
     7
370
    30
100
AcDbSpline
210
0.0
220
0.0
230
1.0
 70
     8
 71
     3
 72
    27
 73
    23
 74
     0
 42
0.000000001
 43
0.00000001
 40
0.0
 40
0.0
 40
0.0
 40
0.0
 40
0.0542944110210486
 40
0.1240978807782865
 40
0.1941727164798081
 40
0.26463328929958
 40
0.3348669730987496
 40
0.4048396252338235
 40
0.4746947666419573
 40
0.5445968418482238
 40
0.6146663212165662
 40
0.6847197471759265
 40
0.8217347203738059
 40
0.9119328580416568
 40
0.9149045851815516
 40
0.9156783245086394
 40
0.9158873478288141
 40
0.915947540555744
 40
0.9159785187676928
 40
0.9216522647764507
 40
0.9552459687974003
 40
1.0
 40
1.0
 40
1.0
 40
1.0
 10
554.0529545027382
 20
308.4308129086504
 30
0.0
 10
554.0595851853186
 20
308.432074509625
 30
0.0
 10
554.074740587889
 20
308.4349580846446
 30
0.0
 10
554.4077328355459
 20
308.4979531998722
 30
0.0
 10
554.9647037470093
 20
308.5958405034385
 30
0.0
 10
555.7341724884506
 20
308.7114759214946
 30
0.0
 10
556.66443277409
 20
308.8192868173669
 30
0.0
 10
557.7042105074931
 20
308.9006985946422
 30
0.0
 10
558.8079956650303
 20
308.941740306926
 30
0.0
 10
559.9305269411904
 20
308.9329691989667
 30
0.0
 10
561.0171005376284
 20
308.876376315724
 30
0.0
 10
562.3505537976018
 20
308.7556474068969
 30
0.0
 10
563.4791894231536
 20
308.5797563064302
 30
0.0
 10
564.1026685691877
 20
308.4901216463424
 30
0.0
 10
564.3179306068891
 20
308.46465848959
 30
0.0
 10
564.3268068804751
 20
308.4636014965482
 30
0.0
 10
564.3289273732613
 20
308.4633195909038
 30
0.0
 10
564.3295148822375
 20
308.4632375805386
 30
0.0
 10
564.3354949135322
 20
308.4615814554765
 30
0.0
 10
564.3108475173075
 20
308.4505045823421
 30
0.0
 10
564.3320816820982
 20
308.4287818106611
 30
0.0
 10
564.286846270924
 20
308.4365318101227
 30
0.0
 10
564.2610067620042
 20
308.4409587883466
 30
0.0
  0
LINE
  5
D0
330
1F
100
AcDbEntity
  8
0
  6
Continuous
 62
     7
370
    30
100
AcDbLine
 10
553.622906261
 20
308.4421796807
 30
0.0
 11
553.4304137332
 21
308.4813917822
 31
0.0
  0
SPLINE
  5
D1
330
1F
100
AcDbEntity
  8
0
  6
Continuous
 62
     7
370
    30
100
AcDbSpline
210
0.0
220
0.0
230
1.0
 70
     8
 71
     3
 72
    27
 73
    23
 74
     0
 42
0.000000001
 43
0.00000001
 40
0.0
 40
0.0
 40
0.0
 40
0.0
 40
0.0542290180678238
 40
0.1241220481923458
 40
0.1942851907144102
 40
0.2644675823031192
 40
0.3344972022219095
 40
0.4044934181156971
 40
0.4746011846011609
 40
0.5449065087025663
 40
0.6149594246271977
 40
0.6847981883794169
 40
0.7545472817299866
 40
0.9119891044566492
 40
0.9149586177551722
 40
0.9157340850995287
 40
0.9159446742894428
 40
0.9160058178583709
 40
0.9160378316440594
 40
0.921712245543939
 40
0.9553112212118172
 40
0.9999999999999999
 40
0.9999999999999999
 40
0.9999999999999999
 40
0.9999999999999999
 10
544.7758555150679
 20
308.4297890793913
 30
0.0
 10
544.7819579689468
 20
308.4307686699291
 30
0.0
 10
544.7959255660274
 20
308.4330108050125
 30
0.0
 10
545.0950547084168
 20
308.4815587381104
 30
0.0
 10
545.5871374190285
 20
308.5568663578115
 30
0.0
 10
546.2621062686513
 20
308.645769828379
 30
0.0
 10
547.0727714956156
 20
308.7296510737668
 30
0.0
 10
547.9809229548423
 20
308.7948726411528
 30
0.0
 10
548.9508356401856
 20
308.8296960658845
 30
0.0
 10
549.9408887345082
 20
308.8256953234587
 30
0.0
 10
550.8990951939082
 20
308.7824306933953
 30
0.0
 10
551.7821922458891
 20
308.7100727894531
 30
0.0
 10
552.854213581632
 20
308.5821837068386
 30
0.0
 10
553.4289204236728
 20
308.4901332304817
 30
0.0
 10
553.7314440975047
 20
308.4559301794309
 30
0.0
 10
553.738696876009
 20
308.4551021674939
 30
0.0
 10
553.7404282545407
 20
308.4548809761605
 30
0.0
 10
553.7409078006318
 20
308.454816187372
 30
0.0
 10
553.7456150589238
 20
308.453532669532
 30
0.0
 10
553.7261955554653
 20
308.4450011938223
 30
0.0
 10
553.7428283726616
 20
308.4282211510221
 30
0.0
 10
553.706698002227
 20
308.4342256664259
 30
0.0
 10
553.6860738044438
 20
308.4376532070736
 30
0.0
  0
LINE
  5
D2
330
1F
100
AcDbEntity
  8
0
  6
Continuous
 62
     7
370
    30
100
AcDbLine
 10
555.5296418713
 20
263.8263985401
 30
0.0
 11
562.8296418713
 21
263.8263985401
 31
0.0
  0
LINE
  5
D3
330
1F
100
AcDbEntity
  8
0
  6
Continuous
 62
     7
370
    30
100
AcDbLine
 10
519.4544713633
 20
313.0564941922
 30
0.0
 11
523.3600682937
 21
313.0564941922
 31
0.0
  0
LINE
  5
D4
330
1F
100
AcDbEntity
  8
0
  6
Continuous
 62
     7
370
    30
100
AcDbLine
 10
502.3600682937
 20
313.0564941922
 30
0.0
 11
519.4544713633
 21
313.0564941922
 31
0.0
  0
LINE
  5
D5
330
1F
100
AcDbEntity
  8
0
  6
Continuous
 62
     7
370
    30
100
AcDbLine
 10
519.4403404996
 20
305.7403655861
 30
0.0
 11
523.3375682937
 21
305.7403655861
 31
0.0
  0
LINE
  5
D6
330
1F
100
AcDbEntity
  8
0
  6
Continuous
 62
     7
370
    30
100
AcDbLine
 10
502.3825682937
 20
305.7403655861
 30
0.0
 11
519.4403404996
 21
305.7403655861
 31
0.0
  0
LINE
  5
D7
330
1F
100
AcDbEntity
  8
0
  6
Continuous
 62
     7
370
    30
100
AcDbLine
 10
518.7105598932
 20
305.0564941922
 30
0.0
 11
522.1755682937
 21
305.0564941922
 31
0.0
  0
LINE
  5
D8
330
1F
100
AcDbEntity
  8
0
  6
Continuous
 62
     7
370
    30
100
AcDbLine
 10
503.5445682937
 20
305.0564941922
 30
0.0
 11
518.7105598932
 21
305.0564941922
 31
0.0
  0
SPLINE
  5
D9
330
1F
100
AcDbEntity
  8
0
  6
Continuous
 62
     7
370
    30
100
AcDbSpline
210
0.0
220
0.0
230
1.0
 70
     8
 71
     3
 72
    26
 73
    22
 74
     0
 42
0.000000001
 43
0.00000001
 40
0.0
 40
0.0
 40
0.0
 40
0.0
 40
0.0579481000637472
 40
0.1173356667692797
 40
0.176674415950169
 40
0.2340140165738023
 40
0.2913975593625012
 40
0.3487375679199054
 40
0.4077185144043893
 40
0.4667466870756894
 40
0.5257281718109339
 40
0.5835176783708215
 40
0.6413509513787704
 40
0.6991408213380421
 40
0.7585682962500007
 40
0.8180428958112463
 40
0.8774704575645806
 40
0.9080513197600121
 40
0.9386321786564258
 40
0.9693160922285569
 40
1.0
 40
1.0
 40
1.0
 40
1.0
 10
483.4601636995695
 20
317.6764151163248
 30
0.0
 10
483.4608932359983
 20
317.6765424954341
 30
0.0
 10
483.4623704309921
 20
317.6768004178286
 30
0.0
 10
483.4750428444406
 20
317.6789927194362
 30
0.0
 10
483.4951836097431
 20
317.6824502041139
 30
0.0
 10
483.523179273968
 20
317.6872217013929
 30
0.0
 10
483.5583411884466
 20
317.6931381820114
 30
0.0
 10
483.6013394285601
 20
317.7002620461785
 30
0.0
 10
483.6523364496277
 20
317.7085618481531
 30
0.0
 10
483.7113432857354
 20
317.717949660469
 30
0.0
 10
483.7772431926749
 20
317.7281630494201
 30
0.0
 10
483.8497123653528
 20
317.739069084676
 30
0.0
 10
483.9283053137358
 20
317.7505074574676
 30
0.0
 10
484.0140832597143
 20
317.7625310729736
 30
0.0
 10
484.1070545894258
 20
317.7750157104689
 30
0.0
 10
484.207070664839
 20
317.7878074097885
 30
0.0
 10
484.2958488204007
 20
317.7985572971331
 30
0.0
 10
484.3703091749826
 20
317.8071625052348
 30
0.0
 10
484.4284736652077
 20
317.813658150653
 30
0.0
 10
484.4879974099001
 20
317.8200912774586
 30
0.0
 10
484.5288483384214
 20
317.8242961193777
 30
0.0
 10
484.5492738007514
 20
317.8263985401385
 30
0.0
  0
SPLINE
  5
DA
330
1F
100
AcDbEntity
  8
0
  6
Continuous
 62
     7
370
    30
100
AcDbSpline
210
0.0
220
0.0
230
1.0
 70
     8
 71
     3
 72
    26
 73
    22
 74
     0
 42
0.000000001
 43
0.00000001
 40
0.0
 40
0.0
 40
0.0
 40
0.0
 40
0.0585128567435026
 40
0.1170707669388028
 40
0.1755837850722281
 40
0.2207348242931226
 40
0.2659271612040188
 40
0.31111939526384
 40
0.3562702941049379
 40
0.4154013818556077
 40
0.4747199091378516
 40
0.5323591436058619
 40
0.5900419446278506
 40
0.6476806882395894
 40
0.7069812421902001
 40
0.7663299491415916
 40
0.8256300360655695
 40
0.883275006117943
 40
0.9409647265661383
 40
0.9986095334550642
 40
1.0
 40
1.0
 40
1.0
 40
1.0
 10
487.5708627866938
 20
317.8263985401385
 30
0.0
 10
487.6095993793044
 20
317.8223683335847
 30
0.0
 10
487.6871023907431
 20
317.8143048173175
 30
0.0
 10
487.7970462534607
 20
317.8017994179069
 30
0.0
 10
487.893996977441
 20
317.7901457261581
 30
0.0
 10
487.9785827945379
 20
317.7794567950863
 30
0.0
 10
488.0520981356528
 20
317.7698055610716
 30
0.0
 10
488.1219680680913
 20
317.7603022168061
 30
0.0
 10
488.1948555790298
 20
317.750062657355
 30
0.0
 10
488.269184231377
 20
317.7392553612699
 30
0.0
 10
488.3422937158018
 20
317.7282547397531
 30
0.0
 10
488.4077897183669
 20
317.7181052785145
 30
0.0
 10
488.4656435310163
 20
317.7089073335032
 30
0.0
 10
488.5168003369027
 20
317.7005905088964
 30
0.0
 10
488.5607738605449
 20
317.6933103464728
 30
0.0
 10
488.5972507952411
 20
317.6871729214474
 30
0.0
 10
488.6253367007457
 20
317.6823845837208
 30
0.0
 10
488.6454535864221
 20
317.6789297890681
 30
0.0
 10
488.6566433162496
 20
317.6769953709895
 30
0.0
 10
488.6613518495603
 20
317.6761755091337
 30
0.0
 10
488.6600046193877
 20
317.6764096026847
 30
0.0
 10
488.6599728878758
 20
317.6764151163248
 30
0.0
  0
SPLINE
  5
DB
330
1F
100
AcDbEntity
  8
0
  6
Continuous
 62
     7
370
    30
100
AcDbSpline
210
0.0
220
0.0
230
1.0
 70
     8
 71
     3
 72
    33
 73
    29
 74
     0
 42
0.000000001
 43
0.00000001
 40
0.0
 40
0.0
 40
0.0
 40
0.0
 40
0.0373150544529982
 40
0.074662933149706
 40
0.1120115415259738
 40
0.1493275918682649
 40
0.1877239866907065
 40
0.2261547357247927
 40
0.2645859270108246
 40
0.3029829254424125
 40
0.3404145677099136
 40
0.3778773819910714
 40
0.4153403516487384
 40
0.4527722059695814
 40
0.4912453907057834
 40
0.5297522486404248
 40
0.568259065859931
 40
0.6067321950268898
 40
0.6449355452407948
 40
0.6831721504556271
 40
0.7214084908398243
 40
0.7596114796062324
 40
0.7989441113878184
 40
0.8383139820930704
 40
0.8776832053385759
 40
0.917014953381944
 40
0.9585075901264052
 40
1.0
 40
1.0
 40
1.0
 40
1.0
 10
487.5708627862709
 20
317.8263985400413
 30
0.0
 10
487.5369201465733
 20
317.8292810149829
 30
0.0
 10
487.4690050094843
 20
317.8350485004394
 30
0.0
 10
487.3639850686204
 20
317.8431943586223
 30
0.0
 10
487.2569315805559
 20
317.8508984665467
 30
0.0
 10
487.1467762624332
 20
317.8581387992053
 30
0.0
 10
487.033672934887
 20
317.8648463117583
 30
0.0
 10
486.9177352979597
 20
317.8709594391873
 30
0.0
 10
486.8002874785883
 20
317.8763723111633
 30
0.0
 10
486.6825667252299
 20
317.8810010882731
 30
0.0
 10
486.5647810047932
 20
317.8848240518726
 30
0.0
 10
486.447129185509
 20
317.8878499222059
 30
0.0
 10
486.3288371195135
 20
317.8900930882311
 30
0.0
 10
486.2090321355326
 20
317.891547529974
 30
0.0
 10
486.0878654726586
 20
317.8921645537305
 30
0.0
 10
485.9655130236724
 20
317.8919252143916
 30
0.0
 10
485.8433252898906
 20
317.8908298664658
 30
0.0
 10
485.721835256145
 20
317.888887173262
 30
0.0
 10
485.6012213798836
 20
317.8861050266055
 30
0.0
 10
485.4816496230864
 20
317.8825222569252
 30
0.0
 10
485.3630780077869
 20
317.8781626302692
 30
0.0
 10
485.244595231614
 20
317.8730047464927
 30
0.0
 10
485.1264297409135
 20
317.8670477610067
 30
0.0
 10
485.0088253349822
 20
317.8603224995322
 30
0.0
 10
484.8931652562231
 20
317.8529468767846
 30
0.0
 10
484.7777186941823
 20
317.8448201954736
 30
0.0
 10
484.6625941084144
 20
317.8360029432023
 30
0.0
 10
484.5870471680757
 20
317.8296000019267
 30
0.0
 10
484.5492738011744
 20
317.8263985400413
 30
0.0
  0
LINE
  5
DC
330
1F
100
AcDbEntity
  8
0
  6
Continuous
 62
     7
370
    30
100
AcDbLine
 10
479.8600682937
 20
317.6763985401
 30
0.0
 11
479.8600682937
 21
347.6763985401
 31
0.0
  0
SPLINE
  5
DD
330
1F
100
AcDbEntity
  8
0
  6
Continuous
 62
     7
370
    30
100
AcDbSpline
210
0.0
220
0.0
230
1.0
 70
     8
 71
     3
 72
    39
 73
    35
 74
     0
 42
0.000000001
 43
0.00000001
 40
0.0
 40
0.0
 40
0.0
 40
0.0
 40
0.0144687239947805
 40
0.0450561822873291
 40
0.0756428378375292
 40
0.1062281224002547
 40
0.1368118476038904
 40
0.1673941069689543
 40
0.19797518825609
 40
0.2285554964677203
 40
0.2591354877716867
 40
0.2891695702305896
 40
0.3192041668198388
 40
0.3492395868143582
 40
0.3792760443821328
 40
0.411713247236168
 40
0.4441517831319522
 40
0.4765915113608915
 40
0.509032179163756
 40
0.5414734578791767
 40
0.5739149980461231
 40
0.6045031157016687
 40
0.6350919656786068
 40
0.6656818227486595
 40
0.6962727627543258
 40
0.7268646900147232
 40
0.7610081644541314
 40
0.7951521082204799
 40
0.8292959676531398
 40
0.8634391897608396
 40
0.8975813135497446
 40
0.9317220692261635
 40
0.9658614848449542
 40
1.0
 40
1.0
 40
1.0
 40
1.0
 10
523.6093490470864
 20
317.6769140091338
 30
0.0
 10
523.609500340749
 20
317.676805578277
 30
0.0
 10
523.609971475235
 20
317.6764679202741
 30
0.0
 10
523.604571962958
 20
317.6803374807662
 30
0.0
 10
523.5934464504797
 20
317.688307455648
 30
0.0
 10
523.5762611030754
 20
317.7006107165083
 30
0.0
 10
523.5534473546134
 20
317.7169284634942
 30
0.0
 10
523.5249346340989
 20
317.7372985072206
 30
0.0
 10
523.4907974278952
 20
317.7616516054129
 30
0.0
 10
523.4510811677792
 20
317.7899363033205
 30
0.0
 10
523.4061173004748
 20
317.8218947878686
 30
0.0
 10
523.3560849631516
 20
317.8573762438278
 30
0.0
 10
523.3011648389491
 20
317.8962273558335
 30
0.0
 10
523.2411288756053
 20
317.9385805576386
 30
0.0
 10
523.1743220654998
 20
317.9855675304869
 30
0.0
 10
523.1003526870484
 20
318.0374133903265
 30
0.0
 10
523.0188400561605
 20
318.0943227024085
 30
0.0
 10
522.9317643472194
 20
318.1548568728336
 30
0.0
 10
522.8392387810629
 20
318.218882705935
 30
0.0
 10
522.7413785275462
 20
318.2862625314675
 30
0.0
 10
522.6402627542172
 20
318.3555107194948
 30
0.0
 10
522.5363418824519
 20
318.4262817819675
 30
0.0
 10
522.4300359153268
 20
318.4982581993562
 30
0.0
 10
522.3193806869273
 20
318.5727180696304
 30
0.0
 10
522.2044683863484
 20
318.6495367955521
 30
0.0
 10
522.0807831820053
 20
318.7316464779769
 30
0.0
 10
521.9478429164002
 20
318.8192149335554
 30
0.0
 10
521.8051715454964
 20
318.912371194796
 30
0.0
 10
521.6576608339919
 20
319.0077903212012
 30
0.0
 10
521.505415030547
 20
319.1052929187513
 30
0.0
 10
521.3485679688233
 20
319.2046891744238
 30
0.0
 10
521.1871150782766
 20
319.3058248215567
 30
0.0
 10
521.0215374660485
 20
319.408410583085
 30
0.0
 10
520.9074915694107
 20
319.4779105743808
 30
0.0
 10
520.8504693731227
 20
319.5126601117383
 30
0.0
  0
SPLINE
  5
DE
330
1F
100
AcDbEntity
  8
0
  6
Continuous
 62
     7
370
    30
100
AcDbSpline
210
0.0
220
0.0
230
1.0
 70
     8
 71
     3
 72
   117
 73
   113
 74
     0
 42
0.000000001
 43
0.00000001
 40
0.0
 40
0.0
 40
0.0
 40
0.0
 40
0.0001076592231591
 40
0.0093242702541659
 40
0.0185408840612199
 40
0.027787628129462
 40
0.0370343804341569
 40
0.0462508754368724
 40
0.0554673835102041
 40
0.0647130505960815
 40
0.0739587352783688
 40
0.0836676647388263
 40
0.0933766200148494
 40
0.1031175025383627
 40
0.1128584146053906
 40
0.121990740160104
 40
0.131123090160455
 40
0.1402796508675067
 40
0.1494362370354603
 40
0.1585681861691359
 40
0.1677001605103364
 40
0.1768539073690347
 40
0.186007679063326
 40
0.1955136066518104
 40
0.2050195617662711
 40
0.2145474032926777
 40
0.224075270672589
 40
0.2335950317657073
 40
0.2431148162815203
 40
0.2526541822209752
 40
0.2621935690754351
 40
0.2717899718460496
 40
0.2813863929706401
 40
0.2910009278718763
 40
0.3006154778995995
 40
0.3125195167206239
 40
0.3244235814548471
 40
0.336359593351375
 40
0.3482956195474748
 40
0.360291281693607
 40
0.3722948513588806
 40
0.3841301201696308
 40
0.3959730463754602
 40
0.4042580013253157
 40
0.412543624821652
 40
0.4208285530226569
 40
0.4291387088241788
 40
0.4374495764425384
 40
0.4457596868642816
 40
0.4549787145132249
 40
0.4641977145194067
 40
0.4734346789549644
 40
0.4826716078934337
 40
0.4918911582631575
 40
0.5011106653633837
 40
0.510351850127508
 40
0.5195929831355144
 40
0.5291506581149054
 40
0.5387082655204698
 40
0.548295958806863
 40
0.557883577723399
 40
0.5671048659436042
 40
0.5763260894203285
 40
0.5855806250733617
 40
0.5948350993757817
 40
0.6040572881914524
 40
0.6132794271041268
 40
0.6225403147498558
 40
0.6318011687545589
 40
0.6383628592433616
 40
0.644925463321009
 40
0.6514871440654059
 40
0.6580821853517395
 40
0.6646781637389997
 40
0.6712732176907464
 40
0.679250865619271
 40
0.6872285327802655
 40
0.6952315423168722
 40
0.7032345796032814
 40
0.7112118293251974
 40
0.7191891120128007
 40
0.7271888932424396
 40
0.7351887107151189
 40
0.7435547771086014
 40
0.7519208873814743
 40
0.7603088720314233
 40
0.7686968990754898
 40
0.7760035707513172
 40
0.7833110437066103
 40
0.7906177920523838
 40
0.797950835408233
 40
0.8052845906338407
 40
0.8126176989682443
 40
0.8236868848976362
 40
0.8347644612311771
 40
0.8456362587651511
 40
0.8565152322726163
 40
0.8680410247261201
 40
0.8795668645432488
 40
0.8911233184098583
 40
0.9026798019901131
 40
0.9107344319332616
 40
0.9187896730568281
 40
0.9268443144472629
 40
0.9389590044959945
 40
0.9510736945233255
 40
0.9592164639205604
 40
0.9673598529819207
 40
0.9755026119271922
 40
0.9836682013118715
 40
0.9918344305699173
 40
1.0
 40
1.0
 40
1.0
 40
1.0
 10
502.1100958392742
 20
317.6764182838287
 30
0.0
 10
502.1100866838787
 20
317.6764117215439
 30
0.0
 10
502.1092937431686
 20
317.6758433678534
 30
0.0
 10
502.1124325347378
 20
317.6780933096448
 30
0.0
 10
502.1207418158364
 20
317.6840465779305
 30
0.0
 10
502.1354491345935
 20
317.6945796094849
 30
0.0
 10
502.1557823898594
 20
317.7091291186921
 30
0.0
 10
502.1818781108524
 20
317.7277831433333
 30
0.0
 10
502.2136442449241
 20
317.7504595879984
 30
0.0
 10
502.2511032955258
 20
317.7771581299758
 30
0.0
 10
502.2949254966861
 20
317.8083326651444
 30
0.0
 10
502.3453449277125
 20
317.8441225136447
 30
0.0
 10
502.4026672530562
 20
317.8847071363205
 30
0.0
 10
502.4660190919058
 20
317.9294323011703
 30
0.0
 10
502.5338743042881
 20
317.9771822782018
 30
0.0
 10
502.6056540836257
 20
318.0275212132495
 30
0.0
 10
502.6809286128178
 20
318.0801198172907
 30
0.0
 10
502.761187622763
 20
318.1359822861
 30
0.0
 10
502.846271516226
 20
318.1949518013949
 30
0.0
 10
502.9360046291327
 20
318.2568613889758
 30
0.0
 10
503.0303481876953
 20
318.3216346391168
 30
0.0
 10
503.1293047127463
 20
318.3892216542865
 30
0.0
 10
503.2341151975168
 20
318.4604081199408
 30
0.0
 10
503.3448086727209
 20
318.5351371098167
 30
0.0
 10
503.4615682341916
 20
318.6134439384678
 30
0.0
 10
503.5829236406727
 20
318.6942651107584
 30
0.0
 10
503.7087488388246
 20
318.777439632398
 30
0.0
 10
503.8388523383305
 20
318.8627642304599
 30
0.0
 10
503.9732266739596
 20
318.9501517590588
 30
0.0
 10
504.1118310579117
 20
319.0394903499905
 30
0.0
 10
504.2548719588905
 20
319.1308192696154
 30
0.0
 10
504.4022015906681
 20
319.2239454990664
 30
0.0
 10
504.5538625516519
 20
319.3187890292991
 30
0.0
 10
504.7094973749433
 20
319.4150205784072
 30
0.0
 10
504.8817062874054
 20
319.5202254878396
 30
0.0
 10
505.0714416903507
 20
319.6344995748912
 30
0.0
 10
505.2799876343713
 20
319.7579866217073
 30
0.0
 10
505.4942612079324
 20
319.8825685685194
 30
0.0
 10
505.7145504120573
 20
320.0081462794245
 30
0.0
 10
505.9406602310345
 20
320.1343281362476
 30
0.0
 10
506.1714662336872
 20
320.260197037565
 30
0.0
 10
506.4064934802711
 20
320.3852380304244
 30
0.0
 10
506.6216101698633
 20
320.4966883742884
 30
0.0
 10
506.8162604302125
 20
320.5951010632892
 30
0.0
 10
506.988990814691
 20
320.6805923774809
 30
0.0
 10
507.1643380764662
 20
320.765444390452
 30
0.0
 10
507.3422971118659
 20
320.8495267698452
 30
0.0
 10
507.5228636044025
 20
320.9326980270355
 30
0.0
 10
507.7125145313838
 20
321.0177239081279
 30
0.0
 10
507.9115475173209
 20
321.1042919343719
 30
0.0
 10
508.1204125854587
 20
321.1920788496214
 30
0.0
 10
508.3323305813662
 20
321.277928945208
 30
0.0
 10
508.5471469536842
 20
321.3615641614087
 30
0.0
 10
508.7646868474128
 20
321.442707592052
 30
0.0
 10
508.9850791070061
 20
321.5211929735324
 30
0.0
 10
509.2084239423615
 20
321.5968233009896
 30
0.0
 10
509.4372566763412
 20
321.6701729148064
 30
0.0
 10
509.6714473122631
 20
321.7407907245646
 30
0.0
 10
509.9112671959366
 20
321.8083289468151
 30
0.0
 10
510.1540117218271
 20
321.87169451287
 30
0.0
 10
510.3964384341259
 20
321.9298438033923
 30
0.0
 10
510.6380458016774
 20
321.9826326824137
 30
0.0
 10
510.8788712249824
 20
322.0300950715167
 30
0.0
 10
511.1219186534474
 20
322.0726553867258
 30
0.0
 10
511.3667212383366
 20
322.1100430203282
 30
0.0
 10
511.6127779347742
 20
322.14201023016
 30
0.0
 10
511.8602033925877
 20
322.1684564907177
 30
0.0
 10
512.1090528185582
 20
322.1892189796631
 30
0.0
 10
512.3347856139055
 20
322.2027160668055
 30
0.0
 10
512.5366115830018
 20
322.2106602693928
 30
0.0
 10
512.7142840412583
 20
322.2146451456596
 30
0.0
 10
512.8923392311453
 20
322.2156181984993
 30
0.0
 10
513.0706777693247
 20
322.2135457849114
 30
0.0
 10
513.2491982862562
 20
322.2084292261706
 30
0.0
 10
513.4399577284361
 20
322.1997183965834
 30
0.0
 10
513.6427698823882
 20
322.1866487323458
 30
0.0
 10
513.857607136901
 20
322.168432433114
 30
0.0
 10
514.0718684304311
 20
322.145922248804
 30
0.0
 10
514.2851657158518
 20
322.1192405378904
 30
0.0
 10
514.4971273711091
 20
322.0885285671054
 30
0.0
 10
514.7078212497787
 20
322.0539034136816
 30
0.0
 10
514.9173436637798
 20
322.0154468545423
 30
0.0
 10
515.1287539126281
 20
321.9726571632755
 30
0.0
 10
515.3416638812438
 20
321.9255273589884
 30
0.0
 10
515.5560663688597
 20
321.8740079261934
 30
0.0
 10
515.7687064383464
 20
321.8189674546193
 30
0.0
 10
515.9704391373718
 20
321.7630992089562
 30
0.0
 10
516.161314938812
 20
321.7070867273122
 30
0.0
 10
516.3415779250291
 20
321.6514831426706
 30
0.0
 10
516.5203787757039
 20
321.5937113976132
 30
0.0
 10
516.6976770928881
 20
321.5338863113964
 30
0.0
 10
516.873440239797
 20
321.4721238746314
 30
0.0
 10
517.0769781944682
 20
321.3978323358617
 30
0.0
 10
517.3071175662362
 20
321.3099978578553
 30
0.0
 10
517.5607582114969
 20
321.2083323025374
 30
0.0
 10
517.8088304185064
 20
321.1043864182951
 30
0.0
 10
518.0561249551831
 20
320.9964970735154
 30
0.0
 10
518.3038727531175
 20
320.8841943688664
 30
0.0
 10
518.5519037035835
 20
320.7676217034939
 30
0.0
 10
518.7954464965325
 20
320.649283174691
 30
0.0
 10
519.010308957652
 20
320.541616681522
 30
0.0
 10
519.1977834354301
 20
320.4453856770688
 30
0.0
 10
519.3591844065352
 20
320.3609682478175
 30
0.0
 10
519.5449440403
 20
320.2620660354884
 30
0.0
 10
519.7534474441968
 20
320.1486834544713
 30
0.0
 10
519.9576651881586
 20
320.0349923508224
 30
0.0
 10
520.1332164956219
 20
319.9354750963117
 30
0.0
 10
520.2816903217083
 20
319.8501295695254
 30
0.0
 10
520.427762635749
 20
319.7650529895612
 30
0.0
 10
520.5713291579318
 20
319.680363714388
 30
0.0
 10
520.7125939670357
 20
319.5960907174862
 30
0.0
 10
520.8045121423278
 20
319.5404695646226
 30
0.0
 10
520.8504693731612
 20
319.5126601117778
 30
0.0
  0
LINE
  5
DF
330
1F
100
AcDbEntity
  8
0
  6
Continuous
 62
     7
370
    30
100
AcDbLine
 10
527.8600682937
 20
318.6763985401
 30
0.0
 11
527.8600682937
 21
346.6763985401
 31
0.0
  0
SPLINE
  5
E0
330
1F
100
AcDbEntity
  8
0
  6
Continuous
 62
     7
370
    30
100
AcDbSpline
210
0.0
220
0.0
230
1.0
 70
     8
 71
     3
 72
    18
 73
    14
 74
     0
 42
0.000000001
 43
0.00000001
 40
0.0
 40
0.0
 40
0.0
 40
0.0
 40
0.0614474805278813
 40
0.1265698299273512
 40
0.1953825272465371
 40
0.2678986728350041
 40
0.3441294421235644
 40
0.4240844372875514
 40
0.5077719628501691
 40
0.5956054185877682
 40
0.7689349184657038
 40
0.9124655147065397
 40
1.0
 40
1.0
 40
1.0
 40
1.0
 10
552.870650491743
 20
308.5352313024627
 30
0.0
 10
552.8960914105717
 20
308.532326835089
 30
0.0
 10
552.9484947433315
 20
308.5263441985618
 30
0.0
 10
553.0229648745601
 20
308.515440919916
 30
0.0
 10
553.0962887304992
 20
308.5031398526174
 30
0.0
 10
553.1670003314007
 20
308.4895346268864
 30
0.0
 10
553.2341715331654
 20
308.4749541881853
 30
0.0
 10
553.2966227356145
 20
308.4596556203302
 30
0.0
 10
553.3532407287561
 20
308.4440282881084
 30
0.0
 10
553.418069076061
 20
308.423039832882
 30
0.0
 10
553.4709824239828
 20
308.4031970556734
 30
0.0
 10
553.4993196383607
 20
308.3902488848872
 30
0.0
 10
553.4995875757481
 20
308.3870226663276
 30
0.0
 10
553.4996890785851
 20
308.3858004765481
 30
0.0
  0
LINE
  5
E1
330
1F
100
AcDbEntity
  8
0
  6
Continuous
 62
     7
370
    30
100
AcDbLine
 10
552.5307625495
 20
308.3184677807
 30
0.0
 11
552.5401566365
 21
308.3184854827
 31
0.0
  0
ELLIPSE
  5
E2
330
1F
100
AcDbEntity
  8
0
  6
Continuous
 62
     7
370
    30
100
AcDbEllipse
 10
552.4395232683
 20
332.5682955942
 30
0.0
 11
6.207723730426437
 21
24.25306178488739
 31
0.0
210
0.0
220
0.0
230
1.0
 40
0.1037558022
 41
3.164642357919426
 42
3.168351675437821
  0
LINE
  5
E3
330
1F
100
AcDbEntity
  8
0
  6
Continuous
 62
     7
370
    30
100
AcDbLine
 10
467.8187557886
 20
297.1760939304
 30
0.0
 11
467.8187557886
 21
368.1767031494
 31
0.0
  0
LINE
  5
E4
330
1F
100
AcDbEntity
  8
0
  6
Continuous
 62
     7
370
    30
100
AcDbLine
 10
467.8187557886
 20
370.1763985397
 30
0.0
 11
467.8187557886
 21
368.1767031494
 31
0.0
  0
LINE
  5
E5
330
1F
100
AcDbEntity
  8
0
  6
Continuous
 62
     7
370
    30
100
AcDbLine
 10
478.4374347596
 20
369.9910488088
 30
0.0
 11
467.8187557886
 21
370.1763985397
 31
0.0
  0
LINE
  5
E6
330
1F
100
AcDbEntity
  8
0
  6
Continuous
 62
     7
370
    30
100
AcDbLine
 10
467.8187557886
 20
295.1763985401
 30
0.0
 11
478.4374294112
 21
295.3617481777
 31
0.0
  0
LINE
  5
E7
330
1F
100
AcDbEntity
  8
0
  6
Continuous
 62
     7
370
    30
100
AcDbLine
 10
467.8187557886
 20
295.1763985402
 30
0.0
 11
467.8187557886
 21
297.1760939304
 31
0.0
  0
SPLINE
  5
E8
330
1F
100
AcDbEntity
  8
0
  6
Continuous
 62
     7
370
    30
100
AcDbSpline
210
0.0
220
0.0
230
1.0
 70
     8
 71
     3
 72
    16
 73
    12
 74
     0
 42
0.000000001
 43
0.00000001
 40
0.0
 40
0.0
 40
0.0
 40
0.0
 40
0.1190862068681109
 40
0.2381724137362214
 40
0.3572586206043326
 40
0.4763448274724431
 40
0.5954310343405543
 40
0.7145172412086648
 40
0.8336034480767762
 40
0.9526896549448868
 40
1.0
 40
1.0
 40
1.0
 40
1.0
 10
479.6108906126296
 20
332.6763985401383
 30
0.0
 10
479.6137445619072
 20
333.5337821807878
 30
0.0
 10
479.6194524604624
 20
335.2485494620867
 30
0.0
 10
479.6280143082952
 20
337.7218941628129
 30
0.0
 10
479.6365761561279
 20
340.0011829113878
 30
0.0
 10
479.6451380039607
 20
341.9995857478066
 30
0.0
 10
479.6536998517935
 20
343.6374583394786
 30
0.0
 10
479.6622616996262
 20
344.8624836620892
 30
0.0
 10
479.670823547459
 20
345.587929508382
 30
0.0
 10
479.6776652576339
 20
345.8644020621143
 30
0.0
 10
479.6816530185311
 20
345.7180186825952
 30
0.0
 10
479.6827868301508
 20
345.6763985401383
 30
0.0
  0
SPLINE
  5
E9
330
1F
100
AcDbEntity
  8
0
  6
Continuous
 62
     7
370
    30
100
AcDbSpline
210
0.0
220
0.0
230
1.0
 70
     8
 71
     3
 72
    16
 73
    12
 74
     0
 42
0.000000001
 43
0.00000001
 40
0.0
 40
0.0
 40
0.0
 40
0.0
 40
0.1190862068681106
 40
0.2381724137362213
 40
0.3572586206043317
 40
0.4763448274724424
 40
0.5954310343405531
 40
0.7145172412086636
 40
0.8336034480767742
 40
0.9526896549448846
 40
1.0
 40
1.0
 40
1.0
 40
1.0
 10
479.6108906126296
 20
332.6763985401383
 30
0.0
 10
479.6137445619072
 20
331.8190148994889
 30
0.0
 10
479.6194524604624
 20
330.1042476181901
 30
0.0
 10
479.6280143082952
 20
327.6309029174638
 30
0.0
 10
479.6365761561279
 20
325.3516141688889
 30
0.0
 10
479.6451380039607
 20
323.3532113324701
 30
0.0
 10
479.6536998517935
 20
321.7153387407981
 30
0.0
 10
479.6622616996262
 20
320.4903134181875
 30
0.0
 10
479.670823547459
 20
319.7648675718946
 30
0.0
 10
479.6776652576339
 20
319.4883950181624
 30
0.0
 10
479.6816530185311
 20
319.6347783976814
 30
0.0
 10
479.6827868301508
 20
319.6763985401383
 30
0.0
  0
SPLINE
  5
EA
330
1F
100
AcDbEntity
  8
0
  6
Continuous
 62
     7
370
    30
100
AcDbSpline
210
0.0
220
0.0
230
1.0
 70
     8
 71
     3
 72
    14
 73
    10
 74
     0
 42
0.000000001
 43
0.00000001
 40
0.0
 40
0.0
 40
0.0
 40
0.0
 40
0.1627634668600841
 40
0.3255268196892196
 40
0.4882901323043435
 40
0.6510534558434962
 40
0.8138168218795173
 40
0.9765802454842625
 40
0.9999999999999999
 40
0.9999999999999999
 40
0.9999999999999999
 40
0.9999999999999999
 10
479.443636688718
 20
369.0114646652383
 30
0.0
 10
479.4688369604848
 20
367.745549981865
 30
0.0
 10
479.5192374863634
 20
365.2137215020093
 30
0.0
 10
479.584776580959
 20
361.4157895773803
 30
0.0
 10
479.6427991973231
 20
357.6177389747534
 30
0.0
 10
479.6927801975717
 20
353.8195717114655
 30
0.0
 10
479.7339194536665
 20
350.0213010923243
 30
0.0
 10
479.7594446106823
 20
347.3069003591426
 30
0.0
 10
479.769016622708
 20
345.85858087823
 30
0.0
 10
479.7702206744066
 20
345.6763985401383
 30
0.0
  0
SPLINE
  5
EB
330
1F
100
AcDbEntity
  8
0
  6
Continuous
 62
     7
370
    30
100
AcDbSpline
210
0.0
220
0.0
230
1.0
 70
     8
 71
     3
 72
    14
 73
    10
 74
     0
 42
0.000000001
 43
0.00000001
 40
0.0
 40
0.0
 40
0.0
 40
0.0
 40
0.0901858498211246
 40
0.2436485067059766
 40
0.397111115487143
 40
0.5478332908147364
 40
0.6985554647067109
 40
0.849277680862664
 40
0.9999999999999999
 40
0.9999999999999999
 40
0.9999999999999999
 40
0.9999999999999999
 10
479.7698083672574
 20
319.6763985401383
 30
0.0
 10
479.7646943989851
 20
318.9748458379557
 30
0.0
 10
479.7508783653681
 20
317.0795122728635
 30
0.0
 10
479.7202292038858
 20
313.990464901524
 30
0.0
 10
479.6789022126429
 20
310.430585660413
 30
0.0
 10
479.6304588895875
 20
306.8921152178924
 30
0.0
 10
479.5753376469776
 20
303.3750643752415
 30
0.0
 10
479.5138017112386
 20
299.8581170084124
 30
0.0
 10
479.467025085685
 20
297.5135942068798
 30
0.0
 10
479.443636764918
 20
296.3413324056383
 30
0.0
  0
SPLINE
  5
EC
330
1F
100
AcDbEntity
  8
0
  6
Continuous
 62
     7
370
    30
100
AcDbSpline
210
0.0
220
0.0
230
1.0
 70
     8
 71
     3
 72
    26
 73
    22
 74
     0
 42
0.000000001
 43
0.00000001
 40
0.0
 40
0.0
 40
0.0
 40
0.0
 40
0.0522586350515434
 40
0.1045241995250906
 40
0.1567918084625139
 40
0.2090594767133255
 40
0.2613268642103393
 40
0.3135943487265654
 40
0.3628771045388915
 40
0.412160580850182
 40
0.4614447065953434
 40
0.5107291693293048
 40
0.5600135350496792
 40
0.6150146002418667
 40
0.6700147689518882
 40
0.7250141807863827
 40
0.7800133361861009
 40
0.8350127472290318
 40
0.8900122284015507
 40
0.9450097750505259
 40
1.0
 40
1.0
 40
1.0
 40
1.0
 10
478.460890351318
 20
369.9906393776383
 30
0.0
 10
478.4875743779367
 20
369.9895574905222
 30
0.0
 10
478.5409459694387
 20
369.9873935728332
 30
0.0
 10
478.6203527671611
 20
369.9760483272433
 30
0.0
 10
478.6986382062992
 20
369.9588399876451
 30
0.0
 10
478.7752847984558
 20
369.9352931742277
 30
0.0
 10
478.8498010387957
 20
369.9057149472505
 30
0.0
 10
478.9203402711472
 20
369.8709292506147
 30
0.0
 10
478.9866395069363
 20
369.8315499322633
 30
0.0
 10
479.0485303944061
 20
369.7881548895101
 30
0.0
 10
479.1069722782157
 20
369.740215255915
 30
0.0
 10
479.1616335585519
 20
369.6880044883971
 30
0.0
 10
479.2141566640747
 20
369.629650131736
 30
0.0
 10
479.2636461192028
 20
369.5649527491602
 30
0.0
 10
479.3090856463247
 20
369.4938583637164
 30
0.0
 10
479.348378881743
 20
369.4191899753092
 30
0.0
 10
479.3812307202566
 20
369.3414766172559
 30
0.0
 10
479.4074519214939
 20
369.2612707879049
 30
0.0
 10
479.4266831805473
 20
369.1791408019698
 30
0.0
 10
479.4394360059877
 20
369.0956890242957
 30
0.0
 10
479.4419616137164
 20
369.0395350592994
 30
0.0
 10
479.4432243335181
 20
369.0114599458383
 30
0.0
  0
SPLINE
  5
ED
330
1F
100
AcDbEntity
  8
0
  6
Continuous
 62
     7
370
    30
100
AcDbSpline
210
0.0
220
0.0
230
1.0
 70
     8
 71
     3
 72
    26
 73
    22
 74
     0
 42
0.000000001
 43
0.00000001
 40
0.0
 40
0.0
 40
0.0
 40
0.0
 40
0.0522586350663401
 40
0.1045241995516305
 40
0.1567918084973517
 40
0.2090594767529749
 40
0.2613268642515023
 40
0.3135943487663202
 40
0.3628771045750996
 40
0.4121605808811389
 40
0.4614447066198299
 40
0.5107291693465691
 40
0.5600135350594211
 40
0.6150146002433822
 40
0.6700147689459128
 40
0.7250141807742296
 40
0.7800133361696582
 40
0.8350127472108472
 40
0.8900122283849141
 40
0.9450097750395958
 40
1.0
 40
1.0
 40
1.0
 40
1.0
 10
478.460890427418
 20
295.3621576912383
 30
0.0
 10
478.4875744540794
 20
295.3632395783636
 30
0.0
 10
478.5409460456654
 20
295.365403496071
 30
0.0
 10
478.6203528435081
 20
295.3767487416975
 30
0.0
 10
478.6986382827583
 20
295.3939570813415
 30
0.0
 10
478.775284875017
 20
295.4175038948156
 30
0.0
 10
478.8498011154475
 20
295.4470821218607
 30
0.0
 10
478.9203403478753
 20
295.4818678185746
 30
0.0
 10
478.986639583726
 20
295.5212471370131
 30
0.0
 10
479.0485304712427
 20
295.5646421798614
 30
0.0
 10
479.1069723550846
 20
295.6125818135607
 30
0.0
 10
479.161633635438
 20
295.6647925811907
 30
0.0
 10
479.2141567409619
 20
295.7231469379757
 30
0.0
 10
479.2636461960723
 20
295.7878443206868
 30
0.0
 10
479.3090857231543
 20
295.8589387062764
 30
0.0
 10
479.3483789585103
 20
295.9336070948331
 30
0.0
 10
479.3812307969387
 20
296.0113204530379
 30
0.0
 10
479.4074519980676
 20
296.0915262825403
 30
0.0
 10
479.4266832569883
 20
296.1736562686248
 30
0.0
 10
479.4394360822736
 20
296.257108046446
 30
0.0
 10
479.4419616898783
 20
296.3132620115314
 30
0.0
 10
479.443224409618
 20
296.3413371250383
 30
0.0
  0
SPLINE
  5
EE
330
1F
100
AcDbEntity
  8
0
  6
Continuous
 62
     7
370
    30
100
AcDbSpline
210
0.0
220
0.0
230
1.0
 70
    24
 71
     3
 72
    11
 73
     7
 74
     0
 42
0.000000001
 43
0.00000001
 40
0.0
 40
0.0
 40
0.0
 40
0.0
 40
0.2800000018160417
 40
0.5599999986602364
 40
0.7799999971578983
 40
1.0
 40
1.0
 40
1.0
 40
1.0
 10
478.437429411218
 20
295.3617481776383
 30
0.0
 10
478.4414698983169
 20
295.3618187046152
 30
0.0
 10
478.4495508724429
 20
295.3619597585679
 30
0.0
 10
478.4563872765674
 20
295.3620790884594
 30
0.0
 10
478.4602696502038
 20
295.3621468555444
 30
0.0
 10
478.4606835016786
 20
295.3621540793403
 30
0.0
 10
478.460890427418
 20
295.3621576912383
 30
0.0
  0
ARC
  5
EF
330
1F
100
AcDbEntity
  8
0
  6
Continuous
 62
     7
370
    30
100
AcDbCircle
 10
27.8203581287
 20
355.9263985401
 30
0.0
 40
1.0
100
AcDbArc
 50
90.0
 51
180.0
  0
ARC
  5
F0
330
1F
100
AcDbEntity
  8
0
  6
Continuous
 62
     7
370
    30
100
AcDbCircle
 10
27.8203581287
 20
309.4263985401
 30
0.0
 40
1.000000000000057
100
AcDbArc
 50
180.0
 51
270.0
  0
ARC
  5
F1
330
1F
100
AcDbEntity
  8
0
  6
Continuous
 62
     7
370
    30
100
AcDbCircle
 10
53.1203581287
 20
356.4263985401
 30
0.0
 40
0.5000000000000042
100
AcDbArc
 50
14.3762133731
 51
90.0
  0
ARC
  5
F2
330
1F
100
AcDbEntity
  8
0
  6
Continuous
 62
     7
370
    30
100
AcDbCircle
 10
53.1203581287
 20
308.9263985401
 30
0.0
 40
0.5000000000000042
100
AcDbArc
 50
270.0
 51
345.6237866269
  0
LINE
  5
F3
330
1F
100
AcDbEntity
  8
0
  6
Continuous
 62
     7
370
    30
100
AcDbLine
 10
53.1203581287
 20
356.9263985401
 30
0.0
 11
27.8203581287
 21
356.9263985401
 31
0.0
  0
LINE
  5
F4
330
1F
100
AcDbEntity
  8
0
  6
Continuous
 62
     7
370
    30
100
AcDbLine
 10
48.2241444849
 20
308.4263985401
 30
0.0
 11
53.1203581287
 21
308.4263985401
 31
0.0
  0
LINE
  5
F5
330
1F
100
AcDbEntity
  8
0
  6
Continuous
 62
     7
370
    30
100
AcDbLine
 10
38.9470454973
 20
308.4263985401
 30
0.0
 11
39.3139261956
 21
308.4263985401
 31
0.0
  0
LINE
  5
F6
330
1F
100
AcDbEntity
  8
0
  6
Continuous
 62
     7
370
    30
100
AcDbLine
 10
27.8203581287
 20
308.4263985401
 30
0.0
 11
28.738993238
 21
308.4263985401
 31
0.0
  0
ARC
  5
F7
330
1F
100
AcDbEntity
  8
0
  6
Continuous
 62
     7
370
    30
100
AcDbCircle
 10
53.4109640254
 20
356.5008848662
 30
0.0
 40
0.2000000000004422
100
AcDbArc
 50
0.0
 51
14.3762133726
  0
ARC
  5
F8
330
1F
100
AcDbEntity
  8
0
  6
Continuous
 62
     7
370
    30
100
AcDbCircle
 10
53.4109640254
 20
308.851912214
 30
0.0
 40
0.2000000000004422
100
AcDbArc
 50
345.6237866274
 51
0.0
  0
LINE
  5
F9
330
1F
100
AcDbEntity
  8
0
  6
Continuous
 62
     7
370
    30
100
AcDbLine
 10
53.6109640254
 20
308.851912214
 30
0.0
 11
53.6109640254
 21
356.5008848662
 31
0.0
  0
SPLINE
  5
FA
330
1F
100
AcDbEntity
  8
0
  6
Continuous
 62
     7
370
    30
100
AcDbSpline
210
0.0
220
0.0
230
1.0
 70
     8
 71
     3
 72
    33
 73
    29
 74
     0
 42
0.000000001
 43
0.00000001
 40
0.0
 40
0.0
 40
0.0
 40
0.0
 40
0.0000246185214997
 40
0.0513349995527458
 40
0.0999239844436653
 40
0.1454250811284108
 40
0.1817311192458422
 40
0.2153715904689771
 40
0.2462088700127174
 40
0.2741312707576203
 40
0.2990503409257158
 40
0.321809657504739
 40
0.347060540014161
 40
0.3754797262337561
 40
0.4070753594883219
 40
0.4418396081534037
 40
0.4797432732433162
 40
0.5207301109716392
 40
0.5647111633424654
 40
0.6115594962839712
 40
0.6547742194090896
 40
0.6999138620013998
 40
0.7468095734497419
 40
0.7952659645317698
 40
0.845062916475983
 40
0.8959586837658307
 40
0.9476942352988955
 40
1.0
 40
1.0
 40
1.0
 40
1.0
 10
28.73853525998251
 20
308.4240706879079
 30
0.0
 10
28.73854760751813
 20
308.4240703317663
 30
0.0
 10
28.76429491874013
 20
308.4233276986352
 30
0.0
 10
28.8141354025867
 20
308.4165138480537
 30
0.0
 10
28.8859726630139
 20
308.4038448146627
 30
0.0
 10
28.94936410179732
 20
308.3873269964593
 30
0.0
 10
29.00447757064185
 20
308.3694252445298
 30
0.0
 10
29.05169676611358
 20
308.3512582376252
 30
0.0
 10
29.09412646829181
 20
308.3325301659426
 30
0.0
 10
29.13176136893291
 20
308.3138870062019
 30
0.0
 10
29.16506456291853
 20
308.295706339405
 30
0.0
 10
29.19653958770405
 20
308.2770275050099
 30
0.0
 10
29.22879808869745
 20
308.2562722490854
 30
0.0
 10
29.26382385234995
 20
308.2316812913739
 30
0.0
 10
29.30148617129976
 20
308.2026142566867
 30
0.0
 10
29.34127227869519
 20
308.1686070319006
 30
0.0
 10
29.3825539459648
 20
308.1292176527813
 30
0.0
 10
29.42458123074943
 20
308.0840560563379
 30
0.0
 10
29.46648283922663
 20
308.0328195181515
 30
0.0
 10
29.50543793539758
 20
307.9779206326979
 30
0.0
 10
29.54088249907019
 20
307.920021894918
 30
0.0
 10
29.5724140371245
 20
307.8598692684829
 30
0.0
 10
29.60076677981657
 20
307.7952642062995
 30
0.0
 10
29.6251907465895
 20
307.7265846699565
 30
0.0
 10
29.64503443873562
 20
307.6543466331899
 30
0.0
 10
29.65955192175614
 20
307.5791955751419
 30
0.0
 10
29.66880393110093
 20
307.5018855483161
 30
0.0
 10
29.66983842016389
 20
307.4496647123639
 30
0.0
 10
29.6703584995273
 20
307.4234111925443
 30
0.0
  0
SPLINE
  5
FB
330
1F
100
AcDbEntity
  8
0
  6
Continuous
 62
     7
370
    30
100
AcDbSpline
210
0.0
220
0.0
230
1.0
 70
     8
 71
     3
 72
    33
 73
    29
 74
     0
 42
0.000000001
 43
0.00000001
 40
0.0
 40
0.0
 40
0.0
 40
0.0
 40
0.0440292575405097
 40
0.0871779484489921
 40
0.1292435869087876
 40
0.1700352715388906
 40
0.2221357679337547
 40
0.2712962667242901
 40
0.3172095405888277
 40
0.3537916316155988
 40
0.3876816790518784
 40
0.4187844489370738
 40
0.4470291100022958
 40
0.4723655514429707
 40
0.4949593893779525
 40
0.5190082148486443
 40
0.5461899509568294
 40
0.5764724415714716
 40
0.6098037193976901
 40
0.6461073344509438
 40
0.685277812495663
 40
0.7271765918856191
 40
0.7716288486894609
 40
0.818421649532182
 40
0.8673038509323014
 40
0.9179880785802836
 40
0.9701549650729309
 40
1.0
 40
1.0
 40
1.0
 40
1.0
 10
37.97035772549868
 20
307.423411227812
 30
0.0
 10
37.97073961469568
 20
307.4461698326211
 30
0.0
 10
37.97149575546634
 20
307.4912318797156
 30
0.0
 10
37.97833950396109
 20
307.5577459069886
 30
0.0
 10
37.98896458639152
 20
307.6220256680723
 30
0.0
 10
38.00482672671506
 20
307.6899891243335
 30
0.0
 10
38.02661373886583
 20
307.7601759832843
 30
0.0
 10
38.05482290676471
 20
307.8308846511881
 30
0.0
 10
38.08464320995679
 20
307.8921025483687
 30
0.0
 10
38.11439968014339
 20
307.9444060184973
 30
0.0
 10
38.14282169499077
 20
307.9885651963258
 30
0.0
 10
38.17091698877741
 20
308.027731238282
 30
0.0
 10
38.19804202126559
 20
308.0620906644367
 30
0.0
 10
38.22370234656391
 20
308.0919560161589
 30
0.0
 10
38.24897932569989
 20
308.1192545736618
 30
0.0
 10
38.27590032568452
 20
308.1462983656936
 30
0.0
 10
38.30678924561428
 20
308.1749568672049
 30
0.0
 10
38.34258568133207
 20
308.2053171930918
 30
0.0
 10
38.3835807309875
 20
308.236747667719
 30
0.0
 10
38.43000802896918
 20
308.268517921259
 30
0.0
 10
38.48201406211497
 20
308.2998053429173
 30
0.0
 10
38.53962752897627
 20
308.3297070892404
 30
0.0
 10
38.60273004073417
 20
308.3572723025465
 30
0.0
 10
38.67103285442124
 20
308.3815001308013
 30
0.0
 10
38.74405768612306
 20
308.401523448595
 30
0.0
 10
38.82114758990766
 20
308.4160944204576
 30
0.0
 10
38.88936202194177
 20
308.4243806783201
 30
0.0
 10
38.93175326121587
 20
308.4250813528062
 30
0.0
 10
38.94717989669562
 20
308.425336335913
 30
0.0
  0
LINE
  5
FC
330
1F
100
AcDbEntity
  8
0
  6
Continuous
 62
     7
370
    30
100
AcDbLine
 10
29.6703581287
 20
307.4263985401
 30
0.0
 11
29.6703581287
 21
264.3263985401
 31
0.0
  0
LINE
  5
FD
330
1F
100
AcDbEntity
  8
0
  6
Continuous
 62
     7
370
    30
100
AcDbLine
 10
37.9703581287
 20
264.3263985401
 30
0.0
 11
37.9703581287
 21
307.4264656012
 31
0.0
  0
ARC
  5
FE
330
1F
100
AcDbEntity
  8
0
  6
Continuous
 62
     7
370
    30
100
AcDbCircle
 10
30.1703581287
 20
264.3263985401
 30
0.0
 40
0.5
100
AcDbArc
 50
180.0
 51
270.0
  0
ARC
  5
FF
330
1F
100
AcDbEntity
  8
0
  6
Continuous
 62
     7
370
    30
100
AcDbCircle
 10
37.4703581287
 20
264.3263985401
 30
0.0
 40
0.5
100
AcDbArc
 50
270.0
 51
0.0
  0
LINE
  5
100
330
1F
100
AcDbEntity
  8
0
  6
Continuous
 62
     7
370
    30
100
AcDbLine
 10
69.6624317063
 20
308.2288112032
 30
0.0
 11
69.6624317063
 21
305.7403655861
 31
0.0
  0
LINE
  5
101
330
1F
100
AcDbEntity
  8
0
  6
Continuous
 62
     7
370
    30
100
AcDbLine
 10
90.6174317063
 20
305.7403655861
 30
0.0
 11
90.6174317063
 21
308.1373771869
 31
0.0
  0
LINE
  5
102
330
1F
100
AcDbEntity
  8
0
  6
Continuous
 62
     7
370
    30
100
AcDbLine
 10
69.6624317094
 20
305.7403655861
 30
0.0
 11
70.8244317063
 21
305.0564941922
 31
0.0
  0
LINE
  5
103
330
1F
100
AcDbEntity
  8
0
  6
Continuous
 62
     7
370
    30
100
AcDbLine
 10
89.4554317063
 20
305.0564941922
 30
0.0
 11
90.6174317032
 21
305.7403655861
 31
0.0
  0
LINE
  5
104
330
1F
100
AcDbEntity
  8
0
  6
Continuous
 62
     7
370
    30
100
AcDbLine
 10
40.5101175809
 20
308.3183474374
 30
0.0
 11
46.6983876156
 21
308.3066838395
 31
0.0
  0
SPLINE
  5
105
330
1F
100
AcDbEntity
  8
0
  6
Continuous
 62
     7
370
    30
100
AcDbSpline
210
0.0
220
0.0
230
1.0
 70
     8
 71
     3
 72
    28
 73
    24
 74
     0
 42
0.000000001
 43
0.00000001
 40
0.0
 40
0.0
 40
0.0
 40
0.0
 40
0.061252016676146
 40
0.1167289581698602
 40
0.1653472298883277
 40
0.2062966079201912
 40
0.2390233469526558
 40
0.2631830467650653
 40
0.29653127284435
 40
0.3270642637970833
 40
0.355173875048254
 40
0.3926790698054557
 40
0.4245399932655882
 40
0.4507730781003749
 40
0.473649291604344
 40
0.5040771981116962
 40
0.5443169429040818
 40
0.5947438040096784
 40
0.6554655980313407
 40
0.7264619558692741
 40
0.8076409546597629
 40
0.898870082232154
 40
1.0
 40
1.0
 40
1.0
 40
1.0
 10
39.50016376340405
 20
308.3817119600506
 30
0.0
 10
39.50267778195592
 20
308.3732236063288
 30
0.0
 10
39.50746878774327
 20
308.3570472134476
 30
0.0
 10
39.51794033647298
 20
308.3354009213755
 30
0.0
 10
39.52904795746317
 20
308.317498363972
 30
0.0
 10
39.53987955377051
 20
308.3033987873059
 30
0.0
 10
39.5494051809494
 20
308.2928550554579
 30
0.0
 10
39.5587586119902
 20
308.2837089068365
 30
0.0
 10
39.56836936517554
 20
308.2754133512647
 30
0.0
 10
39.57896246470766
 20
308.2674683787539
 30
0.0
 10
39.59048790448931
 20
308.2599045352024
 30
0.0
 10
39.60262275154302
 20
308.2531022470683
 30
0.0
 10
39.61484710302176
 20
308.2473800637065
 30
0.0
 10
39.62532596203743
 20
308.2432200917259
 30
0.0
 10
39.63547158544101
 20
308.2397839775624
 30
0.0
 10
39.64500311281131
 20
308.2370615360862
 30
0.0
 10
39.65596094126445
 20
308.2345111947824
 30
0.0
 10
39.66832202197921
 20
308.2323932201418
 30
0.0
 10
39.68215834294026
 20
308.2309246899705
 30
0.0
 10
39.69740431191457
 20
308.2303719647178
 30
0.0
 10
39.71398494212531
 20
308.2310089922045
 30
0.0
 10
39.73184821918826
 20
308.2329863546483
 30
0.0
 10
39.74375399494042
 20
308.2354803136201
 30
0.0
 10
39.75001328012582
 20
308.2367914755947
 30
0.0
  0
SPLINE
  5
106
330
1F
100
AcDbEntity
  8
0
  6
Continuous
 62
     7
370
    30
100
AcDbSpline
210
0.0
220
0.0
230
1.0
 70
     8
 71
     3
 72
    18
 73
    14
 74
     0
 42
0.000000001
 43
0.00000001
 40
0.0
 40
0.0
 40
0.0
 40
0.0
 40
0.038469516200936
 40
0.1443550107119199
 40
0.2503530530025301
 40
0.3564382830876638
 40
0.4625862273700744
 40
0.5687734993893633
 40
0.6749779043898968
 40
0.7811784570579108
 40
0.8873553245340354
 40
0.9934897085487575
 40
1.0
 40
1.0
 40
1.0
 40
1.0
 10
39.74802470689345
 20
308.2358143532161
 30
0.0
 10
39.75684791092203
 20
308.2379489437849
 30
0.0
 10
39.78995655999908
 20
308.2459588923068
 30
0.0
 10
39.84827246829992
 20
308.2581169972087
 30
0.0
 10
39.92287868725567
 20
308.2722307582229
 30
0.0
 10
39.99827502307535
 20
308.2844595596663
 30
0.0
 10
40.07427765158118
 20
308.2948982861744
 30
0.0
 10
40.15079646923382
 20
308.3034779561813
 30
0.0
 10
40.22771490800148
 20
308.3101598371352
 30
0.0
 10
40.30492449130644
 20
308.3149923235323
 30
0.0
 10
40.38230942685846
 20
308.3176890095235
 30
0.0
 10
40.43555089118156
 20
308.3187677451101
 30
0.0
 10
40.46294978257166
 20
308.3183991487094
 30
0.0
 10
40.46453329965894
 20
308.3183778457051
 30
0.0
  0
ARC
  5
107
330
1F
100
AcDbEntity
  8
0
  6
Continuous
 62
     7
370
    30
100
AcDbCircle
 10
47.5029442547
 20
308.6209461501
 30
0.0
 40
0.1999999999999628
100
AcDbArc
 50
270.2749779983
 51
271.1263005079
  0
SPLINE
  5
108
330
1F
100
AcDbEntity
  8
0
  6
Continuous
 62
     7
370
    30
100
AcDbSpline
210
0.0
220
0.0
230
1.0
 70
     8
 71
     3
 72
    30
 73
    26
 74
     0
 42
0.000000001
 43
0.00000001
 40
0.0
 40
0.0
 40
0.0
 40
0.0
 40
0.0036464627014196
 40
0.0334188457461151
 40
0.067194824977455
 40
0.102353240587258
 40
0.1671722066736666
 40
0.2246532004963336
 40
0.2749173859938032
 40
0.319416610699228
 40
0.3460592234585017
 40
0.3702746166843529
 40
0.3920668968637689
 40
0.4179151417441682
 40
0.4539472963623251
 40
0.5001738017930919
 40
0.5415593391655117
 40
0.5887365228829401
 40
0.6417618280705296
 40
0.7007237953007831
 40
0.7522619569770223
 40
0.8077877571488232
 40
0.8674426114147916
 40
0.9314229902790365
 40
1.0
 40
1.0
 40
1.0
 40
1.0
 10
46.95519894064148
 20
308.387332139881
 30
0.0
 10
46.95514141424945
 20
308.387309133744
 30
0.0
 10
46.95461420040451
 20
308.3870982887127
 30
0.0
 10
46.95707908679947
 20
308.387665939635
 30
0.0
 10
46.96258780903107
 20
308.3887062266668
 30
0.0
 10
46.97327279737864
 20
308.3905849437033
 30
0.0
 10
46.98824607830831
 20
308.3928592138398
 30
0.0
 10
47.00867985986828
 20
308.3955647532832
 30
0.0
 10
47.02975331857968
 20
308.3980371389817
 30
0.0
 10
47.04857463871846
 20
308.4000302603947
 30
0.0
 10
47.06458897294507
 20
308.4016017618315
 30
0.0
 10
47.07746034932526
 20
308.4028000551469
 30
0.0
 10
47.09098004563744
 20
308.4040067384678
 30
0.0
 10
47.10708623818172
 20
308.4053811675452
 30
0.0
 10
47.12817143745696
 20
308.407062191881
 30
0.0
 10
47.15312694120178
 20
308.4088839156785
 30
0.0
 10
47.18123614758942
 20
308.4107445950496
 30
0.0
 10
47.21170366625103
 20
308.4125643870257
 30
0.0
 10
47.24704885529574
 20
308.4144294290638
 30
0.0
 10
47.28448346599549
 20
308.4161266004234
 30
0.0
 10
47.32343057422874
 20
308.4176160264711
 30
0.0
 10
47.3633036880486
 20
308.4188757326427
 30
0.0
 10
47.40682440336074
 20
308.4199356325385
 30
0.0
 10
47.45403357506976
 20
308.4207567848679
 30
0.0
 10
47.4867336433929
 20
308.4209866366479
 30
0.0
 10
47.50365064007795
 20
308.4211055477695
 30
0.0
  0
SPLINE
  5
109
330
1F
100
AcDbEntity
  8
0
  6
Continuous
 62
     7
370
    30
100
AcDbSpline
210
0.0
220
0.0
230
1.0
 70
     8
 71
     3
 72
    43
 73
    39
 74
     0
 42
0.000000001
 43
0.00000001
 40
0.0
 40
0.0
 40
0.0
 40
0.0
 40
0.0369427034777315
 40
0.0749037778410988
 40
0.1085443335482414
 40
0.1378634175286586
 40
0.1632244403206165
 40
0.1876618456719262
 40
0.2208667344056184
 40
0.2536127779442414
 40
0.285900318259403
 40
0.3166509126310479
 40
0.3393234501413442
 40
0.360281866815306
 40
0.3795259729736543
 40
0.3993858473171852
 40
0.4222635847441892
 40
0.4476706106358832
 40
0.4759891448930276
 40
0.5072193176399903
 40
0.5392174247365166
 40
0.5764262114204833
 40
0.608743612927093
 40
0.6361692865438097
 40
0.6604968277052626
 40
0.687474923364436
 40
0.7169720464487007
 40
0.7492469955770752
 40
0.7813431311799709
 40
0.8122653641006856
 40
0.832227991128769
 40
0.8516688438164739
 40
0.8709409084536697
 40
0.8935145875643231
 40
0.9202732772253391
 40
0.9512167135470415
 40
0.984224516389773
 40
0.9999999999999999
 40
0.9999999999999999
 40
0.9999999999999999
 40
0.9999999999999999
 10
46.71343938435491
 20
308.3068954591893
 30
0.0
 10
46.71692520290396
 20
308.3070092355412
 30
0.0
 10
46.7239929308614
 20
308.3072399246295
 30
0.0
 10
46.73406504406319
 20
308.3078730688599
 30
0.0
 10
46.74325544841871
 20
308.3086187719964
 30
0.0
 10
46.75111200373065
 20
308.3094025210544
 30
0.0
 10
46.75783452282059
 20
308.3101728767339
 30
0.0
 10
46.76495135330046
 20
308.311086002393
 30
0.0
 10
46.77279318552786
 20
308.312219731315
 30
0.0
 10
46.78142731185998
 20
308.3136320078398
 30
0.0
 10
46.78997979685493
 20
308.315195492899
 30
0.0
 10
46.79768315549421
 20
308.3167513946124
 30
0.0
 10
46.8043406362739
 20
308.3182053237364
 30
0.0
 10
46.80995859828256
 20
308.3195078628477
 30
0.0
 10
46.81531899783863
 20
308.3208178528445
 30
0.0
 10
46.82081579520394
 20
308.3222285454068
 30
0.0
 10
46.82680503875091
 20
308.3238458259418
 30
0.0
 10
46.83349435175119
 20
308.3257535817964
 30
0.0
 10
46.84086714836765
 20
308.32798147121
 30
0.0
 10
46.84876427106614
 20
308.3305175569084
 30
0.0
 10
46.85738397130068
 20
308.3334609014556
 30
0.0
 10
46.86606103207954
 20
308.336619393055
 30
0.0
 10
46.87430225982074
 20
308.339808558576
 30
0.0
 10
46.88141154028821
 20
308.342701767507
 30
0.0
 10
46.88802480749268
 20
308.3455089165905
 30
0.0
 10
46.89473256792193
 20
308.348473186031
 30
0.0
 10
46.90203260608317
 20
308.3518399415104
 30
0.0
 10
46.90968223407952
 20
308.3555307638806
 30
0.0
 10
46.91738448679491
 20
308.3594196526753
 30
0.0
 10
46.92403273484832
 20
308.3629240671937
 30
0.0
 10
46.92962461206803
 20
308.3659729126626
 30
0.0
 10
46.9342604779898
 20
308.3685660639583
 30
0.0
 10
46.93907478777881
 20
308.3713263820254
 30
0.0
 10
46.94439201959609
 20
308.3744563686499
 30
0.0
 10
46.95055044732241
 20
308.3781898090092
 30
0.0
 10
46.957435985384
 20
308.3825201688651
 30
0.0
 10
46.96344272591963
 20
308.38640531523
 30
0.0
 10
46.96707182695852
 20
308.3888783682902
 30
0.0
 10
46.96824540151904
 20
308.3896781013721
 30
0.0
  0
SPLINE
  5
10A
330
1F
100
AcDbEntity
  8
0
  6
Continuous
 62
     7
370
    30
100
AcDbSpline
210
0.0
220
0.0
230
1.0
 70
     8
 71
     3
 72
    15
 73
    11
 74
     0
 42
0.000000001
 43
0.00000001
 40
0.0
 40
0.0
 40
0.0
 40
0.0
 40
0.0423875767334823
 40
0.1483575910195896
 40
0.2857244173330304
 40
0.4238176819543472
 40
0.565884551062893
 40
0.7096809430517486
 40
0.8541063722220184
 40
0.9999999999999999
 40
0.9999999999999999
 40
0.9999999999999999
 40
0.9999999999999999
 10
46.78897689151457
 20
308.3150404550045
 30
0.0
 10
46.79273718020403
 20
308.3151614966429
 30
0.0
 10
46.80589828575665
 20
308.3155851454398
 30
0.0
 10
46.83498503570875
 20
308.3163643689012
 30
0.0
 10
46.87693966711975
 20
308.3173511900538
 30
0.0
 10
46.92787897967956
 20
308.3183227739927
 30
0.0
 10
46.98387519627148
 20
308.3191658039643
 30
0.0
 10
47.04444763941632
 20
308.3198248770548
 30
0.0
 10
47.10844262000725
 20
308.3202815604418
 30
0.0
 10
47.1529494537839
 20
308.3203616142886
 30
0.0
 10
47.17531541042778
 20
308.3204018436358
 30
0.0
  0
ARC
  5
10B
330
1F
100
AcDbEntity
  8
0
  6
Continuous
 62
     7
370
    30
100
AcDbCircle
 10
47.1752038461
 20
308.5204018125
 30
0.0
 40
0.1999999999999922
100
AcDbArc
 50
270.0321595159
 51
329.3781954696
  0
LINE
  5
10C
330
1F
100
AcDbEntity
  8
0
  6
Continuous
 62
     7
370
    30
100
AcDbLine
 10
113.4202778037
 20
357.3149167105
 30
0.0
 11
55.7002061026
 21
357.0630637886
 31
0.0
  0
LINE
  5
10D
330
1F
100
AcDbEntity
  8
0
  6
Continuous
 62
     7
370
    30
100
AcDbLine
 10
55.7002061026
 20
308.2897332917
 30
0.0
 11
113.4398051486
 21
308.0377951651
 31
0.0
  0
ARC
  5
10E
330
1F
100
AcDbEntity
  8
0
  6
Continuous
 62
     7
370
    30
100
AcDbCircle
 10
55.7045694119
 20
356.0630733076
 30
0.0
 40
0.9999999999999889
100
AcDbArc
 50
90.25
 51
121.4024765725
  0
ARC
  5
10F
330
1F
100
AcDbEntity
  8
0
  6
Continuous
 62
     7
370
    30
100
AcDbCircle
 10
55.7045694119
 20
309.2897237727
 30
0.0
 40
0.9999999999999889
100
AcDbArc
 50
238.5975234275
 51
269.75
  0
ARC
  5
110
330
1F
100
AcDbEntity
  8
0
  6
Continuous
 62
     7
370
    30
100
AcDbCircle
 10
69.9812442114
 20
332.6763985401
 30
0.0
 40
28.40000000000004
100
AcDbArc
 50
234.800981616
 51
238.5975234275
  0
ARC
  5
111
330
1F
100
AcDbEntity
  8
0
  6
Continuous
 62
     7
370
    30
100
AcDbCircle
 10
69.9812442114
 20
332.6763985401
 30
0.0
 40
28.40000000000002
100
AcDbArc
 50
121.4024765725
 51
125.199018384
  0
SPLINE
  5
112
330
1F
100
AcDbEntity
  8
0
  6
Continuous
 62
     7
370
    30
100
AcDbSpline
210
0.0
220
0.0
230
1.0
 70
    24
 71
     3
 72
   115
 73
   111
 74
     0
 42
0.000000001
 43
0.00000001
 40
0.0
 40
0.0
 40
0.0
 40
0.0
 40
0.0121997935652869
 40
0.0243830259091148
 40
0.0365541441957072
 40
0.0487176088765948
 40
0.0608778888254538
 40
0.0730394564267335
 40
0.0802085762440969
 40
0.0873806098615175
 40
0.0945564701818801
 40
0.10173706864855
 40
0.1089233149020521
 40
0.116116116440163
 40
0.1237190469148645
 40
0.1313368801626112
 40
0.1435122380408881
 40
0.1556754082584504
 40
0.1678308479522413
 40
0.1799830227653392
 40
0.1921364019397712
 40
0.2010522958680127
 40
0.2099730003481853
 40
0.2189002725985736
 40
0.222409619193747
 40
0.2259203561824814
 40
0.2294325895521713
 40
0.2329464251548053
 40
0.2364619686976439
 40
0.2399793257339613
 40
0.2520135003207088
 40
0.2640295341067241
 40
0.2760316871489597
 40
0.2880242342967542
 40
0.3000114606763278
 40
0.3119976571205074
 40
0.3190622726555357
 40
0.3261288988143671
 40
0.3331984126831475
 40
0.3402716902737955
 40
0.3473496062007566
 40
0.3544330333603437
 40
0.3615228426132436
 40
0.3686199024707562
 40
0.3791570550379123
 40
0.3896795173178713
 40
0.4001901441912864
 40
0.4106918001911993
 40
0.4211873571958661
 40
0.4316796920916496
 40
0.4421716844154031
 40
0.4537158896162657
 40
0.4652669948472702
 40
0.4768288232348951
 40
0.4884051872815672
 40
0.4999998851511244
 40
0.5105370379457214
 40
0.5210595003811127
 40
0.5315701273515181
 40
0.5420717834036399
 40
0.5525673404294659
 40
0.5630596753291399
 40
0.5735516676533231
 40
0.5807662537126748
 40
0.5879829743612168
 40
0.5952027640863896
 40
0.6024265561845642
 40
0.6096552824018798
 40
0.6168898725780737
 40
0.6241312542939738
 40
0.6313803525233115
 40
0.6434145278202273
 40
0.6554305620547176
 40
0.6674327153432686
 40
0.6794252625951743
 40
0.6914124889969067
 40
0.703398685441712
 40
0.7139491302007763
 40
0.7245050238924844
 40
0.735069284775922
 40
0.7386290678317631
 40
0.7421902407422817
 40
0.7457529143186103
 40
0.7493171992319176
 40
0.7528832060033485
 40
0.7564510449940335
 40
0.7600208263951723
 40
0.7711090976828876
 40
0.7821824941301655
 40
0.7932443500029626
 40
0.8042980100106627
 40
0.815346826305835
 40
0.8263941554503136
 40
0.837443355361247
 40
0.8461284104222889
 40
0.854818318405458
 40
0.863514702604533
 40
0.872219182690056
 40
0.8809333738183237
 40
0.8893005077144004
 40
0.897512059612951
 40
0.9089965793713184
 40
0.9204709690897269
 40
0.931938969610753
 40
0.9434043280308513
 40
0.9548707940366934
 40
0.9661372123269566
 40
0.9774118618298802
 40
0.9886982816914617
 40
1.0
 40
1.0
 40
1.0
 40
1.0
 10
26.82035812867343
 20
332.6763985401381
 30
0.0
 10
26.82035812867344
 20
332.5278806972792
 30
0.0
 10
26.82035812867345
 20
332.2310466245537
 30
0.0
 10
26.82035812867339
 20
331.7862053333959
 30
0.0
 10
26.82035812867351
 20
331.3421305227048
 30
0.0
 10
26.82035812867342
 20
330.8988221157067
 30
0.0
 10
26.82035812867344
 20
330.4562811677119
 30
0.0
 10
26.8203581286734
 20
330.075018189373
 30
0.0
 10
26.82035812867347
 20
329.7547168178207
 30
0.0
 10
26.82035812867342
 20
329.4950417446364
 30
0.0
 10
26.82035812867345
 20
329.2356332111648
 30
0.0
 10
26.82035812867343
 20
328.9764909364044
 30
0.0
 10
26.82035812867344
 20
328.7176149634363
 30
0.0
 10
26.82035812867344
 20
328.4541798353762
 30
0.0
 10
26.82035812867345
 20
328.1861420443097
 30
0.0
 10
26.82035812867344
 20
327.8592854766141
 30
0.0
 10
26.8203581286734
 20
327.4792499549962
 30
0.0
 10
26.82035812867344
 20
327.0471521437979
 30
0.0
 10
26.82035812867344
 20
326.6173865218209
 30
0.0
 10
26.82035812867344
 20
326.189954570757
 30
0.0
 10
26.82035812867343
 20
325.8026626696003
 30
0.0
 10
26.82035812867345
 20
325.4548506004465
 30
0.0
 10
26.82035812867342
 20
325.145875126243
 30
0.0
 10
26.82035812867345
 20
324.9004964369823
 30
0.0
 10
26.82035812867344
 20
324.7179145177805
 30
0.0
 10
26.82035812867345
 20
324.5975707276053
 30
0.0
 10
26.82035812867344
 20
324.4774205842197
 30
0.0
 10
26.82035812867344
 20
324.3574640410586
 30
0.0
 10
26.82035812867344
 20
324.2377010153435
 30
0.0
 10
26.82035812867342
 20
324.0216476199291
 30
0.0
 10
26.82035812867343
 20
323.7107602700173
 30
0.0
 10
26.82035812867343
 20
323.307372866981
 30
0.0
 10
26.82035812867343
 20
322.9077795159358
 30
0.0
 10
26.82035812867343
 20
322.5119815489197
 30
0.0
 10
26.82035812867345
 20
322.1199794905406
 30
0.0
 10
26.82035812867344
 20
321.7849330784762
 30
0.0
 10
26.82035812867344
 20
321.5052583895999
 30
0.0
 10
26.82035812867344
 20
321.2796148268084
 30
0.0
 10
26.82035812867344
 20
321.0552892501725
 30
0.0
 10
26.82035812867347
 20
320.8322814040549
 30
0.0
 10
26.8203581286734
 20
320.6105913626233
 30
0.0
 10
26.82035812867348
 20
320.3902191401118
 30
0.0
 10
26.82035812867342
 20
320.1711646581176
 30
0.0
 10
26.82035812867343
 20
319.9183322437027
 30
0.0
 10
26.82035812867347
 20
319.6329649088933
 30
0.0
 10
26.82035812867344
 20
319.3165488857858
 30
0.0
 10
26.82035812867344
 20
319.0041254142708
 30
0.0
 10
26.82035812867343
 20
318.6956950492993
 30
0.0
 10
26.82035812867343
 20
318.3912577639809
 30
0.0
 10
26.82035812867344
 20
318.0908135639744
 30
0.0
 10
26.82035812867343
 20
317.7844776174438
 30
0.0
 10
26.82035812867344
 20
317.4727225592459
 30
0.0
 10
26.82035812867344
 20
317.1560621233681
 30
0.0
 10
26.82035812867343
 20
316.8442338658505
 30
0.0
 10
26.82035812867345
 20
316.5372384129464
 30
0.0
 10
26.82035812867344
 20
316.24445209113
 30
0.0
 10
26.82035812867344
 20
315.9656554646268
 30
0.0
 10
26.82035812867345
 20
315.7006587358575
 30
0.0
 10
26.82035812867345
 20
315.440581897765
 30
0.0
 10
26.82035812867342
 20
315.185425208918
 30
0.0
 10
26.82035812867344
 20
314.9351886199316
 30
0.0
 10
26.82035812867343
 20
314.6898724611532
 30
0.0
 10
26.82035812867343
 20
314.4745239874069
 30
0.0
 10
26.82035812867345
 20
314.2875173253313
 30
0.0
 10
26.82035812867348
 20
314.1274358718437
 30
0.0
 10
26.82035812867342
 20
313.9696798187207
 30
0.0
 10
26.82035812867348
 20
313.814249035932
 30
0.0
 10
26.82035812867343
 20
313.6611435727244
 30
0.0
 10
26.82035812867342
 20
313.5103633978918
 30
0.0
 10
26.82035812867347
 20
313.3619086194642
 30
0.0
 10
26.82035812867343
 20
313.1836852087617
 30
0.0
 10
26.82035812867345
 20
312.9781580340528
 30
0.0
 10
26.82035812867344
 20
312.7484144110199
 30
0.0
 10
26.82035812867343
 20
312.5260194189344
 30
0.0
 10
26.82035812867344
 20
312.3109740121414
 30
0.0
 10
26.82035812867348
 20
312.1032781454911
 30
0.0
 10
26.82035812867343
 20
311.9109482627618
 30
0.0
 10
26.82035812867343
 20
311.7329956450424
 30
0.0
 10
26.82035812867345
 20
311.568468413862
 30
0.0
 10
26.82035812867344
 20
311.4447895338171
 30
0.0
 10
26.82035812867343
 20
311.3583473546377
 30
0.0
 10
26.82035812867343
 20
311.3067930811955
 30
0.0
 10
26.82035812867345
 20
311.2558840007112
 30
0.0
 10
26.82035812867343
 20
311.2056200708163
 30
0.0
 10
26.82035812867347
 20
311.1560012871852
 30
0.0
 10
26.82035812867342
 20
311.1070277098903
 30
0.0
 10
26.82035812867343
 20
311.0247796386612
 30
0.0
 10
26.82035812867344
 20
310.9119813299217
 30
0.0
 10
26.82035812867345
 20
310.7729043436564
 30
0.0
 10
26.82035812867344
 20
310.6405844270343
 30
0.0
 10
26.82035812867344
 20
310.5150223568423
 30
0.0
 10
26.82035812867344
 20
310.3962179660432
 30
0.0
 10
26.82035812867345
 20
310.2841714182617
 30
0.0
 10
26.82035812867344
 20
310.1864076884565
 30
0.0
 10
26.82035812867344
 20
310.1013406701854
 30
0.0
 10
26.82035812867343
 20
310.0275298902051
 30
0.0
 10
26.82035812867347
 20
309.9578906329518
 30
0.0
 10
26.82035812867343
 20
309.8924226726572
 30
0.0
 10
26.82035812867344
 20
309.8319668649227
 30
0.0
 10
26.82035812867347
 20
309.7766879356922
 30
0.0
 10
26.82035812867344
 20
309.7197126422402
 30
0.0
 10
26.82035812867342
 20
309.6622080523518
 30
0.0
 10
26.82035812867345
 20
309.6061814370266
 30
0.0
 10
26.8203581286734
 20
309.5576970537413
 30
0.0
 10
26.82035812867347
 20
309.5167515495739
 30
0.0
 10
26.82035812867344
 20
309.4835567963447
 30
0.0
 10
26.82035812867343
 20
309.4579087035212
 30
0.0
 10
26.82035812867343
 20
309.439828696545
 30
0.0
 10
26.82035812867344
 20
309.4285030633741
 30
0.0
 10
26.82035812867343
 20
309.4271003645557
 30
0.0
 10
26.82035812867344
 20
309.4263985401381
 30
0.0
  0
SPLINE
  5
113
330
1F
100
AcDbEntity
  8
0
  6
Continuous
 62
     7
370
    30
100
AcDbSpline
210
0.0
220
0.0
230
1.0
 70
    24
 71
     3
 72
   115
 73
   111
 74
     0
 42
0.000000001
 43
0.00000001
 40
0.0
 40
0.0
 40
0.0
 40
0.0
 40
0.0121984425790999
 40
0.0243806358542013
 40
0.0365510292406653
 40
0.0487140851035505
 40
0.0608742738857633
 40
0.0730360691918634
 40
0.0802054728858152
 40
0.0873779015353921
 40
0.0945542681211613
 40
0.1017354841217468
 40
0.1089224591707112
 40
0.116116100716928
 40
0.123719077280105
 40
0.1313369099118866
 40
0.1435122668058194
 40
0.1556754360401929
 40
0.1678308747515898
 40
0.179983048582728
 40
0.1921364267752733
 40
0.201052319983296
 40
0.2099730237429519
 40
0.218900295272384
 40
0.2224096415841712
 40
0.225920378289421
 40
0.2294326113755192
 40
0.232946446694446
 40
0.2364619899534531
 40
0.2399793467058054
 40
0.252013520319094
 40
0.2640295531333399
 40
0.2760317052051526
 40
0.2880242513835261
 40
0.3000114767943344
 40
0.3119976722700583
 40
0.3190622872343886
 40
0.3261289128224381
 40
0.3331984261202819
 40
0.3402717031397674
 40
0.3473496184952695
 40
0.3544330450830303
 40
0.3615228537636664
 40
0.368619913048407
 40
0.379157064763924
 40
0.3896795261934705
 40
0.4001901522174695
 40
0.4106918073687317
 40
0.4211873635252817
 40
0.4316796975732504
 40
0.4421716890492571
 40
0.4537158933174051
 40
0.4652669976151893
 40
0.4768288250687797
 40
0.4884051881802954
 40
0.4999998851132668
 40
0.5105370370564868
 40
0.521059498641684
 40
0.5315701247628474
 40
0.5420717799664468
 40
0.5525673361442385
 40
0.5630596701961331
 40
0.5735516616725579
 40
0.5807662471489645
 40
0.5879829672143864
 40
0.5952027563561881
 40
0.6024265478706654
 40
0.609655273503882
 40
0.6168898630955
 40
0.6241312442262722
 40
0.631380341869855
 40
0.6434145161938872
 40
0.6554305494570664
 40
0.6674327017755343
 40
0.6794252480582399
 40
0.6914124734913091
 40
0.7033986689676419
 40
0.7139491128743295
 40
0.7245050057133033
 40
0.7350692657434124
 40
0.7386290485117302
 40
0.7421902211346225
 40
0.745752894423213
 40
0.7493171790486612
 40
0.7528831855321032
 40
0.7564510242346606
 40
0.760020805347525
 40
0.7711090757387923
 40
0.7821824712909239
 40
0.7932443262696082
 40
0.8042979853839587
 40
0.815346800786274
 40
0.8263941290381172
 40
0.8374433280563649
 40
0.8461283824157962
 40
0.854818289697025
 40
0.8635146731936992
 40
0.8722191525762296
 40
0.8809333430007823
 40
0.8893011666054
 40
0.8975135739166027
 40
0.9089990470541636
 40
0.9204741052708719
 40
0.931942489692594
 40
0.943407947978083
 40
0.9548742306552429
 40
0.9661401943201614
 40
0.9774141184239729
 40
0.9886995436823071
 40
1.0
 40
1.0
 40
1.0
 40
1.0
 10
26.82035812867344
 20
355.9263985401381
 30
0.0
 10
26.82035812867345
 20
355.9255867367697
 30
0.0
 10
26.82035812867344
 20
355.9239642114199
 30
0.0
 10
26.82035812867343
 20
355.910770664628
 30
0.0
 10
26.82035812867344
 20
355.8896961033096
 30
0.0
 10
26.82035812867343
 20
355.8599710153398
 30
0.0
 10
26.82035812867344
 20
355.821801512824
 30
0.0
 10
26.82035812867343
 20
355.7815246631359
 30
0.0
 10
26.82035812867344
 20
355.7427475487909
 30
0.0
 10
26.82035812867345
 20
355.7083305805476
 30
0.0
 10
26.82035812867347
 20
355.6709669009887
 30
0.0
 10
26.82035812867343
 20
355.630656375382
 30
0.0
 10
26.82035812867345
 20
355.5873990309068
 30
0.0
 10
26.82035812867345
 20
355.5403347922522
 30
0.0
 10
26.82035812867343
 20
355.4892572078771
 30
0.0
 10
26.82035812867347
 20
355.4229377444013
 30
0.0
 10
26.82035812867344
 20
355.3396750417974
 30
0.0
 10
26.82035812867339
 20
355.2363058682201
 30
0.0
 10
26.82035812867345
 20
355.1247477132742
 30
0.0
 10
26.82035812867343
 20
355.0050009298199
 30
0.0
 10
26.82035812867345
 20
354.8884434545481
 30
0.0
 10
26.82035812867343
 20
354.7774339514378
 30
0.0
 10
26.82035812867344
 20
354.6740164266697
 30
0.0
 10
26.82035812867344
 20
354.588039598826
 30
0.0
 10
26.82035812867343
 20
354.5220602451381
 30
0.0
 10
26.82035812867347
 20
354.4778224150435
 30
0.0
 10
26.82035812867344
 20
354.4329051716661
 30
0.0
 10
26.82035812867345
 20
354.3873085123678
 30
0.0
 10
26.82035812867343
 20
354.3410323666134
 30
0.0
 10
26.82035812867343
 20
354.256187205871
 30
0.0
 10
26.82035812867343
 20
354.1297385119233
 30
0.0
 10
26.82035812867345
 20
353.9567561954858
 30
0.0
 10
26.82035812867343
 20
353.7764069076302
 30
0.0
 10
26.8203581286734
 20
353.5886909976761
 30
0.0
 10
26.82035812867348
 20
353.3936088319733
 30
0.0
 10
26.82035812867343
 20
353.2188829091012
 30
0.0
 10
26.82035812867345
 20
353.0676418249508
 30
0.0
 10
26.82035812867342
 20
352.9423494139663
 30
0.0
 10
26.82035812867345
 20
352.8144996526528
 30
0.0
 10
26.82035812867344
 20
352.6840924284597
 30
0.0
 10
26.82035812867342
 20
352.5511277652611
 30
0.0
 10
26.82035812867347
 20
352.4156057256372
 30
0.0
 10
26.82035812867347
 20
352.2775260827403
 30
0.0
 10
26.82035812867342
 20
352.1142211439993
 30
0.0
 10
26.82035812867345
 20
351.9243082381034
 30
0.0
 10
26.82035812867343
 20
351.7061363979061
 30
0.0
 10
26.82035812867343
 20
351.483026667333
 30
0.0
 10
26.82035812867347
 20
351.2549791302477
 30
0.0
 10
26.82035812867343
 20
351.0219938391676
 30
0.0
 10
26.82035812867345
 20
350.7840707512848
 30
0.0
 10
26.82035812867342
 20
350.5331119819212
 30
0.0
 10
26.82035812867345
 20
350.2685188655193
 30
0.0
 10
26.82035812867342
 20
349.9896863768096
 30
0.0
 10
26.82035812867345
 20
349.7048792062123
 30
0.0
 10
26.82035812867342
 20
349.4140973596427
 30
0.0
 10
26.82035812867344
 20
349.1265516542535
 30
0.0
 10
26.82035812867347
 20
348.8431626694866
 30
0.0
 10
26.82035812867342
 20
348.5647833043774
 30
0.0
 10
26.82035812867345
 20
348.2823893454432
 30
0.0
 10
26.82035812867345
 20
347.9959804840128
 30
0.0
 10
26.82035812867344
 20
347.7055567866788
 30
0.0
 10
26.82035812867344
 20
347.4111186333448
 30
0.0
 10
26.8203581286734
 20
347.143762237612
 30
0.0
 10
26.82035812867348
 20
346.9048318335714
 30
0.0
 10
26.82035812867345
 20
346.695434498399
 30
0.0
 10
26.82035812867345
 20
346.4841400436866
 30
0.0
 10
26.82035812867344
 20
346.2709483349296
 30
0.0
 10
26.8203581286734
 20
346.0558593949056
 30
0.0
 10
26.82035812867347
 20
345.8388733380654
 30
0.0
 10
26.82035812867342
 20
345.619989755443
 30
0.0
 10
26.82035812867347
 20
345.3507216816044
 30
0.0
 10
26.8203581286734
 20
345.0298518689541
 30
0.0
 10
26.82035812867347
 20
344.6558699087739
 30
0.0
 10
26.82035812867344
 20
344.2780589541448
 30
0.0
 10
26.82035812867345
 20
343.8964194563309
 30
0.0
 10
26.82035812867344
 20
343.5109516579129
 30
0.0
 10
26.82035812867345
 20
343.1372322261575
 30
0.0
 10
26.82035812867344
 20
342.7757901575978
 30
0.0
 10
26.8203581286734
 20
342.4270931547023
 30
0.0
 10
26.82035812867353
 20
342.1532694240027
 30
0.0
 10
26.8203581286734
 20
341.9560914927062
 30
0.0
 10
26.82035812867347
 20
341.8366865810985
 30
0.0
 10
26.82035812867343
 20
341.7169457032487
 30
0.0
 10
26.82035812867345
 20
341.596868754861
 30
0.0
 10
26.82035812867343
 20
341.476455800817
 30
0.0
 10
26.82035812867342
 20
341.3557066880914
 30
0.0
 10
26.82035812867343
 20
341.1496385753358
 30
0.0
 10
26.82035812867342
 20
340.8573890086009
 30
0.0
 10
26.82035812867347
 20
340.4775817219236
 30
0.0
 10
26.8203581286734
 20
340.0958128269805
 30
0.0
 10
26.82035812867344
 20
339.7120833126241
 30
0.0
 10
26.82035812867344
 20
339.3263929589536
 30
0.0
 10
26.82035812867344
 20
338.9387422690112
 30
0.0
 10
26.82035812867344
 20
338.5769765210652
 30
0.0
 10
26.82035812867343
 20
338.2415605689107
 30
0.0
 10
26.82035812867348
 20
337.932869795266
 30
0.0
 10
26.82035812867342
 20
337.6229690973568
 30
0.0
 10
26.82035812867343
 20
337.3118583368574
 30
0.0
 10
26.82035812867343
 20
337.0038104496946
 30
0.0
 10
26.82035812867343
 20
336.7008799969698
 30
0.0
 10
26.82035812867344
 20
336.363995136096
 30
0.0
 10
26.82035812867343
 20
335.9888689723966
 30
0.0
 10
26.82035812867345
 20
335.573484092227
 30
0.0
 10
26.82035812867342
 20
335.1573961165048
 30
0.0
 10
26.82035812867345
 20
334.7406057066194
 30
0.0
 10
26.82035812867343
 20
334.3255992256223
 30
0.0
 10
26.82035812867343
 20
333.9123927515726
 30
0.0
 10
26.82035812867345
 20
333.5009965488171
 30
0.0
 10
26.82035812867344
 20
333.0889231649682
 30
0.0
 10
26.82035812867343
 20
332.8139677433221
 30
0.0
 10
26.82035812867344
 20
332.6763985401381
 30
0.0
  0
SPLINE
  5
114
330
1F
100
AcDbEntity
  8
0
  6
Continuous
 62
     7
370
    30
100
AcDbSpline
210
0.0
220
0.0
230
1.0
 70
     8
 71
     3
 72
    21
 73
    17
 74
     0
 42
0.000000001
 43
0.00000001
 40
0.0
 40
0.0
 40
0.0
 40
0.0
 40
0.0628628988348127
 40
0.1596195129961908
 40
0.2806588344508149
 40
0.3509491484419657
 40
0.4213735980947214
 40
0.4916954528618672
 40
0.5618740496797382
 40
0.6321823352217557
 40
0.702655944066567
 40
0.7734280685193261
 40
0.8439723367310975
 40
0.9141914479706373
 40
0.9843150023672231
 40
1.0
 40
1.0
 40
1.0
 40
1.0
 10
28.73899323799548
 20
308.4409587883465
 30
0.0
 10
28.75404456662666
 20
308.4390403938727
 30
0.0
 10
28.79226243106799
 20
308.4341692664301
 30
0.0
 10
29.23969507815129
 20
308.55649517751
 30
0.0
 10
30.34698362375985
 20
308.7101905159503
 30
0.0
 10
31.52031497077017
 20
308.8394837375603
 30
0.0
 10
32.5802125527243
 20
308.9129421801861
 30
0.0
 10
33.69230543119418
 20
308.9444652871499
 30
0.0
 10
34.81117206695556
 20
308.9244608325556
 30
0.0
 10
35.88480068981711
 20
308.8595693817136
 30
0.0
 10
36.87083549974412
 20
308.7612934219773
 30
0.0
 10
37.71631746211236
 20
308.6468400063553
 30
0.0
 10
38.37803448941575
 20
308.5367814627289
 30
0.0
 10
38.79959880706672
 20
308.4590003890507
 30
0.0
 10
38.9933420715556
 20
308.4220288842865
 30
0.0
 10
38.9542002539985
 20
308.42945540956
 30
0.0
 10
38.94704549726148
 20
308.4308129086504
 30
0.0
  0
SPLINE
  5
115
330
1F
100
AcDbEntity
  8
0
  6
Continuous
 62
     7
370
    30
100
AcDbSpline
210
0.0
220
0.0
230
1.0
 70
     8
 71
     3
 72
    21
 73
    17
 74
     0
 42
0.000000001
 43
0.00000001
 40
0.0
 40
0.0
 40
0.0
 40
0.0
 40
0.0629347384540661
 40
0.1596938323351091
 40
0.2812989632529184
 40
0.3516686612351745
 40
0.421946300913907
 40
0.4918062864171406
 40
0.5622045221535678
 40
0.632558801151699
 40
0.7029351196678704
 40
0.7734349041718317
 40
0.8436630557828626
 40
0.9141762611140135
 40
0.9843808298431115
 40
1.0
 40
1.0
 40
1.0
 40
1.0
 10
39.31392619555586
 20
308.4376532070736
 30
0.0
 10
39.32588399738627
 20
308.436174136971
 30
0.0
 10
39.35622633688764
 20
308.4324210686534
 30
0.0
 10
39.71923400894008
 20
308.5274728514735
 30
0.0
 10
40.67181615509139
 20
308.6507023191871
 30
0.0
 10
41.70022858156026
 20
308.7537995217447
 30
0.0
 10
42.63144372592446
 20
308.8107562284933
 30
0.0
 10
43.60935565623026
 20
308.8331862672161
 30
0.0
 10
44.59066782410712
 20
308.8145073066124
 30
0.0
 10
45.53034060757167
 20
308.7615631173808
 30
0.0
 10
46.39072537116045
 20
308.6844859058919
 30
0.0
 10
47.13103887723042
 20
308.5963952842553
 30
0.0
 10
47.71250337067264
 20
308.5115667061125
 30
0.0
 10
48.08877291547805
 20
308.45162967441
 30
0.0
 10
48.26602220455308
 20
308.4230172457727
 30
0.0
 10
48.23059239967235
 20
308.4287464198051
 30
0.0
 10
48.22414448493171
 20
308.4297890793912
 30
0.0
  0
LINE
  5
116
330
1F
100
AcDbEntity
  8
0
  6
Continuous
 62
     7
370
    30
100
AcDbLine
 10
30.1703581287
 20
263.8263985401
 30
0.0
 11
37.4703581287
 21
263.8263985401
 31
0.0
  0
LINE
  5
117
330
1F
100
AcDbEntity
  8
0
  6
Continuous
 62
     7
370
    30
100
AcDbLine
 10
69.6624317063
 20
305.7403655861
 30
0.0
 11
90.6174317063
 21
305.7403655861
 31
0.0
  0
LINE
  5
118
330
1F
100
AcDbEntity
  8
0
  6
Continuous
 62
     7
370
    30
100
AcDbLine
 10
70.8244317063
 20
305.0564941922
 30
0.0
 11
89.4554317063
 21
305.0564941922
 31
0.0
  0
SPLINE
  5
119
330
1F
100
AcDbEntity
  8
0
  6
Continuous
 62
     7
370
    30
100
AcDbSpline
210
0.0
220
0.0
230
1.0
 70
     8
 71
     3
 72
     9
 73
     5
 74
     0
 42
0.000000001
 43
0.00000001
 40
0.0
 40
0.0
 40
0.0
 40
0.0
 40
0.4659379938503482
 40
1.0
 40
1.0
 40
1.0
 40
1.0
 10
39.78286164151368
 20
308.4809174046611
 30
0.0
 10
39.81260431497099
 20
308.4918983192945
 30
0.0
 10
39.87643828826759
 20
308.5154656496653
 30
0.0
 10
39.9758434507736
 20
308.5422773933126
 30
0.0
 10
40.02893197128319
 20
308.5565965269133
 30
0.0
  0
LINE
  5
11A
330
1F
100
AcDbEntity
  8
0
  6
Continuous
 62
     7
370
    30
100
AcDbLine
 10
40.4692374505
 20
308.3184677807
 30
0.0
 11
40.4645408044
 21
308.3184333402
 31
0.0
  0
ELLIPSE
  5
11B
330
1F
100
AcDbEntity
  8
0
  6
Continuous
 62
     7
370
    30
100
AcDbEllipse
 10
40.5604767317
 20
332.5682955942
 30
0.0
 11
-6.207723730426501
 21
24.25306178488739
 31
0.0
210
0.0
220
0.0
230
1.0
 40
0.1037558022
 41
3.114833631741849
 42
3.117983768658228
  0
LINE
  5
11C
330
1F
100
AcDbEntity
  8
0
  6
Continuous
 62
     7
370
    30
100
AcDbLine
 10
125.1812442114
 20
295.1763985402
 30
0.0
 11
125.1812442114
 21
297.1760939304
 31
0.0
  0
LINE
  5
11D
330
1F
100
AcDbEntity
  8
0
  6
Continuous
 62
     7
370
    30
100
AcDbLine
 10
114.5625705872
 20
295.3617481777
 30
0.0
 11
125.1812442114
 21
295.1763985401
 31
0.0
  0
LINE
  5
11E
330
1F
100
AcDbEntity
  8
0
  6
Continuous
 62
     7
370
    30
100
AcDbLine
 10
125.1812442114
 20
370.176398515
 30
0.0
 11
114.5625705925
 21
369.9910488776
 31
0.0
  0
LINE
  5
11F
330
1F
100
AcDbEntity
  8
0
  6
Continuous
 62
     7
370
    30
100
AcDbLine
 10
125.1812442114
 20
370.1763985151
 30
0.0
 11
125.1812442114
 21
368.1767031247
 31
0.0
  0
LINE
  5
120
330
1F
100
AcDbEntity
  8
0
  6
Continuous
 62
     7
370
    30
100
AcDbLine
 10
125.1812442114
 20
368.1767031247
 30
0.0
 11
125.1812442114
 21
297.1760939304
 31
0.0
  0
SPLINE
  5
121
330
1F
100
AcDbEntity
  8
0
  6
Continuous
 62
     7
370
    30
100
AcDbSpline
210
0.0
220
0.0
230
1.0
 70
     8
 71
     3
 72
    22
 73
    18
 74
     0
 42
0.000000001
 43
0.00000001
 40
0.0
 40
0.0
 40
0.0
 40
0.0
 40
0.0764445386772509
 40
0.1510278740469349
 40
0.2237498474289536
 40
0.2946103042157512
 40
0.3636090938818745
 40
0.4307460699948056
 40
0.4960210902272854
 40
0.5594340163713923
 40
0.6410632869027262
 40
0.719384483907062
 40
0.7943970824075668
 40
0.8661005805553322
 40
0.9344944997740107
 40
0.9995783849402314
 40
1.0
 40
1.0
 40
1.0
 40
1.0
 10
113.4742527866863
 20
332.6763985401383
 30
0.0
 10
113.4742210720746
 20
331.6796705486995
 30
0.0
 10
113.47415841501
 20
329.71048200816
 30
0.0
 10
113.473636892116
 20
326.8347166502306
 30
0.0
 10
113.4727997663016
 20
324.1082254747318
 30
0.0
 10
113.471618471248
 20
321.5593202043318
 30
0.0
 10
113.4701003793619
 20
319.2099128464672
 30
0.0
 10
113.4682436870985
 20
317.0758810329216
 30
0.0
 10
113.4660486454677
 20
315.1674236305719
 30
0.0
 10
113.4632488005802
 20
313.3127807498724
 30
0.0
 10
113.4596923757965
 20
311.5980556841261
 30
0.0
 10
113.4552012999717
 20
310.1198993713961
 30
0.0
 10
113.4500819397868
 20
309.0263016149787
 30
0.0
 10
113.4444592844186
 20
308.2803280794674
 30
0.0
 10
113.4378998550284
 20
307.8830160589385
 30
0.0
 10
113.4337913027065
 20
307.7439546455279
 30
0.0
 10
113.4308800183228
 20
307.7768229253694
 30
0.0
 10
113.4308612803338
 20
307.7770344764868
 30
0.0
  0
SPLINE
  5
122
330
1F
100
AcDbEntity
  8
0
  6
Continuous
 62
     7
370
    30
100
AcDbSpline
210
0.0
220
0.0
230
1.0
 70
     8
 71
     3
 72
     9
 73
     5
 74
     0
 42
0.000000001
 43
0.00000001
 40
0.0
 40
0.0
 40
0.0
 40
0.0
 40
0.1990539880334238
 40
1.0
 40
1.0
 40
1.0
 40
1.0
 10
113.425648712277
 20
307.835535421966
 30
0.0
 10
113.4252147287753
 20
307.8394887872058
 30
0.0
 10
113.4230344986476
 20
307.8593495560293
 30
0.0
 10
113.4199785786674
 20
307.9584878966548
 30
0.0
 10
113.4175309517464
 20
308.037892355212
 30
0.0
  0
SPLINE
  5
123
330
1F
100
AcDbEntity
  8
0
  6
Continuous
 62
     7
370
    30
100
AcDbSpline
210
0.0
220
0.0
230
1.0
 70
     8
 71
     3
 72
    21
 73
    17
 74
     0
 42
0.000000001
 43
0.00000001
 40
0.0
 40
0.0
 40
0.0
 40
0.0
 40
0.0764733479751478
 40
0.1529467017991089
 40
0.2294200673644083
 40
0.305893450563571
 40
0.3823668572891172
 40
0.4588402934335615
 40
0.5353137648894117
 40
0.6117872775491672
 40
0.6882608373053173
 40
0.7647344500503435
 40
0.8412081216767112
 40
0.9176818580768745
 40
0.9941556651432711
 40
1.0
 40
1.0
 40
1.0
 40
1.0
 10
113.4742527866863
 20
332.6763985401382
 30
0.0
 10
113.4741657881856
 20
333.7628642492471
 30
0.0
 10
113.4739917911775
 20
335.9357957505595
 30
0.0
 10
113.472584423533
 20
339.1394236844179
 30
0.0
 10
113.4703378540739
 20
342.232467776121
 30
0.0
 10
113.4671697736819
 20
345.1620036519882
 30
0.0
 10
113.4631022484681
 20
347.8779118442478
 30
0.0
 10
113.4581293231263
 20
350.3337011052479
 30
0.0
 10
113.4522527527627
 20
352.4874316972352
 30
0.0
 10
113.4454714722606
 20
354.3019559900949
 30
0.0
 10
113.4377879869819
 20
355.7473342688095
 30
0.0
 10
113.4291933405878
 20
356.7947032025037
 30
0.0
 10
113.4197208531063
 20
357.4415647588613
 30
0.0
 10
113.4092462006206
 20
357.6192924322118
 30
0.0
 10
113.4016237663411
 20
357.5641734370762
 30
0.0
 10
113.3972339529957
 20
357.3313449113613
 30
0.0
 10
113.3969222897517
 20
357.3148148022422
 30
0.0
  0
SPLINE
  5
124
330
1F
100
AcDbEntity
  8
0
  6
Continuous
 62
     7
370
    30
100
AcDbSpline
210
0.0
220
0.0
230
1.0
 70
     8
 71
     3
 72
    11
 73
     7
 74
     0
 42
0.000000001
 43
0.00000001
 40
0.0
 40
0.0
 40
0.0
 40
0.0
 40
0.3246966978086808
 40
0.6493931681371216
 40
0.9740895582426662
 40
0.9999999999999999
 40
0.9999999999999999
 40
0.9999999999999999
 40
0.9999999999999999
 10
113.5563633112816
 20
369.0114646652383
 30
0.0
 10
113.5311167824465
 20
367.7455506021187
 30
0.0
 10
113.4806237424639
 20
365.2137233627699
 30
0.0
 10
113.4157785032196
 20
361.4157821343449
 30
0.0
 10
113.3737254762216
 20
358.7827460135872
 30
0.0
 10
113.3558819495461
 20
357.4156599616373
 30
0.0
 10
113.3545632825474
 20
357.3146299750335
 30
0.0
  0
SPLINE
  5
125
330
1F
100
AcDbEntity
  8
0
  6
Continuous
 62
     7
370
    30
100
AcDbSpline
210
0.0
220
0.0
230
1.0
 70
     8
 71
     3
 72
    11
 73
     7
 74
     0
 42
0.000000001
 43
0.00000001
 40
0.0
 40
0.0
 40
0.0
 40
0.0
 40
0.0979725010999557
 40
0.3986482093791582
 40
0.6993240019707839
 40
1.0
 40
1.0
 40
1.0
 40
1.0
 10
113.3550284099464
 20
308.0381650757287
 30
0.0
 10
113.3601708940395
 20
307.6561530285705
 30
0.0
 10
113.3810955622113
 20
306.1017534077472
 30
0.0
 10
113.4249726410469
 20
303.3750686584733
 30
0.0
 10
113.4861207166839
 20
299.8581159376034
 30
0.0
 10
113.5329490569498
 20
297.5135938499434
 30
0.0
 10
113.5563632350816
 20
296.3413324056382
 30
0.0
  0
SPLINE
  5
126
330
1F
100
AcDbEntity
  8
0
  6
Continuous
 62
     7
370
    30
100
AcDbSpline
210
0.0
220
0.0
230
1.0
 70
     8
 71
     3
 72
    26
 73
    22
 74
     0
 42
0.000000001
 43
0.00000001
 40
0.0
 40
0.0
 40
0.0
 40
0.0
 40
0.0522586350663404
 40
0.1045241995516295
 40
0.1567918084973508
 40
0.2090594767529753
 40
0.2613268642515027
 40
0.3135943487663226
 40
0.3628771045750998
 40
0.4121605808811417
 40
0.4614447066198327
 40
0.5107291693465688
 40
0.5600135350594208
 40
0.6150146002433854
 40
0.6700147689459086
 40
0.7250141807742254
 40
0.780013336169658
 40
0.8350127472108471
 40
0.890012228384914
 40
0.9450097750395913
 40
1.0
 40
1.0
 40
1.0
 40
1.0
 10
114.5391095725816
 20
295.3621576912382
 30
0.0
 10
114.5124255459202
 20
295.3632395783636
 30
0.0
 10
114.4590539543343
 20
295.3654034960709
 30
0.0
 10
114.3796471564916
 20
295.3767487416976
 30
0.0
 10
114.3013617172414
 20
295.3939570813415
 30
0.0
 10
114.2247151249827
 20
295.4175038948156
 30
0.0
 10
114.1501988845522
 20
295.4470821218607
 30
0.0
 10
114.0796596521244
 20
295.4818678185745
 30
0.0
 10
114.0133604162736
 20
295.5212471370131
 30
0.0
 10
113.951469528757
 20
295.5646421798614
 30
0.0
 10
113.8930276449151
 20
295.6125818135607
 30
0.0
 10
113.8383663645617
 20
295.6647925811907
 30
0.0
 10
113.7858432590377
 20
295.7231469379757
 30
0.0
 10
113.7363538039274
 20
295.7878443206867
 30
0.0
 10
113.6909142768454
 20
295.8589387062764
 30
0.0
 10
113.6516210414894
 20
295.9336070948331
 30
0.0
 10
113.618769203061
 20
296.0113204530379
 30
0.0
 10
113.5925480019321
 20
296.0915262825403
 30
0.0
 10
113.5733167430114
 20
296.1736562686248
 30
0.0
 10
113.5605639177261
 20
296.257108046446
 30
0.0
 10
113.5580383101213
 20
296.3132620115314
 30
0.0
 10
113.5567755903816
 20
296.3413371250383
 30
0.0
  0
SPLINE
  5
127
330
1F
100
AcDbEntity
  8
0
  6
Continuous
 62
     7
370
    30
100
AcDbSpline
210
0.0
220
0.0
230
1.0
 70
    24
 71
     3
 72
    11
 73
     7
 74
     0
 42
0.000000001
 43
0.00000001
 40
0.0
 40
0.0
 40
0.0
 40
0.0
 40
0.2800000026186612
 40
0.5599999996412158
 40
0.7799999978410804
 40
1.0
 40
1.0
 40
1.0
 40
1.0
 10
114.5391095725816
 20
295.3621576912383
 30
0.0
 10
114.5394484751502
 20
295.362151775677
 30
0.0
 10
114.5401262802806
 20
295.3621399445545
 30
0.0
 10
114.5454896047206
 20
295.362046327371
 30
0.0
 10
114.5528685189173
 20
295.3619175279265
 30
0.0
 10
114.5593365654075
 20
295.3618046277347
 30
0.0
 10
114.5625705886816
 20
295.3617481776383
 30
0.0
  0
SPLINE
  5
128
330
1F
100
AcDbEntity
  8
0
  6
Continuous
 62
     7
370
    30
100
AcDbSpline
210
0.0
220
0.0
230
1.0
 70
     8
 71
     3
 72
    26
 73
    22
 74
     0
 42
0.000000001
 43
0.00000001
 40
0.0
 40
0.0
 40
0.0
 40
0.0
 40
0.0522586350515434
 40
0.1045241995250907
 40
0.1567918084625131
 40
0.2090594767133274
 40
0.2613268642103412
 40
0.3135943487265653
 40
0.3628771045388938
 40
0.4121605808501843
 40
0.4614447065953457
 40
0.5107291693293008
 40
0.5600135350496787
 40
0.6150146002418699
 40
0.6700147689518876
 40
0.7250141807863821
 40
0.7800133361861005
 40
0.8350127472290272
 40
0.8900122284015461
 40
0.9450097750505256
 40
1.0
 40
1.0
 40
1.0
 40
1.0
 10
114.5391096486816
 20
369.9906393776384
 30
0.0
 10
114.512425622063
 20
369.9895574905222
 30
0.0
 10
114.4590540305609
 20
369.9873935728332
 30
0.0
 10
114.3796472328386
 20
369.9760483272433
 30
0.0
 10
114.3013617937005
 20
369.9588399876452
 30
0.0
 10
114.2247152015438
 20
369.9352931742277
 30
0.0
 10
114.1501989612039
 20
369.9057149472505
 30
0.0
 10
114.0796597288525
 20
369.8709292506147
 30
0.0
 10
114.0133604930634
 20
369.8315499322634
 30
0.0
 10
113.9514696055935
 20
369.7881548895101
 30
0.0
 10
113.893027721784
 20
369.740215255915
 30
0.0
 10
113.8383664414477
 20
369.6880044883971
 30
0.0
 10
113.785843335925
 20
369.629650131736
 30
0.0
 10
113.7363538807969
 20
369.5649527491602
 30
0.0
 10
113.6909143536749
 20
369.4938583637164
 30
0.0
 10
113.6516211182567
 20
369.4191899753092
 30
0.0
 10
113.6187692797431
 20
369.3414766172559
 30
0.0
 10
113.5925480785057
 20
369.2612707879049
 30
0.0
 10
113.5733168194524
 20
369.1791408019698
 30
0.0
 10
113.560563994012
 20
369.0956890242957
 30
0.0
 10
113.5580383862833
 20
369.0395350592994
 30
0.0
 10
113.5567756664816
 20
369.0114599458383
 30
0.0
  0
SPLINE
  5
129
330
1F
100
AcDbEntity
  8
0
  6
Continuous
 62
     7
370
    30
100
AcDbSpline
210
0.0
220
0.0
230
1.0
 70
     8
 71
     3
 72
    11
 73
     7
 74
     0
 42
0.000000001
 43
0.00000001
 40
0.0
 40
0.0
 40
0.0
 40
0.0
 40
0.2800000018163118
 40
0.5599999986605882
 40
0.7799999971581548
 40
1.0
 40
1.0
 40
1.0
 40
1.0
 10
114.5625705924816
 20
369.9910488776383
 30
0.0
 10
114.5585301177849
 20
369.9909783520405
 30
0.0
 10
114.5504491684632
 20
369.990837300846
 30
0.0
 10
114.543612785409
 20
369.9907179745342
 30
0.0
 10
114.5397304238166
 20
369.9906502106095
 30
0.0
 10
114.539316573728
 20
369.9906429886288
 30
0.0
 10
114.5391096486816
 20
369.9906393776384
 30
0.0
  0
ARC
  5
12A
330
1F
100
AcDbEntity
  8
0
  6
Continuous
 62
     7
370
    30
100
AcDbCircle
 10
323.2499999996
 20
112.8203581287
 30
0.0
 40
1.0
100
AcDbArc
 50
180.0
 51
270.0
  0
ARC
  5
12B
330
1F
100
AcDbEntity
  8
0
  6
Continuous
 62
     7
370
    30
100
AcDbCircle
 10
369.7499999996
 20
112.8203581287
 30
0.0
 40
1.0
100
AcDbArc
 50
270.0
 51
0.0
  0
ARC
  5
12C
330
1F
100
AcDbEntity
  8
0
  6
Continuous
 62
     7
370
    30
100
AcDbCircle
 10
322.7499999996
 20
138.1203581287
 30
0.0
 40
0.5000000000000042
100
AcDbArc
 50
104.3762133731
 51
180.0
  0
ARC
  5
12D
330
1F
100
AcDbEntity
  8
0
  6
Continuous
 62
     7
370
    30
100
AcDbCircle
 10
370.2499999996
 20
138.1203581287
 30
0.0
 40
0.5000000000000042
100
AcDbArc
 50
0.0
 51
75.6237866269
  0
LINE
  5
12E
330
1F
100
AcDbEntity
  8
0
  6
Continuous
 62
     7
370
    30
100
AcDbLine
 10
322.2499999996
 20
138.1203581287
 30
0.0
 11
322.2499999996
 21
112.8203581287
 31
0.0
  0
LINE
  5
12F
330
1F
100
AcDbEntity
  8
0
  6
Continuous
 62
     7
370
    30
100
AcDbLine
 10
370.7499999996
 20
112.8203581287
 30
0.0
 11
370.7499999996
 21
138.1203581287
 31
0.0
  0
ARC
  5
130
330
1F
100
AcDbEntity
  8
0
  6
Continuous
 62
     7
370
    30
100
AcDbCircle
 10
322.6755136735
 20
138.4109640254
 30
0.0
 40
0.2000000000004075
100
AcDbArc
 50
90.0
 51
104.3762133726
  0
ARC
  5
131
330
1F
100
AcDbEntity
  8
0
  6
Continuous
 62
     7
370
    30
100
AcDbCircle
 10
370.3244863257
 20
138.4109640254
 30
0.0
 40
0.2000000000004216
100
AcDbArc
 50
75.6237866274
 51
90.0
  0
LINE
  5
132
330
1F
100
AcDbEntity
  8
0
  6
Continuous
 62
     7
370
    30
100
AcDbLine
 10
370.3244863257
 20
138.6109640254
 30
0.0
 11
322.6755136735
 21
138.6109640254
 31
0.0
  0
LINE
  5
133
330
1F
100
AcDbEntity
  8
0
  6
Continuous
 62
     7
370
    30
100
AcDbLine
 10
231.5
 20
198.1399317063
 30
0.0
 11
231.5
 21
151.1399317063
 31
0.0
  0
LINE
  5
134
330
1F
100
AcDbEntity
  8
0
  6
Continuous
 62
     7
370
    30
100
AcDbLine
 10
261.5
 20
151.1399317063
 30
0.0
 11
261.5
 21
198.1399317063
 31
0.0
  0
ARC
  5
135
330
1F
100
AcDbEntity
  8
0
  6
Continuous
 62
     7
370
    30
100
AcDbCircle
 10
232.5
 20
151.1399317063
 30
0.0
 40
1.0
100
AcDbArc
 50
180.0
 51
270.0
  0
ARC
  5
136
330
1F
100
AcDbEntity
  8
0
  6
Continuous
 62
     7
370
    30
100
AcDbCircle
 10
260.5
 20
151.1399317063
 30
0.0
 40
1.0
100
AcDbArc
 50
270.0
 51
0.0
  0
LINE
  5
137
330
1F
100
AcDbEntity
  8
0
  6
Continuous
 62
     7
370
    30
100
AcDbLine
 10
233.5
 20
198.3840163378
 30
0.0
 11
233.5
 21
198.1399317063
 31
0.0
  0
LINE
  5
138
330
1F
100
AcDbEntity
  8
0
  6
Continuous
 62
     7
370
    30
100
AcDbLine
 10
259.5
 20
198.1399317063
 30
0.0
 11
259.5
 21
198.2572128716
 31
0.0
  0
SPLINE
  5
139
330
1F
100
AcDbEntity
  8
0
  6
Continuous
 62
     7
370
    30
100
AcDbSpline
210
0.0
220
0.0
230
1.0
 70
     8
 71
     3
 72
    12
 73
     8
 74
     0
 42
0.000000001
 43
0.00000001
 40
0.0
 40
0.0
 40
0.0
 40
0.0
 40
0.1715855455565972
 40
0.3786888685310489
 40
0.5857922970878635
 40
0.7928959634900097
 40
1.0
 40
1.0
 40
1.0
 40
1.0
 10
259.6000015954786
 20
198.2525536923904
 30
0.0
 10
261.7104942459508
 20
198.2446400619056
 30
0.0
 10
266.3683462302652
 20
198.2271746992812
 30
0.0
 10
273.5735835843153
 20
198.2074801830337
 30
0.0
 10
281.2157055294475
 20
198.192168150901
 30
0.0
 10
288.8578466674923
 20
198.1826976096073
 30
0.0
 10
293.9526140383848
 20
198.1815174845201
 30
0.0
 10
296.4999999999999
 20
198.1809274214493
 30
0.0
  0
SPLINE
  5
13A
330
1F
100
AcDbEntity
  8
0
  6
Continuous
 62
     7
370
    30
100
AcDbSpline
210
0.0
220
0.0
230
1.0
 70
     8
 71
     3
 72
    10
 73
     6
 74
     0
 42
0.000000001
 43
0.00000001
 40
0.0
 40
0.0
 40
0.0
 40
0.0
 40
0.3267021383483871
 40
0.6757054809362265
 40
1.0
 40
1.0
 40
1.0
 40
1.0
 10
210.176344998324
 20
198.5707582314915
 30
0.0
 10
212.7053972343206
 20
198.5484513488052
 30
0.0
 10
217.9361388085145
 20
198.5023148803696
 30
0.0
 10
225.6773615169734
 20
198.4418498211943
 30
0.0
 10
230.8895475671365
 20
198.4064065995509
 30
0.0
 10
233.400001653924
 20
198.3893353400511
 30
0.0
  0
SPLINE
  5
13B
330
1F
100
AcDbEntity
  8
0
  6
Continuous
 62
     7
370
    30
100
AcDbSpline
210
0.0
220
0.0
230
1.0
 70
     8
 71
     3
 72
     9
 73
     5
 74
     0
 42
0.000000001
 43
0.00000001
 40
0.0
 40
0.0
 40
0.0
 40
0.0
 40
0.3763789801395663
 40
0.9999999999999999
 40
0.9999999999999999
 40
0.9999999999999999
 40
0.9999999999999999
 10
371.3999941444189
 20
198.475004172824
 30
0.0
 10
372.8332104658567
 20
198.4860860945904
 30
0.0
 10
376.6411179130432
 20
198.5155296138919
 30
0.0
 10
380.4489875564866
 20
198.5495375962925
 30
0.0
 10
382.8236551070264
 20
198.5707456889607
 30
0.0
  0
SPLINE
  5
13C
330
1F
100
AcDbEntity
  8
0
  6
Continuous
 62
     7
370
    30
100
AcDbSpline
210
0.0
220
0.0
230
1.0
 70
     8
 71
     3
 72
    11
 73
     7
 74
     0
 42
0.000000001
 43
0.00000001
 40
0.0
 40
0.0
 40
0.0
 40
0.0
 40
0.3229206850300234
 40
0.6458407712621335
 40
0.9687604906773579
 40
1.0
 40
1.0
 40
1.0
 40
1.0
 10
296.4999999999999
 20
198.1809274214493
 30
0.0
 10
299.2017729419849
 20
198.1815510229796
 30
0.0
 10
304.6053138160063
 20
198.182798224884
 30
0.0
 10
312.7106118326272
 20
198.1940537657194
 30
0.0
 10
318.3755072698344
 20
198.2044925039116
 30
0.0
 10
321.3386294915589
 20
198.2133835621117
 30
0.0
 10
321.5999991715178
 20
198.2141678203577
 30
0.0
  0
SPLINE
  5
13D
330
1F
100
AcDbEntity
  8
0
  6
Continuous
 62
     7
370
    30
100
AcDbSpline
210
0.0
220
0.0
230
1.0
 70
     8
 71
     3
 72
    32
 73
    28
 74
     0
 42
0.000000001
 43
0.00000001
 40
0.0
 40
0.0
 40
0.0
 40
0.0
 40
0.0384817746798009
 40
0.0793613095923597
 40
0.1180862891091945
 40
0.1557015034271244
 40
0.1922123413647348
 40
0.2365057007996475
 40
0.2805042794236804
 40
0.3244038631011632
 40
0.3682047250630212
 40
0.3931927192903553
 40
0.4188327094554457
 40
0.447759096342471
 40
0.4802324170557486
 40
0.5162523509781588
 40
0.5558184459930519
 40
0.5989301311603041
 40
0.6395629031594824
 40
0.6829098840382133
 40
0.7289709397586639
 40
0.7777461494091785
 40
0.8187244851883191
 40
0.86144042774828
 40
0.905893368514903
 40
0.9520813862060148
 40
0.9999999999999999
 40
0.9999999999999999
 40
0.9999999999999999
 40
0.9999999999999999
 10
209.1857032128314
 20
199.5541438993626
 30
0.0
 10
209.1862823722361
 20
199.5343255592365
 30
0.0
 10
209.1874767778789
 20
199.4934540183721
 30
0.0
 10
209.1942804024228
 20
199.4329487699518
 30
0.0
 10
209.2043539740845
 20
199.3733953844335
 30
0.0
 10
209.2175065533638
 20
199.3167407454207
 30
0.0
 10
209.2346658961017
 20
199.2581810183374
 30
0.0
 10
209.2565834777369
 20
199.1976971710341
 30
0.0
 10
209.284113477762
 20
199.135368502487
 30
0.0
 10
209.3156947871596
 20
199.0752789732784
 30
0.0
 10
209.3461403378708
 20
199.0258086109774
 30
0.0
 10
209.3738017752657
 20
198.9857922665035
 30
0.0
 10
209.3984071962124
 20
198.9530142590204
 30
0.0
 10
209.4268163639727
 20
198.9183157947732
 30
0.0
 10
209.4604210814003
 20
198.8810264568807
 30
0.0
 10
209.4998338121404
 20
198.8416886594753
 30
0.0
 10
209.5455776754792
 20
198.80107239201
 30
0.0
 10
209.5957014307413
 20
198.7619899905396
 30
0.0
 10
209.6498512964496
 20
198.7251370161136
 30
0.0
 10
209.7075928120787
 20
198.6910966951449
 30
0.0
 10
209.771306294075
 20
198.6592463606965
 30
0.0
 10
209.8360631089095
 20
198.6326091982776
 30
0.0
 10
209.9008527939882
 20
198.6110863844606
 30
0.0
 10
209.964750264005
 20
198.5943388736678
 30
0.0
 10
210.0322712998916
 20
198.5815226928632
 30
0.0
 10
210.1031930486806
 20
198.5727773816392
 30
0.0
 10
210.1516629045061
 20
198.571308945154
 30
0.0
 10
210.1763435063436
 20
198.5705612248317
 30
0.0
  0
SPLINE
  5
13E
330
1F
100
AcDbEntity
  8
0
  6
Continuous
 62
     7
370
    30
100
AcDbSpline
210
0.0
220
0.0
230
1.0
 70
     8
 71
     3
 72
    36
 73
    32
 74
     0
 42
0.000000001
 43
0.00000001
 40
0.0
 40
0.0
 40
0.0
 40
0.0
 40
0.0437437872660784
 40
0.0857045357400505
 40
0.1258784828235776
 40
0.1642638700549282
 40
0.2008600163047074
 40
0.2440859502798471
 40
0.2845165426506451
 40
0.3221518366093394
 40
0.3569917743934976
 40
0.3933846249460669
 40
0.4261261457972422
 40
0.4552605569995625
 40
0.4833049252982672
 40
0.511712898297597
 40
0.5404843838650712
 40
0.5696192878852963
 40
0.6214702686069333
 40
0.6744331022010168
 40
0.7276390663359061
 40
0.7782937974702084
 40
0.8000952126206546
 40
0.8213418778702584
 40
0.8420337754027071
 40
0.8621708940135113
 40
0.8839083382892694
 40
0.9088795111058595
 40
0.9374391219683408
 40
0.9695855805520164
 40
1.0
 40
1.0
 40
1.0
 40
1.0
 10
382.823656495222
 20
198.5705612249724
 30
0.0
 10
382.8461868532423
 20
198.5712018239633
 30
0.0
 10
382.8903292102459
 20
198.5724569105148
 30
0.0
 10
382.9548237251339
 20
198.579750883897
 30
0.0
 10
383.0160194940261
 20
198.5903420572804
 30
0.0
 10
383.0737621619135
 20
198.6040656986051
 30
0.0
 10
383.132115312088
 20
198.6215437916701
 30
0.0
 10
383.1902827597243
 20
198.642964536236
 30
0.0
 10
383.2474254993951
 20
198.6683141805089
 30
0.0
 10
383.2990932515231
 20
198.6950753729123
 30
0.0
 10
383.3473856661331
 20
198.7236254903029
 30
0.0
 10
383.3919405283444
 20
198.7533902075475
 30
0.0
 10
383.4324841940857
 20
198.7837256016578
 30
0.0
 10
383.4682121687584
 20
198.8132214084434
 30
0.0
 10
383.5009454735027
 20
198.8427684322566
 30
0.0
 10
383.5322274050905
 20
198.8735824424816
 30
0.0
 10
383.5625022143947
 20
198.9061592738835
 30
0.0
 10
383.5991083170228
 20
198.9492606939747
 30
0.0
 10
383.6404433545096
 20
199.004598635541
 30
0.0
 10
383.6837628727193
 20
199.0736090078902
 30
0.0
 10
383.7209963162047
 20
199.1453914340547
 30
0.0
 10
383.7461189609349
 20
199.2051193768346
 30
0.0
 10
383.7623123136726
 20
199.2505921267433
 30
0.0
 10
383.7722924558232
 20
199.281875213258
 30
0.0
 10
383.7810183945077
 20
199.3126399785427
 30
0.0
 10
383.7888306189593
 20
199.3439099161512
 30
0.0
 10
383.7960887971435
 20
199.3775721947
 30
0.0
 10
383.8029004263626
 20
199.4157483779961
 30
0.0
 10
383.8087958194262
 20
199.4594914635616
 30
0.0
 10
383.8131121173671
 20
199.5062578282084
 30
0.0
 10
383.8139427914144
 20
199.5384771626132
 30
0.0
 10
383.8143466295589
 20
199.5541408230629
 30
0.0
  0
LINE
  5
13F
330
1F
100
AcDbEntity
  8
0
  6
Continuous
 62
     7
370
    30
100
AcDbLine
 10
321.8622822294
 20
198.2368407472
 30
0.0
 11
322.1133347511
 21
140.7002061026
 31
0.0
  0
LINE
  5
140
330
1F
100
AcDbEntity
  8
0
  6
Continuous
 62
     7
370
    30
100
AcDbLine
 10
370.8866652481
 20
140.7002061026
 30
0.0
 11
371.1387512615
 21
198.4736980899
 31
0.0
  0
ARC
  5
141
330
1F
100
AcDbEntity
  8
0
  6
Continuous
 62
     7
370
    30
100
AcDbCircle
 10
323.1133252322
 20
140.7045694119
 30
0.0
 40
1.000000000000021
100
AcDbArc
 50
180.25
 51
211.4024765725
  0
ARC
  5
142
330
1F
100
AcDbEntity
  8
0
  6
Continuous
 62
     7
370
    30
100
AcDbCircle
 10
369.886674767
 20
140.7045694119
 30
0.0
 40
1.000000000000021
100
AcDbArc
 50
328.5975234275
 51
359.75
  0
ARC
  5
143
330
1F
100
AcDbEntity
  8
0
  6
Continuous
 62
     7
370
    30
100
AcDbCircle
 10
346.4999999996
 20
154.9812442114
 30
0.0
 40
28.40000000000006
100
AcDbArc
 50
324.800981616
 51
328.5975234275
  0
ARC
  5
144
330
1F
100
AcDbEntity
  8
0
  6
Continuous
 62
     7
370
    30
100
AcDbCircle
 10
346.4999999996
 20
154.9812442114
 30
0.0
 40
28.40000000000006
100
AcDbArc
 50
211.4024765725
 51
215.199018384
  0
LINE
  5
145
330
1F
100
AcDbEntity
  8
0
  6
Continuous
 62
     7
370
    30
100
AcDbLine
 10
323.2499999996
 20
111.8203581287
 30
0.0
 11
369.7499999996
 21
111.8203581287
 31
0.0
  0
LINE
  5
146
330
1F
100
AcDbEntity
  8
0
  6
Continuous
 62
     7
370
    30
100
AcDbLine
 10
246.5
 20
198.1399317063
 30
0.0
 11
261.5
 21
198.1399317063
 31
0.0
  0
LINE
  5
147
330
1F
100
AcDbEntity
  8
0
  6
Continuous
 62
     7
370
    30
100
AcDbLine
 10
231.5
 20
198.1399317063
 30
0.0
 11
246.5
 21
198.1399317063
 31
0.0
  0
LINE
  5
148
330
1F
100
AcDbEntity
  8
0
  6
Continuous
 62
     7
370
    30
100
AcDbLine
 10
246.5
 20
150.1399317063
 30
0.0
 11
260.5
 21
150.1399317063
 31
0.0
  0
LINE
  5
149
330
1F
100
AcDbEntity
  8
0
  6
Continuous
 62
     7
370
    30
100
AcDbLine
 10
232.5
 20
150.1399317063
 30
0.0
 11
246.5
 21
150.1399317063
 31
0.0
  0
LINE
  5
14A
330
1F
100
AcDbEntity
  8
0
  6
Continuous
 62
     7
370
    30
100
AcDbLine
 10
382.00030461
 20
210.1812442114
 30
0.0
 11
210.999695391
 21
210.1812442114
 31
0.0
  0
LINE
  5
14B
330
1F
100
AcDbEntity
  8
0
  6
Continuous
 62
     7
370
    30
100
AcDbLine
 10
210.999695391
 20
210.1812442114
 30
0.0
 11
208.9999999999
 21
210.1812442114
 31
0.0
  0
LINE
  5
14C
330
1F
100
AcDbEntity
  8
0
  6
Continuous
 62
     7
370
    30
100
AcDbLine
 10
209.1853495595
 20
199.5625750864
 30
0.0
 11
209.0
 21
210.1812442114
 31
0.0
  0
LINE
  5
14D
330
1F
100
AcDbEntity
  8
0
  6
Continuous
 62
     7
370
    30
100
AcDbLine
 10
382.00030461
 20
210.1812442114
 30
0.0
 11
384.0
 21
210.1812442114
 31
0.0
  0
LINE
  5
14E
330
1F
100
AcDbEntity
  8
0
  6
Continuous
 62
     7
370
    30
100
AcDbLine
 10
384.0
 20
210.1812442114
 30
0.0
 11
383.8146504409
 21
199.5625750863
 31
0.0
  0
SPLINE
  5
14F
330
1F
100
AcDbEntity
  8
0
  6
Continuous
 62
     7
370
    30
100
AcDbSpline
210
0.0
220
0.0
230
1.0
 70
     8
 71
     3
 72
    31
 73
    27
 74
     0
 42
0.000000001
 43
0.00000001
 40
0.0
 40
0.0
 40
0.0
 40
0.0
 40
0.0416666666666667
 40
0.0833333333333332
 40
0.1249999999999999
 40
0.1666666666666667
 40
0.2083333333333335
 40
0.25
 40
0.2916666666666665
 40
0.3333333333333331
 40
0.3749999999999999
 40
0.4166666666666666
 40
0.4583333333333332
 40
0.5
 40
0.5416666666666669
 40
0.5833333333333331
 40
0.6250000000000001
 40
0.6666666666666671
 40
0.7083333333333335
 40
0.7500000000000004
 40
0.7916666666666667
 40
0.8333333333333333
 40
0.8750000000000002
 40
0.9166666666666669
 40
0.9583333333333335
 40
1.0
 40
1.0
 40
1.0
 40
1.0
 10
233.3999999999998
 20
198.3891093873702
 30
0.0
 10
233.4216300098484
 20
198.3872067545184
 30
0.0
 10
233.4648900295456
 20
198.383401488815
 30
0.0
 10
233.812873777835
 20
198.3776935902598
 30
0.0
 10
234.3618449127924
 20
198.3719856917047
 30
0.0
 10
235.1228153156069
 20
198.3662777931495
 30
0.0
 10
236.077297087322
 20
198.3605698945943
 30
0.0
 10
237.2104237882129
 20
198.3548619960391
 30
0.0
 10
238.5024147585625
 20
198.3491540974839
 30
0.0
 10
239.9312688574505
 20
198.3434461989288
 30
0.0
 10
241.4725098116344
 20
198.3377383003736
 30
0.0
 10
243.0997741121149
 20
198.3320304018184
 30
0.0
 10
244.7852167948471
 20
198.3263225032632
 30
0.0
 10
246.4999999999999
 20
198.3206146047081
 30
0.0
 10
248.2147832051526
 20
198.3149067061529
 30
0.0
 10
249.9002258878849
 20
198.3091988075977
 30
0.0
 10
251.5274901883653
 20
198.3034909090425
 30
0.0
 10
253.0687311425492
 20
198.2977830104874
 30
0.0
 10
254.4975852414372
 20
198.2920751119322
 30
0.0
 10
255.7895762117868
 20
198.286367213377
 30
0.0
 10
256.9227029126777
 20
198.2806593148218
 30
0.0
 10
257.8771846843928
 20
198.2749514162667
 30
0.0
 10
258.6381550872072
 20
198.2692435177115
 30
0.0
 10
259.1871262221647
 20
198.2635356191563
 30
0.0
 10
259.535109970454
 20
198.2578277206011
 30
0.0
 10
259.5783699901512
 20
198.2540224548977
 30
0.0
 10
259.5999999999999
 20
198.252119822046
 30
0.0
  0
SPLINE
  5
150
330
1F
100
AcDbEntity
  8
0
  6
Continuous
 62
     7
370
    30
100
AcDbSpline
210
0.0
220
0.0
230
1.0
 70
     8
 71
     3
 72
    47
 73
    43
 74
     0
 42
0.000000001
 43
0.00000001
 40
0.0
 40
0.0
 40
0.0
 40
0.0
 40
0.0249998155263077
 40
0.0499996317368743
 40
0.0749994493245411
 40
0.09999926898215
 40
0.124999091402542
 40
0.1499989172785586
 40
0.1749987473030395
 40
0.1999985821688253
 40
0.2249984225687566
 40
0.2499982691956725
 40
0.2749981227424122
 40
0.2999979839018136
 40
0.3249978533667146
 40
0.3499977318299524
 40
0.3749976199843632
 40
0.399997518522783
 40
0.424997428138046
 40
0.4499973495229863
 40
0.474997283370436
 40
0.4999972303732276
 40
0.5249971912241908
 40
0.5499971666161559
 40
0.5749971572419509
 40
0.5999971637944027
 40
0.624997186966337
 40
0.6499972274505784
 40
0.6749972859399496
 40
0.6999973631272717
 40
0.7249974597053646
 40
0.7499975763670464
 40
0.7749977138051343
 40
0.7999978727124424
 40
0.8249980537817837
 40
0.8499982577059696
 40
0.8749984851778092
 40
0.8999987368901102
 40
0.9249990135356776
 40
0.9499993158073148
 40
0.9749996443978226
 40
1.0
 40
1.0
 40
1.0
 40
1.0
 10
371.4000000000001
 20
198.4742527866865
 30
0.0
 10
371.3852126456175
 20
198.4742214672239
 30
0.0
 10
371.3556379364475
 20
198.4741588282978
 30
0.0
 10
371.1168978943495
 20
198.473652176024
 30
0.0
 10
370.7374084947276
 20
198.4728434108597
 30
0.0
 10
370.2055340673385
 20
198.471702902715
 30
0.0
 10
369.5282984789676
 20
198.4702385909494
 30
0.0
 10
368.7088737273927
 20
198.4684483482175
 30
0.0
 10
367.7525806953129
 20
198.4663327445401
 30
0.0
 10
366.6652432077864
 20
198.4638916271805
 30
0.0
 10
365.4535843653971
 20
198.4611250370642
 30
0.0
 10
364.1250692759853
 20
198.4580329632255
 30
0.0
 10
362.687890063151
 20
198.4546154086025
 30
0.0
 10
361.1509070437129
 20
198.4508723724079
 30
0.0
 10
359.5235963290032
 20
198.4468038548528
 30
0.0
 10
357.8159908044695
 20
198.4424098558806
 30
0.0
 10
356.0386184335672
 20
198.4376903755064
 30
0.0
 10
354.202437306496
 20
198.4326454137262
 30
0.0
 10
352.3187680914127
 20
198.427274970541
 30
0.0
 10
350.3992242356671
 20
198.4215790459506
 30
0.0
 10
348.4556403658586
 20
198.415557639955
 30
0.0
 10
346.4999993232053
 20
198.4092107525543
 30
0.0
 10
344.5443582853978
 20
198.4025383837484
 30
0.0
 10
342.6007744300763
 20
198.3955405335374
 30
0.0
 10
340.6812305983076
 20
198.3882172019212
 30
0.0
 10
338.7975614164409
 20
198.3805683888997
 30
0.0
 10
336.9613803314795
 20
198.3725940944733
 30
0.0
 10
335.1840080111408
 20
198.3642943186409
 30
0.0
 10
333.4764025450978
 20
198.3556690614066
 30
0.0
 10
331.8490918961962
 20
198.3467183227551
 30
0.0
 10
330.3121089491992
 20
198.337442102743
 30
0.0
 10
328.8749298146839
 20
198.3278404011594
 30
0.0
 10
327.546414808662
 20
198.3179132187915
 30
0.0
 10
326.3347560538476
 20
198.3076605527013
 30
0.0
 10
325.2474186572439
 20
198.2970824138539
 30
0.0
 10
324.29112571827
 20
198.2861787613262
 30
0.0
 10
323.471701061747
 20
198.2749497478463
 30
0.0
 10
322.7944655671504
 20
198.2633948034237
 30
0.0
 10
322.2625912380215
 20
198.2515160552953
 30
0.0
 10
321.8831019212762
 20
198.2393055644932
 30
0.0
 10
321.6443619930482
 20
198.2267929596946
 30
0.0
 10
321.6147873363417
 20
198.2181761012953
 30
0.0
 10
321.6
 20
198.2138676697682
 30
0.0
  0
LINE
  5
151
330
1F
100
AcDbEntity
  8
0
  6
Continuous
 62
     7
370
    30
100
AcDbLine
 10
209.185349559
 20
199.5625750864
 30
0.0
 11
209.1855155097
 21
199.5530677871
 31
0.0
  0
LINE
  5
152
330
1F
100
AcDbEntity
  8
0
  6
Continuous
 62
     7
370
    30
100
AcDbLine
 10
383.814650441
 20
199.5625750864
 30
0.0
 11
383.8144844905
 21
199.5530677871
 31
0.0
  0
SPLINE
  5
153
330
1F
100
AcDbEntity
  8
0
  6
Continuous
 62
     7
370
    30
100
AcDbSpline
210
0.0
220
0.0
230
1.0
 70
     8
 71
     3
 72
   149
 73
   145
 74
     0
 42
0.000000001
 43
0.00000001
 40
0.0
 40
0.0
 40
0.0
 40
0.0
 40
0.0029221211220813
 40
0.0097915113280025
 40
0.0166648861156353
 40
0.0235427799848271
 40
0.0304257345779594
 40
0.0373142833093732
 40
0.0442089487352239
 40
0.0511102399714592
 40
0.0580186501755793
 40
0.0649346541107265
 40
0.0718587058101358
 40
0.0787912363603136
 40
0.0857326518200052
 40
0.0926833312923187
 40
0.0996436251656743
 40
0.1066138535391584
 40
0.1135943048455673
 40
0.1205852346847184
 40
0.1275868648777548
 40
0.1345993827506249
 40
0.1416229406534037
 40
0.1486576557195362
 40
0.1557036098662942
 40
0.1627608500352887
 40
0.1698293886695016
 40
0.1769092044195403
 40
0.184000243070403
 40
0.1911024186763988
 40
0.1982156148899402
 40
0.2053396864676733
 40
0.2124744609351782
 40
0.219619740390151
 40
0.2267753034227579
 40
0.233940907130368
 40
0.2411162892041681
 40
0.2483011700646867
 40
0.2554952550233309
 40
0.2626982364484413
 40
0.26990979591438
 40
0.2771296063147523
 40
0.284357333921136
 40
0.2915926403718842
 40
0.2988351845761484
 40
0.3060846245216284
 40
0.3133406189757453
 40
0.3206028290726625
 40
0.3278709197802802
 40
0.335144561243622
 40
0.3424234300027584
 40
0.3497072100851339
 40
0.3569955939739147
 40
0.3642882834551142
 40
0.3715849903477144
 40
0.3788854371217635
 40
0.3861893574103746
 40
0.3934964964224259
 40
0.4008066112626189
 40
0.4081194711666151
 40
0.4154348576585263
 40
0.4227525646385864
 40
0.43007239840837
 40
0.4373941776409896
 40
0.4447177333036557
 40
0.45204290853909
 40
0.4593695585129698
 40
0.4666975502330222
 40
0.4740267623460948
 40
0.4813570849185795
 40
0.4886884015754535
 40
0.496020610196969
 40
0.5033536359086564
 40
0.5106874143970778
 40
0.5180218914882206
 40
0.5253570229207069
 40
0.5326927741338883
 40
0.5400291200717777
 40
0.5473660450054816
 40
0.5547035423769109
 40
0.5620416146661844
 40
0.5693802732853951
 40
0.576719538501164
 40
0.5840594393888359
 40
0.5914000138206555
 40
0.5987413084911826
 40
0.6060833789828721
 40
0.6134262898753123
 40
0.6207701149021259
 40
0.6281149371594055
 40
0.6354608493710369
 40
0.6428079542162265
 40
0.6501563647257423
 40
0.6575062047542477
 40
0.6648576095372598
 40
0.6722107263431165
 40
0.6795657152312704
 40
0.6869227499310222
 40
0.694282018856991
 40
0.7016437262803882
 40
0.7090080936793429
 40
0.7163753612953188
 40
0.7237457899285312
 40
0.7311196630117507
 40
0.7384972890100103
 40
0.7458790042040584
 40
0.7532651759283419
 40
0.7606562063502018
 40
0.768052536897234
 40
0.7754546534668336
 40
0.7828630925843655
 40
0.7902784487214843
 40
0.7977013830427013
 40
0.8051326339250049
 40
0.8125730296973924
 40
0.820023504184795
 40
0.8274851158309251
 40
0.8349590714372994
 40
0.8424467559267319
 40
0.8499497700716199
 40
0.8566882278280804
 40
0.8634255633818345
 40
0.8701611115996838
 40
0.8768946759537186
 40
0.8836260119706382
 40
0.8903548131965215
 40
0.8970806911626675
 40
0.9038031469420308
 40
0.9105215298292086
 40
0.917234975730139
 40
0.9239423125098094
 40
0.9306419094490516
 40
0.937331427865715
 40
0.9440073875076106
 40
0.9506643670360159
 40
0.9572934186670634
 40
0.9638786197622671
 40
0.97038859578781
 40
0.9767517896902248
 40
0.9827621055958048
 40
0.9878104106768046
 40
0.9918593349331077
 40
0.9966391080615318
 40
1.0
 40
1.0
 40
1.0
 40
1.0
 10
458.6627569094435
 20
119.7241149948199
 30
0.0
 10
458.6428667189742
 20
119.7127303487095
 30
0.0
 10
458.5762182067603
 20
119.6745824120914
 30
0.0
 10
458.4643654356416
 20
119.6069301219122
 30
0.0
 10
458.327158987848
 20
119.5212294684321
 30
0.0
 10
458.1915073232691
 20
119.4327645445653
 30
0.0
 10
458.0573139336012
 20
119.3417359245242
 30
0.0
 10
457.9246257612681
 20
119.2480956528959
 30
0.0
 10
457.7934514832493
 20
119.1518625403628
 30
0.0
 10
457.6638103002051
 20
119.0530376478585
 30
0.0
 10
457.5357188675083
 20
118.9516270069457
 30
0.0
 10
457.4091948170843
 20
118.8476355746498
 30
0.0
 10
457.2842558234876
 20
118.7410689089525
 30
0.0
 10
457.1609198610313
 20
118.6319327748145
 30
0.0
 10
457.0392051365292
 20
118.5202333072759
 30
0.0
 10
456.9191301042276
 20
118.405977026183
 30
0.0
 10
456.800713453722
 20
118.2891708912758
 30
0.0
 10
456.6839741001481
 20
118.1698223463499
 30
0.0
 10
456.5689311688161
 20
118.0479393656118
 30
0.0
 10
456.4556039764703
 20
117.9235304980488
 30
0.0
 10
456.3440120087388
 20
117.7966049102791
 30
0.0
 10
456.2341748940902
 20
117.6671724271099
 30
0.0
 10
456.1261123744761
 20
117.5352435693836
 30
0.0
 10
456.0198442729331
 20
117.4008295886309
 30
0.0
 10
455.9153904584455
 20
117.2639424981069
 30
0.0
 10
455.8127708084159
 20
117.1245950998259
 30
0.0
 10
455.7120051691229
 20
116.982801007262
 30
0.0
 10
455.6131133145758
 20
116.8385746634414
 30
0.0
 10
455.516114904202
 20
116.6919313542181
 30
0.0
 10
455.4210294398135
 20
116.5428872165913
 30
0.0
 10
455.3278762223146
 20
116.3914592419954
 30
0.0
 10
455.2366743086084
 20
116.2376652745682
 30
0.0
 10
455.147442469155
 20
116.0815240044726
 30
0.0
 10
455.060199146618
 20
115.9230549564208
 30
0.0
 10
454.9749624160119
 20
115.762278473614
 30
0.0
 10
454.8917499467363
 20
115.5992156973735
 30
0.0
 10
454.8105789668408
 20
115.4338885427933
 30
0.0
 10
454.7314662298274
 20
115.2663196707911
 30
0.0
 10
454.6544279842486
 20
115.0965324569692
 30
0.0
 10
454.579479946311
 20
114.9245509577324
 30
0.0
 10
454.5066372756434
 20
114.7503998741187
 30
0.0
 10
454.435914554338
 20
114.5741045138178
 30
0.0
 10
454.3673257693196
 20
114.3956907518417
 30
0.0
 10
454.3008842980541
 20
114.2151849903127
 30
0.0
 10
454.2366028975561
 20
114.0326141178073
 30
0.0
 10
454.1744936966201
 20
113.8480054686794
 30
0.0
 10
454.1145681911547
 20
113.6613867827464
 30
0.0
 10
454.0568372424722
 20
113.4727861656971
 30
0.0
 10
454.001311078357
 20
113.2822320505325
 30
0.0
 10
453.9479992967137
 20
113.0897531603162
 30
0.0
 10
453.8969108715779
 20
112.8953784724675
 30
0.0
 10
453.8480541612653
 20
112.6991371847849
 30
0.0
 10
453.8014369184243
 20
112.5010586833516
 30
0.0
 10
453.7570663017569
 20
112.3011725124302
 30
0.0
 10
453.7149488891753
 20
112.0995083464185
 30
0.0
 10
453.6750906921681
 20
111.8960959639043
 30
0.0
 10
453.6374971711548
 20
111.6909652238208
 30
0.0
 10
453.6021732516274
 20
111.4841460436824
 30
0.0
 10
453.5691233408784
 20
111.2756683798493
 30
0.0
 10
453.5383513451445
 20
111.0655622097549
 30
0.0
 10
453.5098606869985
 20
110.8538575160047
 30
0.0
 10
453.483654322846
 20
110.6405842722464
 30
0.0
 10
453.4597347603967
 20
110.4257724306985
 30
0.0
 10
453.4381040760007
 20
110.2094519112135
 30
0.0
 10
453.4187639317506
 20
109.9916525917501
 30
0.0
 10
453.4017155922724
 20
109.7724043001197
 30
0.0
 10
453.3869599411392
 20
109.5517368068782
 30
0.0
 10
453.3744974968565
 20
109.329679819226
 30
0.0
 10
453.3643284283837
 20
109.1062629757882
 30
0.0
 10
453.3564525764783
 20
108.8815160223147
 30
0.0
 10
453.350869457271
 20
108.6554687794734
 30
0.0
 10
453.3475782656159
 20
108.4281509727688
 30
0.0
 10
453.3465778918546
 20
108.1995920428679
 30
0.0
 10
453.3478669455646
 20
107.9698211725168
 30
0.0
 10
453.3514437723035
 20
107.7388674550877
 30
0.0
 10
453.3573064656105
 20
107.5067598942241
 30
0.0
 10
453.3654528785775
 20
107.2735274014788
 30
0.0
 10
453.37588063506
 20
107.0391987937656
 30
0.0
 10
453.3885871405751
 20
106.8038027905484
 30
0.0
 10
453.403569592939
 20
106.5673680106804
 30
0.0
 10
453.4208249927017
 20
106.3299229688015
 30
0.0
 10
453.4403501534373
 20
106.0914960712037
 30
0.0
 10
453.4621417119591
 20
105.8521156110714
 30
0.0
 10
453.4861961385281
 20
105.6118097630038
 30
0.0
 10
453.5125097471323
 20
105.3706065767186
 30
0.0
 10
453.5410787059174
 20
105.1285339698351
 30
0.0
 10
453.5718990478581
 20
104.8856197196227
 30
0.0
 10
453.6049666817672
 20
104.6418914535925
 30
0.0
 10
453.6402774037448
 20
104.3973766387999
 30
0.0
 10
453.6778269091838
 20
104.1521025697084
 30
0.0
 10
453.7176108054594
 20
103.9060963544486
 30
0.0
 10
453.7596246254408
 20
103.6593848992812
 30
0.0
 10
453.8038638419854
 20
103.4119948910511
 30
0.0
 10
453.8503238835899
 20
103.1639527773857
 30
0.0
 10
453.8990001514016
 20
102.9152847443507
 30
0.0
 10
453.9498880378164
 20
102.6660166912355
 30
0.0
 10
454.0029829469278
 20
102.4161742020799
 30
0.0
 10
454.0582803171284
 20
102.1657825134954
 30
0.0
 10
454.115775646217
 20
101.9148664782468
 30
0.0
 10
454.1754645194214
 20
101.6634505239698
 30
0.0
 10
454.2373426408193
 20
101.4115586062801
 30
0.0
 10
454.3014058687297
 20
101.1592141553875
 30
0.0
 10
454.3676502557486
 20
100.9064400151531
 30
0.0
 10
454.4360720942441
 20
100.6532583733124
 30
0.0
 10
454.5066679682778
 20
100.3996906813192
 30
0.0
 10
454.5794348131365
 20
100.1457575619316
 30
0.0
 10
454.6543699839011
 20
99.89147870223997
 30
0.0
 10
454.7314713348098
 20
99.63687272931612
 30
0.0
 10
454.810737311578
 20
99.38195706498004
 30
0.0
 10
454.8921670593569
 20
99.12674775532956
 30
0.0
 10
454.9757605496947
 20
98.87125926955734
 30
0.0
 10
455.0615187307335
 20
98.61550426112655
 30
0.0
 10
455.1494437060132
 20
98.35949328251566
 30
0.0
 10
455.2395389488607
 20
98.10323444200087
 30
0.0
 10
455.3318095610575
 20
97.84673298833252
 30
0.0
 10
455.4262625884832
 20
97.58999080156528
 30
0.0
 10
455.5229074056374
 20
97.33300577304458
 30
0.0
 10
455.6217562034137
 20
97.07577100712398
 30
0.0
 10
455.7228245577612
 20
96.81827392001901
 30
0.0
 10
455.8225446718034
 20
96.56944677945681
 30
0.0
 10
455.9206068253488
 20
96.32946312381313
 30
0.0
 10
456.0166990200825
 20
96.09851228772301
 30
0.0
 10
456.1143739031856
 20
95.86789610523438
 30
0.0
 10
456.2136139755701
 20
95.63765209308211
 30
0.0
 10
456.3144030451883
 20
95.40781361222459
 30
0.0
 10
456.4167235659204
 20
95.17841607124588
 30
0.0
 10
456.5205562397391
 20
94.94949762050494
 30
0.0
 10
456.6258794571199
 20
94.7211001231639
 30
0.0
 10
456.732668475617
 20
94.49327058521061
 30
0.0
 10
456.8408941858793
 20
94.26606330625447
 30
0.0
 10
456.9505211964091
 20
94.03954322252808
 30
0.0
 10
457.0615047485018
 20
93.81379129929026
 30
0.0
 10
457.1737855205933
 20
93.5889136237476
 30
0.0
 10
457.2872803969937
 20
93.3650575862111
 30
0.0
 10
457.4018649295347
 20
93.14244265370858
 30
0.0
 10
457.5173371000636
 20
92.92142410010484
 30
0.0
 10
457.6333334128019
 20
92.70264063520104
 30
0.0
 10
457.7491019010036
 20
92.48741531603767
 30
0.0
 10
457.8627124515835
 20
92.27915087666786
 30
0.0
 10
457.9686397563419
 20
92.08756022266263
 30
0.0
 10
458.061345333005
 20
91.92185989375825
 30
0.0
 10
458.1471489045234
 20
91.77000416261812
 30
0.0
 10
458.2230264641698
 20
91.63689096767001
 30
0.0
 10
458.274105827561
 20
91.54822341367024
 30
0.0
 10
458.2951940579737
 20
91.51161681396461
 30
0.0
  0
SPLINE
  5
154
330
1F
100
AcDbEntity
  8
0
  6
Continuous
 62
     7
370
    30
100
AcDbSpline
210
0.0
220
0.0
230
1.0
 70
     8
 71
     3
 72
   154
 73
   150
 74
     0
 42
0.000000001
 43
0.00000001
 40
0.0
 40
0.0
 40
0.0
 40
0.0
 40
0.0071336524615226
 40
0.0100864878841937
 40
0.014982505149763
 40
0.0200784386449891
 40
0.0255539955234643
 40
0.0312758783745261
 40
0.0371902085312013
 40
0.0432540287269523
 40
0.0494368226445058
 40
0.0557160108935825
 40
0.0620745761696035
 40
0.0684994425937588
 40
0.0749803873935663
 40
0.0815092925588691
 40
0.0880796203707583
 40
0.0946860389333348
 40
0.1013241501157645
 40
0.1079902886772127
 40
0.1146813717183348
 40
0.1213947842848003
 40
0.128128291330227
 40
0.134879969166019
 40
0.1416481515034349
 40
0.1484313865546723
 40
0.1552284026080714
 40
0.1620380801645521
 40
0.1688594292031809
 40
0.1756915704925955
 40
0.1825337201204828
 40
0.1893851766029094
 40
0.1962453100772295
 40
0.2031135531891071
 40
0.2099893933661645
 40
0.2168723662333221
 40
0.2237620499737503
 40
0.2306580604768126
 40
0.2375600471449114
 40
0.2444676892540405
 40
0.2513806927821538
 40
0.2582987876342007
 40
0.2652217252049177
 40
0.2721492762301624
 40
0.2790812288860517
 40
0.2860173871007057
 40
0.2929575690500442
 40
0.2999016058123405
 40
0.3068493401608432
 40
0.3138006254761823
 40
0.3207553247631503
 40
0.3277133097587943
 40
0.3346744601198599
 40
0.341638662680073
 40
0.348605810768318
 40
0.3555758035801363
 40
0.3625485455962292
 40
0.369523946041642
 40
0.3765019183810148
 40
0.3834823798450642
 40
0.3904652509844269
 40
0.3974504552473038
 40
0.4044379185777052
 40
0.4114275690316975
 40
0.4184193364088939
 40
0.4254131518972412
 40
0.4324089477290615
 40
0.4394066568465449
 40
0.4464062125755105
 40
0.453407548305657
 40
0.4604105971765853
 40
0.4674152917686851
 40
0.4744215637976319
 40
0.4814293438127141
 40
0.4884385608978367
 40
0.4954491423754929
 40
0.5024610135134073
 40
0.5094740972341806
 40
0.5164883138280456
 40
0.5235035806696752
 40
0.5305198119393254
 40
0.5375369147438962
 40
0.5445547689448262
 40
0.5515732755942915
 40
0.5585923311627552
 40
0.5656118275757073
 40
0.5726316519936097
 40
0.5796516866129088
 40
0.5866718084875869
 40
0.5936918893749016
 40
0.6007117956086263
 40
0.6077313880035974
 40
0.6147505217955858
 40
0.6217690466203659
 40
0.6287868065371385
 40
0.6358036401000056
 40
0.6428193804828601
 40
0.6498338556618
 40
0.6568468886605059
 40
0.66385829786213
 40
0.6708678973933034
 40
0.6778754975832153
 40
0.6848809055022219
 40
0.6918839255829601
 40
0.6988843603264113
 40
0.705882011094848
 40
0.7128766789926424
 40
0.719868165834705
 40
0.7268562752015733
 40
0.7338408135787295
 40
0.7408215915762377
 40
0.7477984252240519
 40
0.7547711373361523
 40
0.7617395589357896
 40
0.7687035307323357
 40
0.7756629046391239
 40
0.7826175453199595
 40
0.7895673317510873
 40
0.7965121587842152
 40
0.8034519386950801
 40
0.8103866027017238
 40
0.8173161024355373
 40
0.8242404113485294
 40
0.831159526039822
 40
0.8380734674848542
 40
0.8449822821511742
 40
0.8518860429856573
 40
0.8587848502586951
 40
0.8656788322526304
 40
0.8725681457827398
 40
0.879452976540865
 40
0.8863335392534843
 40
0.8932100776480895
 40
0.9000828642231089
 40
0.9069521998191764
 40
0.913818412991117
 40
0.9206818591817943
 40
0.9275429197012116
 40
0.9344020005153711
 40
0.9412595308518247
 40
0.9481159616293147
 40
0.9549717637213501
 40
0.9618274260640721
 40
0.9686834536201919
 40
0.9755403652116003
 40
0.9823986912345976
 40
0.9892589712719905
 40
0.9961217516170696
 40
1.0
 40
1.0
 40
1.0
 40
1.0
 10
458.2951940579737
 20
91.51161681396461
 30
0.0
 10
458.3401633366712
 20
91.43403798005926
 30
0.0
 10
458.4037467656635
 20
91.32434691051574
 30
0.0
 10
458.4992105547537
 20
91.1620188596319
 30
0.0
 10
458.5821506732576
 20
91.02205141523767
 30
0.0
 10
458.6820202500444
 20
90.85528973660834
 30
0.0
 10
458.7880479385644
 20
90.6801613794626
 30
0.0
 10
458.9003175617386
 20
90.49685159628399
 30
0.0
 10
459.0174206295311
 20
90.30791547978089
 30
0.0
 10
459.138591848851
 20
90.11478978994042
 30
0.0
 10
459.2632487365895
 20
89.91856354990061
 30
0.0
 10
459.3909639774979
 20
89.72003973785586
 30
0.0
 10
459.521413759305
 20
89.51982860679398
 30
0.0
 10
459.6543474069251
 20
89.31840380268419
 30
0.0
 10
459.7895666866849
 20
89.11614048903246
 30
0.0
 10
459.9269117224914
 20
88.91334140374273
 30
0.0
 10
460.0662511905201
 20
88.71025504246047
 30
0.0
 10
460.207475368961
 20
88.50708859014365
 30
0.0
 10
460.3504911225231
 20
88.30401728239522
 30
0.0
 10
460.4952182234592
 20
88.10119129560313
 30
0.0
 10
460.6415866115552
 20
87.89874089639108
 30
0.0
 10
460.7895343247007
 20
87.69678034479614
 30
0.0
 10
460.9390059156634
 20
87.49541089143534
 30
0.0
 10
461.0899512264039
 20
87.29472310662106
 30
0.0
 10
461.242324428792
 20
87.09479871035744
 30
0.0
 10
461.396083266242
 20
86.89571202485067
 30
0.0
 10
461.5511884486127
 20
86.69753113826667
 30
0.0
 10
461.7076031652492
 20
86.50031884527485
 30
0.0
 10
461.8652926899931
 20
86.30413341333882
 30
0.0
 10
462.0242240584388
 20
86.10902921173012
 30
0.0
 10
462.1843658024299
 20
85.91505723146886
 30
0.0
 10
462.3456877302655
 20
85.72226551790898
 30
0.0
 10
462.5081607436856
 20
85.53069953283924
 30
0.0
 10
462.6717566846498
 20
85.34040245931348
 30
0.0
 10
462.8364482064158
 20
85.15141545964445
 30
0.0
 10
463.0022086645512
 20
84.96377789485344
 30
0.0
 10
463.1690120243985
 20
84.77752751222268
 30
0.0
 10
463.3368327821851
 20
84.59270060630087
 30
0.0
 10
463.5056458975157
 20
84.40933215770752
 30
0.0
 10
463.6754267353975
 20
84.2274559532744
 30
0.0
 10
463.8461510162894
 20
84.04710469043248
 30
0.0
 10
464.0177947729292
 20
83.86831006823797
 30
0.0
 10
464.19033431291
 20
83.6911028670245
 30
0.0
 10
464.3637461861525
 20
83.51551301833277
 30
0.0
 10
464.5380071565538
 20
83.34156966650136
 30
0.0
 10
464.7130941772177
 20
83.16930122307825
 30
0.0
 10
464.8889843687557
 20
82.99873541503493
 30
0.0
 10
465.0656550002344
 20
82.82989932760896
 30
0.0
 10
465.2430834724019
 20
82.66281944248185
 30
0.0
 10
465.4212473028828
 20
82.4975216718915
 30
0.0
 10
465.6001241130762
 20
82.33403138919283
 30
0.0
 10
465.7796916165241
 20
82.17237345630767
 30
0.0
 10
465.9599276085547
 20
82.01257224844205
 30
0.0
 10
466.1408099570246
 20
81.85465167639892
 30
0.0
 10
466.3223165940112
 20
81.69863520676786
 30
0.0
 10
466.5044255083245
 20
81.54454588023661
 30
0.0
 10
466.6871147387185
 20
81.39240632823692
 30
0.0
 10
466.8703623677071
 20
81.24223878810874
 30
0.0
 10
467.0541465158847
 20
81.09406511694355
 30
0.0
 10
467.2384453366799
 20
80.94790680424512
 30
0.0
 10
467.4232370114653
 20
80.80378498352982
 30
0.0
 10
467.6084997449593
 20
80.66172044297176
 30
0.0
 10
467.7942117608665
 20
80.52173363518295
 30
0.0
 10
467.9803512976983
 20
80.38384468620842
 30
0.0
 10
468.1668966047336
 20
80.2480734038032
 30
0.0
 10
468.3538259380736
 20
80.11443928505024
 30
0.0
 10
468.5411175567526
 20
79.98296152336773
 30
0.0
 10
468.7287497188748
 20
79.85365901494656
 30
0.0
 10
468.916700677742
 20
79.72655036465422
 30
0.0
 10
469.1049486779478
 20
79.60165389143032
 30
0.0
 10
469.2934719514146
 20
79.4789876331962
 30
0.0
 10
469.4822487133516
 20
79.35856935129556
 30
0.0
 10
469.6712571581199
 20
79.2404165344745
 30
0.0
 10
469.8604754549849
 20
79.1245464024107
 30
0.0
 10
470.0498817437527
 20
79.01097590878983
 30
0.0
 10
470.2394541302777
 20
78.89972174393014
 30
0.0
 10
470.4291706818406
 20
78.79080033694709
 30
0.0
 10
470.6190094223963
 20
78.68422785745047
 30
0.0
 10
470.8089483276983
 20
78.58002021675941
 30
0.0
 10
470.9989653203045
 20
78.47819306862283
 30
0.0
 10
471.1890382319203
 20
78.37876182645911
 30
0.0
 10
471.3791445858845
 20
78.28174176910504
 30
0.0
 10
471.569261819432
 20
78.18714790950361
 30
0.0
 10
471.7593673083034
 20
78.09499497809405
 30
0.0
 10
471.9494385732699
 20
78.00529732569186
 30
0.0
 10
472.1394530469505
 20
77.91806903685458
 30
0.0
 10
472.3293880712702
 20
77.83332392515305
 30
0.0
 10
472.519220892664
 20
77.75107552898042
 30
0.0
 10
472.7089286575431
 20
77.67133710666327
 30
0.0
 10
472.8984884080647
 20
77.59412163087465
 30
0.0
 10
473.0878770782806
 20
77.5194417823379
 30
0.0
 10
473.2770714907458
 20
77.4473099428178
 30
0.0
 10
473.4660483536686
 20
77.37773818740139
 30
0.0
 10
473.6547842586962
 20
77.31073827607659
 30
0.0
 10
473.8432556794287
 20
77.24632164462733
 30
0.0
 10
474.0314389707595
 20
77.18449939487056
 30
0.0
 10
474.2193103691388
 20
77.12528228427423
 30
0.0
 10
474.4068459938656
 20
77.06868071500435
 30
0.0
 10
474.5940218494987
 20
77.01470472246218
 30
0.0
 10
474.7808138294926
 20
76.96336396338742
 30
0.0
 10
474.9671977211376
 20
76.91466770361389
 30
0.0
 10
475.153149211898
 20
76.86862480558283
 30
0.0
 10
475.338643897214
 20
76.82524371572882
 30
0.0
 10
475.5236572898333
 20
76.78453245187117
 30
0.0
 10
475.708164830718
 20
76.7464985907555
 30
0.0
 10
475.8921419015546
 20
76.71114925590415
 30
0.0
 10
476.0755638388775
 20
76.67849110594577
 30
0.0
 10
476.2584059497919
 20
76.64853032360378
 30
0.0
 10
476.440643529259
 20
76.62127260553288
 30
0.0
 10
476.6222518788763
 20
76.5967231531967
 30
0.0
 10
476.8032063270635
 20
76.57488666498348
 30
0.0
 10
476.9834822505292
 20
76.5557673297545
 30
0.0
 10
477.1630550968691
 20
76.53936882201717
 30
0.0
 10
477.3419004081136
 20
76.52569429890414
 30
0.0
 10
477.5199938450184
 20
76.51474639912908
 30
0.0
 10
477.6973112118588
 20
76.50652724407125
 30
0.0
 10
477.8738284814722
 20
76.5010384411214
 30
0.0
 10
478.0495218202662
 20
76.49828108939455
 30
0.0
 10
478.2243676128958
 20
76.4982557878888
 30
0.0
 10
478.3983424863029
 20
76.500962646134
 30
0.0
 10
478.5714233327985
 20
76.50640129734191
 30
0.0
 10
478.7435873318728
 20
76.51457091403022
 30
0.0
 10
478.9148119704188
 20
76.52547022605457
 30
0.0
 10
479.0850750610695
 20
76.53909754094366
 30
0.0
 10
479.2543547583608
 20
76.55545076639274
 30
0.0
 10
479.4226295724601
 20
76.57452743473259
 30
0.0
 10
479.5898783802226
 20
76.59632472915462
 30
0.0
 10
479.7560804333748
 20
76.62083951143967
 30
0.0
 10
479.9212153636587
 20
76.64806835090607
 30
0.0
 10
480.0852631848127
 20
76.67800755426893
 30
0.0
 10
480.248204291304
 20
76.7106531960771
 30
0.0
 10
480.4100194537782
 20
76.74600114938119
 30
0.0
 10
480.570689811224
 20
76.78404711627378
 30
0.0
 10
480.7301968599193
 20
76.82478665792286
 30
0.0
 10
480.8885224392143
 20
76.86821522378443
 30
0.0
 10
481.0456487144085
 20
76.91432817942705
 30
0.0
 10
481.2015581564553
 20
76.96312083337322
 30
0.0
 10
481.356233520333
 20
77.01458845978628
 30
0.0
 10
481.5096578162421
 20
77.06872632722792
 30
0.0
 10
481.661814296586
 20
77.12552969384055
 30
0.0
 10
481.8126863743686
 20
77.18499391544555
 30
0.0
 10
481.9622577891919
 20
77.2471141187023
 30
0.0
 10
482.1105118425084
 20
77.31188648247814
 30
0.0
 10
482.2574341011182
 20
77.37930350162792
 30
0.0
 10
482.4030021522291
 20
77.44937169398433
 30
0.0
 10
482.5472236903612
 20
77.52204551405381
 30
0.0
 10
482.6899941701246
 20
77.59747406820175
 30
0.0
 10
482.8110761262561
 20
77.66381879941208
 30
0.0
 10
482.8839656281485
 20
77.70605065831546
 30
0.0
 10
482.9102837397563
 20
77.72129925718319
 30
0.0
  0
LINE
  5
155
330
1F
100
AcDbEntity
  8
0
  6
Continuous
 62
     7
370
    30
100
AcDbLine
 10
476.5529745075
 20
130.0523386991
 30
0.0
 11
458.6631729435
 21
119.7247760845
 31
0.0
  0
LINE
  5
156
330
1F
100
AcDbEntity
  8
0
  6
Continuous
 62
     7
370
    30
100
AcDbLine
 10
482.9112022099
 20
77.721406259
 30
0.0
 11
500.8010037739
 21
88.0489688736
 31
0.0
  0
SPLINE
  5
157
330
1F
100
AcDbEntity
  8
0
  6
Continuous
 62
     7
370
    30
100
AcDbSpline
210
0.0
220
0.0
230
1.0
 70
     8
 71
     3
 72
   154
 73
   150
 74
     0
 42
0.000000001
 43
0.00000001
 40
0.0
 40
0.0
 40
0.0
 40
0.0
 40
0.0071422464683362
 40
0.0100911609957964
 40
0.0149815861379615
 40
0.020070574789214
 40
0.0255379651213095
 40
0.0312508725737618
 40
0.0371556084880028
 40
0.0432093585385681
 40
0.049381701376907
 40
0.055650122883625
 40
0.0619976507200495
 40
0.0684112399927416
 40
0.0748806890694311
 40
0.0813978940071984
 40
0.0879563259754107
 40
0.0945506581077396
 40
0.1011764943817442
 40
0.1078301694220831
 40
0.1145085984506093
 40
0.1212091632629353
 40
0.127929624474185
 40
0.1346680531867529
 40
0.1414227772026614
 40
0.1481923382592879
 40
0.1549754577128901
 40
0.1617710087630728
 40
0.168577993791272
 40
0.175395525732929
 40
0.1822228126590039
 40
0.1890591449303033
 40
0.1959038844295762
 40
0.2027564554841535
 40
0.2096163371715358
 40
0.2164830567647519
 40
0.2233561841211187
 40
0.2302353268574104
 40
0.2371201261825767
 40
0.2440102532843647
 40
0.2509054061833514
 40
0.2578053069840964
 40
0.2647096994643863
 40
0.2716183469541223
 40
0.2785310304623894
 40
0.2854475470188429
 40
0.2923677082000504
 40
0.2992913388163165
 40
0.3062182757381276
 40
0.3131483668442073
 40
0.3200814700760242
 40
0.3270174525854684
 40
0.3339561899644927
 40
0.3408975655468618
 40
0.3478414697732248
 40
0.3547877996125161
 40
0.3617364580329906
 40
0.3686873535170593
 40
0.3756403996152489
 40
0.3825955145347433
 40
0.389552620758509
 40
0.3965116446919426
 40
0.4034725163335418
 40
0.4104351689673407
 40
0.4173995388743746
 40
0.4243655650611796
 40
0.4313331890036028
 40
0.4383023544037115
 40
0.4452730069589483
 40
0.452245094141655
 40
0.4592185649879378
 40
0.4661933698950494
 40
0.4731694604259265
 40
0.4801467891204574
 40
0.487125309312409
 40
0.4941049749519316
 40
0.5010857404326406
 40
0.5080675604230295
 40
0.5150503897023798
 40
0.5220341830001295
 40
0.529018894839637
 40
0.5360044793852863
 40
0.5429908902941232
 40
0.5499780701052053
 40
0.5569659656359797
 40
0.5639545270910055
 40
0.5709437035338186
 40
0.5779334428118964
 40
0.5849236914432452
 40
0.5919143945121383
 40
0.5989054955753034
 40
0.6058969365791953
 40
0.6128886577905034
 40
0.6198805977412559
 40
0.6268726931902421
 40
0.6338648791029488
 40
0.6408570886517616
 40
0.647849253239015
 40
0.6548413025447734
 40
0.6618331646019248
 40
0.6688247659010729
 40
0.6758160315276388
 40
0.682806885333415
 40
0.6897972501455109
 40
0.6967870480142351
 40
0.7037762005030503
 40
0.7107646290215924
 40
0.7177522552041103
 40
0.7247390013346158
 40
0.7317247908193147
 40
0.738709548707415
 40
0.7456932022595383
 40
0.7526756815638354
 40
0.7596569201977509
 40
0.7666368559335138
 40
0.7736154314846542
 40
0.7805925952891414
 40
0.7875683023248895
 40
0.7945425149517014
 40
0.8015152037729185
 40
0.8084863485094841
 40
0.8154559388776944
 40
0.8224239754614385
 40
0.8293904705688993
 40
0.8363554490628198
 40
0.8433189491533708
 40
0.8502810231415155
 40
0.8572417381013474
 40
0.8642011764893848
 40
0.8711594366687492
 40
0.8781166333371965
 40
0.8850728978477176
 40
0.8920283784118913
 40
0.8989832401764413
 40
0.9059376651653631
 40
0.9128918520807581
 40
0.9198460159570839
 40
0.9268003876655684
 40
0.9337552132668883
 40
0.9407107532120157
 40
0.9476672813935155
 40
0.9546250840511478
 40
0.9615844585374834
 40
0.9685457119514376
 40
0.975509159649614
 40
0.9824751236461835
 40
0.9894439309151017
 40
0.9964159116087931
 40
1.0
 40
1.0
 40
1.0
 40
1.0
 10
500.9859785434263
 20
116.1564821167091
 30
0.0
 10
500.9408621752904
 20
116.2343165133114
 30
0.0
 10
500.8771180107026
 20
116.3442874350105
 30
0.0
 10
500.7814693615325
 20
116.5069478303889
 30
0.0
 10
500.6984729093788
 20
116.6470342500293
 30
0.0
 10
500.5985483956473
 20
116.8139300399652
 30
0.0
 10
500.4924840653939
 20
116.989178704067
 30
0.0
 10
500.380192788809
 20
117.1726035180208
 30
0.0
 10
500.2630819107443
 20
117.3616526237611
 30
0.0
 10
500.1419161906193
 20
117.5548913321179
 30
0.0
 10
500.0172778336271
 20
117.7512319715804
 30
0.0
 10
499.889594091214
 20
117.9498723991615
 30
0.0
 10
499.7591888412811
 20
118.1502028691074
 30
0.0
 10
499.6263129110758
 20
118.3517500249475
 30
0.0
 10
499.4911647450357
 20
118.5541388467398
 30
0.0
 10
499.3539044714073
 20
118.7570666409253
 30
0.0
 10
499.2146636966731
 20
118.9602848880122
 30
0.0
 10
499.0735524488816
 20
119.1635863320453
 30
0.0
 10
498.9306641886762
 20
119.3667956338469
 30
0.0
 10
498.7860794853696
 20
119.5697624911786
 30
0.0
 10
498.6398687550497
 20
119.7723564967303
 30
0.0
 10
498.4920943287564
 20
119.9744632404219
 30
0.0
 10
498.342812034877
 20
120.1759813163597
 30
0.0
 10
498.1920724242813
 20
120.3768199968851
 30
0.0
 10
498.0399217292409
 20
120.5768974050602
 30
0.0
 10
497.8864026215484
 20
120.7761390641462
 30
0.0
 10
497.7315548174555
 20
120.9744767354728
 30
0.0
 10
497.5754155645143
 20
121.1718474792594
 30
0.0
 10
497.4180200364854
 20
121.3681928894904
 30
0.0
 10
497.2594016560133
 20
121.5634584659236
 30
0.0
 10
497.0995923600692
 20
121.757593095063
 30
0.0
 10
496.938622819682
 20
121.9505486184064
 30
0.0
 10
496.7765226228833
 20
122.1422794711207
 30
0.0
 10
496.6133204278488
 20
122.3327423779414
 30
0.0
 10
496.4490440917227
 20
122.5218960958849
 30
0.0
 10
496.2837207794935
 20
122.7097011954789
 30
0.0
 10
496.1173770563933
 20
122.8961198738843
 30
0.0
 10
495.9500389666313
 20
123.0811157945525
 30
0.0
 10
495.7817321007167
 20
123.2646539490887
 30
0.0
 10
495.6124816532229
 20
123.446700537777
 30
0.0
 10
495.442312472495
 20
123.6272228658705
 30
0.0
 10
495.2712491035482
 20
123.8061892532471
 30
0.0
 10
495.0993158251791
 20
123.9835689554549
 30
0.0
 10
494.9265366821457
 20
124.1593320944892
 30
0.0
 10
494.752935513126
 20
124.3334495979247
 30
0.0
 10
494.5785359750551
 20
124.5058931452393
 30
0.0
 10
494.4033615643404
 20
124.6766351203531
 30
0.0
 10
494.2274356353833
 20
124.8456485695523
 30
0.0
 10
494.0507814167664
 20
125.0129071640937
 30
0.0
 10
493.8734220254141
 20
125.17838516689
 30
0.0
 10
493.695380478992
 20
125.3420574027595
 30
0.0
 10
493.5166797067684
 20
125.5038992318006
 30
0.0
 10
493.3373425591336
 20
125.6638865255107
 30
0.0
 10
493.1573918159474
 20
125.8219956453192
 30
0.0
 10
492.9768501938585
 20
125.9782034232512
 30
0.0
 10
492.7957403527256
 20
126.1324871444751
 30
0.0
 10
492.6140849012499
 20
126.2848245315186
 30
0.0
 10
492.4319064019173
 20
126.4351937299655
 30
0.0
 10
492.2492273753368
 20
126.5835732954691
 30
0.0
 10
492.0660703040514
 20
126.7299421819386
 30
0.0
 10
491.8824576358861
 20
126.8742797307737
 30
0.0
 10
491.6984117868981
 20
127.0165656610345
 30
0.0
 10
491.5139551439762
 20
127.1567800604522
 30
0.0
 10
491.3291100671427
 20
127.2949033771926
 30
0.0
 10
491.1438988915975
 20
127.4309164122993
 30
0.0
 10
490.9583439295441
 20
127.5648003127495
 30
0.0
 10
490.7724674718322
 20
127.6965365650633
 30
0.0
 10
490.5862917894471
 20
127.8261069894192
 30
0.0
 10
490.3998391348767
 20
127.9534937342262
 30
0.0
 10
490.2131317433796
 20
128.0786792711179
 30
0.0
 10
490.0261918341782
 20
128.2016463903327
 30
0.0
 10
489.8390416115989
 20
128.322378196452
 30
0.0
 10
489.6517032661749
 20
128.4408581044711
 30
0.0
 10
489.4641989757341
 20
128.5570698361816
 30
0.0
 10
489.2765509064809
 20
128.6709974168483
 30
0.0
 10
489.0887812140893
 20
128.7826251721665
 30
0.0
 10
488.9009120448172
 20
128.8919377254877
 30
0.0
 10
488.7129655366501
 20
128.9989199953052
 30
0.0
 10
488.5249638204861
 20
129.103557192994
 30
0.0
 10
488.3369290213599
 20
129.2058348208017
 30
0.0
 10
488.1488832597205
 20
129.3057386700856
 30
0.0
 10
487.9608486527549
 20
129.4032548198011
 30
0.0
 10
487.7728474096431
 20
129.4983695877419
 30
0.0
 10
487.5849017873194
 20
129.5910695586103
 30
0.0
 10
487.3970340529996
 20
129.681341605374
 30
0.0
 10
487.2092663925937
 20
129.7691729312257
 30
0.0
 10
487.0216209581093
 20
129.8545510435255
 30
0.0
 10
486.834119908157
 20
129.9374637347366
 30
0.0
 10
486.6467854089889
 20
130.0178990830746
 30
0.0
 10
486.4596396359089
 20
130.0958454532563
 30
0.0
 10
486.272704774622
 20
130.1712914975518
 30
0.0
 10
486.086003022498
 20
130.2442261571453
 30
0.0
 10
485.8995565897226
 20
130.3146386638068
 30
0.0
 10
485.7133877003037
 20
130.3825185418807
 30
0.0
 10
485.5275185928972
 20
130.4478556105891
 30
0.0
 10
485.341971521418
 20
130.5106399866495
 30
0.0
 10
485.1567687553904
 20
130.5708620872011
 30
0.0
 10
484.9719325800017
 20
130.6285126330324
 30
0.0
 10
484.7874852958089
 20
130.6835826520945
 30
0.0
 10
484.603449218058
 20
130.7360634832862
 30
0.0
 10
484.4198466755623
 20
130.7859467804843
 30
0.0
 10
484.236700009099
 20
130.8332245167938
 30
0.0
 10
484.0540315692718
 20
130.8778889889818
 30
0.0
 10
483.8718637137993
 20
130.9199328220522
 30
0.0
 10
483.6902188041798
 20
130.9593489739176
 30
0.0
 10
483.5091192017006
 20
130.9961307401075
 30
0.0
 10
483.3285872627499
 20
131.0302717584549
 30
0.0
 10
483.1486453334077
 20
131.0617660136889
 30
0.0
 10
482.969315743293
 20
131.0906078418587
 30
0.0
 10
482.7906207986513
 20
131.1167919345044
 30
0.0
 10
482.6125827746888
 20
131.1403133424879
 30
0.0
 10
482.4352239071517
 20
131.1611674793883
 30
0.0
 10
482.2585663831805
 20
131.1793501243662
 30
0.0
 10
482.0826323314739
 20
131.1948574243962
 30
0.0
 10
481.9074438118101
 20
131.2076858957666
 30
0.0
 10
481.7330228039993
 20
131.2178324247485
 30
0.0
 10
481.5593911963422
 20
131.2252942673354
 30
0.0
 10
481.3865707737029
 20
131.2300690479648
 30
0.0
 10
481.2145832053078
 20
131.2321547571375
 30
0.0
 10
481.0434500324031
 20
131.2315497478616
 30
0.0
 10
480.8731926559209
 20
131.2282527308631
 30
0.0
 10
480.7038323243114
 20
131.2222627685167
 30
0.0
 10
480.5353901217148
 20
131.2135792674739
 30
0.0
 10
480.3678869566547
 20
131.2022019699808
 30
0.0
 10
480.2013435514376
 20
131.1881309439031
 30
0.0
 10
480.0357804324528
 20
131.1713665715011
 30
0.0
 10
479.8712179215583
 20
131.1519095370206
 30
0.0
 10
479.7076761287428
 20
131.1297608131944
 30
0.0
 10
479.5451749462364
 20
131.1049216467754
 30
0.0
 10
479.3837340442374
 20
131.0773935432482
 30
0.0
 10
479.223372868403
 20
131.047178250894
 30
0.0
 10
479.0641106392287
 20
131.0142777444063
 30
0.0
 10
478.9059663534256
 20
130.9786942082748
 30
0.0
 10
478.7489587873584
 20
130.9404300201937
 30
0.0
 10
478.5931065026252
 20
130.8994877346897
 30
0.0
 10
478.438427853663
 20
130.8558700674613
 30
0.0
 10
478.2849409978303
 20
130.8095798798803
 30
0.0
 10
478.13266390614
 20
130.7606201670168
 30
0.0
 10
477.9816143811391
 20
130.7089940379636
 30
0.0
 10
477.8318100572074
 20
130.6547047316753
 30
0.0
 10
477.6832684749156
 20
130.5977555082807
 30
0.0
 10
477.5360068865373
 20
130.5381500145029
 30
0.0
 10
477.390043071823
 20
130.4758908895786
 30
0.0
 10
477.2453923876494
 20
130.4109849513898
 30
0.0
 10
477.102078883038
 20
130.3434238271767
 30
0.0
 10
476.9600938993979
 20
130.2732562830275
 30
0.0
 10
476.8195507669367
 20
130.2003181558031
 30
0.0
 10
476.7027168054595
 20
130.1374140690799
 30
0.0
 10
476.6333076495295
 20
130.0978285242011
 30
0.0
 10
476.6097412491951
 20
130.0843880956932
 30
0.0
  0
SPLINE
  5
158
330
1F
100
AcDbEntity
  8
0
  6
Continuous
 62
     7
370
    30
100
AcDbSpline
210
0.0
220
0.0
230
1.0
 70
     8
 71
     3
 72
   148
 73
   144
 74
     0
 42
0.000000001
 43
0.00000001
 40
0.0
 40
0.0
 40
0.0
 40
0.0
 40
0.0047061804976449
 40
0.0116890687551862
 40
0.0186763380244134
 40
0.0256683063576195
 40
0.0326652841321827
 40
0.0396675721668051
 40
0.0466754599004254
 40
0.0536892236476109
 40
0.0607091249481037
 40
0.0677354090275551
 40
0.0747683033852266
 40
0.0818080165227738
 40
0.088854736826802
 40
0.0959086316156312
 40
0.1029698463589502
 40
0.1100385040766104
 40
0.1171147049206411
 40
0.1241985259420071
 40
0.131290021041514
 40
0.1383892211017652
 40
0.1454961342946144
 40
0.1526107465568304
 40
0.1597330222242285
 40
0.1668629048130783
 40
0.1740003179357945
 40
0.1811451663366612
 40
0.1882973370326387
 40
0.195456700542673
 40
0.2026231121897532
 40
0.2097964134588339
 40
0.2169764333940433
 40
0.2241629900196058
 40
0.2313558917687728
 40
0.2385549389064008
 40
0.2457599249319007
 40
0.252970637950057
 40
0.2601868619991058
 40
0.2674083783263394
 40
0.2746349666033516
 40
0.2818664060742509
 40
0.2891024766314175
 40
0.2963429598153649
 40
0.3035876397359416
 40
0.3108363039134711
 40
0.3180887440398588
 40
0.3253447566603153
 40
0.3326041437773518
 40
0.3398667133796919
 40
0.3471322798986728
 40
0.3544006645964795
 40
0.361671695889429
 40
0.3689452096112161
 40
0.3762210492201158
 40
0.3834990659554169
 40
0.3907791189469942
 40
0.3980610752835599
 40
0.4053448100433001
 40
0.4126302062921716
 40
0.4199171550537698
 40
0.4272055552548661
 40
0.4344953136509135
 40
0.4417863447350139
 40
0.4490785706338554
 40
0.4563719209939074
 40
0.4636663328613653
 40
0.4709617505579301
 40
0.4782581211363753
 40
0.485555391343197
 40
0.4928535276504027
 40
0.5001525034158023
 40
0.5074522986332672
 40
0.5147528998354187
 40
0.5220543000095078
 40
0.5293564985270232
 40
0.5366595010886773
 40
0.5439633196863942
 40
0.551267972583835
 40
0.5585734843172268
 40
0.5658798857186199
 40
0.57318721396275
 40
0.5804955126402689
 40
0.5878048318592404
 40
0.5951152283771307
 40
0.6024267657664626
 40
0.6097395146168944
 40
0.6170535527771015
 40
0.6243689656406639
 40
0.6316858464801635
 40
0.6390042968347259
 40
0.6463244269569072
 40
0.6536463563257474
 40
0.6609702142338763
 40
0.6682961404578754
 40
0.6756242860227578
 40
0.6829548140729318
 40
0.6902879008646264
 40
0.6976237368970667
 40
0.7049625282032806
 40
0.7123044978246037
 40
0.7196498874988069
 40
0.7269989595960384
 40
0.7343519993458079
 40
0.7417093174050879
 40
0.749071252830513
 40
0.7564381765299509
 40
0.7638104952875601
 40
0.7711886564774169
 40
0.7785731536110223
 40
0.7859645328987336
 40
0.7933634010557167
 40
0.8007704346444414
 40
0.808186391331236
 40
0.8156121235473336
 40
0.8230485951986674
 40
0.8304969022817982
 40
0.8379582985587134
 40
0.8454342278646773
 40
0.8529263652280521
 40
0.8596497713967827
 40
0.8663722093588556
 40
0.873092972173239
 40
0.8798118370797606
 40
0.8865285281985844
 40
0.8932427005652828
 40
0.8999539171930491
 40
0.9066616162161273
 40
0.9133650626771395
 40
0.9200632758108173
 40
0.9267549158419915
 40
0.9334381011353147
 40
0.940110099703637
 40
0.9467667808628064
 40
0.9534015763886914
 40
0.9600033490455647
 40
0.9665515452432784
 40
0.9730035307659871
 40
0.9792541439889181
 40
0.984952865920594
 40
0.989359705386339
 40
0.9935584686249116
 40
1.0
 40
1.0
 40
1.0
 40
1.0
 10
500.8556574466996
 20
88.08117408301051
 30
0.0
 10
500.8863759942439
 20
88.09921888020172
 30
0.0
 10
500.9626737933792
 20
88.14403800159897
 30
0.0
 10
501.0828467690123
 20
88.21860100588496
 30
0.0
 10
501.2164050718586
 20
88.30448203088416
 30
0.0
 10
501.3484341581833
 20
88.39307303071799
 30
0.0
 10
501.4789900095399
 20
88.48424283613356
 30
0.0
 10
501.6080353597752
 20
88.57801994000741
 30
0.0
 10
501.7355578027822
 20
88.6743896729675
 30
0.0
 10
501.8615381033446
 20
88.7733485691426
 30
0.0
 10
501.9859586925942
 20
88.8748897425879
 30
0.0
 10
502.1088013876433
 20
88.979006769155
 30
0.0
 10
502.2300480059845
 20
89.0856926032522
 30
0.0
 10
502.3496802072762
 20
89.19493982652656
 30
0.0
 10
502.4676795464283
 20
89.30674053957785
 30
0.0
 10
502.5840274739472
 20
89.42108635036809
 30
0.0
 10
502.698705354274
 20
89.53796833812362
 30
0.0
 10
502.8116944829632
 20
89.65737702575736
 30
0.0
 10
502.9229761076151
 20
89.77930235242546
 30
0.0
 10
503.0325314509707
 20
89.90373364891278
 30
0.0
 10
503.1403417362729
 20
90.03065961552333
 30
0.0
 10
503.2463882145036
 20
90.16006830291265
 30
0.0
 10
503.3506521932115
 20
90.29194709603753
 30
0.0
 10
503.4531150665824
 20
90.42628270140804
 30
0.0
 10
503.5537583464118
 20
90.56306113776073
 30
0.0
 10
503.6525636936201
 20
90.7022677302208
 30
0.0
 10
503.7495129499607
 20
90.84388710797079
 30
0.0
 10
503.8445881695714
 20
90.98790320538907
 30
0.0
 10
503.9377716500332
 20
91.13429926657297
 30
0.0
 10
504.0290459626233
 20
91.28305785311629
 30
0.0
 10
504.1183939814651
 20
91.43416085496743
 30
0.0
 10
504.2057989113107
 20
91.58758950415968
 30
0.0
 10
504.2912443137222
 20
91.74332439117202
 30
0.0
 10
504.3747141314469
 20
91.90134548365467
 30
0.0
 10
504.4561927108228
 20
92.06163214723574
 30
0.0
 10
504.5356648220844
 20
92.2241631681113
 30
0.0
 10
504.6131156774709
 20
92.38891677711533
 30
0.0
 10
504.688530947085
 20
92.55587067496683
 30
0.0
 10
504.76189677247
 20
92.72500205839428
 30
0.0
 10
504.8331997779167
 20
92.89628764684967
 30
0.0
 10
504.9024270795364
 20
93.06970370953859
 30
0.0
 10
504.9695662921571
 20
93.24522609250799
 30
0.0
 10
505.0346055341346
 20
93.42283024555837
 30
0.0
 10
505.0975334301765
 20
93.6024912487662
 30
0.0
 10
505.158339112302
 20
93.78418383842983
 30
0.0
 10
505.2170122190686
 20
93.96788243227532
 30
0.0
 10
505.2735428932064
 20
94.15356115378381
 30
0.0
 10
505.3279217778067
 20
94.34119385553034
 30
0.0
 10
505.3801400112138
 20
94.53075414144426
 30
0.0
 10
505.4301892207685
 20
94.72221538792661
 30
0.0
 10
505.4780615155518
 20
94.915550763782
 30
0.0
 10
505.5237494782701
 20
95.11073324893987
 30
0.0
 10
505.5672461564183
 20
95.3077356519627
 30
0.0
 10
505.6085450528502
 20
95.50653062634662
 30
0.0
 10
505.6476401158774
 20
95.7070906856453
 30
0.0
 10
505.6845257290066
 20
95.90938821744749
 30
0.0
 10
505.7191967004185
 20
96.11339549626189
 30
0.0
 10
505.7516482522788
 20
96.31908469535685
 30
0.0
 10
505.781876009963
 20
96.52642789762409
 30
0.0
 10
505.8098759912663
 20
96.73539710552755
 30
0.0
 10
505.835644595661
 20
96.9459642502122
 30
0.0
 10
505.8591785936522
 20
97.15810119984351
 30
0.0
 10
505.8804751162758
 20
97.37177976725324
 30
0.0
 10
505.8995316447723
 20
97.58697171696765
 30
0.0
 10
505.9163460004652
 20
97.80364877168982
 30
0.0
 10
505.9309163348609
 20
98.02178261831472
 30
0.0
 10
505.9432411199819
 20
98.24134491354584
 30
0.0
 10
505.953319136908
 20
98.46230724456983
 30
0.0
 10
505.9611494664644
 20
98.68464105811461
 30
0.0
 10
505.9667314901824
 20
98.90831779245664
 30
0.0
 10
505.9700648809759
 20
99.13330892952473
 30
0.0
 10
505.9711495907
 20
99.35958607738473
 30
0.0
 10
505.9699858372191
 20
99.58712084414844
 30
0.0
 10
505.9665740962944
 20
99.81588484115339
 30
0.0
 10
505.9609150936518
 20
100.0458496877486
 30
0.0
 10
505.9530097971651
 20
100.2769870162904
 30
0.0
 10
505.9428594091177
 20
100.5092684773944
 30
0.0
 10
505.930465358511
 20
100.7426657455024
 30
0.0
 10
505.9158292933763
 20
100.9771505248211
 30
0.0
 10
505.8989530730493
 20
101.2126945556993
 30
0.0
 10
505.8798387603609
 20
101.449269621504
 30
0.0
 10
505.8584886136939
 20
101.6868475560681
 30
0.0
 10
505.8349050788518
 20
101.9254002517794
 30
0.0
 10
505.8090907806805
 20
102.1648996683919
 30
0.0
 10
505.7810485143791
 20
102.4053178426445
 30
0.0
 10
505.7507812364281
 20
102.6466268987818
 30
0.0
 10
505.7182920550598
 20
102.8887990600816
 30
0.0
 10
505.6835842201833
 20
103.1318066615078
 30
0.0
 10
505.6466611126698
 20
103.3756221636185
 30
0.0
 10
505.6075262328924
 20
103.6202181678817
 30
0.0
 10
505.5661831883985
 20
103.8655674335666
 30
0.0
 10
505.5226356805843
 20
104.1116428964062
 30
0.0
 10
505.4768874902138
 20
104.358417689256
 30
0.0
 10
505.4289424616104
 20
104.6058651650065
 30
0.0
 10
505.3788044853194
 20
104.8539589220509
 30
0.0
 10
505.3264774790118
 20
105.102672832656
 30
0.0
 10
505.2719653663596
 20
105.351981074647
 30
0.0
 10
505.2152720535749
 20
105.6018581668819
 30
0.0
 10
505.1564014032455
 20
105.852279009085
 30
0.0
 10
505.0953572050395
 20
106.1032189267042
 30
0.0
 10
505.0321431427758
 20
106.3546537215904
 30
0.0
 10
504.9667627572575
 20
106.6065597294407
 30
0.0
 10
504.8992194041542
 20
106.8589138851525
 30
0.0
 10
504.8295162060726
 20
107.1116937974472
 30
0.0
 10
504.7576559977801
 20
107.3648778344356
 30
0.0
 10
504.6836412633234
 20
107.6184452221355
 30
0.0
 10
504.6074740635074
 20
107.8723761584276
 30
0.0
 10
504.5291559518517
 20
108.1266519454919
 30
0.0
 10
504.4486878766878
 20
108.3812551445233
 30
0.0
 10
504.3660700665009
 20
108.6361697574427
 30
0.0
 10
504.2813018948692
 20
108.8913814415669
 30
0.0
 10
504.1943817203918
 20
109.1468777647862
 30
0.0
 10
504.1053066957431
 20
109.4026485108782
 30
0.0
 10
504.0140725382155
 20
109.6586860475919
 30
0.0
 10
503.920673252166
 20
109.9149857731454
 30
0.0
 10
503.8251007894377
 20
110.1715466649474
 30
0.0
 10
503.727344634226
 20
110.4283719503174
 30
0.0
 10
503.6273912753816
 20
110.6854699709171
 30
0.0
 10
503.5252235860958
 20
110.9428551701854
 30
0.0
 10
503.4244747257321
 20
111.1915286479915
 30
0.0
 10
503.3254574729572
 20
111.431309669382
 30
0.0
 10
503.2284877000129
 20
111.6620004796097
 30
0.0
 10
503.1299507992604
 20
111.8923576046739
 30
0.0
 10
503.0298647542521
 20
112.122342326154
 30
0.0
 10
502.9282462355369
 20
112.3519201364222
 30
0.0
 10
502.8251134212558
 20
112.581054238913
 30
0.0
 10
502.7204864537784
 20
112.8097047513932
 30
0.0
 10
502.6143880893272
 20
113.0378275776029
 30
0.0
 10
502.5068446612878
 20
113.2653727291872
 30
0.0
 10
502.3978875452865
 20
113.4922817707127
 30
0.0
 10
502.2875554654715
 20
113.7184837917882
 30
0.0
 10
502.1758982730665
 20
113.9438888003441
 30
0.0
 10
502.0629834375248
 20
114.1683763534277
 30
0.0
 10
501.9489078783573
 20
114.3917748221119
 30
0.0
 10
501.833821124207
 20
114.6138206830387
 30
0.0
 10
501.7179752929831
 20
114.8340707714242
 30
0.0
 10
501.6018469736392
 20
115.0516869680378
 30
0.0
 10
501.486497887819
 20
115.2648015050652
 30
0.0
 10
501.3750326039043
 20
115.4679272086896
 30
0.0
 10
501.2749622996499
 20
115.6479753776317
 30
0.0
 10
501.1866996359331
 20
115.8050443258737
 30
0.0
 10
501.09325512205
 20
115.9699484558736
 30
0.0
 10
501.0264323829322
 20
116.0861405484497
 30
0.0
 10
500.9859785434263
 20
116.1564821167091
 30
0.0
  0
LINE
  5
159
330
1F
100
AcDbEntity
  8
0
  6
Continuous
 62
     7
370
    30
100
AcDbLine
 10
470.8798282638
 20
78.5424407326
 30
0.0
 11
470.8798282638
 21
45.3617510148
 31
0.0
  0
LINE
  5
15A
330
1F
100
AcDbEntity
  8
0
  6
Continuous
 62
     7
370
    30
100
AcDbLine
 10
479.1798282638
 20
45.3617510148
 30
0.0
 11
479.1798282638
 21
76.5487213274
 31
0.0
  0
SPLINE
  5
15B
330
1F
100
AcDbEntity
  8
0
  6
Continuous
 62
     7
370
    30
100
AcDbSpline
210
0.0
220
0.0
230
1.0
 70
     8
 71
     3
 72
    68
 73
    64
 74
     0
 42
0.000000001
 43
0.00000001
 40
0.0
 40
0.0
 40
0.0
 40
0.0
 40
0.0087043324262967
 40
0.0246957920913779
 40
0.0407351328529122
 40
0.0568352644769318
 40
0.0730089410640172
 40
0.0892685893484197
 40
0.1056261262686684
 40
0.1220927651578048
 40
0.1386788115437258
 40
0.1553934515714693
 40
0.1722445385093682
 40
0.1892383855161577
 40
0.2063795755488517
 40
0.2236708015705022
 40
0.2411127515585208
 40
0.2587040526757021
 40
0.2764412868945614
 40
0.2943190861647838
 40
0.3123303090865875
 40
0.3304662936761505
 40
0.3487171732769384
 40
0.3670722362768937
 40
0.385520306218041
 40
0.4040501178720067
 40
0.4226506670009397
 40
0.4413115162765397
 40
0.4580787087235919
 40
0.4748572772777943
 40
0.4916413288236638
 40
0.5084267910776861
 40
0.525209049269396
 40
0.541985196564999
 40
0.5587528657029527
 40
0.5755100944995198
 40
0.592255282246695
 40
0.6089871408018298
 40
0.6257046463490242
 40
0.6424069922148269
 40
0.659093542620542
 40
0.6757637867549376
 40
0.6924172920058415
 40
0.7090536545170822
 40
0.7256724443154158
 40
0.7422731408769735
 40
0.7588550528268275
 40
0.7754172118638751
 40
0.7919582248056412
 40
0.8084760565553946
 40
0.8249676960819056
 40
0.841428616899219
 40
0.8578518593024304
 40
0.8742263746672309
 40
0.890533821816292
 40
0.9067418046980359
 40
0.9227878924723606
 40
0.9385355456335016
 40
0.9536208485949744
 40
0.9671942870534772
 40
0.9769322307515721
 40
0.9877741240713718
 40
0.9999999999999999
 40
0.9999999999999999
 40
0.9999999999999999
 40
0.9999999999999999
 10
470.8801974745917
 20
45.36141744420258
 30
0.0
 10
470.880142225174
 20
45.34841298065256
 30
0.0
 10
470.8799854724138
 20
45.31151692563504
 30
0.0
 10
470.8830131537522
 20
45.25069447347947
 30
0.0
 10
470.8890455828586
 20
45.17898195299487
 30
0.0
 10
470.8982498038776
 20
45.10725015942455
 30
0.0
 10
470.9104606524957
 20
45.03554141999366
 30
0.0
 10
470.9257492623249
 20
44.96389920878188
 30
0.0
 10
470.9441244526354
 20
44.89236826022608
 30
0.0
 10
470.9656128608543
 20
44.82099505434564
 30
0.0
 10
470.9902367276643
 20
44.74982825048425
 30
0.0
 10
471.0180191309087
 20
44.67891916529149
 30
0.0
 10
471.0489815969717
 20
44.60832223854946
 30
0.0
 10
471.0831435768603
 20
44.5380954595852
 30
0.0
 10
471.1205212414011
 20
44.46830070893888
 30
0.0
 10
471.1611263295796
 20
44.39900396851485
 30
0.0
 10
471.2049649192818
 20
44.3302753535399
 30
0.0
 10
471.252036246031
 20
44.26218892723627
 30
0.0
 10
471.3023316415929
 20
44.19482227352521
 30
0.0
 10
471.3558336844339
 20
44.12825582391655
 30
0.0
 10
471.4125156404495
 20
44.06257195982933
 30
0.0
 10
471.4723412537206
 20
43.99785393695285
 30
0.0
 10
471.5352649153091
 20
43.93418470107588
 30
0.0
 10
471.6012322078496
 20
43.87164567520557
 30
0.0
 10
471.6701807690985
 20
43.81031561465193
 30
0.0
 10
471.7420414614831
 20
43.75026956780803
 30
0.0
 10
471.8167395426659
 20
43.69157815407326
 30
0.0
 10
471.8915059227997
 20
43.63629607490799
 30
0.0
 10
471.9659240726804
 20
43.58432203870179
 30
0.0
 10
472.0396050452927
 20
43.53554569803313
 30
0.0
 10
472.1152056703518
 20
43.48809455142936
 30
0.0
 10
472.1926583694464
 20
43.44199580098653
 30
0.0
 10
472.271897605414
 20
43.39727287878853
 30
0.0
 10
472.3528583868214
 20
43.35394679969517
 30
0.0
 10
472.4354781201245
 20
43.3120356171022
 30
0.0
 10
472.5196947394977
 20
43.27155577057296
 30
0.0
 10
472.605446504645
 20
43.23252237145013
 30
0.0
 10
472.6926719138689
 20
43.1949493832324
 30
0.0
 10
472.7813095876641
 20
43.15884978012927
 30
0.0
 10
472.8712981353753
 20
43.12423567971074
 30
0.0
 10
472.9625760056868
 20
43.09111845159818
 30
0.0
 10
473.0550813191685
 20
43.05950880443063
 30
0.0
 10
473.1487516775649
 20
43.02941685366319
 30
0.0
 10
473.2435239400053
 20
43.00085217282497
 30
0.0
 10
473.3393339499182
 20
42.97382383084859
 30
0.0
 10
473.4361161867913
 20
42.94834041801726
 30
0.0
 10
473.533803301589
 20
42.92441006303857
 30
0.0
 10
473.6323254690942
 20
42.9020404438215
 30
0.0
 10
473.7316094460685
 20
42.8812387948816
 30
0.0
 10
473.8315771435902
 20
42.86201191511281
 30
0.0
 10
473.9321433686906
 20
42.84436618189458
 30
0.0
 10
474.033212082627
 20
42.82830758132479
 30
0.0
 10
474.1346698638507
 20
42.81384177801936
 30
0.0
 10
474.2363737390315
 20
42.80097426422318
 30
0.0
 10
474.338126658823
 20
42.78971074149187
 30
0.0
 10
474.4396227005168
 20
42.780057970997
 30
0.0
 10
474.5403058743273
 20
42.77202672014226
 30
0.0
 10
474.6389193559036
 20
42.76564053983483
 30
0.0
 10
474.7325400500856
 20
42.7609347920619
 30
0.0
 10
474.8136172891143
 20
42.75794128179194
 30
0.0
 10
474.8857981856352
 20
42.75607498779866
 30
0.0
 10
474.955170195183
 20
42.7548937490147
 30
0.0
 10
475.0039663762226
 20
42.75473500158669
 30
0.0
 10
475.0298282638095
 20
42.75465086573732
 30
0.0
  0
SPLINE
  5
15C
330
1F
100
AcDbEntity
  8
0
  6
Continuous
 62
     7
370
    30
100
AcDbSpline
210
0.0
220
0.0
230
1.0
 70
     8
 71
     3
 72
    70
 73
    66
 74
     0
 42
0.000000001
 43
0.00000001
 40
0.0
 40
0.0
 40
0.0
 40
0.0
 40
0.0180908291786205
 40
0.0253757640118761
 40
0.0374772365491253
 40
0.0500392638802586
 40
0.0635147198008082
 40
0.0775805015496715
 40
0.0921069388374023
 40
0.1069906177093459
 40
0.1221581938419561
 40
0.1375555340260648
 40
0.1531419879657216
 40
0.1688864719763956
 40
0.1847648341139559
 40
0.2007580384600064
 40
0.2168508893277852
 40
0.2330311174038523
 40
0.249288712932399
 40
0.2656154303819369
 40
0.2820044139847945
 40
0.2984499096320268
 40
0.314947039162531
 40
0.3314916201275722
 40
0.3480800188867602
 40
0.3647090281830841
 40
0.3813757626572121
 40
0.3980775674182535
 40
0.4148119360119431
 40
0.4315764350655583
 40
0.4483686336475221
 40
0.4651860360365368
 40
0.4820260172067353
 40
0.4988857609426744
 40
0.5157622011319681
 40
0.5326512951929794
 40
0.5495486973233686
 40
0.5664501074973269
 40
0.5833507939733439
 40
0.6002456007191317
 40
0.6171289652804938
 40
0.6339949628467508
 40
0.6508373794093802
 40
0.6676498158176616
 40
0.6844258225318612
 40
0.701159062383791
 40
0.7178434959168786
 40
0.7344735812578379
 40
0.7510444783806367
 40
0.7675522464513523
 40
0.7839940229509054
 40
0.8003681745226437
 40
0.8166744118193718
 40
0.8329138636693924
 40
0.8490891091755981
 40
0.8652041694319396
 40
0.8812644630073455
 40
0.897276730979134
 40
0.9132489380350405
 40
0.9291901560820859
 40
0.9451104360733946
 40
0.9610206726048197
 40
0.9769324644474597
 40
0.9928579727565114
 40
1.0
 40
1.0
 40
1.0
 40
1.0
 10
475.0298282638095
 20
42.75465086573732
 30
0.0
 10
475.0680992915899
 20
42.75482613901863
 30
0.0
 10
475.1217815501451
 20
42.75507199250494
 30
0.0
 10
475.2010180832128
 20
42.75671410378464
 30
0.0
 10
475.2685276835381
 20
42.75867716664385
 30
0.0
 10
475.3490302246676
 20
42.76196306096377
 30
0.0
 10
475.4335496065446
 20
42.76643776545769
 30
0.0
 10
475.5220265339615
 20
42.77226856337724
 30
0.0
 10
475.613226380249
 20
42.77950988496627
 30
0.0
 10
475.7064387633125
 20
42.78821395565136
 30
0.0
 10
475.8011113961667
 20
42.79841668458984
 30
0.0
 10
475.8968233776054
 20
42.81014475612371
 30
0.0
 10
475.9932423054707
 20
42.82341758725971
 30
0.0
 10
476.090098621848
 20
42.83824914187767
 30
0.0
 10
476.1871681696048
 20
42.85464911230158
 30
0.0
 10
476.2842602810348
 20
42.87262378989296
 30
0.0
 10
476.381209470382
 20
42.89217670083376
 30
0.0
 10
476.4778695296096
 20
42.91330908613774
 30
0.0
 10
476.5741092552451
 20
42.93602026976239
 30
0.0
 10
476.6698093014999
 20
42.96030794611042
 30
0.0
 10
476.7648598236847
 20
42.98616840740969
 30
0.0
 10
476.8591586842784
 20
43.0135967249948
 30
0.0
 10
476.9526100647794
 20
43.0425868939098
 30
0.0
 10
477.0451233734927
 20
43.07313194706897
 30
0.0
 10
477.1366123712271
 20
43.10522404290647
 30
0.0
 10
477.2269944587745
 20
43.13885452873271
 30
0.0
 10
477.3161900854274
 20
43.17401398072027
 30
0.0
 10
477.4041222488233
 20
43.21069222044203
 30
0.0
 10
477.4907160645352
 20
43.24887830713531
 30
0.0
 10
477.5758983900046
 20
43.288560504331
 30
0.0
 10
477.6595974923043
 20
43.32972621918865
 30
0.0
 10
477.741742753246
 20
43.37236191283796
 30
0.0
 10
477.8222644088368
 20
43.41645298031541
 30
0.0
 10
477.9010933231362
 20
43.46198359932033
 30
0.0
 10
477.9781597761738
 20
43.50893592476698
 30
0.0
 10
478.0533935282033
 20
43.55728982478283
 30
0.0
 10
478.1267244962778
 20
43.60702298480765
 30
0.0
 10
478.1980836596989
 20
43.65811132156872
 30
0.0
 10
478.2674029414973
 20
43.71052874592754
 30
0.0
 10
478.3346146932939
 20
43.76424650518054
 30
0.0
 10
478.399651940304
 20
43.81923299398709
 30
0.0
 10
478.4624486968964
 20
43.87545360550338
 30
0.0
 10
478.5229403637393
 20
43.93287065408438
 30
0.0
 10
478.5810641928903
 20
43.99144338754986
 30
0.0
 10
478.6367597991955
 20
44.05112810299844
 30
0.0
 10
478.6899696883935
 20
44.11187837324567
 30
0.0
 10
478.7406397661564
 20
44.17364538189468
 30
0.0
 10
478.7887197892582
 20
44.23637835475455
 30
0.0
 10
478.8341637211846
 20
44.30002506522465
 30
0.0
 10
478.8769299602138
 20
44.3645323829249
 30
0.0
 10
478.9169814177482
 20
44.4298468297529
 30
0.0
 10
478.9542854378244
 20
44.49591510662299
 30
0.0
 10
478.9888135611853
 20
44.56268455762158
 30
0.0
 10
479.0205411554724
 20
44.63010354559449
 30
0.0
 10
479.0494469238163
 20
44.6981217229942
 30
0.0
 10
479.0755123826279
 20
44.76669019261967
 30
0.0
 10
479.0987211331824
 20
44.83576156270549
 30
0.0
 10
479.1190587451121
 20
44.90528990967478
 30
0.0
 10
479.1365103666439
 20
44.97523066400216
 30
0.0
 10
479.1510669169197
 20
45.04554044824047
 30
0.0
 10
479.1626995653154
 20
45.11617685288327
 30
0.0
 10
479.1714526303513
 20
45.18709829166706
 30
0.0
 10
479.1770952334541
 20
45.25826348103072
 30
0.0
 10
479.1798074141944
 20
45.31647566797083
 30
0.0
 10
479.1795421702882
 20
45.35093969455531
 30
0.0
 10
479.1794600471155
 20
45.36161023264665
 30
0.0
  0
LINE
  5
15D
330
1F
100
AcDbEntity
  8
0
  6
Continuous
 62
     7
370
    30
100
AcDbLine
 10
447.5720347238
 20
144.8801062753
 30
0.0
 11
447.5720347238
 21
149.6420409611
 31
0.0
  0
LINE
  5
15E
330
1F
100
AcDbEntity
  8
0
  6
Continuous
 62
     7
370
    30
100
AcDbLine
 10
426.5945347238
 20
142.9337829443
 30
0.0
 11
426.5945347238
 21
138.9061886834
 31
0.0
  0
LINE
  5
15F
330
1F
100
AcDbEntity
  8
0
  6
Continuous
 62
     7
370
    30
100
AcDbLine
 10
447.5495347238
 20
138.9061886834
 30
0.0
 11
447.5495347238
 21
144.4834992185
 31
0.0
  0
SPLINE
  5
160
330
1F
100
AcDbEntity
  8
0
  6
Continuous
 62
     7
370
    30
100
AcDbSpline
210
0.0
220
0.0
230
1.0
 70
     8
 71
     3
 72
   138
 73
   134
 74
     0
 42
0.000000001
 43
0.00000001
 40
0.0
 40
0.0
 40
0.0
 40
0.0
 40
0.0045939657458463
 40
0.0118907127759446
 40
0.0191878269208048
 40
0.0264865743580964
 40
0.0337882098702943
 40
0.0410939692509638
 40
0.0484050618490982
 40
0.0557226632825204
 40
0.063047908365835
 40
0.0703818843007658
 40
0.0777256241796075
 40
0.0850801008549434
 40
0.0924462212314887
 40
0.0998248210373244
 40
0.1072166601328563
 40
0.1146224184150577
 40
0.1220426923727925
 40
0.1294779923450044
 40
0.1369287405279531
 40
0.1443952697697818
 40
0.1518778231809789
 40
0.1593765545777518
 40
0.1668915297618196
 40
0.174422728626046
 40
0.1819700480595812
 40
0.1895333056110572
 40
0.1971122438531592
 40
0.204706535377748
 40
0.2123157883381296
 40
0.2199395524449385
 40
0.2275773253141765
 40
0.2352285590610323
 40
0.2428926670314744
 40
0.2505690305649187
 40
0.2582570056855423
 40
0.2659559296266837
 40
0.2736651271023013
 40
0.2813839162503698
 40
0.2891116141853932
 40
0.2968475421105375
 40
0.3045910299529484
 40
0.3123414204988921
 40
0.3200980730175915
 40
0.3278603663740021
 40
0.335627701640287
 40
0.3433995042246253
 40
0.3511752255425947
 40
0.3589543442617097
 40
0.3667363671537165
 40
0.3745208295914597
 40
0.3823072957286848
 40
0.3900953584008838
 40
0.3978846387850601
 40
0.4056747858544099
 40
0.4134654756621449
 40
0.4212564070683176
 40
0.4290472256765208
 40
0.436837691112333
 40
0.4446275857098603
 40
0.4524167133688428
 40
0.4602048983793749
 40
0.4679919842453351
 40
0.4757778325188121
 40
0.4835623216555618
 40
0.4913453458996352
 40
0.4991268142037174
 40
0.5069066491901225
 40
0.5146847861560113
 40
0.5224611721254508
 40
0.530235764949832
 40
0.5380085324574085
 40
0.5457794516520114
 40
0.5535485079604777
 40
0.5613156945279235
 40
0.5690810115594773
 40
0.5768444657070366
 40
0.5846060694992349
 40
0.5923658408128065
 40
0.6001238023832326
 40
0.6078799813528051
 40
0.6156344088538878
 40
0.6233871196254822
 40
0.6311381516608501
 40
0.6388875458845826
 40
0.6466353458567843
 40
0.6543815975028224
 40
0.6621263488667953
 40
0.6698696498869429
 40
0.6776115521915949
 40
0.6853521089138348
 40
0.6930913745238485
 40
0.7008294046771314
 40
0.708566256077775
 40
0.7163019863551817
 40
0.7240366539534621
 40
0.7317703180322569
 40
0.7395030383779868
 40
0.7472348753247878
 40
0.7549658896841254
 40
0.7626961426822546
 40
0.7704256959050009
 40
0.7781546112488708
 40
0.7858829508780213
 40
0.7936107771864446
 40
0.8013381527646318
 40
0.8090651403704313
 40
0.8167918029033598
 40
0.8245182033818765
 40
0.8322444049233141
 40
0.8399704707257933
 40
0.8476964640518122
 40
0.8554224482130663
 40
0.8631484763185256
 40
0.8708746008588824
 40
0.8786008852137318
 40
0.8863273927592938
 40
0.8940541868529857
 40
0.9017813308171386
 40
0.9095088879210652
 40
0.917236921361025
 40
0.9249654942377449
 40
0.932694669530877
 40
0.940424510069996
 40
0.9481550785015327
 40
0.9558864372511746
 40
0.9636186484810578
 40
0.9713517740411727
 40
0.9790858754143449
 40
0.9868210136539884
 40
0.9945572493140115
 40
1.0
 40
1.0
 40
1.0
 40
1.0
 10
419.6729102075653
 20
168.1758952128529
 30
0.0
 10
419.6492655077781
 20
168.1622691160988
 30
0.0
 10
419.5880651529217
 20
168.1270002412911
 30
0.0
 10
419.491010432554
 20
168.0671781556513
 30
0.0
 10
419.3815930512864
 20
167.9967787961573
 30
0.0
 10
419.2738007867962
 20
167.9237321205153
 30
0.0
 10
419.167571295987
 20
167.8481861926348
 30
0.0
 10
419.0629427979338
 20
167.7701153031182
 30
0.0
 10
418.9599268109561
 20
167.6895401317687
 30
0.0
 10
418.8585423286295
 20
167.6064688026483
 30
0.0
 10
418.7588067047718
 20
167.520912779251
 30
0.0
 10
418.6607381388603
 20
167.4328826988139
 30
0.0
 10
418.5643550401389
 20
167.3423895959446
 30
0.0
 10
418.4696762190176
 20
167.2494446873257
 30
0.0
 10
418.3767208458028
 20
167.1540595482798
 30
0.0
 10
418.2855084608137
 20
167.0562461883385
 30
0.0
 10
418.1960589593228
 20
166.9560171564283
 30
0.0
 10
418.1083925716872
 20
166.8533856387691
 30
0.0
 10
418.0225298331687
 20
166.7483655574275
 30
0.0
 10
417.9384915450586
 20
166.640971665333
 30
0.0
 10
417.8562987270155
 20
166.531219636771
 30
0.0
 10
417.7759725611921
 20
166.4191261515094
 30
0.0
 10
417.6975343287796
 20
166.304708970998
 30
0.0
 10
417.6210053398006
 20
166.1879870051308
 30
0.0
 10
417.5464068571532
 20
166.0689803682237
 30
0.0
 10
417.4737600160577
 20
165.9477104230652
 30
0.0
 10
417.4030857401922
 20
165.8241998121408
 30
0.0
 10
417.3344046559004
 20
165.6984724754145
 30
0.0
 10
417.2677370059188
 20
165.5705536543603
 30
0.0
 10
417.2031025640952
 20
165.4404698822574
 30
0.0
 10
417.1405205525436
 20
165.3082489610935
 30
0.0
 10
417.0800095626204
 20
165.1739199257314
 30
0.0
 10
417.0215874809956
 20
165.0375129962886
 30
0.0
 10
416.9652714219509
 20
164.8990595199374
 30
0.0
 10
416.9110776668589
 20
164.7585919035418
 30
0.0
 10
416.8590216115962
 20
164.6161435387133
 30
0.0
 10
416.8091177224314
 20
164.4717487209649
 30
0.0
 10
416.7613795007053
 20
164.3254425646945
 30
0.0
 10
416.7158194564007
 20
164.1772609157152
 30
0.0
 10
416.672449090494
 20
164.0272402629886
 30
0.0
 10
416.6312788857936
 20
163.8754176511106
 30
0.0
 10
416.5923183057947
 20
163.7218305949503
 30
0.0
 10
416.5555758009565
 20
163.5665169976731
 30
0.0
 10
416.5210588216862
 20
163.4095150731832
 30
0.0
 10
416.4887738372494
 20
163.2508632738177
 30
0.0
 10
416.4587263597692
 20
163.0906002239211
 30
0.0
 10
416.4309209724693
 20
162.9287646597332
 30
0.0
 10
416.4053613613101
 20
162.765395375833
 30
0.0
 10
416.3820503492095
 20
162.6005311782182
 30
0.0
 10
416.3609899320721
 20
162.4342108439486
 30
0.0
 10
416.3421813159225
 20
162.2664730871569
 30
0.0
 10
416.3256249544972
 20
162.0973565311282
 30
0.0
 10
416.3113205867328
 20
161.926899686071
 30
0.0
 10
416.2992672736607
 20
161.7551409321388
 30
0.0
 10
416.2894634342975
 20
161.5821185072306
 30
0.0
 10
416.2819068801978
 20
161.4078704990671
 30
0.0
 10
416.2765948491791
 20
161.2324348667049
 30
0.0
 10
416.273524044983
 20
161.0558500337755
 30
0.0
 10
416.2726906201487
 20
160.8781542290591
 30
0.0
 10
416.2740902082098
 20
160.6993854636774
 30
0.0
 10
416.2777179780495
 20
160.5195809271758
 30
0.0
 10
416.2835686682113
 20
160.338777677246
 30
0.0
 10
416.2916366073183
 20
160.1570126490993
 30
0.0
 10
416.3019157325066
 20
159.9743226656597
 30
0.0
 10
416.3143996059563
 20
159.7907444481885
 30
0.0
 10
416.3290814296244
 20
159.6063146271013
 30
0.0
 10
416.3459540582851
 20
159.4210697527734
 30
0.0
 10
416.3650100109983
 20
159.2350463061614
 30
0.0
 10
416.3862414811219
 20
159.0482807090962
 30
0.0
 10
416.4096403449924
 20
158.86080933413
 30
0.0
 10
416.4351981693888
 20
158.6726685138428
 30
0.0
 10
416.4629062179007
 20
158.4838945495322
 30
0.0
 10
416.4927554563083
 20
158.294523719235
 30
0.0
 10
416.524736557085
 20
158.1045922850361
 30
0.0
 10
416.5588399031216
 20
157.9141364996426
 30
0.0
 10
416.5950555907694
 20
157.723192612207
 30
0.0
 10
416.6333734322892
 20
157.5317968733956
 30
0.0
 10
416.67378295779
 20
157.3399855397074
 30
0.0
 10
416.7162734167334
 20
157.147794877053
 30
0.0
 10
416.7608337790727
 20
156.9552611636114
 30
0.0
 10
416.8074527360906
 20
156.7624206919847
 30
0.0
 10
416.8561187009947
 20
156.569309770677
 30
0.0
 10
416.906819809321
 20
156.3759647249225
 30
0.0
 10
416.9595439191944
 20
156.182421896894
 30
0.0
 10
417.0142786114874
 20
155.9887176453206
 30
0.0
 10
417.071011189916
 20
155.7948883445474
 30
0.0
 10
417.1297286811044
 20
155.6009703830671
 30
0.0
 10
417.1904178346512
 20
155.4070001615565
 30
0.0
 10
417.2530651232204
 20
155.213014090449
 30
0.0
 10
417.3176567426823
 20
155.0190485870721
 30
0.0
 10
417.3841786123228
 20
154.8251400723839
 30
0.0
 10
417.452616375141
 20
154.6313249673327
 30
0.0
 10
417.5229553982458
 20
154.437639688874
 30
0.0
 10
417.5951807733696
 20
154.2441206456662
 30
0.0
 10
417.6692773175058
 20
154.0508042334767
 30
0.0
 10
417.74522957368
 20
153.8577268303208
 30
0.0
 10
417.8230218118647
 20
153.664924791357
 30
0.0
 10
417.9026380300404
 20
153.4724344435651
 30
0.0
 10
417.9840619554096
 20
153.2802920802262
 30
0.0
 10
418.0672770457671
 20
153.0885339552268
 30
0.0
 10
418.1522664910286
 20
152.8971962772082
 30
0.0
 10
418.2390132149199
 20
152.7063152035784
 30
0.0
 10
418.3274998768272
 20
152.515926834407
 30
0.0
 10
418.4177088738085
 20
152.3260672062185
 30
0.0
 10
418.5096223427658
 20
152.1367722857032
 30
0.0
 10
418.6032221627764
 20
151.9480779633591
 30
0.0
 10
418.6984899575821
 20
151.7600200470824
 30
0.0
 10
418.7954070982335
 20
151.5726342557199
 30
0.0
 10
418.8939547058869
 20
151.3859562125972
 30
0.0
 10
418.9941136547511
 20
151.2000214390377
 30
0.0
 10
419.0958645751793
 20
151.0148653478838
 30
0.0
 10
419.1991878569029
 20
150.8305232370344
 30
0.0
 10
419.3040636524024
 20
150.6470302830101
 30
0.0
 10
419.4104718334133
 20
150.4644216152114
 30
0.0
 10
419.5183919879058
 20
150.2827323123556
 30
0.0
 10
419.6278034714923
 20
150.1019973086475
 30
0.0
 10
419.7386854615119
 20
149.9222513084038
 30
0.0
 10
419.851016967869
 20
149.7435287772481
 30
0.0
 10
419.9647767864865
 20
149.5658640213568
 30
0.0
 10
420.0799435034782
 20
149.3892911815097
 30
0.0
 10
420.1964954994993
 20
149.2138442273726
 30
0.0
 10
420.3144109538606
 20
149.0395569514411
 30
0.0
 10
420.4336678498951
 20
148.8664629648491
 30
0.0
 10
420.5542439759852
 20
148.6945956868548
 30
0.0
 10
420.6761169430771
 20
148.5239883586129
 30
0.0
 10
420.7992641408943
 20
148.3546739670326
 30
0.0
 10
420.9236629231513
 20
148.1866855050281
 30
0.0
 10
421.049289938129
 20
148.0200549769669
 30
0.0
 10
421.1761236494049
 20
147.8548170887543
 30
0.0
 10
421.3041349486582
 20
147.6909954524213
 30
0.0
 10
421.4333222178229
 20
147.5286540608203
 30
0.0
 10
421.5507018842708
 20
147.3836180859827
 30
0.0
 10
421.6253123404265
 20
147.2931400048657
 30
0.0
 10
421.6561254925737
 20
147.2557737291039
 30
0.0
  0
SPLINE
  5
161
330
1F
100
AcDbEntity
  8
0
  6
Continuous
 62
     7
370
    30
100
AcDbSpline
210
0.0
220
0.0
230
1.0
 70
     8
 71
     3
 72
    99
 73
    95
 74
     0
 42
0.000000001
 43
0.00000001
 40
0.0
 40
0.0
 40
0.0
 40
0.0
 40
0.0058922240742154
 40
0.0170163852939225
 40
0.0281422242249544
 40
0.039269998239374
 40
0.0503997884239813
 40
0.0615316741893809
 40
0.0726657330414921
 40
0.0838020403347055
 40
0.0949406689993891
 40
0.106081689241594
 40
0.1172251682126893
 40
0.1283711696465785
 40
0.1395197534621243
 40
0.1506709753278644
 40
0.1618248861866887
 40
0.1729815317373411
 40
0.1841409518698927
 40
0.1953031800523971
 40
0.206468242665303
 40
0.2176361582809896
 40
0.2288069368850564
 40
0.2399805790366313
 40
0.2511570749647096
 40
0.2623364035980902
 40
0.2735185315263678
 40
0.2847034118902829
 40
0.2958909831996619
 40
0.3070811680786161
 40
0.3182738719376804
 40
0.3294689815739084
 40
0.340666363701416
 40
0.3518658634155876
 40
0.3630673025964242
 40
0.3742704782582574
 40
0.3854751608550241
 40
0.3966810925531916
 40
0.4078879854870069
 40
0.4190955200139408
 40
0.4303033211003791
 40
0.4415108848735789
 40
0.4527177736944131
 40
0.4639235112380336
 40
0.4751275811899618
 40
0.4863294261689136
 40
0.4975284469010189
 40
0.5087240016964432
 40
0.5199154062824932
 40
0.5311019340497337
 40
0.5422828167689167
 40
0.5534572458362159
 40
0.5646243741030529
 40
0.5757833183427844
 40
0.5869331624013122
 40
0.5980729610706594
 40
0.6092017447140022
 40
0.6203185246586139
 40
0.631422299357391
 40
0.6425120613033023
 40
0.6535868046617502
 40
0.66464553356609
 40
0.6756872710010496
 40
0.686711068178415
 40
0.6977160142898994
 40
0.7087012465048739
 40
0.7196659600663735
 40
0.7306094183270563
 40
0.7415309625608639
 40
0.7524300213833878
 40
0.7633061196172329
 40
0.7741588864464068
 40
0.7849880627161401
 40
0.7957935072513059
 40
0.8065752020867346
 40
0.8173332565255333
 40
0.8280679099654522
 40
0.8387795334586116
 40
0.849468629994163
 40
0.8601358335162661
 40
0.8707819067114104
 40
0.8814077376165256
 40
0.8920143351153127
 40
0.9026028234015533
 40
0.9131744354969221
 40
0.9237305059159678
 40
0.9342724625737873
 40
0.9448018180312543
 40
0.9553201601712846
 40
0.9658291423952499
 40
0.9763304734247956
 40
0.9868259067885544
 40
0.9973172300685523
 40
1.0
 40
1.0
 40
1.0
 40
1.0
 10
421.6561254925737
 20
147.2557737291039
 30
0.0
 10
421.6794020942398
 20
147.2277331914755
 30
0.0
 10
421.746623506273
 20
147.1467538216953
 30
0.0
 10
421.8586133846003
 20
147.0140384071063
 30
0.0
 10
421.992418489983
 20
146.8581677212546
 30
0.0
 10
422.1272714057905
 20
146.7039375831995
 30
0.0
 10
422.2631297874904
 20
146.5513508261471
 30
0.0
 10
422.3999742014624
 20
146.4004449201609
 30
0.0
 10
422.5377787258181
 20
146.2512479593655
 30
0.0
 10
422.6765190221979
 20
146.1037902371548
 30
0.0
 10
422.8161701763914
 20
145.9581011417258
 30
0.0
 10
422.9567072808007
 20
145.8142099864762
 30
0.0
 10
423.0981052815948
 20
145.6721457861049
 30
0.0
 10
423.2403390224811
 20
145.5319373156501
 30
0.0
 10
423.3833832352593
 20
145.3936130940376
 30
0.0
 10
423.5272125440642
 20
145.257201388203
 30
0.0
 10
423.6718014653098
 20
145.1227302120255
 30
0.0
 10
423.8171244080915
 20
144.9902273269643
 30
0.0
 10
423.9631556737108
 20
144.8597202425263
 30
0.0
 10
424.1098694546142
 20
144.7312362170414
 30
0.0
 10
424.2572398325972
 20
144.6048022585831
 30
0.0
 10
424.4052407762454
 20
144.4804451260376
 30
0.0
 10
424.5538461375477
 20
144.3581913302719
 30
0.0
 10
424.7030296476256
 20
144.238067135356
 30
0.0
 10
424.8527649115211
 20
144.1200985597835
 30
0.0
 10
425.0030254019886
 20
144.0043113776278
 30
0.0
 10
425.1537844522348
 20
143.8907311195577
 30
0.0
 10
425.3050152475562
 20
143.7793830736325
 30
0.0
 10
425.4566908158299
 20
143.6702922857777
 30
0.0
 10
425.6087840168155
 20
143.563483559835
 30
0.0
 10
425.7612675302415
 20
143.4589814570666
 30
0.0
 10
425.9141138426498
 20
143.3568102949801
 30
0.0
 10
426.0672952329986
 20
143.2569941453255
 30
0.0
 10
426.2207837570278
 20
143.1595568311035
 30
0.0
 10
426.3745512304184
 20
143.0645219224078
 30
0.0
 10
426.5285692107988
 20
142.9719127309126
 30
0.0
 10
426.6828089786741
 20
142.8817523028021
 30
0.0
 10
426.8372415173909
 20
142.7940634099266
 30
0.0
 10
426.9918374922815
 20
142.708868538963
 30
0.0
 10
427.1465671284244
 20
142.6261899321784
 30
0.0
 10
427.3013997570716
 20
142.546049786046
 30
0.0
 10
427.4563042669541
 20
142.4684699468249
 30
0.0
 10
427.6112491827638
 20
142.3934718377121
 30
0.0
 10
427.7662030750546
 20
142.3210762475359
 30
0.0
 10
427.9211340645151
 20
142.2513035487679
 30
0.0
 10
428.0760098044416
 20
142.1841736653968
 30
0.0
 10
428.2307974655951
 20
142.119706037146
 30
0.0
 10
428.3854637239273
 20
142.0579195800427
 30
0.0
 10
428.5399747518227
 20
141.9988326433567
 30
0.0
 10
428.694296213525
 20
141.9424629630086
 30
0.0
 10
428.8483932654365
 20
141.8888276116338
 30
0.0
 10
429.0022305619726
 20
141.8379429455969
 30
0.0
 10
429.1557722676418
 20
141.7898245493551
 30
0.0
 10
429.3089820759654
 20
141.7444871776956
 30
0.0
 10
429.4618232357931
 20
141.7019446964906
 30
0.0
 10
429.6142585854641
 20
141.6622100227414
 30
0.0
 10
429.7662505951421
 20
141.6252950648013
 30
0.0
 10
429.9177614174951
 20
141.5912106637781
 30
0.0
 10
430.068752946711
 20
141.5599665372149
 30
0.0
 10
430.2191868856313
 20
141.5315712262188
 30
0.0
 10
430.3690248205675
 20
141.5060320472577
 30
0.0
 10
430.5182283031231
 20
141.4833550498548
 30
0.0
 10
430.6667589381137
 20
141.4635449813928
 30
0.0
 10
430.8145784764418
 20
141.4466052601678
 30
0.0
 10
430.9616489115731
 20
141.4325379577331
 30
0.0
 10
431.1079325780755
 20
141.4213437914182
 30
0.0
 10
431.2533922505361
 20
141.4130221277248
 30
0.0
 10
431.3979912410745
 20
141.4075709970767
 30
0.0
 10
431.5416934936239
 20
141.4049871201519
 30
0.0
 10
431.6844636731703
 20
141.4052659457604
 30
0.0
 10
431.826267248214
 20
141.408401699954
 30
0.0
 10
431.967070564855
 20
141.4143874457857
 30
0.0
 10
432.1068409110877
 20
141.4232151528809
 30
0.0
 10
432.2455465701326
 20
141.4348757757481
 30
0.0
 10
432.3831568618965
 20
141.4493593395644
 30
0.0
 10
432.519642171951
 20
141.4666550320101
 30
0.0
 10
432.6549739677233
 20
141.4867512996175
 30
0.0
 10
432.7891248018907
 20
141.5096359470426
 30
0.0
 10
432.9220683032758
 20
141.5352962376171
 30
0.0
 10
433.0537791557352
 20
141.5637189936918
 30
0.0
 10
433.1842330660162
 20
141.5948906948924
 30
0.0
 10
433.3134067207833
 20
141.6287975741847
 30
0.0
 10
433.4412777367555
 20
141.6654257055552
 30
0.0
 10
433.5678245945986
 20
141.7047611003625
 30
0.0
 10
433.6930265971586
 20
141.7467897435716
 30
0.0
 10
433.8168637069011
 20
141.7914978213752
 30
0.0
 10
433.9393168090378
 20
141.8388711997978
 30
0.0
 10
434.0603663709092
 20
141.8888976536236
 30
0.0
 10
434.1799970634592
 20
141.941558807215
 30
0.0
 10
434.2981801592833
 20
141.9968603674985
 30
0.0
 10
434.4149387579587
 20
142.0547195920159
 30
0.0
 10
434.5301042314335
 20
142.115384942237
 30
0.0
 10
434.6159214304733
 20
142.1623740873134
 30
0.0
 10
434.6628595340706
 20
142.1899609398022
 30
0.0
 10
434.6724180009
 20
142.1955787213961
 30
0.0
  0
LINE
  5
162
330
1F
100
AcDbEntity
  8
0
  6
Continuous
 62
     7
370
    30
100
AcDbLine
 10
452.9071680082
 20
187.3620256815
 30
0.0
 11
419.6731492924
 21
168.1764350536
 31
0.0
  0
LINE
  5
163
330
1F
100
AcDbEntity
  8
0
  6
Continuous
 62
     7
370
    30
100
AcDbLine
 10
445.8115873524
 20
148.6257563258
 30
0.0
 11
467.9059489978
 21
161.38055981
 31
0.0
  0
LINE
  5
164
330
1F
100
AcDbEntity
  8
0
  6
Continuous
 62
     7
370
    30
100
AcDbLine
 10
434.671930282
 20
142.1949691822
 30
0.0
 11
443.3307621117
 21
147.1936063985
 31
0.0
  0
SPLINE
  5
165
330
1F
100
AcDbEntity
  8
0
  6
Continuous
 62
     7
370
    30
100
AcDbSpline
210
0.0
220
0.0
230
1.0
 70
     8
 71
     3
 72
    53
 73
    49
 74
     0
 42
0.000000001
 43
0.00000001
 40
0.0
 40
0.0
 40
0.0
 40
0.0
 40
0.0329321963784301
 40
0.0606475572243153
 40
0.0830631892893959
 40
0.1002381452905983
 40
0.1155891519487855
 40
0.1449807865825295
 40
0.1719990936535182
 40
0.1836046479239905
 40
0.1936734291907753
 40
0.2039040637535898
 40
0.2180035222485672
 40
0.2361303934066388
 40
0.2550691510664253
 40
0.270504232728474
 40
0.2856324535270799
 40
0.3038412411128271
 40
0.3276455437330457
 40
0.3504661085616421
 40
0.368095591390054
 40
0.3822835857448053
 40
0.3965318924790543
 40
0.4132682887728937
 40
0.4356945694687772
 40
0.4634450529032874
 40
0.4870281559042839
 40
0.504610038043706
 40
0.5277658520354938
 40
0.5543112341932206
 40
0.5885613333021515
 40
0.6217890567028407
 40
0.6512511013091034
 40
0.6762291606270724
 40
0.7005411510160147
 40
0.7275688425778458
 40
0.7633549886657002
 40
0.8019960409389972
 40
0.837121190716479
 40
0.8675602406221543
 40
0.8788020604838925
 40
0.8897922634069196
 40
0.9007614840199893
 40
0.9117137597915662
 40
0.9241337352343998
 40
0.942798992551356
 40
0.968084767758012
 40
1.0
 40
1.0
 40
1.0
 40
1.0
 10
556.6074805900843
 20
89.20418807890903
 30
0.0
 10
556.622286657424
 20
89.19580080085716
 30
0.0
 10
556.6495533421579
 20
89.18035488526255
 30
0.0
 10
556.6872798229372
 20
89.16053321060753
 30
0.0
 10
556.7180378607517
 20
89.14510373847689
 30
0.0
 10
556.7433595403252
 20
89.13293219130456
 30
0.0
 10
556.7720851971019
 20
89.11960259573628
 30
0.0
 10
556.8056235605327
 20
89.10480964797735
 30
0.0
 10
556.8377083692812
 20
89.0915834149935
 30
0.0
 10
556.8607822797845
 20
89.08252646688156
 30
0.0
 10
556.875953488745
 20
89.0767384434155
 30
0.0
 10
556.8924075079891
 20
89.07063076150276
 30
0.0
 10
556.912827298511
 20
89.06330401005215
 30
0.0
 10
556.9375160969021
 20
89.05485043069282
 30
0.0
 10
556.9629239870792
 20
89.04662830292895
 30
0.0
 10
556.9869562959052
 20
89.0392692386544
 30
0.0
 10
557.0107685886609
 20
89.03234535285637
 30
0.0
 10
557.0388939670187
 20
89.02464325452597
 30
0.0
 10
557.0709123408704
 20
89.01655932045114
 30
0.0
 10
557.1027264739242
 20
89.00927961431005
 30
0.0
 10
557.1298739139314
 20
89.00362465479114
 30
0.0
 10
557.1529000079514
 20
88.99920131764891
 30
0.0
 10
557.1755246672813
 20
88.99518368004857
 30
0.0
 10
557.2023578744336
 20
88.99084324774
 30
0.0
 10
557.2361259185772
 20
88.98605951092911
 30
0.0
 10
557.273377321565
 20
88.9817450987351
 30
0.0
 10
557.3082189332969
 20
88.97863126412275
 30
0.0
 10
557.3409655818288
 20
88.97640607057718
 30
0.0
 10
557.3752416928737
 20
88.97480871839666
 30
0.0
 10
557.4180618092416
 20
88.9739336903354
 30
0.0
 10
557.4660295933737
 20
88.97450350981406
 30
0.0
 10
557.5154148240133
 20
88.97688121489111
 30
0.0
 10
557.5600270948958
 20
88.9805545932007
 30
0.0
 10
557.5999654162727
 20
88.98504328955828
 30
0.0
 10
557.6387824740921
 20
88.99047969196363
 30
0.0
 10
557.6828338122476
 20
88.99794495388593
 30
0.0
 10
557.7334162470956
 20
89.00834740430014
 30
0.0
 10
557.787870187032
 20
89.0219355494726
 30
0.0
 10
557.8390588941704
 20
89.03701115213875
 30
0.0
 10
557.8763910224081
 20
89.0495372459119
 30
0.0
 10
557.9017676074969
 20
89.0587304778269
 30
0.0
 10
557.9177158987548
 20
89.06473856662673
 30
0.0
 10
557.9335248726219
 20
89.07092303033485
 30
0.0
 10
557.9500166559711
 20
89.07761764718857
 30
0.0
 10
557.9701154052863
 20
89.08609518413328
 30
0.0
 10
557.9965214878274
 20
89.09781222181081
 30
0.0
 10
558.031589901337
 20
89.11434263110135
 30
0.0
 10
558.0573698857663
 20
89.1278627075984
 30
0.0
 10
558.0717537965915
 20
89.13540621776681
 30
0.0
  0
LINE
  5
166
330
1F
100
AcDbEntity
  8
0
  6
Continuous
 62
     7
370
    30
100
AcDbLine
 10
558.0715089141
 20
89.1352549367
 30
0.0
 11
565.7164268725
 21
93.2456948805
 31
0.0
  0
LWPOLYLINE
  5
167
330
1F
100
AcDbEntity
  8
0
  6
Continuous
 62
     7
370
    30
100
AcDbPolyline
 90
       56
 70
   128
 43
0.0
 10
529.998350222
 20
104.5523486843
 10
530.5430023875
 20
104.2381171406
 10
531.7840772857
 20
103.5221063521
 10
533.0165061759
 20
102.8110995636
 10
534.2402888667
 20
102.1050965696
 10
535.1524517022
 20
101.5788779414
 10
536.0594720686
 20
101.0556345777
 10
536.958112555
 20
100.5372338967
 10
537.8474469541
 20
100.0242099597
 10
538.5396810892
 20
99.6248915682
 10
539.2261699683
 20
99.2288923145
 10
539.9069135167
 20
98.8362121214
 10
540.5819116605
 20
98.4468509116
 10
541.2180401691
 20
98.0799153715
 10
541.8489800127
 20
97.7159769912
 10
542.4747311291
 20
97.3550357063
 10
542.684275441
 20
97.2341687756
 10
542.8932313926
 20
97.1136416766
 10
543.1015989814
 20
96.9934544069
 10
543.3108610792
 20
96.8727516412
 10
543.5268825118
 20
96.7481505626
 10
543.7502654668
 20
96.6193038781
 10
543.9810099772
 20
96.4862116208
 10
544.219116077
 20
96.3488738248
 10
544.4645838016
 20
96.2072905255
 10
544.7174131871
 20
96.0614617593
 10
544.9776042711
 20
95.9113875638
 10
545.2451570921
 20
95.7570679775
 10
545.5200716898
 20
95.5985030402
 10
545.8023481049
 20
95.4356927929
 10
546.1213551107
 20
95.2516982377
 10
546.4492700238
 20
95.0625669655
 10
546.7860929031
 20
94.8682990355
 10
547.1318238093
 20
94.6688945082
 10
547.4864628048
 20
94.464353446
 10
547.8165921056
 20
94.273949756
 10
548.1540835658
 20
94.079301098
 10
548.4989372359
 20
93.8804075224
 10
548.8511531674
 20
93.6772690807
 10
549.2107314132
 20
93.4698858255
 10
549.5776720272
 20
93.2582578108
 10
549.9519750643
 20
93.0423850913
 10
550.3722120711
 20
92.800022533
 10
550.8013577546
 20
92.5525240262
 10
551.2394121929
 20
92.2998896487
 10
551.686375466
 20
92.0421194803
 10
552.1422476556
 20
91.7792136022
 10
552.607028845
 20
91.5111720975
 10
553.0807191196
 20
91.2379950509
 10
553.5633185661
 20
90.9596825489
 10
554.0548272733
 20
90.6762346795
 10
554.5552453317
 20
90.3876515328
 10
555.0553995709
 20
90.0992232011
 10
555.5641479892
 20
89.8058415341
 10
556.0814906774
 20
89.5075066218
 10
556.6074277279
 20
89.2042185559
  0
SPLINE
  5
168
330
1F
100
AcDbEntity
  8
0
  6
Continuous
 62
     7
370
    30
100
AcDbSpline
210
0.0
220
0.0
230
1.0
 70
     8
 71
     3
 72
    69
 73
    65
 74
     0
 42
0.000000001
 43
0.00000001
 40
0.0
 40
0.0
 40
0.0
 40
0.0
 40
0.0212973586136304
 40
0.0440868118414542
 40
0.0670898266531364
 40
0.0878086977213621
 40
0.1086978187767208
 40
0.1297571898192179
 40
0.150986810848868
 40
0.1753180369516822
 40
0.1998691106619223
 40
0.2246400319796268
 40
0.2495831832244735
 40
0.2746414472675268
 40
0.29981470853059
 40
0.3251029670136203
 40
0.3505062227165859
 40
0.3804593334189116
 40
0.4105707620715883
 40
0.4408405086745859
 40
0.4527755101466349
 40
0.4647344786612257
 40
0.4765881485187822
 40
0.4882352377300049
 40
0.4996757462948884
 40
0.5109096742134176
 40
0.5236223268100694
 40
0.536059634029736
 40
0.5482215958723862
 40
0.5601082123379836
 40
0.5717194834264906
 40
0.5830554091378667
 40
0.5934913737774179
 40
0.6036825619959157
 40
0.6136289737933251
 40
0.6233608904991703
 40
0.6331472609501501
 40
0.6479284932211408
 40
0.6629707075551168
 40
0.6782739039520685
 40
0.6938380824119771
 40
0.7096632429348192
 40
0.7257493855205678
 40
0.7507622816122788
 40
0.7758376867693161
 40
0.8009332487104038
 40
0.8260489674354603
 40
0.8511848429444043
 40
0.8763408752371549
 40
0.9015170643136315
 40
0.9077100297022959
 40
0.9139044367612509
 40
0.9202222874785572
 40
0.9267662147001645
 40
0.9335362184260692
 40
0.940405386157295
 40
0.9474926283226538
 40
0.9547979449221307
 40
0.9623213359557098
 40
0.9702230611771294
 40
0.9783518526564255
 40
0.9867077103935773
 40
0.9952906343885617
 40
1.0
 40
1.0
 40
1.0
 40
1.0
 10
449.7367410046998
 20
150.8916992973213
 30
0.0
 10
449.9588773400276
 20
150.7633558990642
 30
0.0
 10
450.4187128997522
 20
150.4976773540056
 30
0.0
 10
451.1184817300773
 20
150.0933800551646
 30
0.0
 10
451.8122209670524
 20
149.6925710752041
 30
0.0
 10
452.4861434933101
 20
149.3032162360206
 30
0.0
 10
453.1397968788149
 20
148.9255762177487
 30
0.0
 10
453.798781687483
 20
148.5448605955307
 30
0.0
 10
454.493673915973
 20
148.1434049910806
 30
0.0
 10
455.2249916515017
 20
147.7209109891782
 30
0.0
 10
455.9932530423723
 20
147.2770802098321
 30
0.0
 10
456.767902653164
 20
146.8295651725956
 30
0.0
 10
457.5478482404399
 20
146.3789970060691
 30
0.0
 10
458.3319963947919
 20
145.9260074732805
 30
0.0
 10
459.1197501211374
 20
145.4709415371252
 30
0.0
 10
459.9111082795951
 20
145.0137999401892
 30
0.0
 10
460.7523319985266
 20
144.5278596168801
 30
0.0
 10
461.6438744676721
 20
144.0128602818057
 30
0.0
 10
462.5861889731519
 20
143.4685417248499
 30
0.0
 10
463.340555563373
 20
143.032796828788
 30
0.0
 10
463.905568025483
 20
142.7064324729955
 30
0.0
 10
464.2784732233995
 20
142.4910351976754
 30
0.0
 10
464.6483761738673
 20
142.2773735126576
 30
0.0
 10
465.0128717738102
 20
142.0668365912624
 30
0.0
 10
465.370903462279
 20
141.8600346455823
 30
0.0
 10
465.74005182889
 20
141.6468129797551
 30
0.0
 10
466.1195996734722
 20
141.4275860091219
 30
0.0
 10
466.5088297943203
 20
141.2027681435066
 30
0.0
 10
466.8894440946225
 20
140.9829282651919
 30
0.0
 10
467.2614425099634
 20
140.7680663087896
 30
0.0
 10
467.6248249775514
 20
140.5581822103482
 30
0.0
 10
467.9730754939542
 20
140.3570393906403
 30
0.0
 10
468.3065128246649
 20
140.1644535613207
 30
0.0
 10
468.6254557393706
 20
139.9802404451612
 30
0.0
 10
468.9370549504793
 20
139.8002698789237
 30
0.0
 10
469.2444319621776
 20
139.6227389124182
 30
0.0
 10
469.6022473232449
 20
139.41607752816
 30
0.0
 10
470.0154619717398
 20
139.177421138397
 30
0.0
 10
470.4862313318413
 20
138.9055257060297
 30
0.0
 10
470.9651710403671
 20
138.6289137990268
 30
0.0
 10
471.4522811729225
 20
138.3475854944855
 30
0.0
 10
471.9475618050448
 20
138.0615408715541
 30
0.0
 10
472.5414178090693
 20
137.7185680470496
 30
0.0
 10
473.2317805792793
 20
137.3198637469744
 30
0.0
 10
474.0161394637074
 20
136.8668803498743
 30
0.0
 10
474.8015768002388
 20
136.4132804955892
 30
0.0
 10
475.5876507255459
 20
135.9593193818467
 30
0.0
 10
476.3743612526572
 20
135.5049970137848
 30
0.0
 10
477.161708391647
 20
135.0503133983481
 30
0.0
 10
477.7514313221822
 20
134.7097602052871
 30
0.0
 10
478.143330867552
 20
134.4834480424699
 30
0.0
 10
478.3384822346263
 20
134.3707534102654
 30
0.0
 10
478.5372956693416
 20
134.2559444343975
 30
0.0
 10
478.7421149166365
 20
134.1376677013642
 30
0.0
 10
478.9526866545447
 20
134.0160695364092
 30
0.0
 10
479.1689274220291
 20
133.8911981713363
 30
0.0
 10
479.3907537469801
 20
133.763101844331
 30
0.0
 10
479.6194062639171
 20
133.6310641799515
 30
0.0
 10
479.8565570212663
 20
133.4941196886849
 30
0.0
 10
480.1022998814248
 20
133.3522142363357
 30
0.0
 10
480.3567286952675
 20
133.2052936844451
 30
0.0
 10
480.6182653285006
 20
133.0542694353366
 30
0.0
 10
480.8441266635829
 20
132.9238463753878
 30
0.0
 10
480.9828094010234
 20
132.8437648827579
 30
0.0
 10
481.0319437288134
 20
132.815392567779
 30
0.0
  0
SPLINE
  5
169
330
1F
100
AcDbEntity
  8
0
  6
Continuous
 62
     7
370
    30
100
AcDbSpline
210
0.0
220
0.0
230
1.0
 70
     8
 71
     3
 72
    54
 73
    50
 74
     0
 42
0.000000001
 43
0.00000001
 40
0.0
 40
0.0
 40
0.0
 40
0.0
 40
0.0305892810890405
 40
0.0551601626436792
 40
0.0737200293938875
 40
0.086338573888245
 40
0.0967420019602497
 40
0.1071599672205743
 40
0.1319819967414148
 40
0.15845645092079
 40
0.1847470772744726
 40
0.214723119429954
 40
0.2446411250601579
 40
0.272572252014812
 40
0.2996457012305095
 40
0.323947343759432
 40
0.34890004493681
 40
0.3782420511412611
 40
0.4114327175674174
 40
0.4457926751988355
 40
0.4723709065728868
 40
0.495492827049958
 40
0.5112066639238986
 40
0.5317975190739234
 40
0.5570264480245125
 40
0.5792511018985114
 40
0.5962808970547646
 40
0.6106554843635639
 40
0.6247960248886549
 40
0.6385587585090452
 40
0.6564998337724279
 40
0.6787678729002161
 40
0.6996339278806767
 40
0.7157010365028368
 40
0.7295543965944281
 40
0.7469201676005327
 40
0.7682783806082113
 40
0.787145093617336
 40
0.8010935228984915
 40
0.8118263154485937
 40
0.8241298020008148
 40
0.8382898819148271
 40
0.8541795499308074
 40
0.8715036810494619
 40
0.8892282725970737
 40
0.9075403882293519
 40
0.9311471480530606
 40
0.9620086370337068
 40
1.0
 40
1.0
 40
1.0
 40
1.0
 10
435.4190987767082
 20
219.9223317775759
 30
0.0
 10
435.4059377193367
 20
219.9140128082667
 30
0.0
 10
435.3822050247674
 20
219.8990116155681
 30
0.0
 10
435.3512163191377
 20
219.877599923209
 30
0.0
 10
435.3280862137261
 20
219.8608375351708
 30
0.0
 10
435.3108894788881
 20
219.8478837849214
 30
0.0
 10
435.2971603172148
 20
219.8372525307805
 30
0.0
 10
435.2787003239628
 20
219.822596372346
 30
0.0
 10
435.2543297684118
 20
219.8024284316775
 30
0.0
 10
435.2244380900104
 20
219.7761796098226
 30
0.0
 10
435.1934437508931
 20
219.7472654684998
 30
0.0
 10
435.1621356087618
 20
219.7161303885957
 30
0.0
 10
435.1313766525453
 20
219.6833953540738
 30
0.0
 10
435.1027952891809
 20
219.650935377104
 30
0.0
 10
435.076858977933
 20
219.6195941100005
 30
0.0
 10
435.0527443585008
 20
219.5886873484497
 30
0.0
 10
435.0289348565361
 20
219.5563974258535
 30
0.0
 10
435.0034988103955
 20
219.5196666208442
 30
0.0
 10
434.9767556889654
 20
219.4781000319983
 30
0.0
 10
434.9522495076891
 20
219.4367913928921
 30
0.0
 10
434.9315666256315
 20
219.3992036042147
 30
0.0
 10
434.9162635059184
 20
219.369585154825
 30
0.0
 10
434.9029098627966
 20
219.342404333695
 30
0.0
 10
434.8896566424509
 20
219.314097078818
 30
0.0
 10
434.8757175275543
 20
219.2824115848133
 30
0.0
 10
434.8632082369368
 20
219.2520076995896
 30
0.0
 10
434.8533100192611
 20
219.2265294442955
 30
0.0
 10
434.8452597539833
 20
219.2048062303877
 30
0.0
 10
434.8380673509512
 20
219.1845239911327
 30
0.0
 10
434.8305777494955
 20
219.1624457627277
 30
0.0
 10
434.8221808358956
 20
219.136375488228
 30
0.0
 10
434.8132359775589
 20
219.1066386785906
 30
0.0
 10
434.8051422803413
 20
219.0775688133425
 30
0.0
 10
434.7986292250275
 20
219.0524813229588
 30
0.0
 10
434.7929155054766
 20
219.0291283970617
 30
0.0
 10
434.7869460629066
 20
219.0031026368414
 30
0.0
 10
434.7809025245127
 20
218.9744189568261
 30
0.0
 10
434.7756983143565
 20
218.9472598455701
 30
0.0
 10
434.7718340285723
 20
218.9253377115747
 30
0.0
 10
434.7687687573426
 20
218.9067501153025
 30
0.0
 10
434.7658783225855
 20
218.8880347727093
 30
0.0
 10
434.7628332151534
 20
218.8666719003783
 30
0.0
 10
434.7597347483004
 20
218.8426843603695
 30
0.0
 10
434.756773256002
 20
218.8168362233525
 30
0.0
 10
434.7540768655074
 20
218.7896994049302
 30
0.0
 10
434.7515199518883
 20
218.7592784383671
 30
0.0
 10
434.7490733003044
 20
218.7221661848146
 30
0.0
 10
434.7469232935121
 20
218.6748231999639
 30
0.0
 10
434.7465941366207
 20
218.6392486960973
 30
0.0
 10
434.7464125156918
 20
218.619619532591
 30
0.0
  0
LINE
  5
16A
330
1F
100
AcDbEntity
  8
0
  6
Continuous
 62
     7
370
    30
100
AcDbLine
 10
442.8014558503
 20
224.4869629657
 30
0.0
 11
435.4188445147
 21
219.92219491
 31
0.0
  0
SPLINE
  5
16B
330
1F
100
AcDbEntity
  8
0
  6
Continuous
 62
     7
370
    30
100
AcDbSpline
210
0.0
220
0.0
230
1.0
 70
     8
 71
     3
 72
   110
 73
   106
 74
     0
 42
0.000000001
 43
0.00000001
 40
0.0
 40
0.0
 40
0.0
 40
0.0
 40
0.0124834349608157
 40
0.0247558169540532
 40
0.0368171459801446
 40
0.0486674220394735
 40
0.0603066451323795
 40
0.0717348152591601
 40
0.0823166398050597
 40
0.0927108425716928
 40
0.1029174235592171
 40
0.1129363827677636
 40
0.1227677201974391
 40
0.1324114358483263
 40
0.1418675297204848
 40
0.1511360018139555
 40
0.1602168521287594
 40
0.1691100806648991
 40
0.1776618754391016
 40
0.1860326893840361
 40
0.1942225224996631
 40
0.2022313747859305
 40
0.2101998959839001
 40
0.2179807954029292
 40
0.2255740730429322
 40
0.2329797289038175
 40
0.2401977629854848
 40
0.2471042774912751
 40
0.2538298111670999
 40
0.2603743640128529
 40
0.2667379360284261
 40
0.2740776442614311
 40
0.2811608603878365
 40
0.2879875844074625
 40
0.2945578163201365
 40
0.3008715561256929
 40
0.3069288038239797
 40
0.3169108584586287
 40
0.3267212324834778
 40
0.3363613520554991
 40
0.3458312171745729
 40
0.3551308278405735
 40
0.3642601840533698
 40
0.3732192858128274
 40
0.3820081331188087
 40
0.3910328884448913
 40
0.399870788542813
 40
0.4085218334124187
 40
0.416999636842819
 40
0.4255247673948782
 40
0.4341744681208342
 40
0.4437525770449861
 40
0.4534789347711093
 40
0.4633535412991881
 40
0.4733763966292049
 40
0.4835475007611419
 40
0.4938668536949818
 40
0.5043495649355615
 40
0.5141478779770432
 40
0.524130992915583
 40
0.5342989097511553
 40
0.544651628483737
 40
0.5551891491133096
 40
0.5659114716398613
 40
0.5768185960633884
 40
0.5879105223838966
 40
0.5991872506014052
 40
0.6106487807159467
 40
0.6222951127275693
 40
0.6341262466363394
 40
0.648277968534013
 40
0.6624646217188758
 40
0.6766512749042038
 40
0.6908379280899964
 40
0.8078271883018066
 40
0.8151807989470676
 40
0.8225344095924529
 40
0.8298671722543527
 40
0.8370287809875138
 40
0.843989451947435
 40
0.8507491851340994
 40
0.8573079805474833
 40
0.8642905723740271
 40
0.8710300294948152
 40
0.8775263519097929
 40
0.8837795396189013
 40
0.8897895926220805
 40
0.8949392077006635
 40
0.8998958421414924
 40
0.9046594959445271
 40
0.9092301691097328
 40
0.9138115096099976
 40
0.9181810527661896
 40
0.9225103867129321
 40
0.9285231931164853
 40
0.9347817322429972
 40
0.9412860040924351
 40
0.9480360086647511
 40
0.9550317459598885
 40
0.9622732159777821
 40
0.9697490706273604
 40
0.9773637254748041
 40
0.9854666825217411
 40
0.9936982624025559
 40
1.0
 40
1.0
 40
1.0
 40
1.0
 10
434.7464124879049
 20
218.6195625101261
 30
0.0
 10
434.7463330922316
 20
218.4458274994739
 30
0.0
 10
434.7461756431992
 20
218.101294753822
 30
0.0
 10
434.7459469047845
 20
217.5889032796563
 30
0.0
 10
434.7457259187129
 20
217.0853248353679
 30
0.0
 10
434.7455128532734
 20
216.5905594846677
 30
0.0
 10
434.74530739504
 20
216.1046071383564
 30
0.0
 10
434.7451130310067
 20
215.6363091504633
 30
0.0
 10
434.7449291863167
 20
215.1853392944332
 30
0.0
 10
434.7447553242707
 20
214.7513713539951
 30
0.0
 10
434.7445875419569
 20
214.3252378127959
 30
0.0
 10
434.7444256774019
 20
213.9069386277436
 30
0.0
 10
434.7442695716222
 20
213.4964737566217
 30
0.0
 10
434.7441190687899
 20
213.0938431581355
 30
0.0
 10
434.7439740161727
 20
212.6990467918906
 30
0.0
 10
434.7438342641382
 20
212.3120846183865
 30
0.0
 10
434.7436996661378
 20
211.9329565990099
 30
0.0
 10
434.7435708257884
 20
211.5638032554156
 30
0.0
 10
434.7434475273531
 20
211.2045321136004
 30
0.0
 10
434.7433295628724
 20
210.8550507013402
 30
0.0
 10
434.7432160387004
 20
210.5131260107397
 30
0.0
 10
434.7431061910592
 20
210.1768006429715
 30
0.0
 10
434.7429999641785
 20
209.8461670011131
 30
0.0
 10
434.7428973014058
 20
209.5213174885484
 30
0.0
 10
434.7427987389057
 20
209.2043018544871
 30
0.0
 10
434.7427041572983
 20
208.8951200679209
 30
0.0
 10
434.7426139592643
 20
208.5954963146548
 30
0.0
 10
434.7425279757088
 20
208.3053381327944
 30
0.0
 10
434.7424460442579
 20
208.0245530617149
 30
0.0
 10
434.742367524777
 20
207.7513244450744
 30
0.0
 10
434.7422877598568
 20
207.4695494660075
 30
0.0
 10
434.7422071922121
 20
207.1802790832895
 30
0.0
 10
434.7421262486125
 20
206.8845642678151
 30
0.0
 10
434.7420495549626
 20
206.5995585607309
 30
0.0
 10
434.7419769651025
 20
206.3252619303178
 30
0.0
 10
434.7419083384049
 20
206.061674319686
 30
0.0
 10
434.7418286297307
 20
205.7506086769319
 30
0.0
 10
434.7417383703673
 20
205.3908851936426
 30
0.0
 10
434.741638294383
 20
204.9813038178889
 30
0.0
 10
434.7415425603882
 20
204.5788514979443
 30
0.0
 10
434.7414510262723
 20
204.183508297921
 30
0.0
 10
434.7413635572996
 20
203.7952741972302
 30
0.0
 10
434.7412800212206
 20
203.4141491581554
 30
0.0
 10
434.741200288274
 20
203.0401331483457
 30
0.0
 10
434.7411230595607
 20
202.6675741285603
 30
0.0
 10
434.7410483720762
 20
202.2967031525695
 30
0.0
 10
434.7409762565812
 20
201.9277512749046
 30
0.0
 10
434.7409077242722
 20
201.5664120160177
 30
0.0
 10
434.7408420446869
 20
201.2094265876435
 30
0.0
 10
434.7407783804346
 20
200.8524614984671
 30
0.0
 10
434.7407141044548
 20
200.4801869557004
 30
0.0
 10
434.7406492918759
 20
200.0911988033714
 30
0.0
 10
434.7405842360425
 20
199.685167753889
 30
0.0
 10
434.7405208649093
 20
199.272949919802
 30
0.0
 10
434.7404592994087
 20
198.8545453306991
 30
0.0
 10
434.7403996622752
 20
198.4299540178463
 30
0.0
 10
434.740342049941
 20
197.9989657611709
 30
0.0
 10
434.7402880628401
 20
197.5731667497425
 30
0.0
 10
434.7402374955106
 20
197.1520484850002
 30
0.0
 10
434.7401901820064
 20
196.7353123650352
 30
0.0
 10
434.740144822521
 20
196.3108637307357
 30
0.0
 10
434.7401015723728
 20
195.8787026165311
 30
0.0
 10
434.7400605896967
 20
195.4388290627167
 30
0.0
 10
434.7400220354426
 20
194.9912431088678
 30
0.0
 10
434.7399860733812
 20
194.5359447956376
 30
0.0
 10
434.739952870106
 20
194.0729341643384
 30
0.0
 10
434.7399225950375
 20
193.6022112567854
 30
0.0
 10
434.7398954204285
 20
193.1237761163994
 30
0.0
 10
434.7398715213671
 20
192.6376287838716
 30
0.0
 10
434.7398498454907
 20
192.1140517286623
 30
0.0
 10
434.739831506535
 20
191.5551306878345
 30
0.0
 10
434.7398176343788
 20
190.96343788395
 30
0.0
 10
434.7398093041418
 20
190.3712621036721
 30
0.0
 10
434.7397998197246
 20
188.3487097630872
 30
0.0
 10
434.7398743398919
 20
186.4212773970966
 30
0.0
 10
434.7400205249667
 20
184.5889582470001
 30
0.0
 10
434.7400464812952
 20
184.282312416243
 30
0.0
 10
434.7400736880955
 20
183.9783387757796
 30
0.0
 10
434.7401018367833
 20
183.6798327465325
 30
0.0
 10
434.7401305909997
 20
183.3892999300683
 30
0.0
 10
434.7401597959039
 20
183.1071546785911
 30
0.0
 10
434.7401902770683
 20
182.824705033674
 30
0.0
 10
434.7402219921541
 20
182.5425381187572
 30
0.0
 10
434.7402548869537
 20
182.2612410595351
 30
0.0
 10
434.7402877828324
 20
181.9900928192465
 30
0.0
 10
434.7403205489763
 20
181.7290933652395
 30
0.0
 10
434.7403519463796
 20
181.4868311062998
 30
0.0
 10
434.7403818343453
 20
181.2626081514304
 30
0.0
 10
434.740410103076
 20
181.0557266139252
 30
0.0
 10
434.7404379111181
 20
180.8569002716735
 30
0.0
 10
434.7404655873091
 20
180.6632958130526
 30
0.0
 10
434.7404930498169
 20
180.4751750384599
 30
0.0
 10
434.7405205698556
 20
180.2904125098554
 30
0.0
 10
434.7405516459404
 20
180.0857352504297
 30
0.0
 10
434.7405875033855
 20
179.8547780900132
 30
0.0
 10
434.7406291205447
 20
179.5935631509198
 30
0.0
 10
434.7406735196511
 20
179.3220930382034
 30
0.0
 10
434.7407208334017
 20
179.0403677854396
 30
0.0
 10
434.7407711999397
 20
178.748387427073
 30
0.0
 10
434.740824732933
 20
178.446309878945
 30
0.0
 10
434.7408813115522
 20
178.1356228353273
 30
0.0
 10
434.7409416720909
 20
177.8129517161727
 30
0.0
 10
434.741005796319
 20
177.479768035396
 30
0.0
 10
434.7410678968056
 20
177.1648507780968
 30
0.0
 10
434.7411091956752
 20
176.9626632638211
 30
0.0
 10
434.741127103124
 20
176.8749934897072
 30
0.0
  0
LINE
  5
16C
330
1F
100
AcDbEntity
  8
0
  6
Continuous
 62
     7
370
    30
100
AcDbLine
 10
520.6589850747
 20
155.9748195066
 30
0.0
 11
478.2713066012
 21
131.201979815
 31
0.0
  0
LINE
  5
16D
330
1F
100
AcDbEntity
  8
0
  6
Continuous
 62
     7
370
    30
100
AcDbLine
 10
502.6558739266
 20
88.9620935073
 30
0.0
 11
545.3433340376
 21
113.3018200485
 31
0.0
  0
SPLINE
  5
16E
330
1F
100
AcDbEntity
  8
0
  6
Continuous
 62
     7
370
    30
100
AcDbSpline
210
0.0
220
0.0
230
1.0
 70
     8
 71
     3
 72
    17
 73
    13
 74
     0
 42
0.000000001
 43
0.00000001
 40
0.0
 40
0.0
 40
0.0
 40
0.0
 40
0.0843994154528749
 40
0.1871441523570725
 40
0.2898196252602183
 40
0.3924325047952343
 40
0.4949897543324951
 40
0.5974985981620394
 40
0.6999664879098704
 40
0.802401067434894
 40
0.904810136449089
 40
0.9999999999999999
 40
0.9999999999999999
 40
0.9999999999999999
 40
0.9999999999999999
 10
501.2146148413859
 20
88.30394458977698
 30
0.0
 10
501.2568842216916
 20
88.31899363948915
 30
0.0
 10
501.3506107872789
 20
88.35236284752278
 30
0.0
 10
501.4942584245456
 20
88.40728722941948
 30
0.0
 10
501.6457847480264
 20
88.46806335595124
 30
0.0
 10
501.7958751789731
 20
88.53156154594524
 30
0.0
 10
501.9445609615559
 20
88.59767194663662
 30
0.0
 10
502.0918123298883
 20
88.66641725669271
 30
0.0
 10
502.2376296848249
 20
88.7377611380529
 30
0.0
 10
502.3819550609334
 20
88.81177137062869
 30
0.0
 10
502.5215833607724
 20
88.88636839103695
 30
0.0
 10
502.6123416626834
 20
88.93762270164291
 30
0.0
 10
502.6560629027878
 20
88.96231357810485
 30
0.0
  0
SPLINE
  5
16F
330
1F
100
AcDbEntity
  8
0
  6
Continuous
 62
     7
370
    30
100
AcDbSpline
210
0.0
220
0.0
230
1.0
 70
     8
 71
     3
 72
    18
 73
    14
 74
     0
 42
0.000000001
 43
0.00000001
 40
0.0
 40
0.0
 40
0.0
 40
0.0
 40
0.0167142672480891
 40
0.1190398546996869
 40
0.2213667028946802
 40
0.3237027023542093
 40
0.4260558351532751
 40
0.5284339952777823
 40
0.6308449508400442
 40
0.733296307181587
 40
0.8357954711144245
 40
0.9383496165450483
 40
1.0
 40
1.0
 40
1.0
 40
1.0
 10
478.2722647464544
 20
131.2023035638881
 30
0.0
 10
478.2646160141443
 20
131.1979096559468
 30
0.0
 10
478.2101413566969
 20
131.1666160218835
 30
0.0
 10
478.1102841849939
 20
131.1059342046349
 30
0.0
 10
477.9728116336369
 20
131.0201177319617
 30
0.0
 10
477.8370180592342
 20
130.9315059769683
 30
0.0
 10
477.7027410999285
 20
130.8404124636567
 30
0.0
 10
477.5700399401462
 20
130.7467667202135
 30
0.0
 10
477.4389225599606
 20
130.6505898035674
 30
0.0
 10
477.3093805048364
 20
130.5519207340067
 30
0.0
 10
477.1815228993388
 20
130.4506352137803
 30
0.0
 10
477.0718509238838
 20
130.3610113091644
 30
0.0
 10
477.0055106225104
 20
130.30416110927
 30
0.0
 10
476.9806032399557
 20
130.282816773357
 30
0.0
  0
LINE
  5
170
330
1F
100
AcDbEntity
  8
0
  6
Continuous
 62
     7
370
    30
100
AcDbLine
 10
476.6073155453
 20
130.0834291989
 30
0.0
 11
476.5529745075
 21
130.0523386991
 31
0.0
  0
LWPOLYLINE
  5
171
330
1F
100
AcDbEntity
  8
0
  6
Continuous
 62
     7
370
    30
100
AcDbPolyline
 90
        3
 70
   128
 43
0.0
 10
500.8010037739
 20
88.0489688736
 10
500.8019891407
 20
88.0495378062
 10
500.8536518179
 20
88.0796270141
  0
LWPOLYLINE
  5
172
330
1F
100
AcDbEntity
  8
0
  6
Continuous
 62
     7
370
    30
100
AcDbPolyline
 90
      107
 70
   128
 43
0.0
 10
427.4292126642
 20
142.4813398341
 10
427.4727800189
 20
142.4237956242
 10
427.5874501567
 20
142.2795769494
 10
427.708620555
 20
142.1371405475
 10
427.8362081696
 20
141.9965840373
 10
427.9701255584
 20
141.8580037492
 10
428.1102809412
 20
141.7214946592
 10
428.2565782623
 20
141.5871503239
 10
428.4089172569
 20
141.455062816
 10
428.5671935195
 20
141.3253226619
 10
428.7312985754
 20
141.1980187789
 10
428.9011199552
 20
141.0732384147
 10
429.0765412719
 20
140.9510670876
 10
429.2574423005
 20
140.8315885277
 10
429.4436990603
 20
140.7148846197
 10
429.6351839003
 20
140.6010353465
 10
429.8317655864
 20
140.4901187347
 10
430.0333093914
 20
140.3822108012
 10
430.239677187
 20
140.2773855005
 10
430.4507275393
 20
140.1757146748
 10
430.6663158047
 20
140.077268004
 10
430.8862942299
 20
139.9821129587
 10
431.1105120527
 20
139.8903147534
 10
431.3388156053
 20
139.8019363019
 10
431.57104842
 20
139.7170381745
 10
431.8070513358
 20
139.635678556
 10
432.0466626083
 20
139.5579132064
 10
432.2897180198
 20
139.483795422
 10
432.5360509923
 20
139.4133759995
 10
432.7854927015
 20
139.3467032009
 10
433.0378721924
 20
139.2838227203
 10
433.2930164969
 20
139.224777653
 10
433.5507507517
 20
139.1696084654
 10
433.8108983186
 20
139.1183529677
 10
434.0732809055
 20
139.071046288
 10
434.3377186884
 20
139.0277208478
 10
434.6040304351
 20
138.9884063403
 10
434.8720336285
 20
138.9531297096
 10
435.1415445929
 20
138.9219151325
 10
435.4123786187
 20
138.8947840021
 10
435.6843500899
 20
138.8717549126
 10
435.9572726109
 20
138.852843647
 10
436.2309591341
 20
138.8380631661
 10
436.5052220885
 20
138.8274235997
 10
436.779873508
 20
138.8209322397
 10
437.0547251602
 20
138.818593535
 10
437.3295886755
 20
138.8204090883
 10
437.6042756762
 20
138.8263776553
 10
437.8785979055
 20
138.8364951456
 10
438.1523673567
 20
138.8507546251
 10
438.4253964019
 20
138.8691463209
 10
438.6974979206
 20
138.8916576285
 10
438.968485428
 20
138.9182731197
 10
439.2381732029
 20
138.9489745535
 10
439.5063764146
 20
138.9837408887
 10
439.7729112501
 20
139.0225482983
 10
440.0375950398
 20
139.0653701855
 10
440.3002463825
 20
139.1121772023
 10
440.5606852703
 20
139.1629372696
 10
440.8187332112
 20
139.217615599
 10
441.0742133521
 20
139.2761747166
 10
441.3269505997
 20
139.338574489
 10
441.5767717405
 20
139.4047721505
 10
441.8235055596
 20
139.4747223325
 10
442.0669829579
 20
139.5483770946
 10
442.3070370682
 20
139.6256859576
 10
442.5435033693
 20
139.7065959379
 10
442.7762197992
 20
139.7910515836
 10
443.0050268655
 20
139.8789950133
 10
443.2297677554
 20
139.9703659548
 10
443.4502884427
 20
140.0651017871
 10
443.6664377934
 20
140.1631375829
 10
443.8780676697
 20
140.2644061535
 10
444.085033031
 20
140.3688380944
 10
444.2871920336
 20
140.4763618331
 10
444.4844061277
 20
140.5869036783
 10
444.6765401527
 20
140.7003878701
 10
444.8634624296
 20
140.8167366321
 10
445.0450448511
 20
140.9358702248
 10
445.2211629697
 20
141.0577069997
 10
445.3916960829
 20
141.1821634563
 10
445.5565273157
 20
141.3091542981
 10
445.7155437012
 20
141.438592492
 10
445.8686362573
 20
141.5703893275
 10
446.0157000622
 20
141.7044544778
 10
446.1566343256
 20
141.8406960611
 10
446.2913424582
 20
141.9790207044
 10
446.4197321378
 20
142.1193336068
 10
446.5417153725
 20
142.2615386049
 10
446.6572085611
 20
142.4055382385
 10
446.7661325504
 20
142.5512338174
 10
446.8684126892
 20
142.6985254892
 10
446.9639788799
 20
142.8473123074
 10
447.0527656262
 20
142.9974923011
 10
447.1347120781
 20
143.1489625444
 10
447.2097620736
 20
143.3016192271
 10
447.2778641772
 20
143.455357726
 10
447.338971715
 20
143.6100726764
 10
447.3930428071
 20
143.7656580444
 10
447.4400403957
 20
143.9220071995
 10
447.4799322712
 20
144.0790129879
 10
447.5126910936
 20
144.2365678056
 10
447.5382944116
 20
144.3945636724
 10
447.5567246781
 20
144.5528923059
 10
447.5679692617
 20
144.7114451955
 10
447.5720204562
 20
144.8701136769
 10
447.5720347238
 20
144.8801062753
  0
LWPOLYLINE
  5
173
330
1F
100
AcDbEntity
  8
0
  6
Continuous
 62
     7
370
    30
100
AcDbPolyline
 90
      122
 70
   128
 43
0.0
 10
426.5945347238
 20
138.9061886834
 10
426.597687193
 20
138.7578245578
 10
426.6080040197
 20
138.5995909278
 10
426.6254923703
 20
138.4415674247
 10
426.6501402593
 20
138.2838623497
 10
426.6819307941
 20
138.1265837861
 10
426.7208421872
 20
137.9698395248
 10
426.7668477706
 20
137.8137369904
 10
426.8199160143
 20
137.6583831678
 10
426.8800105482
 20
137.5038845288
 10
426.9470901862
 20
137.350346959
 10
427.0211089556
 20
137.1978756855
 10
427.1020161273
 20
137.0465752043
 10
427.1897562519
 20
136.8965492093
 10
427.2842691964
 20
136.7479005208
 10
427.3854901866
 20
136.6007310152
 10
427.4933498505
 20
136.4551415552
 10
427.6077742665
 20
136.3112319204
 10
427.7286850139
 20
136.1691007393
 10
427.8559992265
 20
136.0288454216
 10
427.9896296495
 20
135.8905620913
 10
428.1294846993
 20
135.7543455208
 10
428.2754685261
 20
135.6202890662
 10
428.42748108
 20
135.488484603
 10
428.5854181792
 20
135.3590224635
 10
428.7491715814
 20
135.2319913745
 10
428.9186290583
 20
135.1074783968
 10
429.0936744722
 20
134.9855688654
 10
429.2741878557
 20
134.866346331
 10
429.4600454938
 20
134.7498925027
 10
429.6511200092
 20
134.6362871923
 10
429.8472804489
 20
134.525608259
 10
430.0483923742
 20
134.4179315568
 10
430.2543179532
 20
134.3133308817
 10
430.4649160547
 20
134.211877922
 10
430.6800423453
 20
134.1136422084
 10
430.8995493881
 20
134.0186910668
 10
431.1232867442
 20
133.9270895719
 10
431.3511010749
 20
133.8389005028
 10
431.5828362478
 20
133.7541843
 10
431.8183334431
 20
133.6729990235
 10
432.0574312629
 20
133.5954003139
 10
432.2999658413
 20
133.5214413533
 10
432.5457709575
 20
133.4511728296
 10
432.7946781487
 20
133.3846429013
 10
433.0465168264
 20
133.3218971646
 10
433.3011143931
 20
133.2629786224
 10
433.5582963602
 20
133.2079276545
 10
433.817886468
 20
133.1567819901
 10
434.0797068065
 20
133.1095766818
 10
434.3435779371
 20
133.0663440819
 10
434.6093190157
 20
133.0271138197
 10
434.8767479166
 20
132.9919127818
 10
435.1456813574
 20
132.9607650931
 10
435.4159350246
 20
132.9336921008
 10
435.6873236998
 20
132.9107123593
 10
435.9596613868
 20
132.8918416178
 10
436.2327614389
 20
132.8770928094
 10
436.506436687
 20
132.8664760421
 10
436.7804995678
 20
132.8599985922
 10
437.0547622521
 20
132.857664899
 10
437.3290367742
 20
132.8594765618
 10
437.6031351599
 20
132.8654323391
 10
437.8768695558
 20
132.875528149
 10
438.1500523582
 20
132.8897570724
 10
438.4224963412
 20
132.9081093575
 10
438.6940147852
 20
132.9305724266
 10
438.9644216051
 20
132.9571308846
 10
439.2335314776
 20
132.9877665296
 10
439.5011599681
 20
133.0224583655
 10
439.7671236576
 20
133.0611826163
 10
440.0312402677
 20
133.1039127423
 10
440.2933287861
 20
133.1506194584
 10
440.5532095905
 20
133.2012707542
 10
440.8107045716
 20
133.2558319157
 10
441.065637255
 20
133.3142655495
 10
441.3178329228
 20
133.3765316081
 10
441.5671187326
 20
133.4425874175
 10
441.8133238364
 20
133.5123877062
 10
442.0562794974
 20
133.5858846367
 10
442.295819206
 20
133.6630278379
 10
442.5317787937
 20
133.7437644395
 10
442.7639965455
 20
133.8280391089
 10
442.992313311
 20
133.9157940884
 10
443.2165726132
 20
134.006969235
 10
443.4366207561
 20
134.101502062
 10
443.6523069297
 20
134.1993277811
 10
443.8634833134
 20
134.3003793476
 10
444.0700051775
 20
134.4045875057
 10
444.2717309822
 20
134.5118808364
 10
444.4685224747
 20
134.6221858063
 10
444.6602447839
 20
134.7354268177
 10
444.8467665131
 20
134.8515262609
 10
445.0279598294
 20
134.9704045673
 10
445.203700552
 20
135.0919802634
 10
445.3738682371
 20
135.2161700276
 10
445.5383462602
 20
135.3428887461
 10
445.6970218962
 20
135.4720495725
 10
445.8497863969
 20
135.6035639863
 10
445.996535065
 20
135.737341854
 10
446.1371673264
 20
135.8732914911
 10
446.2715867988
 20
136.0113197244
 10
446.3997013576
 20
136.1513319564
 10
446.5214231997
 20
136.2932322295
 10
446.6366689029
 20
136.4369232924
 10
446.7453594836
 20
136.5823066665
 10
446.8474204507
 20
136.7292827133
 10
446.9427818567
 20
136.8777507026
 10
447.0313783457
 20
137.0276088821
 10
447.1131491981
 20
137.1787545462
 10
447.1880383722
 20
137.3310841075
 10
447.2559945426
 20
137.4844931668
 10
447.3169711357
 20
137.6388765851
 10
447.3709263612
 20
137.7941285559
 10
447.4178232407
 20
137.9501426771
 10
447.4576296336
 20
138.1068120245
 10
447.4903182585
 20
138.2640292247
 10
447.5158667123
 20
138.421686529
 10
447.5342574853
 20
138.5796758868
 10
447.5454779734
 20
138.7378890202
 10
447.5495204867
 20
138.8962174978
 10
447.5495347238
 20
138.9061886834
  0
LWPOLYLINE
  5
174
330
1F
100
AcDbEntity
  8
0
  6
Continuous
 62
     7
370
    30
100
AcDbPolyline
 90
       92
 70
   128
 43
0.0
 10
460.406558503
 20
186.619404924
 10
460.6842069679
 20
186.4549247548
 10
460.9616651464
 20
186.2821630678
 10
461.2387428825
 20
186.1012382653
 10
461.515250281
 20
185.912274344
 10
461.7909978376
 20
185.7154008104
 10
462.0657965686
 20
185.5107525918
 10
462.3394581407
 20
185.2984699439
 10
462.611795
 20
185.0786983545
 10
462.8826205003
 20
184.8515884442
 10
463.1517490314
 20
184.6172958627
 10
463.418996146
 20
184.3759811824
 10
463.6841786864
 20
184.1278097885
 10
463.9471149095
 20
183.8729517651
 10
464.2076246122
 20
183.6115817792
 10
464.4655292541
 20
183.3438789608
 10
464.7206520801
 20
183.0700267801
 10
464.9728182419
 20
182.7902129215
 10
465.2218549174
 20
182.5046291555
 10
465.4675914292
 20
182.2134712071
 10
465.7098593619
 20
181.9169386212
 10
465.948492677
 20
181.6152346266
 10
466.1833278274
 20
181.3085659961
 10
466.4142038685
 20
180.997142905
 10
466.6409625696
 20
180.6811787871
 10
466.8634485216
 20
180.3608901886
 10
467.0815092437
 20
180.0364966192
 10
467.294995288
 20
179.708220402
 10
467.5037603418
 20
179.3762865212
 10
467.707661328
 20
179.0409224676
 10
467.906558503
 20
178.7023580831
 10
468.1003155526
 20
178.3608254028
 10
468.2887996855
 20
178.016558496
 10
468.4718817239
 20
177.6697933062
 10
468.6494361928
 20
177.3207674889
 10
468.8213414049
 20
176.9697202489
 10
468.9874795453
 20
176.6168921765
 10
469.1477367509
 20
176.2625250824
 10
469.3020031896
 20
175.9068618322
 10
469.4501731349
 20
175.5501461796
 10
469.5921450384
 20
175.1926225997
 10
469.7278215998
 20
174.8345361214
 10
469.857109833
 20
174.4761321592
 10
469.9799211304
 20
174.1176563453
 10
470.0961713233
 20
173.7593543611
 10
470.2057807396
 20
173.401471769
 10
470.3086742584
 20
173.0442538436
 10
470.4047813617
 20
172.6879454045
 10
470.4940361824
 20
172.3327906476
 10
470.5763775499
 20
171.9790329781
 10
470.6517490314
 20
171.626914844
 10
470.720098971
 20
171.2766775695
 10
470.7813805252
 20
170.9285611896
 10
470.8355516946
 20
170.5828042859
 10
470.882575353
 20
170.239643823
 10
470.9224192727
 20
169.8993149859
 10
470.9550561468
 20
169.5620510189
 10
470.9804636075
 20
169.2280830661
 10
470.9986242418
 20
168.8976400122
 10
471.0095256033
 20
168.5709483265
 10
471.0131602208
 20
168.2482319071
 10
471.0095256033
 20
167.9297119277
 10
470.9986242418
 20
167.6156066861
 10
470.9804636075
 20
167.3061314543
 10
470.9550561468
 20
167.0014983311
 10
470.9224192727
 20
166.7019160969
 10
470.882575353
 20
166.4075900703
 10
470.8355516946
 20
166.1187219677
 10
470.7813805252
 20
165.8355097649
 10
470.720098971
 20
165.5581475615
 10
470.6517490314
 20
165.2868254474
 10
470.5763775499
 20
165.0217293735
 10
470.4940361824
 20
164.7630410234
 10
470.4047813617
 20
164.510937689
 10
470.3086742584
 20
164.2655921494
 10
470.2057807396
 20
164.0271725522
 10
470.0961713233
 20
163.7958422983
 10
469.9799211304
 20
163.5717599299
 10
469.857109833
 20
163.3550790218
 10
469.7278215998
 20
163.1459480763
 10
469.5921450384
 20
162.9445104214
 10
469.4501731349
 20
162.7509041123
 10
469.3020031896
 20
162.5652618371
 10
469.1477367509
 20
162.3877108257
 10
468.9874795453
 20
162.2183727629
 10
468.8213414049
 20
162.0573637043
 10
468.6494361928
 20
161.9047939976
 10
468.4718817239
 20
161.7607682064
 10
468.2887996855
 20
161.6253850388
 10
468.1003155526
 20
161.4987372797
 10
467.906558503
 20
161.3809117271
 10
467.9059489978
 20
161.38055981
  0
ARC
  5
175
330
1F
100
AcDbEntity
  8
0
  6
Continuous
 62
     7
370
    30
100
AcDbCircle
 10
456.012061052
 20
180.4791500543
 30
0.0
 40
7.550783913747276
100
AcDbArc
 50
54.4092132707
 51
114.2803283002
  0
SPLINE
  5
176
330
1F
100
AcDbEntity
  8
0
  6
Continuous
 62
     7
370
    30
100
AcDbSpline
210
0.0
220
0.0
230
1.0
 70
     8
 71
     3
 72
    22
 73
    18
 74
     0
 42
0.000000001
 43
0.00000001
 40
0.0
 40
0.0
 40
0.0
 40
0.0
 40
0.0039709446856802
 40
0.0933340367528677
 40
0.1826960553996021
 40
0.2426656205081743
 40
0.3026465390801628
 40
0.3626156143939569
 40
0.4369063680527014
 40
0.5111970242953373
 40
0.5858551924423772
 40
0.66051349485112
 40
0.7293920952356656
 40
0.7983052574469517
 40
0.8672200853601468
 40
0.9361009582861118
 40
1.0
 40
1.0
 40
1.0
 40
1.0
 10
443.3307598376111
 20
147.1936103443302
 30
0.0
 10
443.334536110771
 20
147.1957886444443
 30
0.0
 10
443.4232945412686
 20
147.2469879330262
 30
0.0
 10
443.5941884026681
 20
147.3458432526447
 30
0.0
 10
443.8142743053348
 20
147.4732480840211
 30
0.0
 10
444.0037399824918
 20
147.5829796475291
 30
0.0
 10
444.1642326757669
 20
147.6759158902952
 30
0.0
 10
444.3347433149139
 20
147.7746085718679
 30
0.0
 10
444.5143459798363
 20
147.8784680304621
 30
0.0
 10
444.7022440336266
 20
147.9869939884242
 30
0.0
 10
444.88583246959
 20
148.0928782431698
 30
0.0
 10
445.0602615093561
 20
148.19335202452
 30
0.0
 10
445.2254609887694
 20
148.2884009932863
 30
0.0
 10
445.3817768984432
 20
148.3782859129342
 30
0.0
 10
445.5334160293276
 20
148.4654964908416
 30
0.0
 10
445.6772276862564
 20
148.5482532297572
 30
0.0
 10
445.767933402289
 20
148.6005794980973
 30
0.0
 10
445.8115846453868
 20
148.6257610054996
 30
0.0
  0
SPLINE
  5
177
330
1F
100
AcDbEntity
  8
0
  6
Continuous
 62
     7
370
    30
100
AcDbSpline
210
0.0
220
0.0
230
1.0
 70
     8
 71
     3
 72
    16
 73
    12
 74
     0
 42
0.000000001
 43
0.00000001
 40
0.0
 40
0.0
 40
0.0
 40
0.0
 40
0.1304314950782397
 40
0.2576873606837781
 40
0.3817673260728471
 40
0.5026711274503475
 40
0.6203985079861614
 40
0.734949217833634
 40
0.8463230141506013
 40
0.9545196611234117
 40
1.0
 40
1.0
 40
1.0
 40
1.0
 10
548.9605961762372
 20
123.5230773834214
 30
0.0
 10
548.9361568612921
 20
122.7232922039116
 30
0.0
 10
548.8878732580001
 20
121.1431942996572
 30
0.0
 10
548.5063701713884
 20
119.0148073333765
 30
0.0
 10
547.9248276801932
 20
117.1236174236388
 30
0.0
 10
547.1459996817885
 20
115.4907330094952
 30
0.0
 10
546.2000687474747
 20
114.1180511504756
 30
0.0
 10
545.1145493232183
 20
112.9975511498802
 30
0.0
 10
543.9032363058817
 20
112.1478546292355
 30
0.0
 10
542.8660045077762
 20
111.5938507025102
 30
0.0
 10
542.1856063209742
 20
111.433866188108
 30
0.0
 10
541.9842440939905
 20
111.3865191511408
 30
0.0
  0
SPLINE
  5
178
330
1F
100
AcDbEntity
  8
0
  6
Continuous
 62
     7
370
    30
100
AcDbSpline
210
0.0
220
0.0
230
1.0
 70
     8
 71
     3
 72
    27
 73
    23
 74
     0
 42
0.000000001
 43
0.00000001
 40
0.0
 40
0.0
 40
0.0
 40
0.0
 40
0.0523732445750431
 40
0.1047464931556823
 40
0.1571197497774494
 40
0.2094930184758767
 40
0.261866303286493
 40
0.3142396082448234
 40
0.3666129373863881
 40
0.4189862947467017
 40
0.4713596843612721
 40
0.5237331102656014
 40
0.576106576495181
 40
0.6284800870854945
 40
0.6808536460720143
 40
0.7332272574902017
 40
0.7856009253755076
 40
0.8379746537633674
 40
0.8903484466892041
 40
0.9427223081884251
 40
0.9950962422964218
 40
1.0
 40
1.0
 40
1.0
 40
1.0
 10
548.9605961762372
 20
123.5230773834213
 30
0.0
 10
548.9314630009546
 20
124.426968169782
 30
0.0
 10
548.8731966481612
 20
126.2347498116346
 30
0.0
 10
548.4044964429686
 20
129.1200687034362
 30
0.0
 10
547.6650671904719
 20
132.0706945323157
 30
0.0
 10
546.6400502488316
 20
135.0519241538457
 30
0.0
 10
545.354309743641
 20
138.0084925552342
 30
0.0
 10
543.8278226323603
 20
140.8909178989006
 30
0.0
 10
542.0871760737001
 20
143.6495424426129
 30
0.0
 10
540.1619403071184
 20
146.2372056577983
 30
0.0
 10
538.0850123395761
 20
148.6095630478536
 30
0.0
 10
535.8918267097202
 20
150.7259738792665
 30
0.0
 10
533.6198049861147
 20
152.5501687298813
 30
0.0
 10
531.307718660526
 20
154.050852388204
 30
0.0
 10
528.9949572166558
 20
155.2023378716927
 30
0.0
 10
526.7211251396707
 20
155.9846094241505
 30
0.0
 10
524.5243489129281
 20
156.3850725004015
 30
0.0
 10
522.4444151324959
 20
156.3935157302346
 30
0.0
 10
520.507943206603
 20
156.0218922892819
 30
0.0
 10
518.7807256766092
 20
155.2309421748385
 30
0.0
 10
517.6563355094597
 20
154.5142293142496
 30
0.0
 10
517.1887640221576
 20
153.9699073210456
 30
0.0
 10
517.1487334760528
 20
153.9233058766964
 30
0.0
  0
ELLIPSE
  5
179
330
1F
100
AcDbEntity
  8
0
  6
Continuous
 62
     7
370
    30
100
AcDbEllipse
 10
564.7338056561
 20
152.9620301721
 30
0.0
 11
-0.9999186583271467
 21
1.732097767663731
 31
0.0
210
0.0
220
0.0
230
1.0
 40
0.5775574346
 41
3.927224423794169
 42
5.497716163967843
  0
LINE
  5
17A
330
1F
100
AcDbEntity
  8
0
  6
Continuous
 62
     7
370
    30
100
AcDbLine
 10
564.7342364723
 20
154.595111855
 30
0.0
 11
443.8185461065
 21
224.3982541217
 31
0.0
  0
LINE
  5
17B
330
1F
100
AcDbEntity
  8
0
  6
Continuous
 62
     7
370
    30
100
AcDbLine
 10
566.1482346429
 20
152.1459951887
 30
0.0
 11
566.1482346429
 21
94.1711001128
 31
0.0
  0
SPLINE
  5
17C
330
1F
100
AcDbEntity
  8
0
  6
Continuous
 62
     7
370
    30
100
AcDbSpline
210
0.0
220
0.0
230
1.0
 70
     8
 71
     3
 72
     9
 73
     5
 74
     0
 42
0.000000001
 43
0.00000001
 40
0.0
 40
0.0
 40
0.0
 40
0.0
 40
0.7921401025897403
 40
1.0
 40
1.0
 40
1.0
 40
1.0
 10
519.3366380252146
 20
155.4257197287126
 30
0.0
 10
519.0198850138335
 20
155.2330438690853
 30
0.0
 10
518.6200150787733
 20
154.989809296063
 30
0.0
 10
518.298679239819
 20
154.6309340496245
 30
0.0
 10
518.2318864052996
 20
154.5563382777167
 30
0.0
  0
SPLINE
  5
17D
330
1F
100
AcDbEntity
  8
0
  6
Continuous
 62
     7
370
    30
100
AcDbSpline
210
0.0
220
0.0
230
1.0
 70
     8
 71
     3
 72
     9
 73
     5
 74
     0
 42
0.000000001
 43
0.00000001
 40
0.0
 40
0.0
 40
0.0
 40
0.0
 40
0.8962544067282163
 40
1.0
 40
1.0
 40
1.0
 40
1.0
 10
544.362849880337
 20
112.5155138204937
 30
0.0
 10
543.9673602355184
 20
112.2936847239379
 30
0.0
 10
543.5260908349444
 20
112.0461778833684
 30
0.0
 10
543.0111406114288
 20
111.9514099195136
 30
0.0
 10
542.9577167949849
 20
111.9415781608803
 30
0.0
  0
ELLIPSE
  5
17E
330
1F
100
AcDbEntity
  8
0
  6
Continuous
 62
     7
370
    30
100
AcDbEllipse
 10
564.7338056561
 20
94.9881300769
 30
0.0
 11
-1.000223415010623
 21
1.732625335833816
 31
0.0
210
0.0
220
0.0
230
1.0
 40
0.5772057094
 41
3.124143257728399
 42
3.926919738307185
  0
ELLIPSE
  5
17F
330
1F
100
AcDbEntity
  8
0
  6
Continuous
 62
     7
370
    30
100
AcDbEllipse
 10
443.8189769219
 20
222.7646750293
 30
0.0
 11
-1.00022341501051
 21
1.732625335833859
 31
0.0
210
0.0
220
0.0
230
1.0
 40
0.5772057094
 41
5.498020651223396
 42
6.300634702875219
  0
ENDSEC
  0
SECTION
  2
OBJECTS
  0
DICTIONARY
  5
C
330
0
100
AcDbDictionary
281
     1
  3
ACAD_GROUP
350
D
  3
ACAD_LAYOUT
350
1A
  3
ACAD_MLINESTYLE
350
17
  3
ACAD_PLOTSETTINGS
350
19
  3
ACAD_PLOTSTYLENAME
350
E
  3
ACAD_SCALELIST
350
47
  0
DICTIONARY
  5
D
102
{ACAD_REACTORS
330
C
102
}
330
C
100
AcDbDictionary
281
     1
  0
DICTIONARY
  5
1A
102
{ACAD_REACTORS
330
C
102
}
330
C
100
AcDbDictionary
281
     1
  3
Layout1
350
1E
  3
Layout2
350
26
  3
Model
350
22
  0
DICTIONARY
  5
17
102
{ACAD_REACTORS
330
C
102
}
330
C
100
AcDbDictionary
281
     1
  3
Standard
350
18
  0
DICTIONARY
  5
19
102
{ACAD_REACTORS
330
C
102
}
330
C
100
AcDbDictionary
281
     1
  0
ACDBDICTIONARYWDFLT
  5
E
102
{ACAD_REACTORS
330
C
102
}
330
C
100
AcDbDictionary
281
     1
  3
Normal
350
F
100
AcDbDictionaryWithDefault
340
F
  0
DICTIONARY
  5
47
102
{ACAD_REACTORS
330
C
102
}
330
C
100
AcDbDictionary
281
     1
  3
A0
350
48
  3
A1
350
49
  3
A2
350
4A
  3
A3
350
4B
  3
A4
350
4C
  3
A5
350
4D
  3
A6
350
4E
  3
A7
350
4F
  3
A8
350
50
  3
A9
350
51
  3
B0
350
52
  3
B1
350
53
  3
B2
350
54
  3
B3
350
55
  3
B4
350
56
  3
B5
350
57
  3
B6
350
58
  3
B7
350
59
  3
B8
350
5A
  3
B9
350
5B
  3
C0
350
5C
  3
C1
350
5D
  3
C2
350
5E
  3
C3
350
5F
  3
C4
350
60
  3
C5
350
61
  3
C6
350
62
  3
C7
350
63
  3
C8
350
64
  3
C9
350
65
  3
D0
350
66
  3
D1
350
67
  3
D2
350
68
  0
LAYOUT
  5
1E
102
{ACAD_REACTORS
330
1A
102
}
330
1A
100
AcDbPlotSettings
  1

  2
none_device
  4

  6

 40
0.0
 41
0.0
 42
0.0
 43
0.0
 44
0.0
 45
0.0
 46
0.0
 47
0.0
 48
0.0
 49
0.0
140
0.0
141
0.0
142
1.0
143
1.0
 70
   688
 72
     1
 73
     0
 74
     5
  7

 75
    16
147
1.0
148
0.0
149
0.0
100
AcDbLayout
  1
Layout1
 70
     1
 71
     1
 10
0.0
 20
0.0
 11
420.0
 21
297.0
 12
0.0
 22
0.0
 32
0.0
 14
1.0000000000E+20
 24
1.0000000000E+20
 34
1.0000000000E+20
 15
-1.0000000000E+20
 25
-1.0000000000E+20
 35
-1.0000000000E+20
146
0.0
 13
0.0
 23
0.0
 33
0.0
 16
1.0
 26
0.0
 36
0.0
 17
0.0
 27
1.0
 37
0.0
 76
     0
330
1B
  0
LAYOUT
  5
26
102
{ACAD_REACTORS
330
1A
102
}
330
1A
100
AcDbPlotSettings
  1

  2
none_device
  4

  6

 40
0.0
 41
0.0
 42
0.0
 43
0.0
 44
0.0
 45
0.0
 46
0.0
 47
0.0
 48
0.0
 49
0.0
140
0.0
141
0.0
142
1.0
143
1.0
 70
   688
 72
     1
 73
     0
 74
     5
  7

 75
    16
147
1.0
148
0.0
149
0.0
100
AcDbLayout
  1
Layout2
 70
     1
 71
     2
 10
0.0
 20
0.0
 11
0.0
 21
0.0
 12
0.0
 22
0.0
 32
0.0
 14
0.0
 24
0.0
 34
0.0
 15
0.0
 25
0.0
 35
0.0
146
0.0
 13
0.0
 23
0.0
 33
0.0
 16
1.0
 26
0.0
 36
0.0
 17
0.0
 27
1.0
 37
0.0
 76
     0
330
23
  0
LAYOUT
  5
22
102
{ACAD_REACTORS
330
1A
102
}
330
1A
100
AcDbPlotSettings
  1

  2
none_device
  4
Letter_(8.50_x_11.00_Inches)
  6

 40
6.35
 41
6.35
 42
6.35000508
 43
6.35000508
 44
215.9
 45
279.4
 46
0.0
 47
0.0
 48
0.0
 49
0.0
140
0.0
141
0.0
142
1.0
143
1.0
 70
  1712
 72
     1
 73
     0
 74
     0
  7

 75
     0
147
1.0
148
0.0
149
0.0
100
AcDbLayout
  1
Model
 70
     1
 71
     0
 10
0.0
 20
0.0
 11
593.0
 21
397.0
 12
0.0
 22
0.0
 32
0.0
 14
0.0
 24
0.0
 34
0.0
 15
593.0
 25
397.0
 35
0.0
146
0.0
 13
0.0
 23
0.0
 33
0.0
 16
1.0
 26
0.0
 36
0.0
 17
0.0
 27
1.0
 37
0.0
 76
     0
330
1F
331
29
  0
MLINESTYLE
  5
18
102
{ACAD_REACTORS
330
17
102
}
330
17
100
AcDbMlineStyle
  2
Standard
 70
     0
  3

 62
   256
 51
90.0
 52
90.0
 71
     2
 49
0.5
 62
   256
  6
BYLAYER
 49
-0.5
 62
   256
  6
BYLAYER
  0
ACDBPLACEHOLDER
  5
F
102
{ACAD_REACTORS
330
E
102
}
330
E
  0
SCALE
  5
48
102
{ACAD_REACTORS
330
47
102
}
330
47
100
AcDbScale
 70
     0
300
1:1
140
1.0
141
1.0
290
     1
  0
SCALE
  5
49
102
{ACAD_REACTORS
330
47
102
}
330
47
100
AcDbScale
 70
     0
300
1:2
140
1.0
141
2.0
290
     0
  0
SCALE
  5
4A
102
{ACAD_REACTORS
330
47
102
}
330
47
100
AcDbScale
 70
     0
300
1:4
140
1.0
141
4.0
290
     0
  0
SCALE
  5
4B
102
{ACAD_REACTORS
330
47
102
}
330
47
100
AcDbScale
 70
     0
300
1:5
140
1.0
141
5.0
290
     0
  0
SCALE
  5
4C
102
{ACAD_REACTORS
330
47
102
}
330
47
100
AcDbScale
 70
     0
300
1:8
140
1.0
141
8.0
290
     0
  0
SCALE
  5
4D
102
{ACAD_REACTORS
330
47
102
}
330
47
100
AcDbScale
 70
     0
300
1:10
140
1.0
141
10.0
290
     0
  0
SCALE
  5
4E
102
{ACAD_REACTORS
330
47
102
}
330
47
100
AcDbScale
 70
     0
300
1:16
140
1.0
141
16.0
290
     0
  0
SCALE
  5
4F
102
{ACAD_REACTORS
330
47
102
}
330
47
100
AcDbScale
 70
     0
300
1:20
140
1.0
141
20.0
290
     0
  0
SCALE
  5
50
102
{ACAD_REACTORS
330
47
102
}
330
47
100
AcDbScale
 70
     0
300
1:30
140
1.0
141
30.0
290
     0
  0
SCALE
  5
51
102
{ACAD_REACTORS
330
47
102
}
330
47
100
AcDbScale
 70
     0
300
1:40
140
1.0
141
40.0
290
     0
  0
SCALE
  5
52
102
{ACAD_REACTORS
330
47
102
}
330
47
100
AcDbScale
 70
     0
300
1:50
140
1.0
141
50.0
290
     0
  0
SCALE
  5
53
102
{ACAD_REACTORS
330
47
102
}
330
47
100
AcDbScale
 70
     0
300
1:100
140
1.0
141
100.0
290
     0
  0
SCALE
  5
54
102
{ACAD_REACTORS
330
47
102
}
330
47
100
AcDbScale
 70
     0
300
2:1
140
2.0
141
1.0
290
     0
  0
SCALE
  5
55
102
{ACAD_REACTORS
330
47
102
}
330
47
100
AcDbScale
 70
     0
300
4:1
140
4.0
141
1.0
290
     0
  0
SCALE
  5
56
102
{ACAD_REACTORS
330
47
102
}
330
47
100
AcDbScale
 70
     0
300
8:1
140
8.0
141
1.0
290
     0
  0
SCALE
  5
57
102
{ACAD_REACTORS
330
47
102
}
330
47
100
AcDbScale
 70
     0
300
10:1
140
10.0
141
1.0
290
     0
  0
SCALE
  5
58
102
{ACAD_REACTORS
330
47
102
}
330
47
100
AcDbScale
 70
     0
300
100:1
140
100.0
141
1.0
290
     0
  0
SCALE
  5
59
102
{ACAD_REACTORS
330
47
102
}
330
47
100
AcDbScale
 70
     0
300
1/128" = 1'-0"
140
0.0078125
141
12.0
290
     0
  0
SCALE
  5
5A
102
{ACAD_REACTORS
330
47
102
}
330
47
100
AcDbScale
 70
     0
300
1/64" = 1'-0"
140
0.015625
141
12.0
290
     0
  0
SCALE
  5
5B
102
{ACAD_REACTORS
330
47
102
}
330
47
100
AcDbScale
 70
     0
300
1/32" = 1'-0"
140
0.03125
141
12.0
290
     0
  0
SCALE
  5
5C
102
{ACAD_REACTORS
330
47
102
}
330
47
100
AcDbScale
 70
     0
300
1/16" = 1'-0"
140
0.0625
141
12.0
290
     0
  0
SCALE
  5
5D
102
{ACAD_REACTORS
330
47
102
}
330
47
100
AcDbScale
 70
     0
300
3/32" = 1'-0"
140
0.09375
141
12.0
290
     0
  0
SCALE
  5
5E
102
{ACAD_REACTORS
330
47
102
}
330
47
100
AcDbScale
 70
     0
300
1/8" = 1'-0"
140
0.125
141
12.0
290
     0
  0
SCALE
  5
5F
102
{ACAD_REACTORS
330
47
102
}
330
47
100
AcDbScale
 70
     0
300
3/16" = 1'-0"
140
0.1875
141
12.0
290
     0
  0
SCALE
  5
60
102
{ACAD_REACTORS
330
47
102
}
330
47
100
AcDbScale
 70
     0
300
1/4" = 1'-0"
140
0.25
141
12.0
290
     0
  0
SCALE
  5
61
102
{ACAD_REACTORS
330
47
102
}
330
47
100
AcDbScale
 70
     0
300
3/8" = 1'-0"
140
0.375
141
12.0
290
     0
  0
SCALE
  5
62
102
{ACAD_REACTORS
330
47
102
}
330
47
100
AcDbScale
 70
     0
300
1/2" = 1'-0"
140
0.5
141
12.0
290
     0
  0
SCALE
  5
63
102
{ACAD_REACTORS
330
47
102
}
330
47
100
AcDbScale
 70
     0
300
3/4" = 1'-0"
140
0.75
141
12.0
290
     0
  0
SCALE
  5
64
102
{ACAD_REACTORS
330
47
102
}
330
47
100
AcDbScale
 70
     0
300
1" = 1'-0"
140
1.0
141
12.0
290
     0
  0
SCALE
  5
65
102
{ACAD_REACTORS
330
47
102
}
330
47
100
AcDbScale
 70
     0
300
1-1/2" = 1'-0"
140
1.5
141
12.0
290
     0
  0
SCALE
  5
66
102
{ACAD_REACTORS
330
47
102
}
330
47
100
AcDbScale
 70
     0
300
3" = 1'-0"
140
3.0
141
12.0
290
     0
  0
SCALE
  5
67
102
{ACAD_REACTORS
330
47
102
}
330
47
100
AcDbScale
 70
     0
300
6" = 1'-0"
140
6.0
141
12.0
290
     0
  0
SCALE
  5
68
102
{ACAD_REACTORS
330
47
102
}
330
47
100
AcDbScale
 70
     0
300
1'-0" = 1'-0"
140
12.0
141
12.0
290
     0
  0
ENDSEC
  0
EOF
