  0
SECTION
  2
HEADER
  9
$ACADVER
  1
AC1015
  9
$ACADMAINTVER
 70
     6
  9
$DWGCODEPAGE
  3
ANSI_1252
  9
$INSBASE
 10
0.0
 20
0.0
 30
0.0
  9
$EXTMIN
 10
0.0
 20
0.0
 30
0.0
  9
$EXTMAX
 10
1169.0
 20
654.0
 30
0.0
  9
$LIMMIN
 10
0.0
 20
0.0
  9
$LIMMAX
 10
1169.0
 20
654.0
  9
$ORTHOMODE
 70
     0
  9
$REGENMODE
 70
     1
  9
$FILLMODE
 70
     1
  9
$QTEXTMODE
 70
     0
  9
$MIRRTEXT
 70
     1
  9
$LTSCALE
 40
1.0
  9
$ATTMODE
 70
     1
  9
$TEXTSIZE
 40
3.5
  9
$TRACEWID
 40
1.0
  9
$TEXTSTYLE
  7
Standard
  9
$CLAYER
  8
0
  9
$CELTYPE
  6
ByLayer
  9
$CECOLOR
 62
   256
  9
$CELTSCALE
 40
1.0
  9
$DISPSILH
 70
     0
  9
$DIMSCALE
 40
1.0
  9
$DIMASZ
 40
3.302
  9
$DIMEXO
 40
1.0
  9
$DIMDLI
 40
3.75
  9
$DIMRND
 40
0.0
  9
$DIMDLE
 40
0.0
  9
$DIMEXE
 40
1.0
  9
$DIMTP
 40
0.0
  9
$DIMTM
 40
0.0
  9
$DIMTXT
 40
2.8
  9
$DIMCEN
 40
2.5
  9
$DIMTSZ
 40
0.0
  9
$DIMTOL
 70
     0
  9
$DIMLIM
 70
     0
  9
$DIMTIH
 70
     1
  9
$DIMTOH
 70
     1
  9
$DIMSE1
 70
     0
  9
$DIMSE2
 70
     0
  9
$DIMTAD
 70
     1
  9
$DIMZIN
 70
     0
  9
$DIMBLK
  1

  9
$DIMASO
 70
     1
  9
$DIMSHO
 70
     1
  9
$DIMPOST
  1

  9
$DIMAPOST
  1

  9
$DIMALT
 70
     0
  9
$DIMALTD
 70
     3
  9
$DIMALTF
 40
0.0393700787
  9
$DIMLFAC
 40
1.0
  9
$DIMTOFL
 70
     1
  9
$DIMTVP
 40
0.0
  9
$DIMTIX
 70
     0
  9
$DIMSOXD
 70
     0
  9
$DIMSAH
 70
     0
  9
$DIMBLK1
  1

  9
$DIMBLK2
  1

  9
$DIMSTYLE
  2
ISO-25
  9
$DIMCLRD
 70
     0
  9
$DIMCLRE
 70
     0
  9
$DIMCLRT
 70
     0
  9
$DIMTFAC
 40
1.0
  9
$DIMGAP
 40
1.524
  9
$DIMJUST
 70
     0
  9
$DIMSD1
 70
     0
  9
$DIMSD2
 70
     0
  9
$DIMTOLJ
 70
     0
  9
$DIMTZIN
 70
     0
  9
$DIMALTZ
 70
     0
  9
$DIMALTTZ
 70
     0
  9
$DIMUPT
 70
     0
  9
$DIMDEC
 70
     2
  9
$DIMTDEC
 70
     2
  9
$DIMALTU
 70
     2
  9
$DIMALTTD
 70
     3
  9
$DIMTXSTY
  7
Standard
  9
$DIMAUNIT
 70
     0
  9
$DIMADEC
 70
     2
  9
$DIMALTRND
 40
0.0
  9
$DIMAZIN
 70
     0
  9
$DIMDSEP
 70
    44
  9
$DIMATFIT
 70
     3
  9
$DIMFRAC
 70
     0
  9
$DIMLDRBLK
  1

  9
$DIMLUNIT
 70
     2
  9
$DIMLWD
 70
    -2
  9
$DIMLWE
 70
    -2
  9
$DIMTMOVE
 70
     0
  9
$LUNITS
 70
     2
  9
$LUPREC
 70
     2
  9
$SKETCHINC
 40
1.0
  9
$FILLETRAD
 40
10.0
  9
$AUNITS
 70
     0
  9
$AUPREC
 70
     2
  9
$MENU
  1
.
  9
$ELEVATION
 40
0.0
  9
$PELEVATION
 40
0.0
  9
$THICKNESS
 40
0.0
  9
$LIMCHECK
 70
     0
  9
$CHAMFERA
 40
0.0
  9
$CHAMFERB
 40
0.0
  9
$CHAMFERC
 40
0.0
  9
$CHAMFERD
 40
0.0
  9
$SKPOLY
 70
     0
  9
$TDCREATE
 40
2457658.504767292
  9
$TDUCREATE
 40
2457658.379767292
  9
$TDUPDATE
 40
2457658.50476809
  9
$TDUUPDATE
 40
2457658.37976809
  9
$TDINDWG
 40
0.0000000116
  9
$TDUSRTIMER
 40
0.0000000116
  9
$USRTIMER
 70
     1
  9
$ANGBASE
 50
0.0
  9
$ANGDIR
 70
     0
  9
$PDMODE
 70
     0
  9
$PDSIZE
 40
-1.0
  9
$PLINEWID
 40
0.0
  9
$SPLFRAME
 70
     0
  9
$SPLINETYPE
 70
     6
  9
$SPLINESEGS
 70
     8
  9
$HANDSEED
  5
157
  9
$SURFTAB1
 70
     6
  9
$SURFTAB2
 70
     6
  9
$SURFTYPE
 70
     6
  9
$SURFU
 70
     6
  9
$SURFV
 70
     6
  9
$UCSBASE
  2

  9
$UCSNAME
  2

  9
$UCSORG
 10
0.0
 20
0.0
 30
0.0
  9
$UCSXDIR
 10
1.0
 20
0.0
 30
0.0
  9
$UCSYDIR
 10
0.0
 20
1.0
 30
0.0
  9
$UCSORTHOREF
  2

  9
$UCSORTHOVIEW
 70
     0
  9
$UCSORGTOP
 10
0.0
 20
0.0
 30
0.0
  9
$UCSORGBOTTOM
 10
0.0
 20
0.0
 30
0.0
  9
$UCSORGLEFT
 10
0.0
 20
0.0
 30
0.0
  9
$UCSORGRIGHT
 10
0.0
 20
0.0
 30
0.0
  9
$UCSORGFRONT
 10
0.0
 20
0.0
 30
0.0
  9
$UCSORGBACK
 10
0.0
 20
0.0
 30
0.0
  9
$PUCSBASE
  2

  9
$PUCSNAME
  2

  9
$PUCSORG
 10
0.0
 20
0.0
 30
0.0
  9
$PUCSXDIR
 10
1.0
 20
0.0
 30
0.0
  9
$PUCSYDIR
 10
0.0
 20
1.0
 30
0.0
  9
$PUCSORTHOREF
  2

  9
$PUCSORTHOVIEW
 70
     0
  9
$PUCSORGTOP
 10
0.0
 20
0.0
 30
0.0
  9
$PUCSORGBOTTOM
 10
0.0
 20
0.0
 30
0.0
  9
$PUCSORGLEFT
 10
0.0
 20
0.0
 30
0.0
  9
$PUCSORGRIGHT
 10
0.0
 20
0.0
 30
0.0
  9
$PUCSORGFRONT
 10
0.0
 20
0.0
 30
0.0
  9
$PUCSORGBACK
 10
0.0
 20
0.0
 30
0.0
  9
$USERI1
 70
     0
  9
$USERI2
 70
     0
  9
$USERI3
 70
     0
  9
$USERI4
 70
     0
  9
$USERI5
 70
     0
  9
$USERR1
 40
0.0
  9
$USERR2
 40
0.0
  9
$USERR3
 40
0.0
  9
$USERR4
 40
0.0
  9
$USERR5
 40
0.0
  9
$WORLDVIEW
 70
     1
  9
$SHADEDGE
 70
     3
  9
$SHADEDIF
 70
    70
  9
$TILEMODE
 70
     1
  9
$MAXACTVP
 70
    64
  9
$PINSBASE
 10
0.0
 20
0.0
 30
0.0
  9
$PLIMCHECK
 70
     0
  9
$PEXTMIN
 10
1.0000000000E+20
 20
1.0000000000E+20
 30
1.0000000000E+20
  9
$PEXTMAX
 10
-1.0000000000E+20
 20
-1.0000000000E+20
 30
-1.0000000000E+20
  9
$PLIMMIN
 10
0.0
 20
0.0
  9
$PLIMMAX
 10
420.0
 20
297.0
  9
$UNITMODE
 70
     0
  9
$VISRETAIN
 70
     1
  9
$PLINEGEN
 70
     0
  9
$PSLTSCALE
 70
     1
  9
$TREEDEPTH
 70
  3020
  9
$CMLSTYLE
  2
Standard
  9
$CMLJUST
 70
     0
  9
$CMLSCALE
 40
20.0
  9
$PROXYGRAPHICS
 70
     1
  9
$MEASUREMENT
 70
     1
  9
$CELWEIGHT
370
    -1
  9
$ENDCAPS
280
     0
  9
$JOINSTYLE
280
     0
  9
$LWDISPLAY
290
     1
  9
$INSUNITS
 70
     4
  9
$HYPERLINKBASE
  1

  9
$STYLESHEET
  1

  9
$XEDIT
290
     1
  9
$CEPSNTYPE
380
     0
  9
$PSTYLEMODE
290
     1
  9
$FINGERPRINTGUID
  2
{55E5362C-78E8-40BE-BB3E-910FFB4EE439}
  9
$VERSIONGUID
  2
{FAEB1C32-E019-11D5-929B-00C0DF256EC4}
  9
$EXTNAMES
290
     1
  9
$PSVPSCALE
 40
0.0
  9
$OLESTARTUP
290
     0
  0
ENDSEC
  0
SECTION
  2
CLASSES
  0
CLASS
  1
ACDBDICTIONARYWDFLT
  2
AcDbDictionaryWithDefault
  3
ObjectDBX Classes
 90
        0
280
     0
281
     0
  0
CLASS
  1
VISUALSTYLE
  2
AcDbVisualStyle
  3
ObjectDBX Classes
 90
     4095
280
     0
281
     0
  0
CLASS
  1
MATERIAL
  2
AcDbMaterial
  3
ObjectDBX Classes
 90
     1153
280
     0
281
     0
  0
CLASS
  1
SCALE
  2
AcDbScale
  3
ObjectDBX Classes
 90
     1153
280
     0
281
     0
  0
CLASS
  1
TABLESTYLE
  2
AcDbTableStyle
  3
ObjectDBX Classes
 90
     4095
280
     0
281
     0
  0
CLASS
  1
MLEADERSTYLE
  2
AcDbMLeaderStyle
  3
ACDB_MLEADERSTYLE_CLASS
 90
     4095
280
     0
281
     0
  0
CLASS
  1
SUN
  2
AcDbSun
  3
SCENEOE
 90
     1153
280
     0
281
     0
  0
CLASS
  1
ACDBPLACEHOLDER
  2
AcDbPlaceHolder
  3
ObjectDBX Classes
 90
        0
280
     0
281
     0
  0
CLASS
  1
LAYOUT
  2
AcDbLayout
  3
ObjectDBX Classes
 90
        0
280
     0
281
     0
  0
ENDSEC
  0
SECTION
  2
TABLES
  0
TABLE
  2
VPORT
  5
8
330
0
100
AcDbSymbolTable
 70
     1
  0
VPORT
  5
29
330
8
100
AcDbSymbolTableRecord
100
AcDbViewportTableRecord
  2
*Active
 70
     0
 10
0.0
 20
0.0
 11
1.0
 21
1.0
 12
584.5
 22
327.0
 13
0.0
 23
0.0
 14
10.0
 24
10.0
 15
10.0
 25
10.0
 16
0.0
 26
0.0
 36
1.0
 17
0.0
 27
0.0
 37
0.0
 40
654.0
 41
1.7874617737
 42
50.0
 43
0.0
 44
0.0
 50
0.0
 51
0.0
 71
     0
 72
  2000
 73
     1
 74
     3
 75
     0
 76
     0
 77
     0
 78
     0
281
     0
 65
     1
110
0.0
120
0.0
130
0.0
111
1.0
121
0.0
131
0.0
112
0.0
122
1.0
132
0.0
 79
     0
146
0.0
  0
ENDTAB
  0
TABLE
  2
LTYPE
  5
5
330
0
100
AcDbSymbolTable
 70
     6
  0
LTYPE
  5
14
330
5
100
AcDbSymbolTableRecord
100
AcDbLinetypeTableRecord
  2
ByBlock
 70
     0
  3

 72
    65
 73
     0
 40
0.0
  0
LTYPE
  5
15
330
5
100
AcDbSymbolTableRecord
100
AcDbLinetypeTableRecord
  2
ByLayer
 70
     0
  3

 72
    65
 73
     0
 40
0.0
  0
LTYPE
  5
16
330
5
100
AcDbSymbolTableRecord
100
AcDbLinetypeTableRecord
  2
Continuous
 70
     0
  3
Solid line
 72
    65
 73
     0
 40
0.0
  0
LTYPE
  5
6E
330
5
100
AcDbSymbolTableRecord
100
AcDbLinetypeTableRecord
  2
HIDDEN
 70
     0
  3
Hidden __ __ __ __ __ __ __ __ __ __ __ __ __ __
 72
    65
 73
     2
 40
1.905
 49
1.27
 74
     0
 49
-0.635
 74
     0
  0
LTYPE
  5
6F
330
5
100
AcDbSymbolTableRecord
100
AcDbLinetypeTableRecord
  2
PHANTOM
 70
     0
  3
Phantom ______  __  __  ______  __  __  ______
 72
    65
 73
     6
 40
12.7
 49
6.35
 74
     0
 49
-1.27
 74
     0
 49
1.27
 74
     0
 49
-1.27
 74
     0
 49
1.27
 74
     0
 49
-1.27
 74
     0
  0
LTYPE
  5
70
330
5
100
AcDbSymbolTableRecord
100
AcDbLinetypeTableRecord
  2
CENTER
 70
     0
  3
Center ____ _ ____ _ ____ _ ____ _ ____ _ ____
 72
    65
 73
     4
 40
10.16
 49
6.35
 74
     0
 49
-1.27
 74
     0
 49
1.27
 74
     0
 49
-1.27
 74
     0
  0
LTYPE
  5
71
330
5
100
AcDbSymbolTableRecord
100
AcDbLinetypeTableRecord
  2
CENTERX2
 70
     0
  3
Center (2x) ________  __  ________  __  _____
 72
    65
 73
     4
 40
20.32
 49
12.7
 74
     0
 49
-2.54
 74
     0
 49
2.54
 74
     0
 49
-2.54
 74
     0
  0
LTYPE
  5
72
330
5
100
AcDbSymbolTableRecord
100
AcDbLinetypeTableRecord
  2
DOT2
 70
     0
  3
Dot (.5x) ........................................
 72
    65
 73
     2
 40
0.635
 49
0.0
 74
     0
 49
-0.635
 74
     0
  0
ENDTAB
  0
TABLE
  2
LAYER
  5
2
330
0
100
AcDbSymbolTable
 70
     2
  0
LAYER
  5
10
330
2
100
AcDbSymbolTableRecord
100
AcDbLayerTableRecord
  2
0
 70
     0
 62
     7
  6
Continuous
370
    -3
390
F
  0
LAYER
  5
73
330
2
100
AcDbSymbolTableRecord
100
AcDbLayerTableRecord
  2
FORMAT
 70
     0
 62
     7
  6
Continuous
370
    -3
390
F
  0
ENDTAB
  0
TABLE
  2
STYLE
  5
3
330
0
100
AcDbSymbolTable
 70
     2
  0
STYLE
  5
11
330
3
100
AcDbSymbolTableRecord
100
AcDbTextStyleTableRecord
  2
Standard
 70
     0
 40
0.0
 41
1.0
 50
0.0
 71
     0
 42
3.5
  3
txt
  4

  0
STYLE
  5
74
330
3
100
AcDbSymbolTableRecord
100
AcDbTextStyleTableRecord
  2
SLDTEXTSTYLE0
 70
     0
 40
0.0
 41
0.605
 50
0.0
 71
     0
 42
3.5
  3
TXT
  4

  0
ENDTAB
  0
TABLE
  2
VIEW
  5
6
330
0
100
AcDbSymbolTable
 70
     0
  0
ENDTAB
  0
TABLE
  2
UCS
  5
7
330
0
100
AcDbSymbolTable
 70
     0
  0
ENDTAB
  0
TABLE
  2
APPID
  5
9
330
0
100
AcDbSymbolTable
 70
     1
  0
APPID
  5
12
330
9
100
AcDbSymbolTableRecord
100
AcDbRegAppTableRecord
  2
ACAD
 70
     0
  0
ENDTAB
  0
TABLE
  2
DIMSTYLE
  5
A
330
0
100
AcDbSymbolTable
 70
     1
100
AcDbDimStyleTable
  0
DIMSTYLE
105
27
330
A
100
AcDbSymbolTableRecord
100
AcDbDimStyleTableRecord
  2
ISO-25
 70
     0
 41
2.5
 42
0.625
 43
3.75
 44
1.25
 73
     0
 74
     0
 77
     1
 78
     8
140
2.5
141
2.5
143
0.0393700787
147
0.625
171
     3
172
     1
178
     0
271
     2
272
     2
274
     3
278
    44
283
     0
284
     8
340
11
  0
ENDTAB
  0
TABLE
  2
BLOCK_RECORD
  5
1
330
0
100
AcDbSymbolTable
 70
     1
  0
BLOCK_RECORD
  5
1F
330
1
100
AcDbSymbolTableRecord
100
AcDbBlockTableRecord
  2
*Model_Space
340
22
  0
BLOCK_RECORD
  5
1B
330
1
100
AcDbSymbolTableRecord
100
AcDbBlockTableRecord
  2
*Paper_Space
340
1E
  0
BLOCK_RECORD
  5
23
330
1
100
AcDbSymbolTableRecord
100
AcDbBlockTableRecord
  2
*Paper_Space0
340
26
  0
ENDTAB
  0
ENDSEC
  0
SECTION
  2
BLOCKS
  0
BLOCK
  5
20
330
1F
100
AcDbEntity
  8
0
100
AcDbBlockBegin
  2
*Model_Space
 70
     0
 10
0.0
 20
0.0
 30
0.0
  3
*Model_Space
  1

  0
ENDBLK
  5
21
330
1F
100
AcDbEntity
  8
0
100
AcDbBlockEnd
  0
BLOCK
  5
1C
330
1B
100
AcDbEntity
 67
     1
  8
0
100
AcDbBlockBegin
  2
*Paper_Space
 70
     0
 10
0.0
 20
0.0
 30
0.0
  3
*Paper_Space
  1

  0
ENDBLK
  5
1D
330
1B
100
AcDbEntity
 67
     1
  8
0
100
AcDbBlockEnd
  0
BLOCK
  5
24
330
23
100
AcDbEntity
  8
0
100
AcDbBlockBegin
  2
*Paper_Space0
 70
     0
 10
0.0
 20
0.0
 30
0.0
  3
*Paper_Space0
  1

  0
ENDBLK
  5
25
330
23
100
AcDbEntity
  8
0
100
AcDbBlockEnd
  0
ENDSEC
  0
SECTION
  2
ENTITIES
  0
MTEXT
  5
75
330
1F
100
AcDbEntity
  8
0
  6
Continuous
 62
     7
370
     0
100
AcDbMText
 10
7.2782978723
 20
22.1884790273
 30
0.0
 40
10.0
 41
0.0
 71
     1
 72
     1
  1
1:1
  7
SLDTEXTSTYLE0
 73
     1
 44
1.0
  0
ARC
  5
76
330
1F
100
AcDbEntity
  8
0
  6
Continuous
 62
     7
370
    30
100
AcDbCircle
 10
643.9749268313
 20
541.9738997765
 30
0.0
 40
85.00017133750002
100
AcDbArc
 50
274.0300880194
 51
265.9699017709
  0
LINE
  5
77
330
1F
100
AcDbEntity
  8
0
  6
Continuous
 62
     7
370
    30
100
AcDbLine
 10
658.384223089
 20
487.8877026967
 30
0.0
 11
658.4621569635
 21
487.9234077076
 31
0.0
  0
LINE
  5
78
330
1F
100
AcDbEntity
  8
0
  6
Continuous
 62
     7
370
    30
100
AcDbLine
 10
629.5254470304
 20
487.9234017021
 30
0.0
 11
629.6033677966
 21
487.8877026967
 31
0.0
  0
ARC
  5
79
330
1F
100
AcDbEntity
  8
0
  6
Continuous
 62
     7
370
    30
100
AcDbCircle
 10
657.5249268313
 20
484.6738997765
 30
0.0
 40
0.2000000000000455
100
AcDbArc
 50
270.0
 51
0.0
  0
ARC
  5
7A
330
1F
100
AcDbEntity
  8
0
  6
Continuous
 62
     7
370
    30
100
AcDbCircle
 10
630.4249268313
 20
484.6738997765
 30
0.0
 40
0.1999999999999886
100
AcDbArc
 50
180.0
 51
270.0
  0
ARC
  5
7B
330
1F
100
AcDbEntity
  8
0
  6
Continuous
 62
     7
370
    30
100
AcDbCircle
 10
630.4249268313
 20
491.7738997765
 30
0.0
 40
0.2000000000000455
100
AcDbArc
 50
90.0
 51
180.0
  0
ARC
  5
7C
330
1F
100
AcDbEntity
  8
0
  6
Continuous
 62
     7
370
    30
100
AcDbCircle
 10
657.5249268313
 20
491.7738997765
 30
0.0
 40
0.2000000000000455
100
AcDbArc
 50
0.0
 51
90.0
  0
LINE
  5
7D
330
1F
100
AcDbEntity
  8
0
  6
Continuous
 62
     7
370
    30
100
AcDbLine
 10
630.2249268313
 20
491.7738997765
 30
0.0
 11
630.2249268313
 21
484.6738997765
 31
0.0
  0
LINE
  5
7E
330
1F
100
AcDbEntity
  8
0
  6
Continuous
 62
     7
370
    30
100
AcDbLine
 10
657.7249268313
 20
484.6738997765
 30
0.0
 11
657.7249268313
 21
491.7738997765
 31
0.0
  0
ARC
  5
7F
330
1F
100
AcDbEntity
  8
0
  6
Continuous
 62
     7
370
    30
100
AcDbCircle
 10
630.3749268313
 20
492.3738997765
 30
0.0
 40
0.4000000000000909
100
AcDbArc
 50
180.0
 51
270.0
  0
ARC
  5
80
330
1F
100
AcDbEntity
  8
0
  6
Continuous
 62
     7
370
    30
100
AcDbCircle
 10
657.5749268313
 20
492.3738997765
 30
0.0
 40
0.4000000000000341
100
AcDbArc
 50
270.0
 51
0.0
  0
LINE
  5
81
330
1F
100
AcDbEntity
  8
0
  6
Continuous
 62
     7
370
    30
100
AcDbLine
 10
657.9749268313
 20
492.3738997765
 30
0.0
 11
657.9749268313
 21
500.9738997765
 31
0.0
  0
LINE
  5
82
330
1F
100
AcDbEntity
  8
0
  6
Continuous
 62
     7
370
    30
100
AcDbLine
 10
629.9749268313
 20
500.9738997765
 30
0.0
 11
629.9749268313
 21
492.3738997765
 31
0.0
  0
LINE
  5
83
330
1F
100
AcDbEntity
  8
0
  6
Continuous
 62
     7
370
    30
100
AcDbLine
 10
629.9749268313
 20
541.9738997765
 30
0.0
 11
629.9749268313
 21
500.9738997765
 31
0.0
  0
LINE
  5
84
330
1F
100
AcDbEntity
  8
0
  6
Continuous
 62
     7
370
    30
100
AcDbLine
 10
657.9749268313
 20
500.9738997765
 30
0.0
 11
657.9749268313
 21
541.9738997765
 31
0.0
  0
SPLINE
  5
85
330
1F
100
AcDbEntity
  8
0
  6
Continuous
 62
     7
370
    30
100
AcDbSpline
210
0.0
220
0.0
230
1.0
 70
     8
 71
     3
 72
    16
 73
    12
 74
     0
 42
0.000000001
 43
0.00000001
 40
0.0
 40
0.0
 40
0.0
 40
0.0
 40
0.1120662463784819
 40
0.2242876838257872
 40
0.336509089816068
 40
0.4485752932392019
 40
0.5666805164763016
 40
0.6848765416683104
 40
0.8029817391427118
 40
0.9245151339186308
 40
1.0
 40
1.0
 40
1.0
 40
1.0
 10
659.8502920392289
 20
495.4159664594205
 30
0.0
 10
659.7908472295129
 20
495.4741906525956
 30
0.0
 10
659.6718752899901
 20
495.5907196687077
 30
0.0
 10
659.4820293335124
 20
495.7533495488273
 30
0.0
 10
659.2845873448662
 20
495.9065330477537
 30
0.0
 10
659.0756120045647
 20
496.0514605742321
 30
0.0
 10
658.8553030221275
 20
496.1871566817062
 30
0.0
 10
658.6239360516496
 20
496.312773760215
 30
0.0
 10
658.383486778696
 20
496.4259198347631
 30
0.0
 10
658.1670809590391
 20
496.5154440550044
 30
0.0
 10
658.0281545823121
 20
496.5613186114819
 30
0.0
 10
657.9749268312561
 20
496.578894823642
 30
0.0
  0
SPLINE
  5
86
330
1F
100
AcDbEntity
  8
0
  6
Continuous
 62
     7
370
    30
100
AcDbSpline
210
0.0
220
0.0
230
1.0
 70
     8
 71
     3
 72
    45
 73
    41
 74
     0
 42
0.000000001
 43
0.00000001
 40
0.0
 40
0.0
 40
0.0
 40
0.0
 40
0.0015206725689597
 40
0.0288544642546631
 40
0.0554237641194644
 40
0.0820135238380234
 40
0.1085828255832632
 40
0.1359243265992841
 40
0.1632881245610752
 40
0.1906296296138021
 40
0.2172084823128373
 40
0.2438078092313315
 40
0.2703866668505117
 40
0.2977381653284712
 40
0.3251119726381677
 40
0.3524634774827155
 40
0.3790501133635164
 40
0.4056572273039467
 40
0.4322438689868464
 40
0.4596032675853264
 40
0.4869849778850974
 40
0.5143443823863765
 40
0.5409336166976491
 40
0.5675433206962007
 40
0.5941325591437876
 40
0.6214942941366748
 40
0.648878333426904
 40
0.676240071268195
 40
0.7028268086256325
 40
0.7294340016143999
 40
0.7560207396313995
 40
0.7833795627453269
 40
0.8107606790172484
 40
0.8381195006800441
 40
0.8647063128261082
 40
0.8913135822220998
 40
0.9179003912651409
 40
0.9452594956442808
 40
0.9726409007364057
 40
1.0
 40
1.0
 40
1.0
 40
1.0
 10
657.724926831256
 20
487.4917706127525
 30
0.0
 10
657.7298038962202
 20
487.4929620941295
 30
0.0
 10
657.8223452490106
 20
487.515570219971
 30
0.0
 10
657.9965086334191
 20
487.5726444900988
 30
0.0
 10
658.2461916208434
 20
487.6636203120827
 30
0.0
 10
658.4876665300876
 20
487.7688423881025
 30
0.0
 10
658.7253697648773
 20
487.8879561793425
 30
0.0
 10
658.9581465506565
 20
488.0217109925371
 30
0.0
 10
659.1850861973667
 20
488.1698360586382
 30
0.0
 10
659.4012115085405
 20
488.3291315250537
 30
0.0
 10
659.6060292459715
 20
488.4987711590109
 30
0.0
 10
659.7993102472917
 20
488.6777519617083
 30
0.0
 10
659.9841800411076
 20
488.8689687262009
 30
0.0
 10
660.1596143593398
 20
489.072274313392
 30
0.0
 10
660.3247580741468
 20
489.2872394039505
 30
0.0
 10
660.4759926012622
 20
489.5091546317662
 30
0.0
 10
660.6131211443121
 20
489.7370852591746
 30
0.0
 10
660.7362626260038
 20
489.970005629794
 30
0.0
 10
660.8474111518628
 20
490.2116887503147
 30
0.0
 10
660.9456490591756
 20
490.4616564277214
 30
0.0
 10
661.0303114495657
 20
490.719220505768
 30
0.0
 10
661.0995387134675
 20
490.9787224067902
 30
0.0
 10
661.1534579642511
 20
491.2392140774174
 30
0.0
 10
661.192524150846
 20
491.4997668156984
 30
0.0
 10
661.2173726966126
 20
491.7646172250792
 30
0.0
 10
661.2272961178147
 20
492.0330106728842
 30
0.0
 10
661.221894629158
 20
492.3040780794499
 30
0.0
 10
661.2012880590394
 20
492.5718500150969
 30
0.0
 10
661.1659129753995
 20
492.8354744335431
 30
0.0
 10
661.1165084970563
 20
493.0942264192827
 30
0.0
 10
661.0522690434443
 20
493.3523286401423
 30
0.0
 10
660.9727765571441
 20
493.6088352666992
 30
0.0
 10
660.8779414126446
 20
493.8627946256282
 30
0.0
 10
660.7698466633376
 20
494.1086228124386
 30
0.0
 10
660.6491889503994
 20
494.3456645117915
 30
0.0
 10
660.5168849458951
 20
494.5734606148827
 30
0.0
 10
660.3708496844904
 20
494.7957893186094
 30
0.0
 10
660.2107359350537
 20
495.0113566738116
 30
0.0
 10
660.037777408958
 20
495.220227602383
 30
0.0
 10
659.9127701830294
 20
495.3507379006535
 30
0.0
 10
659.8502920392289
 20
495.4159664594205
 30
0.0
  0
SPLINE
  5
87
330
1F
100
AcDbEntity
  8
0
  6
Continuous
 62
     7
370
    30
100
AcDbSpline
210
0.0
220
0.0
230
1.0
 70
     8
 71
     3
 72
    54
 73
    50
 74
     0
 42
0.000000001
 43
0.00000001
 40
0.0
 40
0.0
 40
0.0
 40
0.0
 40
0.0066669984189811
 40
0.0289962025663961
 40
0.0513436191851527
 40
0.0736728285267715
 40
0.0953776224951899
 40
0.1170991343523257
 40
0.1388039330575468
 40
0.1611395954422566
 40
0.1834934726655949
 40
0.2058291398728757
 40
0.2275360695395159
 40
0.2492597102877816
 40
0.2709666433373003
 40
0.2933042283602071
 40
0.3156600222004491
 40
0.3379976095578532
 40
0.3597015131847339
 40
0.3814221141151505
 40
0.4031260182895547
 40
0.4254601486400234
 40
0.4478124760496364
 40
0.470146605225795
 40
0.4918436505864468
 40
0.5135573785514947
 40
0.5352544213905107
 40
0.5575812373977719
 40
0.579926238128544
 40
0.6022530499725859
 40
0.6239424113068033
 40
0.6456484460556318
 40
0.6673378029076311
 40
0.6896566508876746
 40
0.7119936760742278
 40
0.7343125187278993
 40
0.7559967348973378
 40
0.7776976248123268
 40
0.7993818365006687
 40
0.8216955514413867
 40
0.8440274441743821
 40
0.8663411549566109
 40
0.8880250179348982
 40
0.9097255643707155
 40
0.931409424830432
 40
0.9537230897190877
 40
0.9760549408381387
 40
0.9983686045576787
 40
1.0
 40
1.0
 40
1.0
 40
1.0
 10
629.9749268312561
 20
496.5791952892255
 30
0.0
 10
629.9492093562693
 20
496.5711004786864
 30
0.0
 10
629.8373585551514
 20
496.5358944157213
 30
0.0
 10
629.6442538077722
 20
496.4589638764426
 30
0.0
 10
629.3969096037539
 20
496.3482722221748
 30
0.0
 10
629.158888184429
 20
496.2238350663178
 30
0.0
 10
628.9303702322529
 20
496.0877137870114
 30
0.0
 10
628.7118499509842
 20
495.9405169904333
 30
0.0
 10
628.4997579562722
 20
495.7799526023846
 30
0.0
 10
628.2951370183966
 20
495.6059841997534
 30
0.0
 10
628.0988959846284
 20
495.4189111718266
 30
0.0
 10
627.9153464066393
 20
495.2228417559187
 30
0.0
 10
627.7448237056901
 20
495.0186721791439
 30
0.0
 10
627.5873653771613
 20
494.8074357779303
 30
0.0
 10
627.4404109821692
 20
494.5856980095327
 30
0.0
 10
627.3049404856354
 20
494.3537900467357
 30
0.0
 10
627.1817166428234
 20
494.1122892428717
 30
0.0
 10
627.0734539212767
 20
493.8665179884953
 30
0.0
 10
626.9801690451366
 20
493.6174338203186
 30
0.0
 10
626.901551987603
 20
493.3660249035167
 30
0.0
 10
626.836317808929
 20
493.1081850462296
 30
0.0
 10
626.7852813373706
 20
492.844550501299
 30
0.0
 10
626.748971326149
 20
492.5759179034481
 30
0.0
 10
626.7281882532345
 20
492.3082195687704
 30
0.0
 10
626.7226287561562
 20
492.0423643680013
 30
0.0
 10
626.7316712830415
 20
491.7791816335345
 30
0.0
 10
626.7554628554004
 20
491.514358685309
 30
0.0
 10
626.7945617927003
 20
491.2487649295786
 30
0.0
 10
626.8492036184017
 20
490.9833265474714
 30
0.0
 10
626.9181804763506
 20
490.7239060087124
 30
0.0
 10
627.0009055944444
 20
490.4712602735504
 30
0.0
 10
627.0965182994061
 20
490.2259660621507
 30
0.0
 10
627.206585298215
 20
489.9840014146234
 30
0.0
 10
627.3313458718409
 20
489.7463711888634
 30
0.0
 10
627.4707159000899
 20
489.5140270605119
 30
0.0
 10
627.6216224747764
 20
489.2920914333558
 30
0.0
 10
627.7832635377217
 20
489.0810857034424
 30
0.0
 10
627.9546377942818
 20
488.8812707678546
 30
0.0
 10
628.1385479861714
 20
488.68937834637
 30
0.0
 10
628.334887280858
 20
488.5064357835053
 30
0.0
 10
628.5432613513897
 20
488.3333140108098
 30
0.0
 10
628.7590896105808
 20
488.1738161942657
 30
0.0
 10
628.9814473466781
 20
488.0281820463531
 30
0.0
 10
629.2092952280777
 20
487.8962922397224
 30
0.0
 10
629.4463799775585
 20
487.7761389241576
 30
0.0
 10
629.6921242993233
 20
487.6681261340113
 30
0.0
 10
629.946381979175
 20
487.5749517730058
 30
0.0
 10
630.1244819354825
 20
487.5165358883907
 30
0.0
 10
630.2185199485309
 20
487.4934258326093
 30
0.0
 10
630.2249268312559
 20
487.4918513265945
 30
0.0
  0
ARC
  5
88
330
1F
100
AcDbEntity
  8
0
  6
Continuous
 62
     7
370
    30
100
AcDbCircle
 10
643.9749268313
 20
541.9738997765
 30
0.0
 40
14.10000000000002
100
AcDbArc
 50
90.0
 51
186.8278674816
  0
ARC
  5
89
330
1F
100
AcDbEntity
  8
0
  6
Continuous
 62
     7
370
    30
100
AcDbCircle
 10
643.9749268313
 20
541.9738997765
 30
0.0
 40
14.09999999999991
100
AcDbArc
 50
353.1721325186
 51
90.0
  0
SPLINE
  5
8A
330
1F
100
AcDbEntity
  8
0
  6
Continuous
 62
     7
370
    30
100
AcDbSpline
210
0.0
220
0.0
230
1.0
 70
     8
 71
     3
 72
    21
 73
    17
 74
     0
 42
0.000000001
 43
0.00000001
 40
0.0
 40
0.0
 40
0.0
 40
0.0
 40
0.0737534642358895
 40
0.1477420268318878
 40
0.2214952827863015
 40
0.2952480559295249
 40
0.3692360739345959
 40
0.4429893081949771
 40
0.5167640832959774
 40
0.5907736140099079
 40
0.6645491677734642
 40
0.7384567533046281
 40
0.812599323126756
 40
0.8865075761154266
 40
0.9432537679759723
 40
1.0
 40
1.0
 40
1.0
 40
1.0
 10
649.8935723512595
 20
457.2074910125746
 30
0.0
 10
649.8903797267412
 20
457.2082449919491
 30
0.0
 10
649.8839843008162
 20
457.2097553541014
 30
0.0
 10
649.8586715426736
 20
457.2108694970265
 30
0.0
 10
649.8223052954799
 20
457.2111417035204
 30
0.0
 10
649.7737532954797
 20
457.2104634750369
 30
0.0
 10
649.7143692145073
 20
457.2089220342999
 30
0.0
 10
649.6447798982579
 20
457.2065506966538
 30
0.0
 10
649.5655516479185
 20
457.2033766488211
 30
0.0
 10
649.4780223776131
 20
457.1994936512338
 30
0.0
 10
649.3832001571476
 20
457.1949691386998
 30
0.0
 10
649.2820506795669
 20
457.1898641091099
 30
0.0
 10
649.1760708404315
 20
457.1842809657225
 30
0.0
 10
649.0750398287155
 20
457.1787620407283
 30
0.0
 10
648.9809983612699
 20
457.1734889907286
 30
0.0
 10
648.9236280047328
 20
457.170181196519
 30
0.0
 10
648.8949428163129
 20
457.1685272988289
 30
0.0
  0
ARC
  5
8B
330
1F
100
AcDbEntity
  8
0
  6
Continuous
 62
     7
370
    30
100
AcDbCircle
 10
643.9749268313
 20
541.9738997766
 30
0.0
 40
84.94797089044826
100
AcDbArc
 50
266.6796853455
 51
273.3203146545
  0
SPLINE
  5
8C
330
1F
100
AcDbEntity
  8
0
  6
Continuous
 62
     7
370
    30
100
AcDbSpline
210
0.0
220
0.0
230
1.0
 70
     8
 71
     3
 72
    21
 73
    17
 74
     0
 42
0.000000001
 43
0.00000001
 40
0.0
 40
0.0
 40
0.0
 40
0.0
 40
0.0737534642337071
 40
0.147742026824461
 40
0.2214952827705946
 40
0.2952480559145557
 40
0.3692360739203631
 40
0.4429893081814822
 40
0.5167640832838606
 40
0.590773613999173
 40
0.6645491677641072
 40
0.7384567532966525
 40
0.8125993231201645
 40
0.8865075761102155
 40
0.9432537679733665
 40
1.0
 40
1.0
 40
1.0
 40
1.0
 10
638.0562813114149
 20
457.2074910127374
 30
0.0
 10
638.0594739359221
 20
457.2082449921016
 30
0.0
 10
638.0658693618251
 20
457.2097553542332
 30
0.0
 10
638.0911821198621
 20
457.210869497059
 30
0.0
 10
638.127548367013
 20
457.2111417035115
 30
0.0
 10
638.1761003670214
 20
457.2104634750393
 30
0.0
 10
638.2354844479898
 20
457.2089220342993
 30
0.0
 10
638.3050737642393
 20
457.2065506966541
 30
0.0
 10
638.3843020145779
 20
457.2033766488212
 30
0.0
 10
638.4718312848829
 20
457.1994936512339
 30
0.0
 10
638.5666535053481
 20
457.1949691387001
 30
0.0
 10
638.6678029829287
 20
457.1898641091101
 30
0.0
 10
638.7737828220637
 20
457.1842809657226
 30
0.0
 10
638.8748138337805
 20
457.1787620407285
 30
0.0
 10
638.9688553012274
 20
457.1734889907287
 30
0.0
 10
639.0262256577662
 20
457.170181196519
 30
0.0
 10
639.0549108461869
 20
457.1685272988289
 30
0.0
  0
LINE
  5
8D
330
1F
100
AcDbEntity
  8
0
  6
Continuous
 62
     7
370
    30
100
AcDbLine
 10
638.0018245926
 20
457.1840298059
 30
0.0
 11
638.0562811321
 21
457.2074909268
 31
0.0
  0
LWPOLYLINE
  5
8E
330
1F
100
AcDbEntity
  8
0
  6
Continuous
 62
     7
370
    30
100
AcDbPolyline
 90
        9
 70
   128
 43
0.0
 10
649.9480370037
 20
457.1840303648
 10
649.9412289207
 20
457.1869616939
 10
649.934420838
 20
457.1898933807
 10
649.9276127558
 20
457.1928254252
 10
649.920804674
 20
457.1957578275
 10
649.9139965927
 20
457.1986905874
 10
649.9071885117
 20
457.2016237051
 10
649.9003804312
 20
457.2045571805
 10
649.8935723511
 20
457.2074910126
  0
LINE
  5
8F
330
1F
100
AcDbEntity
  8
0
  6
Continuous
 62
     7
370
    30
100
AcDbLine
 10
649.9487234988
 20
457.1845390872
 30
0.0
 11
649.9480370037
 21
457.1840303648
 31
0.0
  0
LINE
  5
90
330
1F
100
AcDbEntity
  8
0
  6
Continuous
 62
     7
370
    30
100
AcDbLine
 10
638.0018166798
 20
457.1840303738
 30
0.0
 11
638.0011320921
 21
457.1848266094
 31
0.0
  0
ARC
  5
91
330
1F
100
AcDbEntity
  8
0
  6
Continuous
 62
     7
370
    30
100
AcDbCircle
 10
631.4898945322
 20
492.0078339824
 30
0.0
 40
4.531710019752446
100
AcDbArc
 50
109.5302055483
 51
253.7912982105
  0
ARC
  5
92
330
1F
100
AcDbEntity
  8
0
  6
Continuous
 62
     7
370
    30
100
AcDbCircle
 10
656.4976685659
 20
492.0078333267
 30
0.0
 40
4.531733930721355
100
AcDbArc
 50
285.7127270406
 51
70.9749927784
  0
SPLINE
  5
93
330
1F
100
AcDbEntity
  8
0
  6
Continuous
 62
     7
370
    30
100
AcDbSpline
210
0.0
220
0.0
230
1.0
 70
     8
 71
     3
 72
    12
 73
     8
 74
     0
 42
0.000000001
 43
0.00000001
 40
0.0
 40
0.0
 40
0.0
 40
0.0
 40
0.018217057203721
 40
0.2398300133376166
 40
0.5216805354206641
 40
0.8637218775432423
 40
1.0
 40
1.0
 40
1.0
 40
1.0
 10
658.4620143855647
 20
487.9237324362117
 30
0.0
 10
658.4680324988558
 20
487.9263641327731
 30
0.0
 10
658.5472617714397
 20
487.9610107726974
 30
0.0
 10
658.7149138870838
 20
488.0461754937032
 30
0.0
 10
658.9791210350616
 20
488.1966914257219
 30
0.0
 10
659.209626044779
 20
488.34489477805
 30
0.0
 10
659.3427241379575
 20
488.453584358786
 30
0.0
 10
659.3806451501347
 20
488.4845511353657
 30
0.0
  0
SPLINE
  5
94
330
1F
100
AcDbEntity
  8
0
  6
Continuous
 62
     7
370
    30
100
AcDbSpline
210
0.0
220
0.0
230
1.0
 70
     8
 71
     3
 72
    11
 73
     7
 74
     0
 42
0.000000001
 43
0.00000001
 40
0.0
 40
0.0
 40
0.0
 40
0.0
 40
0.1324419631367242
 40
0.4839591469404632
 40
0.798800567545306
 40
1.0
 40
1.0
 40
1.0
 40
1.0
 10
628.536956063044
 20
488.5403958294359
 30
0.0
 10
628.576195457403
 20
488.5070103823767
 30
0.0
 10
628.7195810081051
 20
488.3850158717524
 30
0.0
 10
628.9804480900258
 20
488.2140953963205
 30
0.0
 10
629.2721455342461
 20
488.042729849933
 30
0.0
 10
629.455088590472
 20
487.9583377944418
 30
0.0
 10
629.5264163523457
 20
487.9254341327107
 30
0.0
  0
SPLINE
  5
95
330
1F
100
AcDbEntity
  8
0
  6
Continuous
 62
     7
370
    30
100
AcDbSpline
210
0.0
220
0.0
230
1.0
 70
    24
 71
     3
 72
    48
 73
    44
 74
     0
 42
0.000000001
 43
0.00000001
 40
0.0
 40
0.0
 40
0.0
 40
0.0
 40
0.0244062879048557
 40
0.0487669396282844
 40
0.0731020220594989
 40
0.0974316653558333
 40
0.1165573728264514
 40
0.1357019154251523
 40
0.1548750213784045
 40
0.1751871463528944
 40
0.2041845972387165
 40
0.2331386697954208
 40
0.2620832662583998
 40
0.2910523221324315
 40
0.3200796871369169
 40
0.3415824208578006
 40
0.3630419675498474
 40
0.3844719868067478
 40
0.4058861947267317
 40
0.4272983377931233
 40
0.4487221664639549
 40
0.4701714087234111
 40
0.4916597438487446
 40
0.5167557502723338
 40
0.54179449157608
 40
0.5667977095984273
 40
0.5917872388977935
 40
0.6167849499023915
 40
0.6418126915917336
 40
0.6668922344584144
 40
0.6961643752682591
 40
0.7253634954814799
 40
0.7545241625566859
 40
0.7836810807190356
 40
0.8128689675660001
 40
0.8421224304356537
 40
0.8666929396858749
 40
0.891209586865652
 40
0.9156927816563085
 40
0.9401630174433597
 40
0.9646408201610803
 40
0.9891466967297425
 40
1.0
 40
1.0
 40
1.0
 40
1.0
 10
649.1652408905129
 20
484.4738997765483
 30
0.0
 10
649.2847543901732
 20
484.4738997765483
 30
0.0
 10
649.5235579167652
 20
484.4738997765483
 30
0.0
 10
649.8758269959396
 20
484.4738997765483
 30
0.0
 10
650.22316885938
 20
484.4738997765483
 30
0.0
 10
650.5407508916774
 20
484.4738997765483
 30
0.0
 10
650.8298676252708
 20
484.4738997765483
 30
0.0
 10
651.0916765907077
 20
484.4738997765483
 30
0.0
 10
651.3552029989473
 20
484.4738997765483
 30
0.0
 10
651.6584449007881
 20
484.4738997765483
 30
0.0
 10
651.9982241963887
 20
484.4738997765483
 30
0.0
 10
652.3661182639099
 20
484.4738997765483
 30
0.0
 10
652.7240912958645
 20
484.4738997765484
 30
0.0
 10
653.0721399316844
 20
484.4738997765483
 30
0.0
 10
653.380700535024
 20
484.4738997765483
 30
0.0
 10
653.6522442301692
 20
484.4738997765483
 30
0.0
 10
653.8889752629802
 20
484.4738997765483
 30
0.0
 10
654.1190551610239
 20
484.4738997765483
 30
0.0
 10
654.3424853975388
 20
484.4738997765483
 30
0.0
 10
654.5592652817479
 20
484.4738997765483
 30
0.0
 10
654.7693943601523
 20
484.4738997765483
 30
0.0
 10
654.9728735860829
 20
484.4738997765484
 30
0.0
 10
655.1805500106478
 20
484.4738997765484
 30
0.0
 10
655.3906421589662
 20
484.4738997765484
 30
0.0
 10
655.6011423573983
 20
484.4738997765483
 30
0.0
 10
655.8012334301972
 20
484.4738997765484
 30
0.0
 10
655.9909157026585
 20
484.4738997765484
 30
0.0
 10
656.1701881353509
 20
484.4738997765484
 30
0.0
 10
656.3390519040505
 20
484.4738997765484
 30
0.0
 10
656.506173541004
 20
484.4738997765484
 30
0.0
 10
656.6690735965874
 20
484.4738997765484
 30
0.0
 10
656.8249344284314
 20
484.4738997765484
 30
0.0
 10
656.9653677284339
 20
484.4738997765484
 30
0.0
 10
657.090373604039
 20
484.4738997765484
 30
0.0
 10
657.1999520319183
 20
484.4738997765484
 30
0.0
 10
657.2889712483263
 20
484.4738997765484
 30
0.0
 10
657.3601250069763
 20
484.4738997765484
 30
0.0
 10
657.4158267120689
 20
484.4738997765484
 30
0.0
 10
657.4601980821176
 20
484.4738997765484
 30
0.0
 10
657.4934616411509
 20
484.4738997765484
 30
0.0
 10
657.5147904203526
 20
484.4738997765484
 30
0.0
 10
657.5249476023549
 20
484.4738997765484
 30
0.0
 10
657.5238845902039
 20
484.4738997765484
 30
0.0
 10
657.523558304546
 20
484.4738997765484
 30
0.0
  0
SPLINE
  5
96
330
1F
100
AcDbEntity
  8
0
  6
Continuous
 62
     7
370
    30
100
AcDbSpline
210
0.0
220
0.0
230
1.0
 70
    24
 71
     3
 72
    79
 73
    75
 74
     0
 42
0.000000001
 43
0.00000001
 40
0.0
 40
0.0
 40
0.0
 40
0.0
 40
0.0082162153867916
 40
0.0185679763242472
 40
0.0289027941623205
 40
0.03922490202225
 40
0.0495385486752882
 40
0.0598479933539025
 40
0.070157500498519
 40
0.0823137900845966
 40
0.0944830604555522
 40
0.1066722601487235
 40
0.1181952524430785
 40
0.1345989614048846
 40
0.1509804189059981
 40
0.1673566836589809
 40
0.1837448305920876
 40
0.2001618975586462
 40
0.2148003903626649
 40
0.2294105491475681
 40
0.2440043982955223
 40
0.2585940025147238
 40
0.270062302623848
 40
0.281541286879799
 40
0.2930367889123776
 40
0.3052174250260046
 40
0.3226065094831976
 40
0.3399695809835657
 40
0.3573269698946642
 40
0.3746990265349124
 40
0.3921060497792688
 40
0.4050007298723438
 40
0.417869511727503
 40
0.4307205866795383
 40
0.4435621799476692
 40
0.456402534972342
 40
0.4692498975775365
 40
0.4821125001101983
 40
0.4949985457088796
 40
0.510048026331604
 40
0.5250631664184594
 40
0.5400570040349888
 40
0.5550426328487095
 40
0.5700331680373971
 40
0.5850417119165574
 40
0.6000813197349484
 40
0.6176351292340415
 40
0.6351451500103883
 40
0.652632111350131
 40
0.6701168245550773
 40
0.6876201089460904
 40
0.7051627177240961
 40
0.719897070139284
 40
0.7345991227466296
 40
0.7492811147485976
 40
0.7639553355430743
 40
0.7786340940466643
 40
0.7933296877737284
 40
0.8080543720582077
 40
0.8184061329957087
 40
0.8287409508338173
 40
0.8390630586937706
 40
0.8493767053468236
 40
0.8596861500254395
 40
0.8699956571700488
 40
0.8821519467561055
 40
0.8943212171270298
 40
0.9065104168201555
 40
0.91803128735939
 40
0.9344329325160898
 40
0.9508135715783229
 40
0.9671902584805857
 40
0.9835800594943038
 40
1.0
 40
1.0
 40
1.0
 40
1.0
 10
630.4262953579627
 20
484.4738997765481
 30
0.0
 10
630.4260756437795
 20
484.4738997765481
 30
0.0
 10
630.4255791076545
 20
484.4738997765481
 30
0.0
 10
630.4331896850714
 20
484.4738997765481
 30
0.0
 10
630.4457058886974
 20
484.4738997765481
 30
0.0
 10
630.4640885634998
 20
484.4738997765481
 30
0.0
 10
630.4879290137019
 20
484.4738997765481
 30
0.0
 10
630.517336621101
 20
484.4738997765481
 30
0.0
 10
630.5543633692017
 20
484.4738997765481
 30
0.0
 10
630.600235327485
 20
484.4738997765481
 30
0.0
 10
630.6562460295723
 20
484.4738997765481
 30
0.0
 10
630.7187533568962
 20
484.4738997765481
 30
0.0
 10
630.7966698910823
 20
484.4738997765481
 30
0.0
 10
630.8931797325682
 20
484.4738997765481
 30
0.0
 10
631.0138385495461
 20
484.4738997765481
 30
0.0
 10
631.1479302196892
 20
484.4738997765481
 30
0.0
 10
631.2954525736801
 20
484.4738997765481
 30
0.0
 10
631.4504508104765
 20
484.4738997765481
 30
0.0
 10
631.6109572615462
 20
484.4738997765481
 30
0.0
 10
631.7752194166591
 20
484.4738997765481
 30
0.0
 10
631.9493503763658
 20
484.4738997765481
 30
0.0
 10
632.1201995083665
 20
484.4738997765481
 30
0.0
 10
632.2854275929653
 20
484.4738997765481
 30
0.0
 10
632.442984788548
 20
484.4738997765481
 30
0.0
 10
632.6097791876105
 20
484.4738997765481
 30
0.0
 10
632.8116560608072
 20
484.4738997765481
 30
0.0
 10
633.0523247296035
 20
484.4738997765481
 30
0.0
 10
633.3322809385529
 20
484.4738997765481
 30
0.0
 10
633.6245804667611
 20
484.4738997765481
 30
0.0
 10
633.9292189159758
 20
484.4738997765481
 30
0.0
 10
634.2184906293753
 20
484.4738997765481
 30
0.0
 10
634.4885312611796
 20
484.4738997765481
 30
0.0
 10
634.7361141433104
 20
484.4738997765481
 30
0.0
 10
634.9892530214498
 20
484.4738997765481
 30
0.0
 10
635.2479472934145
 20
484.4738997765481
 30
0.0
 10
635.5121967284969
 20
484.4738997765481
 30
0.0
 10
635.7820010203164
 20
484.4738997765481
 30
0.0
 10
636.0573596260775
 20
484.4738997765481
 30
0.0
 10
636.3537607989648
 20
484.4738997765481
 30
0.0
 10
636.6716344331206
 20
484.4738997765481
 30
0.0
 10
637.0114435958893
 20
484.4738997765481
 30
0.0
 10
637.3568307489256
 20
484.4738997765482
 30
0.0
 10
637.7077939732022
 20
484.4738997765481
 30
0.0
 10
638.0643327052692
 20
484.4738997765482
 30
0.0
 10
638.4264463234462
 20
484.4738997765481
 30
0.0
 10
638.8142571032496
 20
484.4738997765482
 30
0.0
 10
639.2278379914117
 20
484.4738997765482
 30
0.0
 10
639.667229965908
 20
484.4738997765482
 30
0.0
 10
640.1111514595178
 20
484.4738997765482
 30
0.0
 10
640.5595995963257
 20
484.4738997765482
 30
0.0
 10
641.0125715634139
 20
484.4738997765482
 30
0.0
 10
641.4451462721686
 20
484.4738997765482
 30
0.0
 10
641.8557853778523
 20
484.4738997765483
 30
0.0
 10
642.2431874921579
 20
484.4738997765482
 30
0.0
 10
642.6315073606728
 20
484.4738997765483
 30
0.0
 10
643.0207447870127
 20
484.4738997765482
 30
0.0
 10
643.4108990859266
 20
484.4738997765482
 30
0.0
 10
643.8019682858251
 20
484.4738997765483
 30
0.0
 10
644.1547965400075
 20
484.4738997765483
 30
0.0
 10
644.4688056271438
 20
484.4738997765483
 30
0.0
 10
644.7435749970224
 20
484.4738997765483
 30
0.0
 10
645.0176913196293
 20
484.4738997765482
 30
0.0
 10
645.291155047429
 20
484.4738997765483
 30
0.0
 10
645.5639661245739
 20
484.4738997765482
 30
0.0
 10
645.8523340429075
 20
484.4738997765483
 30
0.0
 10
646.1561334095819
 20
484.4738997765483
 30
0.0
 10
646.4751700930285
 20
484.4738997765483
 30
0.0
 10
646.7872527796977
 20
484.4738997765483
 30
0.0
 10
647.1344375142218
 20
484.4738997765483
 30
0.0
 10
647.5154414223756
 20
484.4738997765483
 30
0.0
 10
647.9345551929952
 20
484.4738997765483
 30
0.0
 10
648.3493525661786
 20
484.4738997765483
 30
0.0
 10
648.7603168099095
 20
484.4738997765483
 30
0.0
 10
649.0301835625082
 20
484.4738997765483
 30
0.0
 10
649.1652408905129
 20
484.4738997765483
 30
0.0
  0
SPLINE
  5
97
330
1F
100
AcDbEntity
  8
0
  6
Continuous
 62
     7
370
    30
100
AcDbSpline
210
0.0
220
0.0
230
1.0
 70
    24
 71
     3
 72
    66
 73
    62
 74
     0
 42
0.000000001
 43
0.00000001
 40
0.0
 40
0.0
 40
0.0
 40
0.0
 40
0.0182919111930044
 40
0.0365520697009697
 40
0.0547955179666851
 40
0.0730373397714347
 40
0.0873790768272346
 40
0.1017364300081594
 40
0.1161166809864949
 40
0.1313354160627528
 40
0.1516185628999326
 40
0.1718772052022358
 40
0.192132017173151
 40
0.2016856131440438
 40
0.2112451199713458
 40
0.2208126980592019
 40
0.2303905023500067
 40
0.2399806808925872
 40
0.2583902640262783
 40
0.2767634692616693
 40
0.2951156188139017
 40
0.3134620876527133
 40
0.3318182650221868
 40
0.3501995157817499
 40
0.3686211420523159
 40
0.3905538434662069
 40
0.4124373692363205
 40
0.4342976660318686
 40
0.4561607632252014
 40
0.4780526801997113
 40
0.4999993338350641
 40
0.5188026510956095
 40
0.5375671230844807
 40
0.5563090721083126
 40
0.575044879338665
 40
0.5937909420480493
 40
0.612563630635613
 40
0.6313792460036312
 40
0.6494210711740398
 40
0.6674276644333441
 40
0.6854134453470349
 40
0.7033928835553616
 40
0.71281324608439
 40
0.7222379232130224
 40
0.7316689924833377
 40
0.7411085272168921
 40
0.7505585951633238
 40
0.7600212571672438
 40
0.7794130502266274
 40
0.7987679428593157
 40
0.8181038687597845
 40
0.8374388143991106
 40
0.8526418144211616
 40
0.8678640225585295
 40
0.8831141131394878
 40
0.897510564726477
 40
0.9180090893131324
 40
0.9384859609503655
 40
0.9589625199858306
 40
0.9794601077435551
 40
1.0
 40
1.0
 40
1.0
 40
1.0
 10
643.9749268312562
 20
491.9738997765481
 30
0.0
 10
644.1051833277224
 20
491.9738997765481
 30
0.0
 10
644.3654702101373
 20
491.9738997765481
 30
0.0
 10
644.7553494051459
 20
491.9738997765481
 30
0.0
 10
645.1442298297454
 20
491.9738997765481
 30
0.0
 10
645.5043831916691
 20
491.9738997765481
 30
0.0
 10
645.8360093123958
 20
491.9738997765481
 30
0.0
 10
646.1394081776034
 20
491.9738997765481
 30
0.0
 10
646.447862014114
 20
491.9738997765481
 30
0.0
 10
646.7964131157694
 20
491.9738997765481
 30
0.0
 10
647.1837914683258
 20
491.9738997765481
 30
0.0
 10
647.6028908341755
 20
491.9738997765481
 30
0.0
 10
647.9449935894021
 20
491.9738997765481
 30
0.0
 10
648.2120153736698
 20
491.9738997765481
 30
0.0
 10
648.4055928549308
 20
491.9738997765481
 30
0.0
 10
648.59833218585
 20
491.9738997765481
 30
0.0
 10
648.7902344308164
 20
491.9738997765481
 30
0.0
 10
649.0397662520389
 20
491.9738997765481
 30
0.0
 10
649.3450692976412
 20
491.9738997765482
 30
0.0
 10
649.7035835230589
 20
491.9738997765481
 30
0.0
 10
650.0569123467429
 20
491.9738997765481
 30
0.0
 10
650.4050529251901
 20
491.9738997765482
 30
0.0
 10
650.7480050432208
 20
491.9738997765482
 30
0.0
 10
651.0857680339118
 20
491.9738997765482
 30
0.0
 10
651.4391294734716
 20
491.9738997765482
 30
0.0
 10
651.8059611929352
 20
491.9738997765482
 30
0.0
 10
652.1837994603989
 20
491.9738997765482
 30
0.0
 10
652.5515121914441
 20
491.9738997765482
 30
0.0
 10
652.9090966366743
 20
491.9738997765482
 30
0.0
 10
653.2565501322764
 20
491.9738997765482
 30
0.0
 10
653.5773670243369
 20
491.9738997765482
 30
0.0
 10
653.8726686192477
 20
491.9738997765483
 30
0.0
 10
654.1434758387168
 20
491.9738997765482
 30
0.0
 10
654.4051125293
 20
491.9738997765483
 30
0.0
 10
654.657577677688
 20
491.9738997765483
 30
0.0
 10
654.9008711163351
 20
491.9738997765483
 30
0.0
 10
655.1349911050571
 20
491.9738997765482
 30
0.0
 10
655.35662357178
 20
491.9738997765483
 30
0.0
 10
655.565833062303
 20
491.9738997765483
 30
0.0
 10
655.762609679858
 20
491.9738997765483
 30
0.0
 10
655.9497175285383
 20
491.9738997765483
 30
0.0
 10
656.0989821779247
 20
491.9738997765483
 30
0.0
 10
656.2150192279439
 20
491.9738997765483
 30
0.0
 10
656.3014281239061
 20
491.9738997765483
 30
0.0
 10
656.3851852140958
 20
491.9738997765483
 30
0.0
 10
656.4662908595197
 20
491.9738997765483
 30
0.0
 10
656.5447446341262
 20
491.9738997765483
 30
0.0
 10
656.6470201516549
 20
491.9738997765483
 30
0.0
 10
656.7685802387342
 20
491.9738997765482
 30
0.0
 10
656.9032018760676
 20
491.9738997765483
 30
0.0
 10
657.0257178870283
 20
491.9738997765483
 30
0.0
 10
657.128231644484
 20
491.9738997765483
 30
0.0
 10
657.2135801606476
 20
491.9738997765483
 30
0.0
 10
657.2843516507576
 20
491.9738997765483
 30
0.0
 10
657.3464216125252
 20
491.9738997765483
 30
0.0
 10
657.4076912260623
 20
491.9738997765483
 30
0.0
 10
657.4646814295885
 20
491.9738997765483
 30
0.0
 10
657.5139949500269
 20
491.9738997765483
 30
0.0
 10
657.5489648650315
 20
491.9738997765483
 30
0.0
 10
657.570864129705
 20
491.9738997765483
 30
0.0
 10
657.5735716670285
 20
491.9738997765483
 30
0.0
 10
657.5749268312562
 20
491.9738997765483
 30
0.0
  0
SPLINE
  5
98
330
1F
100
AcDbEntity
  8
0
  6
Continuous
 62
     7
370
    30
100
AcDbSpline
210
0.0
220
0.0
230
1.0
 70
    24
 71
     3
 72
    66
 73
    62
 74
     0
 42
0.000000001
 43
0.00000001
 40
0.0
 40
0.0
 40
0.0
 40
0.0
 40
0.0182886464113225
 40
0.0365467442861029
 40
0.0547893475948342
 40
0.0730315486676561
 40
0.0873744462850399
 40
0.101733720586525
 40
0.1161166534380891
 40
0.131335466274078
 40
0.1516186103510911
 40
0.1718772499011856
 40
0.192132059125059
 40
0.201685653801864
 40
0.2112451593353113
 40
0.2208127361292408
 40
0.2303905391257657
 40
0.239980716373405
 40
0.2583902969952975
 40
0.2767634997285562
 40
0.2951156467862591
 40
0.3134621131360544
 40
0.3318182880199399
 40
0.3501995362952312
 40
0.3686211600807358
 40
0.3905538585093329
 40
0.4124373813046901
 40
0.4342976751325406
 40
0.4561607693617536
 40
0.4780526833722099
 40
0.499999334040077
 40
0.5188026487491264
 40
0.5375671181919435
 40
0.5563090646729459
 40
0.575044869361468
 40
0.5937909295277866
 40
0.6125636155688305
 40
0.6313792283846634
 40
0.649421051099207
 40
0.6674276419100944
 40
0.685413420380855
 40
0.7033928561497758
 40
0.71281321740173
 40
0.7222378932534294
 40
0.7316689612466686
 40
0.741108494702714
 40
0.7505585613709275
 40
0.760021222095628
 40
0.7794130125224744
 40
0.7987679025282346
 40
0.8181038258049994
 40
0.8374387688214219
 40
0.852641766781583
 40
0.8678639728549025
 40
0.8831140613684952
 40
0.8975131551164786
 40
0.9180142488152918
 40
0.9384921376015444
 40
0.958968167784194
 40
0.9794636914794685
 40
1.0
 40
1.0
 40
1.0
 40
1.0
 10
630.3749268312562
 20
491.973899776548
 30
0.0
 10
630.3759942753048
 20
491.973899776548
 30
0.0
 10
630.3781273803917
 20
491.973899776548
 30
0.0
 10
630.3954958040862
 20
491.973899776548
 30
0.0
 10
630.423243752698
 20
491.973899776548
 30
0.0
 10
630.4595875607641
 20
491.973899776548
 30
0.0
 10
630.5016313517023
 20
491.973899776548
 30
0.0
 10
630.5470843911578
 20
491.973899776548
 30
0.0
 10
630.6004087978582
 20
491.973899776548
 30
0.0
 10
630.6689697103506
 20
491.973899776548
 30
0.0
 10
630.7564226172229
 20
491.973899776548
 30
0.0
 10
630.8652082724118
 20
491.973899776548
 30
0.0
 10
630.96578679107
 20
491.973899776548
 30
0.0
 10
631.0511584815141
 20
491.973899776548
 30
0.0
 10
631.1162743629903
 20
491.973899776548
 30
0.0
 10
631.1843480989082
 20
491.973899776548
 30
0.0
 10
631.2553803263321
 20
491.973899776548
 30
0.0
 10
631.352010814648
 20
491.973899776548
 30
0.0
 10
631.4779528259382
 20
491.973899776548
 30
0.0
 10
631.6380953879427
 20
491.973899776548
 30
0.0
 10
631.8083465451722
 20
491.973899776548
 30
0.0
 10
631.9887059320645
 20
491.973899776548
 30
0.0
 10
632.1791728217787
 20
491.973899776548
 30
0.0
 10
632.3797481627597
 20
491.973899776548
 30
0.0
 10
632.6035953106239
 20
491.973899776548
 30
0.0
 10
632.8524363370462
 20
491.973899776548
 30
0.0
 10
633.128181663375
 20
491.973899776548
 30
0.0
 10
633.4164906728361
 20
491.973899776548
 30
0.0
 10
633.7173626266108
 20
491.973899776548
 30
0.0
 10
634.0307964174036
 20
491.973899776548
 30
0.0
 10
634.3408333030366
 20
491.973899776548
 30
0.0
 10
634.6448766822488
 20
491.973899776548
 30
0.0
 10
634.9406558111607
 20
491.973899776548
 30
0.0
 10
635.243941729095
 20
491.973899776548
 30
0.0
 10
635.5547353159417
 20
491.973899776548
 30
0.0
 10
635.8730352725406
 20
491.973899776548
 30
0.0
 10
636.1988416101391
 20
491.973899776548
 30
0.0
 10
636.5272341376535
 20
491.973899776548
 30
0.0
 10
636.8572288420403
 20
491.973899776548
 30
0.0
 10
637.187928126965
 20
491.9738997765481
 30
0.0
 10
637.5236821886303
 20
491.973899776548
 30
0.0
 10
637.8103794566833
 20
491.973899776548
 30
0.0
 10
638.0455341666641
 20
491.973899776548
 30
0.0
 10
638.2274055560839
 20
491.973899776548
 30
0.0
 10
638.4106629825062
 20
491.973899776548
 30
0.0
 10
638.5953066599318
 20
491.973899776548
 30
0.0
 10
638.7813372433233
 20
491.973899776548
 30
0.0
 10
639.0342013653049
 20
491.973899776548
 30
0.0
 10
639.3553059369971
 20
491.973899776548
 30
0.0
 10
639.7464410181627
 20
491.9738997765481
 30
0.0
 10
640.1411127715214
 20
491.9738997765481
 30
0.0
 10
640.5108480577851
 20
491.9738997765481
 30
0.0
 10
640.8547779118294
 20
491.9738997765481
 30
0.0
 10
641.1722587237284
 20
491.9738997765481
 30
0.0
 10
641.4857202269291
 20
491.9738997765481
 30
0.0
 10
641.8375593382735
 20
491.9738997765481
 30
0.0
 10
642.227822040709
 20
491.9738997765481
 30
0.0
 10
642.6627214960567
 20
491.9738997765481
 30
0.0
 10
643.0989474412577
 20
491.9738997765481
 30
0.0
 10
643.5364967195754
 20
491.9738997765481
 30
0.0
 10
643.828686650369
 20
491.9738997765481
 30
0.0
 10
643.9749268312562
 20
491.9738997765481
 30
0.0
  0
ARC
  5
99
330
1F
100
AcDbEntity
  8
0
  6
Continuous
 62
     7
370
    30
100
AcDbCircle
 10
643.9749268313
 20
541.9738997765
 30
0.0
 40
14.0
100
AcDbArc
 50
0.0
 51
90.0
  0
ARC
  5
9A
330
1F
100
AcDbEntity
  8
0
  6
Continuous
 62
     7
370
    30
100
AcDbCircle
 10
643.9749268313
 20
541.9738997765
 30
0.0
 40
14.00000000000011
100
AcDbArc
 50
90.0
 51
180.0
  0
CIRCLE
  5
9B
330
1F
100
AcDbEntity
  8
0
  6
Continuous
 62
   252
370
     0
100
AcDbCircle
 10
643.9749268313
 20
541.9738997578
 30
0.0
 40
82.83353549886692
  0
CIRCLE
  5
9C
330
1F
100
AcDbEntity
  8
0
  6
Continuous
 62
   252
370
     0
100
AcDbCircle
 10
643.9749268313
 20
541.9738997765
 30
0.0
 40
84.74528827196951
  0
ARC
  5
9D
330
1F
100
AcDbEntity
  8
0
  6
Continuous
 62
   252
370
     0
100
AcDbCircle
 10
643.9749268313
 20
541.9738997765
 30
0.0
 40
85.00000000000003
100
AcDbArc
 50
274.0296035017
 51
265.9703990555
  0
SPLINE
  5
9E
330
1F
100
AcDbEntity
  8
0
  6
Continuous
 62
   252
370
     0
100
AcDbSpline
210
0.0
220
0.0
230
1.0
 70
     8
 71
     3
 72
    20
 73
    16
 74
     0
 42
0.000000001
 43
0.00000001
 40
0.0
 40
0.0
 40
0.0
 40
0.0
 40
0.0559611507196531
 40
0.1532421280864805
 40
0.2405152213868869
 40
0.3201097566338885
 40
0.3920356411040968
 40
0.4563028494243068
 40
0.5129219679730121
 40
0.6324101228182466
 40
0.7521310130253231
 40
0.8714657190698424
 40
0.922232538969943
 40
0.9732507863643067
 40
0.9999999999999999
 40
0.9999999999999999
 40
0.9999999999999999
 40
0.9999999999999999
 10
659.3806451501347
 20
488.4845511353657
 30
0.0
 10
659.4562170623614
 20
488.543040327013
 30
0.0
 10
659.6631606384717
 20
488.7032051571288
 30
0.0
 10
659.9542555412465
 20
488.99393620402
 30
0.0
 10
660.2444801710714
 20
489.3387961511344
 30
0.0
 10
660.4764505965733
 20
489.6743468330926
 30
0.0
 10
660.6605671871113
 20
489.9937296999469
 30
0.0
 10
660.8034407725195
 20
490.2908195913076
 30
0.0
 10
660.9568589956941
 20
490.6724029532946
 30
0.0
 10
661.100434763296
 20
491.1602974325767
 30
0.0
 10
661.1958276618362
 20
491.7702346367975
 30
0.0
 10
661.208623794916
 20
492.2701792234164
 30
0.0
 10
661.1820440856199
 20
492.6498059842809
 30
0.0
 10
661.1566131577522
 20
492.869794988465
 30
0.0
 10
661.131702700669
 20
493.0013346220385
 30
0.0
 10
661.1231343980724
 20
493.0465795318428
 30
0.0
  0
SPLINE
  5
9F
330
1F
100
AcDbEntity
  8
0
  6
Continuous
 62
   252
370
     0
100
AcDbSpline
210
0.0
220
0.0
230
1.0
 70
     8
 71
     3
 72
    13
 73
     9
 74
     0
 42
0.000000001
 43
0.00000001
 40
0.0
 40
0.0
 40
0.0
 40
0.0
 40
0.1174079783295756
 40
0.2621933213181186
 40
0.434376693676127
 40
0.6339798925269406
 40
0.8610270147232343
 40
1.0
 40
1.0
 40
1.0
 40
1.0
 10
627.2229503515871
 20
490.2134338426
 30
0.0
 10
627.2595621525949
 20
490.1376740011353
 30
0.0
 10
627.3413229480896
 20
489.9684885272111
 30
0.0
 10
627.4972433386321
 20
489.6992136323555
 30
0.0
 10
627.703803185697
 20
489.3923017213465
 30
0.0
 10
627.9741582011052
 20
489.0596506964672
 30
0.0
 10
628.2551791318839
 20
488.7670092532137
 30
0.0
 10
628.4594116730956
 20
488.6027593438252
 30
0.0
 10
628.536956063044
 20
488.5403958294359
 30
0.0
  0
SPLINE
  5
A0
330
1F
100
AcDbEntity
  8
0
  6
Continuous
 62
   252
370
     0
100
AcDbSpline
210
0.0
220
0.0
230
1.0
 70
     8
 71
     3
 72
    16
 73
    12
 74
     0
 42
0.000000001
 43
0.00000001
 40
0.0
 40
0.0
 40
0.0
 40
0.0
 40
0.0459698592301147
 40
0.1155809731982389
 40
0.2603849122771184
 40
0.4060611000046077
 40
0.5527290831706012
 40
0.6634878341668808
 40
0.7749204122666635
 40
0.8870752254164297
 40
1.0
 40
1.0
 40
1.0
 40
1.0
 10
627.2651208449332
 20
494.2700917592331
 30
0.0
 10
627.2367812306024
 20
494.2124013773787
 30
0.0
 10
627.1655275818143
 20
494.0673517602912
 30
0.0
 10
627.03295904189
 20
493.7277142723254
 30
0.0
 10
626.8889549952826
 20
493.2433866825486
 30
0.0
 10
626.7931089032212
 20
492.6371063922061
 30
0.0
 10
626.7771603889689
 20
492.07170412215
 30
0.0
 10
626.8214393796521
 20
491.5571720155421
 30
0.0
 10
626.9079908126333
 20
491.0979189160284
 30
0.0
 10
627.0373632686462
 20
490.6457736131638
 30
0.0
 10
627.1609470704369
 20
490.3578753841227
 30
0.0
 10
627.2229503515871
 20
490.2134338426
 30
0.0
  0
LINE
  5
A1
330
1F
100
AcDbEntity
  8
0
  6
Continuous
 62
   252
370
     0
100
AcDbLine
 10
649.2418506921
 20
484.6738997765
 30
0.0
 11
657.7249268313
 21
484.6738997765
 31
0.0
  0
LINE
  5
A2
330
1F
100
AcDbEntity
  8
0
  6
Continuous
 62
   252
370
     0
100
AcDbLine
 10
630.2249268313
 20
484.6738997765
 30
0.0
 11
649.2418506921
 21
484.6738997765
 31
0.0
  0
LINE
  5
A3
330
1F
100
AcDbEntity
  8
0
  6
Continuous
 62
   252
370
     0
100
AcDbLine
 10
657.7249268313
 20
491.7738997765
 30
0.0
 11
630.2249268313
 21
491.7738997765
 31
0.0
  0
LINE
  5
A4
330
1F
100
AcDbEntity
  8
0
  6
Continuous
 62
   252
370
     0
100
AcDbLine
 10
643.9749268313
 20
492.3738997765
 30
0.0
 11
657.9749268313
 21
492.3738997765
 31
0.0
  0
LINE
  5
A5
330
1F
100
AcDbEntity
  8
0
  6
Continuous
 62
   252
370
     0
100
AcDbLine
 10
629.9749268313
 20
492.3738997765
 30
0.0
 11
643.9749268313
 21
492.3738997765
 31
0.0
  0
LINE
  5
A6
330
1F
100
AcDbEntity
  8
0
  6
Continuous
 62
   252
370
     0
100
AcDbLine
 10
643.9749268313
 20
500.9738997765
 30
0.0
 11
657.9749268313
 21
500.9738997765
 31
0.0
  0
LINE
  5
A7
330
1F
100
AcDbEntity
  8
0
  6
Continuous
 62
   252
370
     0
100
AcDbLine
 10
629.9749268313
 20
500.9738997765
 30
0.0
 11
643.9749268313
 21
500.9738997765
 31
0.0
  0
ARC
  5
A8
330
1F
100
AcDbEntity
  8
0
  6
Continuous
 62
     7
370
    30
100
AcDbCircle
 10
813.9063491195
 20
626.474071114
 30
0.0
 40
0.5
100
AcDbArc
 50
88.5
 51
180.0
  0
LINE
  5
A9
330
1F
100
AcDbEntity
  8
0
  6
Continuous
 62
     7
370
    30
100
AcDbLine
 10
815.9063491195
 20
457.0259288863
 30
0.0
 11
823.6464860506
 21
457.2286115046
 31
0.0
  0
LINE
  5
AA
330
1F
100
AcDbEntity
  8
0
  6
Continuous
 62
     7
370
    30
100
AcDbLine
 10
823.6464860506
 20
626.7191880485
 30
0.0
 11
813.9194375937
 21
626.9738997762
 31
0.0
  0
ARC
  5
AB
330
1F
100
AcDbEntity
  8
0
  6
Continuous
 62
     7
370
    30
100
AcDbCircle
 10
823.5941321539
 20
459.2279261358
 30
0.0
 40
2.000000000000045
100
AcDbArc
 50
271.4999999859
 51
357.4907349552
  0
ARC
  5
AC
330
1F
100
AcDbEntity
  8
0
  6
Continuous
 62
     7
370
    30
100
AcDbCircle
 10
823.5941321539
 20
624.7198733798
 30
0.0
 40
1.99999999999998
100
AcDbArc
 50
2.5092650448
 51
88.5000000141
  0
ARC
  5
AD
330
1F
100
AcDbEntity
  8
0
  6
Continuous
 62
     7
370
    30
100
AcDbCircle
 10
-1064.5936508405
 20
541.9738997578
 30
0.0
 40
1892.0
100
AcDbArc
 50
357.4907349552
 51
358.3967615
  0
ARC
  5
AE
330
1F
100
AcDbEntity
  8
0
  6
Continuous
 62
     7
370
    30
100
AcDbCircle
 10
-1064.5936508405
 20
541.9738997578
 30
0.0
 40
1892.0
100
AcDbArc
 50
358.6240295152
 51
359.5730031877
  0
ARC
  5
AF
330
1F
100
AcDbEntity
  8
0
  6
Continuous
 62
     7
370
    30
100
AcDbCircle
 10
-1064.5936508405
 20
541.9738997578
 30
0.0
 40
1892.00000000007
100
AcDbArc
 50
0.4269968128
 51
2.5092650448
  0
LINE
  5
B0
330
1F
100
AcDbEntity
  8
0
  6
Continuous
 62
     7
370
    30
100
AcDbLine
 10
813.4063491195
 20
622.9738997765
 30
0.0
 11
813.0563491195
 21
622.9738997765
 31
0.0
  0
LINE
  5
B1
330
1F
100
AcDbEntity
  8
0
  6
Continuous
 62
     7
370
    30
100
AcDbLine
 10
826.8744320666
 20
496.5404776761
 30
0.0
 11
826.8083177777
 21
496.545332806
 31
0.0
  0
SPLINE
  5
B2
330
1F
100
AcDbEntity
  8
0
  6
Continuous
 62
     7
370
    30
100
AcDbSpline
210
0.0
220
0.0
230
1.0
 70
     8
 71
     3
 72
    45
 73
    41
 74
     0
 42
0.000000001
 43
0.00000001
 40
0.0
 40
0.0
 40
0.0
 40
0.0
 40
0.0197827503920986
 40
0.0375163678790161
 40
0.0541194938350162
 40
0.0705062506555499
 40
0.0872935971697509
 40
0.1044447854385346
 40
0.1456073577405278
 40
0.187123955360031
 40
0.2622545783896907
 40
0.3393290823734389
 40
0.3923398249443932
 40
0.447269676097073
 40
0.5047291698095715
 40
0.5319900369288458
 40
0.5579407427060853
 40
0.5816738449717933
 40
0.6038191827919912
 40
0.6255939619373128
 40
0.6459373363976996
 40
0.6676546139213655
 40
0.6914310032023896
 40
0.7178175983115527
 40
0.7325501131726876
 40
0.7477348923520286
 40
0.7632375153478972
 40
0.7789233246431324
 40
0.7947189065915843
 40
0.8121241974217838
 40
0.8226173245127667
 40
0.8347792733410802
 40
0.849039722180549
 40
0.865828324164243
 40
0.8855746612009788
 40
0.903444375338032
 40
0.923613494291394
 40
0.946290298876645
 40
0.9716830515367463
 40
1.0
 40
1.0
 40
1.0
 40
1.0
 10
827.260070615453
 20
491.9863836009096
 30
0.0
 10
827.2609526556669
 20
492.0166037150661
 30
0.0
 10
827.2626253727815
 20
492.0739136895421
 30
0.0
 10
827.2631760233209
 20
492.1566242690387
 30
0.0
 10
827.2624178834385
 20
492.234138942039
 30
0.0
 10
827.26068098778
 20
492.3101903432381
 30
0.0
 10
827.2583785528127
 20
492.3870640162993
 30
0.0
 10
827.2540039056578
 20
492.5017515697576
 30
0.0
 10
827.2459361321636
 20
492.6541141528256
 30
0.0
 10
827.2274283547933
 20
492.8945897964452
 30
0.0
 10
827.1948020797113
 20
493.188927970078
 30
0.0
 10
827.148199508523
 20
493.4991141494133
 30
0.0
 10
827.1001459620531
 20
493.7777505209322
 30
0.0
 10
827.0537867439597
 20
494.0262329155978
 30
0.0
 10
827.013764538723
 20
494.2358605557382
 30
0.0
 10
826.98267678927
 20
494.4021076056285
 30
0.0
 10
826.9615044934524
 20
494.5177737113227
 30
0.0
 10
826.9424616255051
 20
494.6258804190708
 30
0.0
 10
826.9255466484034
 20
494.7278778226774
 30
0.0
 10
826.9106526922172
 20
494.824951941126
 30
0.0
 10
826.8969754234438
 20
494.9215455253855
 30
0.0
 10
826.8847659372316
 20
495.0214226703221
 30
0.0
 10
826.8740433994371
 20
495.1307581660143
 30
0.0
 10
826.8669183310552
 20
495.2296853757468
 30
0.0
 10
826.8619910274407
 20
495.3155888776814
 30
0.0
 10
826.8586450250872
 20
495.384920206729
 30
0.0
 10
826.855797840516
 20
495.4557316348883
 30
0.0
 10
826.8534713072581
 20
495.5274957234926
 30
0.0
 10
826.8514887682011
 20
495.6021792254695
 30
0.0
 10
826.8506058664311
 20
495.6689502163922
 30
0.0
 10
826.8506461430101
 20
495.7301715650374
 30
0.0
 10
826.8511496075648
 20
495.786584464482
 30
0.0
 10
826.8522187061092
 20
495.8526116674584
 30
0.0
 10
826.8539325273612
 20
495.9302189952112
 30
0.0
 10
826.8561608865608
 20
496.0133309808145
 30
0.0
 10
826.8588182613277
 20
496.1015988161604
 30
0.0
 10
826.8618380804184
 20
496.1943358441438
 30
0.0
 10
826.8654467008487
 20
496.298556304912
 30
0.0
 10
826.8696755450228
 20
496.4152141831928
 30
0.0
 10
826.8727900371572
 20
496.4972346582725
 30
0.0
 10
826.8744320666492
 20
496.5404776761479
 30
0.0
  0
SPLINE
  5
B3
330
1F
100
AcDbEntity
  8
0
  6
Continuous
 62
     7
370
    30
100
AcDbSpline
210
0.0
220
0.0
230
1.0
 70
     8
 71
     3
 72
    33
 73
    29
 74
     0
 42
0.000000001
 43
0.00000001
 40
0.0
 40
0.0
 40
0.0
 40
0.0
 40
0.0175871220785496
 40
0.0393538905552595
 40
0.0605557054891013
 40
0.0809668912163822
 40
0.1003625533427615
 40
0.1330023253290585
 40
0.1626235095624204
 40
0.1902468093661049
 40
0.2228605771875301
 40
0.2564480404456659
 40
0.2933326823309886
 40
0.3334654785509985
 40
0.3746097295939816
 40
0.4149228305057885
 40
0.4542070838285311
 40
0.5240621025610993
 40
0.5917887888190918
 40
0.6579934937805058
 40
0.755292564611269
 40
0.8510046173229063
 40
0.875690848281391
 40
0.8999049301661511
 40
0.9234574496958025
 40
0.9469578824936248
 40
0.971941293789186
 40
1.0
 40
1.0
 40
1.0
 40
1.0
 10
826.5862575413647
 20
488.5160018095932
 30
0.0
 10
826.5885295242603
 20
488.5366414563193
 30
0.0
 10
826.5936134354206
 20
488.5828258402525
 30
0.0
 10
826.6021793588909
 20
488.6538073153981
 30
0.0
 10
826.6117599851121
 20
488.7280216371014
 30
0.0
 10
826.6217430280234
 20
488.7993580058984
 30
0.0
 10
826.6346215606162
 20
488.8839190993588
 30
0.0
 10
826.6510716320272
 20
488.9789256272082
 30
0.0
 10
826.6718313419044
 20
489.0830067441558
 30
0.0
 10
826.694689756095
 20
489.1866101253195
 30
0.0
 10
826.7199468509624
 20
489.2944695571266
 30
0.0
 10
826.7493397257747
 20
489.4125786520437
 30
0.0
 10
826.7822041358128
 20
489.5389624970606
 30
0.0
 10
826.8181095566781
 20
489.6737707047537
 30
0.0
 10
826.8554979702878
 20
489.8123717859904
 30
0.0
 10
826.8927837176278
 20
489.9499627466342
 30
0.0
 10
826.9386494516895
 20
490.1203483296434
 30
0.0
 10
826.991420250843
 20
490.322392706931
 30
0.0
 10
827.0486508316447
 20
490.5561004844911
 30
0.0
 10
827.1082891087453
 20
490.8225295499056
 30
0.0
 10
827.1656222320612
 20
491.1232463687233
 30
0.0
 10
827.2027713574291
 20
491.3776585321431
 30
0.0
 10
827.2231510820466
 20
491.5471752654203
 30
0.0
 10
827.23257233856
 20
491.632197408711
 30
0.0
 10
827.2411814634519
 20
491.7158984130708
 30
0.0
 10
827.248882845993
 20
491.8006010304723
 30
0.0
 10
827.2554711489616
 20
491.8907392608172
 30
0.0
 10
827.2584793236128
 20
491.9532932287485
 30
0.0
 10
827.260070615453
 20
491.9863836009098
 30
0.0
  0
ARC
  5
B4
330
1F
100
AcDbEntity
  8
0
  6
Continuous
 62
     7
370
    30
100
AcDbCircle
 10
1137.5251400318
 20
484.6738997765
 30
0.0
 40
0.2000000000000455
100
AcDbArc
 50
270.0
 51
0.0
  0
ARC
  5
B5
330
1F
100
AcDbEntity
  8
0
  6
Continuous
 62
     7
370
    30
100
AcDbCircle
 10
1110.4251400318
 20
484.6738997765
 30
0.0
 40
0.2000000000000455
100
AcDbArc
 50
180.0
 51
270.0
  0
ARC
  5
B6
330
1F
100
AcDbEntity
  8
0
  6
Continuous
 62
     7
370
    30
100
AcDbCircle
 10
1110.4251400318
 20
491.7738997765
 30
0.0
 40
0.2000000000000455
100
AcDbArc
 50
90.0
 51
180.0
  0
ARC
  5
B7
330
1F
100
AcDbEntity
  8
0
  6
Continuous
 62
     7
370
    30
100
AcDbCircle
 10
1137.5251400318
 20
491.7738997765
 30
0.0
 40
0.2000000000000455
100
AcDbArc
 50
0.0
 51
90.0
  0
LINE
  5
B8
330
1F
100
AcDbEntity
  8
0
  6
Continuous
 62
     7
370
    30
100
AcDbLine
 10
1110.2251400318
 20
491.7738997765
 30
0.0
 11
1110.2251400318
 21
484.6738997765
 31
0.0
  0
LINE
  5
B9
330
1F
100
AcDbEntity
  8
0
  6
Continuous
 62
     7
370
    30
100
AcDbLine
 10
1137.7251400318
 20
484.6738997765
 30
0.0
 11
1137.7251400318
 21
491.7738997765
 31
0.0
  0
ARC
  5
BA
330
1F
100
AcDbEntity
  8
0
  6
Continuous
 62
     7
370
    30
100
AcDbCircle
 10
1110.3751400318
 20
492.3738997765
 30
0.0
 40
0.3999999999999773
100
AcDbArc
 50
180.0
 51
270.0
  0
ARC
  5
BB
330
1F
100
AcDbEntity
  8
0
  6
Continuous
 62
     7
370
    30
100
AcDbCircle
 10
1137.5751400318
 20
492.3738997765
 30
0.0
 40
0.4000000000000909
100
AcDbArc
 50
270.0
 51
0.0
  0
LINE
  5
BC
330
1F
100
AcDbEntity
  8
0
  6
Continuous
 62
     7
370
    30
100
AcDbLine
 10
844.0733667067
 20
527.9738997765
 30
0.0
 11
1082.9751400318
 21
527.9738997765
 31
0.0
  0
LINE
  5
BD
330
1F
100
AcDbEntity
  8
0
  6
Continuous
 62
     7
370
    30
100
AcDbLine
 10
827.3538087894
 20
527.9738997765
 30
0.0
 11
838.4752697811
 21
527.9738997765
 31
0.0
  0
LINE
  5
BE
330
1F
100
AcDbEntity
  8
0
  6
Continuous
 62
     7
370
    30
100
AcDbLine
 10
1082.9751400318
 20
555.9738997765
 30
0.0
 11
827.3538087894
 21
555.9738997765
 31
0.0
  0
ARC
  5
BF
330
1F
100
AcDbEntity
  8
0
  6
Continuous
 62
     7
370
    30
100
AcDbCircle
 10
1082.9751400318
 20
500.9738997765
 30
0.0
 40
55.00000000000023
100
AcDbArc
 50
0.0
 51
90.0
  0
ARC
  5
C0
330
1F
100
AcDbEntity
  8
0
  6
Continuous
 62
     7
370
    30
100
AcDbCircle
 10
1082.9751400318
 20
500.9738997765
 30
0.0
 40
27.00000000000023
100
AcDbArc
 50
0.0
 51
90.0
  0
LINE
  5
C1
330
1F
100
AcDbEntity
  8
0
  6
Continuous
 62
     7
370
    30
100
AcDbLine
 10
1137.9751400318
 20
492.3738997765
 30
0.0
 11
1137.9751400318
 21
500.9738997765
 31
0.0
  0
LINE
  5
C2
330
1F
100
AcDbEntity
  8
0
  6
Continuous
 62
     7
370
    30
100
AcDbLine
 10
1109.9751400318
 20
500.9738997765
 30
0.0
 11
1109.9751400318
 21
492.3738997765
 31
0.0
  0
SPLINE
  5
C3
330
1F
100
AcDbEntity
  8
0
  6
Continuous
 62
     7
370
    30
100
AcDbSpline
210
0.0
220
0.0
230
1.0
 70
     8
 71
     3
 72
    21
 73
    17
 74
     0
 42
0.000000001
 43
0.00000001
 40
0.0
 40
0.0
 40
0.0
 40
0.0
 40
0.1040420714369123
 40
0.1574284165285851
 40
0.2112075999203168
 40
0.3152469216496913
 40
0.3686213877835152
 40
0.4223857375744819
 40
0.5266938747163773
 40
0.5802071020278974
 40
0.6341120092674338
 40
0.7386343098751984
 40
0.792263504043371
 40
0.8462876641739688
 40
0.9225659885221865
 40
0.9999999999999999
 40
0.9999999999999999
 40
0.9999999999999999
 40
0.9999999999999999
 10
813.9194379954228
 20
457.1840303738327
 30
0.0
 10
813.8916566339549
 20
457.1846863860636
 30
0.0
 10
813.8496200262201
 20
457.1856790130394
 30
0.0
 10
813.7942582036189
 20
457.1965072697297
 30
0.0
 10
813.7400060107421
 20
457.2115844109386
 30
0.0
 10
813.6878576643979
 20
457.2335901507986
 30
0.0
 10
813.6390866100152
 20
457.2617895829652
 30
0.0
 10
813.5928251807517
 20
457.2940858893388
 30
0.0
 10
813.5507656812737
 20
457.3321315192717
 30
0.0
 10
813.5139344298794
 20
457.3749916519492
 30
0.0
 10
813.4808412802088
 20
457.4208803920171
 30
0.0
 10
813.4536463932328
 20
457.4708191224997
 30
0.0
 10
813.4329768812852
 20
457.523574087684
 30
0.0
 10
813.4191144409755
 20
457.5706823985827
 30
0.0
 10
813.408543782817
 20
457.6253072412594
 30
0.0
 10
813.4070843315948
 20
457.6663428624742
 30
0.0
 10
813.4063491195373
 20
457.6870149363651
 30
0.0
  0
LINE
  5
C4
330
1F
100
AcDbEntity
  8
0
  6
Continuous
 62
     7
370
    30
100
AcDbLine
 10
813.4063491195
 20
457.6870149364
 30
0.0
 11
813.4063491195
 21
626.474071114
 31
0.0
  0
LINE
  5
C5
330
1F
100
AcDbEntity
  8
0
  6
Continuous
 62
     7
370
    30
100
AcDbLine
 10
815.9063491195
 20
457.1685272987
 30
0.0
 11
815.9063491195
 21
457.0259288861
 31
0.0
  0
SPLINE
  5
C6
330
1F
100
AcDbEntity
  8
0
  6
Continuous
 62
     7
370
    30
100
AcDbSpline
210
0.0
220
0.0
230
1.0
 70
     8
 71
     3
 72
    21
 73
    17
 74
     0
 42
0.000000001
 43
0.00000001
 40
0.0
 40
0.0
 40
0.0
 40
0.0
 40
0.0737534642337071
 40
0.147742026824461
 40
0.2214952827705946
 40
0.2952480559145557
 40
0.3692360739203631
 40
0.4429893081814822
 40
0.5167640832838606
 40
0.590773613999173
 40
0.6645491677641072
 40
0.7384567532966525
 40
0.8125993231201645
 40
0.8865075761102155
 40
0.9432537679733665
 40
1.0
 40
1.0
 40
1.0
 40
1.0
 10
814.9586850757695
 20
457.2074910127374
 30
0.0
 10
814.9959130126017
 20
457.2082449921016
 30
0.0
 10
815.0704875549533
 20
457.2097553542332
 30
0.0
 10
815.1800656185188
 20
457.210869497059
 30
0.0
 10
815.2863197587762
 20
457.2111417035115
 30
0.0
 10
815.3876674980993
 20
457.2104634750393
 30
0.0
 10
815.4830119227669
 20
457.2089220342993
 30
0.0
 10
815.5712114905311
 20
457.2065506966541
 30
0.0
 10
815.6508487587497
 20
457.2033766488212
 30
0.0
 10
815.7212175473571
 20
457.1994936512339
 30
0.0
 10
815.7815131660848
 20
457.1949691387001
 30
0.0
 10
815.830542007059
 20
457.1898641091101
 30
0.0
 10
815.8681439034231
 20
457.1842809657226
 30
0.0
 10
815.8915786412881
 20
457.1787620407285
 30
0.0
 10
815.9041917405152
 20
457.1734889907287
 30
0.0
 10
815.905629993027
 20
457.170181196519
 30
0.0
 10
815.9063491195374
 20
457.1685272988289
 30
0.0
  0
LINE
  5
C7
330
1F
100
AcDbEntity
  8
0
  6
Continuous
 62
     7
370
    30
100
AcDbLine
 10
813.9194375936
 20
457.1840298059
 30
0.0
 11
814.9586816545
 21
457.2074909268
 31
0.0
  0
SPLINE
  5
C8
330
1F
100
AcDbEntity
  8
0
  6
Continuous
 62
     7
370
    30
100
AcDbSpline
210
0.0
220
0.0
230
1.0
 70
     8
 71
     3
 72
    85
 73
    81
 74
     0
 42
0.000000001
 43
0.00000001
 40
0.0
 40
0.0
 40
0.0
 40
0.0
 40
0.0019176887328627
 40
0.0150790401352069
 40
0.0282511200618463
 40
0.0414124714307655
 40
0.0542057105931042
 40
0.0670088012532397
 40
0.0798020413162385
 40
0.0929670984389779
 40
0.1061428916320637
 40
0.1193079506936576
 40
0.1321057882543692
 40
0.1449134842387488
 40
0.1577113241652536
 40
0.1708811940571788
 40
0.184061805750576
 40
0.197231678706067
 40
0.2100332685302258
 40
0.2228447186439777
 40
0.2356463112619251
 40
0.2488199902526584
 40
0.2620044124411006
 40
0.275178094276209
 40
0.2879809437452492
 40
0.3007936494890275
 40
0.3135965009533054
 40
0.3267713139251128
 40
0.339956866543242
 40
0.353131680891947
 40
0.3659327455884687
 40
0.3787436584333465
 40
0.3915447234528001
 40
0.4047174988425142
 40
0.4179010069435136
 40
0.4310737816406141
 40
0.4438708012993762
 40
0.4566776604368723
 40
0.4694746786083617
 40
0.4826431399639637
 40
0.4958223267552364
 40
0.5089907856553519
 40
0.5217832732390917
 40
0.5345855948813868
 40
0.5473780798214931
 40
0.5605418415970717
 40
0.5737163243747581
 40
0.5868800830088171
 40
0.59966953595011
 40
0.612468823145148
 40
0.6252582734434688
 40
0.63841900772825
 40
0.6515904633606276
 40
0.6647511951927123
 40
0.6775404398201987
 40
0.6903395244296017
 40
0.7031287675716232
 40
0.716289472335462
 40
0.729460903423739
 40
0.742621607498028
 40
0.7554135628857264
 40
0.7682153670171968
 40
0.7810073227302368
 40
0.794171010633985
 40
0.8073454322970338
 40
0.8205091215792649
 40
0.8333055204995949
 40
0.8461117761207382
 40
0.8589081770384243
 40
0.8720765550734179
 40
0.8852556735016383
 40
0.8984240543817047
 40
0.911224681338948
 40
0.92403516865098
 40
0.9368357984028302
 40
0.9500085169012745
 40
0.9631919787100698
 40
0.9763647002725774
 40
0.9891674845369791
 40
1.0
 40
1.0
 40
1.0
 40
1.0
 10
826.8294587155127
 20
496.5437803125666
 30
0.0
 10
826.8295021724836
 20
496.5485017515201
 30
0.0
 10
826.829843880392
 20
496.5856270504567
 30
0.0
 10
826.8300893090012
 20
496.6414658322827
 30
0.0
 10
826.8301592319025
 20
496.7097643948148
 30
0.0
 10
826.8297750639407
 20
496.7612077872126
 30
0.0
 10
826.8289971405299
 20
496.7976890133629
 30
0.0
 10
826.8278318593302
 20
496.8192683942875
 30
0.0
 10
826.8262637416312
 20
496.8264132293693
 30
0.0
 10
826.8242798623646
 20
496.8184361919733
 30
0.0
 10
826.8218773873994
 20
496.7950052267167
 30
0.0
 10
826.8191087909939
 20
496.7566295447222
 30
0.0
 10
826.815992305346
 20
496.7037942552832
 30
0.0
 10
826.812552941647
 20
496.6372780527076
 30
0.0
 10
826.8087350466734
 20
496.5560041366933
 30
0.0
 10
826.804535712882
 20
496.4596187932494
 30
0.0
 10
826.7999605902086
 20
496.3480966710141
 30
0.0
 10
826.7951099014759
 20
496.2238806259277
 30
0.0
 10
826.7900069951609
 20
496.0877017161648
 30
0.0
 10
826.784679711995
 20
495.9405202199953
 30
0.0
 10
826.7790417511628
 20
495.7799517092892
 30
0.0
 10
826.773099638221
 20
495.6059844421917
 30
0.0
 10
826.7668671134787
 20
495.4189111068403
 30
0.0
 10
826.7604811021137
 20
495.2228417727806
 30
0.0
 10
826.7539674526196
 20
495.0186721746768
 30
0.0
 10
826.7473536780346
 20
494.8074357791254
 30
0.0
 10
826.7405322391198
 20
494.5856980092021
 30
0.0
 10
826.7335183475323
 20
494.3537900468255
 30
0.0
 10
826.7263322752488
 20
494.1122892428476
 30
0.0
 10
826.7191323855392
 20
493.8665179885016
 30
0.0
 10
826.7119440519403
 20
493.617433820317
 30
0.0
 10
826.7047912979233
 20
493.3660249035171
 30
0.0
 10
826.6975572932831
 20
493.1081850462294
 30
0.0
 10
826.6902642088796
 20
492.8445505012991
 30
0.0
 10
826.6829365577454
 20
492.5759179034481
 30
0.0
 10
826.6757361506691
 20
492.3082195687704
 30
0.0
 10
826.6686849638236
 20
492.0423643680013
 30
0.0
 10
826.6618007730103
 20
491.7791816335346
 30
0.0
 10
826.6549707630402
 20
491.514358685309
 30
0.0
 10
826.6482215632147
 20
491.2487649295786
 30
0.0
 10
826.6415791685663
 20
490.9833265474713
 30
0.0
 10
826.6351902779736
 20
490.7239060087126
 30
0.0
 10
826.6290709879844
 20
490.4712602735498
 30
0.0
 10
826.6232308298213
 20
490.2259660621532
 30
0.0
 10
826.6175740409545
 20
489.9840014146139
 30
0.0
 10
826.6121287177406
 20
489.7463711888996
 30
0.0
 10
826.6069194164415
 20
489.5140270603765
 30
0.0
 10
826.6020609851996
 20
489.2920914338544
 30
0.0
 10
826.5975618826449
 20
489.0810857016399
 30
0.0
 10
826.5934223775711
 20
488.8812707745918
 30
0.0
 10
826.5895747603657
 20
488.6893783209388
 30
0.0
 10
826.586045439358
 20
488.5064358815249
 30
0.0
 10
826.5828547691701
 20
488.3333136451379
 30
0.0
 10
826.5800729023322
 20
488.1738175413409
 30
0.0
 10
826.5776997699886
 20
488.0281771750365
 30
0.0
 10
826.5757264007053
 20
487.8963104467906
 30
0.0
 10
826.5741206696846
 20
487.7760701963122
 30
0.0
 10
826.5729043219436
 20
487.6683910366037
 30
0.0
 10
826.57209121116
 20
487.5739635278929
 30
0.0
 10
826.5716991933081
 20
487.4948584785421
 30
0.0
 10
826.571719690865
 20
487.4309888586703
 30
0.0
 10
826.5721355022042
 20
487.381939342615
 30
0.0
 10
826.5729533974519
 20
487.346915557474
 30
0.0
 10
826.5741879957586
 20
487.3266535471206
 30
0.0
 10
826.5758450770386
 20
487.3215860367495
 30
0.0
 10
826.577888410331
 20
487.3318252324582
 30
0.0
 10
826.5803018236888
 20
487.3569758158969
 30
0.0
 10
826.5830617703862
 20
487.3963344017089
 30
0.0
 10
826.5862129232913
 20
487.450538791426
 30
0.0
 10
826.5897611135251
 20
487.5200429606009
 30
0.0
 10
826.5937033875842
 20
487.604972640164
 30
0.0
 10
826.5979534420279
 20
487.7034690457859
 30
0.0
 10
826.6024892576087
 20
487.8148700680853
 30
0.0
 10
826.6072835745454
 20
487.938263022322
 30
0.0
 10
826.6124138769715
 20
488.0756391223395
 30
0.0
 10
826.6178770202939
 20
488.2271437306588
 30
0.0
 10
826.6236598611588
 20
488.3924871114058
 30
0.0
 10
826.6296421243333
 20
488.5683900315276
 30
0.0
 10
826.6354609779736
 20
488.7433039725749
 30
0.0
 10
826.6393507074579
 20
488.8635026414108
 30
0.0
 10
826.6411334457886
 20
488.9185920184788
 30
0.0
  0
LINE
  5
C9
330
1F
100
AcDbEntity
  8
0
  6
Continuous
 62
     7
370
    30
100
AcDbLine
 10
827.3538087894
 20
556.0738997765
 30
0.0
 11
827.3538087894
 21
527.8738997765
 31
0.0
  0
LINE
  5
CA
330
1F
100
AcDbEntity
  8
0
  6
Continuous
 62
     7
370
    30
100
AcDbLine
 10
813.0563491195
 20
462.2893144661
 30
0.0
 11
813.4063491195
 21
462.2893144661
 31
0.0
  0
LINE
  5
CB
330
1F
100
AcDbEntity
  8
0
  6
Continuous
 62
     7
370
    30
100
AcDbLine
 10
813.0563491195
 20
622.9738997765
 30
0.0
 11
813.0563491195
 21
462.2893144661
 31
0.0
  0
LINE
  5
CC
330
1F
100
AcDbEntity
  8
0
  6
Continuous
 62
     7
370
    30
100
AcDbLine
 10
826.610327652
 20
489.665645433
 30
0.0
 11
826.8744320666
 21
496.5404776761
 31
0.0
  0
SPLINE
  5
CD
330
1F
100
AcDbEntity
  8
0
  6
Continuous
 62
     7
370
    30
100
AcDbSpline
210
0.0
220
0.0
230
1.0
 70
    24
 71
     3
 72
   120
 73
   116
 74
     0
 42
0.000000001
 43
0.00000001
 40
0.0
 40
0.0
 40
0.0
 40
0.0
 40
0.005136173686054
 40
0.011607333413813
 40
0.0180679015618972
 40
0.0245205243664255
 40
0.0309678578467573
 40
0.0374125645618275
 40
0.0438573103262112
 40
0.0514565286713428
 40
0.0590638616488719
 40
0.0666836529733848
 40
0.0738869804200268
 40
0.084141373026993
 40
0.094381855657251
 40
0.1046190921634991
 40
0.1148637565352862
 40
0.1251264995856457
 40
0.1342774088553525
 40
0.1434106057797636
 40
0.1525336071184089
 40
0.1616539548396816
 40
0.1688230927542539
 40
0.1759989096117316
 40
0.1831850521684971
 40
0.1907994901715383
 40
0.2016698670793148
 40
0.2125239825995997
 40
0.2233745457832048
 40
0.2342342781527554
 40
0.2451158690722053
 40
0.25317667486456
 40
0.2612212909830813
 40
0.2692548380479381
 40
0.2772824578613552
 40
0.2853093036161237
 40
0.2933405299950472
 40
0.3013812832560764
 40
0.3094366913982247
 40
0.3188445200296737
 40
0.3282308814835165
 40
0.3376039261995846
 40
0.3469718393759732
 40
0.3563428196574079
 40
0.3657250576480716
 40
0.3751267145294717
 40
0.3861000654187888
 40
0.3970460428194764
 40
0.4079776051569264
 40
0.4189077621266834
 40
0.4298495284372172
 40
0.4408158774636707
 40
0.4500267111124524
 40
0.4592173532967392
 40
0.4683954550659137
 40
0.4775686988478458
 40
0.4867447792720713
 40
0.4959313838402785
 40
0.5051361736860626
 40
0.5116073334145099
 40
0.5180679015631229
 40
0.5245205243680184
 40
0.5309678578485573
 40
0.537412564563673
 40
0.5438573103279412
 40
0.5514565286727291
 40
0.5590638616496907
 40
0.5666836529734114
 40
0.5738869804204955
 40
0.5841413730279156
 40
0.5943818556583541
 40
0.604619092164509
 40
0.6148637565359283
 40
0.6251264995856453
 40
0.6342774088551776
 40
0.6434106057794795
 40
0.6525336071180801
 40
0.6616539548393731
 40
0.6688230927540046
 40
0.6759989096115808
 40
0.6831850521684814
 40
0.6907994901719866
 40
0.7016698670802102
 40
0.7125239826006714
 40
0.7233745457841858
 40
0.7342342781533832
 40
0.7451158690722242
 40
0.7531766748649454
 40
0.7612212909837326
 40
0.7692548380487509
 40
0.7772824578622225
 40
0.7853093036169366
 40
0.7933405299956947
 40
0.8013812832564486
 40
0.8094366913982073
 40
0.8188445200302853
 40
0.8282308814845467
 40
0.8376039262008216
 40
0.8469718393772104
 40
0.8563428196584411
 40
0.8657250576486984
 40
0.8751267145294966
 40
0.8861000654209729
 40
0.897046042822961
 40
0.9079776051608442
 40
0.9189077621301673
 40
0.9298495284394007
 40
0.9408158774636901
 40
0.9500267111131532
 40
0.9592173532978977
 40
0.9683954550673032
 40
0.9775686988492353
 40
0.9867447792732279
 40
0.9959313838409698
 40
1.0
 40
1.0
 40
1.0
 40
1.0
 10
1110.426508558523
 20
484.4738997765483
 30
0.0
 10
1110.426288844339
 20
484.4738997765483
 30
0.0
 10
1110.425792308211
 20
484.4738997765483
 30
0.0
 10
1110.433402885625
 20
484.4738997765482
 30
0.0
 10
1110.445919089248
 20
484.4738997765483
 30
0.0
 10
1110.464301764048
 20
484.4738997765482
 30
0.0
 10
1110.488142214249
 20
484.4738997765483
 30
0.0
 10
1110.517549821648
 20
484.4738997765482
 30
0.0
 10
1110.55457656975
 20
484.4738997765482
 30
0.0
 10
1110.600448528035
 20
484.4738997765482
 30
0.0
 10
1110.656459230126
 20
484.4738997765482
 30
0.0
 10
1110.71896655745
 20
484.4738997765482
 30
0.0
 10
1110.796883091633
 20
484.4738997765482
 30
0.0
 10
1110.893392933114
 20
484.4738997765482
 30
0.0
 10
1111.014051750089
 20
484.4738997765482
 30
0.0
 10
1111.148143420234
 20
484.4738997765482
 30
0.0
 10
1111.29566577423
 20
484.4738997765482
 30
0.0
 10
1111.450664011031
 20
484.4738997765482
 30
0.0
 10
1111.611170462105
 20
484.4738997765482
 30
0.0
 10
1111.775432617218
 20
484.4738997765482
 30
0.0
 10
1111.949563576925
 20
484.4738997765481
 30
0.0
 10
1112.120412708926
 20
484.4738997765482
 30
0.0
 10
1112.285640793524
 20
484.4738997765481
 30
0.0
 10
1112.443197989106
 20
484.4738997765481
 30
0.0
 10
1112.609992388165
 20
484.4738997765482
 30
0.0
 10
1112.811869261357
 20
484.4738997765481
 30
0.0
 10
1113.052537930147
 20
484.4738997765481
 30
0.0
 10
1113.332494139092
 20
484.4738997765481
 30
0.0
 10
1113.624793667303
 20
484.4738997765481
 30
0.0
 10
1113.929432116524
 20
484.4738997765481
 30
0.0
 10
1114.218703829924
 20
484.4738997765481
 30
0.0
 10
1114.488744461722
 20
484.4738997765481
 30
0.0
 10
1114.736327343842
 20
484.4738997765481
 30
0.0
 10
1114.989466221975
 20
484.4738997765481
 30
0.0
 10
1115.248160493937
 20
484.4738997765481
 30
0.0
 10
1115.512409929022
 20
484.4738997765481
 30
0.0
 10
1115.782214220848
 20
484.4738997765481
 30
0.0
 10
1116.057572826621
 20
484.4738997765481
 30
0.0
 10
1116.35397399951
 20
484.4738997765481
 30
0.0
 10
1116.67184763366
 20
484.4738997765481
 30
0.0
 10
1117.011656796416
 20
484.4738997765481
 30
0.0
 10
1117.357043949446
 20
484.4738997765481
 30
0.0
 10
1117.708007173723
 20
484.4738997765481
 30
0.0
 10
1118.064545905796
 20
484.4738997765481
 30
0.0
 10
1118.426659523986
 20
484.4738997765481
 30
0.0
 10
1118.814470303771
 20
484.4738997765481
 30
0.0
 10
1119.228051191891
 20
484.4738997765481
 30
0.0
 10
1119.667443166335
 20
484.4738997765481
 30
0.0
 10
1120.111364659927
 20
484.4738997765481
 30
0.0
 10
1120.559812796753
 20
484.4738997765481
 30
0.0
 10
1121.012784763894
 20
484.4738997765481
 30
0.0
 10
1121.445359472686
 20
484.4738997765481
 30
0.0
 10
1121.855998578383
 20
484.4738997765481
 30
0.0
 10
1122.243400692669
 20
484.4738997765481
 30
0.0
 10
1122.631720561174
 20
484.4738997765481
 30
0.0
 10
1123.020957987514
 20
484.4738997765481
 30
0.0
 10
1123.411112286438
 20
484.4738997765481
 30
0.0
 10
1123.802181486356
 20
484.4738997765481
 30
0.0
 10
1124.155009740553
 20
484.4738997765481
 30
0.0
 10
1124.469018827703
 20
484.4738997765481
 30
0.0
 10
1124.743788197566
 20
484.4738997765481
 30
0.0
 10
1125.017904520229
 20
484.4738997765481
 30
0.0
 10
1125.291368247816
 20
484.4738997765481
 30
0.0
 10
1125.564179325754
 20
484.4738997765481
 30
0.0
 10
1125.852547240949
 20
484.4738997765481
 30
0.0
 10
1126.156346621408
 20
484.4738997765481
 30
0.0
 10
1126.475383251669
 20
484.4738997765481
 30
0.0
 10
1126.787484588557
 20
484.4738997765481
 30
0.0
 10
1127.134704612814
 20
484.4738997765481
 30
0.0
 10
1127.515757645035
 20
484.4738997765481
 30
0.0
 10
1127.934871195579
 20
484.4738997765481
 30
0.0
 10
1128.349738789675
 20
484.4738997765481
 30
0.0
 10
1128.760357325843
 20
484.4738997765481
 30
0.0
 10
1129.151677532813
 20
484.4738997765481
 30
0.0
 10
1129.523632362322
 20
484.4738997765481
 30
0.0
 10
1129.876179572408
 20
484.4738997765481
 30
0.0
 10
1130.223472151762
 20
484.4738997765481
 30
0.0
 10
1130.541066766915
 20
484.4738997765481
 30
0.0
 10
1130.830159417148
 20
484.4738997765481
 30
0.0
 10
1131.091934890216
 20
484.4738997765481
 30
0.0
 10
1131.355433166214
 20
484.4738997765481
 30
0.0
 10
1131.658658524711
 20
484.4738997765481
 30
0.0
 10
1131.998437409478
 20
484.4738997765481
 30
0.0
 10
1132.366331461149
 20
484.4738997765481
 30
0.0
 10
1132.724304497347
 20
484.4738997765481
 30
0.0
 10
1133.072353132015
 20
484.4738997765481
 30
0.0
 10
1133.380913735626
 20
484.4738997765481
 30
0.0
 10
1133.652457430691
 20
484.4738997765481
 30
0.0
 10
1133.889188463497
 20
484.4738997765481
 30
0.0
 10
1134.119268361526
 20
484.4738997765481
 30
0.0
 10
1134.342698598038
 20
484.4738997765481
 30
0.0
 10
1134.55947848225
 20
484.4738997765481
 30
0.0
 10
1134.769607560666
 20
484.4738997765481
 30
0.0
 10
1134.973086786615
 20
484.4738997765482
 30
0.0
 10
1135.180763211198
 20
484.4738997765481
 30
0.0
 10
1135.39085535953
 20
484.4738997765482
 30
0.0
 10
1135.601355557966
 20
484.4738997765481
 30
0.0
 10
1135.801446630767
 20
484.4738997765481
 30
0.0
 10
1135.991128903228
 20
484.4738997765482
 30
0.0
 10
1136.170401335919
 20
484.4738997765482
 30
0.0
 10
1136.339265104615
 20
484.4738997765482
 30
0.0
 10
1136.506386741564
 20
484.4738997765482
 30
0.0
 10
1136.669286797145
 20
484.4738997765482
 30
0.0
 10
1136.82514762899
 20
484.4738997765482
 30
0.0
 10
1136.965580928993
 20
484.4738997765482
 30
0.0
 10
1137.090586804598
 20
484.4738997765482
 30
0.0
 10
1137.200165232476
 20
484.4738997765482
 30
0.0
 10
1137.289184448886
 20
484.4738997765482
 30
0.0
 10
1137.360338207538
 20
484.4738997765482
 30
0.0
 10
1137.416039912633
 20
484.4738997765483
 30
0.0
 10
1137.460411282683
 20
484.4738997765482
 30
0.0
 10
1137.493674841716
 20
484.4738997765482
 30
0.0
 10
1137.515003620917
 20
484.4738997765483
 30
0.0
 10
1137.525160802917
 20
484.4738997765483
 30
0.0
 10
1137.524097790764
 20
484.4738997765482
 30
0.0
 10
1137.523771505106
 20
484.4738997765483
 30
0.0
  0
LINE
  5
CE
330
1F
100
AcDbEntity
  8
0
  6
Continuous
 62
     7
370
    30
100
AcDbLine
 10
1110.3751400318
 20
491.9738997765
 30
0.0
 11
1137.5751400318
 21
491.9738997765
 31
0.0
  0
SPLINE
  5
CF
330
1F
100
AcDbEntity
  8
0
  6
Continuous
 62
     7
370
    30
100
AcDbSpline
210
0.0
220
0.0
230
1.0
 70
     8
 71
     3
 72
    49
 73
    45
 74
     0
 42
0.000000001
 43
0.00000001
 40
0.0
 40
0.0
 40
0.0
 40
0.0
 40
0.0293239664871421
 40
0.058649087714338
 40
0.0886379536933863
 40
0.1186277878989756
 40
0.1407317895451966
 40
0.1628514426257789
 40
0.1849561213653675
 40
0.2076245979729729
 40
0.2303090606207564
 40
0.2529779744947732
 40
0.276540690486007
 40
0.3001207700322922
 40
0.3236837279337521
 40
0.3478926841896523
 40
0.3721201695630048
 40
0.3963291797734593
 40
0.420555864551404
 40
0.4448010762849126
 40
0.4690276197717362
 40
0.4939606986149587
 40
0.5189142086201035
 40
0.5438468370372863
 40
0.567997482591357
 40
0.5921672677549851
 40
0.6163171375807223
 40
0.641224793564743
 40
0.6661546296703503
 40
0.6910608349313547
 40
0.7142520966056684
 40
0.7374628377413973
 40
0.7606525544384555
 40
0.7846449959323782
 40
0.8086613144537866
 40
0.832651644250424
 40
0.853876492068423
 40
0.8751197465245124
 40
0.8963433660523232
 40
0.9183125273955725
 40
0.9403038452920843
 40
0.9622720909297563
 40
0.9912871719186037
 40
0.9999999999999999
 40
0.9999999999999999
 40
0.9999999999999999
 40
0.9999999999999999
 10
839.0087014227925
 20
528.0547428490588
 30
0.0
 10
839.051080439203
 20
528.0604299246962
 30
0.0
 10
839.1358401408551
 20
528.0718042999209
 30
0.0
 10
839.2781836121409
 20
528.0895453305737
 30
0.0
 10
839.4310308077066
 20
528.1073238338637
 30
0.0
 10
839.580325701963
 20
528.1232837953963
 30
0.0
 10
839.7212966492855
 20
528.1371179408715
 30
0.0
 10
839.8514784273807
 20
528.1489015671573
 30
0.0
 10
839.9865768570709
 20
528.1600664580749
 30
0.0
 10
840.126334296401
 20
528.1704497360571
 30
0.0
 10
840.2704066769177
 20
528.179919279291
 30
0.0
 10
840.4191423127193
 20
528.1883913248377
 30
0.0
 10
840.572257556872
 20
528.1956930584902
 30
0.0
 10
840.7293736665131
 20
528.2016983048138
 30
0.0
 10
840.8895208646277
 20
528.2062834146276
 30
0.0
 10
841.0522849063323
 20
528.2093160552251
 30
0.0
 10
841.2171846085068
 20
528.2107355159652
 30
0.0
 10
841.3823026824019
 20
528.210496865445
 30
0.0
 10
841.5471326691214
 20
528.2085711341526
 30
0.0
 10
841.7111721383743
 20
528.2050121189893
 30
0.0
 10
841.8754630525152
 20
528.1998154208532
 30
0.0
 10
842.0394293741174
 20
528.1929645850715
 30
0.0
 10
842.2024648793788
 20
528.1845315920109
 30
0.0
 10
842.3607907397164
 20
528.1747984415011
 30
0.0
 10
842.5139497051158
 20
528.1639228934042
 30
0.0
 10
842.6615986460862
 20
528.1521156586326
 30
0.0
 10
842.8063660538456
 20
528.1392817116832
 30
0.0
 10
842.9475233116212
 20
528.1255474538309
 30
0.0
 10
843.084350279017
 20
528.1111050757327
 30
0.0
 10
843.2118396528597
 20
528.0966452071355
 30
0.0
 10
843.3298845342873
 20
528.0823984932647
 30
0.0
 10
843.4386069554511
 20
528.0685681211031
 30
0.0
 10
843.5415465784899
 20
528.0548436450415
 30
0.0
 10
843.6378496376842
 20
528.0414443463791
 30
0.0
 10
843.7267554784751
 20
528.0285976730618
 30
0.0
 10
843.80360550452
 20
528.0171191371637
 30
0.0
 10
843.8690329623981
 20
528.0070860557611
 30
0.0
 10
843.9239927921358
 20
527.9984729809293
 30
0.0
 10
843.9714831603904
 20
527.9908899454884
 30
0.0
 10
844.0107179340287
 20
527.9845343517942
 30
0.0
 10
844.041478923143
 20
527.9794869620775
 30
0.0
 10
844.064293389818
 20
527.9757061211502
 30
0.0
 10
844.0760537952617
 20
527.973750373335
 30
0.0
 10
844.0738708360782
 20
527.9741128389446
 30
0.0
 10
844.0733667066804
 20
527.9741965462218
 30
0.0
  0
SPLINE
  5
D0
330
1F
100
AcDbEntity
  8
0
  6
Continuous
 62
     7
370
    30
100
AcDbSpline
210
0.0
220
0.0
230
1.0
 70
     8
 71
     3
 72
    17
 73
    13
 74
     0
 42
0.000000001
 43
0.00000001
 40
0.0
 40
0.0
 40
0.0
 40
0.0
 40
0.0837246398648572
 40
0.1697105133450169
 40
0.2878506831538479
 40
0.4059937688698636
 40
0.5274247960291546
 40
0.6488607801111156
 40
0.7360780794317331
 40
0.823296836546175
 40
0.9116476750654978
 40
0.9999999999999999
 40
0.9999999999999999
 40
0.9999999999999999
 40
0.9999999999999999
 10
838.4752697810727
 20
527.9739233517153
 30
0.0
 10
838.4759938907653
 20
527.9740443671886
 30
0.0
 10
838.4774616668923
 20
527.9742896665193
 30
0.0
 10
838.4917402776355
 20
527.9766605918288
 30
0.0
 10
838.5193227962433
 20
527.9812248762822
 30
0.0
 10
838.5655985211932
 20
527.9887716583713
 30
0.0
 10
838.6276477813929
 20
527.9987104645122
 30
0.0
 10
838.6979589759115
 20
528.0096849953156
 30
0.0
 10
838.7709127277175
 20
528.0207681606482
 30
0.0
 10
838.8428726769846
 20
528.0314086764447
 30
0.0
 10
838.9215291835701
 20
528.0427361930789
 30
0.0
 10
838.9796438467662
 20
528.0507406079546
 30
0.0
 10
839.0087014227925
 20
528.0547428490588
 30
0.0
  0
LINE
  5
D1
330
1F
100
AcDbEntity
  8
0
  6
Continuous
 62
   252
370
     0
100
AcDbLine
 10
813.9194375937
 20
457.1840300982
 30
0.0
 11
813.9194375937
 21
626.9738997765
 31
0.0
  0
LINE
  5
D2
330
1F
100
AcDbEntity
  8
0
  6
Continuous
 62
   252
370
     0
100
AcDbLine
 10
823.6464860506
 20
457.2286115046
 30
0.0
 11
823.6464860506
 21
626.7191880485
 31
0.0
  0
LINE
  5
D3
330
1F
100
AcDbEntity
  8
0
  6
Continuous
 62
   252
370
     0
100
AcDbLine
 10
825.592214464
 20
459.140364259
 30
0.0
 11
825.592214464
 21
624.8074352567
 31
0.0
  0
LINE
  5
D4
330
1F
100
AcDbEntity
  8
0
  6
Continuous
 62
   252
370
     0
100
AcDbLine
 10
1110.2251400318
 20
484.6738997765
 30
0.0
 11
1137.7251400318
 21
484.6738997765
 31
0.0
  0
LINE
  5
D5
330
1F
100
AcDbEntity
  8
0
  6
Continuous
 62
   252
370
     0
100
AcDbLine
 10
1111.2738797383
 20
491.7738997765
 30
0.0
 11
1110.2251400318
 21
491.7738997765
 31
0.0
  0
LINE
  5
D6
330
1F
100
AcDbEntity
  8
0
  6
Continuous
 62
   252
370
     0
100
AcDbLine
 10
1137.7251400318
 20
491.7738997765
 30
0.0
 11
1111.2738797383
 21
491.7738997765
 31
0.0
  0
LINE
  5
D7
330
1F
100
AcDbEntity
  8
0
  6
Continuous
 62
   252
370
     0
100
AcDbLine
 10
1109.9751400318
 20
492.3738997765
 30
0.0
 11
1137.9751400318
 21
492.3738997765
 31
0.0
  0
LINE
  5
D8
330
1F
100
AcDbEntity
  8
0
  6
Continuous
 62
   252
370
     0
100
AcDbLine
 10
1082.9751400318
 20
527.9738997765
 30
0.0
 11
1082.9751400318
 21
555.9738997765
 31
0.0
  0
LINE
  5
D9
330
1F
100
AcDbEntity
  8
0
  6
Continuous
 62
   252
370
     0
100
AcDbLine
 10
1109.9751400318
 20
500.9738997765
 30
0.0
 11
1137.9751400318
 21
500.9738997765
 31
0.0
  0
ARC
  5
DA
330
1F
100
AcDbEntity
  8
0
  6
Continuous
 62
     7
370
    30
100
AcDbCircle
 10
355.0936508805
 20
626.474071114
 30
0.0
 40
0.4999999999999598
100
AcDbArc
 50
360.0
 51
91.5
  0
LINE
  5
DB
330
1F
100
AcDbEntity
  8
0
  6
Continuous
 62
     7
370
    30
100
AcDbLine
 10
355.0805624063
 20
626.9738997762
 30
0.0
 11
345.3535139494
 21
626.7191880485
 31
0.0
  0
LINE
  5
DC
330
1F
100
AcDbEntity
  8
0
  6
Continuous
 62
     7
370
    30
100
AcDbLine
 10
345.3535139494
 20
457.2286115046
 30
0.0
 11
353.0936508805
 21
457.0259288863
 31
0.0
  0
ARC
  5
DD
330
1F
100
AcDbEntity
  8
0
  6
Continuous
 62
     7
370
    30
100
AcDbCircle
 10
345.405867846
 20
624.7198733798
 30
0.0
 40
2.000000000000105
100
AcDbArc
 50
91.499999986
 51
177.4907349552
  0
ARC
  5
DE
330
1F
100
AcDbEntity
  8
0
  6
Continuous
 62
     7
370
    30
100
AcDbCircle
 10
345.4058678461
 20
459.2279261358
 30
0.0
 40
1.999999999999989
100
AcDbArc
 50
182.5092650448
 51
268.5000000141
  0
ARC
  5
DF
330
1F
100
AcDbEntity
  8
0
  6
Continuous
 62
     7
370
    30
100
AcDbCircle
 10
2233.5936508405
 20
541.9738997578
 30
0.0
 40
1892.0
100
AcDbArc
 50
180.4269968123
 51
181.3759704848
  0
ARC
  5
E0
330
1F
100
AcDbEntity
  8
0
  6
Continuous
 62
     7
370
    30
100
AcDbCircle
 10
2233.5936508405
 20
541.9738997578
 30
0.0
 40
1892.0
100
AcDbArc
 50
181.6032376718
 51
182.5092650448
  0
ARC
  5
E1
330
1F
100
AcDbEntity
  8
0
  6
Continuous
 62
     7
370
    30
100
AcDbCircle
 10
2233.5936508405
 20
541.9738997578
 30
0.0
 40
1892.00000000007
100
AcDbArc
 50
177.4907349552
 51
179.5730031872
  0
LINE
  5
E2
330
1F
100
AcDbEntity
  8
0
  6
Continuous
 62
     7
370
    30
100
AcDbLine
 10
355.9436508805
 20
622.9738997765
 30
0.0
 11
355.5936508805
 21
622.9738997765
 31
0.0
  0
LINE
  5
E3
330
1F
100
AcDbEntity
  8
0
  6
Continuous
 62
     7
370
    30
100
AcDbLine
 10
342.1916673738
 20
496.5453317156
 30
0.0
 11
342.1255679334
 21
496.5404776761
 31
0.0
  0
SPLINE
  5
E4
330
1F
100
AcDbEntity
  8
0
  6
Continuous
 62
     7
370
    30
100
AcDbSpline
210
0.0
220
0.0
230
1.0
 70
     8
 71
     3
 72
    33
 73
    29
 74
     0
 42
0.000000001
 43
0.00000001
 40
0.0
 40
0.0
 40
0.0
 40
0.0
 40
0.0256051441815724
 40
0.0485580614258164
 40
0.0700477646036925
 40
0.0912574175964212
 40
0.1129855605190462
 40
0.135184629900365
 40
0.1884620345982444
 40
0.2421976601763886
 40
0.3394404801582962
 40
0.4391992977196492
 40
0.5078119870474032
 40
0.5789086106593796
 40
0.653279392878638
 40
0.6885635884161059
 40
0.7221520202503954
 40
0.7528701708282943
 40
0.7815332513705366
 40
0.8097167116319883
 40
0.8360474809069182
 40
0.8641565158592472
 40
0.8949306935439151
 40
0.9290833042193627
 40
0.9481518442201109
 40
0.9678057574802026
 40
0.9878710612996496
 40
1.0
 40
1.0
 40
1.0
 40
1.0
 10
341.7399293845468
 20
491.9863836009098
 30
0.0
 10
341.7413684017118
 20
491.9561848836495
 30
0.0
 10
341.7440973800528
 20
491.8989154866367
 30
0.0
 10
341.7498938276918
 20
491.8164064303372
 30
0.0
 10
341.7565965835262
 20
491.7391783760392
 30
0.0
 10
341.7641629497105
 20
491.6634843701098
 30
0.0
 10
341.7723562723173
 20
491.5870139033834
 30
0.0
 10
341.7855167439427
 20
491.4729999812398
 30
0.0
 10
341.8052498490054
 20
491.3217054001969
 30
0.0
 10
341.8421521370365
 20
491.0833583965751
 30
0.0
 10
341.8972635930241
 20
490.7923907665848
 30
0.0
 10
341.9675259971039
 20
490.4866940867454
 30
0.0
 10
342.0368146294934
 20
490.2125655470356
 30
0.0
 10
342.1021005432964
 20
489.9683721257098
 30
0.0
 10
342.1580872220418
 20
489.762432774859
 30
0.0
 10
342.2018376602049
 20
489.5990607181315
 30
0.0
 10
342.2318213474743
 20
489.4853598270942
 30
0.0
 10
342.2591019321322
 20
489.3790326868341
 30
0.0
 10
342.2837922009792
 20
489.2786335957497
 30
0.0
 10
342.3060896834572
 20
489.1829882275702
 30
0.0
 10
342.3271372418707
 20
489.0877286390597
 30
0.0
 10
342.3469730834095
 20
488.9890825415292
 30
0.0
 10
342.3660527229846
 20
488.8808919724982
 30
0.0
 10
342.3807442867264
 20
488.7828027218589
 30
0.0
 10
342.3922523360837
 20
488.6975309502087
 30
0.0
 10
342.4008915592958
 20
488.6286588999404
 30
0.0
 10
342.4080898398635
 20
488.567865087703
 30
0.0
 10
342.4121998716523
 20
488.53007587769
 30
0.0
 10
342.4137482952127
 20
488.5158390770727
 30
0.0
  0
SPLINE
  5
E5
330
1F
100
AcDbEntity
  8
0
  6
Continuous
 62
     7
370
    30
100
AcDbSpline
210
0.0
220
0.0
230
1.0
 70
     8
 71
     3
 72
    45
 73
    41
 74
     0
 42
0.000000001
 43
0.00000001
 40
0.0
 40
0.0
 40
0.0
 40
0.0
 40
0.0299371036616266
 40
0.0565990135999651
 40
0.0802341837882761
 40
0.1010910873493796
 40
0.1194182215749818
 40
0.1354641135475603
 40
0.1517847780098195
 40
0.1656889707763754
 40
0.177583739705735
 40
0.1878761538264772
 40
0.2067390819387182
 40
0.2239365587524043
 40
0.2410147015549867
 40
0.2578311110705387
 40
0.2742110529430282
 40
0.2899801763319784
 40
0.3049647339842302
 40
0.3301813283906594
 40
0.3530658445252784
 40
0.3744068498365021
 40
0.3996033541369465
 40
0.4255521088793748
 40
0.4540481735773455
 40
0.4850536734043888
 40
0.5168405955416717
 40
0.5479853938382162
 40
0.57833533264952
 40
0.6323034080200249
 40
0.6846271919783269
 40
0.7357751348472308
 40
0.810945733658148
 40
0.8848902457107792
 40
0.9039621520269412
 40
0.9226692888926165
 40
0.9408653207913074
 40
0.9590211119067295
 40
0.9783226116167644
 40
1.0
 40
1.0
 40
1.0
 40
1.0
 10
342.1255679333503
 20
496.5404776761479
 30
0.0
 10
342.1273030960457
 20
496.4947605595295
 30
0.0
 10
342.1305835903148
 20
496.4083278927461
 30
0.0
 10
342.1350088434561
 20
496.2857934352328
 30
0.0
 10
342.1387420396068
 20
496.1771196117284
 30
0.0
 10
342.1418214467654
 20
496.0811683005446
 30
0.0
 10
342.1442996822349
 20
495.9968019190867
 30
0.0
 10
342.1463176625454
 20
495.9193577055086
 30
0.0
 10
342.147854141635
 20
495.8486629001524
 30
0.0
 10
342.1488766137451
 20
495.7843031408757
 30
0.0
 10
342.1493556196544
 20
495.7291496915444
 30
0.0
 10
342.1493935885895
 20
495.6664158808608
 30
0.0
 10
342.1483878934596
 20
495.5955824654997
 30
0.0
 10
342.1461535940762
 20
495.5144058028341
 30
0.0
 10
342.143496800513
 20
495.4363712617531
 30
0.0
 10
342.1402197143675
 20
495.3596104002838
 30
0.0
 10
342.1363483644785
 20
495.2848802115196
 30
0.0
 10
342.1318707815055
 20
495.2129880930768
 30
0.0
 10
342.1255167316389
 20
495.1276882242871
 30
0.0
 10
342.1164043296207
 20
495.0316996580806
 30
0.0
 10
342.1036907002925
 20
494.9263326327349
 30
0.0
 10
342.0888480327105
 20
494.8212809201995
 30
0.0
 10
342.0719402393747
 20
494.711801677364
 30
0.0
 10
342.0516952100412
 20
494.5917856863435
 30
0.0
 10
342.0286237045937
 20
494.4632530002588
 30
0.0
 10
342.0031664607973
 20
494.3260874767549
 30
0.0
 10
341.9765215802944
 20
494.1850264844931
 30
0.0
 10
341.9499015680861
 20
494.0449805122021
 30
0.0
 10
341.9172428280374
 20
493.8715783231817
 30
0.0
 10
341.8801282057703
 20
493.6660808963104
 30
0.0
 10
341.8409961312299
 20
493.4286712389391
 30
0.0
 10
341.8019738018721
 20
493.158452015336
 30
0.0
 10
341.7678803555573
 20
492.8542229419926
 30
0.0
 10
341.7503589717876
 20
492.5977105494609
 30
0.0
 10
341.7430444702964
 20
492.4271299113323
 30
0.0
 10
341.7401737967629
 20
492.3416355597206
 30
0.0
 10
341.7380115048029
 20
492.2575207592647
 30
0.0
 10
341.7368311226311
 20
492.17247693888
 30
0.0
 10
341.7371775544528
 20
492.082098920033
 30
0.0
 10
341.7389773252628
 20
492.0194985299086
 30
0.0
 10
341.7399293845467
 20
491.9863836009096
 30
0.0
  0
ARC
  5
E6
330
1F
100
AcDbEntity
  8
0
  6
Continuous
 62
     7
370
    30
100
AcDbCircle
 10
31.4748599682
 20
491.7738997765
 30
0.0
 40
0.2000000000000455
100
AcDbArc
 50
90.0
 51
180.0
  0
ARC
  5
E7
330
1F
100
AcDbEntity
  8
0
  6
Continuous
 62
     7
370
    30
100
AcDbCircle
 10
58.5748599682
 20
491.7738997765
 30
0.0
 40
0.2000000000000455
100
AcDbArc
 50
0.0
 51
90.0
  0
ARC
  5
E8
330
1F
100
AcDbEntity
  8
0
  6
Continuous
 62
     7
370
    30
100
AcDbCircle
 10
58.5748599682
 20
484.6738997765
 30
0.0
 40
0.1999999999999886
100
AcDbArc
 50
270.0
 51
0.0
  0
ARC
  5
E9
330
1F
100
AcDbEntity
  8
0
  6
Continuous
 62
     7
370
    30
100
AcDbCircle
 10
31.4748599682
 20
484.6738997765
 30
0.0
 40
0.1999999999999886
100
AcDbArc
 50
180.0
 51
270.0
  0
LINE
  5
EA
330
1F
100
AcDbEntity
  8
0
  6
Continuous
 62
     7
370
    30
100
AcDbLine
 10
31.2748599682
 20
491.7738997765
 30
0.0
 11
31.2748599682
 21
484.6738997765
 31
0.0
  0
LINE
  5
EB
330
1F
100
AcDbEntity
  8
0
  6
Continuous
 62
     7
370
    30
100
AcDbLine
 10
58.7748599682
 20
484.6738997765
 30
0.0
 11
58.7748599682
 21
491.7738997765
 31
0.0
  0
ARC
  5
EC
330
1F
100
AcDbEntity
  8
0
  6
Continuous
 62
     7
370
    30
100
AcDbCircle
 10
31.4248599682
 20
492.3738997765
 30
0.0
 40
0.4000000000000661
100
AcDbArc
 50
180.0
 51
270.0
  0
ARC
  5
ED
330
1F
100
AcDbEntity
  8
0
  6
Continuous
 62
     7
370
    30
100
AcDbCircle
 10
58.6248599682
 20
492.3738997765
 30
0.0
 40
0.4000000000000696
100
AcDbArc
 50
270.0
 51
0.0
  0
LINE
  5
EE
330
1F
100
AcDbEntity
  8
0
  6
Continuous
 62
     7
370
    30
100
AcDbLine
 10
59.0248599682
 20
492.3738997765
 30
0.0
 11
59.0248599682
 21
500.9738997765
 31
0.0
  0
LINE
  5
EF
330
1F
100
AcDbEntity
  8
0
  6
Continuous
 62
     7
370
    30
100
AcDbLine
 10
31.0248599682
 20
500.9738997765
 30
0.0
 11
31.0248599682
 21
492.3738997765
 31
0.0
  0
ARC
  5
F0
330
1F
100
AcDbEntity
  8
0
  6
Continuous
 62
     7
370
    30
100
AcDbCircle
 10
86.0248599682
 20
500.9738997765
 30
0.0
 40
55.00000000000004
100
AcDbArc
 50
90.0
 51
180.0
  0
ARC
  5
F1
330
1F
100
AcDbEntity
  8
0
  6
Continuous
 62
     7
370
    30
100
AcDbCircle
 10
86.0248599682
 20
500.9738997765
 30
0.0
 40
27.00000000000001
100
AcDbArc
 50
90.0
 51
180.0
  0
LINE
  5
F2
330
1F
100
AcDbEntity
  8
0
  6
Continuous
 62
     7
370
    30
100
AcDbLine
 10
341.6461912106
 20
555.9738997765
 30
0.0
 11
86.0248599682
 21
555.9738997765
 31
0.0
  0
LINE
  5
F3
330
1F
100
AcDbEntity
  8
0
  6
Continuous
 62
     7
370
    30
100
AcDbLine
 10
330.5243104109
 20
527.9738997765
 30
0.0
 11
341.6461912106
 21
527.9738997765
 31
0.0
  0
LINE
  5
F4
330
1F
100
AcDbEntity
  8
0
  6
Continuous
 62
     7
370
    30
100
AcDbLine
 10
86.0248599682
 20
527.9738997765
 30
0.0
 11
324.9266419439
 21
527.9738997765
 31
0.0
  0
LINE
  5
F5
330
1F
100
AcDbEntity
  8
0
  6
Continuous
 62
     7
370
    30
100
AcDbLine
 10
355.5936508805
 20
626.474071114
 30
0.0
 11
355.5936508805
 21
457.6870149364
 31
0.0
  0
SPLINE
  5
F6
330
1F
100
AcDbEntity
  8
0
  6
Continuous
 62
     7
370
    30
100
AcDbSpline
210
0.0
220
0.0
230
1.0
 70
     8
 71
     3
 72
    21
 73
    17
 74
     0
 42
0.000000001
 43
0.00000001
 40
0.0
 40
0.0
 40
0.0
 40
0.0
 40
0.104368481840812
 40
0.1579210744375737
 40
0.2118675486942641
 40
0.3162339962313852
 40
0.3697787928036254
 40
0.4237159740832181
 40
0.5282365347440219
 40
0.5818647190110547
 40
0.6358878150826767
 40
0.7403770811457682
 40
0.7939951895401449
 40
0.848010371701786
 40
0.9234425795688579
 40
1.0
 40
1.0
 40
1.0
 40
1.0
 10
355.5936508804623
 20
457.6870149363651
 30
0.0
 10
355.5923669817126
 20
457.6591301213475
 30
0.0
 10
355.5904243006804
 20
457.6169373072871
 30
0.0
 10
355.5783351125525
 20
457.5615838484371
 30
0.0
 10
355.562016203195
 20
457.507439803555
 30
0.0
 10
355.5388040730302
 20
457.4555632977199
 30
0.0
 10
355.5094575356572
 20
457.4072206299292
 30
0.0
 10
355.4760762368114
 20
457.3615207791244
 30
0.0
 10
355.4370372257445
 20
457.3201872136959
 30
0.0
 10
355.3933010621269
 20
457.2842335925955
 30
0.0
 10
355.3466672519743
 20
457.2521500980249
 30
0.0
 10
355.2961472398441
 20
457.2261007852321
 30
0.0
 10
355.2429964112942
 20
457.2066807493688
 30
0.0
 10
355.1958526536704
 20
457.1940060221611
 30
0.0
 10
355.141525041892
 20
457.1848121118911
 30
0.0
 10
355.1009833312266
 20
457.1842922300816
 30
0.0
 10
355.0805624063046
 20
457.1840303647772
 30
0.0
  0
SPLINE
  5
F7
330
1F
100
AcDbEntity
  8
0
  6
Continuous
 62
     7
370
    30
100
AcDbSpline
210
0.0
220
0.0
230
1.0
 70
     8
 71
     3
 72
    21
 73
    17
 74
     0
 42
0.000000001
 43
0.00000001
 40
0.0
 40
0.0
 40
0.0
 40
0.0
 40
0.0737534642358895
 40
0.1477420268318878
 40
0.2214952827863015
 40
0.2952480559295249
 40
0.3692360739345959
 40
0.4429893081949771
 40
0.5167640832959774
 40
0.5907736140099079
 40
0.6645491677734642
 40
0.7384567533046281
 40
0.812599323126756
 40
0.8865075761154266
 40
0.9432537679759723
 40
1.0
 40
1.0
 40
1.0
 40
1.0
 10
354.0413149242181
 20
457.2074910125746
 30
0.0
 10
354.0040869873848
 20
457.2082449919491
 30
0.0
 10
353.9295124450296
 20
457.2097553541014
 30
0.0
 10
353.8199343814779
 20
457.2108694970265
 30
0.0
 10
353.7136802412295
 20
457.2111417035204
 30
0.0
 10
353.6123325018968
 20
457.2104634750369
 30
0.0
 10
353.5169880772299
 20
457.2089220342999
 30
0.0
 10
353.4287885094651
 20
457.2065506966538
 30
0.0
 10
353.3491512412468
 20
457.2033766488211
 30
0.0
 10
353.2787824526397
 20
457.1994936512338
 30
0.0
 10
353.2184868339124
 20
457.1949691386998
 30
0.0
 10
353.1694579929388
 20
457.1898641091099
 30
0.0
 10
353.1318560965752
 20
457.1842809657225
 30
0.0
 10
353.1084213587108
 20
457.1787620407283
 30
0.0
 10
353.0958082594843
 20
457.1734889907286
 30
0.0
 10
353.0943700069726
 20
457.170181196519
 30
0.0
 10
353.0936508804623
 20
457.1685272988289
 30
0.0
  0
LINE
  5
F8
330
1F
100
AcDbEntity
  8
0
  6
Continuous
 62
     7
370
    30
100
AcDbLine
 10
353.0936508805
 20
457.0259288861
 30
0.0
 11
353.0936508805
 21
457.1685272987
 31
0.0
  0
LWPOLYLINE
  5
F9
330
1F
100
AcDbEntity
  8
0
  6
Continuous
 62
     7
370
    30
100
AcDbPolyline
 90
        9
 70
   128
 43
0.0
 10
355.0805624063
 20
457.1840303648
 10
354.9506564429
 20
457.1869616939
 10
354.8207504875
 20
457.1898933807
 10
354.6908445401
 20
457.1928254252
 10
354.5609386009
 20
457.1957578275
 10
354.4310326696
 20
457.1986905874
 10
354.3011267464
 20
457.2016237051
 10
354.1712208313
 20
457.2045571805
 10
354.0413149242
 20
457.2074910126
  0
SPLINE
  5
FA
330
1F
100
AcDbEntity
  8
0
  6
Continuous
 62
     7
370
    30
100
AcDbSpline
210
0.0
220
0.0
230
1.0
 70
     8
 71
     3
 72
    28
 73
    24
 74
     0
 42
0.000000001
 43
0.00000001
 40
0.0
 40
0.0
 40
0.0
 40
0.0
 40
0.0463319742155446
 40
0.09272810966457
 40
0.1391242321081982
 40
0.18545618856455
 40
0.234284879937523
 40
0.2831511119078616
 40
0.3319797926296643
 40
0.3822258059927627
 40
0.432512746760102
 40
0.4827587491911251
 40
0.5315822960916041
 40
0.580443398241061
 40
0.629266937392507
 40
0.6795082651974217
 40
0.7297905334035034
 40
0.7800318557437658
 40
0.8288618781507097
 40
0.8777294864870421
 40
0.9265595074448506
 40
0.9768082656401297
 40
1.0
 40
1.0
 40
1.0
 40
1.0
 10
342.2332061799278
 20
495.4159664594205
 30
0.0
 10
342.231277173838
 20
495.4741906916458
 30
0.0
 10
342.2274164903408
 20
495.5907197859125
 30
0.0
 10
342.2218711546158
 20
495.7533490792503
 30
0.0
 10
342.216524786735
 20
495.9065348075576
 30
0.0
 10
342.2113202854573
 20
496.0514538650623
 30
0.0
 10
342.2062834376169
 20
496.1871832380354
 30
0.0
 10
342.2014432705709
 20
496.3126747706971
 30
0.0
 10
342.1968576605905
 20
496.4262934245256
 30
0.0
 10
342.1925540707485
 20
496.5271143170874
 30
0.0
 10
342.1885547007467
 20
496.6144661924165
 30
0.0
 10
342.1849475755599
 20
496.6864261354543
 30
0.0
 10
342.1817358518889
 20
496.7431120195337
 30
0.0
 10
342.1789139363066
 20
496.7849694262147
 30
0.0
 10
342.1764358061747
 20
496.8126806668807
 30
0.0
 10
342.1743252241126
 20
496.8255316092255
 30
0.0
 10
342.1725988478972
 20
496.8231076081586
 30
0.0
 10
342.1712940147279
 20
496.805480427248
 30
0.0
 10
342.1704073403199
 20
496.772999370663
 30
0.0
 10
342.1699168718498
 20
496.7266563670661
 30
0.0
 10
342.1698433696649
 20
496.6646999370627
 30
0.0
 10
342.1700496192477
 20
496.6039551458109
 30
0.0
 10
342.1704383637698
 20
496.5582233798112
 30
0.0
 10
342.1705611251971
 20
496.5437817695773
 30
0.0
  0
LWPOLYLINE
  5
FB
330
1F
100
AcDbEntity
  8
0
  6
Continuous
 62
     7
370
    30
100
AcDbPolyline
 90
       59
 70
   128
 43
0.0
 10
342.3588515653
 20
488.9191450054
 10
342.3639440002
 20
488.7622478205
 10
342.3702101983
 20
488.5734523677
 10
342.3762405797
 20
488.3961670161
 10
342.3818582999
 20
488.2354125763
 10
342.3872266484
 20
488.0862996508
 10
342.3923209459
 20
487.9495139675
 10
342.397263582
 20
487.822006218
 10
342.401891548
 20
487.7081967062
 10
342.4061823027
 20
487.6086400644
 10
342.4100171853
 20
487.525840784
 10
342.4135149842
 20
487.4569182686
 10
342.4166596053
 20
487.4021899838
 10
342.4195178472
 20
487.3608772631
 10
342.4219874495
 20
487.3348300469
 10
342.4240563748
 20
487.3241757213
 10
342.425676945
 20
487.3286481697
 10
342.4269105589
 20
487.3476743024
 10
342.4277515355
 20
487.3811669348
 10
342.428203529
 20
487.430707455
 10
342.4282365891
 20
487.4953647923
 10
342.4278505543
 20
487.5748241286
 10
342.4270731038
 20
487.6661139568
 10
342.4259023535
 20
487.7709961491
 10
342.4243436981
 20
487.8889879127
 10
342.422337142
 20
488.0238560528
 10
342.4199285344
 20
488.1719891451
 10
342.4171296239
 20
488.3326651686
 10
342.4140398444
 20
488.5005515065
 10
342.4105948281
 20
488.6795330079
 10
342.4068104484
 20
488.868785465
 10
342.4025697466
 20
489.0738386701
 10
342.3979892897
 20
489.2888055132
 10
342.393091413
 20
489.5126382494
 10
342.3880365867
 20
489.738218909
 10
342.3827048078
 20
489.9711404029
 10
342.3771206277
 20
490.2103305688
 10
342.3711233228
 20
490.4624574679
 10
342.3648870152
 20
490.7200237127
 10
342.3584420942
 20
490.981774532
 10
342.3519929763
 20
491.2395728576
 10
342.3453765324
 20
491.5001269112
 10
342.3386232011
 20
491.7622382602
 10
342.3315467054
 20
492.0329578622
 10
342.3243589802
 20
492.3040275973
 10
342.3170950254
 20
492.5741276646
 10
342.3099803946
 20
492.8350183758
 10
342.302826881
 20
493.0937716876
 10
342.2956673687
 20
493.3491981637
 10
342.2883110865
 20
493.6079351102
 10
342.2809838219
 20
493.8618964057
 10
342.2737212402
 20
494.1098458296
 10
342.2667426403
 20
494.3444427562
 10
342.2598579008
 20
494.5722514071
 10
342.2530986777
 20
494.792224162
 10
342.2462910745
 20
495.0098413074
 10
342.2396494592
 20
495.218093593
 10
342.2332061799
 20
495.4159664594
 10
342.2332061799
 20
495.4159664594
  0
LINE
  5
FC
330
1F
100
AcDbEntity
  8
0
  6
Continuous
 62
     7
370
    30
100
AcDbLine
 10
341.6461912106
 20
527.8738997765
 30
0.0
 11
341.6461912106
 21
556.0738997765
 31
0.0
  0
LINE
  5
FD
330
1F
100
AcDbEntity
  8
0
  6
Continuous
 62
     7
370
    30
100
AcDbLine
 10
355.9436508805
 20
462.2893144661
 30
0.0
 11
355.5936508805
 21
462.2893144661
 31
0.0
  0
LINE
  5
FE
330
1F
100
AcDbEntity
  8
0
  6
Continuous
 62
     7
370
    30
100
AcDbLine
 10
355.9436508805
 20
462.2893144661
 30
0.0
 11
355.9436508805
 21
622.9738997765
 31
0.0
  0
LINE
  5
FF
330
1F
100
AcDbEntity
  8
0
  6
Continuous
 62
     7
370
    30
100
AcDbLine
 10
342.1255679334
 20
496.5404776761
 30
0.0
 11
342.3896677453
 21
489.6657652451
 31
0.0
  0
SPLINE
  5
100
330
1F
100
AcDbEntity
  8
0
  6
Continuous
 62
     7
370
    30
100
AcDbSpline
210
0.0
220
0.0
230
1.0
 70
    24
 71
     3
 72
   104
 73
   100
 74
     0
 42
0.000000001
 43
0.00000001
 40
0.0
 40
0.0
 40
0.0
 40
0.0
 40
0.0104578216753466
 40
0.0208960887568456
 40
0.0313233996823179
 40
0.041748379999264
 40
0.0499435319585583
 40
0.0581467545597897
 40
0.0663622162393085
 40
0.0750657348431483
 40
0.0874908185586937
 40
0.0998973151448795
 40
0.1122997513307806
 40
0.1247126681010331
 40
0.1371505696821952
 40
0.1463642508311721
 40
0.1555594268208199
 40
0.1647419506344199
 40
0.1739176994668112
 40
0.1830925635325103
 40
0.1922724347491459
 40
0.2014631954045627
 40
0.2106707069162219
 40
0.2214240652706073
 40
0.2321528861609655
 40
0.2428664857221466
 40
0.2535742198184761
 40
0.2642854596840799
 40
0.2750095673625664
 40
0.2857558712667641
 40
0.2982986565456386
 40
0.31081015331472
 40
0.3233051733437995
 40
0.3357985870056068
 40
0.3483052704027579
 40
0.3608400523929506
 40
0.3713682410799369
 40
0.3818733504715413
 40
0.3923641258881715
 40
0.4028493485165481
 40
0.4133378134901711
 40
0.4238383077952544
 40
0.4343595882786875
 40
0.4417562684514281
 40
0.449140842212122
 40
0.4565163342677824
 40
0.4638857805078873
 40
0.4712522242968
 40
0.4786187127201473
 40
0.4873047891014516
 40
0.4960001406891885
 40
0.504709732446189
 40
0.5129432966818078
 40
0.5246642965748987
 40
0.536369397054797
 40
0.5480707871434336
 40
0.5597806674493825
 40
0.5715112120899409
 40
0.5819709058699865
 40
0.5924103540442145
 40
0.6028381484367383
 40
0.6132629096859702
 40
0.6214573945247608
 40
0.6296595135449462
 40
0.637873435070563
 40
0.6465769078598463
 40
0.6590019915745413
 40
0.6714084881603882
 40
0.6838109243464635
 40
0.6962238411174058
 40
0.7086617426997716
 40
0.7178754238479802
 40
0.7270705998370801
 40
0.7362531236503497
 40
0.7454288724826303
 40
0.7546037365484388
 40
0.7637836077654059
 40
0.7729743684213695
 40
0.7821818799337958
 40
0.7929352382880221
 40
0.8036640591782708
 40
0.814377658739396
 40
0.825085392835726
 40
0.8357966327013873
 40
0.846520740379987
 40
0.8572670442843614
 40
0.8698098295630542
 40
0.8823213263320293
 40
0.8948163463610734
 40
0.9073097600229156
 40
0.9198164434201669
 40
0.932351225410525
 40
0.9428794140970982
 40
0.9533845234884248
 40
0.9638752989049153
 40
0.974360521533292
 40
0.9848489865070565
 40
0.99534948081242
 40
1.0
 40
1.0
 40
1.0
 40
1.0
 10
32.50834527893362
 20
484.4738997765483
 30
0.0
 10
32.55906088145574
 20
484.4738997765483
 30
0.0
 10
32.66039725575612
 20
484.4738997765483
 30
0.0
 10
32.82521551368331
 20
484.4738997765483
 30
0.0
 10
32.99918151889439
 20
484.4738997765483
 30
0.0
 10
33.17007370708233
 20
484.4738997765483
 30
0.0
 10
33.33530714589831
 20
484.4738997765483
 30
0.0
 10
33.49288903352696
 20
484.4738997765483
 30
0.0
 10
33.65970121294995
 20
484.4738997765483
 30
0.0
 10
33.86158882421017
 20
484.4738997765483
 30
0.0
 10
34.10225788022505
 20
484.4738997765484
 30
0.0
 10
34.38221407180317
 20
484.4738997765483
 30
0.0
 10
34.67451360466464
 20
484.4738997765484
 30
0.0
 10
34.97915205263305
 20
484.4738997765483
 30
0.0
 10
35.26842376636055
 20
484.4738997765484
 30
0.0
 10
35.53846439811378
 20
484.4738997765483
 30
0.0
 10
35.78604728027276
 20
484.4738997765484
 30
0.0
 10
36.03918615841597
 20
484.4738997765484
 30
0.0
 10
36.29788043038432
 20
484.4738997765483
 30
0.0
 10
36.56212986546384
 20
484.4738997765484
 30
0.0
 10
36.83193415727556
 20
484.4738997765484
 30
0.0
 10
37.10729276302357
 20
484.4738997765484
 30
0.0
 10
37.40369393590645
 20
484.4738997765484
 30
0.0
 10
37.72156757006564
 20
484.4738997765484
 30
0.0
 10
38.06137673284424
 20
484.4738997765484
 30
0.0
 10
38.40676388588546
 20
484.4738997765484
 30
0.0
 10
38.75772711016193
 20
484.4738997765484
 30
0.0
 10
39.11426584222363
 20
484.4738997765484
 30
0.0
 10
39.47637946039059
 20
484.4738997765484
 30
0.0
 10
39.8641902401721
 20
484.4738997765484
 30
0.0
 10
40.2777711283083
 20
484.4738997765484
 30
0.0
 10
40.71716310278226
 20
484.4738997765484
 30
0.0
 10
41.1610845963846
 20
484.4738997765484
 30
0.0
 10
41.6095327332002
 20
484.4738997765484
 30
0.0
 10
42.06250470031145
 20
484.4738997765484
 30
0.0
 10
42.49507940908728
 20
484.4738997765484
 30
0.0
 10
42.90571851478472
 20
484.4738997765484
 30
0.0
 10
43.29312062909171
 20
484.4738997765484
 30
0.0
 10
43.68144049760722
 20
484.4738997765484
 30
0.0
 10
44.07067792394723
 20
484.4738997765484
 30
0.0
 10
44.46083222286026
 20
484.4738997765484
 30
0.0
 10
44.85190142275772
 20
484.4738997765484
 30
0.0
 10
45.20472967691683
 20
484.4738997765484
 30
0.0
 10
45.5187387640201
 20
484.4738997765484
 30
0.0
 10
45.79350813383601
 20
484.4738997765484
 30
0.0
 10
46.06762445646681
 20
484.4738997765484
 30
0.0
 10
46.3410881840354
 20
484.4738997765484
 30
0.0
 10
46.61389926196949
 20
484.4738997765484
 30
0.0
 10
46.90226717717691
 20
484.4738997765484
 30
0.0
 10
47.20606655766621
 20
484.4738997765484
 30
0.0
 10
47.52510318797656
 20
484.4738997765484
 30
0.0
 10
47.8372045248788
 20
484.4738997765484
 30
0.0
 10
48.18442454910696
 20
484.4738997765484
 30
0.0
 10
48.56547758126503
 20
484.4738997765484
 30
0.0
 10
48.98459113177797
 20
484.4738997765484
 30
0.0
 10
49.39945872588977
 20
484.4738997765484
 30
0.0
 10
49.81007726212086
 20
484.4738997765484
 30
0.0
 10
50.20139746913191
 20
484.4738997765484
 30
0.0
 10
50.57335229865092
 20
484.4738997765484
 30
0.0
 10
50.92589950870516
 20
484.4738997765484
 30
0.0
 10
51.27319208804668
 20
484.4738997765484
 30
0.0
 10
51.59078670320336
 20
484.4738997765484
 30
0.0
 10
51.87987935345281
 20
484.4738997765484
 30
0.0
 10
52.14165482655067
 20
484.4738997765484
 30
0.0
 10
52.40515310255964
 20
484.4738997765484
 30
0.0
 10
52.70837846104601
 20
484.4738997765484
 30
0.0
 10
53.04815734578208
 20
484.4738997765484
 30
0.0
 10
53.4160513974383
 20
484.4738997765484
 30
0.0
 10
53.77402443364418
 20
484.4738997765483
 30
0.0
 10
54.12207306834124
 20
484.4738997765484
 30
0.0
 10
54.43063367198345
 20
484.4738997765483
 30
0.0
 10
54.70217736707231
 20
484.4738997765484
 30
0.0
 10
54.93890839988349
 20
484.4738997765483
 30
0.0
 10
55.16898829791531
 20
484.4738997765483
 30
0.0
 10
55.39241853442859
 20
484.4738997765484
 30
0.0
 10
55.60919841863996
 20
484.4738997765483
 30
0.0
 10
55.81932749705246
 20
484.4738997765483
 30
0.0
 10
56.02280672299606
 20
484.4738997765484
 30
0.0
 10
56.23048314757192
 20
484.4738997765483
 30
0.0
 10
56.44057529589699
 20
484.4738997765483
 30
0.0
 10
56.65107549432872
 20
484.4738997765483
 30
0.0
 10
56.85116656712744
 20
484.4738997765483
 30
0.0
 10
57.04084883958885
 20
484.4738997765483
 30
0.0
 10
57.2201212722813
 20
484.4738997765483
 30
0.0
 10
57.38898504098108
 20
484.4738997765483
 30
0.0
 10
57.55610667793273
 20
484.4738997765483
 30
0.0
 10
57.71900673351313
 20
484.4738997765483
 30
0.0
 10
57.87486756535395
 20
484.4738997765483
 30
0.0
 10
58.01530086535536
 20
484.4738997765483
 30
0.0
 10
58.14030674096146
 20
484.4738997765483
 30
0.0
 10
58.24988516884358
 20
484.4738997765483
 30
0.0
 10
58.33890438525511
 20
484.4738997765483
 30
0.0
 10
58.41005814390785
 20
484.4738997765483
 30
0.0
 10
58.46575984900063
 20
484.4738997765483
 30
0.0
 10
58.51013121904966
 20
484.4738997765483
 30
0.0
 10
58.54339477808265
 20
484.4738997765482
 30
0.0
 10
58.56472355728429
 20
484.4738997765483
 30
0.0
 10
58.57488073928604
 20
484.4738997765483
 30
0.0
 10
58.5738177271348
 20
484.4738997765483
 30
0.0
 10
58.5734914414768
 20
484.4738997765483
 30
0.0
  0
SPLINE
  5
101
330
1F
100
AcDbEntity
  8
0
  6
Continuous
 62
     7
370
    30
100
AcDbSpline
210
0.0
220
0.0
230
1.0
 70
    24
 71
     3
 72
    23
 73
    19
 74
     0
 42
0.000000001
 43
0.00000001
 40
0.0
 40
0.0
 40
0.0
 40
0.0
 40
0.0410478603222186
 40
0.0927648147894487
 40
0.1443971222574794
 40
0.1959659312187792
 40
0.2474924683526408
 40
0.2989980126021111
 40
0.3505038689290105
 40
0.4112361712694799
 40
0.4720333250554148
 40
0.5329300448818666
 40
0.5904878208677823
 40
0.6724297378882768
 40
0.7542667093601162
 40
0.8360839360099545
 40
0.9179666801991745
 40
0.9999999999999999
 40
0.9999999999999999
 40
0.9999999999999999
 40
0.9999999999999999
 10
31.47622849489409
 20
484.4738997765483
 30
0.0
 10
31.47600878071036
 20
484.4738997765483
 30
0.0
 10
31.47551224458386
 20
484.4738997765483
 30
0.0
 10
31.48312282200641
 20
484.4738997765483
 30
0.0
 10
31.49563902560651
 20
484.4738997765483
 30
0.0
 10
31.51402170050191
 20
484.4738997765483
 30
0.0
 10
31.53786215035473
 20
484.4738997765483
 30
0.0
 10
31.56726975905591
 20
484.4738997765483
 30
0.0
 10
31.60429650200733
 20
484.4738997765483
 30
0.0
 10
31.65016848290567
 20
484.4738997765483
 30
0.0
 10
31.70617909773562
 20
484.4738997765483
 30
0.0
 10
31.76868304866035
 20
484.4738997765483
 30
0.0
 10
31.84658944709443
 20
484.4738997765483
 30
0.0
 10
31.94310402708136
 20
484.4738997765483
 30
0.0
 10
32.06370631820268
 20
484.4738997765483
 30
0.0
 10
32.19799584147662
 20
484.4738997765483
 30
0.0
 10
32.34479926010117
 20
484.4738997765483
 30
0.0
 10
32.45379656383526
 20
484.4738997765483
 30
0.0
 10
32.50834527893367
 20
484.4738997765483
 30
0.0
  0
LINE
  5
102
330
1F
100
AcDbEntity
  8
0
  6
Continuous
 62
     7
370
    30
100
AcDbLine
 10
31.4248599682
 20
491.9738997765
 30
0.0
 11
58.6248599682
 21
491.9738997765
 31
0.0
  0
SPLINE
  5
103
330
1F
100
AcDbEntity
  8
0
  6
Continuous
 62
     7
370
    30
100
AcDbSpline
210
0.0
220
0.0
230
1.0
 70
     8
 71
     3
 72
    70
 73
    66
 74
     0
 42
0.000000001
 43
0.00000001
 40
0.0
 40
0.0
 40
0.0
 40
0.0
 40
0.0163886097181516
 40
0.0284182868229474
 40
0.0404479878876606
 40
0.0525713003279159
 40
0.0646946561773109
 40
0.0873816200503676
 40
0.1102180217385657
 40
0.1335096896908326
 40
0.1569516305870898
 40
0.1807344462935562
 40
0.2046637586208434
 40
0.2290343186689701
 40
0.253549115844016
 40
0.2794301506055274
 40
0.3054708984668804
 40
0.3319980770245669
 40
0.3586868939339355
 40
0.3726525420967567
 40
0.3866182231739735
 40
0.4006744227122787
 40
0.4147306461134199
 40
0.4290683791887767
 40
0.4434061291493255
 40
0.4578396994588635
 40
0.4722732794002795
 40
0.4868135832477013
 40
0.5013538900837167
 40
0.5159934540623582
 40
0.5306330142946399
 40
0.5455860145750975
 40
0.5605390027620194
 40
0.5756007312001608
 40
0.5906624374040224
 40
0.6053006180140009
 40
0.619938768229126
 40
0.6346812856346737
 40
0.649423758614816
 40
0.6645019378704781
 40
0.6795800510032551
 40
0.6947777568600568
 40
0.7099753732131642
 40
0.724242055958151
 40
0.7385086514624949
 40
0.7528841717135293
 40
0.7672595836207509
 40
0.7819946589221469
 40
0.79672959499508
 40
0.8115970456312636
 40
0.8264643349972417
 40
0.8397180209393851
 40
0.8529715989495612
 40
0.8663321960175437
 40
0.8796926815093926
 40
0.893407887702831
 40
0.9071229781849707
 40
0.920968453264769
 40
0.9348138269977075
 40
0.9468080687851458
 40
0.9588022685669163
 40
0.9708888276915191
 40
0.9829753618370443
 40
0.9953576276860965
 40
1.0
 40
1.0
 40
1.0
 40
1.0
 10
324.9266419438968
 20
527.9741966174545
 30
0.0
 10
324.9266396346447
 20
527.9741963673237
 30
0.0
 10
324.9266356303399
 20
527.9741959335901
 30
0.0
 10
324.9365904977842
 20
527.9758523194279
 30
0.0
 10
324.9490466524322
 20
527.9779163028978
 30
0.0
 10
324.9661494040886
 20
527.9807371124522
 30
0.0
 10
324.9938130246962
 20
527.9852684933877
 30
0.0
 10
325.0376091540313
 20
527.9923659522603
 30
0.0
 10
325.1045945098444
 20
528.0029965367581
 30
0.0
 10
325.1867246304137
 20
528.0156829465631
 30
0.0
 10
325.2839580458398
 20
528.0302035191037
 30
0.0
 10
325.3954409175101
 20
528.0461840207043
 30
0.0
 10
325.5210898949268
 20
528.063334836294
 30
0.0
 10
325.6599954161442
 20
528.0812275430728
 30
0.0
 10
325.8139865526559
 20
528.099752304243
 30
0.0
 10
325.9822604209746
 20
528.1184021064398
 30
0.0
 10
326.1651652636866
 20
528.1367577803492
 30
0.0
 10
326.3591126877815
 20
528.154040349039
 30
0.0
 10
326.5302969520836
 20
528.1672432759103
 30
0.0
 10
326.6729574336543
 20
528.1768730143938
 30
0.0
 10
326.7843050178784
 20
528.1836475802871
 30
0.0
 10
326.8973932008782
 20
528.1897562568364
 30
0.0
 10
327.0128098826089
 20
528.195192513181
 30
0.0
 10
327.1301541079766
 20
528.1998854935342
 30
0.0
 10
327.2495165376369
 20
528.2037971544587
 30
0.0
 10
327.3699342645316
 20
528.2068586873709
 30
0.0
 10
327.4915079944024
 20
528.2090518026455
 30
0.0
 10
327.6137731473681
 20
528.2103420676149
 30
0.0
 10
327.7368044211591
 20
528.2107180985454
 30
0.0
 10
327.8600954325075
 20
528.2101618804062
 30
0.0
 10
327.9843148685268
 20
528.2086643019347
 30
0.0
 10
328.1089612257815
 20
528.2062091146062
 30
0.0
 10
328.2341013590826
 20
528.2027883178062
 30
0.0
 10
328.3586238602236
 20
528.1984318582228
 30
0.0
 10
328.4811342791542
 20
528.1932196121014
 30
0.0
 10
328.6011430173576
 20
528.1872255314142
 30
0.0
 10
328.7187663848625
 20
528.180508708814
 30
0.0
 10
328.8349203535839
 20
528.1730506601592
 30
0.0
 10
328.9502460416401
 20
528.1648430823494
 30
0.0
 10
329.0641875783546
 20
528.1559444763133
 30
0.0
 10
329.1767529825924
 20
528.1463875953441
 30
0.0
 10
329.2868218349284
 20
528.1363071381279
 30
0.0
 10
329.3919413000443
 20
528.1259992523453
 30
0.0
 10
329.4917972460538
 20
528.1155989156703
 30
0.0
 10
329.5866605690808
 20
528.1051796569669
 30
0.0
 10
329.6784114699871
 20
528.0945961677704
 30
0.0
 10
329.7675524986678
 20
528.083842280728
 30
0.0
 10
329.8535145747108
 20
528.0730301772395
 30
0.0
 10
329.9362099876217
 20
528.0622219305071
 30
0.0
 10
330.0146398136127
 20
528.0516035525893
 30
0.0
 10
330.0858600684821
 20
528.0416472384084
 30
0.0
 10
330.1499978108225
 20
528.0324322681223
 30
0.0
 10
330.2076451780482
 20
528.0239524727393
 30
0.0
 10
330.2610876051278
 20
528.015921256651
 30
0.0
 10
330.310572894802
 20
528.0083393303611
 30
0.0
 10
330.3556428599296
 20
528.0013127098201
 30
0.0
 10
330.3961392494543
 20
527.9948997371418
 30
0.0
 10
330.4314488806568
 20
527.9892329234366
 30
0.0
 10
330.4600646840097
 20
527.9845866554202
 30
0.0
 10
330.4825857248672
 20
527.9808989046874
 30
0.0
 10
330.4997732585128
 20
527.9780651900165
 30
0.0
 10
330.5127222801593
 20
527.9759198643502
 30
0.0
 10
330.5210638609641
 20
527.9745322906408
 30
0.0
 10
330.5249764146079
 20
527.9738805953157
 30
0.0
 10
330.5244531088337
 20
527.9739677019734
 30
0.0
 10
330.5243104109264
 20
527.9739914546977
 30
0.0
  0
LINE
  5
104
330
1F
100
AcDbEntity
  8
0
  6
Continuous
 62
   252
370
     0
100
AcDbLine
 10
355.0805624063
 20
626.9738997765
 30
0.0
 11
355.0805624063
 21
457.1840303648
 31
0.0
  0
LINE
  5
105
330
1F
100
AcDbEntity
  8
0
  6
Continuous
 62
   252
370
     0
100
AcDbLine
 10
345.3535139494
 20
626.7191880485
 30
0.0
 11
345.3535139494
 21
457.2286115046
 31
0.0
  0
LINE
  5
106
330
1F
100
AcDbEntity
  8
0
  6
Continuous
 62
   252
370
     0
100
AcDbLine
 10
343.407785536
 20
624.8074352567
 30
0.0
 11
343.407785536
 21
459.140364259
 31
0.0
  0
LINE
  5
107
330
1F
100
AcDbEntity
  8
0
  6
Continuous
 62
   252
370
     0
100
AcDbLine
 10
58.7748599682
 20
491.7738997765
 30
0.0
 11
31.2748599682
 21
491.7738997765
 31
0.0
  0
LINE
  5
108
330
1F
100
AcDbEntity
  8
0
  6
Continuous
 62
   252
370
     0
100
AcDbLine
 10
32.3235996747
 20
484.6738997765
 30
0.0
 11
58.7748599682
 21
484.6738997765
 31
0.0
  0
LINE
  5
109
330
1F
100
AcDbEntity
  8
0
  6
Continuous
 62
   252
370
     0
100
AcDbLine
 10
31.2748599682
 20
484.6738997765
 30
0.0
 11
32.3235996747
 21
484.6738997765
 31
0.0
  0
LINE
  5
10A
330
1F
100
AcDbEntity
  8
0
  6
Continuous
 62
   252
370
     0
100
AcDbLine
 10
31.0248599682
 20
492.3738997765
 30
0.0
 11
59.0248599682
 21
492.3738997765
 31
0.0
  0
LINE
  5
10B
330
1F
100
AcDbEntity
  8
0
  6
Continuous
 62
   252
370
     0
100
AcDbLine
 10
31.0248599682
 20
500.9738997765
 30
0.0
 11
59.0248599682
 21
500.9738997765
 31
0.0
  0
LINE
  5
10C
330
1F
100
AcDbEntity
  8
0
  6
Continuous
 62
   252
370
     0
100
AcDbLine
 10
86.0248599682
 20
555.9738997765
 30
0.0
 11
86.0248599682
 21
527.9738997765
 31
0.0
  0
ARC
  5
10D
330
1F
100
AcDbEntity
  8
0
  6
Continuous
 62
     7
370
    30
100
AcDbCircle
 10
559.4747554938
 20
402.0936508805
 30
0.0
 40
0.5000000000000734
100
AcDbArc
 50
90.0
 51
181.5
  0
ARC
  5
10E
330
1F
100
AcDbEntity
  8
0
  6
Continuous
 62
     7
370
    30
100
AcDbCircle
 10
728.4750981688
 20
402.0936508805
 30
0.0
 40
0.5
100
AcDbArc
 50
358.5
 51
90.0
  0
LINE
  5
10F
330
1F
100
AcDbEntity
  8
0
  6
Continuous
 62
     7
370
    30
100
AcDbLine
 10
558.9749268316
 20
402.0805624063
 30
0.0
 11
559.2296385593
 21
392.3535139494
 31
0.0
  0
LINE
  5
110
330
1F
100
AcDbEntity
  8
0
  6
Continuous
 62
     7
370
    30
100
AcDbLine
 10
728.7202151032
 20
392.3535139494
 30
0.0
 11
728.9749268309
 21
402.0805624063
 31
0.0
  0
ARC
  5
111
330
1F
100
AcDbEntity
  8
0
  6
Continuous
 62
     7
370
    30
100
AcDbCircle
 10
561.2289532092
 20
392.4058678461
 30
0.0
 40
1.999999999999991
100
AcDbArc
 50
181.499999986
 51
267.4907349552
  0
ARC
  5
112
330
1F
100
AcDbEntity
  8
0
  6
Continuous
 62
     7
370
    30
100
AcDbCircle
 10
726.7209004533
 20
392.4058678461
 30
0.0
 40
1.999999999999986
100
AcDbArc
 50
272.5092650448
 51
358.5000000141
  0
ARC
  5
113
330
1F
100
AcDbEntity
  8
0
  6
Continuous
 62
     7
370
    30
100
AcDbCircle
 10
643.9749268313
 20
2280.5936508405
 30
0.0
 40
1892.0
100
AcDbArc
 50
267.4907349552
 51
269.5730031875
  0
ARC
  5
114
330
1F
100
AcDbEntity
  8
0
  6
Continuous
 62
     7
370
    30
100
AcDbCircle
 10
643.9749268313
 20
2280.5936508405
 30
0.0
 40
1892.0
100
AcDbArc
 50
270.4269968125
 51
272.5092650448
  0
LINE
  5
115
330
1F
100
AcDbEntity
  8
0
  6
Continuous
 62
     7
370
    30
100
AcDbLine
 10
724.9749268312
 20
402.5936508805
 30
0.0
 11
724.9749268312
 21
402.9436508805
 31
0.0
  0
LINE
  5
116
330
1F
100
AcDbEntity
  8
0
  6
Continuous
 62
     7
370
    30
100
AcDbLine
 10
562.9749268313
 20
402.9436508805
 30
0.0
 11
562.9749268313
 21
402.5936508805
 31
0.0
  0
LINE
  5
117
330
1F
100
AcDbEntity
  8
0
  6
Continuous
 62
     7
370
    30
100
AcDbLine
 10
629.9749268313
 20
388.6461912106
 30
0.0
 11
629.9749268313
 21
133.0248599682
 31
0.0
  0
LINE
  5
118
330
1F
100
AcDbEntity
  8
0
  6
Continuous
 62
     7
370
    30
100
AcDbLine
 10
657.9749268313
 20
133.0248599682
 30
0.0
 11
657.9749268313
 21
388.6461912106
 31
0.0
  0
LINE
  5
119
330
1F
100
AcDbEntity
  8
0
  6
Continuous
 62
     7
370
    30
100
AcDbLine
 10
629.9749268313
 20
133.0248599682
 30
0.0
 11
629.9749268313
 21
92.0248599682
 31
0.0
  0
LINE
  5
11A
330
1F
100
AcDbEntity
  8
0
  6
Continuous
 62
     7
370
    30
100
AcDbLine
 10
657.9749268313
 20
92.0248599682
 30
0.0
 11
657.9749268313
 21
133.0248599682
 31
0.0
  0
LINE
  5
11B
330
1F
100
AcDbEntity
  8
0
  6
Continuous
 62
     7
370
    30
100
AcDbLine
 10
559.4747554938
 20
402.5936508805
 30
0.0
 11
728.4750981688
 21
402.5936508805
 31
0.0
  0
LINE
  5
11C
330
1F
100
AcDbEntity
  8
0
  6
Continuous
 62
     7
370
    30
100
AcDbLine
 10
643.9749268313
 20
388.6461912106
 30
0.0
 11
629.8749268313
 21
388.6461912106
 31
0.0
  0
LINE
  5
11D
330
1F
100
AcDbEntity
  8
0
  6
Continuous
 62
     7
370
    30
100
AcDbLine
 10
658.0749268312
 20
388.6461912106
 30
0.0
 11
643.9749268313
 21
388.6461912106
 31
0.0
  0
LINE
  5
11E
330
1F
100
AcDbEntity
  8
0
  6
Continuous
 62
     7
370
    30
100
AcDbLine
 10
724.9749268312
 20
402.9436508805
 30
0.0
 11
562.9749268313
 21
402.9436508805
 31
0.0
  0
ARC
  5
11F
330
1F
100
AcDbEntity
  8
0
  6
Continuous
 62
     7
370
    30
100
AcDbCircle
 10
643.9749268313
 20
92.0248599682
 30
0.0
 40
14.00000000000001
100
AcDbArc
 50
270.0
 51
0.0
  0
ARC
  5
120
330
1F
100
AcDbEntity
  8
0
  6
Continuous
 62
     7
370
    30
100
AcDbCircle
 10
643.9749268313
 20
92.0248599682
 30
0.0
 40
14.00000000000001
100
AcDbArc
 50
180.0
 51
270.0
  0
LINE
  5
121
330
1F
100
AcDbEntity
  8
0
  6
Continuous
 62
   252
370
     0
100
AcDbLine
 10
558.9749268312
 20
402.0805624063
 30
0.0
 11
728.9749268312
 21
402.0805624063
 31
0.0
  0
LINE
  5
122
330
1F
100
AcDbEntity
  8
0
  6
Continuous
 62
   252
370
     0
100
AcDbLine
 10
559.2296385593
 20
392.3535139494
 30
0.0
 11
728.7202151032
 21
392.3535139494
 31
0.0
  0
LINE
  5
123
330
1F
100
AcDbEntity
  8
0
  6
Continuous
 62
   252
370
     0
100
AcDbLine
 10
643.9749268313
 20
390.407785536
 30
0.0
 11
726.8084623301
 21
390.407785536
 31
0.0
  0
LINE
  5
124
330
1F
100
AcDbEntity
  8
0
  6
Continuous
 62
   252
370
     0
100
AcDbLine
 10
561.1413913324
 20
390.407785536
 30
0.0
 11
643.9749268313
 21
390.407785536
 31
0.0
  0
LINE
  5
125
330
1F
100
AcDbEntity
  8
0
  6
Continuous
 62
   252
370
     0
100
AcDbLine
 10
643.9749268313
 20
133.0248599682
 30
0.0
 11
657.9749268313
 21
133.0248599682
 31
0.0
  0
LINE
  5
126
330
1F
100
AcDbEntity
  8
0
  6
Continuous
 62
   252
370
     0
100
AcDbLine
 10
629.9749268313
 20
133.0248599682
 30
0.0
 11
643.9749268313
 21
133.0248599682
 31
0.0
  0
SPLINE
  5
127
330
1F
100
AcDbEntity
  8
0
  6
Continuous
 62
     7
370
    30
100
AcDbSpline
210
0.0
220
0.0
230
1.0
 70
     8
 71
     3
 72
   172
 73
   168
 74
     0
 42
0.000000001
 43
0.00000001
 40
0.0
 40
0.0
 40
0.0
 40
0.0
 40
0.0018634301416467
 40
0.0078481667521895
 40
0.013833354982763
 40
0.0198191690055569
 40
0.0258057808563519
 40
0.0317933598727808
 40
0.0377820721475008
 40
0.0437720799991429
 40
0.0497635414639806
 40
0.0557566098107787
 40
0.061751433081296
 40
0.0677481536588984
 40
0.0737469078672707
 40
0.0797478256009503
 40
0.0857510299895493
 40
0.0917566370970301
 40
0.097764755657066
 40
0.1037754868454782
 40
0.1097889240904519
 40
0.1158051529206679
 40
0.1218242508517629
 40
0.1278462873107662
 40
0.1338713235980256
 40
0.1398994128861904
 40
0.1459306002551364
 40
0.1519649227616534
 40
0.1580024095428184
 40
0.1640430819509106
 40
0.1700869537188631
 40
0.17613403115364
 40
0.1821843133558041
 40
0.1882377924631387
 40
0.1942944539157561
 40
0.2003542767407106
 40
0.2064172338533319
 40
0.2124832923730173
 40
0.2185524139511299
 40
0.2246245551084153
 40
0.2306996675796471
 40
0.236777698663121
 40
0.2428585915728865
 40
0.2489422857913962
 40
0.255028717420733
 40
0.2611178195303565
 40
0.2672095224996284
 40
0.2733037543536101
 40
0.2794004410905082
 40
0.2854995069994438
 40
0.2916008749675525
 40
0.2977044667750584
 40
0.3038102033779139
 40
0.3099180051768394
 40
0.3160277922725661
 40
0.322139484706535
 40
0.3282530026869632
 40
0.3343682668000727
 40
0.3404851982064788
 40
0.3466037188224574
 40
0.3527237514868032
 40
0.358845220112916
 40
0.364968049826945
 40
0.371092167091951
 40
0.3772174998189028
 40
0.38334397746455
 40
0.3894715311172497
 40
0.3956000935708265
 40
0.4017295993872573
 40
0.40785998494882
 40
0.4139911885003622
 40
0.4201231501819681
 40
0.4262558120531885
 40
0.4323891181089696
 40
0.4385230142882456
 40
0.4446574484753997
 40
0.4507923704956077
 40
0.456927732104411
 40
0.4630634869718649
 40
0.4691995906622355
 40
0.4753360006093014
 40
0.4814726760879143
 40
0.4876095781824996
 40
0.4937466697523163
 40
0.4998839153944001
 40
0.5060212814045434
 40
0.5121587357361467
 40
0.5182962479578977
 40
0.5244337892100635
 40
0.5305713249336966
 40
0.5367088282050198
 40
0.5428462750797544
 40
0.5489836429888347
 40
0.5551209106925192
 40
0.5612580582348059
 40
0.5673950668980262
 40
0.5735319191579057
 40
0.579668598639312
 40
0.5858050900725114
 40
0.5919413792502053
 40
0.5980774529854647
 40
0.604213299070604
 40
0.6103489062367397
 40
0.6164842641146165
 40
0.6226193631963116
 40
0.6287541947980165
 40
0.634888751023945
 40
0.6410230247311444
 40
0.6471570094956761
 40
0.6532906995796676
 40
0.6594240898995962
 40
0.6655571759955611
 40
0.6716899540017147
 40
0.6778224206177598
 40
0.6839545730814861
 40
0.6900864091423261
 40
0.6962179270360186
 40
0.7023491254601474
 40
0.7084800035508029
 40
0.7146105608600748
 40
0.7207407973345362
 40
0.7268707132947054
 40
0.7330003094152377
 40
0.7391295867060919
 40
0.7452585464944831
 40
0.7513871904077049
 40
0.7575155203566043
 40
0.7636435385199012
 40
0.7697712473292723
 40
0.7758986494550143
 40
0.7820257477924653
 40
0.7881525454491298
 40
0.7942790457322647
 40
0.8004052521372198
 40
0.8065311683362951
 40
0.812656798168172
 40
0.818782145627834
 40
0.824907214857091
 40
0.8310320101354831
 40
0.8371565358717746
 40
0.8432807965956942
 40
0.8494047969504896
 40
0.8555285416853763
 40
0.8616520356488282
 40
0.8677752837820343
 40
0.8738982911127161
 40
0.880021062749331
 40
0.8861436038757071
 40
0.8922659197456562
 40
0.8983880156783403
 40
0.9045098970535358
 40
0.9106315693073805
 40
0.9167530379283474
 40
0.9228743084533784
 40
0.9289953864643805
 40
0.9351162775847671
 40
0.941236987476451
 40
0.9473575218367797
 40
0.9534778863958527
 40
0.9595980869139746
 40
0.9657181291791596
 40
0.9718380190050113
 40
0.9779577622284819
 40
0.9840773647080956
 40
0.9901968323220643
 40
0.9963161709665633
 40
1.0
 40
1.0
 40
1.0
 40
1.0
 10
1031.098289342885
 20
333.868602475016
 30
0.0
 10
1031.061122370138
 20
333.8455338067743
 30
0.0
 10
1030.90458706824
 20
333.7483760163826
 30
0.0
 10
1030.631808071375
 20
333.5719013984495
 30
0.0
 10
1030.28003278421
 20
333.339110769973
 30
0.0
 10
1029.931601966503
 20
333.1008250505137
 30
0.0
 10
1029.586254533602
 20
332.8575316146497
 30
0.0
 10
1029.244088377776
 20
332.6091179447578
 30
0.0
 10
1028.905105209266
 20
332.3556324959152
 30
0.0
 10
1028.569332554657
 20
332.0970808103386
 30
0.0
 10
1028.236791073514
 20
331.83348018849
 30
0.0
 10
1027.907503329418
 20
331.5648450646863
 30
0.0
 10
1027.581491447731
 20
331.2911909565729
 30
0.0
 10
1027.25877774959
 20
331.0125334368612
 30
0.0
 10
1026.939384585567
 20
330.7288884398031
 30
0.0
 10
1026.623334381311
 20
330.4402722101077
 30
0.0
 10
1026.310649623796
 20
330.1467013476856
 30
0.0
 10
1026.001352860974
 20
329.8481928264337
 30
0.0
 10
1025.695466695351
 20
329.5447640194676
 30
0.0
 10
1025.393013776797
 20
329.2364327218774
 30
0.0
 10
1025.094016793243
 20
328.9232171731746
 30
0.0
 10
1024.798498459743
 20
328.6051360786278
 30
0.0
 10
1024.506481505886
 20
328.2822086295047
 30
0.0
 10
1024.217988661719
 20
327.9544545220238
 30
0.0
 10
1023.933042642273
 20
327.6218939748988
 30
0.0
 10
1023.651666130847
 20
327.2845477453542
 30
0.0
 10
1023.373881761174
 20
326.9424371435104
 30
0.0
 10
1023.099712098627
 20
326.5955840450501
 30
0.0
 10
1022.829179620612
 20
326.244010902104
 30
0.0
 10
1022.562306696295
 20
325.887740752295
 30
0.0
 10
1022.299115565836
 20
325.5267972259148
 30
0.0
 10
1022.039628319267
 20
325.1612045512099
 30
0.0
 10
1021.783866875175
 20
324.7909875577828
 30
0.0
 10
1021.531852959353
 20
324.4161716781223
 30
0.0
 10
1021.283608083542
 20
324.0367829472939
 30
0.0
 10
1021.039153524418
 20
323.6528480008423
 30
0.0
 10
1020.798510302962
 20
323.2643940709648
 30
0.0
 10
1020.561699164323
 20
322.8714489810322
 30
0.0
 10
1020.328740558301
 20
322.4740411385405
 30
0.0
 10
1020.099654620551
 20
322.0721995265911
 30
0.0
 10
1019.874461154602
 20
321.6659536940042
 30
0.0
 10
1019.653179614778
 20
321.2553337441764
 30
0.0
 10
1019.435829090091
 20
320.8403703228017
 30
0.0
 10
1019.222428289163
 20
320.4210946045727
 30
0.0
 10
1019.012995526239
 20
319.997538278991
 30
0.0
 10
1018.807548708308
 20
319.5697335354081
 30
0.0
 10
1018.606105323379
 20
319.1377130474238
 30
0.0
 10
1018.408682429912
 20
318.7015099567618
 30
0.0
 10
1018.215296647418
 20
318.2611578567458
 30
0.0
 10
1018.025964148222
 20
317.8166907754897
 30
0.0
 10
1017.84070065037
 20
317.368143158918
 30
0.0
 10
1017.659521411668
 20
316.9155498537148
 30
0.0
 10
1017.48244122481
 20
316.4589460903094
 30
0.0
 10
1017.309474413576
 20
315.9983674659811
 30
0.0
 10
1017.140634830042
 20
315.5338499281791
 30
0.0
 10
1016.975935852765
 20
315.0654297581283
 30
0.0
 10
1016.815390385891
 20
314.5931435547947
 30
0.0
 10
1016.659010859122
 20
314.1170282192662
 30
0.0
 10
1016.506809228506
 20
313.6371209396102
 30
0.0
 10
1016.358796977963
 20
313.1534591762484
 30
0.0
 10
1016.214985121515
 20
312.6660806478956
 30
0.0
 10
1016.075384206135
 20
312.1750233180816
 30
0.0
 10
1015.940004315183
 20
311.6803253822939
 30
0.0
 10
1015.808855072334
 20
311.1820252557471
 30
0.0
 10
1015.681945645975
 20
310.6801615618031
 30
0.0
 10
1015.559284753988
 20
310.1747731210343
 30
0.0
 10
1015.440880668881
 20
309.6658989409442
 30
0.0
 10
1015.326741223204
 20
309.1535782063293
 30
0.0
 10
1015.216873815207
 20
308.6378502702854
 30
0.0
 10
1015.111285414685
 20
308.1187546458349
 30
0.0
 10
1015.009982568977
 20
307.5963309981694
 30
0.0
 10
1014.912971409064
 20
307.0706191374812
 30
0.0
 10
1014.820257655737
 20
306.5416590123715
 30
0.0
 10
1014.731846625797
 20
306.0094907038
 30
0.0
 10
1014.647743238251
 20
305.4741544195668
 30
0.0
 10
1014.567952020483
 20
304.9356904892884
 30
0.0
 10
1014.492477114362
 20
304.394139359846
 30
0.0
 10
1014.421322282273
 20
303.8495415912792
 30
0.0
 10
1014.354490913042
 20
303.3019378530933
 30
0.0
 10
1014.291986027748
 20
302.7513689209605
 30
0.0
 10
1014.23381028539
 20
302.1978756737787
 30
0.0
 10
1014.179965988409
 20
301.6414990910625
 30
0.0
 10
1014.130455088051
 20
301.082280250644
 30
0.0
 10
1014.085279189554
 20
300.5202603266521
 30
0.0
 10
1014.04443955716
 20
299.9554805877472
 30
0.0
 10
1014.007937118944
 20
299.3879823955863
 30
0.0
 10
1013.975772471455
 20
298.8178072034907
 30
0.0
 10
1013.947945884166
 20
298.2449965553069
 30
0.0
 10
1013.924457312954
 20
297.669592310245
 30
0.0
 10
1013.905306388402
 20
297.0916364544129
 30
0.0
 10
1013.890492417052
 20
296.5111710520271
 30
0.0
 10
1013.88001438416
 20
295.9282380145046
 30
0.0
 10
1013.873870967036
 20
295.3428792915743
 30
0.0
 10
1013.872060539937
 20
294.7551369197897
 30
0.0
 10
1013.874581177164
 20
294.1650530221751
 30
0.0
 10
1013.881430655981
 20
293.5726698079076
 30
0.0
 10
1013.892606459372
 20
292.9780295720231
 30
0.0
 10
1013.908105778635
 20
292.3811746951341
 30
0.0
 10
1013.92792551582
 20
291.7821476431498
 30
0.0
 10
1013.952062286022
 20
291.1809909669888
 30
0.0
 10
1013.980512419527
 20
290.577747302272
 30
0.0
 10
1014.01327196383
 20
289.9724593689933
 30
0.0
 10
1014.050336685514
 20
289.3651699711576
 30
0.0
 10
1014.091702072015
 20
288.7559219963851
 30
0.0
 10
1014.137363333272
 20
288.1447584154663
 30
0.0
 10
1014.187315403258
 20
287.531722281871
 30
0.0
 10
1014.241552941423
 20
286.9168567312087
 30
0.0
 10
1014.300070334026
 20
286.3002049806275
 30
0.0
 10
1014.362861695393
 20
285.681810328158
 30
0.0
 10
1014.429920869075
 20
285.0617161519904
 30
0.0
 10
1014.50124142894
 20
284.4399659096927
 30
0.0
 10
1014.576816680193
 20
283.8166031373603
 30
0.0
 10
1014.656639660315
 20
283.1916714486997
 30
0.0
 10
1014.740703139963
 20
282.5652145340418
 30
0.0
 10
1014.828999623796
 20
281.9372761592888
 30
0.0
 10
1014.92152135126
 20
281.307900164789
 30
0.0
 10
1015.018260297319
 20
280.6771304641455
 30
0.0
 10
1015.119208173158
 20
280.0450110429521
 30
0.0
 10
1015.22435642683
 20
279.4115859574628
 30
0.0
 10
1015.333696243888
 20
278.776899333192
 30
0.0
 10
1015.447218547978
 20
278.1409953634458
 30
0.0
 10
1015.564914001405
 20
277.5039183077874
 30
0.0
 10
1015.686773005689
 20
276.8657124904354
 30
0.0
 10
1015.812785702089
 20
276.2264222986009
 30
0.0
 10
1015.942941972122
 20
275.5860921807546
 30
0.0
 10
1016.077231438065
 20
274.9447666448371
 30
0.0
 10
1016.215643463451
 20
274.302490256406
 30
0.0
 10
1016.358167153555
 20
273.6593076367236
 30
0.0
 10
1016.504791355884
 20
273.0152634607875
 30
0.0
 10
1016.655504660652
 20
272.3704024553025
 30
0.0
 10
1016.810295401274
 20
271.7247693966
 30
0.0
 10
1016.969151654846
 20
271.078409108503
 30
0.0
 10
1017.132061242643
 20
270.4313664601395
 30
0.0
 10
1017.299011730615
 20
269.7836863637076
 30
0.0
 10
1017.469990429898
 20
269.1354137721896
 30
0.0
 10
1017.644984397329
 20
268.4865936770216
 30
0.0
 10
1017.823980435981
 20
267.8372711057162
 30
0.0
 10
1018.006965095706
 20
267.1874911194448
 30
0.0
 10
1018.193924673688
 20
266.5372988105731
 30
0.0
 10
1018.384845215025
 20
265.8867393001648
 30
0.0
 10
1018.579712513311
 20
265.2358577354358
 30
0.0
 10
1018.778512111253
 20
264.5846992871837
 30
0.0
 10
1018.981229301292
 20
263.9333091471701
 30
0.0
 10
1019.187849126252
 20
263.2817325254806
 30
0.0
 10
1019.398356380009
 20
262.6300146478426
 30
0.0
 10
1019.612735608177
 20
261.9782007529196
 30
0.0
 10
1019.830971108819
 20
261.3263360895698
 30
0.0
 10
1020.053046933181
 20
260.6744659140846
 30
0.0
 10
1020.278946886446
 20
260.0226354873927
 30
0.0
 10
1020.508654528511
 20
259.3708900722474
 30
0.0
 10
1020.742153174798
 20
258.7192749303827
 30
0.0
 10
1020.979425897064
 20
258.0678353196492
 30
0.0
 10
1021.220455524296
 20
257.4166164911406
 30
0.0
 10
1021.465224643431
 20
256.7656636862487
 30
0.0
 10
1021.713715600851
 20
256.1150221338922
 30
0.0
 10
1021.965910501085
 20
255.464737047023
 30
0.0
 10
1022.221791216058
 20
254.8148536217302
 30
0.0
 10
1022.481339355114
 20
254.1654170265913
 30
0.0
 10
1022.744536381543
 20
253.5164724283341
 30
0.0
 10
1023.011363182471
 20
252.8680648819389
 30
0.0
 10
1023.281801678899
 20
252.2202397265721
 30
0.0
 10
1023.555828822206
 20
251.5730410937492
 30
0.0
 10
1023.833439003799
 20
250.9265174604576
 30
0.0
 10
1024.114560429423
 20
250.2807009110021
 30
0.0
 10
1024.399367209186
 20
249.6356845158388
 30
0.0
 10
1024.6489419095
 20
249.076813543963
 30
0.0
 10
1024.805006819119
 20
248.7333156951136
 30
0.0
 10
1024.863652806217
 20
248.6042362597631
 30
0.0
  0
SPLINE
  5
128
330
1F
100
AcDbEntity
  8
0
  6
Continuous
 62
     7
370
    30
100
AcDbSpline
210
0.0
220
0.0
230
1.0
 70
     8
 71
     3
 72
   171
 73
   167
 74
     0
 42
0.000000001
 43
0.00000001
 40
0.0
 40
0.0
 40
0.0
 40
0.0
 40
0.0057357419875822
 40
0.0118540503525967
 40
0.0179724863024297
 40
0.0240910557857048
 40
0.0302097647368089
 40
0.0363286190744445
 40
0.042447624699953
 40
0.0485667874956213
 40
0.0546861133228757
 40
0.0608056080202418
 40
0.0669252774012137
 40
0.0730451272519298
 40
0.0791651633287746
 40
0.085285391355665
 40
0.0914058170212534
 40
0.0975264459759871
 40
0.1036472838287226
 40
0.1097683361434726
 40
0.1158896084356204
 40
0.1220111061680886
 40
0.1281328347471468
 40
0.134254799517992
 40
0.1403770057601158
 40
0.1464994586822544
 40
0.152622163417196
 40
0.1587451250160649
 40
0.1648683484424563
 40
0.1709918385661666
 40
0.1771156001564217
 40
0.183239637875017
 40
0.1893639562687343
 40
0.1954885597614963
 40
0.20161345264614
 40
0.2077386390755758
 40
0.213864123053607
 40
0.21998990842514
 40
0.2261159988659276
 40
0.2322423978717827
 40
0.2383691087472585
 40
0.2444961345935303
 40
0.2506234782959502
 40
0.2567511425108359
 40
0.2628791296514409
 40
0.2690074418735751
 40
0.2751360810601974
 40
0.2812650488053909
 40
0.2873943463976554
 40
0.2935239748022572
 40
0.299653934642824
 40
0.3057842261820914
 40
0.3119148493018056
 40
0.3180458034816961
 40
0.3241770877774642
 40
0.3303087007979862
 40
0.3364406406813217
 40
0.342572905069972
 40
0.3487054910848467
 40
0.3548383952984427
 40
0.3609716137068434
 40
0.3671051417005771
 40
0.373238974034537
 40
0.3793731047966949
 40
0.3855075273758012
 40
0.3916422344277728
 40
0.397777217841256
 40
0.4039124687018335
 40
0.4100479772553171
 40
0.416183732869765
 40
0.4223197239966667
 40
0.4284559381308602
 40
0.4345923617697167
 40
0.4407289803710637
 40
0.4468657783105831
 40
0.4530027388380082
 40
0.4591398440329433
 40
0.4652770747596934
 40
0.4714144106217749
 40
0.4775518299158735
 40
0.4836893095855355
 40
0.4898268251747282
 40
0.4959643461555587
 40
0.502101840297887
 40
0.5082392781477534
 40
0.5143766286533158
 40
0.5205138591206396
 40
0.5266509351710077
 40
0.5327878206997361
 40
0.5389244778367587
 40
0.5450608669095613
 40
0.5511969464086288
 40
0.5573326729559731
 40
0.5634680012769816
 40
0.56960288417615
 40
0.5757372725172959
 40
0.5818711152085536
 40
0.5880043591926699
 40
0.5941369494435047
 40
0.6002688289687487
 40
0.606399938819969
 40
0.612530218110284
 40
0.6186596040404243
 40
0.6247880319336552
 40
0.6309154352804768
 40
0.6370417457933591
 40
0.6431668934724937
 40
0.6492908066828723
 40
0.6554134122435542
 40
0.6615346355295644
 40
0.6676544005867483
 40
0.6737726302605895
 40
0.6798892463388101
 40
0.6860041697086496
 40
0.6921173205288008
 40
0.6982286184163436
 40
0.7043379826487731
 40
0.710445332381215
 40
0.7165505868786238
 40
0.7226536657629374
 40
0.7287544892746037
 40
0.7348529785483533
 40
0.7409490559021669
 40
0.7470426451391253
 40
0.7531336718609111
 40
0.7592220637919672
 40
0.7653077511131444
 40
0.7713906668033811
 40
0.7774707469878281
 40
0.783547931290845
 40
0.7896221631917703
 40
0.7956933903819615
 40
0.8017615651203025
 40
0.8078266445856082
 40
0.8138885912233259
 40
0.8199473730840048
 40
0.8260029641514993
 40
0.83205534465797
 40
0.838104501383511
 40
0.8441504279377728
 40
0.8501931250212417
 40
0.8562326006636101
 40
0.8622688704371216
 40
0.8683019576425489
 40
0.8743318934659915
 40
0.8803587171041534
 40
0.8863824758569836
 40
0.8924032251855077
 40
0.8984210287340775
 40
0.9044359583156807
 40
0.9104480938596204
 40
0.9164575233207667
 40
0.9224643425505518
 40
0.9284686551290868
 40
0.9344705721590579
 40
0.9404702120218641
 40
0.9464677000965794
 40
0.9524631684430845
 40
0.958456755450395
 40
0.9644486054519092
 40
0.9704388683095212
 40
0.9764276989682301
 40
0.9824152569837725
 40
0.9884017060256389
 40
0.9943872133581646
 40
1.0
 40
1.0
 40
1.0
 40
1.0
 10
1038.86223698363
 20
224.3547075812307
 30
0.0
 10
1038.990863991355
 20
224.1753349441307
 30
0.0
 10
1039.256697257493
 20
223.8046257531203
 30
0.0
 10
1039.66281569687
 20
223.2458290522601
 30
0.0
 10
1040.079813189864
 20
222.6775766863376
 30
0.0
 10
1040.499282973582
 20
222.1120735416713
 30
0.0
 10
1040.921125341353
 20
221.5492859029819
 30
0.0
 10
1041.345330139934
 20
220.9892729997471
 30
0.0
 10
1041.771863030152
 20
220.4320689257957
 30
0.0
 10
1042.200695966953
 20
219.8777142767534
 30
0.0
 10
1042.631799034667
 20
219.326247669374
 30
0.0
 10
1043.065142637487
 20
218.7777080109046
 30
0.0
 10
1043.50069691518
 20
218.2321338879183
 30
0.0
 10
1043.93843190233
 20
217.6895637270453
 30
0.0
 10
1044.378317488349
 20
217.1500357489055
 30
0.0
 10
1044.820323430876
 20
216.6135879774898
 30
0.0
 10
1045.264419354868
 20
216.0802582347213
 30
0.0
 10
1045.710574755534
 20
215.5500841390275
 30
0.0
 10
1046.158759000233
 20
215.0231031028736
 30
0.0
 10
1046.608941330644
 20
214.4993523306179
 30
0.0
 10
1047.061090864869
 20
213.9788688163153
 30
0.0
 10
1047.515176599539
 20
213.4616893415807
 30
0.0
 10
1047.971167411915
 20
212.9478504734752
 30
0.0
 10
1048.429032061985
 20
212.4373885624276
 30
0.0
 10
1048.88873919455
 20
211.9303397401895
 30
0.0
 10
1049.350257341301
 20
211.426739917821
 30
0.0
 10
1049.813554922881
 20
210.9266247837157
 30
0.0
 10
1050.278600250944
 20
210.4300298016555
 30
0.0
 10
1050.74536153019
 20
209.9369902089022
 30
0.0
 10
1051.213806860384
 20
209.4475410143238
 30
0.0
 10
1051.68390423837
 20
208.9617169965522
 30
0.0
 10
1052.155621560049
 20
208.4795527021815
 30
0.0
 10
1052.628926622352
 20
208.0010824439965
 30
0.0
 10
1053.103787125172
 20
207.52634029924
 30
0.0
 10
1053.580170673291
 20
207.0553601079126
 30
0.0
 10
1054.058044778267
 20
206.5881754711076
 30
0.0
 10
1054.537376860291
 20
206.1248197493827
 30
0.0
 10
1055.018134250028
 20
205.6653260611645
 30
0.0
 10
1055.500284190404
 20
205.2097272811888
 30
0.0
 10
1055.983793838375
 20
204.7580560389708
 30
0.0
 10
1056.468630266653
 20
204.3103447173141
 30
0.0
 10
1056.954760465383
 20
203.8666254508485
 30
0.0
 10
1057.442151343795
 20
203.4269301246019
 30
0.0
 10
1057.930769731791
 20
202.9912903726024
 30
0.0
 10
1058.420582381504
 20
202.5597375765095
 30
0.0
 10
1058.911555968792
 20
202.1323028642786
 30
0.0
 10
1059.403657094686
 20
201.7090171088478
 30
0.0
 10
1059.89685228678
 20
201.289910926856
 30
0.0
 10
1060.391108000568
 20
200.8750146773826
 30
0.0
 10
1060.886390620712
 20
200.4643584607121
 30
0.0
 10
1061.382666462251
 20
200.0579721171213
 30
0.0
 10
1061.879901771739
 20
199.6558852256829
 30
0.0
 10
1062.378062728324
 20
199.2581271030881
 30
0.0
 10
1062.877115444738
 20
198.8647268024829
 30
0.0
 10
1063.377025968226
 20
198.4757131123159
 30
0.0
 10
1063.877760281387
 20
198.0911145551966
 30
0.0
 10
1064.379284302944
 20
197.7109593867548
 30
0.0
 10
1064.881563888413
 20
197.3352755945081
 30
0.0
 10
1065.384564830706
 20
196.9640908967213
 30
0.0
 10
1065.888252860631
 20
196.5974327412637
 30
0.0
 10
1066.392593647302
 20
196.2353283044535
 30
0.0
 10
1066.897552798457
 20
195.8778044898893
 30
0.0
 10
1067.403095860679
 20
195.5248879272597
 30
0.0
 10
1067.909188319519
 20
195.1766049711252
 30
0.0
 10
1068.415795599513
 20
194.8329816996728
 30
0.0
 10
1068.922883064106
 20
194.4940439134287
 30
0.0
 10
1069.43041601546
 20
194.1598171339295
 30
0.0
 10
1069.938359694171
 20
193.8303266023384
 30
0.0
 10
1070.446679278871
 20
193.5055972780063
 30
0.0
 10
1070.955339885724
 20
193.1856538369634
 30
0.0
 10
1071.464306567824
 20
192.8705206703389
 30
0.0
 10
1071.97354431448
 20
192.560221882693
 30
0.0
 10
1072.483018050399
 20
192.2547812902618
 30
0.0
 10
1072.992692634772
 20
191.9542224190947
 30
0.0
 10
1073.502532860251
 20
191.6585685030854
 30
0.0
 10
1074.012503451841
 20
191.367842481876
 30
0.0
 10
1074.52256906569
 20
191.0820669986333
 30
0.0
 10
1075.032694287796
 20
190.8012643976776
 30
0.0
 10
1075.542843632629
 20
190.5254567219606
 30
0.0
 10
1076.052981541683
 20
190.2546657103747
 30
0.0
 10
1076.563072381958
 20
189.9889127948854
 30
0.0
 10
1077.073080316252
 20
189.7282191629684
 30
0.0
 10
1077.58296929589
 20
189.4726057502465
 30
0.0
 10
1078.092703178835
 20
189.222093170885
 30
0.0
 10
1078.602245855791
 20
188.9767016534491
 30
0.0
 10
1079.111561253802
 20
188.7364510406987
 30
0.0
 10
1079.620613214735
 20
188.5013608454189
 30
0.0
 10
1080.129365493692
 20
188.2714502458874
 30
0.0
 10
1080.637781757469
 20
188.0467380810678
 30
0.0
 10
1081.145825583096
 20
187.827242845519
 30
0.0
 10
1081.653460456471
 20
187.6129826840142
 30
0.0
 10
1082.16064977112
 20
187.4039753858561
 30
0.0
 10
1082.667356827104
 20
187.2002383788879
 30
0.0
 10
1083.173544830103
 20
187.0017887231889
 30
0.0
 10
1083.679176890712
 20
186.8086431044546
 30
0.0
 10
1084.184216023965
 20
186.6208178270545
 30
0.0
 10
1084.688625149148
 20
186.4383288067704
 30
0.0
 10
1085.192367089905
 20
186.2611915632157
 30
0.0
 10
1085.695404574695
 20
186.0894212119393
 30
0.0
 10
1086.197700237629
 20
185.9230324562209
 30
0.0
 10
1086.699216619724
 20
185.7620395785682
 30
0.0
 10
1087.199916170615
 20
185.6064564319268
 30
0.0
 10
1087.699761250775
 20
185.4562964306202
 30
0.0
 10
1088.198714134257
 20
185.31157254104
 30
0.0
 10
1088.696737012031
 20
185.1722972721079
 30
0.0
 10
1089.193791995927
 20
185.0384826655388
 30
0.0
 10
1089.689841123242
 20
184.9101402859363
 30
0.0
 10
1090.184846362033
 20
184.7872812107559
 30
0.0
 10
1090.678769617153
 20
184.6699160201764
 30
0.0
 10
1091.171572737031
 20
184.5580547869263
 30
0.0
 10
1091.663217521264
 20
184.4517070661126
 30
0.0
 10
1092.153665729012
 20
184.3508818851082
 30
0.0
 10
1092.642879088245
 20
184.2555877335546
 30
0.0
 10
1093.130819305846
 20
184.1658325535454
 30
0.0
 10
1093.617448078589
 20
184.0816237300551
 30
0.0
 10
1094.102727104994
 20
184.0029680816871
 30
0.0
 10
1094.58661809806
 20
183.929871851813
 30
0.0
 10
1095.069082798871
 20
183.8623407001829
 30
0.0
 10
1095.550082991061
 20
183.8003796950854
 30
0.0
 10
1096.02958051611
 20
183.7439933061405
 30
0.0
 10
1096.507537289439
 20
183.6931853978078
 30
0.0
 10
1096.983915317271
 20
183.6479592236952
 30
0.0
 10
1097.458676714196
 20
183.6083174217502
 30
0.0
 10
1097.931783721389
 20
183.5742620104173
 30
0.0
 10
1098.403198725409
 20
183.5457943858395
 30
0.0
 10
1098.872884277489
 20
183.5229153201832
 30
0.0
 10
1099.340803113255
 20
183.505624961156
 30
0.0
 10
1099.806918172733
 20
183.4939228327854
 30
0.0
 10
1100.27119262059
 20
183.4878078375195
 30
0.0
 10
1100.733589866441
 20
183.4872782596983
 30
0.0
 10
1101.19407358514
 20
183.492331770445
 30
0.0
 10
1101.652607736907
 20
183.5029654340045
 30
0.0
 10
1102.109156587158
 20
183.519175715557
 30
0.0
 10
1102.563684725903
 20
183.5409584905158
 30
0.0
 10
1103.016157086574
 20
183.5683090553071
 30
0.0
 10
1103.466538964127
 20
183.6012221396197
 30
0.0
 10
1103.914796032295
 20
183.6396919200937
 30
0.0
 10
1104.360894359831
 20
183.6837120354089
 30
0.0
 10
1104.804800425618
 20
183.7332756027128
 30
0.0
 10
1105.246481132502
 20
183.7883752353213
 30
0.0
 10
1105.685903819735
 20
183.849003061604
 30
0.0
 10
1106.123036273892
 20
183.9151507449574
 30
0.0
 10
1106.55784673817
 20
183.9868095047533
 30
0.0
 10
1106.990303919962
 20
184.063970138138
 30
0.0
 10
1107.420376996627
 20
184.1466230425461
 30
0.0
 10
1107.848035619377
 20
184.2347582387847
 30
0.0
 10
1108.273249915243
 20
184.3283653945274
 30
0.0
 10
1108.695990487051
 20
184.4274338480607
 30
0.0
 10
1109.116228411418
 20
184.5319526321069
 30
0.0
 10
1109.533935234734
 20
184.641910497556
 30
0.0
 10
1109.949082967165
 20
184.7572959369131
 30
0.0
 10
1110.361644074665
 20
184.8780972073352
 30
0.0
 10
1110.771591469165
 20
185.0043023528821
 30
0.0
 10
1111.178898496578
 20
185.1358992265428
 30
0.0
 10
1111.583538924246
 20
185.2728755091117
 30
0.0
 10
1111.985486922205
 20
185.4152187350158
 30
0.0
 10
1112.384717059671
 20
185.5629162866425
 30
0.0
 10
1112.781204237495
 20
185.7159554998485
 30
0.0
 10
1113.174923852765
 20
185.8743233477219
 30
0.0
 10
1113.565851091446
 20
186.0380076899321
 30
0.0
 10
1113.953963468512
 20
186.2069926735041
 30
0.0
 10
1114.339231248554
 20
186.3812759433797
 30
0.0
 10
1114.721653077229
 20
186.5608044775291
 30
0.0
 10
1115.101122934072
 20
186.7457140136356
 30
0.0
 10
1115.470121437442
 20
186.9315059221732
 30
0.0
 10
1115.711126419676
 20
187.0583644401834
 30
0.0
 10
1115.827756464395
 20
187.1197553479207
 30
0.0
  0
LINE
  5
129
330
1F
100
AcDbEntity
  8
0
  6
Continuous
 62
     7
370
    30
100
AcDbLine
 10
1037.9477214752
 20
338.1221967955
 30
0.0
 11
1031.199341764
 21
333.9323827394
 31
0.0
  0
LINE
  5
12A
330
1F
100
AcDbEntity
  8
0
  6
Continuous
 62
     7
370
    30
100
AcDbLine
 10
1115.92321307
 20
187.1704310605
 30
0.0
 11
1122.9262401377
 21
190.9191351618
 31
0.0
  0
SPLINE
  5
12B
330
1F
100
AcDbEntity
  8
0
  6
Continuous
 62
     7
370
    30
100
AcDbSpline
210
0.0
220
0.0
230
1.0
 70
     8
 71
     3
 72
   384
 73
   380
 74
     0
 42
0.000000001
 43
0.00000001
 40
0.0
 40
0.0
 40
0.0
 40
0.0
 40
0.0004105335137774
 40
0.0030565739155313
 40
0.0057025925648787
 40
0.0083486082368392
 40
0.0109946389696884
 40
0.0136407067899255
 40
0.0162868335709093
 40
0.018933040946842
 40
0.0215793502285111
 40
0.0242257823213698
 40
0.0268723576466148
 40
0.0295190960657278
 40
0.0321660168090519
 40
0.0348131384087552
 40
0.0374604786367253
 40
0.0401080544476738
 40
0.0427558819277265
 40
0.0454039762488185
 40
0.0480523516290211
 40
0.0507010212989967
 40
0.0533499974744955
 40
0.0559992913350863
 40
0.0586489130090008
 40
0.0612988715638977
 40
0.0639491750035957
 40
0.0665998302703247
 40
0.0692508432525295
 40
0.0719022187977444
 40
0.0745539607302945
 40
0.0772060718735478
 40
0.0798585540762732
 40
0.0825114082427511
 40
0.0851646343663127
 40
0.0878182315658132
 40
0.090472198124724
 40
0.0931265315323871
 40
0.0957812285270864
 40
0.098436285140595
 40
0.1010916967436301
 40
0.1037474580921425
 40
0.1064035633739085
 40
0.1090600062552015
 40
0.1117167799271614
 40
0.1143738771517325
 40
0.1170312903067756
 40
0.1196890114302468
 40
0.1223470322631371
 40
0.1250053442911351
 40
0.1276639387847319
 40
0.1303228068377458
 40
0.1329819394040892
 40
0.1356413273326942
 40
0.1383009614006489
 40
0.140960832344383
 40
0.1436209308888476
 40
0.146281247774831
 40
0.1489417737843187
 40
0.1516024997638627
 40
0.1542634166461453
 40
0.1569245154696116
 40
0.1595857873963218
 40
0.1622472237280714
 40
0.1649088159208141
 40
0.16757055559747
 40
0.1702324345591288
 40
0.172894444794889
 40
0.1755565784902332
 40
0.1782188280341329
 40
0.1808811860247951
 40
0.1835436452744863
 40
0.1862061988130258
 40
0.1888688398904902
 40
0.1915315619788222
 40
0.1941943587727293
 40
0.1968572241896912
 40
0.1995201523693641
 40
0.2021831376722291
 40
0.2048461746777481
 40
0.2075092581819392
 40
0.2101723831945203
 40
0.2128355449356388
 40
0.215498738832198
 40
0.2181619605139548
 40
0.2208252058091702
 40
0.2234884707403212
 40
0.2261517515193171
 40
0.2288150445426785
 40
0.2314783463867218
 40
0.2341416538023947
 40
0.2368049636884692
 40
0.2394682722147498
 40
0.2421315766775518
 40
0.2447948745255161
 40
0.2474581633545199
 40
0.2501214409025367
 40
0.2527847050445782
 40
0.2554479537876857
 40
0.2581111852660281
 40
0.2607743977360825
 40
0.2634375895718142
 40
0.2661007592601239
 40
0.2687639053962113
 40
0.2714270266792054
 40
0.2740901219078347
 40
0.2767531899761903
 40
0.2794162298696451
 40
0.2820792406609237
 40
0.2847422215062112
 40
0.2874051716414493
 40
0.29006809037873
 40
0.2927309771028231
 40
0.2953938312677635
 40
0.2980566523937018
 40
0.3007194400636866
 40
0.3033821939206872
 40
0.3060449136647032
 40
0.3087075990499802
 40
0.3113702498823238
 40
0.3140328660165193
 40
0.3166954473538749
 40
0.3193579938398929
 40
0.3220205054619238
 40
0.3246829822470633
 40
0.3273454242600538
 40
0.3300078316012925
 40
0.3326702044049343
 40
0.3353325428370622
 40
0.3379948470939824
 40
0.3406571174005577
 40
0.3433193540086184
 40
0.345981557195459
 40
0.3486437272624139
 40
0.3513058645334936
 40
0.3539679693540506
 40
0.3566300420895949
 40
0.3592920831245693
 40
0.3619540928612449
 40
0.3646160717186788
 40
0.3672780201316637
 40
0.3699399385498066
 40
0.3726018274365861
 40
0.3752636872685331
 40
0.3779255185343724
 40
0.380587321734263
 40
0.3832490973790659
 40
0.3859108459896607
 40
0.3885725680962759
 40
0.3912342642378757
 40
0.3938959349615547
 40
0.396557580822036
 40
0.3992192023810945
 40
0.401880800207104
 40
0.4045423748745591
 40
0.407203926963649
 40
0.4098654570598191
 40
0.4125269657534329
 40
0.4151884536393738
 40
0.4178499213167277
 40
0.4205113693884523
 40
0.423172798461083
 40
0.4258342091444597
 40
0.4284956020514661
 40
0.4311569777977735
 40
0.4338183370016345
 40
0.4364796802836628
 40
0.4391410082666166
 40
0.441802321575261
 40
0.4444636208361673
 40
0.4471249066775309
 40
0.4497861797290986
 40
0.4524474406219594
 40
0.4551086899884611
 40
0.4577699284620947
 40
0.4604311566773489
 40
0.4630923752696852
 40
0.4657535848753618
 40
0.468414786131424
 40
0.4710759796755955
 40
0.4737371661461937
 40
0.4763983461820934
 40
0.4790595204226795
 40
0.4817206895077376
 40
0.4843818540774592
 40
0.4870430147723814
 40
0.4897041722333045
 40
0.4923653271013271
 40
0.4950264800177342
 40
0.4976876316240242
 40
0.5003487825618091
 40
0.5030099334728627
 40
0.5056710848659604
 40
0.5083322373020922
 40
0.5109933914231812
 40
0.5136545478711639
 40
0.5163157072879175
 40
0.5189768703152688
 40
0.5216380375949397
 40
0.5242992097685087
 40
0.5269603874773665
 40
0.5296215713626765
 40
0.5322827620653269
 40
0.5349439602258834
 40
0.5376051664845624
 40
0.5402663814810748
 40
0.5429276058546832
 40
0.5455888402440568
 40
0.5482500852871995
 40
0.5509113416213909
 40
0.5535726098830642
 40
0.5562338907077372
 40
0.558895184729864
 40
0.5615564925827711
 40
0.5642178148984787
 40
0.566879152307592
 40
0.5695405054391522
 40
0.5722018749204419
 40
0.5748632613768698
 40
0.5775246654317308
 40
0.5801860877060205
 40
0.5828475288182445
 40
0.5855089893841581
 40
0.5881704700165211
 40
0.5908319713248447
 40
0.5934934939151066
 40
0.5961550383894352
 40
0.5988166053457777
 40
0.6014781953776178
 40
0.6041398090734902
 40
0.606801447016715
 40
0.6094631097848988
 40
0.6121247979495156
 40
0.6147865120754527
 40
0.6174482527204566
 40
0.6201100204346692
 40
0.622771815760031
 40
0.6254336392296883
 40
0.628095491367346
 40
0.6307573726866402
 40
0.633419283690405
 40
0.6360812248699238
 40
0.6387431967041423
 40
0.6414051996588807
 40
0.6440672341858664
 40
0.6467293007218862
 40
0.6493913996877819
 40
0.6520535314874232
 40
0.6547156965066253
 40
0.6573778951120175
 40
0.660040127649839
 40
0.6627023944446625
 40
0.6653646957981267
 40
0.6680270319874548
 40
0.670689403264088
 40
0.6733518098520915
 40
0.6760142519466031
 40
0.6786767297120863
 40
0.6813392432806239
 40
0.6840017927500157
 40
0.6866643781819339
 40
0.6893269995998089
 40
0.6919896569867445
 40
0.6946523502833936
 40
0.6973150793855232
 40
0.6999778441416836
 40
0.7026406443507218
 40
0.7053034797591335
 40
0.7079663500583419
 40
0.7106292548818871
 40
0.7132921938024679
 40
0.7159551663289242
 40
0.7186181719029626
 40
0.72128120989601
 40
0.7239442796056837
 40
0.7266073802522631
 40
0.7292705109751324
 40
0.7319336708288665
 40
0.7345968587794341
 40
0.7372600737001004
 40
0.7399233143673662
 40
0.7425865794565816
 40
0.7452498675376901
 40
0.7479131770706506
 40
0.7505765064008818
 40
0.7532398537544903
 40
0.7559032172335619
 40
0.7585665948111316
 40
0.76122998432637
 40
0.7638933834793257
 40
0.7665567898259958
 40
0.7692202007730329
 40
0.771883613357756
 40
0.7745470238831752
 40
0.7772104292207592
 40
0.7798738260701669
 40
0.7825372109539606
 40
0.7852005802126788
 40
0.7878639299997612
 40
0.7905272562767659
 40
0.7931905548086583
 40
0.7958538211593694
 40
0.7985170506875382
 40
0.8011802385425643
 40
0.8038433796609693
 40
0.8065064687631787
 40
0.8091695003506458
 40
0.8118324687034854
 40
0.8144953678787425
 40
0.8171581917090639
 40
0.8198209338022328
 40
0.822483587541241
 40
0.8251461460853494
 40
0.8278086023718584
 40
0.8304709491189114
 40
0.8331331788292659
 40
0.835795283795208
 40
0.8384572561046368
 40
0.8411190876483652
 40
0.8437807701288051
 40
0.8464422950700481
 40
0.8491036538294503
 40
0.8517648376107524
 40
0.8544258374789397
 40
0.8570866443766595
 40
0.8597472491425546
 40
0.8624076425313573
 40
0.8650678152358819
 40
0.8677277579108819
 40
0.8703874611989416
 40
0.8730469157582632
 40
0.8757061122924397
 40
0.8783650415821581
 40
0.8810236945188632
 40
0.8836820621402478
 40
0.8863401356676018
 40
0.8889979065448733
 40
0.8916553664792666
 40
0.8943125074834848
 40
0.8969693219190743
 40
0.8996258025411867
 40
0.902281942544042
 40
0.904937735607242
 40
0.9075931759425241
 40
0.9102482583407016
 40
0.9129029782184603
 40
0.9155573316647397
 40
0.9182113154863902
 40
0.9208649272525411
 40
0.9235181653377248
 40
0.9261710289627859
 40
0.9288235182337732
 40
0.9314756341779973
 40
0.9341273787770082
 40
0.9367787549961751
 40
0.9394297668102843
 40
0.9420804192249643
 40
0.9447307182934976
 40
0.9473806711286723
 40
0.9500302859094455
 40
0.9526795718820352
 40
0.9553285393554063
 40
0.9579771996906853
 40
0.9606255652846364
 40
0.963273649546933
 40
0.9659214668712841
 40
0.9685690326004031
 40
0.9712163629849131
 40
0.973863475136301
 40
0.9765103869741516
 40
0.9791571171679464
 40
0.981803685073693
 40
0.9844501106657217
 40
0.9870964144642752
 40
0.9897426174590602
 40
0.9923887410295319
 40
0.9950348068623746
 40
0.9976808368666621
 40
1.0
 40
1.0
 40
1.0
 40
1.0
 10
1123.294513200932
 20
191.1201968684291
 30
0.0
 10
1123.313338301564
 20
191.130487363839
 30
0.0
 10
1123.453498141423
 20
191.2071039098511
 30
0.0
 10
1123.712141053279
 20
191.3550607042967
 30
0.0
 10
1124.070221175853
 20
191.5643741705415
 30
0.0
 10
1124.424995052871
 20
191.7793622881408
 30
0.0
 10
1124.776793272324
 20
191.9993845478444
 30
0.0
 10
1125.125496664159
 20
192.224593554501
 30
0.0
 10
1125.471107003071
 20
192.4549291656008
 30
0.0
 10
1125.813593907287
 20
192.6903879067999
 30
0.0
 10
1126.152935808198
 20
192.9309507453182
 30
0.0
 10
1126.48910896707
 20
193.1766024367417
 30
0.0
 10
1126.822090413734
 20
193.4273263334581
 30
0.0
 10
1127.151857155537
 20
193.6831057679732
 30
0.0
 10
1127.47838638661
 20
193.9439236740305
 30
0.0
 10
1127.801655429976
 20
194.2097626796791
 30
0.0
 10
1128.121641752165
 20
194.4806050737041
 30
0.0
 10
1128.438322959335
 20
194.7564328059236
 30
0.0
 10
1128.751676799265
 20
195.0372274784365
 30
0.0
 10
1129.061681162704
 20
195.3229703394164
 30
0.0
 10
1129.368314085781
 20
195.6136422764387
 30
0.0
 10
1129.671553753004
 20
195.9092238102326
 30
0.0
 10
1129.971378500922
 20
196.2096950887029
 30
0.0
 10
1130.267766822398
 20
196.5150358813381
 30
0.0
 10
1130.560697371446
 20
196.8252255740449
 30
0.0
 10
1130.850148968585
 20
197.1402431644589
 30
0.0
 10
1131.13610060666
 20
197.4600672577684
 30
0.0
 10
1131.418531457079
 20
197.7846760630922
 30
0.0
 10
1131.697420876394
 20
198.1140473904309
 30
0.0
 10
1131.972748413194
 20
198.4481586482201
 30
0.0
 10
1132.244493815224
 20
198.7869868414925
 30
0.0
 10
1132.51263703669
 20
199.1305085706588
 30
0.0
 10
1132.777158245681
 20
199.4787000309085
 30
0.0
 10
1133.038037831658
 20
199.8315370122232
 30
0.0
 10
1133.295256412954
 20
200.188994899992
 30
0.0
 10
1133.548794844231
 20
200.5510486762141
 30
0.0
 10
1133.798634223848
 20
200.9176729212638
 30
0.0
 10
1134.044755901089
 20
201.2888418161964
 30
0.0
 10
1134.287141483224
 20
201.6645291455655
 30
0.0
 10
1134.525772842345
 20
202.0447083007169
 30
0.0
 10
1134.760632121958
 20
202.4293522835278
 30
0.0
 10
1134.991701743301
 20
202.8184337105511
 30
0.0
 10
1135.218964411352
 20
203.2119248175334
 30
0.0
 10
1135.442403120522
 20
203.6097974642617
 30
0.0
 10
1135.662001160003
 20
204.0120231397034
 30
0.0
 10
1135.877742118769
 20
204.4185729673987
 30
0.0
 10
1136.089609890211
 20
204.8294177110711
 30
0.0
 10
1136.297588676412
 20
205.244527780411
 30
0.0
 10
1136.501662992052
 20
205.6638732370051
 30
0.0
 10
1136.701817667945
 20
206.0874238003697
 30
0.0
 10
1136.89803785422
 20
206.5151488540612
 30
0.0
 10
1137.090309023149
 20
206.9470174518279
 30
0.0
 10
1137.27861697162
 20
207.382998323776
 30
0.0
 10
1137.46294782329
 20
207.823059882523
 30
0.0
 10
1137.643288030406
 20
208.2671702293176
 30
0.0
 10
1137.81962437533
 20
208.7152971600989
 30
0.0
 10
1137.991943971763
 20
209.1674081714777
 30
0.0
 10
1138.160234265704
 20
209.6234704666229
 30
0.0
 10
1138.324483036144
 20
210.0834509610389
 30
0.0
 10
1138.484678395528
 20
210.5473162882205
 30
0.0
 10
1138.640808789992
 20
211.0150328051724
 30
0.0
 10
1138.792862999388
 20
211.4865665977892
 30
0.0
 10
1138.940830137137
 20
211.9618834860844
 30
0.0
 10
1139.0846996499
 20
212.4409490292685
 30
0.0
 10
1139.224461317105
 20
212.9237285306716
 30
0.0
 10
1139.360105250331
 20
213.4101870425028
 30
0.0
 10
1139.491621892577
 20
213.900289370455
 30
0.0
 10
1139.619002017421
 20
214.3940000781497
 30
0.0
 10
1139.742236728092
 20
214.8912834914319
 30
0.0
 10
1139.861317456463
 20
215.3921037025028
 30
0.0
 10
1139.976235961976
 20
215.896424573913
 30
0.0
 10
1140.086984330518
 20
216.4042097424033
 30
0.0
 10
1140.193554973251
 20
216.9154226226175
 30
0.0
 10
1140.295940625416
 20
217.43002641067
 30
0.0
 10
1140.394134345102
 20
217.9479840875962
 30
0.0
 10
1140.488129512018
 20
218.4692584226754
 30
0.0
 10
1140.577919826239
 20
218.9938119766463
 30
0.0
 10
1140.663499306966
 20
219.5216071048105
 30
0.0
 10
1140.744862291283
 20
220.05260596004
 30
0.0
 10
1140.822003432933
 20
220.5867704956879
 30
0.0
 10
1140.894917701102
 20
221.1240624684169
 30
0.0
 10
1140.963600379228
 20
221.664443440947
 30
0.0
 10
1141.028047063829
 20
222.2078747847312
 30
0.0
 10
1141.088253663366
 20
222.7543176825678
 30
0.0
 10
1141.144216397116
 20
223.3037331311452
 30
0.0
 10
1141.1959317941
 20
223.8560819435467
 30
0.0
 10
1141.243396692021
 20
224.4113247516974
 30
0.0
 10
1141.286608236245
 20
224.9694220087748
 30
0.0
 10
1141.325563878812
 20
225.5303339915824
 30
0.0
 10
1141.360261377486
 20
226.0940208028908
 30
0.0
 10
1141.390698794746
 20
226.6604423722161
 30
0.0
 10
1141.416874494036
 20
227.2295583944344
 30
0.0
 10
1141.438787144248
 20
227.8013283996089
 30
0.0
 10
1141.456435718778
 20
228.3757117568662
 30
0.0
 10
1141.469819495291
 20
228.9526677416463
 30
0.0
 10
1141.478938051807
 20
229.5321554689222
 30
0.0
 10
1141.483791265972
 20
230.1141338954402
 30
0.0
 10
1141.484379314366
 20
230.6985618219564
 30
0.0
 10
1141.480702671837
 20
231.2853978954837
 30
0.0
 10
1141.472762110856
 20
231.8746006115455
 30
0.0
 10
1141.460558700893
 20
232.4661283164359
 30
0.0
 10
1141.444093807822
 20
233.0599392094967
 30
0.0
 10
1141.423369093337
 20
233.6559913453995
 30
0.0
 10
1141.398386514393
 20
234.2542426364527
 30
0.0
 10
1141.369148322653
 20
234.8546508549192
 30
0.0
 10
1141.335657063964
 20
235.4571736353535
 30
0.0
 10
1141.297915577834
 20
236.0617684769562
 30
0.0
 10
1141.255926996923
 20
236.6683927459499
 30
0.0
 10
1141.20969474655
 20
237.2770036779755
 30
0.0
 10
1141.159222544197
 20
237.8875583805107
 30
0.0
 10
1141.10451439903
 20
238.5000138353074
 30
0.0
 10
1141.045574611421
 20
239.114326900856
 30
0.0
 10
1140.982407772471
 20
239.7304543148661
 30
0.0
 10
1140.915018763537
 20
240.3483526967786
 30
0.0
 10
1140.843412755766
 20
240.9679785502925
 30
0.0
 10
1140.767595209618
 20
241.5892882659216
 30
0.0
 10
1140.687571874396
 20
242.2122381235669
 30
0.0
 10
1140.603348787766
 20
242.8367842951208
 30
0.0
 10
1140.514932275282
 20
243.462882847089
 30
0.0
 10
1140.422328949897
 20
244.0904897432361
 30
0.0
 10
1140.325545711471
 20
244.719560847252
 30
0.0
 10
1140.224589746275
 20
245.3500519254461
 30
0.0
 10
1140.119468526485
 20
245.9819186494572
 30
0.0
 10
1140.010189809661
 20
246.6151165989891
 30
0.0
 10
1139.896761638228
 20
247.2496012645637
 30
0.0
 10
1139.779192338934
 20
247.8853280503008
 30
0.0
 10
1139.657490522305
 20
248.5222522767124
 30
0.0
 10
1139.531665082086
 20
249.160329183518
 30
0.0
 10
1139.401725194665
 20
249.799513932482
 30
0.0
 10
1139.267680318491
 20
250.4397616102684
 30
0.0
 10
1139.129540193468
 20
251.0810272313149
 30
0.0
 10
1138.987314840342
 20
251.7232657407218
 30
0.0
 10
1138.841014560074
 20
252.3664320171607
 30
0.0
 10
1138.690649933188
 20
253.0104808758009
 30
0.0
 10
1138.536231819113
 20
253.6553670712486
 30
0.0
 10
1138.377771355502
 20
254.3010453005064
 30
0.0
 10
1138.215279957537
 20
254.9474702059428
 30
0.0
 10
1138.048769317214
 20
255.5945963782805
 30
0.0
 10
1137.878251402615
 20
256.2423783595962
 30
0.0
 10
1137.703738457155
 20
256.8907706463345
 30
0.0
 10
1137.525242998818
 20
257.5397276923361
 30
0.0
 10
1137.342777819369
 20
258.1892039118739
 30
0.0
 10
1137.156355983551
 20
258.8391536827085
 30
0.0
 10
1136.965990828259
 20
259.4895313491473
 30
0.0
 10
1136.7716959617
 20
260.140291225119
 30
0.0
 10
1136.573485262526
 20
260.7913875972546
 30
0.0
 10
1136.371372878959
 20
261.4427747279821
 30
0.0
 10
1136.165373227883
 20
262.0944068586277
 30
0.0
 10
1135.955500993925
 20
262.7462382125266
 30
0.0
 10
1135.741771128514
 20
263.398222998139
 30
0.0
 10
1135.524198848922
 20
264.0503154121786
 30
0.0
 10
1135.302799637279
 20
264.7024696427441
 30
0.0
 10
1135.077589239571
 20
265.3546398724607
 30
0.0
 10
1134.848583664623
 20
266.0067802816226
 30
0.0
 10
1134.615799183054
 20
266.6588450513476
 30
0.0
 10
1134.379252326215
 20
267.3107883667293
 30
0.0
 10
1134.138959885108
 20
267.9625644200003
 30
0.0
 10
1133.894938909284
 20
268.6141274136955
 30
0.0
 10
1133.647206705718
 20
269.2654315638231
 30
0.0
 10
1133.395780837668
 20
269.916431103034
 30
0.0
 10
1133.140679123512
 20
270.5670802837971
 30
0.0
 10
1132.881919635564
 20
271.2173333815759
 30
0.0
 10
1132.619520698872
 20
271.8671446980082
 30
0.0
 10
1132.353500889992
 20
272.5164685640852
 30
0.0
 10
1132.08387903575
 20
273.1652593433333
 30
0.0
 10
1131.810674211972
 20
273.8134714349961
 30
0.0
 10
1131.533905742207
 20
274.4610592772158
 30
0.0
 10
1131.253593196422
 20
275.1079773502162
 30
0.0
 10
1130.969756389678
 20
275.7541801794837
 30
0.0
 10
1130.682415380789
 20
276.3996223389469
 30
0.0
 10
1130.391590470962
 20
277.0442584541566
 30
0.0
 10
1130.097302202417
 20
277.6880432054616
 30
0.0
 10
1129.799571356981
 20
278.3309313311862
 30
0.0
 10
1129.498418954676
 20
278.9728776308005
 30
0.0
 10
1129.193866252274
 20
279.6138369680901
 30
0.0
 10
1128.885934741845
 20
280.2537642743252
 30
0.0
 10
1128.574646149279
 20
280.8926145514187
 30
0.0
 10
1128.260022432788
 20
281.5303428750902
 30
0.0
 10
1127.9420857814
 20
282.1669043980164
 30
0.0
 10
1127.620858613417
 20
282.8022543529829
 30
0.0
 10
1127.296363574875
 20
283.4363480560274
 30
0.0
 10
1126.968623537969
 20
284.0691409095808
 30
0.0
 10
1126.637661599469
 20
284.7005884055993
 30
0.0
 10
1126.303501079114
 20
285.330646128693
 30
0.0
 10
1125.966165517994
 20
285.9592697592453
 30
0.0
 10
1125.625678676908
 20
286.5864150765282
 30
0.0
 10
1125.282064534706
 20
287.21203796181
 30
0.0
 10
1124.935347286618
 20
287.836094401453
 30
0.0
 10
1124.585551342557
 20
288.4585404900097
 30
0.0
 10
1124.232701325421
 20
289.0793324333015
 30
0.0
 10
1123.876822069356
 20
289.6984265514993
 30
0.0
 10
1123.517938624005
 20
290.3157792718978
 30
0.0
 10
1123.156076250654
 20
290.9313471361612
 30
0.0
 10
1122.791260416922
 20
291.5450868097
 30
0.0
 10
1122.423516788761
 20
292.1569550948789
 30
0.0
 10
1122.052871230824
 20
292.7669089299104
 30
0.0
 10
1121.679349808313
 20
293.3749053856376
 30
0.0
 10
1121.302978785142
 20
293.9809016685405
 30
0.0
 10
1120.923784622081
 20
294.5848551237349
 30
0.0
 10
1120.541793974891
 20
295.1867232379565
 30
0.0
 10
1120.157033692442
 20
295.786463642536
 30
0.0
 10
1119.769530814813
 20
296.3840341163609
 30
0.0
 10
1119.379312571382
 20
296.9793925888264
 30
0.0
 10
1118.986406378897
 20
297.5724971427774
 30
0.0
 10
1118.590839839538
 20
298.1633060174268
 30
0.0
 10
1118.192640738963
 20
298.7517776112742
 30
0.0
 10
1117.791837044339
 20
299.3378704850005
 30
0.0
 10
1117.388456902359
 20
299.921543364357
 30
0.0
 10
1116.982528637252
 20
300.5027551430355
 30
0.0
 10
1116.574080748774
 20
301.0814648855243
 30
0.0
 10
1116.163141910184
 20
301.6576318299541
 30
0.0
 10
1115.749740966219
 20
302.231215390923
 30
0.0
 10
1115.333906931041
 20
302.8021751623133
 30
0.0
 10
1114.915668986188
 20
303.3704709200862
 30
0.0
 10
1114.4950564785
 20
303.9360626250668
 30
0.0
 10
1114.072098918042
 20
304.4989104257086
 30
0.0
 10
1113.646825976013
 20
305.0589746608433
 30
0.0
 10
1113.219267482642
 20
305.6162158624164
 30
0.0
 10
1112.789453425082
 20
306.1705947582018
 30
0.0
 10
1112.35741394528
 20
306.7220722745031
 30
0.0
 10
1111.923179337849
 20
307.2706095388353
 30
0.0
 10
1111.486780047925
 20
307.8161678825905
 30
0.0
 10
1111.048246669015
 20
308.3587088436849
 30
0.0
 10
1110.607609940839
 20
308.8981941691865
 30
0.0
 10
1110.164900747157
 20
309.4345858179271
 30
0.0
 10
1109.720150113595
 20
309.9678459630938
 30
0.0
 10
1109.273389205458
 20
310.4979369948004
 30
0.0
 10
1108.824649325537
 20
311.0248215226442
 30
0.0
 10
1108.373961911911
 20
311.5484623782361
 30
0.0
 10
1107.921358535737
 20
312.0688226177203
 30
0.0
 10
1107.46687089904
 20
312.5858655242636
 30
0.0
 10
1107.010530832489
 20
313.099554610535
 30
0.0
 10
1106.552370293173
 20
313.609853621157
 30
0.0
 10
1106.092421362377
 20
314.116726535138
 30
0.0
 10
1105.630716243337
 20
314.6201375682873
 30
0.0
 10
1105.167287259009
 20
315.1200511756053
 30
0.0
 10
1104.702166849818
 20
315.6164320536554
 30
0.0
 10
1104.235387571419
 20
316.1092451429104
 30
0.0
 10
1103.76698209244
 20
316.5984556300812
 30
0.0
 10
1103.296983192237
 20
317.084028950422
 30
0.0
 10
1102.825423758633
 20
317.5659307900137
 30
0.0
 10
1102.35233678567
 20
318.0441270880244
 30
0.0
 10
1101.877755371344
 20
318.5185840389496
 30
0.0
 10
1101.401712715358
 20
318.9892680948267
 30
0.0
 10
1100.92424211686
 20
319.4561459674305
 30
0.0
 10
1100.445376972191
 20
319.9191846304422
 30
0.0
 10
1099.965150772628
 20
320.3783513216005
 30
0.0
 10
1099.483597102136
 20
320.8336135448261
 30
0.0
 10
1099.000749635115
 20
321.2849390723245
 30
0.0
 10
1098.516642134161
 20
321.7322959466662
 30
0.0
 10
1098.031308447818
 20
322.1756524828428
 30
0.0
 10
1097.544782508345
 20
322.6149772703034
 30
0.0
 10
1097.057098329487
 20
323.0502391749624
 30
0.0
 10
1096.568290004245
 20
323.481407341192
 30
0.0
 10
1096.078391702665
 20
323.9084511937842
 30
0.0
 10
1095.587437669619
 20
324.3313404398998
 30
0.0
 10
1095.095462222609
 20
324.7500450709846
 30
0.0
 10
1094.602499749575
 20
325.1645353646717
 30
0.0
 10
1094.108584706709
 20
325.5747818866552
 30
0.0
 10
1093.613751616285
 20
325.9807554925503
 30
0.0
 10
1093.118035064498
 20
326.3824273297242
 30
0.0
 10
1092.621469699316
 20
326.7797688391111
 30
0.0
 10
1092.124090228344
 20
327.1727517570055
 30
0.0
 10
1091.625931416707
 20
327.5613481168343
 30
0.0
 10
1091.127028084937
 20
327.9455302509115
 30
0.0
 10
1090.627415106892
 20
328.3252707921704
 30
0.0
 10
1090.127127407673
 20
328.7005426758837
 30
0.0
 10
1089.626199961572
 20
329.0713191413606
 30
0.0
 10
1089.124667790033
 20
329.4375737336283
 30
0.0
 10
1088.622565959633
 20
329.7992803050986
 30
0.0
 10
1088.11992958008
 20
330.1564130172208
 30
0.0
 10
1087.616793802234
 20
330.5089463421157
 30
0.0
 10
1087.11319381615
 20
330.8568550642037
 30
0.0
 10
1086.60916484914
 20
331.2001142818145
 30
0.0
 10
1086.10474216386
 20
331.5386994087898
 30
0.0
 10
1085.599961056418
 20
331.8725861760768
 30
0.0
 10
1085.094856854508
 20
332.2017506333109
 30
0.0
 10
1084.589464915567
 20
332.5261691503975
 30
0.0
 10
1084.083820624955
 20
332.845818419082
 30
0.0
 10
1083.577959394164
 20
333.1606754545247
 30
0.0
 10
1083.071916659049
 20
333.4707175968661
 30
0.0
 10
1082.565727878083
 20
333.7759225128009
 30
0.0
 10
1082.059428530646
 20
334.076268197148
 30
0.0
 10
1081.553054115326
 20
334.3717329744306
 30
0.0
 10
1081.046640148259
 20
334.6622955004578
 30
0.0
 10
1080.540222161483
 20
334.9479347639224
 30
0.0
 10
1080.033835701325
 20
335.2286300880008
 30
0.0
 10
1079.527516326803
 20
335.5043611319797
 30
0.0
 10
1079.021299608063
 20
335.7751078928848
 30
0.0
 10
1078.515221124821
 20
336.0408507071426
 30
0.0
 10
1078.009316464846
 20
336.3015702522528
 30
0.0
 10
1077.503621236038
 20
336.5572475416204
 30
0.0
 10
1076.998171101256
 20
336.8078639090091
 30
0.0
 10
1076.4930017303
 20
337.0534010356068
 30
0.0
 10
1075.988148784929
 20
337.2938409582547
 30
0.0
 10
1075.483647881261
 20
337.5291660870645
 30
0.0
 10
1074.979534634824
 20
337.7593591842516
 30
0.0
 10
1074.475844659097
 20
337.9844033660661
 30
0.0
 10
1073.97261356405
 20
338.2042821047728
 30
0.0
 10
1073.469876954679
 20
338.4189792306761
 30
0.0
 10
1072.96767042953
 20
338.6284789341983
 30
0.0
 10
1072.466029579205
 20
338.8327657680088
 30
0.0
 10
1071.964989984847
 20
339.0318246492114
 30
0.0
 10
1071.464587216597
 20
339.2256408615856
 30
0.0
 10
1070.964856832017
 20
339.4142000578906
 30
0.0
 10
1070.46583437447
 20
339.5974882622273
 30
0.0
 10
1069.967555371457
 20
339.7754918724625
 30
0.0
 10
1069.470055332891
 20
339.9481976627159
 30
0.0
 10
1068.973369749311
 20
340.1155927859088
 30
0.0
 10
1068.477534090018
 20
340.2776647763757
 30
0.0
 10
1067.982583801137
 20
340.434401552535
 30
0.0
 10
1067.488554303578
 20
340.5857914196217
 30
0.0
 10
1066.9954809909
 20
340.7318230724752
 30
0.0
 10
1066.503399227065
 20
340.8724855983816
 30
0.0
 10
1066.012344344064
 20
341.0077684799662
 30
0.0
 10
1065.52235163942
 20
341.1376615981297
 30
0.0
 10
1065.033456373536
 20
341.2621552350257
 30
0.0
 10
1064.545693766898
 20
341.3812400770683
 30
0.0
 10
1064.05909899711
 20
341.4949072179648
 30
0.0
 10
1063.573707195756
 20
341.6031481617631
 30
0.0
 10
1063.089553445068
 20
341.7059548259037
 30
0.0
 10
1062.606672774418
 20
341.8033195442638
 30
0.0
 10
1062.125100156581
 20
341.8952350701829
 30
0.0
 10
1061.644870503806
 20
341.9816945794516
 30
0.0
 10
1061.166018663654
 20
342.0626916732537
 30
0.0
 10
1060.688579414614
 20
342.1382203810382
 30
0.0
 10
1060.212587461485
 20
342.2082751633096
 30
0.0
 10
1059.738077430519
 20
342.2728509143117
 30
0.0
 10
1059.265083864325
 20
342.3319429645888
 30
0.0
 10
1058.79364121654
 20
342.3855470833991
 30
0.0
 10
1058.323783846246
 20
342.4336594809604
 30
0.0
 10
1057.855546012164
 20
342.4762768105043
 30
0.0
 10
1057.388961866613
 20
342.5133961701134
 30
0.0
 10
1056.924065449242
 20
342.5450151043187
 30
0.0
 10
1056.460890680564
 20
342.5711316054321
 30
0.0
 10
1055.999471355274
 20
342.5917441145885
 30
0.0
 10
1055.539841135399
 20
342.6068515224743
 30
0.0
 10
1055.082033543279
 20
342.6164531697169
 30
0.0
 10
1054.626081954416
 20
342.6205488469137
 30
0.0
 10
1054.172019590199
 20
342.6191387942777
 30
0.0
 10
1053.719879510552
 20
342.6122237008797
 30
0.0
 10
1053.269694606527
 20
342.5998047034703
 30
0.0
 10
1052.821497592875
 20
342.5818833848622
 30
0.0
 10
1052.375321000641
 20
342.5584617718645
 30
0.0
 10
1051.931197169815
 20
342.5295423327549
 30
0.0
 10
1051.489158242086
 20
342.4951279742855
 30
0.0
 10
1051.04923615374
 20
342.4552220382187
 30
0.0
 10
1050.611462628758
 20
342.4098282973961
 30
0.0
 10
1050.175869172138
 20
342.3589509513433
 30
0.0
 10
1049.742487063521
 20
342.3025946214258
 30
0.0
 10
1049.311347351134
 20
342.2407643455686
 30
0.0
 10
1048.882480846136
 20
342.1734655725616
 30
0.0
 10
1048.455918117374
 20
342.100704155978
 30
0.0
 10
1048.031689486625
 20
342.0224863477348
 30
0.0
 10
1047.609825024347
 20
341.9388187913358
 30
0.0
 10
1047.190354545992
 20
341.8497085148354
 30
0.0
 10
1046.773307608907
 20
341.7551629235712
 30
0.0
 10
1046.358713509852
 20
341.655189792719
 30
0.0
 10
1045.946601283182
 20
341.5497972597203
 30
0.0
 10
1045.536999699681
 20
341.4389938166485
 30
0.0
 10
1045.129937266093
 20
341.3227883025663
 30
0.0
 10
1044.725442225341
 20
341.2011898959514
 30
0.0
 10
1044.323542557437
 20
341.0742081072407
 30
0.0
 10
1043.924265981079
 20
340.9418527715853
 30
0.0
 10
1043.527639955944
 20
340.8041340418192
 30
0.0
 10
1043.133691685532
 20
340.6610623819308
 30
0.0
 10
1042.742448121016
 20
340.5126485602711
 30
0.0
 10
1042.35393596424
 20
340.358903645667
 30
0.0
 10
1041.968181676619
 20
340.1998389949028
 30
0.0
 10
1041.58521146856
 20
340.0354662748924
 30
0.0
 10
1041.205051363821
 20
339.8657973581298
 30
0.0
 10
1040.827726986211
 20
339.6908446939786
 30
0.0
 10
1040.453264384157
 20
339.5106199074178
 30
0.0
 10
1040.081686983543
 20
339.325139015795
 30
0.0
 10
1039.713026990095
 20
339.1344029519716
 30
0.0
 10
1039.347282869032
 20
338.9384702435804
 30
0.0
 10
1038.984578058438
 20
338.7371857798611
 30
0.0
 10
1038.639392137937
 20
338.5396748248602
 30
0.0
 10
1038.416612528707
 20
338.4066944958519
 30
0.0
 10
1038.312555699041
 20
338.3445814887751
 30
0.0
  0
LINE
  5
12C
330
1F
100
AcDbEntity
  8
0
  6
Continuous
 62
     7
370
    30
100
AcDbLine
 10
1079.3651794065
 20
218.1934287707
 30
0.0
 11
1078.5949169914
 21
217.668558133
 31
0.0
  0
LINE
  5
12D
330
1F
100
AcDbEntity
  8
0
  6
Continuous
 62
     7
370
    30
100
AcDbLine
 10
1083.3831198534
 20
209.9661391639
 30
0.0
 11
1083.9769338646
 21
210.3015971796
 31
0.0
  0
LINE
  5
12E
330
1F
100
AcDbEntity
  8
0
  6
Continuous
 62
     7
370
    30
100
AcDbLine
 10
1061.7025991113
 20
228.4088122437
 30
0.0
 11
1060.9172474617
 21
227.8736595308
 31
0.0
  0
LINE
  5
12F
330
1F
100
AcDbEntity
  8
0
  6
Continuous
 62
     7
370
    30
100
AcDbLine
 10
1065.7054503237
 20
220.1712405617
 30
0.0
 11
1066.2622454678
 21
220.4857858412
 31
0.0
  0
LINE
  5
130
330
1F
100
AcDbEntity
  8
0
  6
Continuous
 62
     7
370
    30
100
AcDbLine
 10
848.2315592812
 20
96.3482313231
 30
0.0
 11
848.2315592812
 21
91.6212469726
 31
0.0
  0
LINE
  5
131
330
1F
100
AcDbEntity
  8
0
  6
Continuous
 62
     7
370
    30
100
AcDbLine
 10
875.7315592812
 20
91.6212469726
 30
0.0
 11
875.7315592812
 21
96.3480233494
 31
0.0
  0
SPLINE
  5
132
330
1F
100
AcDbEntity
  8
0
  6
Continuous
 62
     7
370
    30
100
AcDbSpline
210
0.0
220
0.0
230
1.0
 70
     8
 71
     3
 72
   174
 73
   170
 74
     0
 42
0.000000001
 43
0.00000001
 40
0.0
 40
0.0
 40
0.0
 40
0.0
 40
0.0018087164350277
 40
0.0101896093035605
 40
0.0181519056335071
 40
0.0256955217422614
 40
0.0328204152632761
 40
0.039526578642938
 40
0.0468926879327402
 40
0.0536772837256376
 40
0.0598804713143271
 40
0.0655023776081132
 40
0.0701089090678021
 40
0.0742352621338039
 40
0.077881542271096
 40
0.0810478489607466
 40
0.0837342727665976
 40
0.0861734476169665
 40
0.0881402830193125
 40
0.0899385587147534
 40
0.0915809087552435
 40
0.0930673427803732
 40
0.0944903986977578
 40
0.0962072011741149
 40
0.098475887471669
 40
0.1011428342978367
 40
0.1042079801585821
 40
0.1076712510972106
 40
0.111532559755884
 40
0.1163119418038937
 40
0.121525508107492
 40
0.1267387556502034
 40
0.1318669599132708
 40
0.1369101417727897
 40
0.141868323556941
 40
0.1467415288783772
 40
0.1515297824731015
 40
0.1621324087027048
 40
0.1722936428937185
 40
0.1821084606091778
 40
0.1920191859724324
 40
0.197271323229892
 40
0.2025651585679307
 40
0.2079006902336409
 40
0.2132779172956024
 40
0.2186968396394726
 40
0.2240189614489729
 40
0.2275015189653069
 40
0.2304867295169366
 40
0.2329746753036277
 40
0.2349654248905144
 40
0.2364590328702393
 40
0.2376105297220473
 40
0.2388749127176837
 40
0.2402816792592149
 40
0.2427799633862028
 40
0.2456297949284413
 40
0.2488311378802878
 40
0.2523839527971045
 40
0.2580973217583374
 40
0.2642108204632272
 40
0.2706749293160458
 40
0.2774896076287413
 40
0.2846548159530892
 40
0.2921705161395731
 40
0.300036671389492
 40
0.3082532463016254
 40
0.3172368707239504
 40
0.3266050046335582
 40
0.3363576122474555
 40
0.3464946596357885
 40
0.3570161147592646
 40
0.3679219475036478
 40
0.3789140455963962
 40
0.3902707650390734
 40
0.4019920836344492
 40
0.4140779810251703
 40
0.4264626904133694
 40
0.4387453610569021
 40
0.4508581744803222
 40
0.4628011996622772
 40
0.4745745035956084
 40
0.4861781512064519
 40
0.4976122052785423
 40
0.5088767263824797
 40
0.5199717728097853
 40
0.5308974005115424
 40
0.5434297001292419
 40
0.5557315671714144
 40
0.5678030773871497
 40
0.5796443017967531
 40
0.5912553066072501
 40
0.6026361531373956
 40
0.6137868977519799
 40
0.6247075918053293
 40
0.6353982815939163
 40
0.6458590083181199
 40
0.6560898080531663
 40
0.6659978256676914
 40
0.6751140544769193
 40
0.6838428012825217
 40
0.6921840224357011
 40
0.7001376720904045
 40
0.7077037022733456
 40
0.714882062962096
 40
0.7216727021730274
 40
0.7256627736737297
 40
0.7295011529506557
 40
0.7329400251492565
 40
0.7358374757980013
 40
0.7381934397868594
 40
0.7394435789476814
 40
0.7407994772550826
 40
0.7425341262591568
 40
0.7446475644593057
 40
0.7471398395849624
 40
0.7500110084969387
 40
0.7535538680937188
 40
0.7575427050038713
 40
0.7619776259155429
 40
0.7668587484147505
 40
0.7720644885387502
 40
0.7772881697676478
 40
0.7825149324802221
 40
0.787744784322764
 40
0.7987122060707259
 40
0.8096932723075876
 40
0.8206880248324914
 40
0.8276920289249515
 40
0.8347015913050458
 40
0.8417167130989635
 40
0.8487373926378238
 40
0.8557458936672544
 40
0.8624312488487936
 40
0.8683343693076367
 40
0.8738488649583488
 40
0.8789745887029257
 40
0.8837114101803979
 40
0.8880592144927341
 40
0.8909205285060269
 40
0.8935841440171912
 40
0.8960485723952526
 40
0.8981543187020309
 40
0.8997935188129226
 40
0.9007541417241395
 40
0.9016426180531751
 40
0.902890914215508
 40
0.904511094998013
 40
0.9065031824091351
 40
0.9095838654938592
 40
0.9132697173800771
 40
0.9175608106659218
 40
0.9224572260851024
 40
0.9276902753478015
 40
0.9328282481782373
 40
0.9378653702456677
 40
0.9475822985470788
 40
0.956900141214941
 40
0.9658187323422761
 40
0.9743379268603145
 40
0.9788782448500616
 40
0.9830552643807781
 40
0.9868549618685676
 40
0.9902773048487972
 40
0.9922353402885871
 40
0.9940442645616157
 40
0.9957350351667836
 40
0.9976744396340612
 40
1.0
 40
1.0
 40
1.0
 40
1.0
 10
848.2357680694588
 20
91.44368353211885
 30
0.0
 10
848.2360748625612
 20
91.4283686797937
 30
0.0
 10
848.2378032163201
 20
91.34209072117477
 30
0.0
 10
848.2504131127251
 20
91.18855373109159
 30
0.0
 10
848.2728073179271
 20
90.98679848455323
 30
0.0
 10
848.3027526894373
 20
90.79608944807282
 30
0.0
 10
848.3379443633479
 20
90.61645387457212
 30
0.0
 10
848.3795036219014
 20
90.43886747394045
 30
0.0
 10
848.4269761060166
 20
90.26477953483406
 30
0.0
 10
848.4797414576831
 20
90.09563070242254
 30
0.0
 10
848.5333512720705
 20
89.94168074740372
 30
0.0
 10
848.5849721246988
 20
89.80638023277471
 30
0.0
 10
848.6332810886372
 20
89.68870887409189
 30
0.0
 10
848.6772868335429
 20
89.58765790925311
 30
0.0
 10
848.7179978608666
 20
89.49873237652243
 30
0.0
 10
848.754718611839
 20
89.42182782299413
 30
0.0
 10
848.7877767400304
 20
89.3549707803711
 30
0.0
 10
848.8167741080553
 20
89.29804422791837
 30
0.0
 10
848.8426355149138
 20
89.24852310962616
 30
0.0
 10
848.8656284087988
 20
89.20540590204266
 30
0.0
 10
848.8869405998133
 20
89.16618532317571
 30
0.0
 10
848.9069376455216
 20
89.13000005447552
 30
0.0
 10
848.9275551026626
 20
89.09326478000659
 30
0.0
 10
848.9520454326783
 20
89.0503418300866
 30
0.0
 10
848.9827480315593
 20
88.99762942148234
 30
0.0
 10
849.0205279202129
 20
88.93437367356013
 30
0.0
 10
849.0650775528529
 20
88.86188293431668
 30
0.0
 10
849.1168564410383
 20
88.7802647565618
 30
0.0
 10
849.1790527273408
 20
88.68557764640622
 30
0.0
 10
849.252757711773
 20
88.57776170229809
 30
0.0
 10
849.3368287386853
 20
88.46017049407592
 30
0.0
 10
849.4261555526869
 20
88.3407636082188
 30
0.0
 10
849.517744290418
 20
88.22355673482876
 30
0.0
 10
849.6109225406304
 20
88.10918653284978
 30
0.0
 10
849.7055097123543
 20
87.99763530385185
 30
0.0
 10
849.8013299616167
 20
87.88888291138485
 30
0.0
 10
849.9379966989424
 20
87.73938751398194
 30
0.0
 10
850.1180099474841
 20
87.55343383724279
 30
0.0
 10
850.3455563831726
 20
87.33528544293911
 30
0.0
 10
850.5791044472957
 20
87.12640378978226
 30
0.0
 10
850.783297017581
 20
86.95555823899775
 30
0.0
 10
850.9560680479138
 20
86.81807796917005
 30
0.0
 10
851.0931574096662
 20
86.71268496774773
 30
0.0
 10
851.2342933104039
 20
86.60784939288507
 30
0.0
 10
851.3795064424193
 20
86.50362970234917
 30
0.0
 10
851.5275534772651
 20
86.40096776123818
 30
0.0
 10
851.6607538045054
 20
86.31168880690879
 30
0.0
 10
851.7728927634888
 20
86.23858306603881
 30
0.0
 10
851.8590273251516
 20
86.18355991971339
 30
0.0
 10
851.9314782716878
 20
86.1380657106195
 30
0.0
 10
851.9898786429478
 20
86.10190521231343
 30
0.0
 10
852.0354645737873
 20
86.07398534319225
 30
0.0
 10
852.0740575463212
 20
86.05054314267271
 30
0.0
 10
852.111928783489
 20
86.02771234730652
 30
0.0
 10
852.1633510973126
 20
85.99696979208382
 30
0.0
 10
852.2309468274957
 20
85.95704774535959
 30
0.0
 10
852.3172034829447
 20
85.90694770669765
 30
0.0
 10
852.414992543363
 20
85.85121173124566
 30
0.0
 10
852.5432257179442
 20
85.77964840548277
 30
0.0
 10
852.7035779789567
 20
85.69271397464048
 30
0.0
 10
852.8974827922724
 20
85.59141143255871
 30
0.0
 10
853.106607813014
 20
85.48639301883027
 30
0.0
 10
853.3309361016048
 20
85.37837196926415
 30
0.0
 10
853.5709777536313
 20
85.26782146973827
 30
0.0
 10
853.8272383338364
 20
85.15525119118634
 30
0.0
 10
854.1002143689933
 20
85.04120806375798
 30
0.0
 10
854.3952916476981
 20
84.92433501925537
 30
0.0
 10
854.71364832939
 20
84.80537263450866
 30
0.0
 10
855.0564633488164
 20
84.68517586262986
 30
0.0
 10
855.4196083059796
 20
84.56627234725484
 30
0.0
 10
855.8034861720198
 20
84.44952703082024
 30
0.0
 10
856.208438707478
 20
84.3358546781993
 30
0.0
 10
856.6308529485241
 20
84.22721836161668
 30
0.0
 10
857.0704534407556
 20
84.12441824686012
 30
0.0
 10
857.526891651362
 20
84.0282497349672
 30
0.0
 10
858.003840703324
 20
83.93887360671378
 30
0.0
 10
858.5002873282523
 20
83.8574981903888
 30
0.0
 10
859.0095083321886
 20
83.7860568005031
 30
0.0
 10
859.523457012006
 20
83.725965060512
 30
0.0
 10
860.0347497100126
 20
83.67782134604782
 30
0.0
 10
860.5415796214668
 20
83.64133401288166
 30
0.0
 10
861.0431474719122
 20
83.61608681203106
 30
0.0
 10
861.5387117951165
 20
83.60165212119813
 30
0.0
 10
862.0275882215908
 20
83.59759305697409
 30
0.0
 10
862.5091478269488
 20
83.60346544666325
 30
0.0
 10
862.9828178060043
 20
83.61881989970193
 30
0.0
 10
863.4732831699479
 20
83.64452418540824
 30
0.0
 10
863.9788936338554
 20
83.68186058800941
 30
0.0
 10
864.4977292697748
 20
83.73206297743214
 30
0.0
 10
865.003249873544
 20
83.7924930843952
 30
0.0
 10
865.4949692546388
 20
83.86243594743523
 30
0.0
 10
865.9724842686333
 20
83.94118468863748
 30
0.0
 10
866.4354682855926
 20
84.02804275701237
 30
0.0
 10
866.8836676250452
 20
84.12232605361719
 30
0.0
 10
867.3168970446889
 20
84.2233647429248
 30
0.0
 10
867.7350358546265
 20
84.33050499973052
 30
0.0
 10
868.1380224111024
 20
84.44310996845562
 30
0.0
 10
868.52468064364
 20
84.56020711076343
 30
0.0
 10
868.8881349814197
 20
84.67884159868011
 30
0.0
 10
869.2270363048916
 20
84.79726955795935
 30
0.0
 10
869.5413481286615
 20
84.91413704906996
 30
0.0
 10
869.8365055270594
 20
85.03042435738168
 30
0.0
 10
870.1130368977709
 20
85.1454349413538
 30
0.0
 10
870.3714918742154
 20
85.25851924777797
 30
0.0
 10
870.6124332639841
 20
85.36907303307983
 30
0.0
 10
870.8099037938723
 20
85.46380997063675
 30
0.0
 10
870.9684190827256
 20
85.5424993958614
 30
0.0
 10
871.0893325640565
 20
85.60402254292893
 30
0.0
 10
871.1974395951011
 20
85.66030225816046
 30
0.0
 10
871.2889810557173
 20
85.7089144609928
 30
0.0
 10
871.356968875845
 20
85.74561754376091
 30
0.0
 10
871.4085766885936
 20
85.77379398948831
 30
0.0
 10
871.4535743498257
 20
85.79856250615158
 30
0.0
 10
871.5072971933603
 20
85.8284209636625
 30
0.0
 10
871.5723903633341
 20
85.86503695682171
 30
0.0
 10
871.6486305492655
 20
85.90854549085807
 30
0.0
 10
871.738710165226
 20
85.96082127864815
 30
0.0
 10
871.8428834008287
 20
86.02250084380114
 30
0.0
 10
871.9612864695674
 20
86.09427734171116
 30
0.0
 10
872.0911282141564
 20
86.17509242677868
 30
0.0
 10
872.230637197334
 20
86.26450055973012
 30
0.0
 10
872.3751678112679
 20
86.36011471447297
 30
0.0
 10
872.5202396139453
 20
86.45930379324373
 30
0.0
 10
872.6627604773132
 20
86.56003998399697
 30
0.0
 10
872.8536406875171
 20
86.6995472019306
 30
0.0
 10
873.0881476542894
 20
86.88014826408057
 30
0.0
 10
873.3594699064674
 20
87.10474413368291
 30
0.0
 10
873.5864869929605
 20
87.30711997734782
 30
0.0
 10
873.7739411787917
 20
87.48498416326778
 30
0.0
 10
873.925962112659
 20
87.6365940001198
 30
0.0
 10
874.0724135329814
 20
87.79030737343076
 30
0.0
 10
874.2130865922464
 20
87.94592425719667
 30
0.0
 10
874.3458183703749
 20
88.10092848618878
 30
0.0
 10
874.4659768947355
 20
88.24912290854806
 30
0.0
 10
874.5723259735054
 20
88.38726971913887
 30
0.0
 10
874.6656277089619
 20
88.5145080053392
 30
0.0
 10
874.7489597509685
 20
88.63359811503003
 30
0.0
 10
874.8230430913295
 20
88.74432535559426
 30
0.0
 10
874.8830408541761
 20
88.83790562147445
 30
0.0
 10
874.9311208516156
 20
88.91555480597465
 30
0.0
 10
874.9690918620025
 20
88.97857691802524
 30
0.0
 10
875.0026801439349
 20
89.03578701300694
 30
0.0
 10
875.0309060500249
 20
89.08500800254366
 30
0.0
 10
875.051918030328
 20
89.12237482890067
 30
0.0
 10
875.0672979473753
 20
89.15010577287208
 30
0.0
 10
875.0808234642828
 20
89.1747357350061
 30
0.0
 10
875.0970504526421
 20
89.20462809507274
 30
0.0
 10
875.1177430220644
 20
89.24334870192524
 30
0.0
 10
875.1457162838879
 20
89.29675197933315
 30
0.0
 10
875.1813693016571
 20
89.36679800257738
 30
0.0
 10
875.2247731536949
 20
89.45549709237277
 30
0.0
 10
875.2730929782753
 20
89.55911678219758
 30
0.0
 10
875.3243588429763
 20
89.67563005376562
 30
0.0
 10
875.3752822209804
 20
89.79946871377831
 30
0.0
 10
875.4231939368882
 20
89.9249078316035
 30
0.0
 10
875.4806241107007
 20
90.0873895736281
 30
0.0
 10
875.5423372325804
 20
90.2848971063919
 30
0.0
 10
875.6022682883242
 20
90.51534174399895
 30
0.0
 10
875.64882785849
 20
90.73672428047638
 30
0.0
 10
875.6785604835642
 20
90.91907145209
 30
0.0
 10
875.6968649536254
 20
91.06227814403223
 30
0.0
 10
875.7077250614053
 20
91.16634955977729
 30
0.0
 10
875.7155770755912
 20
91.26113945306058
 30
0.0
 10
875.7204361853821
 20
91.33754581085613
 30
0.0
 10
875.7233304606958
 20
91.39723469212824
 30
0.0
 10
875.7251836474209
 20
91.44291365510907
 30
0.0
 10
875.7261714255027
 20
91.48704825054475
 30
0.0
 10
875.7300374299654
 20
91.54687040253174
 30
0.0
 10
875.7310222743963
 20
91.59500196630363
 30
0.0
 10
875.7315592812101
 20
91.62124669783978
 30
0.0
  0
SPLINE
  5
133
330
1F
100
AcDbEntity
  8
0
  6
Continuous
 62
     7
370
    30
100
AcDbSpline
210
0.0
220
0.0
230
1.0
 70
     8
 71
     3
 72
    79
 73
    75
 74
     0
 42
0.000000001
 43
0.00000001
 40
0.0
 40
0.0
 40
0.0
 40
0.0
 40
0.0152614025059749
 40
0.0213760054986471
 40
0.0315391652613463
 40
0.0420879397910884
 40
0.0534043927411399
 40
0.0652190591650975
 40
0.0774238595971258
 40
0.0899325008019723
 40
0.1026836478716669
 40
0.115631914132602
 40
0.1287431037520277
 40
0.1419909624125467
 40
0.1553549921309788
 40
0.1688189466105859
 40
0.182369775273445
 40
0.1959968683128534
 40
0.2096915075122193
 40
0.2234464602584325
 40
0.2372556749017695
 40
0.2511140489947365
 40
0.2650172507127274
 40
0.2789615796254137
 40
0.2929438569526702
 40
0.3069613381792
 40
0.3210116428072817
 40
0.3350926973844444
 40
0.3492026889050787
 40
0.3633400263968559
 40
0.3775033090113196
 40
0.3916912993238763
 40
0.4059029008380429
 40
0.4201371388992473
 40
0.4343931443921498
 40
0.4486701397247395
 40
0.4629674266954432
 40
0.4772843759221
 40
0.4916204175664182
 40
0.5059750331426263
 40
0.5203477482281775
 40
0.5347381259345215
 40
0.5491457610131258
 40
0.5635702744957526
 40
0.5780113087851796
 40
0.5924685231216326
 40
0.6069415893678939
 40
0.6214301880598817
 40
0.6359340046795937
 40
0.6504527261149533
 40
0.664986037275717
 40
0.6795336178403112
 40
0.6940951391109049
 40
0.7086702609622314
 40
0.723258628870122
 40
0.7378598710079903
 40
0.7524735954074372
 40
0.7670993871786632
 40
0.781736805787832
 40
0.7963853823964988
 40
0.8110446172664529
 40
0.8257139772392812
 40
0.8403928932985683
 40
0.8550807582311918
 40
0.8697769244015818
 40
0.8844807016585234
 40
0.8991913553947651
 40
0.9139081047840167
 40
0.92863012121956
 40
0.943356526982595
 40
0.9580863723631325
 40
0.9728183782178418
 40
0.9875514981099419
 40
1.0
 40
1.0
 40
1.0
 40
1.0
 10
858.3465873909458
 20
140.5020193970711
 30
0.0
 10
858.2474506659665
 20
140.3295309028683
 30
0.0
 10
858.108594019112
 20
140.0879335136973
 30
0.0
 10
857.9061312826544
 20
139.7301188969002
 30
0.0
 10
857.7349842523531
 20
139.4251898338772
 30
0.0
 10
857.5324418301776
 20
139.0601791621253
 30
0.0
 10
857.3214086033304
 20
138.6753374871134
 30
0.0
 10
857.1021954230391
 20
138.2704716981921
 30
0.0
 10
856.8779567107428
 20
137.8507958288187
 30
0.0
 10
856.6504895986546
 20
137.4191786510238
 30
0.0
 10
856.4211545265854
 20
136.9777992465607
 30
0.0
 10
856.1909572429021
 20
136.5282589112444
 30
0.0
 10
855.9606630941398
 20
136.0717709160268
 30
0.0
 10
855.7308666408929
 20
135.6092734739557
 30
0.0
 10
855.5020389328264
 20
135.1415067005742
 30
0.0
 10
855.2745599365137
 20
134.6690651777967
 30
0.0
 10
855.0487412226774
 20
134.1924346450597
 30
0.0
 10
854.8248421495508
 20
133.7120180871251
 30
0.0
 10
854.6030816121104
 20
133.2281546157083
 30
0.0
 10
854.3836467154312
 20
132.7411333620711
 30
0.0
 10
854.166699276089
 20
132.2512038558843
 30
0.0
 10
853.9523807649548
 20
131.758583888889
 30
0.0
 10
853.7408161142877
 20
131.2634655506829
 30
0.0
 10
853.5321166855614
 20
130.7660199173907
 30
0.0
 10
853.3263826088603
 20
130.2664007344588
 30
0.0
 10
853.1237046459904
 20
129.7647473393158
 30
0.0
 10
852.924165688481
 20
129.2611870030836
 30
0.0
 10
852.7278419727758
 20
128.7558368237314
 30
0.0
 10
852.5348040741809
 20
128.2488052694904
 30
0.0
 10
852.3451177261643
 20
127.7401934472058
 30
0.0
 10
852.1588445005978
 20
127.2300961525398
 30
0.0
 10
851.9760423763787
 20
126.7186027458521
 30
0.0
 10
851.7967662177858
 20
126.2057978878101
 30
0.0
 10
851.6210681793016
 20
125.69176216139
 30
0.0
 10
851.4489980501252
 20
125.1765726013347
 30
0.0
 10
851.2806035488977
 20
124.6603031478183
 30
0.0
 10
851.1159305770452
 20
124.1430250377106
 30
0.0
 10
850.9550234375382
 20
123.6248071443023
 30
0.0
 10
850.7979250245376
 20
123.1057162742329
 30
0.0
 10
850.6446769884064
 20
122.5858174288339
 30
0.0
 10
850.4953198797207
 20
122.065174035735
 30
0.0
 10
850.3498932752749
 20
121.5438481556322
 30
0.0
 10
850.2084358885323
 20
121.0219006682217
 30
0.0
 10
850.0709856665403
 20
120.4993914406712
 30
0.0
 10
849.9375798749809
 20
119.9763794814452
 30
0.0
 10
849.8082551727235
 20
119.4529230818225
 30
0.0
 10
849.6830476770067
 20
118.929079947106
 30
0.0
 10
849.561993020181
 20
118.4049073191781
 30
0.0
 10
849.4451263987603
 20
117.88046209182
 30
0.0
 10
849.3324826154001
 20
117.3558009199668
 30
0.0
 10
849.2240961142834
 20
116.8309803238687
 30
0.0
 10
849.1200010103105
 20
116.3060567889952
 30
0.0
 10
849.0202311123861
 20
115.7810868623363
 30
0.0
 10
848.9248199410293
 20
115.2561272456286
 30
0.0
 10
848.8338007404695
 20
114.7312348859223
 30
0.0
 10
848.7472064853374
 20
114.2064670637822
 30
0.0
 10
848.6650698820125
 20
113.6818814793087
 30
0.0
 10
848.5874233646658
 20
113.1575363360773
 30
0.0
 10
848.5142990859824
 20
112.6334904229802
 30
0.0
 10
848.4457289026109
 20
112.1098031939072
 30
0.0
 10
848.3817443550801
 20
111.586534844978
 30
0.0
 10
848.3223766430048
 20
111.0637463893178
 30
0.0
 10
848.2676565923854
 20
110.5414997281343
 30
0.0
 10
848.2176146268016
 20
110.0198577208549
 30
0.0
 10
848.1722806983653
 20
109.4988842418823
 30
0.0
 10
848.1316843433364
 20
108.9786442678052
 30
0.0
 10
848.0958542466707
 20
108.4592038284805
 30
0.0
 10
848.0648196154303
 20
107.940630440824
 30
0.0
 10
848.0386047727651
 20
107.4229917108074
 30
0.0
 10
848.0172490533706
 20
106.9063609974263
 30
0.0
 10
848.000732328149
 20
106.3908006152535
 30
0.0
 10
847.9892527723371
 20
105.8764334166586
 30
0.0
 10
847.9825538253515
 20
105.3896941346902
 30
0.0
 10
847.982094612553
 20
105.0750695864969
 30
0.0
 10
847.9818843045946
 20
104.9309794246136
 30
0.0
  0
SPLINE
  5
134
330
1F
100
AcDbEntity
  8
0
  6
Continuous
 62
     7
370
    30
100
AcDbSpline
210
0.0
220
0.0
230
1.0
 70
     8
 71
     3
 72
    76
 73
    72
 74
     0
 42
0.000000001
 43
0.00000001
 40
0.0
 40
0.0
 40
0.0
 40
0.0
 40
0.010427919415739
 40
0.0258015333992646
 40
0.0411830317275641
 40
0.0565711604513128
 40
0.0719647387618443
 40
0.0873626606769419
 40
0.1027635651761574
 40
0.1181664945361128
 40
0.1335705947238574
 40
0.1489750888406462
 40
0.1643792763527623
 40
0.179782532385195
 40
0.1951843068268888
 40
0.2105841232922849
 40
0.2259815779873939
 40
0.2413763385259111
 40
0.2567681427407403
 40
0.2721567975347196
 40
0.2875421778131075
 40
0.3029242255401677
 40
0.3183029489626925
 40
0.3336784220424892
 40
0.3490507841432862
 40
0.3644202400189294
 40
0.3797870601528862
 40
0.3951515815051718
 40
0.4105142087306509
 40
0.4258754159378635
 40
0.4412357490744553
 40
0.4565958290359192
 40
0.4719563556151075
 40
0.4873181124348344
 40
0.5026819730353835
 40
0.5180489083293767
 40
0.533419995686319
 40
0.5487964299759938
 40
0.5641795369843038
 40
0.5795707897276179
 40
0.5949718283396035
 40
0.6103844844051324
 40
0.6258108108803708
 40
0.6412531191092082
 40
0.6567140249521721
 40
0.6721965067599337
 40
0.6877039789468944
 40
0.7016289405132371
 40
0.7155472076196477
 40
0.7294576225610084
 40
0.7433599924909882
 40
0.7572540338945618
 40
0.7711393453648832
 40
0.7850153689766857
 40
0.7988813358106622
 40
0.8127361873370343
 40
0.8265784589941463
 40
0.840406102648224
 40
0.8542162065449468
 40
0.8680045358041544
 40
0.881764742406236
 40
0.8954869282594423
 40
0.9091548439378586
 40
0.9227399272723272
 40
0.9361870730084263
 40
0.9493748354866679
 40
0.9619739592907948
 40
0.973110241701235
 40
0.9813134702466847
 40
0.9905467127265499
 40
1.0
 40
1.0
 40
1.0
 40
1.0
 10
883.9736232097925
 20
167.2694734487456
 30
0.0
 10
883.8691139893301
 20
167.209133564534
 30
0.0
 10
883.6105295071541
 20
167.0598361375281
 30
0.0
 10
883.1994566471786
 20
166.8153436785769
 30
0.0
 10
882.7401492480998
 20
166.5368269442199
 30
0.0
 10
882.28220579642
 20
166.2526724180154
 30
0.0
 10
881.8256181606022
 20
165.9632000162252
 30
0.0
 10
881.3704678311567
 20
165.6683994459275
 30
0.0
 10
880.9168103345994
 20
165.3683497011952
 30
0.0
 10
880.4647051050117
 20
165.0631057384267
 30
0.0
 10
880.0142042347127
 20
164.7527263561368
 30
0.0
 10
879.565357904946
 20
164.4372680320502
 30
0.0
 10
879.1182141201135
 20
164.1167871717619
 30
0.0
 10
878.6728189237023
 20
163.7913394342399
 30
0.0
 10
878.2292164182787
 20
163.460979801873
 30
0.0
 10
877.7874488410438
 20
163.1257624586412
 30
0.0
 10
877.347556626761
 20
162.7857407268902
 30
0.0
 10
876.9095784747948
 20
162.4409669944798
 30
0.0
 10
876.4735514143235
 20
162.0914926493742
 30
0.0
 10
876.0395108679519
 20
161.737368015782
 30
0.0
 10
875.6074907123807
 20
161.3786422920202
 30
0.0
 10
875.1775233352755
 20
161.0153634885453
 30
0.0
 10
874.7496396874017
 20
160.6475783649578
 30
0.0
 10
874.3238693291444
 20
160.2753323645582
 30
0.0
 10
873.9002404705251
 20
159.8986695449525
 30
0.0
 10
873.47878000382
 20
159.5176325030509
 30
0.0
 10
873.0595135278318
 20
159.1322622926309
 30
0.0
 10
872.642465362794
 20
158.7425983324085
 30
0.0
 10
872.2276585547864
 20
158.3486783023041
 30
0.0
 10
871.8151148683618
 20
157.9505380252259
 30
0.0
 10
871.4048547659144
 20
157.548211331294
 30
0.0
 10
870.9968973720099
 20
157.141729900869
 30
0.0
 10
870.5912604205771
 20
156.7311230820875
 30
0.0
 10
870.1879601823842
 20
156.3164176777498
 30
0.0
 10
869.7870113696513
 20
155.8976376953133
 30
0.0
 10
869.3884270138923
 20
155.4748040523737
 30
0.0
 10
868.9922183121122
 20
155.0479342282243
 30
0.0
 10
868.5983944352154
 20
154.6170418497925
 30
0.0
 10
868.2069622908252
 20
154.1821361972321
 30
0.0
 10
867.8179262306086
 20
153.7432216106089
 30
0.0
 10
867.4312876890275
 20
153.3002967735293
 30
0.0
 10
867.0470447375853
 20
152.8533538438733
 30
0.0
 10
866.6651915295777
 20
152.4023773874653
 30
0.0
 10
866.2857176171793
 20
151.947343075503
 30
0.0
 10
865.9086070601077
 20
151.4882160212907
 30
0.0
 10
865.5338374269802
 20
151.0249488573612
 30
0.0
 10
865.1742782103522
 20
150.5736695621114
 30
0.0
 10
864.8298606543883
 20
150.1351049292102
 30
0.0
 10
864.5005467554752
 20
149.7100029024735
 30
0.0
 10
864.1738527831913
 20
149.2824814509568
 30
0.0
 10
863.8498162465378
 20
148.8526037314695
 30
0.0
 10
863.5284684346985
 20
148.4204256266506
 30
0.0
 10
863.2098430620911
 20
147.9860071578417
 30
0.0
 10
862.8939770712574
 20
147.5494138656414
 30
0.0
 10
862.5809117470444
 20
147.1107187362193
 30
0.0
 10
862.2706943479046
 20
146.6700050131084
 30
0.0
 10
861.9633805429168
 20
146.227370393005
 30
0.0
 10
861.6590381721911
 20
145.7829334907698
 30
0.0
 10
861.3577532625285
 20
145.3368441668555
 30
0.0
 10
861.0596400715893
 20
144.8893007490313
 30
0.0
 10
860.7648587529561
 20
144.4405802698767
 30
0.0
 10
860.4736484436119
 20
143.9910950527926
 30
0.0
 10
860.1863945150849
 20
143.5415074243919
 30
0.0
 10
859.9037801651716
 20
143.092988322898
 30
0.0
 10
859.6271833137462
 20
142.6478912228398
 30
0.0
 10
859.3599691172046
 20
142.2119488472525
 30
0.0
 10
859.1108895545814
 20
141.8001164044797
 30
0.0
 10
858.8973479227707
 20
141.4426662527964
 30
0.0
 10
858.7077467557726
 20
141.1220013187973
 30
0.0
 10
858.5304242323504
 20
140.8195491528524
 30
0.0
 10
858.4083455207726
 20
140.6086903109727
 30
0.0
 10
858.3465873909458
 20
140.5020193970711
 30
0.0
  0
SPLINE
  5
135
330
1F
100
AcDbEntity
  8
0
  6
Continuous
 62
     7
370
    30
100
AcDbSpline
210
0.0
220
0.0
230
1.0
 70
     8
 71
     3
 72
    76
 73
    72
 74
     0
 42
0.000000001
 43
0.00000001
 40
0.0
 40
0.0
 40
0.0
 40
0.0
 40
0.0166841921371662
 40
0.0233804325761275
 40
0.0345082862339284
 40
0.0460590971907549
 40
0.0584500680513387
 40
0.0713850843744706
 40
0.0847448760454663
 40
0.0984340470968167
 40
0.1123845521426346
 40
0.1265458185760067
 40
0.1408795321333607
 40
0.1553560759700996
 40
0.1699521364434878
 40
0.1846490549275861
 40
0.1994316714299029
 40
0.2142874981188158
 40
0.2292061183385495
 40
0.2441787425289739
 40
0.2591978751889062
 40
0.2742570616860667
 40
0.2893506933394279
 40
0.3044738556208773
 40
0.3196222086748007
 40
0.3347918923511722
 40
0.3499794500431315
 40
0.3651817670966497
 40
0.3803960206273344
 40
0.3956196383446846
 40
0.4108502645534461
 40
0.426085731918537
 40
0.4413240378949057
 40
0.4565633249611459
 40
0.4718018639756529
 40
0.4870380401143986
 40
0.5022703409576195
 40
0.5174973463743188
 40
0.5327177199242342
 40
0.547930201544947
 40
0.5631336013359267
 40
0.5783267942853253
 40
0.5935087158108288
 40
0.6086783580081757
 40
0.6238347665202317
 40
0.6389770379519886
 40
0.6541043177711237
 40
0.6692157986419743
 40
0.6843107191499966
 40
0.6993883628814941
 40
0.7144480578265465
 40
0.7294891760824781
 40
0.7445111338342059
 40
0.7595133915960489
 40
0.7744954546994613
 40
0.7894568740157725
 40
0.8043972469040267
 40
0.8193162183772403
 40
0.8342134824812807
 40
0.8490887838826412
 40
0.8639419196632259
 40
0.87877274132074
 40
0.8935811569752932
 40
0.9083671337842208
 40
0.923130700567441
 40
0.9378719506475565
 40
0.952591044910712
 40
0.9672882150930833
 40
0.9819637673029199
 40
0.996618085785669
 40
1.0
 40
1.0
 40
1.0
 40
1.0
 10
882.5959555376057
 20
126.5031571401677
 30
0.0
 10
882.6672619358206
 20
126.6260983778869
 30
0.0
 10
882.7671873275929
 20
126.7983823755589
 30
0.0
 10
882.9164705699787
 20
127.051567085005
 30
0.0
 10
883.0443264007979
 20
127.266590704674
 30
0.0
 10
883.1982605040672
 20
127.5224420495054
 30
0.0
 10
883.3615063304547
 20
127.7905169393178
 30
0.0
 10
883.5342785185283
 20
128.0706335027913
 30
0.0
 10
883.714449348232
 20
128.3589217795702
 30
0.0
 10
883.9008570746255
 20
128.6531918849213
 30
0.0
 10
884.0926083463909
 20
128.9517721458819
 30
0.0
 10
884.2890388288148
 20
129.2534179375561
 30
0.0
 10
884.4896367105633
 20
129.5571729509265
 30
0.0
 10
884.6939978002051
 20
129.862285628045
 30
0.0
 10
884.9017948884946
 20
130.1681523591637
 30
0.0
 10
885.112756887359
 20
130.4742786208752
 30
0.0
 10
885.3266542970143
 20
130.7802518362535
 30
0.0
 10
885.5432889005693
 20
131.0857220613471
 30
0.0
 10
885.7624863255596
 20
131.3903879980861
 30
0.0
 10
885.9840905875411
 20
131.6939866976296
 30
0.0
 10
886.2079600271397
 20
131.9962858657586
 30
0.0
 10
886.4339642428929
 20
132.2970780328989
 30
0.0
 10
886.6619817465038
 20
132.5961760808417
 30
0.0
 10
886.891898149629
 20
132.8934097706398
 30
0.0
 10
887.1236047469034
 20
133.1886230190881
 30
0.0
 10
887.3569973979703
 20
133.4816717418011
 30
0.0
 10
887.5919756377154
 20
133.7724221300361
 30
0.0
 10
887.8284419625404
 20
134.060749263099
 30
0.0
 10
888.0663012537642
 20
134.3465359829406
 30
0.0
 10
888.3054603088701
 20
134.6296719755206
 30
0.0
 10
888.5458274582933
 20
134.9100530166224
 30
0.0
 10
888.7873122506402
 20
135.1875803495479
 30
0.0
 10
889.0298251930824
 20
135.4621601693657
 30
0.0
 10
889.2732775365726
 20
135.7337031938801
 30
0.0
 10
889.5175810977441
 20
136.0021243056555
 30
0.0
 10
889.7626481110465
 20
136.2673422526395
 30
0.0
 10
890.0083911059712
 20
136.5292793974037
 30
0.0
 10
890.2547228052505
 20
136.7878615069598
 30
0.0
 10
890.501556040695
 20
137.0430175766197
 30
0.0
 10
890.7488036839788
 20
137.2946796825766
 30
0.0
 10
890.9963785901649
 20
137.542782858825
 30
0.0
 10
891.244193552184
 20
137.7872649948198
 30
0.0
 10
891.4921612647751
 20
138.0280667508685
 30
0.0
 10
891.7401942966773
 20
138.2651314887622
 30
0.0
 10
891.988205070056
 20
138.4984052155424
 30
0.0
 10
892.2361058463297
 20
138.7278365386424
 30
0.0
 10
892.4838087176965
 20
138.9533766308983
 30
0.0
 10
892.7312256037761
 20
139.1749792041576
 30
0.0
 10
892.978268252882
 20
139.3926004903899
 30
0.0
 10
893.2248482475079
 20
139.6061992293561
 30
0.0
 10
893.4708770136915
 20
139.8157366620252
 30
0.0
 10
893.716265833956
 20
140.0211765290226
 30
0.0
 10
893.9609258635877
 20
140.2224850734896
 30
0.0
 10
894.2047681500392
 20
140.4196310478038
 30
0.0
 10
894.4477036552731
 20
140.6125857236629
 30
0.0
 10
894.6896432809133
 20
140.8013229051345
 30
0.0
 10
894.9304978959896
 20
140.9858189441203
 30
0.0
 10
895.1701783674523
 20
141.1660527584655
 30
0.0
 10
895.4085955922588
 20
141.3420058501908
 30
0.0
 10
895.6456605350044
 20
141.5136623317213
 30
0.0
 10
895.881284255859
 20
141.6810089293793
 30
0.0
 10
896.1153779851415
 20
141.8440350772834
 30
0.0
 10
896.347853034387
 20
142.0027326791252
 30
0.0
 10
896.5786213260111
 20
142.1570971100086
 30
0.0
 10
896.8075936289661
 20
142.3071236030954
 30
0.0
 10
897.0346863453407
 20
142.4528208225684
 30
0.0
 10
897.2597964651849
 20
142.5941604417274
 30
0.0
 10
897.4828950602216
 20
142.7312650154994
 30
0.0
 10
897.7036793777075
 20
142.8637085057327
 30
0.0
 10
897.8667711451423
 20
142.9600003378736
 30
0.0
 10
897.9555893619532
 20
143.0108505473999
 30
0.0
 10
897.9722433714112
 20
143.0203853016519
 30
0.0
  0
SPLINE
  5
136
330
1F
100
AcDbEntity
  8
0
  6
Continuous
 62
     7
370
    30
100
AcDbSpline
210
0.0
220
0.0
230
1.0
 70
     8
 71
     3
 72
    73
 73
    69
 74
     0
 42
0.000000001
 43
0.00000001
 40
0.0
 40
0.0
 40
0.0
 40
0.0
 40
0.002804346701972
 40
0.0181575888535839
 40
0.033538922226213
 40
0.0489491037712379
 40
0.0643888075655305
 40
0.0798586309451488
 40
0.0953591003749257
 40
0.1108906770849583
 40
0.1264537624944639
 40
0.1420487034480355
 40
0.15767579728983
 40
0.1733352967946959
 40
0.1890274149832242
 40
0.2047523298432744
 40
0.2205101889829633
 40
0.2363011142441799
 40
0.252125206301582
 40
0.2679825492820504
 40
0.2838732154366838
 40
0.2997972699054045
 40
0.3157547756177028
 40
0.3317457983770484
 40
0.3477704121904027
 40
0.3638287049043078
 40
0.3799207842292374
 40
0.396046784242653
 40
0.4122068724789084
 40
0.4284012577396484
 40
0.4446301987811407
 40
0.4608940140717174
 40
0.4771930928569258
 40
0.4935279078229404
 40
0.5098990297243746
 40
0.5263071444332199
 40
0.5427530729884482
 40
0.5592377953901162
 40
0.5757624790934428
 40
0.5923285134569563
 40
0.6089375517911747
 40
0.6255915632145083
 40
0.6422928972998361
 40
0.6590443656046333
 40
0.6741103678534105
 40
0.689186180829275
 40
0.7042698017315634
 40
0.7193602475506693
 40
0.7344564311888259
 40
0.7495571322623129
 40
0.7646609554701118
 40
0.7797662716693505
 40
0.7948711326420237
 40
0.8099731447018466
 40
0.8250692758133873
 40
0.8401555512876594
 40
0.8552265545670567
 40
0.8702745693648027
 40
0.8852880205373723
 40
0.9002484378839163
 40
0.9151240041422535
 40
0.9298541840951638
 40
0.9443068599955178
 40
0.95812666818859
 40
0.970388791099715
 40
0.979369063795764
 40
0.9894518809406869
 40
1.0
 40
1.0
 40
1.0
 40
1.0
 10
875.9817670064041
 20
104.9311159206487
 30
0.0
 10
875.9817016242008
 20
104.947016132732
 30
0.0
 10
875.9812782873993
 20
105.0499668533012
 30
0.0
 10
875.9832119797053
 20
105.2441975942997
 30
0.0
 10
875.9878023616656
 20
105.5140932995255
 30
0.0
 10
875.9955803758222
 20
105.7888645243922
 30
0.0
 10
876.0062878817309
 20
106.0679571892933
 30
0.0
 10
876.0200698189102
 20
106.3514275016947
 30
0.0
 10
876.0369599009972
 20
106.6391654412669
 30
0.0
 10
876.0570188298349
 20
106.9311035388597
 30
0.0
 10
876.0802971698769
 20
107.2271608908464
 30
0.0
 10
876.106845345929
 20
107.5272583253563
 30
0.0
 10
876.1367109807704
 20
107.831314448034
 30
0.0
 10
876.1699396392908
 20
108.1392468277701
 30
0.0
 10
876.2065746611893
 20
108.4509718023487
 30
0.0
 10
876.2466572428317
 20
108.7664046565543
 30
0.0
 10
876.2902264564478
 20
109.0854597019549
 30
0.0
 10
876.337319290616
 20
109.4080503852013
 30
0.0
 10
876.3879706896696
 20
109.7340893911728
 30
0.0
 10
876.4422135982743
 20
110.0634887505068
 30
0.0
 10
876.5000790098068
 20
110.3961599495848
 30
0.0
 10
876.5615960192835
 20
110.732014044244
 30
0.0
 10
876.6267918811175
 20
111.0709617777772
 30
0.0
 10
876.6956920722147
 20
111.4129137041796
 30
0.0
 10
876.7683203609926
 20
111.7577803176866
 30
0.0
 10
876.8446988830539
 20
112.1054721899214
 30
0.0
 10
876.9248482243975
 20
112.4559001161936
 30
0.0
 10
877.0087875132596
 20
112.8089752728363
 30
0.0
 10
877.0965345219133
 20
113.1646093878566
 30
0.0
 10
877.1881057800626
 20
113.5227149276627
 30
0.0
 10
877.2835167018495
 20
113.8832053032557
 30
0.0
 10
877.3827817289543
 20
114.2459951000289
 30
0.0
 10
877.4859144928845
 20
114.6110003363074
 30
0.0
 10
877.5929280003036
 20
114.9781387570121
 30
0.0
 10
877.7038348462328
 20
115.347330170425
 30
0.0
 10
877.8186474612543
 20
115.718496838174
 30
0.0
 10
877.9373784004432
 20
116.0915639311568
 30
0.0
 10
878.0600406841924
 20
116.466460068303
 30
0.0
 10
878.1866482032175
 20
116.8431179579374
 30
0.0
 10
878.3172162070751
 20
117.2214751757609
 30
0.0
 10
878.451761889525
 20
117.6014750938398
 30
0.0
 10
878.5903051345481
 20
117.9830680953087
 30
0.0
 10
878.7328693367131
 20
118.3662128238381
 30
0.0
 10
878.8744098294807
 20
118.7375688645857
 30
0.0
 10
879.0143940864633
 20
119.0967188363284
 30
0.0
 10
879.1522886542385
 20
119.4432393043318
 30
0.0
 10
879.2931271572912
 20
119.790019439776
 30
0.0
 10
879.4368776411699
 20
120.136956927827
 30
0.0
 10
879.5835089247137
 20
120.4839556567193
 30
0.0
 10
879.7329869169988
 20
120.8309167686274
 30
0.0
 10
879.8852740615657
 20
121.1777376753593
 30
0.0
 10
880.0403285647637
 20
121.5243107149786
 30
0.0
 10
880.1981032601136
 20
121.8705211674033
 30
0.0
 10
880.3585439080653
 20
122.2162442838747
 30
0.0
 10
880.5215865703469
 20
122.5613406957076
 30
0.0
 10
880.6871534118484
 20
122.9056490658917
 30
0.0
 10
880.855145699182
 20
123.248973821322
 30
0.0
 10
881.0254315181509
 20
123.5910635969869
 30
0.0
 10
881.1978228110238
 20
123.9315709034334
 30
0.0
 10
881.3720289433943
 20
124.2699703433142
 30
0.0
 10
881.5475521899049
 20
124.6053745691877
 30
0.0
 10
881.7234167984941
 20
124.9360547317925
 30
0.0
 10
881.8972891263378
 20
125.2578848912264
 30
0.0
 10
882.0631871094582
 20
125.5603452799385
 30
0.0
 10
882.2082582161986
 20
125.8212201486815
 30
0.0
 10
882.339019922489
 20
126.0537038235516
 30
0.0
 10
882.4635086750972
 20
126.2730054691715
 30
0.0
 10
882.5511477247018
 20
126.4252950238577
 30
0.0
 10
882.5959555376057
 20
126.5031571401677
 30
0.0
  0
LINE
  5
137
330
1F
100
AcDbEntity
  8
0
  6
Continuous
 62
     7
370
    30
100
AcDbLine
 10
875.9815592812
 20
97.9086112241
 30
0.0
 11
875.9815592812
 21
104.9308622063
 31
0.0
  0
LINE
  5
138
330
1F
100
AcDbEntity
  8
0
  6
Continuous
 62
     7
370
    30
100
AcDbLine
 10
847.9815592812
 20
104.9308622063
 30
0.0
 11
847.9815592812
 21
97.9086112241
 31
0.0
  0
LINE
  5
139
330
1F
100
AcDbEntity
  8
0
  6
Continuous
 62
     7
370
    30
100
AcDbLine
 10
1065.5633037585
 20
272.0996446407
 30
0.0
 11
883.9735061814
 21
167.2700858593
 31
0.0
  0
LINE
  5
13A
330
1F
100
AcDbEntity
  8
0
  6
Continuous
 62
     7
370
    30
100
AcDbLine
 10
897.9723684383
 20
143.0207177127
 30
0.0
 11
1079.5621660154
 21
247.850276494
 31
0.0
  0
SPLINE
  5
13B
330
1F
100
AcDbEntity
  8
0
  6
Continuous
 62
     7
370
    30
100
AcDbSpline
210
0.0
220
0.0
230
1.0
 70
     8
 71
     3
 72
    84
 73
    80
 74
     0
 42
0.000000001
 43
0.00000001
 40
0.0
 40
0.0
 40
0.0
 40
0.0
 40
0.0118715132787239
 40
0.0249186494330329
 40
0.0379954042034178
 40
0.0511044029341954
 40
0.0642480775474717
 40
0.0774286175709736
 40
0.090647926037076
 40
0.1039075817311107
 40
0.1172088091185254
 40
0.1305524570355643
 40
0.1439389869048289
 40
0.1573684708636913
 40
0.1708405997861003
 40
0.1843547007481854
 40
0.1979097630941213
 40
0.2115044718936663
 40
0.2251372473065043
 40
0.238806288177756
 40
0.2525096181142821
 40
0.2662451323144392
 40
0.2800106435560847
 40
0.2938039259515394
 40
0.307622755346454
 40
0.3214649455312568
 40
0.3353283797422767
 40
0.3492110372049326
 40
0.3631110147319968
 40
0.3770265435929386
 40
0.3909560020323792
 40
0.4048979239227221
 40
0.4188510041102453
 40
0.4328141010355983
 40
0.446786237214172
 40
0.4607665981394615
 40
0.4747545301344151
 40
0.4887495152803971
 40
0.5027510832015589
 40
0.5167590645539347
 40
0.5307734422698993
 40
0.544794347437641
 40
0.5588220596750332
 40
0.5728570092738868
 40
0.5868997814102248
 40
0.6009511228380239
 40
0.6150119515571965
 40
0.6290833700725417
 40
0.6431666830193435
 40
0.6558171556122265
 40
0.6698886614884546
 40
0.6825327157185427
 40
0.6951745810771335
 40
0.7078131448680607
 40
0.720448252148054
 40
0.7330797158324867
 40
0.7457073079047527
 40
0.7583307472737151
 40
0.7709496839360929
 40
0.7835636778999503
 40
0.7961721705601059
 40
0.8087744449967417
 40
0.8213695696572203
 40
0.8339563164820347
 40
0.8465330385824018
 40
0.859097481734988
 40
0.8716464833364528
 40
0.8841754711333278
 40
0.8966775860360486
 40
0.9091420517377028
 40
0.9215509089735711
 40
0.9338718177422842
 40
0.9460400427976282
 40
0.9579044953066854
 40
0.9690120224994603
 40
0.9780849948063618
 40
0.9857535777077192
 40
0.9952380905417008
 40
1.0
 40
1.0
 40
1.0
 40
1.0
 10
847.9826380161132
 20
97.8177474686378
 30
0.0
 10
847.9839850196961
 20
97.76542163093244
 30
0.0
 10
847.9868124191418
 20
97.6555881854855
 30
0.0
 10
847.9985633050393
 20
97.48826762507767
 30
0.0
 10
848.0162026810174
 20
97.31573576356084
 30
0.0
 10
848.0400844754032
 20
97.14312430318769
 30
0.0
 10
848.0700560100921
 20
96.97050026856063
 30
0.0
 10
848.1061948126301
 20
96.79793584175151
 30
0.0
 10
848.1485142838211
 20
96.62550578020529
 30
0.0
 10
848.1970421447727
 20
96.45328839423419
 30
0.0
 10
848.251798549609
 20
96.28136546016216
 30
0.0
 10
848.3128011677525
 20
96.10982229966596
 30
0.0
 10
848.3800630105653
 20
95.93874768570993
 30
0.0
 10
848.4535922443924
 20
95.76823366371923
 30
0.0
 10
848.5333915324344
 20
95.59837526760018
 30
0.0
 10
848.6194575946212
 20
95.42927014578432
 30
0.0
 10
848.7117808232201
 20
95.26101810874039
 30
0.0
 10
848.8103450153922
 20
95.09372061529298
 30
0.0
 10
848.915127217006
 20
94.92748021716274
 30
0.0
 10
849.0260976828046
 20
94.7623999826108
 30
0.0
 10
849.1432199480302
 20
94.59858292004664
 30
0.0
 10
849.2664510028652
 20
94.43613142113003
 30
0.0
 10
849.395741556757
 20
94.27514674050202
 30
0.0
 10
849.531036376977
 20
94.11572852600342
 30
0.0
 10
849.6722746842279
 20
93.95797440951881
 30
0.0
 10
849.8193905878181
 20
93.80197966465504
 30
0.0
 10
849.9723135437116
 20
93.64783693374993
 30
0.0
 10
850.1309688204058
 20
93.4956360233472
 30
0.0
 10
850.295277959837
 20
93.34546376454472
 30
0.0
 10
850.465159223101
 20
93.19740393250603
 30
0.0
 10
850.6405280134578
 20
93.05153721806153
 30
0.0
 10
850.8212972717025
 20
92.90794124352658
 30
0.0
 10
851.007377841348
 20
92.7666906146843
 30
0.0
 10
851.1986788031496
 20
92.62785700108978
 30
0.0
 10
851.395107780214
 20
92.49150923743468
 30
0.0
 10
851.5965712163146
 20
92.35771343947962
 30
0.0
 10
851.8029745211384
 20
92.22653319885777
 30
0.0
 10
852.0142217509836
 20
92.09803003401807
 30
0.0
 10
852.230216515953
 20
91.97226302805994
 30
0.0
 10
852.4508623398434
 20
91.84928889303828
 30
0.0
 10
852.6760634860054
 20
91.72916181615018
 30
0.0
 10
852.9057244182272
 20
91.61193403689522
 30
0.0
 10
853.1397500108009
 20
91.49765596649054
 30
0.0
 10
853.3780457927334
 20
91.38637629143432
 30
0.0
 10
853.6205182296965
 20
91.27814206713236
 30
0.0
 10
853.8670750123745
 20
91.17299881625182
 30
0.0
 10
854.1176255164387
 20
91.07099058064847
 30
0.0
 10
854.3720808763634
 20
90.97216012205384
 30
0.0
 10
854.621515098229
 20
90.87982132430969
 30
0.0
 10
854.874140549098
 20
90.79055033456297
 30
0.0
 10
855.1208397331914
 20
90.70741703234647
 30
0.0
 10
855.3703536108883
 20
90.62732569558801
 30
0.0
 10
855.613310944903
 20
90.55293468591852
 30
0.0
 10
855.8586451004805
 20
90.48137105470228
 30
0.0
 10
856.1062520923278
 20
90.4126608941076
 30
0.0
 10
856.3560324025881
 20
90.34682750320938
 30
0.0
 10
856.6078848099212
 20
90.28389320190922
 30
0.0
 10
856.8617060851609
 20
90.22387934721196
 30
0.0
 10
857.1173906967375
 20
90.16680631628826
 30
0.0
 10
857.3748303705695
 20
90.11269349911998
 30
0.0
 10
857.6339134845343
 20
90.06155928940542
 30
0.0
 10
857.8945242064586
 20
90.01342107750665
 30
0.0
 10
858.1565412479733
 20
89.9682952456245
 30
0.0
 10
858.419836021434
 20
89.92619716718542
 30
0.0
 10
858.684269841993
 20
89.8871412135743
 30
0.0
 10
858.9496895463128
 20
89.85114077414997
 30
0.0
 10
859.2159203734905
 20
89.81820830158787
 30
0.0
 10
859.482753870159
 20
89.78835540643091
 30
0.0
 10
859.7499261906515
 20
89.76159305894026
 30
0.0
 10
860.017076421991
 20
89.73793202004973
 30
0.0
 10
860.2836592393154
 20
89.71738389997135
 30
0.0
 10
860.5487391725806
 20
89.69996378536769
 30
0.0
 10
860.810418610237
 20
89.68569910353088
 30
0.0
 10
861.063759278771
 20
89.67466389103204
 30
0.0
 10
861.2950537959424
 20
89.66700642429315
 30
0.0
 10
861.4962136764312
 20
89.66218256648756
 30
0.0
 10
861.6857328853922
 20
89.65909471342626
 30
0.0
 10
861.8441469028014
 20
89.65767749771963
 30
0.0
 10
861.9471351500968
 20
89.65754322184935
 30
0.0
 10
861.9815592812105
 20
89.65749833973624
 30
0.0
  0
SPLINE
  5
13C
330
1F
100
AcDbEntity
  8
0
  6
Continuous
 62
     7
370
    30
100
AcDbSpline
210
0.0
220
0.0
230
1.0
 70
     8
 71
     3
 72
    88
 73
    84
 74
     0
 42
0.000000001
 43
0.00000001
 40
0.0
 40
0.0
 40
0.0
 40
0.0
 40
0.0140425671139739
 40
0.0196163081488804
 40
0.0288859641199348
 40
0.0384979810757461
 40
0.0488026405721987
 40
0.05955543065217
 40
0.0706582921279729
 40
0.0820328473409954
 40
0.0936233098278958
 40
0.1053883358823295
 40
0.1172967220105791
 40
0.1293244645747675
 40
0.1414527814676082
 40
0.1536667492757194
 40
0.1659543464483761
 40
0.1783057689839442
 40
0.1907129324867151
 40
0.2031691039720379
 40
0.2156686255391833
 40
0.228206704126083
 40
0.2407792495044799
 40
0.2533827479738218
 40
0.266014162810974
 40
0.278670855008474
 40
0.2913505195658765
 40
0.3040511338206571
 40
0.3167709151878006
 40
0.3295082863124284
 40
0.342261846106669
 40
0.3550303454913521
 40
0.3678126669198502
 40
0.3806078069617299
 40
0.3934148613688617
 40
0.4062330121659404
 40
0.4190615163947157
 40
0.4318996962133663
 40
0.4447469301044685
 40
0.457602644995175
 40
0.4704663091243752
 40
0.4833374255251789
 40
0.4962155260154618
 40
0.5091001656126809
 40
0.521990917308127
 40
0.5348873671575718
 40
0.5477891096609907
 40
0.5606956730645695
 40
0.5736065844237049
 40
0.5865214214306902
 40
0.5994397526713005
 40
0.612361135962783
 40
0.6252851162275374
 40
0.6382112241476054
 40
0.6511389757395942
 40
0.6640678730324576
 40
0.6769974060453884
 40
0.6899270562758886
 40
0.702856301908687
 40
0.7157846249433093
 40
0.7287115204138398
 40
0.7416365078292398
 40
0.7545591448957922
 40
0.7674790435016422
 40
0.7803958878315118
 40
0.7933094543593863
 40
0.8062196333253974
 40
0.8191264511625951
 40
0.8320300931933267
 40
0.8449309257898511
 40
0.8578295170899334
 40
0.8707266552888566
 40
0.883623363505484
 40
0.8965209102481163
 40
0.909420814579792
 40
0.922324845222177
 40
0.9352350130024512
 40
0.9481535562740048
 40
0.9610829191748657
 40
0.9740257228533415
 40
0.9869847300487046
 40
0.9999628036791829
 40
0.9999999999999999
 40
0.9999999999999999
 40
0.9999999999999999
 40
0.9999999999999999
 10
861.9815592812105
 20
89.65749833973624
 30
0.0
 10
862.0830395711656
 20
89.6578489708732
 30
0.0
 10
862.2247991670172
 20
89.65833877365448
 30
0.0
 10
862.4334722447535
 20
89.66159525871743
 30
0.0
 10
862.6100793937829
 20
89.66544912311414
 30
0.0
 10
862.8207123749822
 20
89.67188431001449
 30
0.0
 10
863.0418455195108
 20
89.68063003761301
 30
0.0
 10
863.2734414363728
 20
89.69201200885945
 30
0.0
 10
863.5123672897184
 20
89.70613667094362
 30
0.0
 10
863.7568474745779
 20
89.72310691208179
 30
0.0
 10
864.005513353419
 20
89.74299442175645
 30
0.0
 10
864.2573347544958
 20
89.76585324528565
 30
0.0
 10
864.5115094715079
 20
89.79172346284165
 30
0.0
 10
864.7673971004998
 20
89.82063461303564
 30
0.0
 10
865.0244740220331
 20
89.85260790897142
 30
0.0
 10
865.2823026358878
 20
89.88765786307984
 30
0.0
 10
865.5405098910429
 20
89.92579346450891
 30
0.0
 10
865.7987720242342
 20
89.96701906040236
 30
0.0
 10
866.0568035213098
 20
90.01133502536341
 30
0.0
 10
866.3143490031923
 20
90.0587382799321
 30
0.0
 10
866.5711771724738
 20
90.10922269864477
 30
0.0
 10
866.8270762354706
 20
90.16277943632528
 30
0.0
 10
867.0818503967012
 20
90.21939719288419
 30
0.0
 10
867.3353171437464
 20
90.27906243127848
 30
0.0
 10
867.5873051221503
 20
90.34175955935861
 30
0.0
 10
867.8376524560483
 20
90.40747108355663
 30
0.0
 10
868.0862054091758
 20
90.47617774037994
 30
0.0
 10
868.3328173084197
 20
90.5478586102238
 30
0.0
 10
868.5773476717322
 20
90.62249121695396
 30
0.0
 10
868.8196614964376
 20
90.70005161590122
 30
0.0
 10
869.059628674373
 20
90.78051447230806
 30
0.0
 10
869.2971235079918
 20
90.86385313179431
 30
0.0
 10
869.5320243073305
 20
90.9500396840484
 30
0.0
 10
869.7642130520628
 20
91.03904502065832
 30
0.0
 10
869.9935751061905
 20
91.13083888776602
 30
0.0
 10
870.2199989754506
 20
91.22538993403711
 30
0.0
 10
870.4433760995207
 20
91.32266575428699
 30
0.0
 10
870.6636006726178
 20
91.42263292896602
 30
0.0
 10
870.8805694873568
 20
91.52525705960535
 30
0.0
 10
871.0941817976845
 20
91.63050280022559
 30
0.0
 10
871.3043391975298
 20
91.73833388463987
 30
0.0
 10
871.5109455124535
 20
91.84871314951506
 30
0.0
 10
871.7139067021454
 20
91.96160255301164
 30
0.0
 10
871.9131307720786
 20
92.07696318878943
 30
0.0
 10
872.1085276930521
 20
92.19475529515373
 30
0.0
 10
872.3000093276929
 20
92.31493825911585
 30
0.0
 10
872.4874890225489
 20
92.43747039244704
 30
0.0
 10
872.6708815826048
 20
92.56230889837124
 30
0.0
 10
872.8501035124414
 20
92.68941001609396
 30
0.0
 10
873.0250732777859
 20
92.8187292335532
 30
0.0
 10
873.1957112356927
 20
92.95022128306351
 30
0.0
 10
873.3619393425531
 20
93.08383993624231
 30
0.0
 10
873.5236811376801
 20
93.2195379783532
 30
0.0
 10
873.6808617315495
 20
93.35726717717019
 30
0.0
 10
873.8334078045639
 20
93.49697825143838
 30
0.0
 10
873.9812476170051
 20
93.63862084070787
 30
0.0
 10
874.1243110307364
 20
93.78214347874595
 30
0.0
 10
874.2625295428863
 20
93.92749357304899
 30
0.0
 10
874.3958363313017
 20
94.07461739324802
 30
0.0
 10
874.5241663109703
 20
94.22346007137178
 30
0.0
 10
874.6474561998896
 20
94.3739656169577
 30
0.0
 10
874.7656445920582
 20
94.52607694985737
 30
0.0
 10
874.8786720343718
 20
94.67973595320828
 30
0.0
 10
874.9864811033068
 20
94.83488354841074
 30
0.0
 10
875.0890164764571
 20
94.99145979306311
 30
0.0
 10
875.1862249932857
 20
95.14940400162722
 30
0.0
 10
875.278055699014
 20
95.30865488721899
 30
0.0
 10
875.3644598655592
 20
95.46915072133163
 30
0.0
 10
875.4453909833503
 20
95.63082950665557
 30
0.0
 10
875.5208047202046
 20
95.79362915652904
 30
0.0
 10
875.590658838955
 20
95.95748767312348
 30
0.0
 10
875.6549130889902
 20
96.12234331523307
 30
0.0
 10
875.7135290081771
 20
96.28813474611333
 30
0.0
 10
875.7664698760819
 20
96.45480115048177
 30
0.0
 10
875.8136999352009
 20
96.62228231440545
 30
0.0
 10
875.85518620602
 20
96.79051864709517
 30
0.0
 10
875.8908905188986
 20
96.95945118378945
 30
0.0
 10
875.9207980381507
 20
97.12902139232796
 30
0.0
 10
875.9448094745175
 20
97.29917142525358
 30
0.0
 10
875.9631427534216
 20
97.46984241050156
 30
0.0
 10
875.9748305142642
 20
97.64097978171216
 30
0.0
 10
875.9805055613986
 20
97.75540590544173
 30
0.0
 10
875.980622179749
 20
97.81275857847722
 30
0.0
 10
875.9806225130326
 20
97.812922486597
 30
0.0
  0
LINE
  5
13D
330
1F
100
AcDbEntity
  8
0
  6
Continuous
 62
     7
370
    30
100
AcDbLine
 10
1031.1025205423
 20
333.8719991618
 30
0.0
 11
1031.2963171198
 21
333.9923205843
 31
0.0
  0
LINE
  5
13E
330
1F
100
AcDbEntity
  8
0
  6
Continuous
 62
     7
370
    30
100
AcDbLine
 10
1116.0198716519
 20
187.2224137423
 30
0.0
 11
1115.8321329718
 21
187.1218896875
 31
0.0
  0
LINE
  5
13F
330
1F
100
AcDbEntity
  8
0
  6
Continuous
 62
     7
370
    30
100
AcDbLine
 10
1037.9477214752
 20
338.1221967955
 30
0.0
 11
1038.3081563035
 21
338.3422757512
 31
0.0
  0
LINE
  5
140
330
1F
100
AcDbEntity
  8
0
  6
Continuous
 62
     7
370
    30
100
AcDbLine
 10
1123.2904275664
 20
191.117523505
 30
0.0
 11
1122.9262401377
 21
190.9191351618
 31
0.0
  0
SPLINE
  5
141
330
1F
100
AcDbEntity
  8
0
  6
Continuous
 62
     7
370
    30
100
AcDbSpline
210
0.0
220
0.0
230
1.0
 70
    11
 71
     3
 72
   118
 73
   114
 74
     0
 42
0.000000001
 43
0.00000001
 40
0.0
 40
0.0
 40
0.0
 40
0.0
 40
0.0111541428088335
 40
0.0223220348352896
 40
0.0334761729165855
 40
0.0422908912845495
 40
0.0511123866064691
 40
0.0599271030516483
 40
0.068997681116614
 40
0.0780756475332183
 40
0.0871462236246893
 40
0.0959600132953052
 40
0.1047805825648347
 40
0.1135943708365694
 40
0.1226641030489303
 40
0.1317412259591783
 40
0.140810957185042
 40
0.1496259158357017
 40
0.1584476596238051
 40
0.1672626180128621
 40
0.1763336915840959
 40
0.1854121605850575
 40
0.1944832345900435
 40
0.2033009492146176
 40
0.212125454987093
 40
0.2209431706045726
 40
0.2300171866568038
 40
0.2390986031857546
 40
0.2481726209042185
 40
0.2569934712390703
 40
0.2658211165656958
 40
0.2746419687144784
 40
0.283719239235168
 40
0.2928039133788519
 40
0.3018811860687521
 40
0.3107041763439062
 40
0.3195339615961892
 40
0.3283569537103866
 40
0.3374363629399269
 40
0.3465231756542594
 40
0.3556025866039957
 40
0.3644257821466265
 40
0.3732557688007861
 40
0.3820789654004483
 40
0.3911584592682316
 40
0.4002453532604787
 40
0.4093248476449063
 40
0.4181462245554278
 40
0.4269743865625668
 40
0.4357957632861714
 40
0.4448732515683863
 40
0.4539581348706788
 40
0.4630356222411769
 40
0.471853954899956
 40
0.4806790671290639
 40
0.4894973984414157
 40
0.4985716711580744
 40
0.5076533342837621
 40
0.5167276050617783
 40
0.5255430017560764
 40
0.534365175398297
 40
0.5431805701773027
 40
0.5522518261426214
 40
0.5613304704149177
 40
0.57040172426403
 40
0.579215578674754
 40
0.5880362114596732
 40
0.5968500642241815
 40
0.6059198229464083
 40
0.6149969713014338
 40
0.6240667286559617
 40
0.6328811101929381
 40
0.6417022749589983
 40
0.6505166558399987
 40
0.6595870929722417
 40
0.6686649239142977
 40
0.6777353610270967
 40
0.6865521094067528
 40
0.6953756471780522
 40
0.7041923961817125
 40
0.7132653915563376
 40
0.7223457859426601
 40
0.7314187826568245
 40
0.740238701046085
 40
0.7490654135940986
 40
0.7578853336160586
 40
0.7669616465454102
 40
0.7760453624306949
 40
0.7851216774727332
 40
0.7939441786306617
 40
0.8027734752216643
 40
0.8115959783049594
 40
0.8206749128078998
 40
0.8297612512190052
 40
0.8388401876807288
 40
0.8476635511010341
 40
0.8564937071761352
 40
0.8653170719690337
 40
0.874396781780383
 40
0.8834838930429731
 40
0.8925636037995359
 40
0.9013861386314407
 40
0.9102154614538194
 40
0.919037996504593
 40
0.9281167400389146
 40
0.9372028813279992
 40
0.9462816243807778
 40
0.9551041840305176
 40
0.9639335322078463
 40
0.9727560908278798
 40
0.981834927697164
 40
0.990921164828257
 40
1.0
 40
1.0
 40
1.0
 40
1.0
 10
1083.365174705142
 20
215.2338467305128
 30
0.0
 10
1083.307015359589
 20
215.3284095355312
 30
0.0
 10
1083.190624978035
 20
215.5176517089479
 30
0.0
 10
1083.00237525123
 20
215.7918293342724
 30
0.0
 10
1082.819046428626
 20
216.0387454251879
 30
0.0
 10
1082.642572615091
 20
216.258735471748
 30
0.0
 10
1082.47552878875
 20
216.4536986566151
 30
0.0
 10
1082.302372848788
 20
216.6426863730386
 30
0.0
 10
1082.123467747811
 20
216.8247779737066
 30
0.0
 10
1081.939305561467
 20
216.9991535251426
 30
0.0
 10
1081.753940122398
 20
217.1619761276574
 30
0.0
 10
1081.568044076063
 20
217.3129558858008
 30
0.0
 10
1081.382273092213
 20
217.4520735946926
 30
0.0
 10
1081.193596516587
 20
217.5815986376686
 30
0.0
 10
1081.00255835037
 20
217.7006521471434
 30
0.0
 10
1080.809780875544
 20
217.8085541179785
 30
0.0
 10
1080.619493493557
 20
217.9029363929279
 30
0.0
 10
1080.432298003274
 20
217.9837912874141
 30
0.0
 10
1080.248703111845
 20
218.0514062151598
 30
0.0
 10
1080.065727394262
 20
218.1068784940908
 30
0.0
 10
1079.884048643221
 20
218.1494813608243
 30
0.0
 10
1079.704345538569
 20
218.1787486183385
 30
0.0
 10
1079.530552508926
 20
218.1940383286968
 30
0.0
 10
1079.363133748542
 20
218.1956262325587
 30
0.0
 10
1079.202394727927
 20
218.1840749016236
 30
0.0
 10
1079.045734147213
 20
218.1591963270574
 30
0.0
 10
1078.893887134262
 20
218.120498232371
 30
0.0
 10
1078.747512072992
 20
218.0677811369123
 30
0.0
 10
1078.609813103945
 20
218.0021979298583
 30
0.0
 10
1078.481064149257
 20
217.9242789184072
 30
0.0
 10
1078.361332404174
 20
217.8348005069335
 30
0.0
 10
1078.248681619117
 20
217.7323145063128
 30
0.0
 10
1078.143821037645
 20
217.6166190063616
 30
0.0
 10
1078.047314240823
 20
217.4878038611096
 30
0.0
 10
1077.961277322092
 20
217.348693175723
 30
0.0
 10
1077.885761326765
 20
217.200013827894
 30
0.0
 10
1077.820585954949
 20
217.0426698614221
 30
0.0
 10
1077.764694674768
 20
216.8741098800949
 30
0.0
 10
1077.71869056968
 20
216.6944450627977
 30
0.0
 10
1077.682978759295
 20
216.5040442538546
 30
0.0
 10
1077.658344135127
 20
216.3070948941848
 30
0.0
 10
1077.644607620419
 20
216.1044381473473
 30
0.0
 10
1077.641360606412
 20
215.8970030887783
 30
0.0
 10
1077.648549910931
 20
215.6814121380502
 30
0.0
 10
1077.666604471303
 20
215.4580766059516
 30
0.0
 10
1077.695725424305
 20
215.2276023877542
 30
0.0
 10
1077.735269636251
 20
214.9950729207997
 30
0.0
 10
1077.784848242422
 20
214.7613466743027
 30
0.0
 10
1077.843870828338
 20
214.527270946288
 30
0.0
 10
1077.91330196732
 20
214.2890178179271
 30
0.0
 10
1077.993348411547
 20
214.0472519537852
 30
0.0
 10
1078.083984918398
 20
213.8027478281407
 30
0.0
 10
1078.183208593409
 20
213.5609062941594
 30
0.0
 10
1078.290466265391
 20
213.3225044055592
 30
0.0
 10
1078.405053878359
 20
213.0882106565923
 30
0.0
 10
1078.528849403014
 20
212.8541837332112
 30
0.0
 10
1078.661814428334
 20
212.6212667094597
 30
0.0
 10
1078.803700322052
 20
212.3903155050621
 30
0.0
 10
1078.9513740626
 20
212.1664289457067
 30
0.0
 10
1079.104182130314
 20
211.9502151536042
 30
0.0
 10
1079.261387464199
 20
211.7420889209325
 30
0.0
 10
1079.425565959959
 20
211.5386392505468
 30
0.0
 10
1079.596438405856
 20
211.3407929716628
 30
0.0
 10
1079.773560684585
 20
211.1493913059511
 30
0.0
 10
1079.95303116306
 20
210.9686504777699
 30
0.0
 10
1080.134169704511
 20
210.7989431447101
 30
0.0
 10
1080.31628908066
 20
210.6403856276473
 30
0.0
 10
1080.50236434463
 20
210.4903877176011
 30
0.0
 10
1080.691906665735
 20
210.3498559349377
 30
0.0
 10
1080.884326234424
 20
210.2195221566695
 30
0.0
 10
1081.075397666631
 20
210.1022491206062
 30
0.0
 10
1081.264489352924
 20
209.9981340687031
 30
0.0
 10
1081.451039842136
 20
209.9069833867371
 30
0.0
 10
1081.638082805488
 20
209.827315322456
 30
0.0
 10
1081.824974557658
 20
209.7599139440416
 30
0.0
 10
1082.011045925097
 20
209.7053191222258
 30
0.0
 10
1082.192221145533
 20
209.6647278203592
 30
0.0
 10
1082.367986662169
 20
209.6379510637659
 30
0.0
 10
1082.537968729655
 20
209.6245068873945
 30
0.0
 10
1082.704920532643
 20
209.6241785123227
 30
0.0
 10
1082.868116030696
 20
209.6375387906757
 30
0.0
 10
1083.026882230708
 20
209.6648743681473
 30
0.0
 10
1083.177744321048
 20
209.7055881255293
 30
0.0
 10
1083.320364448308
 20
209.7592242809999
 30
0.0
 10
1083.454598793476
 20
209.825064942487
 30
0.0
 10
1083.582617886477
 20
209.9041759194041
 30
0.0
 10
1083.703695460826
 20
209.9968538144311
 30
0.0
 10
1083.817230853999
 20
210.1030995055778
 30
0.0
 10
1083.920736297305
 20
210.220585671007
 30
0.0
 10
1084.014089155271
 20
210.3486389336285
 30
0.0
 10
1084.097393212117
 20
210.4863846259403
 30
0.0
 10
1084.171997440937
 20
210.6360543038407
 30
0.0
 10
1084.237257591261
 20
210.7976347725446
 30
0.0
 10
1084.292713242332
 20
210.9708411575941
 30
0.0
 10
1084.337146334248
 20
211.1518680287053
 30
0.0
 10
1084.370665032795
 20
211.3398999280017
 30
0.0
 10
1084.393610488867
 20
211.5340040506615
 30
0.0
 10
1084.406355943861
 20
211.7373364591875
 30
0.0
 10
1084.40841190569
 20
211.9495759828973
 30
0.0
 10
1084.399510030422
 20
212.1701844590782
 30
0.0
 10
1084.379846979673
 20
212.3943033062342
 30
0.0
 10
1084.349749390409
 20
212.6210689396993
 30
0.0
 10
1084.309756876537
 20
212.8495975262581
 30
0.0
 10
1084.259217262095
 20
213.0836182358659
 30
0.0
 10
1084.197850628821
 20
213.3225384722915
 30
0.0
 10
1084.125610937826
 20
213.5656277487366
 30
0.0
 10
1084.044085039255
 20
213.8075420266971
 30
0.0
 10
1083.953781013248
 20
214.0474707793684
 30
0.0
 10
1083.855359892284
 20
214.2846723530926
 30
0.0
 10
1083.747267152582
 20
214.5230365749662
 30
0.0
 10
1083.62927978192
 20
214.7616616227892
 30
0.0
 10
1083.502274698119
 20
215.0000995298474
 30
0.0
 10
1083.410862286465
 20
215.155952166061
 30
0.0
 10
1083.365174705142
 20
215.2338467305128
 30
0.0
  0
SPLINE
  5
142
330
1F
100
AcDbEntity
  8
0
  6
Continuous
 62
     7
370
    30
100
AcDbSpline
210
0.0
220
0.0
230
1.0
 70
    11
 71
     3
 72
   118
 73
   114
 74
     0
 42
0.000000001
 43
0.00000001
 40
0.0
 40
0.0
 40
0.0
 40
0.0
 40
0.0111490746590172
 40
0.022311896209563
 40
0.033460967599496
 40
0.0422753459089757
 40
0.0510965074332706
 40
0.0599108850840179
 40
0.0689813185391089
 40
0.0780591457915933
 40
0.0871295792236488
 40
0.0959463200696071
 40
0.1047698502909469
 40
0.1135865917576148
 40
0.1226595790910441
 40
0.131739965422393
 40
0.1408129540920263
 40
0.1496328640248942
 40
0.1584595681062593
 40
0.1672794796695653
 40
0.176355783828243
 40
0.1854394909345711
 40
0.1945157972045722
 40
0.2033382930919415
 40
0.2121675844137512
 40
0.220990082226521
 40
0.2300690115090333
 40
0.2391553447014433
 40
0.248234275944219
 40
0.2570576399434352
 40
0.2658877966101667
 40
0.2747111619844446
 40
0.2837908727748399
 40
0.2928779850276167
 40
0.3019576967669312
 40
0.3107798307510931
 40
0.3196087518022959
 40
0.3284308860090133
 40
0.3375091925551011
 40
0.3465948957841381
 40
0.355673201852896
 40
0.3644925481107294
 40
0.373318675460744
 40
0.3821380206935908
 40
0.3912133541286248
 40
0.400296079232459
 40
0.4093714109752408
 40
0.4181876338543535
 40
0.4270106340902129
 40
0.4358268551474078
 40
0.4448989497639826
 40
0.4539784329938707
 40
0.4630505254453986
 40
0.471864656934233
 40
0.480685565914333
 40
0.4894996955817054
 40
0.4985697037367177
 40
0.5076471007431441
 40
0.5167171072078267
 40
0.5255310951326408
 40
0.5343518644964154
 40
0.5431658513974889
 40
0.5522358392074973
 40
0.5613132192988194
 40
0.5703832066336094
 40
0.5791990627381692
 40
0.5880217063201141
 40
0.59683756264889
 40
0.6059096063550757
 40
0.6149890474664734
 40
0.6240610921226709
 40
0.6328800105850241
 40
0.6417057220085317
 40
0.6505246418474067
 40
0.6595999178602192
 40
0.6686825958501592
 40
0.6777578738237161
 40
0.6865797061302709
 40
0.6954083339161972
 40
0.7042301681487164
 40
0.7133084354869402
 40
0.7223941068126912
 40
0.7314723762625812
 40
0.7402956953245933
 40
0.7491258083105039
 40
0.7579491290021927
 40
0.7670288340489755
 40
0.77611594164881
 40
0.7851956480311623
 40
0.7940183750581692
 40
0.8028478910673874
 40
0.8116706187132141
 40
0.8207495778239642
 40
0.8298359352421052
 40
0.8389148943273793
 40
0.8477352114314465
 40
0.8565623113625567
 40
0.8653826278057464
 40
0.8744589858645325
 40
0.8835427370388931
 40
0.892619093724698
 40
0.9014370909272774
 40
0.910261868249594
 40
0.9190798638028892
 40
0.9281538339479092
 40
0.9372351956142656
 40
0.9463091636409916
 40
0.9551271884203776
 40
0.9639519981117581
 40
0.9727700209739253
 40
0.9818442154493405
 40
0.9909258074624931
 40
1.0
 40
1.0
 40
1.0
 40
1.0
 10
1065.462245378706
 20
225.7339429975093
 30
0.0
 10
1065.400929935137
 20
225.82611145368
 30
0.0
 10
1065.278223445603
 20
226.0105620104096
 30
0.0
 10
1065.081956520892
 20
226.2757582714545
 30
0.0
 10
1064.892182992686
 20
226.513179986705
 30
0.0
 10
1064.710699556557
 20
226.723372649039
 30
0.0
 10
1064.539800386724
 20
226.9085727560996
 30
0.0
 10
1064.363550353962
 20
227.0869265018017
 30
0.0
 10
1064.182355536852
 20
227.2575145283772
 30
0.0
 10
1063.996736861929
 20
227.4195359685842
 30
0.0
 10
1063.810760644958
 20
227.569442111596
 30
0.0
 10
1063.625080628128
 20
227.7069977491318
 30
0.0
 10
1063.440316494139
 20
227.8322471792831
 30
0.0
 10
1063.253475184852
 20
227.9472184478551
 30
0.0
 10
1063.065130886069
 20
228.0510545316809
 30
0.0
 10
1062.875917752581
 20
228.1431136963106
 30
0.0
 10
1062.689976490534
 20
228.2213803794162
 30
0.0
 10
1062.507875600043
 20
228.285907118166
 30
0.0
 10
1062.33007560511
 20
228.3370436065847
 30
0.0
 10
1062.153701036769
 20
228.3756159671179
 30
0.0
 10
1061.97944156323
 20
228.4009396239166
 30
0.0
 10
1061.807969536722
 20
228.4126011206999
 30
0.0
 10
1061.643041908854
 20
228.4103444850073
 30
0.0
 10
1061.485076913599
 20
228.3945061522698
 30
0.0
 10
1061.334323168246
 20
228.3657039758287
 30
0.0
 10
1061.188339072223
 20
228.3234709354846
 30
0.0
 10
1061.047851665801
 20
228.2673724046048
 30
0.0
 10
1060.913495431526
 20
228.1972698783205
 30
0.0
 10
1060.7882218533
 20
228.114703753941
 30
0.0
 10
1060.672249945762
 20
228.0202578979962
 30
0.0
 10
1060.565586737456
 20
227.9147496587801
 30
0.0
 10
1060.466497774299
 20
227.7964636390001
 30
0.0
 10
1060.375665237756
 20
227.6652640283093
 30
0.0
 10
1060.293614143368
 20
227.5213026220161
 30
0.0
 10
1060.222151929643
 20
227.367752668679
 30
0.0
 10
1060.161272480577
 20
227.2053788514866
 30
0.0
 10
1060.110739586947
 20
227.0351047953975
 30
0.0
 10
1060.069727270578
 20
226.8541498353447
 30
0.0
 10
1060.038796024889
 20
226.6626918313092
 30
0.0
 10
1060.018302401536
 20
226.4611554225252
 30
0.0
 10
1060.008698006415
 20
226.2539917770177
 30
0.0
 10
1060.009752790365
 20
226.0420578878632
 30
0.0
 10
1060.021014680452
 20
225.8262774026489
 30
0.0
 10
1060.042667408967
 20
225.6031148789371
 30
0.0
 10
1060.075086937633
 20
225.3730414439564
 30
0.0
 10
1060.118421425422
 20
225.1367066094877
 30
0.0
 10
1060.171713057285
 20
224.8993304900237
 30
0.0
 10
1060.234535540711
 20
224.6617641265757
 30
0.0
 10
1060.306273548198
 20
224.4248258743382
 30
0.0
 10
1060.388102623206
 20
224.184631193413
 30
0.0
 10
1060.48017209582
 20
223.9418914468246
 30
0.0
 10
1060.582405120132
 20
223.6974080306165
 30
0.0
 10
1060.692547612211
 20
223.456571089371
 30
0.0
 10
1060.810026449446
 20
223.2201303121315
 30
0.0
 10
1060.934133422037
 20
222.9887073646331
 30
0.0
 10
1061.066898236237
 20
222.758517074795
 30
0.0
 10
1061.20822671212
 20
222.5304312805927
 30
0.0
 10
1061.357825490886
 20
222.3053132614368
 30
0.0
 10
1061.51240650392
 20
222.088111602656
 30
0.0
 10
1061.671314097681
 20
221.8793923429708
 30
0.0
 10
1061.833826446095
 20
221.6795124705171
 30
0.0
 10
1062.002590344106
 20
221.4852170060355
 30
0.0
 10
1062.17727838794
 20
221.2974403525529
 30
0.0
 10
1062.357413506015
 20
221.1170104779854
 30
0.0
 10
1062.539047841179
 20
220.9478827535357
 30
0.0
 10
1062.721515440427
 20
220.7903775649995
 30
0.0
 10
1062.904160626883
 20
220.6445483397736
 30
0.0
 10
1063.089945244486
 20
220.5080310766681
 30
0.0
 10
1063.278345268054
 20
220.3817173636472
 30
0.0
 10
1063.468753580794
 20
220.2663063007982
 30
0.0
 10
1063.657003170044
 20
220.1643246533974
 30
0.0
 10
1063.8424913874
 20
220.0758107324455
 30
0.0
 10
1064.024701492811
 20
220.0005077259944
 30
0.0
 10
1064.206580847558
 20
219.9371984802217
 30
0.0
 10
1064.387467889099
 20
219.8866308286569
 30
0.0
 10
1064.566694052151
 20
219.8492958294762
 30
0.0
 10
1064.740334738965
 20
219.8260116862868
 30
0.0
 10
1064.907918675129
 20
219.8165281778721
 30
0.0
 10
1065.069126730609
 20
219.8203051432133
 30
0.0
 10
1065.226567794784
 20
219.8374043964609
 30
0.0
 10
1065.379517669137
 20
219.8683452927588
 30
0.0
 10
1065.527321992257
 20
219.9133553178098
 30
0.0
 10
1065.66673679346
 20
219.9714465168324
 30
0.0
 10
1065.797476917462
 20
220.0421063826983
 30
0.0
 10
1065.919458399573
 20
220.1245707746355
 30
0.0
 10
1066.034661924991
 20
220.2201787660332
 30
0.0
 10
1066.142382636259
 20
220.3291626649566
 30
0.0
 10
1066.242054293558
 20
220.4514609161586
 30
0.0
 10
1066.331483011176
 20
220.5843802072279
 30
0.0
 10
1066.410603482243
 20
220.7272035869833
 30
0.0
 10
1066.47957762569
 20
220.8790295309783
 30
0.0
 10
1066.539530967127
 20
221.0423340764991
 30
0.0
 10
1066.589857490128
 20
221.2170366880409
 30
0.0
 10
1066.63014279056
 20
221.4027940653399
 30
0.0
 10
1066.659498603655
 20
221.595505334965
 30
0.0
 10
1066.678086894225
 20
221.7943319575437
 30
0.0
 10
1066.68629696012
 20
221.9983386624925
 30
0.0
 10
1066.684264017088
 20
222.2108653369201
 30
0.0
 10
1066.671548919636
 20
222.4315281132713
 30
0.0
 10
1066.647935543959
 20
222.6597408499173
 30
0.0
 10
1066.613945274754
 20
222.8904690950741
 30
0.0
 10
1066.569946413859
 20
223.122849805883
 30
0.0
 10
1066.516509180309
 20
223.3560212528686
 30
0.0
 10
1066.452759398268
 20
223.5937994617449
 30
0.0
 10
1066.37847379765
 20
223.8355403395331
 30
0.0
 10
1066.293658957866
 20
224.0804807803661
 30
0.0
 10
1066.200177109555
 20
224.3232379381571
 30
0.0
 10
1066.098562167454
 20
224.5630229374162
 30
0.0
 10
1065.989487632343
 20
224.7991341562217
 30
0.0
 10
1065.871220923267
 20
225.0354488874254
 30
0.0
 10
1065.743613850607
 20
225.2710072835651
 30
0.0
 10
1065.60752346293
 20
225.5054350792496
 30
0.0
 10
1065.510658247489
 20
225.6577943896746
 30
0.0
 10
1065.462245378706
 20
225.7339429975093
 30
0.0
  0
LWPOLYLINE
  5
143
330
1F
100
AcDbEntity
  8
0
  6
Continuous
 62
     7
370
    30
100
AcDbPolyline
 90
       36
 70
   128
 43
0.0
 10
1071.7245140473
 20
271.0042914242
 10
1071.4635244903
 20
271.1510121936
 10
1071.2027138025
 20
271.2897418183
 10
1070.9422607305
 20
271.42038522
 10
1070.6823437759
 20
271.5428528621
 10
1070.4231410727
 20
271.6570608115
 10
1070.1648302656
 20
271.7629307957
 10
1069.9075883878
 20
271.8603902568
 10
1069.6515917401
 20
271.9493724009
 10
1069.3970157698
 20
272.0298162441
 10
1069.1440349506
 20
272.1016666541
 10
1068.8928226628
 20
272.1648743884
 10
1068.6435510749
 20
272.2193961274
 10
1068.3963910251
 20
272.2651945048
 10
1068.1515119046
 20
272.3022381326
 10
1067.9090815412
 20
272.3305016228
 10
1067.6692660848
 20
272.3499656053
 10
1067.4322298927
 20
272.3606167402
 10
1067.1981354177
 20
272.3624477279
 10
1066.9671430966
 20
272.3554573135
 10
1066.7394112399
 20
272.3396502879
 10
1066.5150959237
 20
272.3150374844
 10
1066.2943508824
 20
272.2816357713
 10
1066.0773274037
 20
272.2394680407
 10
1065.8641742246
 20
272.188563192
 10
1065.6550374297
 20
272.1289561131
 10
1065.450060351
 20
272.0606876555
 10
1065.2493834693
 20
271.983804607
 10
1065.0531443188
 20
271.8983596596
 10
1064.8614773918
 20
271.8044113728
 10
1064.6745140473
 20
271.7020241341
 10
1064.4923824206
 20
271.5912681147
 10
1064.3152073357
 20
271.4722192211
 10
1064.1431102196
 20
271.3449590436
 10
1063.9762090189
 20
271.2095747999
 10
1063.8868620792
 20
271.1318554592
  0
LWPOLYLINE
  5
144
330
1F
100
AcDbEntity
  8
0
  6
Continuous
 62
     7
370
    30
100
AcDbPolyline
 90
       96
 70
   128
 43
0.0
 10
1077.8857243361
 20
246.8824873125
 10
1077.9989677436
 20
246.9214442977
 10
1078.1996446252
 20
246.9983273462
 10
1078.3958837758
 20
247.0837722936
 10
1078.5875507028
 20
247.1777205804
 10
1078.7745140473
 20
247.2801078191
 10
1078.9566456739
 20
247.3908638385
 10
1079.1338207588
 20
247.5099127321
 10
1079.305917875
 20
247.6371729096
 10
1079.4728190757
 20
247.7725571533
 10
1079.6344099751
 20
247.9159726776
 10
1079.790579827
 20
248.0673211927
 10
1079.9412216003
 20
248.2264989718
 10
1080.0862320527
 20
248.3933969225
 10
1080.2255118013
 20
248.5679006611
 10
1080.3589653906
 20
248.7498905917
 10
1080.4865013583
 20
248.9392419874
 10
1080.6080322975
 20
249.1358250761
 10
1080.7234749171
 20
249.3395051297
 10
1080.8327500984
 20
249.550142556
 10
1080.9357829497
 20
249.7675929947
 10
1081.0325028573
 20
249.991707416
 10
1081.1228435344
 20
250.2223322232
 10
1081.206743066
 20
250.4593093576
 10
1081.2841439514
 20
250.7024764067
 10
1081.354993144
 20
250.9516667162
 10
1081.4192420872
 20
251.2067095034
 10
1081.4768467481
 20
251.4674299746
 10
1081.5277676474
 20
251.7336494453
 10
1081.5719698863
 20
252.0051854617
 10
1081.6094231708
 20
252.2818519266
 10
1081.6401018325
 20
252.5634592268
 10
1081.6639848455
 20
252.8498143626
 10
1081.6810558417
 20
253.1407210806
 10
1081.6913031216
 20
253.4359800077
 10
1081.694719662
 20
253.7353887883
 10
1081.6913031216
 20
254.0387422225
 10
1081.6810558417
 20
254.345832407
 10
1081.6639848455
 20
254.6564488777
 10
1081.6401018324
 20
254.9703787534
 10
1081.6094231708
 20
255.2874068823
 10
1081.5719698863
 20
255.6073159892
 10
1081.5277676474
 20
255.9298868244
 10
1081.4768467481
 20
256.2548983138
 10
1081.4192420872
 20
256.5821277109
 10
1081.354993144
 20
256.911350749
 10
1081.2841439514
 20
257.242341795
 10
1081.206743066
 20
257.5748740043
 10
1081.1228435344
 20
257.9087194758
 10
1081.0325028573
 20
258.2436494086
 10
1080.9357829497
 20
258.5794342584
 10
1080.8327500984
 20
258.9158438951
 10
1080.7234749171
 20
259.2526477602
 10
1080.6080322975
 20
259.5896150252
 10
1080.4865013583
 20
259.9265147497
 10
1080.3589653906
 20
260.2631160393
 10
1080.2255118013
 20
260.5991882044
 10
1080.0862320527
 20
260.9345009178
 10
1079.9412216003
 20
261.2688243731
 10
1079.790579827
 20
261.6019294415
 10
1079.6344099751
 20
261.9335878296
 10
1079.4728190757
 20
262.2635722351
 10
1079.305917875
 20
262.5916565034
 10
1079.1338207588
 20
262.9176157819
 10
1078.9566456739
 20
263.2412266742
 10
1078.7745140473
 20
263.5622673937
 10
1078.5875507028
 20
263.8805179152
 10
1078.3958837758
 20
264.1957601255
 10
1078.1996446252
 20
264.5077779735
 10
1077.9989677436
 20
264.8163576176
 10
1077.7939906648
 20
265.1212875729
 10
1077.5848538699
 20
265.4223588555
 10
1077.3717006909
 20
265.7193651263
 10
1077.1546772122
 20
266.0121028319
 10
1076.9339321709
 20
266.3003713446
 10
1076.7096168546
 20
266.5839730995
 10
1076.4818849979
 20
266.8627137302
 10
1076.2508926768
 20
267.1364022018
 10
1076.0167982019
 20
267.4048509418
 10
1075.7797620098
 20
267.6678759688
 10
1075.5399465533
 20
267.9252970188
 10
1075.29751619
 20
268.1769376681
 10
1075.0526370694
 20
268.4226254548
 10
1074.8054770196
 20
268.6621919968
 10
1074.5562054317
 20
268.8954731071
 10
1074.304993144
 20
269.1223089065
 10
1074.0520123247
 20
269.3425439331
 10
1073.7974363544
 20
269.5560272488
 10
1073.5414397067
 20
269.7626125429
 10
1073.284197829
 20
269.9621582319
 10
1073.0258870218
 20
270.1545275574
 10
1072.7666843186
 20
270.339588679
 10
1072.506767364
 20
270.517214765
 10
1072.2463142921
 20
270.6872840794
 10
1071.9855036043
 20
270.8496800651
 10
1071.7245140473
 20
271.0042914242
  0
LWPOLYLINE
  5
145
330
1F
100
AcDbEntity
  8
0
  6
Continuous
 62
     7
370
    30
100
AcDbPolyline
 90
      165
 70
   128
 43
0.0
 10
1080.9156614664
 20
217.4782531881
 10
1081.0386035974
 20
217.404668627
 10
1081.1615459963
 20
217.325864585
 10
1081.2843082281
 20
217.2419567179
 10
1081.4067101224
 20
217.153068172
 10
1081.5285720375
 20
217.0593294037
 10
1081.6497151242
 20
216.9608779873
 10
1081.7699615884
 20
216.857858414
 10
1081.8891349517
 20
216.7504218792
 10
1082.0070603108
 20
216.6387260609
 10
1082.123564594
 20
216.5229348879
 10
1082.2384768152
 20
216.4032182999
 10
1082.3516283249
 20
216.2797519975
 10
1082.4628530576
 20
216.1527171845
 10
1082.5719877757
 20
216.0223003019
 10
1082.6788723089
 20
215.8886927546
 10
1082.7833497895
 20
215.75209063
 10
1082.8852668823
 20
215.6126944106
 10
1082.9844740099
 20
215.4707086796
 10
1083.0808255723
 20
215.3263418206
 10
1083.1741801602
 20
215.1798057118
 10
1083.2644007628
 20
215.0313154154
 10
1083.3513549691
 20
214.8810888611
 10
1083.4349151616
 20
214.7293465272
 10
1083.5149587044
 20
214.5763111166
 10
1083.5913681224
 20
214.4222072297
 10
1083.6640312743
 20
214.2672610353
 10
1083.7328415169
 20
214.1116999382
 10
1083.7976978618
 20
213.955752246
 10
1083.8585051232
 20
213.7996468332
 10
1083.9151740581
 20
213.6436128061
 10
1083.9676214971
 20
213.4878791661
 10
1084.0157704662
 20
213.332674474
 10
1084.0595503003
 20
213.1782265138
 10
1084.0988967464
 20
213.0247619594
 10
1084.1337520582
 20
212.8725060411
 10
1084.1640650807
 20
212.7216822155
 10
1084.1897913253
 20
212.5725118373
 10
1084.2108930352
 20
212.4252138346
 10
1084.2273392408
 20
212.2800043877
 10
1084.2391058051
 20
212.1370966112
 10
1084.2461754588
 20
211.9967002422
 10
1084.2485378264
 20
211.8590213316
 10
1084.2461894407
 20
211.7242619423
 10
1084.2391337484
 20
211.5926198522
 10
1084.2273811046
 20
211.4642882643
 10
1084.2109487579
 20
211.3394555228
 10
1084.1898608252
 20
211.218304837
 10
1084.1641482557
 20
211.1010140123
 10
1084.1338487864
 20
210.9877551891
 10
1084.0990068857
 20
210.8786945903
 10
1084.0596736891
 20
210.7739922774
 10
1084.0159069234
 20
210.6738019156
 10
1083.9677708224
 20
210.5782705479
 10
1083.9153360324
 20
210.4875383799
 10
1083.8586795088
 20
210.4017385734
 10
1083.7978844027
 20
210.3209970516
 10
1083.7330399394
 20
210.2454323138
 10
1083.6642412871
 20
210.1751552616
 10
1083.5915894173
 20
210.1102690363
 10
1083.5151909567
 20
210.0508688674
 10
1083.4351580304
 20
209.9970419328
 10
1083.3516080979
 20
209.948867231
 10
1083.2646637802
 20
209.9064154649
 10
1083.1744526801
 20
209.8697489385
 10
1083.0811071947
 20
209.8389214649
 10
1082.9847643216
 20
209.8139782876
 10
1082.8855654571
 20
209.7949560143
 10
1082.7836561893
 20
209.7818825627
 10
1082.679186084
 20
209.7747771199
 10
1082.5723084656
 20
209.7736501141
 10
1082.4631801916
 20
209.7785031994
 10
1082.3519614229
 20
209.7893292533
 10
1082.2388153883
 20
209.8061123868
 10
1082.1239081454
 20
209.8288279686
 10
1082.0074083362
 20
209.8574426604
 10
1081.8894869403
 20
209.8919144661
 10
1081.7703170237
 20
209.9321927936
 10
1081.6500734845
 20
209.978218529
 10
1081.5289327969
 20
210.0299241231
 10
1081.4070727514
 20
210.0872336908
 10
1081.2846721945
 20
210.1500631224
 10
1081.1619107659
 20
210.2183202071
 10
1081.0389686348
 20
210.2919047682
 10
1080.9160262359
 20
210.3707088102
 10
1080.7932640041
 20
210.4546166773
 10
1080.6708621098
 20
210.5435052232
 10
1080.5490001947
 20
210.6372439916
 10
1080.427857108
 20
210.7356954079
 10
1080.3076106439
 20
210.8387149812
 10
1080.1884372806
 20
210.946151516
 10
1080.0705119214
 20
211.0578473344
 10
1079.9540076382
 20
211.1736385073
 10
1079.839095417
 20
211.2933550953
 10
1079.7259439073
 20
211.4168213977
 10
1079.6147191746
 20
211.5438562108
 10
1079.5055844565
 20
211.6742730933
 10
1079.3986999233
 20
211.8078806407
 10
1079.2942224427
 20
211.9444827653
 10
1079.1923053499
 20
212.0838789846
 10
1079.0930982223
 20
212.2258647157
 10
1078.9967466599
 20
212.3702315747
 10
1078.903392072
 20
212.5167676834
 10
1078.8131714694
 20
212.6652579799
 10
1078.7262172632
 20
212.8154845341
 10
1078.6426570706
 20
212.967226868
 10
1078.5626135279
 20
213.1202622787
 10
1078.4862041099
 20
213.2743661656
 10
1078.4135409579
 20
213.42931236
 10
1078.3447307153
 20
213.584873457
 10
1078.2798743705
 20
213.7408211493
 10
1078.2190671091
 20
213.8969265621
 10
1078.1623981741
 20
214.0529605892
 10
1078.1099507352
 20
214.2086942291
 10
1078.061801766
 20
214.3638989213
 10
1078.0180219319
 20
214.5183468814
 10
1077.9786754858
 20
214.6718114358
 10
1077.943820174
 20
214.8240673541
 10
1077.9135071516
 20
214.9748911797
 10
1077.8877809069
 20
215.1240615579
 10
1077.866679197
 20
215.2713595606
 10
1077.8502329914
 20
215.4165690076
 10
1077.8384664272
 20
215.559476784
 10
1077.8313967734
 20
215.699873153
 10
1077.8290344058
 20
215.8375520636
 10
1077.8313827915
 20
215.9723114529
 10
1077.8384384838
 20
216.103953543
 10
1077.8501911276
 20
216.2322851309
 10
1077.8666234743
 20
216.3571178724
 10
1077.8877114071
 20
216.4782685582
 10
1077.9134239765
 20
216.5955593829
 10
1077.9437234458
 20
216.7088182062
 10
1077.9785653465
 20
216.8178788049
 10
1078.0178985431
 20
216.9225811178
 10
1078.0616653088
 20
217.0227714796
 10
1078.1098014098
 20
217.1183028473
 10
1078.1622361998
 20
217.2090350153
 10
1078.2188927234
 20
217.2948348218
 10
1078.2796878295
 20
217.3755763436
 10
1078.3445322928
 20
217.4511410814
 10
1078.4133309451
 20
217.5214181336
 10
1078.4859828149
 20
217.5863043589
 10
1078.5623812756
 20
217.6457045278
 10
1078.6424142018
 20
217.6995314624
 10
1078.7259641343
 20
217.7477061643
 10
1078.812908452
 20
217.7901579303
 10
1078.9031195522
 20
217.8268244567
 10
1078.9964650375
 20
217.8576519303
 10
1079.0928079106
 20
217.8825951076
 10
1079.1920067751
 20
217.9016173809
 10
1079.2939160429
 20
217.9146908325
 10
1079.3983861482
 20
217.9217962753
 10
1079.5052637667
 20
217.9229232811
 10
1079.6143920406
 20
217.9180701958
 10
1079.7256108093
 20
217.907244142
 10
1079.8387568439
 20
217.8904610084
 10
1079.9536640869
 20
217.8677454266
 10
1080.0701638961
 20
217.8391307348
 10
1080.1880852919
 20
217.8046589291
 10
1080.3072552086
 20
217.7643806016
 10
1080.4274987477
 20
217.7183548662
 10
1080.5486394353
 20
217.6666492721
 10
1080.6704994808
 20
217.6093397044
 10
1080.7929000377
 20
217.5465102728
 10
1080.9156614664
 20
217.4782531881
  0
LWPOLYLINE
  5
146
330
1F
100
AcDbEntity
  8
0
  6
Continuous
 62
     7
370
    30
100
AcDbPolyline
 90
      165
 70
   128
 43
0.0
 10
1063.2379919367
 20
227.6833545859
 10
1063.3609340677
 20
227.6097700248
 10
1063.4838764666
 20
227.5309659828
 10
1063.6066386985
 20
227.4470581157
 10
1063.7290405928
 20
227.3581695698
 10
1063.8509025079
 20
227.2644308014
 10
1063.9720455946
 20
227.1659793851
 10
1064.0922920587
 20
227.0629598118
 10
1064.211465422
 20
226.955523277
 10
1064.3293907811
 20
226.8438274586
 10
1064.4458950643
 20
226.7280362857
 10
1064.5608072856
 20
226.6083196977
 10
1064.6739587952
 20
226.4848533953
 10
1064.7851835279
 20
226.3578185822
 10
1064.894318246
 20
226.2274016997
 10
1065.0012027792
 20
226.0937941523
 10
1065.1056802598
 20
225.9571920278
 10
1065.2075973526
 20
225.8177958084
 10
1065.3068044803
 20
225.6758100773
 10
1065.4031560426
 20
225.5314432183
 10
1065.4965106305
 20
225.3849071096
 10
1065.5867312332
 20
225.2364168131
 10
1065.6736854394
 20
225.0861902589
 10
1065.7572456319
 20
224.934447925
 10
1065.8372891747
 20
224.7814125143
 10
1065.9136985927
 20
224.6273086275
 10
1065.9863617446
 20
224.472362433
 10
1066.0551719873
 20
224.316801336
 10
1066.1200283321
 20
224.1608536437
 10
1066.1808355935
 20
224.0047482309
 10
1066.2375045284
 20
223.8487142039
 10
1066.2899519674
 20
223.6929805639
 10
1066.3381009365
 20
223.5377758718
 10
1066.3818807707
 20
223.3833279116
 10
1066.4212272168
 20
223.2298633572
 10
1066.4560825285
 20
223.0776074389
 10
1066.486395551
 20
222.9267836133
 10
1066.5121217956
 20
222.7776132351
 10
1066.5332235056
 20
222.6303152324
 10
1066.5496697112
 20
222.4851057854
 10
1066.5614362754
 20
222.342198009
 10
1066.5685059291
 20
222.20180164
 10
1066.5708682967
 20
222.0641227294
 10
1066.5685199111
 20
221.9293633401
 10
1066.5614642187
 20
221.79772125
 10
1066.5497115749
 20
221.6693896621
 10
1066.5332792283
 20
221.5445569206
 10
1066.5121912955
 20
221.4234062348
 10
1066.4864787261
 20
221.3061154101
 10
1066.4561792567
 20
221.1928565868
 10
1066.4213373561
 20
221.0837959881
 10
1066.3820041595
 20
220.9790936752
 10
1066.3382373938
 20
220.8789033134
 10
1066.2901012928
 20
220.7833719457
 10
1066.2376665028
 20
220.6926397777
 10
1066.1810099791
 20
220.6068399712
 10
1066.1202148731
 20
220.5260984494
 10
1066.0553704098
 20
220.4505337116
 10
1065.9865717575
 20
220.3802566594
 10
1065.9139198877
 20
220.3153704341
 10
1065.837521427
 20
220.2559702652
 10
1065.7574885007
 20
220.2021433306
 10
1065.6739385682
 20
220.1539686288
 10
1065.5869942505
 20
220.1115168627
 10
1065.4967831504
 20
220.0748503363
 10
1065.4034376651
 20
220.0440228627
 10
1065.307094792
 20
220.0190796854
 10
1065.2078959275
 20
220.0000574121
 10
1065.1059866596
 20
219.9869839605
 10
1065.0015165543
 20
219.9798785177
 10
1064.8946389359
 20
219.9787515119
 10
1064.7855106619
 20
219.9836045972
 10
1064.6742918932
 20
219.994430651
 10
1064.5611458587
 20
220.0112137846
 10
1064.4462386157
 20
220.0339293664
 10
1064.3297388065
 20
220.0625440582
 10
1064.2118174106
 20
220.0970158639
 10
1064.092647494
 20
220.1372941914
 10
1063.9724039549
 20
220.1833199268
 10
1063.8512632672
 20
220.2350255209
 10
1063.7294032217
 20
220.2923350886
 10
1063.6070026648
 20
220.3551645202
 10
1063.4842412362
 20
220.4234216049
 10
1063.3612991052
 20
220.497006166
 10
1063.2383567063
 20
220.575810208
 10
1063.1155944744
 20
220.6597180751
 10
1062.9931925801
 20
220.748606621
 10
1062.871330665
 20
220.8423453893
 10
1062.7501875783
 20
220.9407968057
 10
1062.6299411142
 20
221.043816379
 10
1062.5107677509
 20
221.1512529138
 10
1062.3928423918
 20
221.2629487321
 10
1062.2763381086
 20
221.3787399051
 10
1062.1614258873
 20
221.4984564931
 10
1062.0482743777
 20
221.6219227955
 10
1061.937049645
 20
221.7489576086
 10
1061.8279149269
 20
221.8793744911
 10
1061.7210303937
 20
222.0129820385
 10
1061.6165529131
 20
222.149584163
 10
1061.5146358203
 20
222.2889803824
 10
1061.4154286926
 20
222.4309661134
 10
1061.3190771303
 20
222.5753329725
 10
1061.2257225424
 20
222.7218690812
 10
1061.1355019397
 20
222.8703593777
 10
1061.0485477335
 20
223.0205859319
 10
1060.964987541
 20
223.1723282658
 10
1060.8849439982
 20
223.3253636764
 10
1060.8085345802
 20
223.4794675633
 10
1060.7358714283
 20
223.6344137577
 10
1060.6670611856
 20
223.7899748548
 10
1060.6022048408
 20
223.9459225471
 10
1060.5413975794
 20
224.1020279599
 10
1060.4847286445
 20
224.2580619869
 10
1060.4322812055
 20
224.4137956269
 10
1060.3841322363
 20
224.569000319
 10
1060.3403524022
 20
224.7234482792
 10
1060.3010059561
 20
224.8769128336
 10
1060.2661506444
 20
225.0291687519
 10
1060.2358376219
 20
225.1799925775
 10
1060.2101113773
 20
225.3291629557
 10
1060.1890096673
 20
225.4764609584
 10
1060.1725634617
 20
225.6216704054
 10
1060.1607968975
 20
225.7645781818
 10
1060.1537272438
 20
225.9049745508
 10
1060.1513648762
 20
226.0426534614
 10
1060.1537132618
 20
226.1774128507
 10
1060.1607689542
 20
226.3090549408
 10
1060.172521598
 20
226.4373865287
 10
1060.1889539446
 20
226.5622192702
 10
1060.2100418774
 20
226.683369956
 10
1060.2357544468
 20
226.8006607807
 10
1060.2660539162
 20
226.9139196039
 10
1060.3008958168
 20
227.0229802027
 10
1060.3402290134
 20
227.1276825156
 10
1060.3839957791
 20
227.2278728774
 10
1060.4321318801
 20
227.3234042451
 10
1060.4845666701
 20
227.4141364131
 10
1060.5412231938
 20
227.4999362196
 10
1060.6020182998
 20
227.5806777414
 10
1060.6668627631
 20
227.6562424792
 10
1060.7356614154
 20
227.7265195314
 10
1060.8083132852
 20
227.7914057567
 10
1060.8847117459
 20
227.8508059256
 10
1060.9647446722
 20
227.9046328602
 10
1061.0482946047
 20
227.952807562
 10
1061.1352389224
 20
227.9952593281
 10
1061.2254500225
 20
228.0319258545
 10
1061.3187955078
 20
228.0627533281
 10
1061.4151383809
 20
228.0876965054
 10
1061.5143372454
 20
228.1067187787
 10
1061.6162465133
 20
228.1197922303
 10
1061.7207166186
 20
228.1268976731
 10
1061.827594237
 20
228.1280246789
 10
1061.936722511
 20
228.1231715936
 10
1062.0479412797
 20
228.1123455398
 10
1062.1610873142
 20
228.0955624062
 10
1062.2759945572
 20
228.0728468244
 10
1062.3924943664
 20
228.0442321326
 10
1062.5104157623
 20
228.0097603269
 10
1062.6295856789
 20
227.9694819994
 10
1062.749829218
 20
227.923456264
 10
1062.8709699057
 20
227.8717506699
 10
1062.9928299512
 20
227.8144411022
 10
1063.1152305081
 20
227.7516116706
 10
1063.2379919367
 20
227.6833545859
  0
LWPOLYLINE
  5
147
330
1F
100
AcDbEntity
  8
0
  6
Continuous
 62
     7
370
    30
100
AcDbPolyline
 90
        3
 70
   128
 43
0.0
 10
848.2315592812
 20
91.6212469726
 10
848.2315603578
 20
91.6181057943
 10
848.2348059231
 20
91.4487624156
  0
LINE
  5
148
330
1F
100
AcDbEntity
  8
0
  6
Continuous
 62
     7
370
    30
100
AcDbLine
 10
875.9806813259
 20
97.8181003586
 30
0.0
 11
875.9815592812
 21
97.9086112241
 31
0.0
  0
LINE
  5
149
330
1F
100
AcDbEntity
  8
0
  6
Continuous
 62
     7
370
    30
100
AcDbLine
 10
847.9815592812
 20
97.9086112241
 30
0.0
 11
847.9823510082
 21
97.8226598297
 31
0.0
  0
LWPOLYLINE
  5
14A
330
1F
100
AcDbEntity
  8
0
  6
Continuous
 62
   252
370
     0
100
AcDbPolyline
 90
      123
 70
   128
 43
0.0
 10
1031.2963171198
 20
333.9923205843
 10
1031.97334296
 20
334.3959824343
 10
1033.0970495221
 20
335.011360878
 10
1034.2490260455
 20
335.5760186544
 10
1035.4284830232
 20
336.0895687752
 10
1036.6346121142
 20
336.5516592789
 10
1037.8665866979
 20
336.9619734718
 10
1039.1235624404
 20
337.3202301449
 10
1040.4046778734
 20
337.626183767
 10
1041.7090549843
 20
337.8796246529
 10
1043.0357998183
 20
338.0803791067
 10
1044.3840030906
 20
338.2283095415
 10
1045.7527408101
 20
338.323314573
 10
1047.1410749124
 20
338.3653290896
 10
1048.5480539026
 20
338.3543242966
 10
1049.9727135075
 20
338.2903077362
 10
1051.4140773367
 20
338.1733232821
 10
1052.8711575514
 20
338.0034511096
 10
1054.3429555415
 20
337.7808076407
 10
1055.8284626103
 20
337.505545464
 10
1057.3266606654
 20
337.1778532304
 10
1058.8365229167
 20
336.7979555239
 10
1060.35701458
 20
336.3661127074
 10
1061.8870935864
 20
335.8826207444
 10
1063.425711296
 20
335.347810996
 10
1064.9718132171
 20
334.7620499943
 10
1066.5243397288
 20
334.1257391905
 10
1068.0822268069
 20
333.4393146803
 10
1069.6444067534
 20
332.7032469047
 10
1071.2098089283
 20
331.9180403279
 10
1072.777360483
 20
331.0842330911
 10
1074.345987096
 20
330.2023966443
 10
1075.914613709
 20
329.273135354
 10
1077.4821652637
 20
328.2970860896
 10
1079.0475674385
 20
327.2749177864
 10
1080.609747385
 20
326.2073309876
 10
1082.1676344631
 20
325.0950573639
 10
1083.7201609748
 20
323.9388592119
 10
1085.266262896
 20
322.7395289322
 10
1086.8048806056
 20
321.4978884858
 10
1088.3349596119
 20
320.2147888311
 10
1089.8554512753
 20
318.8911093405
 10
1091.3653135266
 20
317.5277571977
 10
1092.8635115817
 20
316.1256667763
 10
1094.3490186505
 20
314.685798999
 10
1095.8208166406
 20
313.2091406792
 10
1097.2778968553
 20
311.6967038448
 10
1098.7192606844
 20
310.1495250444
 10
1100.1439202894
 20
308.5686646371
 10
1101.5508992795
 20
306.9552060657
 10
1102.9392333818
 20
305.3102551141
 10
1104.3079711013
 20
303.6349391495
 10
1105.6561743737
 20
301.9304063497
 10
1106.9829192076
 20
300.1978249164
 10
1108.2872963185
 20
298.4383822745
 10
1109.5684117515
 20
296.6532842579
 10
1110.8253874941
 20
294.8437542837
 10
1112.0573620777
 20
293.0110325133
 10
1113.2634911687
 20
291.1563750027
 10
1114.4429481464
 20
289.2810528416
 10
1115.5949246699
 20
287.386351282
 10
1116.718631232
 20
285.4735688578
 10
1117.8132977003
 20
283.5440164944
 10
1118.8781738452
 20
281.5990166108
 10
1119.9125298538
 20
279.6399022126
 10
1120.91565683
 20
277.668015979
 10
1121.8868672808
 20
275.6847093424
 10
1122.825495587
 20
273.691341562
 10
1123.7308984598
 20
271.6892787925
 10
1124.6024553811
 20
269.6798931478
 10
1125.4395690294
 20
267.6645617604
 10
1126.2416656888
 20
265.6446658377
 10
1127.0081956424
 20
263.6215897156
 10
1127.7386335488
 20
261.5967199094
 10
1128.4324788023
 20
259.5714441636
 10
1129.0892558761
 20
257.5471505012
 10
1129.7085146479
 20
255.5252262718
 10
1130.2898307088
 20
253.5070572014
 10
1130.8328056538
 20
251.4940264422
 10
1131.3370673548
 20
249.4875136249
 10
1131.8022702163
 20
247.4888939132
 10
1132.2280954112
 20
245.4995370613
 10
1132.6142511005
 20
243.5208064749
 10
1132.9604726321
 20
241.5540582771
 10
1133.2665227232
 20
239.6006403789
 10
1133.5321916224
 20
237.6618915554
 10
1133.7572972533
 20
235.7391405281
 10
1133.94168534
 20
233.8337050547
 10
1134.0852295119
 20
231.9468910253
 10
1134.1878313912
 20
230.079991568
 10
1134.2494206595
 20
228.2342861626
 10
1134.2699551067
 20
226.4110397632
 10
1134.2494206595
 20
224.6115019319
 10
1134.1878313912
 20
222.836905982
 10
1134.0852295119
 20
221.088468133
 10
1133.94168534
 20
219.3673866768
 10
1133.7572972533
 20
217.6748411567
 10
1133.5321916224
 20
216.0119915588
 10
1133.2665227232
 20
214.3799775172
 10
1132.9604726321
 20
212.7799175328
 10
1132.6142511005
 20
211.2129082068
 10
1132.2280954112
 20
209.680023489
 10
1131.8022702163
 20
208.1823139422
 10
1131.3370673548
 20
206.7208060216
 10
1130.8328056538
 20
205.2965013717
 10
1130.2898307088
 20
203.9103761399
 10
1129.7085146479
 20
202.563380307
 10
1129.0892558761
 20
201.2564370368
 10
1128.4324788023
 20
199.990442043
 10
1127.7386335488
 20
198.7662629751
 10
1127.0081956424
 20
197.5847388244
 10
1126.2416656888
 20
196.4466793486
 10
1125.4395690294
 20
195.3528645168
 10
1124.6024553811
 20
194.304043975
 10
1123.7308984598
 20
193.3009365324
 10
1122.825495587
 20
192.3442296687
 10
1121.8868672808
 20
191.4345790631
 10
1120.91565683
 20
190.5726081447
 10
1119.9125298538
 20
189.7589076652
 10
1118.8781738452
 20
188.9940352943
 10
1117.8132977003
 20
188.2785152373
 10
1116.718631232
 20
187.612837876
 10
1116.0198716519
 20
187.2224137423
  0
LWPOLYLINE
  5
14B
330
1F
100
AcDbEntity
  8
0
  6
Continuous
 62
   252
370
     0
100
AcDbPolyline
 90
      145
 70
   128
 43
0.0
 10
1072.9701493405
 20
327.8471182374
 10
1074.5033896053
 20
326.9388199751
 10
1076.0355790639
 20
325.9847892197
 10
1077.56566763
 20
324.9856798161
 10
1079.0926066575
 20
323.942176504
 10
1080.6153496585
 20
322.8549944484
 10
1082.1328530211
 20
321.7248787498
 10
1083.6440767243
 20
320.5526039328
 10
1085.1479850509
 20
319.3389734161
 10
1086.6435472971
 20
318.0848189614
 10
1088.1297384794
 20
316.7910001036
 10
1089.6055400366
 20
315.4584035615
 10
1091.0699405279
 20
314.0879426301
 10
1092.5219363264
 20
312.680556555
 10
1093.9605323068
 20
311.2372098882
 10
1095.3847425271
 20
309.7588918275
 10
1096.793590905
 20
308.2466155382
 10
1098.186111886
 20
306.7014174589
 10
1099.5613511058
 20
305.1243565913
 10
1100.9183660442
 20
303.516513774
 10
1102.2562266709
 20
301.8789909423
 10
1103.5740160831
 20
300.2129103724
 10
1104.8708311338
 20
298.5194139128
 10
1106.1457830506
 20
296.7996622014
 10
1107.3979980452
 20
295.05483387
 10
1108.626617912
 20
293.2861247369
 10
1109.8308006163
 20
291.4947469869
 10
1111.0097208715
 20
289.6819283409
 10
1112.1625707045
 20
287.8489112143
 10
1113.2885600096
 20
285.9969518653
 10
1114.3869170899
 20
284.1273195345
 10
1115.4568891865
 20
282.2412955744
 10
1116.4977429938
 20
280.3401725717
 10
1117.5087651627
 20
278.425253461
 10
1118.489262789
 20
276.4978506324
 10
1119.4385638888
 20
274.5592850314
 10
1120.3560178583
 20
272.610885254
 10
1121.2409959206
 20
270.6539866362
 10
1122.0928915557
 20
268.6899303385
 10
1122.9111209171
 20
266.7200624269
 10
1123.6951232312
 20
264.7457329506
 10
1124.444361182
 20
262.7682950164
 10
1125.1583212791
 20
260.7891038614
 10
1125.8365142101
 20
258.8095159244
 10
1126.4784751753
 20
256.8308879161
 10
1127.0837642068
 20
254.8545758893
 10
1127.6519664697
 20
252.8819343095
 10
1128.1826925465
 20
250.9143151267
 10
1128.6755787042
 20
248.9530668488
 10
1129.1302871431
 20
246.9995336175
 10
1129.5465062289
 20
245.0550542869
 10
1129.9239507056
 20
243.1209615058
 10
1130.2623618919
 20
241.198580805
 10
1130.5615078574
 20
239.2892296882
 10
1130.8211835826
 20
237.3942167291
 10
1131.0412110986
 20
235.514840675
 10
1131.2214396097
 20
233.6523895565
 10
1131.361745596
 20
231.8081398044
 10
1131.4620328991
 20
229.9833553755
 10
1131.5222327869
 20
228.1792868858
 10
1131.5423040014
 20
226.3971707537
 10
1131.5222327869
 20
224.6382283527
 10
1131.4620328991
 20
222.9036651739
 10
1131.361745596
 20
221.1946700004
 10
1131.2214396097
 20
219.5124140921
 10
1131.0412110986
 20
217.8580503831
 10
1130.8211835826
 20
216.2327126917
 10
1130.5615078574
 20
214.6375149432
 10
1130.2623618919
 20
213.0735504064
 10
1129.9239507056
 20
211.5418909445
 10
1129.5465062289
 20
210.0435862803
 10
1129.1302871431
 20
208.5796632771
 10
1128.6755787042
 20
207.1511252346
 10
1128.1826925465
 20
205.7589512013
 10
1127.6519664697
 20
204.4040953038
 10
1127.0837642068
 20
203.0874860927
 10
1126.4784751753
 20
201.8100259061
 10
1125.8365142101
 20
200.5725902515
 10
1125.1583212791
 20
199.3760272055
 10
1124.444361182
 20
198.2211568325
 10
1123.6951232312
 20
197.108770623
 10
1122.9111209171
 20
196.0396309511
 10
1122.0928915557
 20
195.0144705516
 10
1121.2409959206
 20
194.0339920182
 10
1120.3560178583
 20
193.0988673219
 10
1119.4385638888
 20
192.2097373506
 10
1118.489262789
 20
191.3672114695
 10
1117.5087651627
 20
190.5718671037
 10
1116.4977429938
 20
189.8242493426
 10
1115.4568891865
 20
189.1248705659
 10
1114.3869170899
 20
188.4742100931
 10
1113.2885600096
 20
187.8727138542
 10
1112.1625707045
 20
187.3207940847
 10
1111.0097208715
 20
186.818829043
 10
1109.8308006163
 20
186.3671627507
 10
1108.626617912
 20
185.9661047574
 10
1107.3979980452
 20
185.6159299281
 10
1106.1457830506
 20
185.3168782553
 10
1104.8708311338
 20
185.069154694
 10
1103.5740160831
 20
184.8729290216
 10
1102.2562266709
 20
184.7283357212
 10
1100.9183660442
 20
184.6354738901
 10
1099.5613511058
 20
184.5944071709
 10
1098.186111886
 20
184.6051637089
 10
1096.793590905
 20
184.6677361319
 10
1095.3847425271
 20
184.7820815561
 10
1093.9605323068
 20
184.9481216146
 10
1092.5219363264
 20
185.1657425121
 10
1091.0699405279
 20
185.434795102
 10
1089.6055400366
 20
185.755094989
 10
1088.1297384794
 20
186.1264226557
 10
1086.6435472971
 20
186.5485236126
 10
1085.1479850509
 20
187.0211085727
 10
1083.6440767243
 20
187.5438536501
 10
1082.1328530211
 20
188.1164005813
 10
1080.6153496585
 20
188.7383569712
 10
1079.0926066575
 20
189.409296562
 10
1077.56566763
 20
190.1287595252
 10
1076.0355790639
 20
190.8962527768
 10
1074.5033896053
 20
191.7112503154
 10
1072.9701493405
 20
192.5731935822
 10
1071.4369090757
 20
193.4814918445
 10
1069.9047196171
 20
194.4355226
 10
1068.374631051
 20
195.4346320036
 10
1066.8476920235
 20
196.4781353157
 10
1065.3249490225
 20
197.5653173712
 10
1063.8074456599
 20
198.6954330699
 10
1062.2962219567
 20
199.8677078869
 10
1060.7923136301
 20
201.0813384036
 10
1059.2967513839
 20
202.3354928582
 10
1057.8105602016
 20
203.629311716
 10
1056.3347586444
 20
204.9619082582
 10
1054.8703581531
 20
206.3323691895
 10
1053.4183623546
 20
207.7397552647
 10
1051.9797663742
 20
209.1831019314
 10
1050.5555561538
 20
210.6614199922
 10
1049.146707776
 20
212.1736962815
 10
1047.754186795
 20
213.7188943607
 10
1046.3789475752
 20
215.2959552283
 10
1045.0219326368
 20
216.9037980456
 10
1043.68407201
 20
218.5413208774
 10
1042.3662825978
 20
220.2074014472
 10
1041.0694675472
 20
221.9008979068
 10
1039.7945156304
 20
223.6206496183
 10
1039.1453293434
 20
224.5181333219
  0
LWPOLYLINE
  5
14C
330
1F
100
AcDbEntity
  8
0
  6
Continuous
 62
   252
370
     0
100
AcDbPolyline
 90
       85
 70
   128
 43
0.0
 10
1025.1464670887
 20
248.7675014699
 10
1024.6993027604
 20
249.7663251835
 10
1023.8474071252
 20
251.7303814812
 10
1023.0291777638
 20
253.7002493927
 10
1022.2451754498
 20
255.674578869
 10
1021.495937499
 20
257.6520168032
 10
1020.7819774019
 20
259.6312079582
 10
1020.1037844709
 20
261.6107958952
 10
1019.4618235057
 20
263.5894239036
 10
1018.8565344742
 20
265.5657359304
 10
1018.2883322113
 20
267.5383775102
 10
1017.7576061345
 20
269.505996693
 10
1017.2647199768
 20
271.4672449708
 10
1016.8100115379
 20
273.4207782021
 10
1016.3937924521
 20
275.3652575328
 10
1016.0163479753
 20
277.2993503138
 10
1015.6779367891
 20
279.2217310146
 10
1015.3787908236
 20
281.1310821315
 10
1015.1191150984
 20
283.0260950906
 10
1014.8990875823
 20
284.9054711446
 10
1014.7188590713
 20
286.7679222631
 10
1014.5785530849
 20
288.6121720152
 10
1014.4782657819
 20
290.4369564442
 10
1014.4180658941
 20
292.2410249339
 10
1014.3979946796
 20
294.0231410659
 10
1014.4180658941
 20
295.782083467
 10
1014.4782657819
 20
297.5166466457
 10
1014.5785530849
 20
299.2256418192
 10
1014.7188590713
 20
300.9078977275
 10
1014.8990875823
 20
302.5622614365
 10
1015.1191150984
 20
304.1875991279
 10
1015.3787908236
 20
305.7827968764
 10
1015.6779367891
 20
307.3467614132
 10
1016.0163479753
 20
308.8784208752
 10
1016.3937924521
 20
310.3767255393
 10
1016.8100115379
 20
311.8406485425
 10
1017.2647199768
 20
313.2691865851
 10
1017.7576061345
 20
314.6613606184
 10
1018.2883322113
 20
316.0162165158
 10
1018.8565344742
 20
317.3328257269
 10
1019.4618235057
 20
318.6102859135
 10
1020.1037844709
 20
319.8477215681
 10
1020.7819774019
 20
321.0442846142
 10
1021.495937499
 20
322.1991549872
 10
1022.2451754498
 20
323.3115411966
 10
1023.0291777638
 20
324.3806808686
 10
1023.8474071252
 20
325.4058412681
 10
1024.6993027604
 20
326.3863198015
 10
1025.5842808227
 20
327.3214444977
 10
1026.5017347922
 20
328.210574469
 10
1027.4510358919
 20
329.0531003501
 10
1028.4315335183
 20
329.8484447159
 10
1029.4425556872
 20
330.5960624771
 10
1030.4834094945
 20
331.2954412537
 10
1031.5533815911
 20
331.9461017266
 10
1032.6517386714
 20
332.5475979655
 10
1033.7777279765
 20
333.0995177349
 10
1034.9305778095
 20
333.6014827767
 10
1036.1094980647
 20
334.053149069
 10
1037.313680769
 20
334.4542070623
 10
1038.5423006358
 20
334.8043818915
 10
1039.7945156304
 20
335.1034335643
 10
1041.0694675472
 20
335.3511571256
 10
1042.3662825978
 20
335.5473827981
 10
1043.68407201
 20
335.6919760984
 10
1045.0219326368
 20
335.7848379296
 10
1046.3789475752
 20
335.8259046487
 10
1047.754186795
 20
335.8151481108
 10
1049.146707776
 20
335.7525756877
 10
1050.5555561538
 20
335.6382302636
 10
1051.9797663742
 20
335.472190205
 10
1053.4183623546
 20
335.2545693075
 10
1054.8703581531
 20
334.9855167177
 10
1056.3347586444
 20
334.6652168307
 10
1057.8105602016
 20
334.293889164
 10
1059.2967513839
 20
333.8717882071
 10
1060.7923136301
 20
333.3992032469
 10
1062.2962219567
 20
332.8764581695
 10
1063.8074456599
 20
332.3039112384
 10
1065.3249490225
 20
331.6819548485
 10
1066.8476920235
 20
331.0110152577
 10
1068.374631051
 20
330.2915522945
 10
1069.9047196171
 20
329.5240590428
 10
1071.4369090757
 20
328.7090615043
 10
1072.9701493405
 20
327.8471182374
  0
LWPOLYLINE
  5
14D
330
1F
100
AcDbEntity
  8
0
  6
Continuous
 62
   252
370
     0
100
AcDbPolyline
 90
      123
 70
   128
 43
0.0
 10
1038.3081563035
 20
338.3422757512
 10
1038.6346744711
 20
338.5353607973
 10
1039.7624978955
 20
339.1582588193
 10
1040.9188895181
 20
339.730042469
 10
1042.1030525519
 20
340.250317771
 10
1043.3141710745
 20
340.7187262407
 10
1044.5514105907
 20
341.1349451312
 10
1045.8139186069
 20
341.4986876558
 10
1047.1008252187
 20
341.8097031855
 10
1048.4112437108
 20
342.0677774216
 10
1049.744271167
 20
342.2727325435
 10
1051.0989890933
 20
342.4244273314
 10
1052.4744640502
 20
342.5227572631
 10
1053.8697482959
 20
342.5676545865
 10
1055.2838804395
 20
342.5590883661
 10
1056.7158861035
 20
342.4970645042
 10
1058.1647785949
 20
342.3816257371
 10
1059.6295595851
 20
342.2128516053
 10
1061.1092197981
 20
341.9908583991
 10
1062.6027397054
 20
341.7157990782
 10
1064.1090902292
 20
341.3878631664
 10
1065.6272334505
 20
341.0072766209
 10
1067.1561233252
 20
340.5743016767
 10
1068.6947064043
 20
340.089236666
 10
1070.2419225599
 20
339.5524158125
 10
1071.7967057157
 20
338.9642090012
 10
1073.3579845815
 20
338.3250215235
 10
1074.9246833914
 20
337.6352937978
 10
1076.4957226449
 20
336.8955010663
 10
1078.070019851
 20
336.1061530676
 10
1079.6464902736
 20
335.2677936849
 10
1081.2240476795
 20
334.3810005719
 10
1082.8016050863
 20
333.4463847546
 10
1084.3780755117
 20
332.4645902101
 10
1085.9523727223
 20
331.4362934229
 10
1087.5234119823
 20
330.362202919
 10
1089.0901108005
 20
329.2430587777
 10
1090.6513896764
 20
328.0796321213
 10
1092.2061728442
 20
326.8727245842
 10
1093.7533890136
 20
325.6231677604
 10
1095.2919721083
 20
324.3318226302
 10
1096.8208620004
 20
322.9995789675
 10
1098.3390052408
 20
321.6273547265
 10
1099.8453557855
 20
320.2160954091
 10
1101.3388757156
 20
318.7667734132
 10
1102.818535953
 20
317.2803873636
 10
1104.2833169693
 20
315.7579614226
 10
1105.7322094886
 20
314.2005445855
 10
1107.1642151821
 20
312.6092099572
 10
1108.578347357
 20
310.9850540129
 10
1109.9736316355
 20
309.3291958426
 10
1111.3491066269
 20
307.6427763802
 10
1112.7038245893
 20
305.9269576169
 10
1114.0368520832
 20
304.1829218012
 10
1115.3472706145
 20
302.4118706237
 10
1116.6341772671
 20
300.6150243896
 10
1117.8966853254
 20
298.7936211774
 10
1119.1339248853
 20
296.9489159862
 10
1120.3450434531
 20
295.0821798708
 10
1121.5292065334
 20
293.194699066
 10
1122.6855982039
 20
291.2877741001
 10
1123.8134216775
 20
289.3627188992
 10
1124.9118998515
 20
287.4208598816
 10
1125.9802758429
 20
285.4635350437
 10
1127.0178135101
 20
283.4920930387
 10
1128.0237979597
 20
281.5078922465
 10
1128.9975360397
 20
279.5122998384
 10
1129.9383568166
 20
277.506690835
 10
1130.8456120379
 20
275.4924471582
 10
1131.7186765786
 20
273.4709566798
 10
1132.5569488723
 20
271.4436122647
 10
1133.3598513254
 20
269.4118108115
 10
1134.1268307149
 20
267.3769522895
 10
1134.8573585702
 20
265.3404387747
 10
1135.5509315365
 20
263.3036734833
 10
1136.2070717221
 20
261.268059805
 10
1136.8253270277
 20
259.2350003361
 10
1137.4052714577
 20
257.2058959128
 10
1137.9465054136
 20
255.1821446463
 10
1138.4486559697
 20
253.1651409594
 10
1138.91137713
 20
251.1562746254
 10
1139.3343500662
 20
249.1569298107
 10
1139.7172833379
 20
247.1684841215
 10
1140.059913093
 20
245.1923076538
 10
1140.3620032499
 20
243.2297620498
 10
1140.6233456597
 20
241.2821995599
 10
1140.84376025
 20
239.3509621104
 10
1141.0230951488
 20
237.4373803793
 10
1141.1612267893
 20
235.5427728794
 10
1141.2580599948
 20
233.6684450496
 10
1141.3135280444
 20
231.8156883555
 10
1141.3275927191
 20
229.9857793996
 10
1141.3002443279
 20
228.1799790417
 10
1141.2315017146
 20
226.3995315301
 10
1141.1214122449
 20
224.6456636442
 10
1140.9700517735
 20
222.9195838492
 10
1140.7775245921
 20
221.2224814637
 10
1140.5439633576
 20
219.5555258399
 10
1140.2695290003
 20
217.919865558
 10
1139.9544106133
 20
216.3166276349
 10
1139.5988253223
 20
214.7469167476
 10
1139.2030181357
 20
213.2118144718
 10
1138.7672617761
 20
211.712378537
 10
1138.291856492
 20
210.2496420977
 10
1137.7771298513
 20
208.8246130213
 10
1137.2234365156
 20
207.4382731935
 10
1136.6311579952
 20
206.0915778424
 10
1136.0007023873
 20
204.7854548797
 10
1135.3325040937
 20
203.5208042616
 10
1134.6270235222
 20
202.2984973685
 10
1133.8847467692
 20
201.1193764051
 10
1133.1061852847
 20
199.9842538196
 10
1132.2918755199
 20
198.8939117438
 10
1131.4423785576
 20
197.8491014549
 10
1130.5582797255
 20
196.850542857
 10
1129.6401881931
 20
195.8989239858
 10
1128.6887365518
 20
194.9949005338
 10
1127.7045803791
 20
194.1390953993
 10
1126.6883977868
 20
193.3320982564
 10
1125.6408889539
 20
192.5744651493
 10
1124.562775644
 20
191.8667181091
 10
1123.4548007082
 20
191.2093447938
 10
1123.2904275664
 20
191.117523505
  0
LWPOLYLINE
  5
14E
330
1F
100
AcDbEntity
  8
0
  6
Continuous
 62
   252
370
     0
100
AcDbPolyline
 90
       95
 70
   128
 43
0.0
 10
874.9402936675
 20
94.7648138693
 10
874.8202391171
 20
94.5770000641
 10
874.6869841424
 20
94.3839604521
 10
874.5450215041
 20
94.19300069
 10
874.3944484963
 20
94.0042516519
 10
874.2353683143
 20
93.817842697
 10
874.0678899837
 20
93.6339015808
 10
873.8921282858
 20
93.4525543673
 10
873.7082036788
 20
93.2739253428
 10
873.5162422155
 20
93.0981369307
 10
873.3163754567
 20
92.9253096077
 10
873.108740381
 20
92.7555618208
 10
872.8934792913
 20
92.5890099069
 10
872.6707397166
 20
92.4257680122
 10
872.4406743116
 20
92.2659480146
 10
872.2034407516
 20
92.1096594468
 10
871.9592016247
 20
91.957009421
 10
871.7081243201
 20
91.8081025561
 10
871.4503809136
 20
91.6630409053
 10
871.1861480498
 20
91.5219238867
 10
870.9156068206
 20
91.3848482148
 10
870.6389426415
 20
91.2519078344
 10
870.3563451243
 20
91.1231938562
 10
870.0680079472
 20
90.9987944944
 10
869.7741287221
 20
90.878795006
 10
869.4749088592
 20
90.7632776328
 10
869.1705534287
 20
90.6523215445
 10
868.8612710208
 20
90.5460027849
 10
868.5472736021
 20
90.4443942196
 10
868.2287763708
 20
90.3475654861
 10
867.9059976089
 20
90.2555829458
 10
867.579158533
 20
90.168509639
 10
867.2484831421
 20
90.0864052415
 10
866.9141980647
 20
90.0093260235
 10
866.576532403
 20
89.9373248112
 10
866.2357175763
 20
89.8704509506
 10
865.891987162
 20
89.8087502739
 10
865.5455767358
 20
89.7522650674
 10
865.19672371
 20
89.7010340434
 10
864.8456671712
 20
89.6550923131
 10
864.4926477158
 20
89.6144713626
 10
864.1379072859
 20
89.5791990314
 10
863.7816890028
 20
89.5492994936
 10
863.4242370006
 20
89.5247932407
 10
863.0657962592
 20
89.5056970681
 10
862.706612436
 20
89.4920240633
 10
862.3469316975
 20
89.4837835972
 10
861.9870005511
 20
89.4809813173
 10
861.6270656754
 20
89.4836191443
 10
861.267373752
 20
89.4916952702
 10
860.9081712957
 20
89.50520416
 10
860.5497044858
 20
89.5241365556
 10
860.1922189978
 20
89.5484794815
 10
859.8359598341
 20
89.5782162544
 10
859.4811711572
 20
89.613326494
 10
859.1280961214
 20
89.6537861377
 10
858.7769767067
 20
89.6995674564
 10
858.4280535528
 20
89.7506390739
 10
858.0815657942
 20
89.8069659882
 10
857.7377508964
 20
89.8685095957
 10
857.3968444929
 20
89.9352277175
 10
857.0590802238
 20
90.0070746283
 10
856.7246895761
 20
90.0840010878
 10
856.3939017242
 20
90.1659543745
 10
856.0669433737
 20
90.2528783216
 10
855.7440386055
 20
90.3447133559
 10
855.4254087224
 20
90.4413965382
 10
855.1112720975
 20
90.5428616067
 10
854.8018440241
 20
90.6490390222
 10
854.497336569
 20
90.7598560162
 10
854.1979584263
 20
90.8752366401
 10
853.9039147748
 20
90.9951018179
 10
853.6154071374
 20
91.1193693999
 10
853.3326332427
 20
91.2479542193
 10
853.05578689
 20
91.3807681506
 10
852.7850578157
 20
91.5177201697
 10
852.5206315642
 20
91.6587164165
 10
852.26268936
 20
91.8036602592
 10
852.0114079838
 20
91.9524523607
 10
851.7669596512
 20
92.1049907461
 10
851.529511895
 20
92.2611708733
 10
851.29922745
 20
92.4208857043
 10
851.0762641416
 20
92.5840257784
 10
850.8607747777
 20
92.7504792877
 10
850.6529070441
 20
92.9201321532
 10
850.4528034029
 20
93.0928681032
 10
850.260600995
 20
93.2685687533
 10
850.0764315465
 20
93.447113687
 10
849.9004212779
 20
93.6283805384
 10
849.7326908177
 20
93.8122450764
 10
849.5733551202
 20
93.9985812894
 10
849.422523386
 20
94.1872614718
 10
849.2802989877
 20
94.3781563116
 10
849.1467793987
 20
94.5711349791
 10
849.0279798792
 20
94.7564400532
  0
LWPOLYLINE
  5
14F
330
1F
100
AcDbEntity
  8
0
  6
Continuous
 62
   252
370
     0
100
AcDbPolyline
 90
       76
 70
   128
 43
0.0
 10
856.7246895761
 20
84.2865613234
 10
857.0590802238
 20
84.2096348639
 10
857.3968444929
 20
84.1377879531
 10
857.7377508964
 20
84.0710698313
 10
858.0815657942
 20
84.0095262238
 10
858.4280535528
 20
83.9531993095
 10
858.7769767067
 20
83.902127692
 10
859.1280961214
 20
83.8563463733
 10
859.4811711572
 20
83.8158867296
 10
859.8359598341
 20
83.78077649
 10
860.1922189978
 20
83.7510397171
 10
860.5497044858
 20
83.7266967912
 10
860.9081712957
 20
83.7077643957
 10
861.267373752
 20
83.6942555058
 10
861.6270656754
 20
83.6861793799
 10
861.9870005511
 20
83.6835415529
 10
862.3469316975
 20
83.6863438328
 10
862.706612436
 20
83.6945842989
 10
863.0657962592
 20
83.7082573037
 10
863.4242370006
 20
83.7273534763
 10
863.7816890028
 20
83.7518597292
 10
864.1379072859
 20
83.781759267
 10
864.4926477158
 20
83.8170315982
 10
864.8456671712
 20
83.8576525487
 10
865.19672371
 20
83.903594279
 10
865.5455767358
 20
83.954825303
 10
865.891987162
 20
84.0113105095
 10
866.2357175763
 20
84.0730111862
 10
866.576532403
 20
84.1398850468
 10
866.9141980647
 20
84.2118862591
 10
867.2484831421
 20
84.2889654771
 10
867.579158533
 20
84.3710698746
 10
867.9059976089
 20
84.4581431814
 10
868.2287763708
 20
84.5501257217
 10
868.5472736021
 20
84.6469544552
 10
868.8612710208
 20
84.7485630205
 10
869.1705534287
 20
84.8548817801
 10
869.4749088592
 20
84.9658378684
 10
869.7741287221
 20
85.0813552416
 10
870.0680079472
 20
85.20135473
 10
870.3563451243
 20
85.3257540918
 10
870.6389426415
 20
85.45446807
 10
870.9156068206
 20
85.5874084504
 10
871.1861480498
 20
85.7244841223
 10
871.4503809136
 20
85.8656011409
 10
871.7081243201
 20
86.0106627917
 10
871.9592016247
 20
86.1595696566
 10
872.2034407516
 20
86.3122196824
 10
872.4406743116
 20
86.4685082502
 10
872.6707397166
 20
86.6283282478
 10
872.8934792913
 20
86.7915701425
 10
873.108740381
 20
86.9581220564
 10
873.3163754567
 20
87.1278698433
 10
873.5162422155
 20
87.3006971663
 10
873.7082036788
 20
87.4764855784
 10
873.8921282858
 20
87.6551146029
 10
874.0678899837
 20
87.8364618164
 10
874.2353683143
 20
88.0204029326
 10
874.3944484963
 20
88.2068118875
 10
874.5450215041
 20
88.3955609256
 10
874.6869841424
 20
88.5865206878
 10
874.8202391171
 20
88.7795602998
 10
874.9446951021
 20
88.9745474619
 10
875.0602668012
 20
89.1713485396
 10
875.1668750075
 20
89.3698286553
 10
875.264446657
 20
89.5698517807
 10
875.352914879
 20
89.7712808299
 10
875.4322190418
 20
89.9739777535
 10
875.5023047943
 20
90.1778036331
 10
875.5631241032
 20
90.3826187767
 10
875.6146352859
 20
90.5882828142
 10
875.6568030394
 20
90.7946547937
 10
875.6895984638
 20
91.0015932782
 10
875.712999083
 20
91.2089564424
 10
875.7269888592
 20
91.41660217
 10
875.7315592812
 20
91.6212469726
  0
LWPOLYLINE
  5
150
330
1F
100
AcDbEntity
  8
0
  6
Continuous
 62
   252
370
     0
100
AcDbPolyline
 90
       46
 70
   128
 43
0.0
 10
848.2348059231
 20
91.4487624156
 10
848.2364145749
 20
91.4103219663
 10
848.2506890276
 20
91.2026826957
 10
848.2743739328
 20
90.9953302882
 10
848.3074530582
 20
90.7884068527
 10
848.349903733
 20
90.5820542042
 10
848.4016968635
 20
90.3764137665
 10
848.4627969535
 20
90.1716264753
 10
848.5331621278
 20
89.9678326816
 10
848.6127441619
 20
89.7651720555
 10
848.701488514
 20
89.5637834904
 10
848.7993343632
 20
89.363805008
 10
848.906214651
 20
89.1653736635
 10
849.0220561268
 20
88.968625452
 10
849.1467793987
 20
88.7736952147
 10
849.2802989877
 20
88.5807165472
 10
849.422523386
 20
88.3898217074
 10
849.5733551202
 20
88.201141525
 10
849.7326908177
 20
88.014805312
 10
849.9004212779
 20
87.830940774
 10
850.0764315465
 20
87.6496739226
 10
850.260600995
 20
87.471128989
 10
850.4528034029
 20
87.2954283389
 10
850.6529070441
 20
87.1226923888
 10
850.8607747778
 20
86.9530395233
 10
851.0762641416
 20
86.786586014
 10
851.29922745
 20
86.6234459399
 10
851.529511895
 20
86.4637311089
 10
851.7669596512
 20
86.3075509817
 10
852.0114079838
 20
86.1550125963
 10
852.26268936
 20
86.0062204949
 10
852.5206315642
 20
85.8612766521
 10
852.7850578157
 20
85.7202804053
 10
853.05578689
 20
85.5833283862
 10
853.3326332427
 20
85.450514455
 10
853.6154071374
 20
85.3219296355
 10
853.9039147748
 20
85.1976620535
 10
854.1979584263
 20
85.0777968757
 10
854.497336569
 20
84.9624162518
 10
854.8018440241
 20
84.8515992579
 10
855.1112720975
 20
84.7454218423
 10
855.4254087224
 20
84.6439567738
 10
855.7440386055
 20
84.5472735915
 10
856.0669433737
 20
84.4554385572
 10
856.3939017242
 20
84.3685146101
 10
856.7246895761
 20
84.2865613234
  0
LWPOLYLINE
  5
151
330
1F
100
AcDbEntity
  8
0
  6
Continuous
 62
   252
370
     0
100
AcDbPolyline
 90
       92
 70
   128
 43
0.0
 10
852.0820643446
 20
99.2160054236
 10
852.3445952215
 20
99.0683662517
 10
852.6137307922
 20
98.9247449416
 10
852.8892866046
 20
98.7852399244
 10
853.1710738065
 20
98.6499468097
 10
853.4588992751
 20
98.5189583206
 10
853.7525657491
 20
98.3923642302
 10
854.0518719643
 20
98.2702512997
 10
854.356612791
 20
98.1527032192
 10
854.6665793752
 20
98.0398005503
 10
854.9815592812
 20
97.9316206709
 10
855.3013366376
 20
97.828237722
 10
855.6256922849
 20
97.7297225571
 10
855.9544039259
 20
97.6361426936
 10
856.2872462781
 20
97.5475622665
 10
856.6239912281
 20
97.4640419844
 10
856.9644079876
 20
97.3856390879
 10
857.3082632519
 20
97.3124073104
 10
857.65532136
 20
97.2443968413
 10
858.0053444554
 20
97.1816542917
 10
858.3580926498
 20
97.1242226621
 10
858.7133241872
 20
97.0721413133
 10
859.0707956098
 20
97.0254459392
 10
859.4302619243
 20
96.9841685425
 10
859.7914767706
 20
96.9483374128
 10
860.1541925901
 20
96.9179771068
 10
860.5181607955
 20
96.893108432
 10
860.883131941
 20
96.8737484321
 10
861.2488558938
 20
96.8599103756
 10
861.6150820049
 20
96.8516037463
 10
861.9815592812
 20
96.8488342371
 10
862.3480365575
 20
96.8516037463
 10
862.7142626686
 20
96.8599103756
 10
863.0799866214
 20
96.8737484321
 10
863.444957767
 20
96.893108432
 10
863.8089259723
 20
96.9179771068
 10
864.1716417918
 20
96.9483374128
 10
864.5328566381
 20
96.9841685425
 10
864.8923229527
 20
97.0254459392
 10
865.2497943752
 20
97.0721413133
 10
865.6050259126
 20
97.1242226621
 10
865.9577741071
 20
97.1816542917
 10
866.3077972025
 20
97.2443968413
 10
866.6548553105
 20
97.3124073104
 10
866.9987105748
 20
97.3856390879
 10
867.3391273343
 20
97.4640419844
 10
867.6758722843
 20
97.5475622665
 10
868.0087146365
 20
97.6361426936
 10
868.3374262776
 20
97.7297225571
 10
868.6617819248
 20
97.828237722
 10
868.9815592812
 20
97.9316206709
 10
869.2965391872
 20
98.0398005503
 10
869.6065057714
 20
98.1527032192
 10
869.9112465982
 20
98.2702512997
 10
870.2105528133
 20
98.3923642302
 10
870.5042192873
 20
98.5189583206
 10
870.7920447559
 20
98.6499468097
 10
871.0738319578
 20
98.7852399244
 10
871.3493877702
 20
98.9247449416
 10
871.6185233409
 20
99.0683662517
 10
871.8810542178
 20
99.2160054236
 10
872.1368004754
 20
99.3675612728
 10
872.3855868379
 20
99.5229299307
 10
872.6272427996
 20
99.6820049152
 10
872.8616027416
 20
99.8446772043
 10
873.0885060453
 20
100.0108353105
 10
873.3077972025
 20
100.1803653574
 10
873.5193259219
 20
100.3531511576
 10
873.7229472324
 20
100.5290742922
 10
873.9185215822
 20
100.7080141924
 10
874.1059149342
 20
100.8898482217
 10
874.2849988585
 20
101.0744517602
 10
874.4556506198
 20
101.2616982897
 10
874.6177532621
 20
101.4514594809
 10
874.7711956882
 20
101.6436052809
 10
874.9158727364
 20
101.8380040026
 10
875.0516852522
 20
102.0345224148
 10
875.1785401565
 20
102.2330258337
 10
875.2963505093
 20
102.4333782148
 10
875.4050355694
 20
102.6354422467
 10
875.5045208493
 20
102.8390794448
 10
875.5947381668
 20
103.0441502464
 10
875.6756256915
 20
103.250514106
 10
875.7471279871
 20
103.4580295923
 10
875.8091960495
 20
103.6665544845
 10
875.8617873404
 20
103.8759458701
 10
875.9048658164
 20
104.0860602426
 10
875.9384019535
 20
104.2967536002
 10
875.9623727678
 20
104.5078815442
 10
875.9767618309
 20
104.7192993779
 10
875.9815592812
 20
104.9308622063
 10
875.9815592749
 20
104.9311055741
  0
ARC
  5
152
330
1F
100
AcDbEntity
  8
0
  6
Continuous
 62
   252
370
     0
100
AcDbCircle
 10
854.993289744
 20
105.6333630056
 30
0.0
 40
7.046822806220027
100
AcDbArc
 50
185.7204150584
 51
245.5986457524
  0
LWPOLYLINE
  5
153
330
1F
100
AcDbEntity
  8
0
  6
Continuous
 62
   252
370
     0
100
AcDbPolyline
 90
       92
 70
   128
 43
0.0
 10
890.9729373099
 20
166.5769731524
 10
891.2320758771
 20
166.4234583278
 10
891.4910368437
 20
166.2622140866
 10
891.7496427307
 20
166.0933509376
 10
892.0077163027
 20
165.9169846111
 10
892.2650806888
 20
165.7332359797
 10
892.5215595044
 20
165.5422309757
 10
892.7769769717
 20
165.3441005043
 10
893.0311580404
 20
165.1389803542
 10
893.2839285073
 20
164.9270111045
 10
893.5351151363
 20
164.7083380285
 10
893.7845457767
 20
164.4831109936
 10
894.032049481
 20
164.2514843592
 10
894.2774566226
 20
164.0136168707
 10
894.5205990118
 20
163.7696715506
 10
894.7613100109
 20
163.5198155868
 10
894.9994246485
 20
163.264220218
 10
895.2347797329
 20
163.0030606167
 10
895.4672139633
 20
162.7365157684
 10
895.696568041
 20
162.4647683499
 10
895.9226847782
 20
162.1880046031
 10
896.1454092057
 20
161.9064142081
 10
896.3645886793
 20
161.620190153
 10
896.5800729844
 20
161.3295286013
 10
896.7917144387
 20
161.034628758
 10
896.9993679939
 20
160.7356927327
 10
897.2028913346
 20
160.4329254012
 10
897.4021449759
 20
160.1265342651
 10
897.5969923594
 20
159.8167293097
 10
897.7872999465
 20
159.5037228597
 10
897.9729373099
 20
159.1877294342
 10
898.1537772228
 20
158.8689655992
 10
898.3296957468
 20
158.5476498196
 10
898.5005723161
 20
158.2240023091
 10
898.6662898203
 20
157.8982448796
 10
898.826734685
 20
157.5706007889
 10
898.9817969493
 20
157.241294588
 10
899.1313703413
 20
156.9105519669
 10
899.2753523507
 20
156.5785996
 10
899.4136442996
 20
156.2456649909
 10
899.5461514096
 20
155.9119763163
 10
899.6727828669
 20
155.5777622699
 10
899.7934518845
 20
155.2432519052
 10
899.9080757621
 20
154.9086744789
 10
900.0165759422
 20
154.5742592937
 10
900.118878064
 20
154.240235541
 10
900.2149120149
 20
153.906832144
 10
900.304611978
 20
153.5742776008
 10
900.3879164774
 20
153.2427998277
 10
900.4647684203
 20
152.9126260029
 10
900.5351151363
 20
152.5839824111
 10
900.5989084133
 20
152.2570942881
 10
900.6561045306
 20
151.9321856669
 10
900.7066642887
 20
151.6094792235
 10
900.7505530365
 20
151.2891961248
 10
900.787740695
 20
150.9715558768
 10
900.8182017774
 20
150.6567761743
 10
900.8419154074
 20
150.3450727516
 10
900.8588653327
 20
150.0366592347
 10
900.8690399368
 20
149.7317469947
 10
900.8724322465
 20
149.4305450032
 10
900.8690399368
 20
149.1332596892
 10
900.8588653327
 20
148.840094797
 10
900.8419154074
 20
148.5512512473
 10
900.8182017774
 20
148.266926999
 10
900.787740695
 20
147.9873169137
 10
900.7505530365
 20
147.7126126222
 10
900.7066642887
 20
147.4430023932
 10
900.6561045306
 20
147.1786710039
 10
900.5989084133
 20
146.919799614
 10
900.5351151363
 20
146.6665656409
 10
900.4647684203
 20
146.4191426386
 10
900.3879164774
 20
146.1777001784
 10
900.304611978
 20
145.942403733
 10
900.2149120149
 20
145.7134145627
 10
900.118878064
 20
145.4908896054
 10
900.0165759422
 20
145.2749813684
 10
899.9080757621
 20
145.0658378245
 10
899.7934518845
 20
144.8636023103
 10
899.6727828669
 20
144.6684134279
 10
899.5461514096
 20
144.4804049499
 10
899.4136442996
 20
144.2997057281
 10
899.2753523507
 20
144.1264396046
 10
899.1313703413
 20
143.9607253273
 10
898.9817969493
 20
143.8026764686
 10
898.826734685
 20
143.6524013473
 10
898.6662898203
 20
143.5100029544
 10
898.5005723161
 20
143.3755788826
 10
898.3296957468
 20
143.2492212595
 10
898.1537772228
 20
143.1310166843
 10
897.9729373099
 20
143.0210461686
 10
897.9721397373
 20
143.020585695
  0
ARC
  5
154
330
1F
100
AcDbEntity
  8
0
  6
Continuous
 62
   252
370
     0
100
AcDbCircle
 10
886.8714341708
 20
160.8461457116
 30
0.0
 40
7.047319430499992
100
AcDbArc
 50
54.4090323346
 51
114.2824198985
  0
LWPOLYLINE
  5
155
330
1F
100
AcDbEntity
  8
0
  6
Continuous
 62
   252
370
     0
100
AcDbPolyline
 90
       91
 70
   128
 43
0.0
 10
852.0820643446
 20
92.1937544413
 10
852.3445952215
 20
92.0461152694
 10
852.6137307922
 20
91.9024939594
 10
852.8892866046
 20
91.7629889422
 10
853.1710738065
 20
91.6276958275
 10
853.4588992751
 20
91.4967073384
 10
853.7525657491
 20
91.370113248
 10
854.0518719643
 20
91.2480003175
 10
854.356612791
 20
91.130452237
 10
854.6665793752
 20
91.0175495681
 10
854.9815592812
 20
90.9093696887
 10
855.3013366376
 20
90.8059867398
 10
855.6256922849
 20
90.7074715749
 10
855.9544039259
 20
90.6138917114
 10
856.2872462781
 20
90.5253112843
 10
856.6239912281
 20
90.4417910022
 10
856.9644079876
 20
90.3633881057
 10
857.3082632519
 20
90.2901563282
 10
857.65532136
 20
90.2221458591
 10
858.0053444554
 20
90.1594033095
 10
858.3580926498
 20
90.1019716799
 10
858.7133241872
 20
90.049890331
 10
859.0707956098
 20
90.003194957
 10
859.4302619243
 20
89.9619175603
 10
859.7914767706
 20
89.9260864306
 10
860.1541925901
 20
89.8957261246
 10
860.5181607955
 20
89.8708574498
 10
860.883131941
 20
89.8514974499
 10
861.2488558938
 20
89.8376593933
 10
861.6150820049
 20
89.829352764
 10
861.9815592812
 20
89.8265832549
 10
862.3480365575
 20
89.829352764
 10
862.7142626686
 20
89.8376593933
 10
863.0799866214
 20
89.8514974499
 10
863.444957767
 20
89.8708574498
 10
863.8089259723
 20
89.8957261246
 10
864.1716417918
 20
89.9260864306
 10
864.5328566381
 20
89.9619175603
 10
864.8923229527
 20
90.003194957
 10
865.2497943752
 20
90.049890331
 10
865.6050259126
 20
90.1019716799
 10
865.9577741071
 20
90.1594033095
 10
866.3077972025
 20
90.2221458591
 10
866.6548553105
 20
90.2901563282
 10
866.9987105748
 20
90.3633881057
 10
867.3391273343
 20
90.4417910022
 10
867.6758722843
 20
90.5253112843
 10
868.0087146365
 20
90.6138917114
 10
868.3374262776
 20
90.7074715749
 10
868.6617819248
 20
90.8059867398
 10
868.9815592812
 20
90.9093696887
 10
869.2965391872
 20
91.0175495681
 10
869.6065057714
 20
91.130452237
 10
869.9112465982
 20
91.2480003175
 10
870.2105528133
 20
91.370113248
 10
870.5042192873
 20
91.4967073384
 10
870.7920447559
 20
91.6276958275
 10
871.0738319578
 20
91.7629889422
 10
871.3493877702
 20
91.9024939594
 10
871.6185233409
 20
92.0461152694
 10
871.8810542178
 20
92.1937544413
 10
872.1368004754
 20
92.3453102906
 10
872.3855868379
 20
92.5006789485
 10
872.6272427996
 20
92.659753933
 10
872.8616027416
 20
92.822426222
 10
873.0885060453
 20
92.9885843283
 10
873.3077972025
 20
93.1581143752
 10
873.5193259219
 20
93.3309001753
 10
873.7229472324
 20
93.50682331
 10
873.9185215822
 20
93.6857632102
 10
874.1059149342
 20
93.8675972395
 10
874.2849988585
 20
94.0522007779
 10
874.4556506198
 20
94.2394473075
 10
874.6177532621
 20
94.4292084986
 10
874.7711956882
 20
94.6213542987
 10
874.9158727364
 20
94.8157530204
 10
875.0516852522
 20
95.0122714326
 10
875.1785401565
 20
95.2107748515
 10
875.2963505093
 20
95.4111272326
 10
875.4050355694
 20
95.6131912645
 10
875.5045208493
 20
95.8168284626
 10
875.5947381668
 20
96.0218992641
 10
875.6756256915
 20
96.2282631238
 10
875.7471279871
 20
96.4357786101
 10
875.8091960495
 20
96.6443035023
 10
875.8617873404
 20
96.8536948879
 10
875.9048658164
 20
97.0638092604
 10
875.9384019535
 20
97.274502618
 10
875.9623727678
 20
97.4856305619
 10
875.9767618309
 20
97.6970483957
 10
875.9806813259
 20
97.8181003586
  0
ARC
  5
156
330
1F
100
AcDbEntity
  8
0
  6
Continuous
 62
   252
370
     0
100
AcDbCircle
 10
855.0160956444
 20
98.6381334817
 30
0.0
 40
7.080858767387862
100
AcDbArc
 50
186.613195456
 51
245.5209216774
  0
ENDSEC
  0
SECTION
  2
OBJECTS
  0
DICTIONARY
  5
C
330
0
100
AcDbDictionary
281
     1
  3
ACAD_GROUP
350
D
  3
ACAD_LAYOUT
350
1A
  3
ACAD_MLINESTYLE
350
17
  3
ACAD_PLOTSETTINGS
350
19
  3
ACAD_PLOTSTYLENAME
350
E
  3
ACAD_SCALELIST
350
47
  0
DICTIONARY
  5
D
102
{ACAD_REACTORS
330
C
102
}
330
C
100
AcDbDictionary
281
     1
  0
DICTIONARY
  5
1A
102
{ACAD_REACTORS
330
C
102
}
330
C
100
AcDbDictionary
281
     1
  3
Layout1
350
1E
  3
Layout2
350
26
  3
Model
350
22
  0
DICTIONARY
  5
17
102
{ACAD_REACTORS
330
C
102
}
330
C
100
AcDbDictionary
281
     1
  3
Standard
350
18
  0
DICTIONARY
  5
19
102
{ACAD_REACTORS
330
C
102
}
330
C
100
AcDbDictionary
281
     1
  0
ACDBDICTIONARYWDFLT
  5
E
102
{ACAD_REACTORS
330
C
102
}
330
C
100
AcDbDictionary
281
     1
  3
Normal
350
F
100
AcDbDictionaryWithDefault
340
F
  0
DICTIONARY
  5
47
102
{ACAD_REACTORS
330
C
102
}
330
C
100
AcDbDictionary
281
     1
  3
A0
350
48
  3
A1
350
49
  3
A2
350
4A
  3
A3
350
4B
  3
A4
350
4C
  3
A5
350
4D
  3
A6
350
4E
  3
A7
350
4F
  3
A8
350
50
  3
A9
350
51
  3
B0
350
52
  3
B1
350
53
  3
B2
350
54
  3
B3
350
55
  3
B4
350
56
  3
B5
350
57
  3
B6
350
58
  3
B7
350
59
  3
B8
350
5A
  3
B9
350
5B
  3
C0
350
5C
  3
C1
350
5D
  3
C2
350
5E
  3
C3
350
5F
  3
C4
350
60
  3
C5
350
61
  3
C6
350
62
  3
C7
350
63
  3
C8
350
64
  3
C9
350
65
  3
D0
350
66
  3
D1
350
67
  3
D2
350
68
  0
LAYOUT
  5
1E
102
{ACAD_REACTORS
330
1A
102
}
330
1A
100
AcDbPlotSettings
  1

  2
none_device
  4

  6

 40
0.0
 41
0.0
 42
0.0
 43
0.0
 44
0.0
 45
0.0
 46
0.0
 47
0.0
 48
0.0
 49
0.0
140
0.0
141
0.0
142
1.0
143
1.0
 70
   688
 72
     1
 73
     0
 74
     5
  7

 75
    16
147
1.0
148
0.0
149
0.0
100
AcDbLayout
  1
Layout1
 70
     1
 71
     1
 10
0.0
 20
0.0
 11
420.0
 21
297.0
 12
0.0
 22
0.0
 32
0.0
 14
1.0000000000E+20
 24
1.0000000000E+20
 34
1.0000000000E+20
 15
-1.0000000000E+20
 25
-1.0000000000E+20
 35
-1.0000000000E+20
146
0.0
 13
0.0
 23
0.0
 33
0.0
 16
1.0
 26
0.0
 36
0.0
 17
0.0
 27
1.0
 37
0.0
 76
     0
330
1B
  0
LAYOUT
  5
26
102
{ACAD_REACTORS
330
1A
102
}
330
1A
100
AcDbPlotSettings
  1

  2
none_device
  4

  6

 40
0.0
 41
0.0
 42
0.0
 43
0.0
 44
0.0
 45
0.0
 46
0.0
 47
0.0
 48
0.0
 49
0.0
140
0.0
141
0.0
142
1.0
143
1.0
 70
   688
 72
     1
 73
     0
 74
     5
  7

 75
    16
147
1.0
148
0.0
149
0.0
100
AcDbLayout
  1
Layout2
 70
     1
 71
     2
 10
0.0
 20
0.0
 11
0.0
 21
0.0
 12
0.0
 22
0.0
 32
0.0
 14
0.0
 24
0.0
 34
0.0
 15
0.0
 25
0.0
 35
0.0
146
0.0
 13
0.0
 23
0.0
 33
0.0
 16
1.0
 26
0.0
 36
0.0
 17
0.0
 27
1.0
 37
0.0
 76
     0
330
23
  0
LAYOUT
  5
22
102
{ACAD_REACTORS
330
1A
102
}
330
1A
100
AcDbPlotSettings
  1

  2
none_device
  4
Letter_(8.50_x_11.00_Inches)
  6

 40
6.35
 41
6.35
 42
6.35000508
 43
6.35000508
 44
215.9
 45
279.4
 46
0.0
 47
0.0
 48
0.0
 49
0.0
140
0.0
141
0.0
142
1.0
143
1.0
 70
  1712
 72
     1
 73
     0
 74
     0
  7

 75
     0
147
1.0
148
0.0
149
0.0
100
AcDbLayout
  1
Model
 70
     1
 71
     0
 10
0.0
 20
0.0
 11
1169.0
 21
654.0
 12
0.0
 22
0.0
 32
0.0
 14
0.0
 24
0.0
 34
0.0
 15
1169.0
 25
654.0
 35
0.0
146
0.0
 13
0.0
 23
0.0
 33
0.0
 16
1.0
 26
0.0
 36
0.0
 17
0.0
 27
1.0
 37
0.0
 76
     0
330
1F
331
29
  0
MLINESTYLE
  5
18
102
{ACAD_REACTORS
330
17
102
}
330
17
100
AcDbMlineStyle
  2
Standard
 70
     0
  3

 62
   256
 51
90.0
 52
90.0
 71
     2
 49
0.5
 62
   256
  6
BYLAYER
 49
-0.5
 62
   256
  6
BYLAYER
  0
ACDBPLACEHOLDER
  5
F
102
{ACAD_REACTORS
330
E
102
}
330
E
  0
SCALE
  5
48
102
{ACAD_REACTORS
330
47
102
}
330
47
100
AcDbScale
 70
     0
300
1:1
140
1.0
141
1.0
290
     1
  0
SCALE
  5
49
102
{ACAD_REACTORS
330
47
102
}
330
47
100
AcDbScale
 70
     0
300
1:2
140
1.0
141
2.0
290
     0
  0
SCALE
  5
4A
102
{ACAD_REACTORS
330
47
102
}
330
47
100
AcDbScale
 70
     0
300
1:4
140
1.0
141
4.0
290
     0
  0
SCALE
  5
4B
102
{ACAD_REACTORS
330
47
102
}
330
47
100
AcDbScale
 70
     0
300
1:5
140
1.0
141
5.0
290
     0
  0
SCALE
  5
4C
102
{ACAD_REACTORS
330
47
102
}
330
47
100
AcDbScale
 70
     0
300
1:8
140
1.0
141
8.0
290
     0
  0
SCALE
  5
4D
102
{ACAD_REACTORS
330
47
102
}
330
47
100
AcDbScale
 70
     0
300
1:10
140
1.0
141
10.0
290
     0
  0
SCALE
  5
4E
102
{ACAD_REACTORS
330
47
102
}
330
47
100
AcDbScale
 70
     0
300
1:16
140
1.0
141
16.0
290
     0
  0
SCALE
  5
4F
102
{ACAD_REACTORS
330
47
102
}
330
47
100
AcDbScale
 70
     0
300
1:20
140
1.0
141
20.0
290
     0
  0
SCALE
  5
50
102
{ACAD_REACTORS
330
47
102
}
330
47
100
AcDbScale
 70
     0
300
1:30
140
1.0
141
30.0
290
     0
  0
SCALE
  5
51
102
{ACAD_REACTORS
330
47
102
}
330
47
100
AcDbScale
 70
     0
300
1:40
140
1.0
141
40.0
290
     0
  0
SCALE
  5
52
102
{ACAD_REACTORS
330
47
102
}
330
47
100
AcDbScale
 70
     0
300
1:50
140
1.0
141
50.0
290
     0
  0
SCALE
  5
53
102
{ACAD_REACTORS
330
47
102
}
330
47
100
AcDbScale
 70
     0
300
1:100
140
1.0
141
100.0
290
     0
  0
SCALE
  5
54
102
{ACAD_REACTORS
330
47
102
}
330
47
100
AcDbScale
 70
     0
300
2:1
140
2.0
141
1.0
290
     0
  0
SCALE
  5
55
102
{ACAD_REACTORS
330
47
102
}
330
47
100
AcDbScale
 70
     0
300
4:1
140
4.0
141
1.0
290
     0
  0
SCALE
  5
56
102
{ACAD_REACTORS
330
47
102
}
330
47
100
AcDbScale
 70
     0
300
8:1
140
8.0
141
1.0
290
     0
  0
SCALE
  5
57
102
{ACAD_REACTORS
330
47
102
}
330
47
100
AcDbScale
 70
     0
300
10:1
140
10.0
141
1.0
290
     0
  0
SCALE
  5
58
102
{ACAD_REACTORS
330
47
102
}
330
47
100
AcDbScale
 70
     0
300
100:1
140
100.0
141
1.0
290
     0
  0
SCALE
  5
59
102
{ACAD_REACTORS
330
47
102
}
330
47
100
AcDbScale
 70
     0
300
1/128" = 1'-0"
140
0.0078125
141
12.0
290
     0
  0
SCALE
  5
5A
102
{ACAD_REACTORS
330
47
102
}
330
47
100
AcDbScale
 70
     0
300
1/64" = 1'-0"
140
0.015625
141
12.0
290
     0
  0
SCALE
  5
5B
102
{ACAD_REACTORS
330
47
102
}
330
47
100
AcDbScale
 70
     0
300
1/32" = 1'-0"
140
0.03125
141
12.0
290
     0
  0
SCALE
  5
5C
102
{ACAD_REACTORS
330
47
102
}
330
47
100
AcDbScale
 70
     0
300
1/16" = 1'-0"
140
0.0625
141
12.0
290
     0
  0
SCALE
  5
5D
102
{ACAD_REACTORS
330
47
102
}
330
47
100
AcDbScale
 70
     0
300
3/32" = 1'-0"
140
0.09375
141
12.0
290
     0
  0
SCALE
  5
5E
102
{ACAD_REACTORS
330
47
102
}
330
47
100
AcDbScale
 70
     0
300
1/8" = 1'-0"
140
0.125
141
12.0
290
     0
  0
SCALE
  5
5F
102
{ACAD_REACTORS
330
47
102
}
330
47
100
AcDbScale
 70
     0
300
3/16" = 1'-0"
140
0.1875
141
12.0
290
     0
  0
SCALE
  5
60
102
{ACAD_REACTORS
330
47
102
}
330
47
100
AcDbScale
 70
     0
300
1/4" = 1'-0"
140
0.25
141
12.0
290
     0
  0
SCALE
  5
61
102
{ACAD_REACTORS
330
47
102
}
330
47
100
AcDbScale
 70
     0
300
3/8" = 1'-0"
140
0.375
141
12.0
290
     0
  0
SCALE
  5
62
102
{ACAD_REACTORS
330
47
102
}
330
47
100
AcDbScale
 70
     0
300
1/2" = 1'-0"
140
0.5
141
12.0
290
     0
  0
SCALE
  5
63
102
{ACAD_REACTORS
330
47
102
}
330
47
100
AcDbScale
 70
     0
300
3/4" = 1'-0"
140
0.75
141
12.0
290
     0
  0
SCALE
  5
64
102
{ACAD_REACTORS
330
47
102
}
330
47
100
AcDbScale
 70
     0
300
1" = 1'-0"
140
1.0
141
12.0
290
     0
  0
SCALE
  5
65
102
{ACAD_REACTORS
330
47
102
}
330
47
100
AcDbScale
 70
     0
300
1-1/2" = 1'-0"
140
1.5
141
12.0
290
     0
  0
SCALE
  5
66
102
{ACAD_REACTORS
330
47
102
}
330
47
100
AcDbScale
 70
     0
300
3" = 1'-0"
140
3.0
141
12.0
290
     0
  0
SCALE
  5
67
102
{ACAD_REACTORS
330
47
102
}
330
47
100
AcDbScale
 70
     0
300
6" = 1'-0"
140
6.0
141
12.0
290
     0
  0
SCALE
  5
68
102
{ACAD_REACTORS
330
47
102
}
330
47
100
AcDbScale
 70
     0
300
1'-0" = 1'-0"
140
12.0
141
12.0
290
     0
  0
ENDSEC
  0
EOF
