  0
SECTION
  2
HEADER
  9
$ACADVER
  1
AC1015
  9
$ACADMAINTVER
 70
     6
  9
$DWGCODEPAGE
  3
ANSI_1252
  9
$INSBASE
 10
0.0
 20
0.0
 30
0.0
  9
$EXTMIN
 10
0.0
 20
0.0
 30
0.0
  9
$EXTMAX
 10
1039.0
 20
627.0
 30
0.0
  9
$LIMMIN
 10
0.0
 20
0.0
  9
$LIMMAX
 10
1039.0
 20
627.0
  9
$ORTHOMODE
 70
     0
  9
$REGENMODE
 70
     1
  9
$FILLMODE
 70
     1
  9
$QTEXTMODE
 70
     0
  9
$MIRRTEXT
 70
     1
  9
$LTSCALE
 40
1.0
  9
$ATTMODE
 70
     1
  9
$TEXTSIZE
 40
3.5
  9
$TRACEWID
 40
1.0
  9
$TEXTSTYLE
  7
Standard
  9
$CLAYER
  8
0
  9
$CELTYPE
  6
ByLayer
  9
$CECOLOR
 62
   256
  9
$CELTSCALE
 40
1.0
  9
$DISPSILH
 70
     0
  9
$DIMSCALE
 40
1.0
  9
$DIMASZ
 40
3.302
  9
$DIMEXO
 40
1.0
  9
$DIMDLI
 40
3.75
  9
$DIMRND
 40
0.0
  9
$DIMDLE
 40
0.0
  9
$DIMEXE
 40
1.0
  9
$DIMTP
 40
0.0
  9
$DIMTM
 40
0.0
  9
$DIMTXT
 40
2.8
  9
$DIMCEN
 40
2.5
  9
$DIMTSZ
 40
0.0
  9
$DIMTOL
 70
     0
  9
$DIMLIM
 70
     0
  9
$DIMTIH
 70
     1
  9
$DIMTOH
 70
     1
  9
$DIMSE1
 70
     0
  9
$DIMSE2
 70
     0
  9
$DIMTAD
 70
     1
  9
$DIMZIN
 70
     0
  9
$DIMBLK
  1

  9
$DIMASO
 70
     1
  9
$DIMSHO
 70
     1
  9
$DIMPOST
  1

  9
$DIMAPOST
  1

  9
$DIMALT
 70
     0
  9
$DIMALTD
 70
     3
  9
$DIMALTF
 40
0.0393700787
  9
$DIMLFAC
 40
1.0
  9
$DIMTOFL
 70
     1
  9
$DIMTVP
 40
0.0
  9
$DIMTIX
 70
     0
  9
$DIMSOXD
 70
     0
  9
$DIMSAH
 70
     0
  9
$DIMBLK1
  1

  9
$DIMBLK2
  1

  9
$DIMSTYLE
  2
ISO-25
  9
$DIMCLRD
 70
     0
  9
$DIMCLRE
 70
     0
  9
$DIMCLRT
 70
     0
  9
$DIMTFAC
 40
1.0
  9
$DIMGAP
 40
1.524
  9
$DIMJUST
 70
     0
  9
$DIMSD1
 70
     0
  9
$DIMSD2
 70
     0
  9
$DIMTOLJ
 70
     0
  9
$DIMTZIN
 70
     0
  9
$DIMALTZ
 70
     0
  9
$DIMALTTZ
 70
     0
  9
$DIMUPT
 70
     0
  9
$DIMDEC
 70
     2
  9
$DIMTDEC
 70
     2
  9
$DIMALTU
 70
     2
  9
$DIMALTTD
 70
     3
  9
$DIMTXSTY
  7
Standard
  9
$DIMAUNIT
 70
     0
  9
$DIMADEC
 70
     2
  9
$DIMALTRND
 40
0.0
  9
$DIMAZIN
 70
     0
  9
$DIMDSEP
 70
    44
  9
$DIMATFIT
 70
     3
  9
$DIMFRAC
 70
     0
  9
$DIMLDRBLK
  1

  9
$DIMLUNIT
 70
     2
  9
$DIMLWD
 70
    -2
  9
$DIMLWE
 70
    -2
  9
$DIMTMOVE
 70
     0
  9
$LUNITS
 70
     2
  9
$LUPREC
 70
     2
  9
$SKETCHINC
 40
1.0
  9
$FILLETRAD
 40
10.0
  9
$AUNITS
 70
     0
  9
$AUPREC
 70
     2
  9
$MENU
  1
.
  9
$ELEVATION
 40
0.0
  9
$PELEVATION
 40
0.0
  9
$THICKNESS
 40
0.0
  9
$LIMCHECK
 70
     0
  9
$CHAMFERA
 40
0.0
  9
$CHAMFERB
 40
0.0
  9
$CHAMFERC
 40
0.0
  9
$CHAMFERD
 40
0.0
  9
$SKPOLY
 70
     0
  9
$TDCREATE
 40
2457658.504603611
  9
$TDUCREATE
 40
2457658.379603611
  9
$TDUPDATE
 40
2457658.504604433
  9
$TDUUPDATE
 40
2457658.379604433
  9
$TDINDWG
 40
0.0000000116
  9
$TDUSRTIMER
 40
0.0000000116
  9
$USRTIMER
 70
     1
  9
$ANGBASE
 50
0.0
  9
$ANGDIR
 70
     0
  9
$PDMODE
 70
     0
  9
$PDSIZE
 40
-1.0
  9
$PLINEWID
 40
0.0
  9
$SPLFRAME
 70
     0
  9
$SPLINETYPE
 70
     6
  9
$SPLINESEGS
 70
     8
  9
$HANDSEED
  5
157
  9
$SURFTAB1
 70
     6
  9
$SURFTAB2
 70
     6
  9
$SURFTYPE
 70
     6
  9
$SURFU
 70
     6
  9
$SURFV
 70
     6
  9
$UCSBASE
  2

  9
$UCSNAME
  2

  9
$UCSORG
 10
0.0
 20
0.0
 30
0.0
  9
$UCSXDIR
 10
1.0
 20
0.0
 30
0.0
  9
$UCSYDIR
 10
0.0
 20
1.0
 30
0.0
  9
$UCSORTHOREF
  2

  9
$UCSORTHOVIEW
 70
     0
  9
$UCSORGTOP
 10
0.0
 20
0.0
 30
0.0
  9
$UCSORGBOTTOM
 10
0.0
 20
0.0
 30
0.0
  9
$UCSORGLEFT
 10
0.0
 20
0.0
 30
0.0
  9
$UCSORGRIGHT
 10
0.0
 20
0.0
 30
0.0
  9
$UCSORGFRONT
 10
0.0
 20
0.0
 30
0.0
  9
$UCSORGBACK
 10
0.0
 20
0.0
 30
0.0
  9
$PUCSBASE
  2

  9
$PUCSNAME
  2

  9
$PUCSORG
 10
0.0
 20
0.0
 30
0.0
  9
$PUCSXDIR
 10
1.0
 20
0.0
 30
0.0
  9
$PUCSYDIR
 10
0.0
 20
1.0
 30
0.0
  9
$PUCSORTHOREF
  2

  9
$PUCSORTHOVIEW
 70
     0
  9
$PUCSORGTOP
 10
0.0
 20
0.0
 30
0.0
  9
$PUCSORGBOTTOM
 10
0.0
 20
0.0
 30
0.0
  9
$PUCSORGLEFT
 10
0.0
 20
0.0
 30
0.0
  9
$PUCSORGRIGHT
 10
0.0
 20
0.0
 30
0.0
  9
$PUCSORGFRONT
 10
0.0
 20
0.0
 30
0.0
  9
$PUCSORGBACK
 10
0.0
 20
0.0
 30
0.0
  9
$USERI1
 70
     0
  9
$USERI2
 70
     0
  9
$USERI3
 70
     0
  9
$USERI4
 70
     0
  9
$USERI5
 70
     0
  9
$USERR1
 40
0.0
  9
$USERR2
 40
0.0
  9
$USERR3
 40
0.0
  9
$USERR4
 40
0.0
  9
$USERR5
 40
0.0
  9
$WORLDVIEW
 70
     1
  9
$SHADEDGE
 70
     3
  9
$SHADEDIF
 70
    70
  9
$TILEMODE
 70
     1
  9
$MAXACTVP
 70
    64
  9
$PINSBASE
 10
0.0
 20
0.0
 30
0.0
  9
$PLIMCHECK
 70
     0
  9
$PEXTMIN
 10
1.0000000000E+20
 20
1.0000000000E+20
 30
1.0000000000E+20
  9
$PEXTMAX
 10
-1.0000000000E+20
 20
-1.0000000000E+20
 30
-1.0000000000E+20
  9
$PLIMMIN
 10
0.0
 20
0.0
  9
$PLIMMAX
 10
420.0
 20
297.0
  9
$UNITMODE
 70
     0
  9
$VISRETAIN
 70
     1
  9
$PLINEGEN
 70
     0
  9
$PSLTSCALE
 70
     1
  9
$TREEDEPTH
 70
  3020
  9
$CMLSTYLE
  2
Standard
  9
$CMLJUST
 70
     0
  9
$CMLSCALE
 40
20.0
  9
$PROXYGRAPHICS
 70
     1
  9
$MEASUREMENT
 70
     1
  9
$CELWEIGHT
370
    -1
  9
$ENDCAPS
280
     0
  9
$JOINSTYLE
280
     0
  9
$LWDISPLAY
290
     1
  9
$INSUNITS
 70
     4
  9
$HYPERLINKBASE
  1

  9
$STYLESHEET
  1

  9
$XEDIT
290
     1
  9
$CEPSNTYPE
380
     0
  9
$PSTYLEMODE
290
     1
  9
$FINGERPRINTGUID
  2
{893B6D5E-B8B2-407A-96D6-E2F2B786D858}
  9
$VERSIONGUID
  2
{FAEB1C32-E019-11D5-929B-00C0DF256EC4}
  9
$EXTNAMES
290
     1
  9
$PSVPSCALE
 40
0.0
  9
$OLESTARTUP
290
     0
  0
ENDSEC
  0
SECTION
  2
CLASSES
  0
CLASS
  1
ACDBDICTIONARYWDFLT
  2
AcDbDictionaryWithDefault
  3
ObjectDBX Classes
 90
        0
280
     0
281
     0
  0
CLASS
  1
VISUALSTYLE
  2
AcDbVisualStyle
  3
ObjectDBX Classes
 90
     4095
280
     0
281
     0
  0
CLASS
  1
MATERIAL
  2
AcDbMaterial
  3
ObjectDBX Classes
 90
     1153
280
     0
281
     0
  0
CLASS
  1
SCALE
  2
AcDbScale
  3
ObjectDBX Classes
 90
     1153
280
     0
281
     0
  0
CLASS
  1
TABLESTYLE
  2
AcDbTableStyle
  3
ObjectDBX Classes
 90
     4095
280
     0
281
     0
  0
CLASS
  1
MLEADERSTYLE
  2
AcDbMLeaderStyle
  3
ACDB_MLEADERSTYLE_CLASS
 90
     4095
280
     0
281
     0
  0
CLASS
  1
SUN
  2
AcDbSun
  3
SCENEOE
 90
     1153
280
     0
281
     0
  0
CLASS
  1
ACDBPLACEHOLDER
  2
AcDbPlaceHolder
  3
ObjectDBX Classes
 90
        0
280
     0
281
     0
  0
CLASS
  1
LAYOUT
  2
AcDbLayout
  3
ObjectDBX Classes
 90
        0
280
     0
281
     0
  0
ENDSEC
  0
SECTION
  2
TABLES
  0
TABLE
  2
VPORT
  5
8
330
0
100
AcDbSymbolTable
 70
     1
  0
VPORT
  5
29
330
8
100
AcDbSymbolTableRecord
100
AcDbViewportTableRecord
  2
*Active
 70
     0
 10
0.0
 20
0.0
 11
1.0
 21
1.0
 12
519.5
 22
313.5
 13
0.0
 23
0.0
 14
10.0
 24
10.0
 15
10.0
 25
10.0
 16
0.0
 26
0.0
 36
1.0
 17
0.0
 27
0.0
 37
0.0
 40
627.0
 41
1.6570972887
 42
50.0
 43
0.0
 44
0.0
 50
0.0
 51
0.0
 71
     0
 72
  2000
 73
     1
 74
     3
 75
     0
 76
     0
 77
     0
 78
     0
281
     0
 65
     1
110
0.0
120
0.0
130
0.0
111
1.0
121
0.0
131
0.0
112
0.0
122
1.0
132
0.0
 79
     0
146
0.0
  0
ENDTAB
  0
TABLE
  2
LTYPE
  5
5
330
0
100
AcDbSymbolTable
 70
     6
  0
LTYPE
  5
14
330
5
100
AcDbSymbolTableRecord
100
AcDbLinetypeTableRecord
  2
ByBlock
 70
     0
  3

 72
    65
 73
     0
 40
0.0
  0
LTYPE
  5
15
330
5
100
AcDbSymbolTableRecord
100
AcDbLinetypeTableRecord
  2
ByLayer
 70
     0
  3

 72
    65
 73
     0
 40
0.0
  0
LTYPE
  5
16
330
5
100
AcDbSymbolTableRecord
100
AcDbLinetypeTableRecord
  2
Continuous
 70
     0
  3
Solid line
 72
    65
 73
     0
 40
0.0
  0
LTYPE
  5
6E
330
5
100
AcDbSymbolTableRecord
100
AcDbLinetypeTableRecord
  2
HIDDEN
 70
     0
  3
Hidden __ __ __ __ __ __ __ __ __ __ __ __ __ __
 72
    65
 73
     2
 40
1.905
 49
1.27
 74
     0
 49
-0.635
 74
     0
  0
LTYPE
  5
6F
330
5
100
AcDbSymbolTableRecord
100
AcDbLinetypeTableRecord
  2
PHANTOM
 70
     0
  3
Phantom ______  __  __  ______  __  __  ______
 72
    65
 73
     6
 40
12.7
 49
6.35
 74
     0
 49
-1.27
 74
     0
 49
1.27
 74
     0
 49
-1.27
 74
     0
 49
1.27
 74
     0
 49
-1.27
 74
     0
  0
LTYPE
  5
70
330
5
100
AcDbSymbolTableRecord
100
AcDbLinetypeTableRecord
  2
CENTER
 70
     0
  3
Center ____ _ ____ _ ____ _ ____ _ ____ _ ____
 72
    65
 73
     4
 40
10.16
 49
6.35
 74
     0
 49
-1.27
 74
     0
 49
1.27
 74
     0
 49
-1.27
 74
     0
  0
LTYPE
  5
71
330
5
100
AcDbSymbolTableRecord
100
AcDbLinetypeTableRecord
  2
CENTERX2
 70
     0
  3
Center (2x) ________  __  ________  __  _____
 72
    65
 73
     4
 40
20.32
 49
12.7
 74
     0
 49
-2.54
 74
     0
 49
2.54
 74
     0
 49
-2.54
 74
     0
  0
LTYPE
  5
72
330
5
100
AcDbSymbolTableRecord
100
AcDbLinetypeTableRecord
  2
DOT2
 70
     0
  3
Dot (.5x) ........................................
 72
    65
 73
     2
 40
0.635
 49
0.0
 74
     0
 49
-0.635
 74
     0
  0
ENDTAB
  0
TABLE
  2
LAYER
  5
2
330
0
100
AcDbSymbolTable
 70
     2
  0
LAYER
  5
10
330
2
100
AcDbSymbolTableRecord
100
AcDbLayerTableRecord
  2
0
 70
     0
 62
     7
  6
Continuous
370
    -3
390
F
  0
LAYER
  5
73
330
2
100
AcDbSymbolTableRecord
100
AcDbLayerTableRecord
  2
FORMAT
 70
     0
 62
     7
  6
Continuous
370
    -3
390
F
  0
ENDTAB
  0
TABLE
  2
STYLE
  5
3
330
0
100
AcDbSymbolTable
 70
     2
  0
STYLE
  5
11
330
3
100
AcDbSymbolTableRecord
100
AcDbTextStyleTableRecord
  2
Standard
 70
     0
 40
0.0
 41
1.0
 50
0.0
 71
     0
 42
3.5
  3
txt
  4

  0
STYLE
  5
74
330
3
100
AcDbSymbolTableRecord
100
AcDbTextStyleTableRecord
  2
SLDTEXTSTYLE0
 70
     0
 40
0.0
 41
0.605
 50
0.0
 71
     0
 42
3.5
  3
TXT
  4

  0
ENDTAB
  0
TABLE
  2
VIEW
  5
6
330
0
100
AcDbSymbolTable
 70
     0
  0
ENDTAB
  0
TABLE
  2
UCS
  5
7
330
0
100
AcDbSymbolTable
 70
     0
  0
ENDTAB
  0
TABLE
  2
APPID
  5
9
330
0
100
AcDbSymbolTable
 70
     1
  0
APPID
  5
12
330
9
100
AcDbSymbolTableRecord
100
AcDbRegAppTableRecord
  2
ACAD
 70
     0
  0
ENDTAB
  0
TABLE
  2
DIMSTYLE
  5
A
330
0
100
AcDbSymbolTable
 70
     1
100
AcDbDimStyleTable
  0
DIMSTYLE
105
27
330
A
100
AcDbSymbolTableRecord
100
AcDbDimStyleTableRecord
  2
ISO-25
 70
     0
 41
2.5
 42
0.625
 43
3.75
 44
1.25
 73
     0
 74
     0
 77
     1
 78
     8
140
2.5
141
2.5
143
0.0393700787
147
0.625
171
     3
172
     1
178
     0
271
     2
272
     2
274
     3
278
    44
283
     0
284
     8
340
11
  0
ENDTAB
  0
TABLE
  2
BLOCK_RECORD
  5
1
330
0
100
AcDbSymbolTable
 70
     1
  0
BLOCK_RECORD
  5
1F
330
1
100
AcDbSymbolTableRecord
100
AcDbBlockTableRecord
  2
*Model_Space
340
22
  0
BLOCK_RECORD
  5
1B
330
1
100
AcDbSymbolTableRecord
100
AcDbBlockTableRecord
  2
*Paper_Space
340
1E
  0
BLOCK_RECORD
  5
23
330
1
100
AcDbSymbolTableRecord
100
AcDbBlockTableRecord
  2
*Paper_Space0
340
26
  0
ENDTAB
  0
ENDSEC
  0
SECTION
  2
BLOCKS
  0
BLOCK
  5
20
330
1F
100
AcDbEntity
  8
0
100
AcDbBlockBegin
  2
*Model_Space
 70
     0
 10
0.0
 20
0.0
 30
0.0
  3
*Model_Space
  1

  0
ENDBLK
  5
21
330
1F
100
AcDbEntity
  8
0
100
AcDbBlockEnd
  0
BLOCK
  5
1C
330
1B
100
AcDbEntity
 67
     1
  8
0
100
AcDbBlockBegin
  2
*Paper_Space
 70
     0
 10
0.0
 20
0.0
 30
0.0
  3
*Paper_Space
  1

  0
ENDBLK
  5
1D
330
1B
100
AcDbEntity
 67
     1
  8
0
100
AcDbBlockEnd
  0
BLOCK
  5
24
330
23
100
AcDbEntity
  8
0
100
AcDbBlockBegin
  2
*Paper_Space0
 70
     0
 10
0.0
 20
0.0
 30
0.0
  3
*Paper_Space0
  1

  0
ENDBLK
  5
25
330
23
100
AcDbEntity
  8
0
100
AcDbBlockEnd
  0
ENDSEC
  0
SECTION
  2
ENTITIES
  0
MTEXT
  5
75
330
1F
100
AcDbEntity
  8
0
  6
Continuous
 62
     7
370
     0
100
AcDbMText
 10
7.2782978723
 20
22.1884790273
 30
0.0
 40
10.0
 41
0.0
 71
     1
 72
     1
  1
1:1
  7
SLDTEXTSTYLE0
 73
     1
 44
1.0
  0
ARC
  5
76
330
1F
100
AcDbEntity
  8
0
  6
Continuous
 62
     7
370
    30
100
AcDbCircle
 10
565.3749268313
 20
465.3738997765
 30
0.0
 40
0.4000000000000909
100
AcDbArc
 50
180.0
 51
270.0
  0
ARC
  5
77
330
1F
100
AcDbEntity
  8
0
  6
Continuous
 62
     7
370
    30
100
AcDbCircle
 10
592.5749268313
 20
465.3738997765
 30
0.0
 40
0.4000000000000909
100
AcDbArc
 50
270.0
 51
0.0
  0
LINE
  5
78
330
1F
100
AcDbEntity
  8
0
  6
Continuous
 62
     7
370
    30
100
AcDbLine
 10
564.9749268313
 20
514.9738997765
 30
0.0
 11
564.9749268313
 21
473.9738997765
 31
0.0
  0
LINE
  5
79
330
1F
100
AcDbEntity
  8
0
  6
Continuous
 62
     7
370
    30
100
AcDbLine
 10
592.9749268313
 20
473.9738997765
 30
0.0
 11
592.9749268313
 21
514.9738997765
 31
0.0
  0
LINE
  5
7A
330
1F
100
AcDbEntity
  8
0
  6
Continuous
 62
     7
370
    30
100
AcDbLine
 10
592.9749268313
 20
465.3738997765
 30
0.0
 11
592.9749268313
 21
473.9738997765
 31
0.0
  0
LINE
  5
7B
330
1F
100
AcDbEntity
  8
0
  6
Continuous
 62
     7
370
    30
100
AcDbLine
 10
564.9749268313
 20
473.9738997765
 30
0.0
 11
564.9749268313
 21
465.3738997765
 31
0.0
  0
ARC
  5
7C
330
1F
100
AcDbEntity
  8
0
  6
Continuous
 62
     7
370
    30
100
AcDbCircle
 10
578.9749268312
 20
514.9738997765
 30
0.0
 40
85.00017133749994
100
AcDbArc
 50
274.0300903115
 51
265.9698971295
  0
LINE
  5
7D
330
1F
100
AcDbEntity
  8
0
  6
Continuous
 62
     7
370
    30
100
AcDbLine
 10
593.384223089
 20
460.8877026967
 30
0.0
 11
593.4621569635
 21
460.9234077076
 31
0.0
  0
LINE
  5
7E
330
1F
100
AcDbEntity
  8
0
  6
Continuous
 62
     7
370
    30
100
AcDbLine
 10
564.5254470304
 20
460.9234017021
 30
0.0
 11
564.6033677966
 21
460.8877026967
 31
0.0
  0
ARC
  5
7F
330
1F
100
AcDbEntity
  8
0
  6
Continuous
 62
     7
370
    30
100
AcDbCircle
 10
565.4249268313
 20
464.7738997765
 30
0.0
 40
0.1999999999999886
100
AcDbArc
 50
90.0
 51
180.0
  0
ARC
  5
80
330
1F
100
AcDbEntity
  8
0
  6
Continuous
 62
     7
370
    30
100
AcDbCircle
 10
592.5249268313
 20
464.7738997765
 30
0.0
 40
0.1999999999999886
100
AcDbArc
 50
0.0
 51
90.0
  0
ARC
  5
81
330
1F
100
AcDbEntity
  8
0
  6
Continuous
 62
     7
370
    30
100
AcDbCircle
 10
592.5249268313
 20
457.6738997765
 30
0.0
 40
0.1999999999999886
100
AcDbArc
 50
270.0
 51
0.0
  0
ARC
  5
82
330
1F
100
AcDbEntity
  8
0
  6
Continuous
 62
     7
370
    30
100
AcDbCircle
 10
565.4249268313
 20
457.6738997765
 30
0.0
 40
0.2000000000000455
100
AcDbArc
 50
180.0
 51
270.0
  0
LINE
  5
83
330
1F
100
AcDbEntity
  8
0
  6
Continuous
 62
     7
370
    30
100
AcDbLine
 10
565.2249268313
 20
464.7738997765
 30
0.0
 11
565.2249268313
 21
457.6738997765
 31
0.0
  0
LINE
  5
84
330
1F
100
AcDbEntity
  8
0
  6
Continuous
 62
     7
370
    30
100
AcDbLine
 10
592.7249268313
 20
457.6738997765
 30
0.0
 11
592.7249268313
 21
464.7738997765
 31
0.0
  0
SPLINE
  5
85
330
1F
100
AcDbEntity
  8
0
  6
Continuous
 62
     7
370
    30
100
AcDbSpline
210
0.0
220
0.0
230
1.0
 70
    24
 71
     3
 72
    69
 73
    65
 74
     0
 42
0.000000001
 43
0.00000001
 40
0.0
 40
0.0
 40
0.0
 40
0.0
 40
0.0182918522395209
 40
0.0365519518995867
 40
0.0547953413745095
 40
0.0730371043969547
 40
0.0845095289875888
 40
0.0959910139701184
 40
0.1074852919646977
 40
0.1191449364377276
 40
0.1313354497951619
 40
0.1516185312645527
 40
0.1718771082815547
 40
0.1921318549830682
 40
0.2016854201695531
 40
0.2112448961941951
 40
0.2208124434541779
 40
0.2303902168849548
 40
0.2399803645284271
 40
0.2560911307847327
 40
0.2721725825012693
 40
0.2882349753594714
 40
0.3042886015674413
 40
0.3203437701929397
 40
0.3364107873347469
 40
0.3524999363225324
 40
0.3686214581347295
 40
0.3874247141999782
 40
0.4061891254530743
 40
0.4249310140149084
 40
0.4436667608701054
 40
0.4624127631038824
 40
0.4811853909285773
 40
0.5000009450609734
 40
0.5188042017276908
 40
0.5375686132482896
 40
0.5563105018768012
 40
0.5750462487319983
 40
0.593792251033551
 40
0.6125648791278486
 40
0.6313804338646394
 40
0.6494222008928296
 40
0.6674287361245482
 40
0.6854144590788228
 40
0.703393839349276
 40
0.7128141715220798
 40
0.7222388182808842
 40
0.7316698571610756
 40
0.7411093614775203
 40
0.7505593989732041
 40
0.7600220304860864
 40
0.7794137610543619
 40
0.7987685913156097
 40
0.818104454906539
 40
0.8374393382402604
 40
0.8526422892721832
 40
0.8678644483580145
 40
0.8831144897980813
 40
0.8975108949936272
 40
0.9180093535251798
 40
0.9384861591768904
 40
0.9589626522276541
 40
0.9794601739327278
 40
1.0
 40
1.0
 40
1.0
 40
1.0
 10
578.9749268312553
 20
464.9738997765481
 30
0.0
 10
579.1051833204176
 20
464.9738997765481
 30
0.0
 10
579.3654701882605
 20
464.9738997765481
 30
0.0
 10
579.7553494915024
 20
464.9738997765481
 30
0.0
 10
580.1442295048438
 20
464.9738997765481
 30
0.0
 10
580.4840529112691
 20
464.9738997765481
 30
0.0
 10
580.7751645280275
 20
464.9738997765481
 30
0.0
 10
581.0180098899647
 20
464.9738997765481
 30
0.0
 10
581.261506222326
 20
464.9738997765481
 30
0.0
 10
581.5092231564101
 20
464.9738997765481
 30
0.0
 10
581.8174491509033
 20
464.9738997765481
 30
0.0
 10
582.183791884184
 20
464.9738997765481
 30
0.0
 10
582.602890720027
 20
464.9738997765481
 30
0.0
 10
582.9449936016565
 20
464.9738997765481
 30
0.0
 10
583.2120153721356
 20
464.9738997765481
 30
0.0
 10
583.4055928509129
 20
464.9738997765481
 30
0.0
 10
583.5983322021126
 20
464.9738997765481
 30
0.0
 10
583.7902343686909
 20
464.9738997765481
 30
0.0
 10
584.0245017246513
 20
464.9738997765482
 30
0.0
 10
584.2997753518587
 20
464.9738997765481
 30
0.0
 10
584.614295078131
 20
464.9738997765482
 30
0.0
 10
584.924845153546
 20
464.9738997765482
 30
0.0
 10
585.2314239473556
 20
464.9738997765482
 30
0.0
 10
585.5340314048854
 20
464.9738997765481
 30
0.0
 10
585.8326670740786
 20
464.9738997765482
 30
0.0
 10
586.1273306400014
 20
464.9738997765482
 30
0.0
 10
586.433881028448
 20
464.9738997765482
 30
0.0
 10
586.750832480294
 20
464.9738997765482
 30
0.0
 10
587.0765006574801
 20
464.9738997765482
 30
0.0
 10
587.3947319571286
 20
464.9738997765482
 30
0.0
 10
587.7055245447883
 20
464.9738997765482
 30
0.0
 10
588.0088781960803
 20
464.9738997765482
 30
0.0
 10
588.3047914088055
 20
464.9738997765483
 30
0.0
 10
588.5929017869066
 20
464.9738997765482
 30
0.0
 10
588.8726688798449
 20
464.9738997765482
 30
0.0
 10
589.1434757690117
 20
464.9738997765482
 30
0.0
 10
589.40511254792
 20
464.9738997765483
 30
0.0
 10
589.6575776726543
 20
464.9738997765483
 30
0.0
 10
589.9008711176496
 20
464.9738997765483
 30
0.0
 10
590.134991104679
 20
464.9738997765483
 30
0.0
 10
590.356623571854
 20
464.9738997765483
 30
0.0
 10
590.5658330622465
 20
464.9738997765483
 30
0.0
 10
590.762609679808
 20
464.9738997765483
 30
0.0
 10
590.9497175284672
 20
464.9738997765483
 30
0.0
 10
591.0989821778525
 20
464.9738997765483
 30
0.0
 10
591.2150192278751
 20
464.9738997765483
 30
0.0
 10
591.3014281238447
 20
464.9738997765483
 30
0.0
 10
591.3851852140449
 20
464.9738997765483
 30
0.0
 10
591.4662908594828
 20
464.9738997765483
 30
0.0
 10
591.5447446341058
 20
464.9738997765483
 30
0.0
 10
591.6470201516456
 20
464.9738997765483
 30
0.0
 10
591.7685802387291
 20
464.9738997765483
 30
0.0
 10
591.9032018760579
 20
464.9738997765483
 30
0.0
 10
592.0257178870169
 20
464.9738997765483
 30
0.0
 10
592.1282316444725
 20
464.9738997765483
 30
0.0
 10
592.2135801606382
 20
464.9738997765483
 30
0.0
 10
592.284351650752
 20
464.9738997765483
 30
0.0
 10
592.3464216125222
 20
464.9738997765483
 30
0.0
 10
592.4076912260612
 20
464.9738997765483
 30
0.0
 10
592.4646814295872
 20
464.9738997765483
 30
0.0
 10
592.5139949500258
 20
464.9738997765483
 30
0.0
 10
592.5489648650305
 20
464.9738997765483
 30
0.0
 10
592.570864129704
 20
464.9738997765483
 30
0.0
 10
592.5735716670275
 20
464.9738997765483
 30
0.0
 10
592.5749268312551
 20
464.9738997765483
 30
0.0
  0
SPLINE
  5
86
330
1F
100
AcDbEntity
  8
0
  6
Continuous
 62
     7
370
    30
100
AcDbSpline
210
0.0
220
0.0
230
1.0
 70
    24
 71
     3
 72
    69
 73
    65
 74
     0
 42
0.000000001
 43
0.00000001
 40
0.0
 40
0.0
 40
0.0
 40
0.0
 40
0.0182885874753727
 40
0.0365466265131057
 40
0.0547891710351636
 40
0.073031313323063
 40
0.0845046055573191
 40
0.09598744483607
 40
0.107483564055996
 40
0.1191449883375934
 40
0.1313355000399353
 40
0.1516185787559718
 40
0.1718771530235122
 40
0.1921318969766424
 40
0.2016854608669871
 40
0.2112449355948066
 40
0.22081248155699
 40
0.2303902536886964
 40
0.2399804000315379
 40
0.2560911640960964
 40
0.2721726136264516
 40
0.2882350043026548
 40
0.3042886283314149
 40
0.3203437947790903
 40
0.3364108097430611
 40
0.3524999565515972
 40
0.3686214761817345
 40
0.3874247296981898
 40
0.4061891384068371
 40
0.4249310244263667
 40
0.443666768739199
 40
0.4624127684283447
 40
0.4811853937039455
 40
0.5000009452805969
 40
0.5188041993951769
 40
0.5375686083691387
 40
0.5563104944542746
 40
0.5750462387671068
 40
0.593792238525053
 40
0.6125648640722561
 40
0.6313804162562231
 40
0.6494221808247809
 40
0.6674287136053543
 40
0.6854144341150319
 40
0.7033938119454894
 40
0.7128141428413451
 40
0.7222387883236449
 40
0.7316698259274904
 40
0.7411093289674653
 40
0.7505593651862713
 40
0.7600219954215837
 40
0.7794137233544648
 40
0.7987685509868016
 40
0.8181044119528915
 40
0.8374392926634202
 40
0.8526422416338078
 40
0.8678643986564433
 40
0.8831144380304795
 40
0.897513485374378
 40
0.9180145130055302
 40
0.9384923358009245
 40
0.9589683000007483
 40
0.9794637576524319
 40
1.0
 40
1.0
 40
1.0
 40
1.0
 10
565.3749268312552
 20
464.973899776548
 30
0.0
 10
565.3759942682508
 20
464.973899776548
 30
0.0
 10
565.3781273592431
 20
464.9738997765479
 30
0.0
 10
565.3954958884821
 20
464.973899776548
 30
0.0
 10
565.4232434364957
 20
464.973899776548
 30
0.0
 10
565.4575367017499
 20
464.973899776548
 30
0.0
 10
565.49377601698
 20
464.973899776548
 30
0.0
 10
565.5284778480827
 20
464.973899776548
 30
0.0
 10
565.5677609516794
 20
464.973899776548
 30
0.0
 10
565.6123311113607
 20
464.973899776548
 30
0.0
 10
565.6737187237675
 20
464.973899776548
 30
0.0
 10
565.7564227471817
 20
464.973899776548
 30
0.0
 10
565.8652082369268
 20
464.9738997765479
 30
0.0
 10
565.9657867947591
 20
464.973899776548
 30
0.0
 10
566.0511584814999
 20
464.973899776548
 30
0.0
 10
566.1162743603538
 20
464.973899776548
 30
0.0
 10
566.1843481094764
 20
464.973899776548
 30
0.0
 10
566.2553802866245
 20
464.973899776548
 30
0.0
 10
566.3460997452967
 20
464.973899776548
 30
0.0
 10
566.4590780927285
 20
464.973899776548
 30
0.0
 10
566.5975328134638
 20
464.973899776548
 30
0.0
 10
566.7437252530806
 20
464.973899776548
 30
0.0
 10
566.8976552913938
 20
464.973899776548
 30
0.0
 10
567.0593228079609
 20
464.973899776548
 30
0.0
 10
567.2287273255395
 20
464.973899776548
 30
0.0
 10
567.4058695696339
 20
464.973899776548
 30
0.0
 10
567.6008318765646
 20
464.973899776548
 30
0.0
 10
567.8147112335471
 20
464.973899776548
 30
0.0
 10
568.0487226764645
 20
464.973899776548
 30
0.0
 10
568.2919615195528
 20
464.973899776548
 30
0.0
 10
568.5444278080711
 20
464.973899776548
 30
0.0
 10
568.8061205773292
 20
464.973899776548
 30
0.0
 10
569.0770401268934
 20
464.973899776548
 30
0.0
 10
569.3568279122599
 20
464.973899776548
 30
0.0
 10
569.6448769579198
 20
464.973899776548
 30
0.0
 10
569.940655737458
 20
464.973899776548
 30
0.0
 10
570.2439417488259
 20
464.973899776548
 30
0.0
 10
570.5547353106524
 20
464.973899776548
 30
0.0
 10
570.8730352739602
 20
464.973899776548
 30
0.0
 10
571.1988416097578
 20
464.973899776548
 30
0.0
 10
571.5272341377049
 20
464.973899776548
 30
0.0
 10
571.8572288418912
 20
464.973899776548
 30
0.0
 10
572.1879281267591
 20
464.9738997765481
 30
0.0
 10
572.5236821883691
 20
464.973899776548
 30
0.0
 10
572.8103794564137
 20
464.973899776548
 30
0.0
 10
573.0455341664081
 20
464.973899776548
 30
0.0
 10
573.2274055558559
 20
464.973899776548
 30
0.0
 10
573.410662982318
 20
464.9738997765481
 30
0.0
 10
573.5953066597953
 20
464.973899776548
 30
0.0
 10
573.7813372432505
 20
464.973899776548
 30
0.0
 10
574.0342013652497
 20
464.9738997765481
 30
0.0
 10
574.35530593692
 20
464.9738997765481
 30
0.0
 10
574.7464410180313
 20
464.9738997765481
 30
0.0
 10
575.1411127713677
 20
464.9738997765481
 30
0.0
 10
575.5108480576376
 20
464.9738997765481
 30
0.0
 10
575.8547779117122
 20
464.9738997765481
 30
0.0
 10
576.1722587236617
 20
464.9738997765481
 30
0.0
 10
576.4857202268781
 20
464.9738997765481
 30
0.0
 10
576.8375593381971
 20
464.9738997765481
 30
0.0
 10
577.2278220405747
 20
464.9738997765481
 30
0.0
 10
577.6627214958937
 20
464.9738997765481
 30
0.0
 10
578.0989474411098
 20
464.9738997765481
 30
0.0
 10
578.5364967194864
 20
464.9738997765481
 30
0.0
 10
578.8286866503339
 20
464.9738997765481
 30
0.0
 10
578.9749268312553
 20
464.9738997765481
 30
0.0
  0
ARC
  5
87
330
1F
100
AcDbEntity
  8
0
  6
Continuous
 62
     7
370
    30
100
AcDbCircle
 10
578.9749268313
 20
514.9738997765
 30
0.0
 40
14.0
100
AcDbArc
 50
0.0
 51
90.0
  0
ARC
  5
88
330
1F
100
AcDbEntity
  8
0
  6
Continuous
 62
     7
370
    30
100
AcDbCircle
 10
578.9749268313
 20
514.9738997765
 30
0.0
 40
14.0
100
AcDbArc
 50
90.0
 51
180.0
  0
SPLINE
  5
89
330
1F
100
AcDbEntity
  8
0
  6
Continuous
 62
     7
370
    30
100
AcDbSpline
210
0.0
220
0.0
230
1.0
 70
     8
 71
     3
 72
    16
 73
    12
 74
     0
 42
0.000000001
 43
0.00000001
 40
0.0
 40
0.0
 40
0.0
 40
0.0
 40
0.1120662463784333
 40
0.22428768382569
 40
0.3365090898159221
 40
0.4485752932390074
 40
0.5666805164760559
 40
0.6848765416680135
 40
0.8029817391423636
 40
0.92451513391823
 40
1.0
 40
1.0
 40
1.0
 40
1.0
 10
594.8502920392287
 20
468.4159664594205
 30
0.0
 10
594.7908472295127
 20
468.4741906525956
 30
0.0
 10
594.6718752899901
 20
468.5907196687076
 30
0.0
 10
594.4820293335124
 20
468.7533495488273
 30
0.0
 10
594.2845873448662
 20
468.9065330477537
 30
0.0
 10
594.0756120045647
 20
469.051460574232
 30
0.0
 10
593.8553030221274
 20
469.1871566817062
 30
0.0
 10
593.6239360516495
 20
469.3127737602149
 30
0.0
 10
593.3834867786959
 20
469.4259198347631
 30
0.0
 10
593.1670809590388
 20
469.5154440550044
 30
0.0
 10
593.0281545823115
 20
469.5613186114821
 30
0.0
 10
592.9749268312551
 20
469.5788948236424
 30
0.0
  0
SPLINE
  5
8A
330
1F
100
AcDbEntity
  8
0
  6
Continuous
 62
     7
370
    30
100
AcDbSpline
210
0.0
220
0.0
230
1.0
 70
     8
 71
     3
 72
    45
 73
    41
 74
     0
 42
0.000000001
 43
0.00000001
 40
0.0
 40
0.0
 40
0.0
 40
0.0
 40
0.0015206725690517
 40
0.0288544642547526
 40
0.0554237641195514
 40
0.082013523838108
 40
0.1085828255833454
 40
0.1359243265993637
 40
0.1632881245611523
 40
0.1906296296138767
 40
0.2172084823129095
 40
0.2438078092314012
 40
0.2703866668505789
 40
0.2977381653285359
 40
0.3251119726382299
 40
0.3524634774827752
 40
0.3790501133635736
 40
0.4056572273040015
 40
0.4322438689868987
 40
0.4596032675853762
 40
0.4869849778851447
 40
0.5143443823864212
 40
0.5409336166976915
 40
0.5675433206962406
 40
0.594132559143825
 40
0.6214942941367096
 40
0.6488783334269365
 40
0.6762400712682248
 40
0.7028268086256599
 40
0.7294340016144248
 40
0.756020739631422
 40
0.7833795627453469
 40
0.8107606790172659
 40
0.8381195006800591
 40
0.8647063128261208
 40
0.8913135822221099
 40
0.9179003912651486
 40
0.9452594956442859
 40
0.9726409007364084
 40
1.0
 40
1.0
 40
1.0
 40
1.0
 10
592.7249268312548
 20
460.4917706127522
 30
0.0
 10
592.7298038962197
 20
460.4929620941293
 30
0.0
 10
592.8223452490103
 20
460.515570219971
 30
0.0
 10
592.996508633419
 20
460.5726444900987
 30
0.0
 10
593.2461916208433
 20
460.6636203120826
 30
0.0
 10
593.4876665300876
 20
460.7688423881024
 30
0.0
 10
593.7253697648772
 20
460.8879561793425
 30
0.0
 10
593.9581465506564
 20
461.0217109925371
 30
0.0
 10
594.1850861973668
 20
461.1698360586382
 30
0.0
 10
594.4012115085405
 20
461.3291315250537
 30
0.0
 10
594.6060292459715
 20
461.4987711590109
 30
0.0
 10
594.7993102472917
 20
461.6777519617082
 30
0.0
 10
594.9841800411075
 20
461.8689687262009
 30
0.0
 10
595.1596143593396
 20
462.0722743133919
 30
0.0
 10
595.3247580741465
 20
462.2872394039505
 30
0.0
 10
595.4759926012623
 20
462.5091546317661
 30
0.0
 10
595.6131211443121
 20
462.7370852591746
 30
0.0
 10
595.7362626260037
 20
462.9700056297939
 30
0.0
 10
595.8474111518628
 20
463.2116887503147
 30
0.0
 10
595.9456490591756
 20
463.4616564277214
 30
0.0
 10
596.0303114495656
 20
463.7192205057679
 30
0.0
 10
596.0995387134674
 20
463.9787224067902
 30
0.0
 10
596.1534579642511
 20
464.2392140774174
 30
0.0
 10
596.1925241508459
 20
464.4997668156983
 30
0.0
 10
596.2173726966125
 20
464.7646172250792
 30
0.0
 10
596.2272961178147
 20
465.0330106728842
 30
0.0
 10
596.221894629158
 20
465.3040780794498
 30
0.0
 10
596.2012880590393
 20
465.5718500150968
 30
0.0
 10
596.1659129753995
 20
465.8354744335431
 30
0.0
 10
596.1165084970562
 20
466.0942264192827
 30
0.0
 10
596.0522690434442
 20
466.3523286401424
 30
0.0
 10
595.9727765571441
 20
466.6088352666991
 30
0.0
 10
595.8779414126446
 20
466.8627946256282
 30
0.0
 10
595.7698466633375
 20
467.1086228124385
 30
0.0
 10
595.6491889503994
 20
467.3456645117915
 30
0.0
 10
595.5168849458951
 20
467.5734606148827
 30
0.0
 10
595.3708496844904
 20
467.7957893186094
 30
0.0
 10
595.2107359350535
 20
468.0113566738116
 30
0.0
 10
595.037777408958
 20
468.220227602383
 30
0.0
 10
594.9127701830292
 20
468.3507379006535
 30
0.0
 10
594.8502920392287
 20
468.4159664594205
 30
0.0
  0
SPLINE
  5
8B
330
1F
100
AcDbEntity
  8
0
  6
Continuous
 62
     7
370
    30
100
AcDbSpline
210
0.0
220
0.0
230
1.0
 70
     8
 71
     3
 72
    54
 73
    50
 74
     0
 42
0.000000001
 43
0.00000001
 40
0.0
 40
0.0
 40
0.0
 40
0.0
 40
0.006666998418903
 40
0.0289962025663215
 40
0.0513436191850815
 40
0.0736728285267037
 40
0.0953776224951255
 40
0.1170991343522647
 40
0.1388039330574892
 40
0.1611395954422024
 40
0.1834934726655441
 40
0.2058291398728284
 40
0.227536069539472
 40
0.249259710287741
 40
0.270966643337263
 40
0.2933042283601733
 40
0.3156600222004188
 40
0.3379976095578263
 40
0.3597015131847104
 40
0.3814221141151303
 40
0.4031260182895379
 40
0.42546014864001
 40
0.4478124760496264
 40
0.4701466052257885
 40
0.4918436505864437
 40
0.513557378551495
 40
0.5352544213905143
 40
0.557581237397779
 40
0.5799262381285546
 40
0.6022530499725999
 40
0.6239424113068206
 40
0.6456484460556524
 40
0.6673378029076551
 40
0.689656650887702
 40
0.7119936760742588
 40
0.7343125187279336
 40
0.7559967348973755
 40
0.7776976248123679
 40
0.7993818365007131
 40
0.8216955514414346
 40
0.8440274441744334
 40
0.8663411549566656
 40
0.8880250179349563
 40
0.9097255643707769
 40
0.9314094248304968
 40
0.953723089719156
 40
0.9760549408382104
 40
0.9983686045577539
 40
1.0
 40
1.0
 40
1.0
 40
1.0
 10
564.9749268312552
 20
469.5791952892252
 30
0.0
 10
564.9492093562686
 20
469.5711004786862
 30
0.0
 10
564.837358555151
 20
469.5358944157211
 30
0.0
 10
564.6442538077722
 20
469.4589638764426
 30
0.0
 10
564.3969096037539
 20
469.3482722221748
 30
0.0
 10
564.158888184429
 20
469.2238350663178
 30
0.0
 10
563.9303702322529
 20
469.0877137870113
 30
0.0
 10
563.7118499509841
 20
468.9405169904332
 30
0.0
 10
563.4997579562721
 20
468.7799526023845
 30
0.0
 10
563.2951370183966
 20
468.6059841997534
 30
0.0
 10
563.0988959846283
 20
468.4189111718266
 30
0.0
 10
562.9153464066392
 20
468.2228417559186
 30
0.0
 10
562.7448237056901
 20
468.0186721791438
 30
0.0
 10
562.5873653771613
 20
467.8074357779302
 30
0.0
 10
562.4404109821692
 20
467.5856980095326
 30
0.0
 10
562.3049404856353
 20
467.3537900467356
 30
0.0
 10
562.1817166428234
 20
467.1122892428716
 30
0.0
 10
562.0734539212767
 20
466.8665179884953
 30
0.0
 10
561.9801690451364
 20
466.6174338203186
 30
0.0
 10
561.901551987603
 20
466.3660249035166
 30
0.0
 10
561.8363178089289
 20
466.1081850462296
 30
0.0
 10
561.7852813373706
 20
465.844550501299
 30
0.0
 10
561.748971326149
 20
465.5759179034481
 30
0.0
 10
561.7281882532344
 20
465.3082195687703
 30
0.0
 10
561.722628756156
 20
465.0423643680013
 30
0.0
 10
561.7316712830414
 20
464.7791816335346
 30
0.0
 10
561.7554628554003
 20
464.514358685309
 30
0.0
 10
561.7945617927003
 20
464.2487649295786
 30
0.0
 10
561.8492036184016
 20
463.9833265474714
 30
0.0
 10
561.9181804763506
 20
463.7239060087124
 30
0.0
 10
562.0009055944442
 20
463.4712602735504
 30
0.0
 10
562.096518299406
 20
463.2259660621507
 30
0.0
 10
562.206585298215
 20
462.9840014146234
 30
0.0
 10
562.3313458718409
 20
462.7463711888633
 30
0.0
 10
562.4707159000898
 20
462.5140270605119
 30
0.0
 10
562.6216224747764
 20
462.2920914333558
 30
0.0
 10
562.7832635377217
 20
462.0810857034423
 30
0.0
 10
562.9546377942817
 20
461.8812707678547
 30
0.0
 10
563.1385479861714
 20
461.6893783463699
 30
0.0
 10
563.3348872808579
 20
461.5064357835053
 30
0.0
 10
563.5432613513897
 20
461.3333140108097
 30
0.0
 10
563.7590896105808
 20
461.1738161942656
 30
0.0
 10
563.9814473466781
 20
461.0281820463531
 30
0.0
 10
564.2092952280777
 20
460.8962922397224
 30
0.0
 10
564.4463799775584
 20
460.7761389241575
 30
0.0
 10
564.6921242993233
 20
460.6681261340112
 30
0.0
 10
564.946381979175
 20
460.5749517730058
 30
0.0
 10
565.1244819354821
 20
460.5165358883907
 30
0.0
 10
565.2185199485302
 20
460.4934258326094
 30
0.0
 10
565.224926831255
 20
460.4918513265947
 30
0.0
  0
ARC
  5
8C
330
1F
100
AcDbEntity
  8
0
  6
Continuous
 62
     7
370
    30
100
AcDbCircle
 10
578.9749268312
 20
514.9738997765
 30
0.0
 40
14.10000000000002
100
AcDbArc
 50
90.0
 51
186.8278674816
  0
ARC
  5
8D
330
1F
100
AcDbEntity
  8
0
  6
Continuous
 62
     7
370
    30
100
AcDbCircle
 10
578.9749268312
 20
514.9738997765
 30
0.0
 40
14.10000000000002
100
AcDbArc
 50
353.1721325186
 51
90.0
  0
SPLINE
  5
8E
330
1F
100
AcDbEntity
  8
0
  6
Continuous
 62
     7
370
    30
100
AcDbSpline
210
0.0
220
0.0
230
1.0
 70
     8
 71
     3
 72
    21
 73
    17
 74
     0
 42
0.000000001
 43
0.00000001
 40
0.0
 40
0.0
 40
0.0
 40
0.0
 40
0.0737534642358895
 40
0.1477420268318878
 40
0.2214952827863015
 40
0.2952480559295249
 40
0.3692360739345959
 40
0.4429893081949771
 40
0.5167640832959774
 40
0.5907736140099079
 40
0.6645491677734642
 40
0.7384567533046281
 40
0.812599323126756
 40
0.8865075761154266
 40
0.9432537679759723
 40
1.0
 40
1.0
 40
1.0
 40
1.0
 10
584.8935723512595
 20
430.2074910125746
 30
0.0
 10
584.8903797267412
 20
430.2082449919491
 30
0.0
 10
584.8839843008161
 20
430.2097553541014
 30
0.0
 10
584.8586715426736
 20
430.2108694970264
 30
0.0
 10
584.8223052954797
 20
430.2111417035203
 30
0.0
 10
584.7737532954795
 20
430.2104634750368
 30
0.0
 10
584.7143692145072
 20
430.2089220342999
 30
0.0
 10
584.6447798982578
 20
430.2065506966538
 30
0.0
 10
584.5655516479185
 20
430.203376648821
 30
0.0
 10
584.4780223776131
 20
430.1994936512338
 30
0.0
 10
584.3832001571475
 20
430.1949691386998
 30
0.0
 10
584.2820506795669
 20
430.1898641091099
 30
0.0
 10
584.1760708404315
 20
430.1842809657224
 30
0.0
 10
584.0750398287154
 20
430.1787620407283
 30
0.0
 10
583.9809983612699
 20
430.1734889907286
 30
0.0
 10
583.9236280047328
 20
430.170181196519
 30
0.0
 10
583.8949428163128
 20
430.1685272988288
 30
0.0
  0
ARC
  5
8F
330
1F
100
AcDbEntity
  8
0
  6
Continuous
 62
     7
370
    30
100
AcDbCircle
 10
578.9749268312
 20
514.9738997766
 30
0.0
 40
84.9479708904482
100
AcDbArc
 50
266.6796853455
 51
273.3203146545
  0
SPLINE
  5
90
330
1F
100
AcDbEntity
  8
0
  6
Continuous
 62
     7
370
    30
100
AcDbSpline
210
0.0
220
0.0
230
1.0
 70
     8
 71
     3
 72
    21
 73
    17
 74
     0
 42
0.000000001
 43
0.00000001
 40
0.0
 40
0.0
 40
0.0
 40
0.0
 40
0.0737534642337071
 40
0.147742026824461
 40
0.2214952827705946
 40
0.2952480559145557
 40
0.3692360739203631
 40
0.4429893081814822
 40
0.5167640832838606
 40
0.590773613999173
 40
0.6645491677641072
 40
0.7384567532966525
 40
0.8125993231201645
 40
0.8865075761102155
 40
0.9432537679733665
 40
1.0
 40
1.0
 40
1.0
 40
1.0
 10
573.0562813114149
 20
430.2074910127374
 30
0.0
 10
573.059473935922
 20
430.2082449921016
 30
0.0
 10
573.065869361825
 20
430.2097553542331
 30
0.0
 10
573.091182119862
 20
430.210869497059
 30
0.0
 10
573.127548367013
 20
430.2111417035115
 30
0.0
 10
573.1761003670213
 20
430.2104634750392
 30
0.0
 10
573.2354844479897
 20
430.2089220342993
 30
0.0
 10
573.3050737642392
 20
430.2065506966541
 30
0.0
 10
573.3843020145778
 20
430.2033766488211
 30
0.0
 10
573.4718312848829
 20
430.1994936512339
 30
0.0
 10
573.5666535053481
 20
430.1949691387001
 30
0.0
 10
573.6678029829286
 20
430.1898641091101
 30
0.0
 10
573.7737828220637
 20
430.1842809657226
 30
0.0
 10
573.8748138337804
 20
430.1787620407285
 30
0.0
 10
573.9688553012274
 20
430.1734889907287
 30
0.0
 10
574.0262256577662
 20
430.170181196519
 30
0.0
 10
574.0549108461869
 20
430.1685272988288
 30
0.0
  0
LINE
  5
91
330
1F
100
AcDbEntity
  8
0
  6
Continuous
 62
     7
370
    30
100
AcDbLine
 10
573.0018245926
 20
430.1840298059
 30
0.0
 11
573.0562811321
 21
430.2074909268
 31
0.0
  0
LWPOLYLINE
  5
92
330
1F
100
AcDbEntity
  8
0
  6
Continuous
 62
     7
370
    30
100
AcDbPolyline
 90
        9
 70
   128
 43
0.0
 10
584.9480370037
 20
430.1840303648
 10
584.9412289207
 20
430.1869616939
 10
584.934420838
 20
430.1898933807
 10
584.9276127558
 20
430.1928254252
 10
584.920804674
 20
430.1957578275
 10
584.9139965927
 20
430.1986905874
 10
584.9071885117
 20
430.2016237051
 10
584.9003804312
 20
430.2045571805
 10
584.8935723511
 20
430.2074910126
  0
LINE
  5
93
330
1F
100
AcDbEntity
  8
0
  6
Continuous
 62
     7
370
    30
100
AcDbLine
 10
584.9487233378
 20
430.1845389679
 30
0.0
 11
584.9480370037
 21
430.1840303648
 31
0.0
  0
LINE
  5
94
330
1F
100
AcDbEntity
  8
0
  6
Continuous
 62
     7
370
    30
100
AcDbLine
 10
573.0018166798
 20
430.1840303738
 30
0.0
 11
573.0011289361
 21
430.1848302802
 31
0.0
  0
ARC
  5
95
330
1F
100
AcDbEntity
  8
0
  6
Continuous
 62
     7
370
    30
100
AcDbCircle
 10
566.4898718511
 20
465.0078333248
 30
0.0
 40
4.531703057184003
100
AcDbArc
 50
109.5299325026
 51
253.7915712563
  0
ARC
  5
96
330
1F
100
AcDbEntity
  8
0
  6
Continuous
 62
     7
370
    30
100
AcDbCircle
 10
591.4976680261
 20
465.0078333423
 30
0.0
 40
4.531734091928745
100
AcDbArc
 50
285.7127335568
 51
70.9749862622
  0
SPLINE
  5
97
330
1F
100
AcDbEntity
  8
0
  6
Continuous
 62
     7
370
    30
100
AcDbSpline
210
0.0
220
0.0
230
1.0
 70
     8
 71
     3
 72
    12
 73
     8
 74
     0
 42
0.000000001
 43
0.00000001
 40
0.0
 40
0.0
 40
0.0
 40
0.0
 40
0.018211572858074
 40
0.2397578111879032
 40
0.5215234806150543
 40
0.8634618493030266
 40
1.0
 40
1.0
 40
1.0
 40
1.0
 10
593.4620143855647
 20
460.9237324362117
 30
0.0
 10
593.4680324990281
 20
460.9263641325503
 30
0.0
 10
593.5472617738815
 20
460.961010769541
 30
0.0
 10
593.7149136994894
 20
461.046175736187
 30
0.0
 10
593.9791219752503
 20
461.1966902104368
 30
0.0
 10
594.2097141796075
 20
461.3449576017607
 30
0.0
 10
594.3428943624442
 20
461.4537178201749
 30
0.0
 10
594.3808986847826
 20
461.4847536568148
 30
0.0
  0
SPLINE
  5
98
330
1F
100
AcDbEntity
  8
0
  6
Continuous
 62
     7
370
    30
100
AcDbSpline
210
0.0
220
0.0
230
1.0
 70
     8
 71
     3
 72
    11
 73
     7
 74
     0
 42
0.000000001
 43
0.00000001
 40
0.0
 40
0.0
 40
0.0
 40
0.0
 40
0.1326750053764437
 40
0.4840977651205425
 40
0.7988546134585228
 40
1.0
 40
1.0
 40
1.0
 40
1.0
 10
563.536715015238
 20
461.5405962191092
 30
0.0
 10
563.5760334995605
 20
461.507142391677
 30
0.0
 10
563.7194967715945
 20
461.3850777793654
 30
0.0
 10
563.9804469433702
 20
461.2140939541836
 30
0.0
 10
564.272145695804
 20
461.042730053123
 30
0.0
 10
564.455088635792
 20
460.9583378514404
 30
0.0
 10
564.5264163523456
 20
460.9254341327106
 30
0.0
  0
SPLINE
  5
99
330
1F
100
AcDbEntity
  8
0
  6
Continuous
 62
     7
370
    30
100
AcDbSpline
210
0.0
220
0.0
230
1.0
 70
    24
 71
     3
 72
    51
 73
    47
 74
     0
 42
0.000000001
 43
0.00000001
 40
0.0
 40
0.0
 40
0.0
 40
0.0
 40
0.0244062079501305
 40
0.0487667798683346
 40
0.0731017825780931
 40
0.0974313461707838
 40
0.1127307842462189
 40
0.1280410292920396
 40
0.1433670675798745
 40
0.1589165879754799
 40
0.1751871820346823
 40
0.2041845379251797
 40
0.2331385156286639
 40
0.262083017269465
 40
0.2910519782411963
 40
0.3200792481523577
 40
0.3361393794581691
 40
0.352173510172609
 40
0.3681873150672344
 40
0.3841864905418189
 40
0.4001767486309686
 40
0.4161638109276039
 40
0.44129309952902
 40
0.4664508283015993
 40
0.4916591170536261
 40
0.5167550412629752
 40
0.5417937005400838
 40
0.5667968366521638
 40
0.5917862840861172
 40
0.6167839131984885
 40
0.6418115728972276
 40
0.6668910336036055
 40
0.6919869570053927
 40
0.7170256159225677
 40
0.7420287519443978
 40
0.7670181993783485
 40
0.7920158284010216
 40
0.8170434877408184
 40
0.8421229476408134
 40
0.8666933763983202
 40
0.8912099432618322
 40
0.9156930578458153
 40
0.9401632134686467
 40
0.9646409359973599
 40
0.989146732285045
 40
1.0
 40
1.0
 40
1.0
 40
1.0
 10
584.165240890512
 20
457.4738997765483
 30
0.0
 10
584.2847543864539
 20
457.4738997765483
 30
0.0
 10
584.5235579056159
 20
457.4738997765483
 30
0.0
 10
584.8758270404148
 20
457.4738997765483
 30
0.0
 10
585.2231686927944
 20
457.4738997765483
 30
0.0
 10
585.5228264900134
 20
457.4738997765483
 30
0.0
 10
585.7768823730386
 20
457.4738997765483
 30
0.0
 10
585.9870858592889
 20
457.4738997765483
 30
0.0
 10
586.1961408347222
 20
457.4738997765483
 30
0.0
 10
586.4071224461507
 20
457.4738997765483
 30
0.0
 10
586.6759901366987
 20
457.4738997765483
 30
0.0
 10
586.9982244429592
 20
457.4738997765483
 30
0.0
 10
587.3661181604182
 20
457.4738997765483
 30
0.0
 10
587.7240914635363
 20
457.4738997765483
 30
0.0
 10
588.0721393635033
 20
457.4738997765483
 30
0.0
 10
588.3595780402896
 20
457.4738997765483
 30
0.0
 10
588.5908428565536
 20
457.4738997765483
 30
0.0
 10
588.7694616529947
 20
457.4738997765483
 30
0.0
 10
588.9443730338493
 20
457.4738997765483
 30
0.0
 10
589.1155782114065
 20
457.4738997765483
 30
0.0
 10
589.283077116633
 20
457.4738997765483
 30
0.0
 10
589.4780774403714
 20
457.4738997765483
 30
0.0
 10
589.697758947694
 20
457.4738997765483
 30
0.0
 10
589.9385629640803
 20
457.4738997765483
 30
0.0
 10
590.169639018963
 20
457.4738997765483
 30
0.0
 10
590.3906418927053
 20
457.4738997765483
 30
0.0
 10
590.6011424278234
 20
457.4738997765483
 30
0.0
 10
590.8012334140972
 20
457.4738997765483
 30
0.0
 10
590.9909156967184
 20
457.4738997765483
 30
0.0
 10
591.1701881752435
 20
457.4738997765483
 30
0.0
 10
591.3390517500785
 20
457.4738997765483
 30
0.0
 10
591.4973818835247
 20
457.4738997765483
 30
0.0
 10
591.6449248594527
 20
457.4738997765483
 30
0.0
 10
591.7813283388296
 20
457.4738997765483
 30
0.0
 10
591.9064004965253
 20
457.4738997765483
 30
0.0
 10
592.0201421726667
 20
457.4738997765483
 30
0.0
 10
592.1225526123345
 20
457.4738997765483
 30
0.0
 10
592.2136323765674
 20
457.4738997765483
 30
0.0
 10
592.2927617875673
 20
457.4738997765484
 30
0.0
 10
592.3601251320001
 20
457.4738997765483
 30
0.0
 10
592.4158266786487
 20
457.4738997765483
 30
0.0
 10
592.4601980910618
 20
457.4738997765484
 30
0.0
 10
592.4934616387494
 20
457.4738997765483
 30
0.0
 10
592.5147904210096
 20
457.4738997765483
 30
0.0
 10
592.5249476022905
 20
457.4738997765484
 30
0.0
 10
592.523884590188
 20
457.4738997765483
 30
0.0
 10
592.5235583045451
 20
457.4738997765483
 30
0.0
  0
SPLINE
  5
9A
330
1F
100
AcDbEntity
  8
0
  6
Continuous
 62
     7
370
    30
100
AcDbSpline
210
0.0
220
0.0
230
1.0
 70
    24
 71
     3
 72
    82
 73
    78
 74
     0
 42
0.000000001
 43
0.00000001
 40
0.0
 40
0.0
 40
0.0
 40
0.0
 40
0.00821619924594
 40
0.0185679398472374
 40
0.0289027373824395
 40
0.0392248249644647
 40
0.0495384513562238
 40
0.0598478757818096
 40
0.0701573626732769
 40
0.0823136283781796
 40
0.0944828748424602
 40
0.1066720505898041
 40
0.1181950202471019
 40
0.1345986969836303
 40
0.150980122303174
 40
0.1673563548847915
 40
0.1837444696231884
 40
0.200161504338224
 40
0.2147999683847518
 40
0.2294100984678229
 40
0.2440039189459875
 40
0.258593494503738
 40
0.267767519080389
 40
0.2769476334997739
 40
0.2861368276915624
 40
0.2954600882926764
 40
0.3052171909580336
 40
0.3226062412541638
 40
0.3399692786445737
 40
0.3573266334568745
 40
0.374698655969511
 40
0.3921056450175637
 40
0.4017365379879044
 40
0.4113518389991945
 40
0.4209549510819892
 40
0.4305492902367827
 40
0.4401382818399238
 40
0.4497253569996644
 40
0.4647948159201527
 40
0.4798813297604594
 40
0.4949981632630673
 40
0.5100476143209084
 40
0.5250627249103427
 40
0.5400565330713011
 40
0.5550421324455763
 40
0.5700326381851788
 40
0.585041152579877
 40
0.6000807308527792
 40
0.6151301814278876
 40
0.6301452918025287
 40
0.6451390999098944
 40
0.6601246992841707
 40
0.6751152049694357
 40
0.690123719147779
 40
0.7051632969354358
 40
0.7198976204048134
 40
0.7345996441298024
 40
0.7492816072888229
 40
0.7639557992556182
 40
0.7786345289226131
 40
0.7933300937800088
 40
0.8080547491376717
 40
0.8184064897390155
 40
0.8287412872742513
 40
0.8390633748563014
 40
0.8493770012480731
 40
0.8596864256736624
 40
0.8699959125651231
 40
0.8821521782700055
 40
0.8943214247342526
 40
0.9065106004815519
 40
0.9180314483878994
 40
0.9344330613233722
 40
0.950813668205645
 40
0.9671903229357139
 40
0.983580091751473
 40
1.0
 40
1.0
 40
1.0
 40
1.0
 10
565.4262953579617
 20
457.473899776548
 30
0.0
 10
565.4260756437785
 20
457.473899776548
 30
0.0
 10
565.4255791076536
 20
457.473899776548
 30
0.0
 10
565.4331896850705
 20
457.473899776548
 30
0.0
 10
565.4457058886965
 20
457.473899776548
 30
0.0
 10
565.4640885634989
 20
457.473899776548
 30
0.0
 10
565.487929013701
 20
457.4738997765481
 30
0.0
 10
565.5173366211001
 20
457.473899776548
 30
0.0
 10
565.5543633692007
 20
457.4738997765481
 30
0.0
 10
565.6002353274843
 20
457.473899776548
 30
0.0
 10
565.6562460295712
 20
457.473899776548
 30
0.0
 10
565.7187533568963
 20
457.4738997765481
 30
0.0
 10
565.7966698910774
 20
457.473899776548
 30
0.0
 10
565.8931797325893
 20
457.4738997765481
 30
0.0
 10
566.0138385494644
 20
457.473899776548
 30
0.0
 10
566.1479302199892
 20
457.473899776548
 30
0.0
 10
566.2954525725542
 20
457.4738997765481
 30
0.0
 10
566.4504508144897
 20
457.4738997765481
 30
0.0
 10
566.6109572483701
 20
457.4738997765481
 30
0.0
 10
566.7752194658867
 20
457.4738997765481
 30
0.0
 10
566.94935019283
 20
457.4738997765481
 30
0.0
 10
567.1105578963769
 20
457.4738997765481
 30
0.0
 10
567.2549891744129
 20
457.4738997765481
 30
0.0
 10
567.3795617495181
 20
457.4738997765481
 30
0.0
 10
567.5085990023495
 20
457.4738997765481
 30
0.0
 10
567.6441692341886
 20
457.4738997765481
 30
0.0
 10
567.8240820377381
 20
457.4738997765481
 30
0.0
 10
568.0523252833358
 20
457.4738997765481
 30
0.0
 10
568.3322807663953
 20
457.4738997765481
 30
0.0
 10
568.6245806022621
 20
457.4738997765481
 30
0.0
 10
568.9292185455566
 20
457.4738997765481
 30
0.0
 10
569.1986880434608
 20
457.4738997765481
 30
0.0
 10
569.4272186512926
 20
457.4738997765481
 30
0.0
 10
569.6104804732539
 20
457.4738997765481
 30
0.0
 10
569.7968387182476
 20
457.4738997765481
 30
0.0
 10
569.9862931706726
 20
457.4738997765481
 30
0.0
 10
570.1788443402003
 20
457.4738997765481
 30
0.0
 10
570.4117686789342
 20
457.4738997765481
 30
0.0
 10
570.6875408062363
 20
457.4738997765481
 30
0.0
 10
571.0089728787109
 20
457.4738997765481
 30
0.0
 10
571.3372516527107
 20
457.4738997765481
 30
0.0
 10
571.6716341896707
 20
457.4738997765481
 30
0.0
 10
572.0114436593063
 20
457.4738997765481
 30
0.0
 10
572.356830738097
 20
457.4738997765481
 30
0.0
 10
572.707793953182
 20
457.4738997765481
 30
0.0
 10
573.0643327962581
 20
457.4738997765481
 30
0.0
 10
573.4264459787628
 20
457.4738997765481
 30
0.0
 10
573.793855748934
 20
457.4738997765481
 30
0.0
 10
574.1657914742854
 20
457.4738997765481
 30
0.0
 10
574.5415241087495
 20
457.4738997765481
 30
0.0
 10
574.9205829397234
 20
457.4738997765482
 30
0.0
 10
575.3029667365645
 20
457.4738997765481
 30
0.0
 10
575.6886747786044
 20
457.4738997765481
 30
0.0
 10
576.0777059420708
 20
457.4738997765481
 30
0.0
 10
576.4670234749468
 20
457.4738997765482
 30
0.0
 10
576.8557857211548
 20
457.4738997765482
 30
0.0
 10
577.2431874003923
 20
457.4738997765481
 30
0.0
 10
577.6315073852312
 20
457.4738997765482
 30
0.0
 10
578.0207447804302
 20
457.4738997765482
 30
0.0
 10
578.410899087693
 20
457.4738997765482
 30
0.0
 10
578.8019682853437
 20
457.4738997765482
 30
0.0
 10
579.1547965400936
 20
457.4738997765482
 30
0.0
 10
579.468805627123
 20
457.4738997765482
 30
0.0
 10
579.7435749970268
 20
457.4738997765482
 30
0.0
 10
580.0176913196269
 20
457.4738997765482
 30
0.0
 10
580.2911550474286
 20
457.4738997765482
 30
0.0
 10
580.5639661245729
 20
457.4738997765482
 30
0.0
 10
580.8523340429066
 20
457.4738997765482
 30
0.0
 10
581.1561334095809
 20
457.4738997765482
 30
0.0
 10
581.4751700930275
 20
457.4738997765483
 30
0.0
 10
581.7872527796968
 20
457.4738997765482
 30
0.0
 10
582.1344375142207
 20
457.4738997765482
 30
0.0
 10
582.5154414223747
 20
457.4738997765483
 30
0.0
 10
582.9345551929943
 20
457.4738997765483
 30
0.0
 10
583.3493525661776
 20
457.4738997765483
 30
0.0
 10
583.7603168099084
 20
457.4738997765483
 30
0.0
 10
584.0301835625072
 20
457.4738997765483
 30
0.0
 10
584.165240890512
 20
457.4738997765483
 30
0.0
  0
LINE
  5
9B
330
1F
100
AcDbEntity
  8
0
  6
Continuous
 62
   252
370
     0
100
AcDbLine
 10
578.9749268313
 20
465.3738997765
 30
0.0
 11
592.9749268313
 21
465.3738997765
 31
0.0
  0
LINE
  5
9C
330
1F
100
AcDbEntity
  8
0
  6
Continuous
 62
   252
370
     0
100
AcDbLine
 10
564.9749268313
 20
465.3738997765
 30
0.0
 11
578.9749268313
 21
465.3738997765
 31
0.0
  0
LINE
  5
9D
330
1F
100
AcDbEntity
  8
0
  6
Continuous
 62
   252
370
     0
100
AcDbLine
 10
578.9749268313
 20
473.9738997765
 30
0.0
 11
592.9749268313
 21
473.9738997765
 31
0.0
  0
LINE
  5
9E
330
1F
100
AcDbEntity
  8
0
  6
Continuous
 62
   252
370
     0
100
AcDbLine
 10
564.9749268313
 20
473.9738997765
 30
0.0
 11
578.9749268313
 21
473.9738997765
 31
0.0
  0
CIRCLE
  5
9F
330
1F
100
AcDbEntity
  8
0
  6
Continuous
 62
   252
370
     0
100
AcDbCircle
 10
578.9749268312
 20
514.9738997578
 30
0.0
 40
82.83353549886692
  0
CIRCLE
  5
A0
330
1F
100
AcDbEntity
  8
0
  6
Continuous
 62
   252
370
     0
100
AcDbCircle
 10
578.9749268312
 20
514.9738997765
 30
0.0
 40
84.74528827196946
  0
ARC
  5
A1
330
1F
100
AcDbEntity
  8
0
  6
Continuous
 62
   252
370
     0
100
AcDbCircle
 10
578.9749268312
 20
514.9738997765
 30
0.0
 40
84.9999999999999
100
AcDbArc
 50
274.0296035017
 51
265.9703990555
  0
SPLINE
  5
A2
330
1F
100
AcDbEntity
  8
0
  6
Continuous
 62
   252
370
     0
100
AcDbSpline
210
0.0
220
0.0
230
1.0
 70
     8
 71
     3
 72
    20
 73
    16
 74
     0
 42
0.000000001
 43
0.00000001
 40
0.0
 40
0.0
 40
0.0
 40
0.0
 40
0.0559013122330173
 40
0.153188455814792
 40
0.2404670809742232
 40
0.3200666613700938
 40
0.3919971049069972
 40
0.4562683868439755
 40
0.5128910942305461
 40
0.6323868229064152
 40
0.7521153016962028
 40
0.871457571844908
 40
0.9222276096313028
 40
0.9732490908488479
 40
1.0
 40
1.0
 40
1.0
 40
1.0
 10
594.3808986847826
 20
461.4847536568148
 30
0.0
 10
594.4563843571872
 20
461.5431773590496
 30
0.0
 10
594.663240567353
 20
461.7032780144872
 30
0.0
 10
594.954254603912
 20
461.9939372983465
 30
0.0
 10
595.2444803880176
 20
462.3387958978524
 30
0.0
 10
595.4764505464885
 20
462.6743468915658
 30
0.0
 10
595.660567198465
 20
462.9937296866916
 30
0.0
 10
595.8034407700706
 20
463.2908195941666
 30
0.0
 10
595.9568589971184
 20
463.6724029516317
 30
0.0
 10
596.100434762803
 20
464.160297433152
 30
0.0
 10
596.1958276619714
 20
464.7702346366395
 30
0.0
 10
596.2086237949018
 20
465.2701792234327
 30
0.0
 10
596.1820440856222
 20
465.649805984278
 30
0.0
 10
596.1566131577518
 20
465.8697949884652
 30
0.0
 10
596.1317027006688
 20
466.0013346220385
 30
0.0
 10
596.1231343980724
 20
466.0465795318428
 30
0.0
  0
SPLINE
  5
A3
330
1F
100
AcDbEntity
  8
0
  6
Continuous
 62
   252
370
     0
100
AcDbSpline
210
0.0
220
0.0
230
1.0
 70
     8
 71
     3
 72
    13
 73
     9
 74
     0
 42
0.000000001
 43
0.00000001
 40
0.0
 40
0.0
 40
0.0
 40
0.0
 40
0.1174251253482087
 40
0.2622316137223555
 40
0.4344401328509351
 40
0.6340724830406905
 40
0.8611527646635464
 40
1.0
 40
1.0
 40
1.0
 40
1.0
 10
562.222950351587
 20
463.2134338426
 30
0.0
 10
562.2595621503862
 20
463.1376739986564
 30
0.0
 10
562.341322940949
 20
462.9684885191963
 30
0.0
 10
562.497243378062
 20
462.6992136766121
 30
0.0
 10
562.7038029954724
 20
462.3923015078355
 30
0.0
 10
562.974159081624
 20
462.059651684775
 30
0.0
 10
563.2551034383872
 20
461.7670812754816
 30
0.0
 10
563.4592527635967
 20
461.6028949449851
 30
0.0
 10
563.536715015238
 20
461.5405962191092
 30
0.0
  0
SPLINE
  5
A4
330
1F
100
AcDbEntity
  8
0
  6
Continuous
 62
   252
370
     0
100
AcDbSpline
210
0.0
220
0.0
230
1.0
 70
     8
 71
     3
 72
    16
 73
    12
 74
     0
 42
0.000000001
 43
0.00000001
 40
0.0
 40
0.0
 40
0.0
 40
0.0
 40
0.0459698592301281
 40
0.11558097319825
 40
0.2603849122771277
 40
0.4060611000046151
 40
0.5527290831706052
 40
0.663487834166885
 40
0.7749204122666663
 40
0.8870752254164311
 40
1.0
 40
1.0
 40
1.0
 40
1.0
 10
562.2651208449332
 20
467.2700917592331
 30
0.0
 10
562.2367812306024
 20
467.2124013773788
 30
0.0
 10
562.1655275818142
 20
467.0673517602912
 30
0.0
 10
562.0329590418899
 20
466.7277142723253
 30
0.0
 10
561.8889549952825
 20
466.2433866825485
 30
0.0
 10
561.7931089032211
 20
465.6371063922061
 30
0.0
 10
561.7771603889688
 20
465.0717041221499
 30
0.0
 10
561.8214393796521
 20
464.5571720155422
 30
0.0
 10
561.9079908126333
 20
464.0979189160283
 30
0.0
 10
562.0373632686461
 20
463.6457736131638
 30
0.0
 10
562.1609470704368
 20
463.3578753841227
 30
0.0
 10
562.222950351587
 20
463.2134338426
 30
0.0
  0
LINE
  5
A5
330
1F
100
AcDbEntity
  8
0
  6
Continuous
 62
   252
370
     0
100
AcDbLine
 10
592.7249268313
 20
464.7738997765
 30
0.0
 11
565.2249268313
 21
464.7738997765
 31
0.0
  0
LINE
  5
A6
330
1F
100
AcDbEntity
  8
0
  6
Continuous
 62
   252
370
     0
100
AcDbLine
 10
584.2418506921
 20
457.6738997765
 30
0.0
 11
592.7249268313
 21
457.6738997765
 31
0.0
  0
LINE
  5
A7
330
1F
100
AcDbEntity
  8
0
  6
Continuous
 62
   252
370
     0
100
AcDbLine
 10
565.2249268313
 20
457.6738997765
 30
0.0
 11
584.2418506921
 21
457.6738997765
 31
0.0
  0
ARC
  5
A8
330
1F
100
AcDbEntity
  8
0
  6
Continuous
 62
     7
370
    30
100
AcDbCircle
 10
980.3751400318
 20
465.3738997765
 30
0.0
 40
0.3999999999999204
100
AcDbArc
 50
180.0
 51
270.0
  0
ARC
  5
A9
330
1F
100
AcDbEntity
  8
0
  6
Continuous
 62
     7
370
    30
100
AcDbCircle
 10
1007.5751400318
 20
465.3738997765
 30
0.0
 40
0.4000000000002046
100
AcDbArc
 50
270.0
 51
0.0
  0
LINE
  5
AA
330
1F
100
AcDbEntity
  8
0
  6
Continuous
 62
     7
370
    30
100
AcDbLine
 10
779.0746943359
 20
500.9738997765
 30
0.0
 11
952.9751400318
 21
500.9738997765
 31
0.0
  0
LINE
  5
AB
330
1F
100
AcDbEntity
  8
0
  6
Continuous
 62
     7
370
    30
100
AcDbLine
 10
762.3538087894
 20
500.9738997765
 30
0.0
 11
773.4757779391
 21
500.9738997765
 31
0.0
  0
LINE
  5
AC
330
1F
100
AcDbEntity
  8
0
  6
Continuous
 62
     7
370
    30
100
AcDbLine
 10
952.9751400318
 20
528.9738997765
 30
0.0
 11
762.3538087894
 21
528.9738997765
 31
0.0
  0
ARC
  5
AD
330
1F
100
AcDbEntity
  8
0
  6
Continuous
 62
     7
370
    30
100
AcDbCircle
 10
952.9751400318
 20
473.9738997765
 30
0.0
 40
55.00000000000011
100
AcDbArc
 50
0.0
 51
90.0
  0
ARC
  5
AE
330
1F
100
AcDbEntity
  8
0
  6
Continuous
 62
     7
370
    30
100
AcDbCircle
 10
952.9751400318
 20
473.9738997765
 30
0.0
 40
27.00000000000011
100
AcDbArc
 50
0.0
 51
90.0
  0
LINE
  5
AF
330
1F
100
AcDbEntity
  8
0
  6
Continuous
 62
     7
370
    30
100
AcDbLine
 10
1007.9751400318
 20
465.3738997765
 30
0.0
 11
1007.9751400318
 21
473.9738997765
 31
0.0
  0
LINE
  5
B0
330
1F
100
AcDbEntity
  8
0
  6
Continuous
 62
     7
370
    30
100
AcDbLine
 10
979.9751400318
 20
473.9738997765
 30
0.0
 11
979.9751400318
 21
465.3738997765
 31
0.0
  0
ARC
  5
B1
330
1F
100
AcDbEntity
  8
0
  6
Continuous
 62
     7
370
    30
100
AcDbCircle
 10
748.9063491195
 20
599.474071114
 30
0.0
 40
0.5000000000001841
100
AcDbArc
 50
88.5
 51
180.0
  0
LINE
  5
B2
330
1F
100
AcDbEntity
  8
0
  6
Continuous
 62
     7
370
    30
100
AcDbLine
 10
750.9063491195
 20
430.0259288863
 30
0.0
 11
758.6464860506
 21
430.2286115046
 31
0.0
  0
LINE
  5
B3
330
1F
100
AcDbEntity
  8
0
  6
Continuous
 62
     7
370
    30
100
AcDbLine
 10
758.6464860506
 20
599.7191880485
 30
0.0
 11
748.9194375937
 21
599.9738997762
 31
0.0
  0
ARC
  5
B4
330
1F
100
AcDbEntity
  8
0
  6
Continuous
 62
     7
370
    30
100
AcDbCircle
 10
758.5941321539
 20
432.2279261358
 30
0.0
 40
2.000000000000043
100
AcDbArc
 50
271.499999986
 51
357.4907349552
  0
ARC
  5
B5
330
1F
100
AcDbEntity
  8
0
  6
Continuous
 62
     7
370
    30
100
AcDbCircle
 10
758.5941321539
 20
597.7198733798
 30
0.0
 40
1.999999999999983
100
AcDbArc
 50
2.5092650448
 51
88.500000014
  0
ARC
  5
B6
330
1F
100
AcDbEntity
  8
0
  6
Continuous
 62
     7
370
    30
100
AcDbCircle
 10
-1129.5936508405
 20
514.9738997578
 30
0.0
 40
1892.0
100
AcDbArc
 50
357.4907349552
 51
358.3968860336
  0
ARC
  5
B7
330
1F
100
AcDbEntity
  8
0
  6
Continuous
 62
     7
370
    30
100
AcDbCircle
 10
-1129.5936508405
 20
514.9738997578
 30
0.0
 40
1892.0
100
AcDbArc
 50
358.6240295152
 51
359.5730031877
  0
ARC
  5
B8
330
1F
100
AcDbEntity
  8
0
  6
Continuous
 62
     7
370
    30
100
AcDbCircle
 10
-1129.5936508405
 20
514.9738997578
 30
0.0
 40
1892.00000000007
100
AcDbArc
 50
0.4269968128
 51
2.5092650448
  0
LINE
  5
B9
330
1F
100
AcDbEntity
  8
0
  6
Continuous
 62
     7
370
    30
100
AcDbLine
 10
748.4063491195
 20
595.9738997765
 30
0.0
 11
748.0563491195
 21
595.9738997765
 31
0.0
  0
LINE
  5
BA
330
1F
100
AcDbEntity
  8
0
  6
Continuous
 62
     7
370
    30
100
AcDbLine
 10
761.8744320666
 20
469.5404776761
 30
0.0
 11
761.8083177777
 21
469.545332806
 31
0.0
  0
SPLINE
  5
BB
330
1F
100
AcDbEntity
  8
0
  6
Continuous
 62
     7
370
    30
100
AcDbSpline
210
0.0
220
0.0
230
1.0
 70
     8
 71
     3
 72
    47
 73
    43
 74
     0
 42
0.000000001
 43
0.00000001
 40
0.0
 40
0.0
 40
0.0
 40
0.0
 40
0.019782653578399
 40
0.0375161842797556
 40
0.0541192289826428
 40
0.0705059056089419
 40
0.0872931699684832
 40
0.1044442743020223
 40
0.1456066451608034
 40
0.1871230396045495
 40
0.2370380071455556
 40
0.2876861018955005
 40
0.3393322045149822
 40
0.3923426876596222
 40
0.4472722699941662
 40
0.5047314825088539
 40
0.5319922162176938
 40
0.5579427949962242
 40
0.5816757811158291
 40
0.603821010560194
 40
0.6255956831431391
 40
0.6459389580462211
 40
0.6676561292889145
 40
0.6914324022119941
 40
0.7178188681892721
 40
0.7304158685723036
 40
0.7433592366180367
 40
0.7565643609774776
 40
0.7699464892696184
 40
0.7834207652944541
 40
0.797036899775236
 40
0.8121251168566838
 40
0.8226181925959377
 40
0.8347800819055701
 40
0.8490404609566227
 40
0.8658289807795145
 40
0.8855752211807552
 40
0.9034448478662116
 40
0.9236138681150495
 40
0.9462905617235521
 40
0.9716831901154784
 40
1.0
 40
1.0
 40
1.0
 40
1.0
 10
762.2600706154528
 20
464.9863836009096
 30
0.0
 10
762.2609526556996
 20
465.0166037150574
 30
0.0
 10
762.2626253728764
 20
465.0739136895172
 30
0.0
 10
762.2631760229951
 20
465.1566242691242
 30
0.0
 10
762.2624178845706
 20
465.2341389417414
 30
0.0
 10
762.2606809835612
 20
465.3101903443468
 30
0.0
 10
762.2583785691453
 20
465.3870640120067
 30
0.0
 10
762.2540038062859
 20
465.5017515958745
 30
0.0
 10
762.2459371134609
 20
465.6541138949208
 30
0.0
 10
762.2303816856963
 20
465.8561667679932
 30
0.0
 10
762.2080453230097
 20
466.0721722245515
 30
0.0
 10
762.1778647357604
 20
466.3028397451624
 30
0.0
 10
762.1415922157279
 20
466.5374067846018
 30
0.0
 10
762.1001467789919
 20
466.7777512696493
 30
0.0
 10
762.0537865049655
 20
467.0262326965636
 30
0.0
 10
762.0137645673688
 20
467.235860581986
 30
0.0
 10
761.982676784307
 20
467.4021076010894
 30
0.0
 10
761.9615044946574
 20
467.5177737123943
 30
0.0
 10
761.9424616251391
 20
467.6258804188444
 30
0.0
 10
761.925546648765
 20
467.7278778226342
 30
0.0
 10
761.9106526911647
 20
467.8249519414999
 30
0.0
 10
761.8969754271324
 20
467.9215455240009
 30
0.0
 10
761.8847659218114
 20
468.0214226761353
 30
0.0
 10
761.874043465925
 20
468.1307581409412
 30
0.0
 10
761.867152573022
 20
468.2264301559933
 30
0.0
 10
761.862548784545
 20
468.3056521895356
 30
0.0
 10
761.8595810417868
 20
468.3647899007069
 30
0.0
 10
761.8569866528142
 20
468.4251458803938
 30
0.0
 10
761.8547596614719
 20
468.4863284799007
 30
0.0
 10
761.8529063207244
 20
468.5481516750895
 30
0.0
 10
761.8513137197174
 20
468.6125907784134
 30
0.0
 10
761.8506114374146
 20
468.6724911641427
 30
0.0
 10
761.85064528161
 20
468.7301715530553
 30
0.0
 10
761.8511498982497
 20
468.7865844685255
 30
0.0
 10
761.8522186070871
 20
468.852611666081
 30
0.0
 10
761.8539325613596
 20
468.9302189956841
 30
0.0
 10
761.8561608778938
 20
469.013330980694
 30
0.0
 10
761.8588182638633
 20
469.1015988161957
 30
0.0
 10
761.8618380796087
 20
469.1943358441326
 30
0.0
 10
761.8654467011046
 20
469.2985563049156
 30
0.0
 10
761.8696755449467
 20
469.4152141831918
 30
0.0
 10
761.8727900371308
 20
469.4972346582721
 30
0.0
 10
761.8744320666492
 20
469.540477676148
 30
0.0
  0
SPLINE
  5
BC
330
1F
100
AcDbEntity
  8
0
  6
Continuous
 62
     7
370
    30
100
AcDbSpline
210
0.0
220
0.0
230
1.0
 70
     8
 71
     3
 72
    34
 73
    30
 74
     0
 42
0.000000001
 43
0.00000001
 40
0.0
 40
0.0
 40
0.0
 40
0.0
 40
0.0175871159986766
 40
0.0393538769505185
 40
0.0605556845547991
 40
0.0809668632258429
 40
0.1003625186470561
 40
0.1330022793496399
 40
0.1626234533428273
 40
0.1902467435970146
 40
0.2228605001437163
 40
0.2564479517905173
 40
0.2933325809246581
 40
0.3334653632705868
 40
0.374609600089821
 40
0.4149226870652108
 40
0.4542069268072118
 40
0.5240619213905875
 40
0.5917885842351651
 40
0.6579932663093181
 40
0.7552923035033623
 40
0.8510043231269256
 40
0.8721878433823059
 40
0.8930471092369872
 40
0.9134462480585591
 40
0.9334491265037639
 40
0.9538749633123385
 40
0.9757241068632452
 40
1.0
 40
1.0
 40
1.0
 40
1.0
 10
761.5862575413646
 20
461.5160018095929
 30
0.0
 10
761.5885295242601
 20
461.536641456319
 30
0.0
 10
761.5936134354205
 20
461.5828258402524
 30
0.0
 10
761.6021793588909
 20
461.6538073153981
 30
0.0
 10
761.6117599851121
 20
461.7280216371013
 30
0.0
 10
761.6217430280233
 20
461.7993580058984
 30
0.0
 10
761.6346215606161
 20
461.8839190993586
 30
0.0
 10
761.6510716320272
 20
461.9789256272082
 30
0.0
 10
761.6718313419042
 20
462.0830067441557
 30
0.0
 10
761.6946897560952
 20
462.1866101253195
 30
0.0
 10
761.7199468509616
 20
462.2944695571267
 30
0.0
 10
761.7493397257778
 20
462.4125786520436
 30
0.0
 10
761.7822041357996
 20
462.5389624970611
 30
0.0
 10
761.8181095567326
 20
462.6737707047516
 30
0.0
 10
761.8554979700809
 20
462.8123717859987
 30
0.0
 10
761.8927837183737
 20
462.9499627466042
 30
0.0
 10
761.9386494480949
 20
463.120348329788
 30
0.0
 10
761.9914202759676
 20
463.3223927059202
 30
0.0
 10
762.0486507435165
 20
463.5561004880369
 30
0.0
 10
762.1082894928307
 20
463.8225295344521
 30
0.0
 10
762.1656200455585
 20
464.1232464566959
 30
0.0
 10
762.2021789423785
 20
464.3735648819255
 30
0.0
 10
762.2217022739015
 20
464.5350292216338
 30
0.0
 10
762.2299738257003
 20
464.6082867309877
 30
0.0
 10
762.2375489815917
 20
464.6802174587238
 30
0.0
 10
762.2445560676633
 20
464.7516925583032
 30
0.0
 10
762.2507458547044
 20
464.8249621248373
 30
0.0
 10
762.2561338779526
 20
464.9033560103673
 30
0.0
 10
762.2587131359551
 20
464.9577537387696
 30
0.0
 10
762.2600706154528
 20
464.9863836009098
 30
0.0
  0
ARC
  5
BD
330
1F
100
AcDbEntity
  8
0
  6
Continuous
 62
     7
370
    30
100
AcDbCircle
 10
1007.5251400318
 20
457.6738997765
 30
0.0
 40
0.1999999999999886
100
AcDbArc
 50
270.0
 51
0.0
  0
ARC
  5
BE
330
1F
100
AcDbEntity
  8
0
  6
Continuous
 62
     7
370
    30
100
AcDbCircle
 10
980.4251400318
 20
457.6738997765
 30
0.0
 40
0.2000000000001592
100
AcDbArc
 50
180.0
 51
270.0
  0
ARC
  5
BF
330
1F
100
AcDbEntity
  8
0
  6
Continuous
 62
     7
370
    30
100
AcDbCircle
 10
980.4251400318
 20
464.7738997765
 30
0.0
 40
0.2000000000000455
100
AcDbArc
 50
90.0
 51
180.0
  0
ARC
  5
C0
330
1F
100
AcDbEntity
  8
0
  6
Continuous
 62
     7
370
    30
100
AcDbCircle
 10
1007.5251400318
 20
464.7738997765
 30
0.0
 40
0.1999999999999886
100
AcDbArc
 50
0.0
 51
90.0
  0
LINE
  5
C1
330
1F
100
AcDbEntity
  8
0
  6
Continuous
 62
     7
370
    30
100
AcDbLine
 10
980.2251400318
 20
464.7738997765
 30
0.0
 11
980.2251400318
 21
457.6738997765
 31
0.0
  0
LINE
  5
C2
330
1F
100
AcDbEntity
  8
0
  6
Continuous
 62
     7
370
    30
100
AcDbLine
 10
1007.7251400318
 20
457.6738997765
 30
0.0
 11
1007.7251400318
 21
464.7738997765
 31
0.0
  0
LINE
  5
C3
330
1F
100
AcDbEntity
  8
0
  6
Continuous
 62
     7
370
    30
100
AcDbLine
 10
980.3751400318
 20
464.9738997765
 30
0.0
 11
1007.5751400318
 21
464.9738997765
 31
0.0
  0
SPLINE
  5
C4
330
1F
100
AcDbEntity
  8
0
  6
Continuous
 62
     7
370
    30
100
AcDbSpline
210
0.0
220
0.0
230
1.0
 70
     8
 71
     3
 72
    62
 73
    58
 74
     0
 42
0.000000001
 43
0.00000001
 40
0.0
 40
0.0
 40
0.0
 40
0.0
 40
0.0029133449329879
 40
0.0197096921991663
 40
0.0349331696034342
 40
0.0501684909188775
 40
0.0653922800285037
 40
0.0810487818108353
 40
0.0967176781769801
 40
0.1123748024577754
 40
0.1355205005370983
 40
0.1586672015123426
 40
0.1823969195086729
 40
0.2061276987327931
 40
0.2227153266210506
 40
0.2393144946185673
 40
0.255902856158215
 40
0.2728971431854598
 40
0.2899028474960654
 40
0.306897724497557
 40
0.3249634414331804
 40
0.3430419937866801
 40
0.3611081950381403
 40
0.3796395583087627
 40
0.3981841384426628
 40
0.4167157967463372
 40
0.435880499445054
 40
0.4550594328301192
 40
0.4742242754894513
 40
0.4939209787634105
 40
0.5136329618339379
 40
0.5333296549672066
 40
0.5529158841628825
 40
0.5725171716900325
 40
0.5921032217555233
 40
0.6122664191068292
 40
0.6324463318787225
 40
0.6526090550227298
 40
0.6720306136952985
 40
0.69146769777533
 40
0.7108885089836261
 40
0.7309291107831163
 40
0.7509879065700863
 40
0.7710271796560804
 40
0.7895193825558108
 40
0.8080272753320934
 40
0.8265181875902198
 40
0.8456572626023257
 40
0.8648156506471018
 40
0.8839530806533679
 40
0.9007796607475165
 40
0.9176207826140733
 40
0.9344465227117487
 40
0.9518553320617256
 40
0.9692814182186563
 40
0.9866897315467477
 40
1.0
 40
1.0
 40
1.0
 40
1.0
 10
773.4757779391219
 20
500.9740081238333
 30
0.0
 10
773.4755822704931
 20
500.9739755419707
 30
0.0
 10
773.4742585108506
 20
500.9737551154508
 30
0.0
 10
773.4798868731478
 20
500.9746898543861
 30
0.0
 10
773.4924773565454
 20
500.9767849765349
 30
0.0
 10
773.5122935649235
 20
500.9800598271803
 30
0.0
 10
773.5390509451234
 20
500.9844444517313
 30
0.0
 10
773.5731511490659
 20
500.9899792946436
 30
0.0
 10
773.6145187253852
 20
500.9966020679126
 30
0.0
 10
773.6703310777444
 20
501.0053941278946
 30
0.0
 10
773.7446166083926
 20
501.016838540405
 30
0.0
 10
773.8421948732345
 20
501.0313658008438
 30
0.0
 10
773.9537529661008
 20
501.0473056136187
 30
0.0
 10
774.0660788831069
 20
501.0625852829585
 30
0.0
 10
774.1736886613348
 20
501.0765172877958
 30
0.0
 10
774.2730475527409
 20
501.0888209575618
 30
0.0
 10
774.378176029163
 20
501.1012138064346
 30
0.0
 10
774.4889101413409
 20
501.113558949834
 30
0.0
 10
774.6049989999625
 20
501.1257216104197
 30
0.0
 10
774.7277327670154
 20
501.1377226717347
 30
0.0
 10
774.8570836065953
 20
501.1493904433205
 30
0.0
 10
774.9928983371943
 20
501.1605559367562
 30
0.0
 10
775.1333634533106
 20
501.1709470456893
 30
0.0
 10
775.278192992775
 20
501.1804005599681
 30
0.0
 10
775.4270229979453
 20
501.1887913936856
 30
0.0
 10
775.5799258158396
 20
501.1960249080824
 30
0.0
 10
775.7365691491251
 20
501.2019409754878
 30
0.0
 10
775.8965362298061
 20
501.2064351372421
 30
0.0
 10
776.0591036970892
 20
501.2094146818834
 30
0.0
 10
776.2238280746993
 20
501.2107619940538
 30
0.0
 10
776.3902039769815
 20
501.2104367893918
 30
0.0
 10
776.5559166850253
 20
501.2084348949593
 30
0.0
 10
776.7204481282348
 20
501.2047624764094
 30
0.0
 10
776.8833051632927
 20
501.1995081768134
 30
0.0
 10
777.0458755754537
 20
501.1926654276605
 30
0.0
 10
777.2075570158834
 20
501.1842430952066
 30
0.0
 10
777.3677237998751
 20
501.1743371286531
 30
0.0
 10
777.5223529975847
 20
501.1633007127231
 30
0.0
 10
777.6710230412253
 20
501.1513159668414
 30
0.0
 10
777.8134441029857
 20
501.1386068592276
 30
0.0
 10
777.952441976056
 20
501.1250470140249
 30
0.0
 10
778.0872604971622
 20
501.1107847611287
 30
0.0
 10
778.2171607986446
 20
501.0960267898795
 30
0.0
 10
778.337005898765
 20
501.0815233557954
 30
0.0
 10
778.446794382705
 20
501.0674961292154
 30
0.0
 10
778.5467774149726
 20
501.0541226403901
 30
0.0
 10
778.6405602614528
 20
501.0410552407023
 30
0.0
 10
778.7272868796738
 20
501.0285180451247
 30
0.0
 10
778.8062177109547
 20
501.016730260325
 30
0.0
 10
778.8730941491995
 20
501.0064562877936
 30
0.0
 10
778.9286747689732
 20
500.9977303563785
 30
0.0
 10
778.9740517276192
 20
500.9904778953883
 30
0.0
 10
779.0118232268488
 20
500.9843492769236
 30
0.0
 10
779.0414119267155
 20
500.9794978213514
 30
0.0
 10
779.0621040131069
 20
500.9760730681029
 30
0.0
 10
779.073549640158
 20
500.9741639894422
 30
0.0
 10
779.0743482853604
 20
500.9740323456956
 30
0.0
 10
779.0746943359079
 20
500.9739753048589
 30
0.0
  0
SPLINE
  5
C5
330
1F
100
AcDbEntity
  8
0
  6
Continuous
 62
     7
370
    30
100
AcDbSpline
210
0.0
220
0.0
230
1.0
 70
     8
 71
     3
 72
    21
 73
    17
 74
     0
 42
0.000000001
 43
0.00000001
 40
0.0
 40
0.0
 40
0.0
 40
0.0
 40
0.1040420714369123
 40
0.1574284165285851
 40
0.2112075999203168
 40
0.3152469216496913
 40
0.3686213877835152
 40
0.4223857375744819
 40
0.5266938747163773
 40
0.5802071020278974
 40
0.6341120092674338
 40
0.7386343098751984
 40
0.792263504043371
 40
0.8462876641739688
 40
0.9225659885221865
 40
0.9999999999999999
 40
0.9999999999999999
 40
0.9999999999999999
 40
0.9999999999999999
 10
748.9194379954228
 20
430.1840303738327
 30
0.0
 10
748.8916566339548
 20
430.1846863860636
 30
0.0
 10
748.84962002622
 20
430.1856790130394
 30
0.0
 10
748.7942582036189
 20
430.1965072697297
 30
0.0
 10
748.740006010742
 20
430.2115844109386
 30
0.0
 10
748.6878576643978
 20
430.2335901507986
 30
0.0
 10
748.639086610015
 20
430.2617895829652
 30
0.0
 10
748.5928251807517
 20
430.2940858893388
 30
0.0
 10
748.5507656812737
 20
430.3321315192717
 30
0.0
 10
748.5139344298792
 20
430.3749916519491
 30
0.0
 10
748.4808412802087
 20
430.420880392017
 30
0.0
 10
748.4536463932327
 20
430.4708191224996
 30
0.0
 10
748.432976881285
 20
430.5235740876839
 30
0.0
 10
748.4191144409754
 20
430.5706823985827
 30
0.0
 10
748.408543782817
 20
430.6253072412593
 30
0.0
 10
748.4070843315947
 20
430.6663428624742
 30
0.0
 10
748.4063491195371
 20
430.6870149363651
 30
0.0
  0
LINE
  5
C6
330
1F
100
AcDbEntity
  8
0
  6
Continuous
 62
     7
370
    30
100
AcDbLine
 10
748.4063491195
 20
430.6870149364
 30
0.0
 11
748.4063491195
 21
599.474071114
 31
0.0
  0
LINE
  5
C7
330
1F
100
AcDbEntity
  8
0
  6
Continuous
 62
     7
370
    30
100
AcDbLine
 10
750.9063491195
 20
430.1685272987
 30
0.0
 11
750.9063491195
 21
430.0259288861
 31
0.0
  0
SPLINE
  5
C8
330
1F
100
AcDbEntity
  8
0
  6
Continuous
 62
     7
370
    30
100
AcDbSpline
210
0.0
220
0.0
230
1.0
 70
     8
 71
     3
 72
    21
 73
    17
 74
     0
 42
0.000000001
 43
0.00000001
 40
0.0
 40
0.0
 40
0.0
 40
0.0
 40
0.0737534642337071
 40
0.147742026824461
 40
0.2214952827705946
 40
0.2952480559145557
 40
0.3692360739203631
 40
0.4429893081814822
 40
0.5167640832838606
 40
0.590773613999173
 40
0.6645491677641072
 40
0.7384567532966525
 40
0.8125993231201645
 40
0.8865075761102155
 40
0.9432537679733665
 40
1.0
 40
1.0
 40
1.0
 40
1.0
 10
749.9586850757695
 20
430.2074910127374
 30
0.0
 10
749.9959130126016
 20
430.2082449921016
 30
0.0
 10
750.070487554953
 20
430.2097553542331
 30
0.0
 10
750.1800656185187
 20
430.210869497059
 30
0.0
 10
750.2863197587761
 20
430.2111417035115
 30
0.0
 10
750.3876674980993
 20
430.2104634750392
 30
0.0
 10
750.4830119227668
 20
430.2089220342993
 30
0.0
 10
750.5712114905309
 20
430.2065506966541
 30
0.0
 10
750.6508487587496
 20
430.2033766488211
 30
0.0
 10
750.721217547357
 20
430.1994936512339
 30
0.0
 10
750.7815131660848
 20
430.1949691387001
 30
0.0
 10
750.8305420070589
 20
430.1898641091101
 30
0.0
 10
750.8681439034231
 20
430.1842809657226
 30
0.0
 10
750.8915786412881
 20
430.1787620407285
 30
0.0
 10
750.904191740515
 20
430.1734889907287
 30
0.0
 10
750.9056299930269
 20
430.170181196519
 30
0.0
 10
750.9063491195374
 20
430.1685272988288
 30
0.0
  0
LINE
  5
C9
330
1F
100
AcDbEntity
  8
0
  6
Continuous
 62
     7
370
    30
100
AcDbLine
 10
748.9194375936
 20
430.1840298059
 30
0.0
 11
749.9586816545
 21
430.2074909268
 31
0.0
  0
SPLINE
  5
CA
330
1F
100
AcDbEntity
  8
0
  6
Continuous
 62
     7
370
    30
100
AcDbSpline
210
0.0
220
0.0
230
1.0
 70
     8
 71
     3
 72
    85
 73
    81
 74
     0
 42
0.000000001
 43
0.00000001
 40
0.0
 40
0.0
 40
0.0
 40
0.0
 40
0.0019176887328628
 40
0.015079040135207
 40
0.0282511200618466
 40
0.041412471430766
 40
0.0542057105931048
 40
0.0670088012532404
 40
0.0798020413162394
 40
0.0929670984389789
 40
0.1061428916320648
 40
0.1193079506936588
 40
0.1321057882543707
 40
0.1449134842387504
 40
0.1577113241652553
 40
0.1708811940571807
 40
0.184061805750578
 40
0.1972316787060691
 40
0.2100332685302281
 40
0.2228447186439801
 40
0.2356463112619276
 40
0.248819990252661
 40
0.2620044124411034
 40
0.275178094276212
 40
0.2879809437452523
 40
0.3007936494890308
 40
0.3135965009533088
 40
0.3267713139251164
 40
0.3399568665432457
 40
0.3531316808919508
 40
0.3659327455884727
 40
0.3787436584333505
 40
0.3915447234528043
 40
0.4047174988425186
 40
0.4179010069435181
 40
0.4310737816406188
 40
0.443870801299381
 40
0.4566776604368772
 40
0.4694746786083667
 40
0.482643139963969
 40
0.4958223267552417
 40
0.5089907856553575
 40
0.5217832732390973
 40
0.5345855948813926
 40
0.5473780798214991
 40
0.5605418415970777
 40
0.5737163243747642
 40
0.5868800830088234
 40
0.5996695359501164
 40
0.6124688231451545
 40
0.6252582734434756
 40
0.638419007728257
 40
0.6515904633606348
 40
0.6647511951927194
 40
0.6775404398202061
 40
0.6903395244296091
 40
0.7031287675716308
 40
0.7162894723354698
 40
0.7294609034237469
 40
0.742621607498036
 40
0.7554135628857346
 40
0.7682153670172052
 40
0.7810073227302452
 40
0.7941710106339935
 40
0.8073454322970426
 40
0.8205091215792738
 40
0.8333055204996039
 40
0.8461117761207474
 40
0.8589081770384336
 40
0.8720765550734273
 40
0.8852556735016478
 40
0.8984240543817145
 40
0.9112246813389578
 40
0.92403516865099
 40
0.9368357984028404
 40
0.9500085169012848
 40
0.9631919787100802
 40
0.9763647002725879
 40
0.9891674845369898
 40
1.0
 40
1.0
 40
1.0
 40
1.0
 10
761.8294587155127
 20
469.5437803125666
 30
0.0
 10
761.8295021724834
 20
469.5485017515201
 30
0.0
 10
761.8298438803919
 20
469.5856270504567
 30
0.0
 10
761.8300893090012
 20
469.6414658322827
 30
0.0
 10
761.8301592319024
 20
469.7097643948148
 30
0.0
 10
761.8297750639407
 20
469.7612077872126
 30
0.0
 10
761.8289971405296
 20
469.7976890133629
 30
0.0
 10
761.8278318593301
 20
469.8192683942875
 30
0.0
 10
761.8262637416312
 20
469.8264132293693
 30
0.0
 10
761.8242798623645
 20
469.8184361919733
 30
0.0
 10
761.8218773873992
 20
469.7950052267166
 30
0.0
 10
761.8191087909938
 20
469.7566295447222
 30
0.0
 10
761.8159923053458
 20
469.7037942552831
 30
0.0
 10
761.8125529416469
 20
469.6372780527076
 30
0.0
 10
761.8087350466733
 20
469.5560041366933
 30
0.0
 10
761.8045357128818
 20
469.4596187932494
 30
0.0
 10
761.7999605902085
 20
469.348096671014
 30
0.0
 10
761.7951099014759
 20
469.2238806259277
 30
0.0
 10
761.7900069951608
 20
469.0877017161647
 30
0.0
 10
761.784679711995
 20
468.9405202199953
 30
0.0
 10
761.7790417511627
 20
468.7799517092892
 30
0.0
 10
761.7730996382209
 20
468.6059844421916
 30
0.0
 10
761.7668671134786
 20
468.4189111068403
 30
0.0
 10
761.7604811021134
 20
468.2228417727805
 30
0.0
 10
761.7539674526195
 20
468.0186721746767
 30
0.0
 10
761.7473536780346
 20
467.8074357791253
 30
0.0
 10
761.7405322391197
 20
467.5856980092021
 30
0.0
 10
761.7335183475323
 20
467.3537900468255
 30
0.0
 10
761.7263322752486
 20
467.1122892428476
 30
0.0
 10
761.7191323855391
 20
466.8665179885015
 30
0.0
 10
761.7119440519403
 20
466.6174338203169
 30
0.0
 10
761.7047912979232
 20
466.3660249035171
 30
0.0
 10
761.6975572932829
 20
466.1081850462294
 30
0.0
 10
761.6902642088795
 20
465.844550501299
 30
0.0
 10
761.6829365577453
 20
465.5759179034481
 30
0.0
 10
761.675736150669
 20
465.3082195687703
 30
0.0
 10
761.6686849638236
 20
465.0423643680012
 30
0.0
 10
761.6618007730102
 20
464.7791816335346
 30
0.0
 10
761.6549707630401
 20
464.514358685309
 30
0.0
 10
761.6482215632146
 20
464.2487649295786
 30
0.0
 10
761.6415791685662
 20
463.9833265474713
 30
0.0
 10
761.6351902779735
 20
463.7239060087126
 30
0.0
 10
761.6290709879844
 20
463.4712602735497
 30
0.0
 10
761.6232308298212
 20
463.2259660621532
 30
0.0
 10
761.6175740409544
 20
462.9840014146139
 30
0.0
 10
761.6121287177406
 20
462.7463711888997
 30
0.0
 10
761.6069194164415
 20
462.5140270603765
 30
0.0
 10
761.6020609851996
 20
462.2920914338544
 30
0.0
 10
761.5975618826449
 20
462.0810857016398
 30
0.0
 10
761.593422377571
 20
461.8812707745918
 30
0.0
 10
761.5895747603657
 20
461.6893783209388
 30
0.0
 10
761.5860454393579
 20
461.5064358815249
 30
0.0
 10
761.5828547691701
 20
461.3333136451379
 30
0.0
 10
761.5800729023321
 20
461.1738175413409
 30
0.0
 10
761.5776997699886
 20
461.0281771750364
 30
0.0
 10
761.5757264007052
 20
460.8963104467906
 30
0.0
 10
761.5741206696846
 20
460.7760701963121
 30
0.0
 10
761.5729043219436
 20
460.6683910366038
 30
0.0
 10
761.57209121116
 20
460.5739635278929
 30
0.0
 10
761.571699193308
 20
460.4948584785421
 30
0.0
 10
761.5717196908649
 20
460.4309888586702
 30
0.0
 10
761.5721355022041
 20
460.3819393426149
 30
0.0
 10
761.5729533974518
 20
460.346915557474
 30
0.0
 10
761.5741879957586
 20
460.3266535471206
 30
0.0
 10
761.5758450770386
 20
460.3215860367495
 30
0.0
 10
761.577888410331
 20
460.3318252324581
 30
0.0
 10
761.5803018236887
 20
460.3569758158969
 30
0.0
 10
761.5830617703862
 20
460.3963344017088
 30
0.0
 10
761.5862129232913
 20
460.450538791426
 30
0.0
 10
761.589761113525
 20
460.520042960601
 30
0.0
 10
761.5937033875841
 20
460.604972640164
 30
0.0
 10
761.5979534420278
 20
460.7034690457858
 30
0.0
 10
761.6024892576087
 20
460.8148700680854
 30
0.0
 10
761.6072835745454
 20
460.938263022322
 30
0.0
 10
761.6124138769713
 20
461.0756391223396
 30
0.0
 10
761.6178770202937
 20
461.2271437306588
 30
0.0
 10
761.6236598611588
 20
461.3924871114057
 30
0.0
 10
761.6296421243331
 20
461.5683900315275
 30
0.0
 10
761.6354609779735
 20
461.7433039725748
 30
0.0
 10
761.6393507074577
 20
461.8635026414106
 30
0.0
 10
761.6411334457886
 20
461.9185920184786
 30
0.0
  0
LINE
  5
CB
330
1F
100
AcDbEntity
  8
0
  6
Continuous
 62
     7
370
    30
100
AcDbLine
 10
762.3538087894
 20
529.0738997765
 30
0.0
 11
762.3538087894
 21
500.8738997765
 31
0.0
  0
LINE
  5
CC
330
1F
100
AcDbEntity
  8
0
  6
Continuous
 62
     7
370
    30
100
AcDbLine
 10
748.0563491195
 20
435.2893144661
 30
0.0
 11
748.4063491195
 21
435.2893144661
 31
0.0
  0
LINE
  5
CD
330
1F
100
AcDbEntity
  8
0
  6
Continuous
 62
     7
370
    30
100
AcDbLine
 10
748.0563491195
 20
595.9738997765
 30
0.0
 11
748.0563491195
 21
435.2893144661
 31
0.0
  0
LINE
  5
CE
330
1F
100
AcDbEntity
  8
0
  6
Continuous
 62
     7
370
    30
100
AcDbLine
 10
761.6103388683
 20
462.6659374024
 30
0.0
 11
761.8744320666
 21
469.5404776761
 31
0.0
  0
SPLINE
  5
CF
330
1F
100
AcDbEntity
  8
0
  6
Continuous
 62
     7
370
    30
100
AcDbSpline
210
0.0
220
0.0
230
1.0
 70
    24
 71
     3
 72
   126
 73
   122
 74
     0
 42
0.000000001
 43
0.00000001
 40
0.0
 40
0.0
 40
0.0
 40
0.0
 40
0.0051361610709155
 40
0.0116073049046293
 40
0.0180678571846827
 40
0.0245204641406949
 40
0.030967781785502
 40
0.0374124726714993
 40
0.043857202606714
 40
0.0514564022871357
 40
0.0590637165800242
 40
0.0666834891892968
 40
0.0738867989435908
 40
0.0841411663643789
 40
0.0943816238426241
 40
0.1046188352048323
 40
0.1148634744143349
 40
0.1251261922580072
 40
0.1342770790518405
 40
0.1434102535438828
 40
0.1525332324752
 40
0.1616535577956632
 40
0.1673884805358965
 40
0.1731272101960981
 40
0.1788716158595182
 40
0.1846998299422773
 40
0.1907992500478016
 40
0.201669600256459
 40
0.2125236891175658
 40
0.2233742256507178
 40
0.2342339313472933
 40
0.2451154955400822
 40
0.2511360186638978
 40
0.2571467948463081
 40
0.2631499514107316
 40
0.2691476237884344
 40
0.2751419532717767
 40
0.2811350847362769
 40
0.2905553976999041
 40
0.2999863721401917
 40
0.3094363001946506
 40
0.3188441057191966
 40
0.3282304441188638
 40
0.3376034658134639
 40
0.3469713559809888
 40
0.3563423132460262
 40
0.3657245281926414
 40
0.3751261619822988
 40
0.3845339672038022
 40
0.3939203054683413
 40
0.4032933271290107
 40
0.4126612172965353
 40
0.4220321745280377
 40
0.4314143893402719
 40
0.4408160228278958
 40
0.4500268338536213
 40
0.4592174534644455
 40
0.468395532690959
 40
0.4775687539421611
 40
0.4867448118286891
 40
0.4959313938333506
 40
0.5051361610709235
 40
0.5116073049053257
 40
0.5180678571859078
 40
0.5245204641422887
 40
0.5309677817873022
 40
0.5374124726733448
 40
0.5438572026084447
 40
0.551456402288522
 40
0.5590637165808423
 40
0.566683489189323
 40
0.5738867989440588
 40
0.5841411663653017
 40
0.5943816238437272
 40
0.6046188352058415
 40
0.6148634744149755
 40
0.6251261922580061
 40
0.6342770790516654
 40
0.6434102535435992
 40
0.652533232474872
 40
0.661653557795354
 40
0.6673884805356313
 40
0.6731272101959029
 40
0.6788716158594161
 40
0.6846998299423567
 40
0.6907992500482492
 40
0.701669600257354
 40
0.7125236891186364
 40
0.7233742256516975
 40
0.7342339313479207
 40
0.7451154955400998
 40
0.7511360186641998
 40
0.7571467948468376
 40
0.7631499514114316
 40
0.7691476237892457
 40
0.7751419532726391
 40
0.7811350847371308
 40
0.7905553977006214
 40
0.7999863721406185
 40
0.8094363001946319
 40
0.8188441057198088
 40
0.8282304441198935
 40
0.8376034658147015
 40
0.8469713559822255
 40
0.856342313247058
 40
0.8657245281932682
 40
0.8751261619823235
 40
0.884533967205731
 40
0.8939203054715422
 40
0.9032933271328489
 40
0.912661217300373
 40
0.9220321745312382
 40
0.9314143893421987
 40
0.9408160228279144
 40
0.9500268338543221
 40
0.9592174534656042
 40
0.9683955326923478
 40
0.9775687539435504
 40
0.9867448118298459
 40
0.9959313938340417
 40
1.0
 40
1.0
 40
1.0
 40
1.0
 10
980.4265085585229
 20
457.4738997765482
 30
0.0
 10
980.4262888443387
 20
457.4738997765482
 30
0.0
 10
980.4257923082116
 20
457.4738997765482
 30
0.0
 10
980.4334028856247
 20
457.4738997765482
 30
0.0
 10
980.4459190892478
 20
457.4738997765482
 30
0.0
 10
980.4643017640481
 20
457.4738997765482
 30
0.0
 10
980.488142214249
 20
457.4738997765482
 30
0.0
 10
980.517549821648
 20
457.4738997765482
 30
0.0
 10
980.5545765697494
 20
457.4738997765482
 30
0.0
 10
980.600448528035
 20
457.4738997765481
 30
0.0
 10
980.6564592301255
 20
457.4738997765482
 30
0.0
 10
980.7189665574507
 20
457.4738997765482
 30
0.0
 10
980.7968830916286
 20
457.4738997765482
 30
0.0
 10
980.8933929331356
 20
457.4738997765481
 30
0.0
 10
981.0140517500085
 20
457.4738997765482
 30
0.0
 10
981.1481434205347
 20
457.4738997765481
 30
0.0
 10
981.2956657731052
 20
457.4738997765481
 30
0.0
 10
981.4506640150454
 20
457.4738997765482
 30
0.0
 10
981.6111704489294
 20
457.4738997765481
 30
0.0
 10
981.7754326664467
 20
457.4738997765482
 30
0.0
 10
981.9495633933903
 20
457.4738997765481
 30
0.0
 10
982.1107710969371
 20
457.4738997765481
 30
0.0
 10
982.255202374973
 20
457.4738997765481
 30
0.0
 10
982.3797749500776
 20
457.4738997765481
 30
0.0
 10
982.5088122029076
 20
457.4738997765481
 30
0.0
 10
982.6443824347439
 20
457.4738997765481
 30
0.0
 10
982.8242952382877
 20
457.4738997765481
 30
0.0
 10
983.0525384838795
 20
457.4738997765481
 30
0.0
 10
983.3324939669361
 20
457.4738997765481
 30
0.0
 10
983.6247938028044
 20
457.4738997765481
 30
0.0
 10
983.9294317461063
 20
457.4738997765481
 30
0.0
 10
984.1989012440114
 20
457.4738997765481
 30
0.0
 10
984.4274318518392
 20
457.4738997765481
 30
0.0
 10
984.6106936737908
 20
457.4738997765481
 30
0.0
 10
984.7970519187775
 20
457.4738997765481
 30
0.0
 10
984.9865063711978
 20
457.4738997765481
 30
0.0
 10
985.1790575407234
 20
457.4738997765481
 30
0.0
 10
985.4119818794585
 20
457.4738997765481
 30
0.0
 10
985.6877540067666
 20
457.4738997765481
 30
0.0
 10
986.0091860792528
 20
457.4738997765481
 30
0.0
 10
986.3374648532565
 20
457.4738997765481
 30
0.0
 10
986.6718473902116
 20
457.4738997765481
 30
0.0
 10
987.0116568598339
 20
457.4738997765481
 30
0.0
 10
987.3570439386181
 20
457.4738997765481
 30
0.0
 10
987.7080071537031
 20
457.4738997765481
 30
0.0
 10
988.0645459967857
 20
457.4738997765481
 30
0.0
 10
988.426659179304
 20
457.4738997765481
 30
0.0
 10
988.7940689494593
 20
457.4738997765481
 30
0.0
 10
989.1660046747735
 20
457.4738997765481
 30
0.0
 10
989.5417373091856
 20
457.4738997765481
 30
0.0
 10
989.9207961401335
 20
457.4738997765481
 30
0.0
 10
990.3031799369747
 20
457.4738997765481
 30
0.0
 10
990.6888879790407
 20
457.4738997765481
 30
0.0
 10
991.0779191425596
 20
457.473899776548
 30
0.0
 10
991.4672366754688
 20
457.4738997765481
 30
0.0
 10
991.8559989216861
 20
457.4738997765481
 30
0.0
 10
992.2434006009042
 20
457.473899776548
 30
0.0
 10
992.631720585733
 20
457.4738997765481
 30
0.0
 10
993.0209579809322
 20
457.4738997765481
 30
0.0
 10
993.4111122882049
 20
457.4738997765481
 30
0.0
 10
993.802181485876
 20
457.473899776548
 30
0.0
 10
994.1550097406403
 20
457.473899776548
 30
0.0
 10
994.4690188276833
 20
457.4738997765481
 30
0.0
 10
994.7437881975708
 20
457.4738997765481
 30
0.0
 10
995.0179045202274
 20
457.4738997765481
 30
0.0
 10
995.2913682478157
 20
457.4738997765481
 30
0.0
 10
995.5641793257538
 20
457.473899776548
 30
0.0
 10
995.852547240949
 20
457.473899776548
 30
0.0
 10
996.1563466214085
 20
457.473899776548
 30
0.0
 10
996.4753832516684
 20
457.4738997765481
 30
0.0
 10
996.7874845885588
 20
457.473899776548
 30
0.0
 10
997.134704612808
 20
457.4738997765481
 30
0.0
 10
997.5157576450672
 20
457.4738997765481
 30
0.0
 10
997.93487119546
 20
457.473899776548
 30
0.0
 10
998.3497387901193
 20
457.4738997765481
 30
0.0
 10
998.7603573241819
 20
457.473899776548
 30
0.0
 10
999.1516775387404
 20
457.4738997765481
 30
0.0
 10
999.5236323428662
 20
457.4738997765481
 30
0.0
 10
999.8761796451023
 20
457.4738997765481
 30
0.0
 10
1000.223471880741
 20
457.4738997765481
 30
0.0
 10
1000.52314357516
 20
457.4738997765481
 30
0.0
 10
1000.777181337269
 20
457.4738997765481
 30
0.0
 10
1000.987361139142
 20
457.4738997765481
 30
0.0
 10
1001.196386337527
 20
457.4738997765481
 30
0.0
 10
1001.40734623786
 20
457.4738997765481
 30
0.0
 10
1001.676203314571
 20
457.4738997765481
 30
0.0
 10
1001.998437650997
 20
457.4738997765481
 30
0.0
 10
1002.36633135901
 20
457.4738997765481
 30
0.0
 10
1002.724304664657
 20
457.4738997765481
 30
0.0
 10
1003.072352563932
 20
457.4738997765481
 30
0.0
 10
1003.359791240868
 20
457.4738997765481
 30
0.0
 10
1003.591056057088
 20
457.4738997765481
 30
0.0
 10
1003.769674853518
 20
457.4738997765481
 30
0.0
 10
1003.94458623436
 20
457.4738997765481
 30
0.0
 10
1004.115791411909
 20
457.4738997765481
 30
0.0
 10
1004.283290317132
 20
457.4738997765481
 30
0.0
 10
1004.478290640873
 20
457.4738997765481
 30
0.0
 10
1004.697972148204
 20
457.4738997765481
 30
0.0
 10
1004.93877616461
 20
457.4738997765481
 30
0.0
 10
1005.169852219513
 20
457.4738997765481
 30
0.0
 10
1005.390855093271
 20
457.4738997765481
 30
0.0
 10
1005.601355628392
 20
457.4738997765481
 30
0.0
 10
1005.801446614668
 20
457.4738997765481
 30
0.0
 10
1005.991128897289
 20
457.4738997765481
 30
0.0
 10
1006.170401375813
 20
457.4738997765481
 30
0.0
 10
1006.339264950644
 20
457.4738997765481
 30
0.0
 10
1006.497595084086
 20
457.4738997765481
 30
0.0
 10
1006.645138060011
 20
457.4738997765481
 30
0.0
 10
1006.78154153939
 20
457.4738997765481
 30
0.0
 10
1006.906613697086
 20
457.4738997765482
 30
0.0
 10
1007.020355373228
 20
457.4738997765481
 30
0.0
 10
1007.122765812895
 20
457.4738997765482
 30
0.0
 10
1007.213845577126
 20
457.4738997765482
 30
0.0
 10
1007.292974988128
 20
457.4738997765481
 30
0.0
 10
1007.360338332562
 20
457.4738997765482
 30
0.0
 10
1007.416039879214
 20
457.4738997765482
 30
0.0
 10
1007.460411291628
 20
457.4738997765481
 30
0.0
 10
1007.493674839316
 20
457.4738997765482
 30
0.0
 10
1007.515003621575
 20
457.4738997765482
 30
0.0
 10
1007.525160802854
 20
457.4738997765482
 30
0.0
 10
1007.524097790749
 20
457.4738997765482
 30
0.0
 10
1007.523771505106
 20
457.4738997765482
 30
0.0
  0
LINE
  5
D0
330
1F
100
AcDbEntity
  8
0
  6
Continuous
 62
   252
370
     0
100
AcDbLine
 10
979.9751400318
 20
465.3738997765
 30
0.0
 11
1007.9751400318
 21
465.3738997765
 31
0.0
  0
LINE
  5
D1
330
1F
100
AcDbEntity
  8
0
  6
Continuous
 62
   252
370
     0
100
AcDbLine
 10
952.9751400318
 20
500.9738997765
 30
0.0
 11
952.9751400318
 21
528.9738997765
 31
0.0
  0
LINE
  5
D2
330
1F
100
AcDbEntity
  8
0
  6
Continuous
 62
   252
370
     0
100
AcDbLine
 10
979.9751400318
 20
473.9738997765
 30
0.0
 11
1007.9751400318
 21
473.9738997765
 31
0.0
  0
LINE
  5
D3
330
1F
100
AcDbEntity
  8
0
  6
Continuous
 62
   252
370
     0
100
AcDbLine
 10
748.9194375937
 20
430.1840300982
 30
0.0
 11
748.9194375937
 21
599.9738997765
 31
0.0
  0
LINE
  5
D4
330
1F
100
AcDbEntity
  8
0
  6
Continuous
 62
   252
370
     0
100
AcDbLine
 10
758.6464860506
 20
430.2286115046
 30
0.0
 11
758.6464860506
 21
599.7191880485
 31
0.0
  0
LINE
  5
D5
330
1F
100
AcDbEntity
  8
0
  6
Continuous
 62
   252
370
     0
100
AcDbLine
 10
760.592214464
 20
432.140364259
 30
0.0
 11
760.592214464
 21
597.8074352567
 31
0.0
  0
LINE
  5
D6
330
1F
100
AcDbEntity
  8
0
  6
Continuous
 62
   252
370
     0
100
AcDbLine
 10
980.2251400318
 20
457.6738997765
 30
0.0
 11
1007.7251400318
 21
457.6738997765
 31
0.0
  0
LINE
  5
D7
330
1F
100
AcDbEntity
  8
0
  6
Continuous
 62
   252
370
     0
100
AcDbLine
 10
981.2738797383
 20
464.7738997765
 30
0.0
 11
980.2251400318
 21
464.7738997765
 31
0.0
  0
LINE
  5
D8
330
1F
100
AcDbEntity
  8
0
  6
Continuous
 62
   252
370
     0
100
AcDbLine
 10
1007.7251400318
 20
464.7738997765
 30
0.0
 11
981.2738797383
 21
464.7738997765
 31
0.0
  0
ARC
  5
D9
330
1F
100
AcDbEntity
  8
0
  6
Continuous
 62
     7
370
    30
100
AcDbCircle
 10
31.4248599682
 20
465.3738997765
 30
0.0
 40
0.4000000000000092
100
AcDbArc
 50
180.0
 51
270.0
  0
ARC
  5
DA
330
1F
100
AcDbEntity
  8
0
  6
Continuous
 62
     7
370
    30
100
AcDbCircle
 10
58.6248599682
 20
465.3738997765
 30
0.0
 40
0.4000000000000128
100
AcDbArc
 50
270.0
 51
0.0
  0
LINE
  5
DB
330
1F
100
AcDbEntity
  8
0
  6
Continuous
 62
     7
370
    30
100
AcDbLine
 10
59.0248599682
 20
465.3738997765
 30
0.0
 11
59.0248599682
 21
473.9738997765
 31
0.0
  0
LINE
  5
DC
330
1F
100
AcDbEntity
  8
0
  6
Continuous
 62
     7
370
    30
100
AcDbLine
 10
31.0248599682
 20
473.9738997765
 30
0.0
 11
31.0248599682
 21
465.3738997765
 31
0.0
  0
ARC
  5
DD
330
1F
100
AcDbEntity
  8
0
  6
Continuous
 62
     7
370
    30
100
AcDbCircle
 10
86.0248599682
 20
473.9738997765
 30
0.0
 40
54.99999999999999
100
AcDbArc
 50
90.0
 51
180.0
  0
ARC
  5
DE
330
1F
100
AcDbEntity
  8
0
  6
Continuous
 62
     7
370
    30
100
AcDbCircle
 10
86.0248599682
 20
473.9738997765
 30
0.0
 40
26.99999999999996
100
AcDbArc
 50
90.0
 51
180.0
  0
LINE
  5
DF
330
1F
100
AcDbEntity
  8
0
  6
Continuous
 62
     7
370
    30
100
AcDbLine
 10
276.6461912106
 20
528.9738997765
 30
0.0
 11
86.0248599682
 21
528.9738997765
 31
0.0
  0
LINE
  5
E0
330
1F
100
AcDbEntity
  8
0
  6
Continuous
 62
     7
370
    30
100
AcDbLine
 10
265.5242558774
 20
500.9738997765
 30
0.0
 11
276.6461912106
 21
500.9738997765
 31
0.0
  0
LINE
  5
E1
330
1F
100
AcDbEntity
  8
0
  6
Continuous
 62
     7
370
    30
100
AcDbLine
 10
86.0248599682
 20
500.9738997765
 30
0.0
 11
259.9251247004
 21
500.9738997765
 31
0.0
  0
ARC
  5
E2
330
1F
100
AcDbEntity
  8
0
  6
Continuous
 62
     7
370
    30
100
AcDbCircle
 10
290.0936508805
 20
599.474071114
 30
0.0
 40
0.5000000000001871
100
AcDbArc
 50
0.0
 51
91.5
  0
LINE
  5
E3
330
1F
100
AcDbEntity
  8
0
  6
Continuous
 62
     7
370
    30
100
AcDbLine
 10
290.0805624063
 20
599.9738997762
 30
0.0
 11
280.3535139494
 21
599.7191880485
 31
0.0
  0
LINE
  5
E4
330
1F
100
AcDbEntity
  8
0
  6
Continuous
 62
     7
370
    30
100
AcDbLine
 10
280.3535139494
 20
430.2286115046
 30
0.0
 11
288.0936508805
 21
430.0259288863
 31
0.0
  0
ARC
  5
E5
330
1F
100
AcDbEntity
  8
0
  6
Continuous
 62
     7
370
    30
100
AcDbCircle
 10
280.405867846
 20
597.7198733798
 30
0.0
 40
2.000000000000048
100
AcDbArc
 50
91.4999999859
 51
177.4907349552
  0
ARC
  5
E6
330
1F
100
AcDbEntity
  8
0
  6
Continuous
 62
     7
370
    30
100
AcDbCircle
 10
280.4058678461
 20
432.2279261358
 30
0.0
 40
1.999999999999986
100
AcDbArc
 50
182.5092650448
 51
268.5000000141
  0
ARC
  5
E7
330
1F
100
AcDbEntity
  8
0
  6
Continuous
 62
     7
370
    30
100
AcDbCircle
 10
2168.5936508405
 20
514.9738997578
 30
0.0
 40
1892.0
100
AcDbArc
 50
180.4269968123
 51
181.3759704848
  0
ARC
  5
E8
330
1F
100
AcDbEntity
  8
0
  6
Continuous
 62
     7
370
    30
100
AcDbCircle
 10
2168.5936508405
 20
514.9738997578
 30
0.0
 40
1892.0
100
AcDbArc
 50
181.6032005426
 51
182.5092650448
  0
ARC
  5
E9
330
1F
100
AcDbEntity
  8
0
  6
Continuous
 62
     7
370
    30
100
AcDbCircle
 10
2168.5936508405
 20
514.9738997578
 30
0.0
 40
1892.00000000007
100
AcDbArc
 50
177.4907349552
 51
179.5730031872
  0
LINE
  5
EA
330
1F
100
AcDbEntity
  8
0
  6
Continuous
 62
     7
370
    30
100
AcDbLine
 10
290.9436508805
 20
595.9738997765
 30
0.0
 11
290.5936508805
 21
595.9738997765
 31
0.0
  0
LINE
  5
EB
330
1F
100
AcDbEntity
  8
0
  6
Continuous
 62
     7
370
    30
100
AcDbLine
 10
277.1916673738
 20
469.5453317156
 30
0.0
 11
277.1255679334
 21
469.5404776761
 31
0.0
  0
SPLINE
  5
EC
330
1F
100
AcDbEntity
  8
0
  6
Continuous
 62
     7
370
    30
100
AcDbSpline
210
0.0
220
0.0
230
1.0
 70
     8
 71
     3
 72
    35
 73
    31
 74
     0
 42
0.000000001
 43
0.00000001
 40
0.0
 40
0.0
 40
0.0
 40
0.0
 40
0.0256076655176476
 40
0.0485628429334366
 40
0.0700546622003097
 40
0.0912664037055188
 40
0.1129966861962776
 40
0.1351979415178151
 40
0.188480592436591
 40
0.2422215093566052
 40
0.306833963295035
 40
0.3723954141045911
 40
0.4392487366848253
 40
0.5078681822974707
 40
0.5789718067871074
 40
0.6533499122901084
 40
0.6886375822589066
 40
0.7222293215428394
 40
0.7529504969340598
 40
0.7816163999270757
 40
0.8098026354111376
 40
0.8361359974743755
 40
0.8642478003206623
 40
0.8950250083356354
 40
0.9291809820153585
 40
0.9454871752697634
 40
0.9622417243131157
 40
0.979335103943678
 40
0.9966576064007575
 40
1.0
 40
1.0
 40
1.0
 40
1.0
 10
276.7399293845468
 20
464.9863836009098
 30
0.0
 10
276.7413684016785
 20
464.9561848836556
 30
0.0
 10
276.7440973799563
 20
464.8989154866542
 30
0.0
 10
276.7498938280231
 20
464.8164064302769
 30
0.0
 10
276.7565965823746
 20
464.739178376249
 30
0.0
 10
276.7641629540018
 20
464.6634843693279
 30
0.0
 10
276.7723562557035
 20
464.5870139064103
 30
0.0
 10
276.7855168450253
 20
464.4729999628235
 30
0.0
 10
276.8052488508139
 20
464.3217055820574
 30
0.0
 10
276.836259732931
 20
464.1214416061654
 30
0.0
 10
276.8751019935195
 20
463.9077863952451
 30
0.0
 10
276.922890219102
 20
463.6801141342928
 30
0.0
 10
276.9770515903275
 20
463.4490212145226
 30
0.0
 10
277.0368138723991
 20
463.21256473785
 30
0.0
 10
277.1021007647984
 20
462.9683723624356
 30
0.0
 10
277.1580871954444
 20
462.7624327464854
 30
0.0
 10
277.2018376648846
 20
462.5990607230466
 30
0.0
 10
277.2318213460777
 20
462.4853598259029
 30
0.0
 10
277.2591019333925
 20
462.379032687188
 30
0.0
 10
277.2837921974731
 20
462.2786335954203
 30
0.0
 10
277.306089695752
 20
462.182988228509
 30
0.0
 10
277.3271371981476
 20
462.0877286357746
 30
0.0
 10
277.3469732664024
 20
461.98908255526
 30
0.0
 10
277.3660519338937
 20
461.8808919132946
 30
0.0
 10
277.3802634057881
 20
461.786030641125
 30
0.0
 10
277.390929380239
 20
461.707395066677
 30
0.0
 10
277.3984318307574
 20
461.6486600331149
 30
0.0
 10
277.4056240148001
 20
461.5886782622352
 30
0.0
 10
277.4107277126178
 20
461.5443935890218
 30
0.0
 10
277.4133215732225
 20
461.5201350833181
 30
0.0
 10
277.4137411109284
 20
461.5162114500238
 30
0.0
  0
SPLINE
  5
ED
330
1F
100
AcDbEntity
  8
0
  6
Continuous
 62
     7
370
    30
100
AcDbSpline
210
0.0
220
0.0
230
1.0
 70
     8
 71
     3
 72
    47
 73
    43
 74
     0
 42
0.000000001
 43
0.00000001
 40
0.0
 40
0.0
 40
0.0
 40
0.0
 40
0.0258666846905837
 40
0.049301029339079
 40
0.0704594924431888
 40
0.0894985421335185
 40
0.106574658363821
 40
0.1218443354096862
 40
0.1354640845222688
 40
0.151784744490509
 40
0.1656889334284427
 40
0.1775836990824883
 40
0.187876110369137
 40
0.2067390332873292
 40
0.223936505365561
 40
0.2410146434655487
 40
0.2578310483505761
 40
0.2742109857127257
 40
0.2899801047595294
 40
0.3049646582856708
 40
0.3301812457485215
 40
0.3530657555817173
 40
0.3744067550165349
 40
0.3996032523789327
 40
0.4255519999761781
 40
0.4540480568275435
 40
0.4850535481169914
 40
0.5168404615015098
 40
0.5479852512220991
 40
0.5783351816763179
 40
0.6323032421863054
 40
0.6846270117368608
 40
0.7357749405217933
 40
0.8109455186339203
 40
0.8848900103253825
 40
0.9012558193813462
 40
0.9173711183453422
 40
0.9331309357333479
 40
0.9485846131796525
 40
0.9643650567030795
 40
0.9812451081336107
 40
1.0
 40
1.0
 40
1.0
 40
1.0
 10
277.1255679333504
 20
469.540477676148
 30
0.0
 10
277.1270689461325
 20
469.5009765771976
 30
0.0
 10
277.1299298259123
 20
469.4256888137454
 30
0.0
 10
277.1338521077358
 20
469.3180836653039
 30
0.0
 10
277.1372556828184
 20
469.2209006730575
 30
0.0
 10
277.1401629999954
 20
469.1334230574451
 30
0.0
 10
277.1426076428685
 20
469.0549344688268
 30
0.0
 10
277.1446206877143
 20
468.9847184478416
 30
0.0
 10
277.1463982929303
 20
468.9156509311826
 30
0.0
 10
277.1478541252832
 20
468.8486628990664
 30
0.0
 10
277.148876617185
 20
468.7843031411041
 30
0.0
 10
277.1493556189384
 20
468.7291496914968
 30
0.0
 10
277.1493935889439
 20
468.6664158808843
 30
0.0
 10
277.1483878933533
 20
468.5955824654926
 30
0.0
 10
277.1461535941035
 20
468.5144058028359
 30
0.0
 10
277.1434968005059
 20
468.4363712617526
 30
0.0
 10
277.1402197143694
 20
468.3596104002839
 30
0.0
 10
277.136348364478
 20
468.2848802115195
 30
0.0
 10
277.1318707815057
 20
468.2129880930768
 30
0.0
 10
277.125516731639
 20
468.1276882242871
 30
0.0
 10
277.1164043296207
 20
468.0316996580806
 30
0.0
 10
277.1036907002926
 20
467.9263326327348
 30
0.0
 10
277.0888480327104
 20
467.8212809201995
 30
0.0
 10
277.0719402393755
 20
467.711801677364
 30
0.0
 10
277.0516952100381
 20
467.5917856863434
 30
0.0
 10
277.028623704607
 20
467.4632530002592
 30
0.0
 10
277.0031664607428
 20
467.3260874767528
 30
0.0
 10
276.9765215805015
 20
467.1850264845006
 30
0.0
 10
276.94990156734
 20
467.0449805121748
 30
0.0
 10
276.9172428316326
 20
466.8715783233133
 30
0.0
 10
276.8801281806422
 20
466.6660808953907
 30
0.0
 10
276.8409962193703
 20
466.4286712421649
 30
0.0
 10
276.8019734177332
 20
466.1584520012773
 30
0.0
 10
276.7678825423649
 20
465.8542230220255
 30
0.0
 10
276.7506355799781
 20
465.601837584184
 30
0.0
 10
276.74355717577
 20
465.439351308871
 30
0.0
 10
276.7409302472045
 20
465.3656751221333
 30
0.0
 10
276.7388958726988
 20
465.2933752334765
 30
0.0
 10
276.737392938421
 20
465.2215732118917
 30
0.0
 10
276.7368425641517
 20
465.1480447144784
 30
0.0
 10
276.7374847234519
 20
465.0694685112457
 30
0.0
 10
276.7390864080173
 20
465.0150332282601
 30
0.0
 10
276.7399293845468
 20
464.9863836009096
 30
0.0
  0
ARC
  5
EE
330
1F
100
AcDbEntity
  8
0
  6
Continuous
 62
     7
370
    30
100
AcDbCircle
 10
31.4748599682
 20
464.7738997765
 30
0.0
 40
0.1999999999999886
100
AcDbArc
 50
90.0
 51
180.0
  0
ARC
  5
EF
330
1F
100
AcDbEntity
  8
0
  6
Continuous
 62
     7
370
    30
100
AcDbCircle
 10
58.5748599682
 20
464.7738997765
 30
0.0
 40
0.1999999999999886
100
AcDbArc
 50
0.0
 51
90.0
  0
ARC
  5
F0
330
1F
100
AcDbEntity
  8
0
  6
Continuous
 62
     7
370
    30
100
AcDbCircle
 10
58.5748599682
 20
457.6738997765
 30
0.0
 40
0.2000000000000028
100
AcDbArc
 50
270.0
 51
0.0
  0
ARC
  5
F1
330
1F
100
AcDbEntity
  8
0
  6
Continuous
 62
     7
370
    30
100
AcDbCircle
 10
31.4748599682
 20
457.6738997765
 30
0.0
 40
0.1999999999999886
100
AcDbArc
 50
180.0
 51
270.0
  0
LINE
  5
F2
330
1F
100
AcDbEntity
  8
0
  6
Continuous
 62
     7
370
    30
100
AcDbLine
 10
31.2748599682
 20
464.7738997765
 30
0.0
 11
31.2748599682
 21
457.6738997765
 31
0.0
  0
LINE
  5
F3
330
1F
100
AcDbEntity
  8
0
  6
Continuous
 62
     7
370
    30
100
AcDbLine
 10
58.7748599682
 20
457.6738997765
 30
0.0
 11
58.7748599682
 21
464.7738997765
 31
0.0
  0
LINE
  5
F4
330
1F
100
AcDbEntity
  8
0
  6
Continuous
 62
     7
370
    30
100
AcDbLine
 10
31.4248599682
 20
464.9738997765
 30
0.0
 11
58.6248599682
 21
464.9738997765
 31
0.0
  0
SPLINE
  5
F5
330
1F
100
AcDbEntity
  8
0
  6
Continuous
 62
     7
370
    30
100
AcDbSpline
210
0.0
220
0.0
230
1.0
 70
     8
 71
     3
 72
    58
 73
    54
 74
     0
 42
0.000000001
 43
0.00000001
 40
0.0
 40
0.0
 40
0.0
 40
0.0
 40
0.0309555317792937
 40
0.0620662714733882
 40
0.0936465623574603
 40
0.1253821826264235
 40
0.1438801204598734
 40
0.1623781091933256
 40
0.1809958207373554
 40
0.199613570285531
 40
0.218602786840769
 40
0.2375920315929907
 40
0.2567073431003057
 40
0.2758226725046343
 40
0.2951219787883509
 40
0.3144212939382529
 40
0.33385154008351
 40
0.3532817862805368
 40
0.3731246957121152
 40
0.3929675952100934
 40
0.412953285043659
 40
0.4329389530113056
 40
0.4524485040273503
 40
0.4719580226121735
 40
0.491605680838653
 40
0.511253289971735
 40
0.5313437989609252
 40
0.5514342330544513
 40
0.5716817194064604
 40
0.5919291021809128
 40
0.6110453996006143
 40
0.6301615915649662
 40
0.6494221649844792
 40
0.6686826047403969
 40
0.6884182495809259
 40
0.7081537190514996
 40
0.7280636366747414
 40
0.7479733461500515
 40
0.7658545995534878
 40
0.783735705379371
 40
0.801760766954174
 40
0.8197856710273199
 40
0.8382887072215569
 40
0.8567915732841094
 40
0.8754708510366731
 40
0.8941499709592103
 40
0.9103285992296243
 40
0.9265071562246839
 40
0.9428119509254049
 40
0.9591166953168893
 40
0.975828075065768
 40
0.9925394303879594
 40
1.0
 40
1.0
 40
1.0
 40
1.0
 10
260.7847980177407
 20
501.0961029570088
 30
0.0
 10
260.834584560679
 20
501.1018153981992
 30
0.0
 10
260.9344072712615
 20
501.1132689221842
 30
0.0
 10
261.0960131521171
 20
501.1299742627893
 30
0.0
 10
261.26600092541
 20
501.1459551228785
 30
0.0
 10
261.4194065413584
 20
501.1587542890976
 30
0.0
 10
261.5516506717215
 20
501.1686391318131
 30
0.0
 10
261.6605263508879
 20
501.1760705348128
 30
0.0
 10
261.7713246612207
 20
501.1828952914985
 30
0.0
 10
261.884621663929
 20
501.1891073892
 30
0.0
 10
262.0000288063999
 20
501.1946310533487
 30
0.0
 10
262.1176383693382
 20
501.199425577731
 30
0.0
 10
262.2365081642044
 20
501.2034115878
 30
0.0
 10
262.3568292003599
 20
501.2065694055597
 30
0.0
 10
262.4781494671533
 20
501.2088542541149
 30
0.0
 10
262.6005455101533
 20
501.2102478587912
 30
0.0
 10
262.7234285379467
 20
501.2107211828047
 30
0.0
 10
262.8474623118702
 20
501.2102651934358
 30
0.0
 10
262.9721566264739
 20
501.2088539663114
 30
0.0
 10
263.0975836692359
 20
501.2064741695421
 30
0.0
 10
263.222643885648
 20
501.2031402394707
 30
0.0
 10
263.3461177197167
 20
501.1989085298223
 30
0.0
 10
263.4675068811922
 20
501.1938391188333
 30
0.0
 10
263.586915233692
 20
501.1879836388972
 30
0.0
 10
263.705094577855
 20
501.1813328773752
 30
0.0
 10
263.8226960583475
 20
501.1738783567283
 30
0.0
 10
263.9391690487647
 20
501.1656686665879
 30
0.0
 10
264.0545319778853
 20
501.1567311844551
 30
0.0
 10
264.1676589534511
 20
501.1471881353687
 30
0.0
 10
264.2762318403705
 20
501.137302744219
 30
0.0
 10
264.3798987894851
 20
501.12720689574
 30
0.0
 10
264.4789005094835
 20
501.1169769670685
 30
0.0
 10
264.5749976264584
 20
501.1064905996863
 30
0.0
 10
264.6687194063929
 20
501.0957411293935
 30
0.0
 10
264.7594943318286
 20
501.0848360189738
 30
0.0
 10
264.8472490335262
 20
501.0738347389182
 30
0.0
 10
264.9309557293664
 20
501.0629215252125
 30
0.0
 10
265.0076447432882
 20
501.0525599069553
 30
0.0
 10
265.0773670418682
 20
501.0428454638475
 30
0.0
 10
265.1406641867703
 20
501.0337885159305
 30
0.0
 10
265.1998512511925
 20
501.0251112261592
 30
0.0
 10
265.2552147720645
 20
501.0168131130451
 30
0.0
 10
265.3062698271683
 20
501.0090055680752
 30
0.0
 10
265.3528620775377
 20
501.0017499649276
 30
0.0
 10
265.39430743676
 20
500.9951927193043
 30
0.0
 10
265.4288038249107
 20
500.9896581754546
 30
0.0
 10
265.4569024106325
 20
500.9851019363122
 30
0.0
 10
265.4794012276465
 20
500.9814218238278
 30
0.0
 10
265.4975289159577
 20
500.9784365852209
 30
0.0
 10
265.5114099829985
 20
500.9761374060179
 30
0.0
 10
265.5204536179468
 20
500.9746343932208
 30
0.0
 10
265.5248420553137
 20
500.9739026889874
 30
0.0
 10
265.5243941283426
 20
500.9739774476466
 30
0.0
 10
265.5242558774437
 20
500.9740005216129
 30
0.0
  0
SPLINE
  5
F6
330
1F
100
AcDbEntity
  8
0
  6
Continuous
 62
     7
370
    30
100
AcDbSpline
210
0.0
220
0.0
230
1.0
 70
     8
 71
     3
 72
    22
 73
    18
 74
     0
 42
0.000000001
 43
0.00000001
 40
0.0
 40
0.0
 40
0.0
 40
0.0
 40
0.0392451700059984
 40
0.0859188871181389
 40
0.1325926680695977
 40
0.1803186268452977
 40
0.2280447261396441
 40
0.2761287475556383
 40
0.3242129754871595
 40
0.4155937510188531
 40
0.5075666003426771
 40
0.6013363568033604
 40
0.6956968970640203
 40
0.7710718702333456
 40
0.846728550941108
 40
0.923226837042863
 40
1.0
 40
1.0
 40
1.0
 40
1.0
 10
259.9251247003558
 20
500.9739439877862
 30
0.0
 10
259.9252991295263
 20
500.9739730186942
 30
0.0
 10
259.9256810048042
 20
500.9740365756442
 30
0.0
 10
259.9312387230196
 20
500.9749625231603
 30
0.0
 10
259.9408634378291
 20
500.9765609693198
 30
0.0
 10
259.9548712793755
 20
500.9788790060564
 30
0.0
 10
259.9732161465229
 20
500.9818971497869
 30
0.0
 10
259.9958304880963
 20
500.9855923658762
 30
0.0
 10
260.0307105189796
 20
500.9912421687818
 30
0.0
 10
260.083296549726
 20
500.9996437193283
 30
0.0
 10
260.1606177669896
 20
501.0116909436794
 30
0.0
 10
260.2527234565458
 20
501.0255976665201
 30
0.0
 10
260.3518838175849
 20
501.0400015086308
 30
0.0
 10
260.4539636351528
 20
501.0542308075345
 30
0.0
 10
260.5563235001769
 20
501.0678992934928
 30
0.0
 10
260.6660617877536
 20
501.0819420973527
 30
0.0
 10
260.7451719823629
 20
501.0913770302632
 30
0.0
 10
260.7847980177374
 20
501.0961029570178
 30
0.0
  0
LINE
  5
F7
330
1F
100
AcDbEntity
  8
0
  6
Continuous
 62
     7
370
    30
100
AcDbLine
 10
290.5936508805
 20
599.474071114
 30
0.0
 11
290.5936508805
 21
430.6870149364
 31
0.0
  0
SPLINE
  5
F8
330
1F
100
AcDbEntity
  8
0
  6
Continuous
 62
     7
370
    30
100
AcDbSpline
210
0.0
220
0.0
230
1.0
 70
     8
 71
     3
 72
    21
 73
    17
 74
     0
 42
0.000000001
 43
0.00000001
 40
0.0
 40
0.0
 40
0.0
 40
0.0
 40
0.104368481840812
 40
0.1579210744375737
 40
0.2118675486942641
 40
0.3162339962313852
 40
0.3697787928036254
 40
0.4237159740832181
 40
0.5282365347440219
 40
0.5818647190110547
 40
0.6358878150826767
 40
0.7403770811457682
 40
0.7939951895401449
 40
0.848010371701786
 40
0.9234425795688579
 40
1.0
 40
1.0
 40
1.0
 40
1.0
 10
290.5936508804624
 20
430.6870149363651
 30
0.0
 10
290.5923669817126
 20
430.6591301213475
 30
0.0
 10
290.5904243006804
 20
430.6169373072871
 30
0.0
 10
290.5783351125525
 20
430.5615838484371
 30
0.0
 10
290.5620162031951
 20
430.5074398035549
 30
0.0
 10
290.5388040730302
 20
430.4555632977199
 30
0.0
 10
290.5094575356573
 20
430.4072206299292
 30
0.0
 10
290.4760762368115
 20
430.3615207791243
 30
0.0
 10
290.4370372257445
 20
430.3201872136959
 30
0.0
 10
290.393301062127
 20
430.2842335925955
 30
0.0
 10
290.3466672519744
 20
430.2521500980248
 30
0.0
 10
290.2961472398441
 20
430.2261007852321
 30
0.0
 10
290.2429964112943
 20
430.2066807493688
 30
0.0
 10
290.1958526536705
 20
430.1940060221611
 30
0.0
 10
290.1415250418921
 20
430.1848121118911
 30
0.0
 10
290.1009833312267
 20
430.1842922300816
 30
0.0
 10
290.0805624063046
 20
430.1840303647772
 30
0.0
  0
SPLINE
  5
F9
330
1F
100
AcDbEntity
  8
0
  6
Continuous
 62
     7
370
    30
100
AcDbSpline
210
0.0
220
0.0
230
1.0
 70
     8
 71
     3
 72
    21
 73
    17
 74
     0
 42
0.000000001
 43
0.00000001
 40
0.0
 40
0.0
 40
0.0
 40
0.0
 40
0.0737534642358895
 40
0.1477420268318878
 40
0.2214952827863015
 40
0.2952480559295249
 40
0.3692360739345959
 40
0.4429893081949771
 40
0.5167640832959774
 40
0.5907736140099079
 40
0.6645491677734642
 40
0.7384567533046281
 40
0.812599323126756
 40
0.8865075761154266
 40
0.9432537679759723
 40
1.0
 40
1.0
 40
1.0
 40
1.0
 10
289.0413149242181
 20
430.2074910125746
 30
0.0
 10
289.0040869873849
 20
430.2082449919491
 30
0.0
 10
288.9295124450296
 20
430.2097553541014
 30
0.0
 10
288.8199343814779
 20
430.2108694970264
 30
0.0
 10
288.7136802412296
 20
430.2111417035203
 30
0.0
 10
288.6123325018968
 20
430.2104634750368
 30
0.0
 10
288.5169880772299
 20
430.2089220342999
 30
0.0
 10
288.4287885094652
 20
430.2065506966538
 30
0.0
 10
288.3491512412468
 20
430.203376648821
 30
0.0
 10
288.2787824526397
 20
430.1994936512338
 30
0.0
 10
288.2184868339125
 20
430.1949691386998
 30
0.0
 10
288.1694579929389
 20
430.1898641091099
 30
0.0
 10
288.1318560965753
 20
430.1842809657224
 30
0.0
 10
288.1084213587109
 20
430.1787620407283
 30
0.0
 10
288.0958082594844
 20
430.1734889907286
 30
0.0
 10
288.0943700069727
 20
430.170181196519
 30
0.0
 10
288.0936508804623
 20
430.1685272988288
 30
0.0
  0
LINE
  5
FA
330
1F
100
AcDbEntity
  8
0
  6
Continuous
 62
     7
370
    30
100
AcDbLine
 10
288.0936508805
 20
430.0259288861
 30
0.0
 11
288.0936508805
 21
430.1685272987
 31
0.0
  0
LWPOLYLINE
  5
FB
330
1F
100
AcDbEntity
  8
0
  6
Continuous
 62
     7
370
    30
100
AcDbPolyline
 90
        9
 70
   128
 43
0.0
 10
290.0805624063
 20
430.1840303648
 10
289.9506564429
 20
430.1869616939
 10
289.8207504875
 20
430.1898933807
 10
289.6908445401
 20
430.1928254252
 10
289.5609386009
 20
430.1957578275
 10
289.4310326696
 20
430.1986905874
 10
289.3011267464
 20
430.2016237051
 10
289.1712208313
 20
430.2045571805
 10
289.0413149242
 20
430.2074910126
  0
SPLINE
  5
FC
330
1F
100
AcDbEntity
  8
0
  6
Continuous
 62
     7
370
    30
100
AcDbSpline
210
0.0
220
0.0
230
1.0
 70
     8
 71
     3
 72
    28
 73
    24
 74
     0
 42
0.000000001
 43
0.00000001
 40
0.0
 40
0.0
 40
0.0
 40
0.0
 40
0.0463319742155446
 40
0.09272810966457
 40
0.1391242321081982
 40
0.18545618856455
 40
0.234284879937523
 40
0.2831511119078616
 40
0.3319797926296643
 40
0.3822258059927627
 40
0.432512746760102
 40
0.4827587491911251
 40
0.5315822960916041
 40
0.580443398241061
 40
0.629266937392507
 40
0.6795082651974217
 40
0.7297905334035034
 40
0.7800318557437658
 40
0.8288618781507097
 40
0.8777294864870421
 40
0.9265595074448506
 40
0.9768082656401297
 40
1.0
 40
1.0
 40
1.0
 40
1.0
 10
277.2332061799278
 20
468.4159664594205
 30
0.0
 10
277.231277173838
 20
468.4741906916458
 30
0.0
 10
277.2274164903409
 20
468.5907197859125
 30
0.0
 10
277.2218711546158
 20
468.7533490792503
 30
0.0
 10
277.216524786735
 20
468.9065348075576
 30
0.0
 10
277.2113202854574
 20
469.0514538650623
 30
0.0
 10
277.206283437617
 20
469.1871832380354
 30
0.0
 10
277.201443270571
 20
469.3126747706971
 30
0.0
 10
277.1968576605906
 20
469.4262934245256
 30
0.0
 10
277.1925540707485
 20
469.5271143170874
 30
0.0
 10
277.1885547007468
 20
469.6144661924165
 30
0.0
 10
277.18494757556
 20
469.6864261354543
 30
0.0
 10
277.181735851889
 20
469.7431120195337
 30
0.0
 10
277.1789139363067
 20
469.7849694262147
 30
0.0
 10
277.1764358061747
 20
469.8126806668806
 30
0.0
 10
277.1743252241126
 20
469.8255316092255
 30
0.0
 10
277.1725988478972
 20
469.8231076081585
 30
0.0
 10
277.1712940147279
 20
469.805480427248
 30
0.0
 10
277.17040734032
 20
469.7729993706629
 30
0.0
 10
277.1699168718498
 20
469.7266563670661
 30
0.0
 10
277.169843369665
 20
469.6646999370626
 30
0.0
 10
277.1700496192478
 20
469.6039551458108
 30
0.0
 10
277.1704383637698
 20
469.5582233798112
 30
0.0
 10
277.1705611251971
 20
469.5437817695773
 30
0.0
  0
LWPOLYLINE
  5
FD
330
1F
100
AcDbEntity
  8
0
  6
Continuous
 62
     7
370
    30
100
AcDbPolyline
 90
       59
 70
   128
 43
0.0
 10
277.3588515653
 20
461.9191450054
 10
277.3639440002
 20
461.7622478205
 10
277.3702101983
 20
461.5734523677
 10
277.3762405797
 20
461.3961670161
 10
277.3818582999
 20
461.2354125763
 10
277.3872266484
 20
461.0862996508
 10
277.3923209459
 20
460.9495139675
 10
277.397263582
 20
460.822006218
 10
277.401891548
 20
460.7081967062
 10
277.4061823027
 20
460.6086400644
 10
277.4100171853
 20
460.525840784
 10
277.4135149842
 20
460.4569182686
 10
277.4166596053
 20
460.4021899838
 10
277.4195178472
 20
460.3608772631
 10
277.4219874495
 20
460.3348300469
 10
277.4240563748
 20
460.3241757213
 10
277.425676945
 20
460.3286481697
 10
277.4269105589
 20
460.3476743024
 10
277.4277515355
 20
460.3811669348
 10
277.428203529
 20
460.430707455
 10
277.4282365891
 20
460.4953647923
 10
277.4278505543
 20
460.5748241286
 10
277.4270731038
 20
460.6661139568
 10
277.4259023535
 20
460.7709961491
 10
277.4243436981
 20
460.8889879127
 10
277.422337142
 20
461.0238560528
 10
277.4199285344
 20
461.1719891451
 10
277.4171296239
 20
461.3326651686
 10
277.4140398444
 20
461.5005515065
 10
277.4105948281
 20
461.6795330079
 10
277.4068104484
 20
461.868785465
 10
277.4025697466
 20
462.0738386701
 10
277.3979892897
 20
462.2888055132
 10
277.393091413
 20
462.5126382494
 10
277.3880365867
 20
462.738218909
 10
277.3827048078
 20
462.9711404029
 10
277.3771206277
 20
463.2103305688
 10
277.3711233228
 20
463.4624574679
 10
277.3648870152
 20
463.7200237127
 10
277.3584420942
 20
463.981774532
 10
277.3519929763
 20
464.2395728576
 10
277.3453765324
 20
464.5001269112
 10
277.3386232011
 20
464.7622382602
 10
277.3315467054
 20
465.0329578622
 10
277.3243589802
 20
465.3040275973
 10
277.3170950254
 20
465.5741276646
 10
277.3099803946
 20
465.8350183758
 10
277.302826881
 20
466.0937716876
 10
277.2956673687
 20
466.3491981637
 10
277.2883110865
 20
466.6079351102
 10
277.2809838219
 20
466.8618964057
 10
277.2737212402
 20
467.1098458296
 10
277.2667426403
 20
467.3444427562
 10
277.2598579008
 20
467.5722514071
 10
277.2530986777
 20
467.792224162
 10
277.2462910745
 20
468.0098413074
 10
277.2396494592
 20
468.218093593
 10
277.2332061799
 20
468.4159664594
 10
277.2332061799
 20
468.4159664594
  0
LINE
  5
FE
330
1F
100
AcDbEntity
  8
0
  6
Continuous
 62
     7
370
    30
100
AcDbLine
 10
276.6461912106
 20
500.8738997765
 30
0.0
 11
276.6461912106
 21
529.0738997765
 31
0.0
  0
LINE
  5
FF
330
1F
100
AcDbEntity
  8
0
  6
Continuous
 62
     7
370
    30
100
AcDbLine
 10
290.9436508805
 20
435.2893144661
 30
0.0
 11
290.9436508805
 21
595.9738997765
 31
0.0
  0
LINE
  5
100
330
1F
100
AcDbEntity
  8
0
  6
Continuous
 62
     7
370
    30
100
AcDbLine
 10
290.9436508805
 20
435.2893144661
 30
0.0
 11
290.5936508805
 21
435.2893144661
 31
0.0
  0
LINE
  5
101
330
1F
100
AcDbEntity
  8
0
  6
Continuous
 62
     7
370
    30
100
AcDbLine
 10
277.1255679334
 20
469.5404776761
 30
0.0
 11
277.3896887973
 21
462.6652172461
 31
0.0
  0
SPLINE
  5
102
330
1F
100
AcDbEntity
  8
0
  6
Continuous
 62
     7
370
    30
100
AcDbSpline
210
0.0
220
0.0
230
1.0
 70
    24
 71
     3
 72
   110
 73
   106
 74
     0
 42
0.000000001
 43
0.00000001
 40
0.0
 40
0.0
 40
0.0
 40
0.0
 40
0.0104577923157065
 40
0.0208960300924623
 40
0.0313233117439505
 40
0.0417482627934558
 40
0.0483039041395773
 40
0.0548641761539331
 40
0.0614312153992029
 40
0.0680940142755531
 40
0.075065785304957
 40
0.0874908341379037
 40
0.0998972958936741
 40
0.1122996972605572
 40
0.1247125791823694
 40
0.1371504458449478
 40
0.1440320358937736
 40
0.1509024849744788
 40
0.1577642246644159
 40
0.1646196958083819
 40
0.1714713459505332
 40
0.1783216267306565
 40
0.1890892511716203
 40
0.1998690619138748
 40
0.2106705370525651
 40
0.2214238652176115
 40
0.2321526559875154
 40
0.2428662254709763
 40
0.2535739295060523
 40
0.264285139300561
 40
0.2750092168718263
 40
0.2857554906064885
 40
0.2965088184255024
 40
0.3072376090411815
 40
0.317951178485969
 40
0.3286588825210456
 40
0.3393700922771192
 40
0.350094169694581
 40
0.3608404430837187
 40
0.3713686022135142
 40
0.3818736821127199
 40
0.392364428077194
 40
0.4028496212690035
 40
0.4133380567969574
 40
0.4238385216225986
 40
0.4343597725682339
 40
0.4417564319752869
 40
0.4491409850042791
 40
0.4565164563537347
 40
0.463885881904608
 40
0.4712523050127183
 40
0.478618772755138
 40
0.4873048247508596
 40
0.496000151926973
 40
0.5047097192323724
 40
0.5129432603528057
 40
0.5246642273399674
 40
0.5363692949585724
 40
0.5480706521963326
 40
0.5597804996275689
 40
0.5715110113354022
 40
0.5819706757505497
 40
0.5924100946167193
 40
0.6028378597339029
 40
0.6132625917163089
 40
0.6198177342588329
 40
0.6263772281946821
 40
0.632943209927028
 40
0.6396049865216317
 40
0.6465767575503347
 40
0.6590018063824312
 40
0.6714082681378617
 40
0.6838106695049205
 40
0.6962235514274223
 40
0.7086614180912039
 40
0.7155430081394357
 40
0.7224134572196694
 40
0.7292751969092557
 40
0.7361306680529937
 40
0.7429823181950398
 40
0.749832598975182
 40
0.7606002234164195
 40
0.7713800341592506
 40
0.7821815092988194
 40
0.792934837463705
 40
0.8036636282335009
 40
0.8143771977169064
 40
0.8250849017519828
 40
0.8357961115465485
 40
0.8465201891179276
 40
0.8572664628527661
 40
0.8680197906716196
 40
0.8787485812871932
 40
0.8894621507319292
 40
0.9001698547670055
 40
0.9108810645231293
 40
0.921605141940689
 40
0.9323514153299731
 40
0.9428795744593553
 40
0.9533846543582835
 40
0.9638754003226182
 40
0.9743605935144277
 40
0.9848490290425219
 40
0.9953494938684441
 40
0.9999999999999999
 40
0.9999999999999999
 40
0.9999999999999999
 40
0.9999999999999999
 10
32.50834527893367
 20
457.4738997765483
 30
0.0
 10
32.55906087172891
 20
457.4738997765483
 30
0.0
 10
32.66039722659367
 20
457.4738997765483
 30
0.0
 10
32.8252156300278
 20
457.4738997765483
 30
0.0
 10
32.99918108312774
 20
457.4738997765483
 30
0.0
 10
33.16042960265727
 20
457.4738997765483
 30
0.0
 10
33.30486484067139
 20
457.4738997765483
 30
0.0
 10
33.42945472886663
 20
457.4738997765483
 30
0.0
 10
33.55851114947458
 20
457.4738997765483
 30
0.0
 10
33.694095386853
 20
457.4738997765483
 30
0.0
 10
33.87401513648494
 20
457.4738997765483
 30
0.0
 10
34.10225843279638
 20
457.4738997765483
 30
0.0
 10
34.38221389995746
 20
457.4738997765483
 30
0.0
 10
34.6745137400836
 20
457.4738997765483
 30
0.0
 10
34.97915168223506
 20
457.4738997765483
 30
0.0
 10
35.24862118042874
 20
457.4738997765483
 30
0.0
 10
35.47715178822988
 20
457.4738997765483
 30
0.0
 10
35.66041361021108
 20
457.4738997765483
 30
0.0
 10
35.84677185521065
 20
457.4738997765483
 30
0.0
 10
36.03622630764189
 20
457.4738997765483
 30
0.0
 10
36.2287774771716
 20
457.4738997765483
 30
0.0
 10
36.46170181590389
 20
457.4738997765483
 30
0.0
 10
36.73747394319884
 20
457.4738997765483
 30
0.0
 10
37.05890601565945
 20
457.4738997765483
 30
0.0
 10
37.38718478965428
 20
457.4738997765483
 30
0.0
 10
37.72156732661694
 20
457.4738997765483
 30
0.0
 10
38.06137679626217
 20
457.4738997765483
 30
0.0
 10
38.40676387505773
 20
457.4738997765484
 30
0.0
 10
38.75772709014267
 20
457.4738997765484
 30
0.0
 10
39.11426593321352
 20
457.4738997765484
 30
0.0
 10
39.47637911570826
 20
457.4738997765483
 30
0.0
 10
39.84378888585918
 20
457.4738997765484
 30
0.0
 10
40.2157246111863
 20
457.4738997765483
 30
0.0
 10
40.59145724562843
 20
457.4738997765484
 30
0.0
 10
40.97051607659139
 20
457.4738997765484
 30
0.0
 10
41.35289987343255
 20
457.4738997765484
 30
0.0
 10
41.73860791548362
 20
457.4738997765484
 30
0.0
 10
42.12763907897229
 20
457.4738997765483
 30
0.0
 10
42.51695661186797
 20
457.4738997765484
 30
0.0
 10
42.90571885808819
 20
457.4738997765483
 30
0.0
 10
43.2931205373272
 20
457.4738997765484
 30
0.0
 10
43.68144052216658
 20
457.4738997765483
 30
0.0
 10
44.07067791736569
 20
457.4738997765484
 30
0.0
 10
44.46083222462774
 20
457.4738997765484
 30
0.0
 10
44.85190142227744
 20
457.4738997765484
 30
0.0
 10
45.20472967700375
 20
457.4738997765484
 30
0.0
 10
45.51873876400047
 20
457.4738997765484
 30
0.0
 10
45.79350813384123
 20
457.4738997765483
 30
0.0
 10
46.06762445646551
 20
457.4738997765484
 30
0.0
 10
46.34108818403568
 20
457.4738997765484
 30
0.0
 10
46.61389926196951
 20
457.4738997765483
 30
0.0
 10
46.90226717717688
 20
457.4738997765484
 30
0.0
 10
47.20606655766629
 20
457.4738997765484
 30
0.0
 10
47.52510318797615
 20
457.4738997765484
 30
0.0
 10
47.83720452488027
 20
457.4738997765483
 30
0.0
 10
48.1844245491011
 20
457.4738997765484
 30
0.0
 10
48.56547758129742
 20
457.4738997765484
 30
0.0
 10
48.98459113165885
 20
457.4738997765484
 30
0.0
 10
49.39945872633433
 20
457.4738997765484
 30
0.0
 10
49.81007726045961
 20
457.4738997765484
 30
0.0
 10
50.20139747505956
 20
457.4738997765483
 30
0.0
 10
50.57335227919568
 20
457.4738997765484
 30
0.0
 10
50.92589958139968
 20
457.4738997765483
 30
0.0
 10
51.27319181702566
 20
457.4738997765483
 30
0.0
 10
51.57286351144683
 20
457.4738997765484
 30
0.0
 10
51.82690127356823
 20
457.4738997765483
 30
0.0
 10
52.03708107546176
 20
457.4738997765483
 30
0.0
 10
52.24610627387016
 20
457.4738997765483
 30
0.0
 10
52.45706617420876
 20
457.4738997765483
 30
0.0
 10
52.72592325090375
 20
457.4738997765483
 30
0.0
 10
53.04815758730225
 20
457.4738997765483
 30
0.0
 10
53.41605129529967
 20
457.4738997765483
 30
0.0
 10
53.77402460095432
 20
457.4738997765483
 30
0.0
 10
54.12207250025819
 20
457.4738997765483
 30
0.0
 10
54.40951117722498
 20
457.4738997765483
 30
0.0
 10
54.64077599346754
 20
457.4738997765483
 30
0.0
 10
54.81939478990239
 20
457.4738997765483
 30
0.0
 10
54.99430617074702
 20
457.4738997765483
 30
0.0
 10
55.16551134829908
 20
457.4738997765483
 30
0.0
 10
55.33301025352283
 20
457.4738997765483
 30
0.0
 10
55.52801057726284
 20
457.4738997765483
 30
0.0
 10
55.74769208459215
 20
457.4738997765483
 30
0.0
 10
55.98849610099241
 20
457.4738997765483
 30
0.0
 10
56.2195721558873
 20
457.4738997765483
 30
0.0
 10
56.44057502963687
 20
457.4738997765483
 30
0.0
 10
56.65107556475488
 20
457.4738997765483
 30
0.0
 10
56.85116655102843
 20
457.4738997765483
 30
0.0
 10
57.04084883364963
 20
457.4738997765483
 30
0.0
 10
57.22012131217497
 20
457.4738997765483
 30
0.0
 10
57.38898488701005
 20
457.4738997765483
 30
0.0
 10
57.54731502045441
 20
457.4738997765483
 30
0.0
 10
57.6948579963798
 20
457.4738997765483
 30
0.0
 10
57.83126147575366
 20
457.4738997765483
 30
0.0
 10
57.95633363344785
 20
457.4738997765483
 30
0.0
 10
58.07007530958924
 20
457.4738997765483
 30
0.0
 10
58.17248574925854
 20
457.4738997765483
 30
0.0
 10
58.26356551349421
 20
457.4738997765483
 30
0.0
 10
58.34269492449739
 20
457.4738997765483
 30
0.0
 10
58.4100582689325
 20
457.4738997765483
 30
0.0
 10
58.46575981558161
 20
457.4738997765482
 30
0.0
 10
58.51013122799461
 20
457.4738997765482
 30
0.0
 10
58.54339477568207
 20
457.4738997765482
 30
0.0
 10
58.56472355794215
 20
457.4738997765482
 30
0.0
 10
58.57488073922262
 20
457.4738997765482
 30
0.0
 10
58.57381772711989
 20
457.4738997765482
 30
0.0
 10
58.57349144147683
 20
457.4738997765482
 30
0.0
  0
SPLINE
  5
103
330
1F
100
AcDbEntity
  8
0
  6
Continuous
 62
     7
370
    30
100
AcDbSpline
210
0.0
220
0.0
230
1.0
 70
    24
 71
     3
 72
    23
 73
    19
 74
     0
 42
0.000000001
 43
0.00000001
 40
0.0
 40
0.0
 40
0.0
 40
0.0
 40
0.0410478603222186
 40
0.0927648147894488
 40
0.1443971222574768
 40
0.1959659312187767
 40
0.2474924683526418
 40
0.298998012602111
 40
0.3505038689290105
 40
0.4112361712694799
 40
0.4720333250554148
 40
0.5329300448818636
 40
0.5904878208677796
 40
0.6724297378882742
 40
0.7542667093601161
 40
0.836083936009952
 40
0.9179666801991745
 40
1.0
 40
1.0
 40
1.0
 40
1.0
 10
31.47622849489415
 20
457.4738997765482
 30
0.0
 10
31.4760087807103
 20
457.4738997765482
 30
0.0
 10
31.47551224458392
 20
457.4738997765482
 30
0.0
 10
31.48312282200635
 20
457.4738997765483
 30
0.0
 10
31.49563902560651
 20
457.4738997765482
 30
0.0
 10
31.51402170050196
 20
457.4738997765482
 30
0.0
 10
31.53786215035467
 20
457.4738997765482
 30
0.0
 10
31.56726975905591
 20
457.4738997765483
 30
0.0
 10
31.60429650200733
 20
457.4738997765482
 30
0.0
 10
31.65016848290578
 20
457.4738997765483
 30
0.0
 10
31.70617909773562
 20
457.4738997765483
 30
0.0
 10
31.76868304866035
 20
457.4738997765483
 30
0.0
 10
31.84658944709454
 20
457.4738997765483
 30
0.0
 10
31.94310402708125
 20
457.4738997765483
 30
0.0
 10
32.06370631820263
 20
457.4738997765483
 30
0.0
 10
32.19799584147673
 20
457.4738997765483
 30
0.0
 10
32.34479926010106
 20
457.4738997765483
 30
0.0
 10
32.4537965638352
 20
457.4738997765483
 30
0.0
 10
32.50834527893367
 20
457.4738997765483
 30
0.0
  0
LINE
  5
104
330
1F
100
AcDbEntity
  8
0
  6
Continuous
 62
   252
370
     0
100
AcDbLine
 10
31.0248599682
 20
465.3738997765
 30
0.0
 11
59.0248599682
 21
465.3738997765
 31
0.0
  0
LINE
  5
105
330
1F
100
AcDbEntity
  8
0
  6
Continuous
 62
   252
370
     0
100
AcDbLine
 10
31.0248599682
 20
473.9738997765
 30
0.0
 11
59.0248599682
 21
473.9738997765
 31
0.0
  0
LINE
  5
106
330
1F
100
AcDbEntity
  8
0
  6
Continuous
 62
   252
370
     0
100
AcDbLine
 10
86.0248599682
 20
528.9738997765
 30
0.0
 11
86.0248599682
 21
500.9738997765
 31
0.0
  0
LINE
  5
107
330
1F
100
AcDbEntity
  8
0
  6
Continuous
 62
   252
370
     0
100
AcDbLine
 10
290.0805624063
 20
599.9738997765
 30
0.0
 11
290.0805624063
 21
430.1840303648
 31
0.0
  0
LINE
  5
108
330
1F
100
AcDbEntity
  8
0
  6
Continuous
 62
   252
370
     0
100
AcDbLine
 10
280.3535139494
 20
599.7191880485
 30
0.0
 11
280.3535139494
 21
430.2286115046
 31
0.0
  0
LINE
  5
109
330
1F
100
AcDbEntity
  8
0
  6
Continuous
 62
   252
370
     0
100
AcDbLine
 10
278.407785536
 20
597.8074352567
 30
0.0
 11
278.407785536
 21
432.140364259
 31
0.0
  0
LINE
  5
10A
330
1F
100
AcDbEntity
  8
0
  6
Continuous
 62
   252
370
     0
100
AcDbLine
 10
58.7748599682
 20
464.7738997765
 30
0.0
 11
31.2748599682
 21
464.7738997765
 31
0.0
  0
LINE
  5
10B
330
1F
100
AcDbEntity
  8
0
  6
Continuous
 62
   252
370
     0
100
AcDbLine
 10
32.3235996747
 20
457.6738997765
 30
0.0
 11
58.7748599682
 21
457.6738997765
 31
0.0
  0
LINE
  5
10C
330
1F
100
AcDbEntity
  8
0
  6
Continuous
 62
   252
370
     0
100
AcDbLine
 10
31.2748599682
 20
457.6738997765
 30
0.0
 11
32.3235996747
 21
457.6738997765
 31
0.0
  0
LINE
  5
10D
330
1F
100
AcDbEntity
  8
0
  6
Continuous
 62
     7
370
    30
100
AcDbLine
 10
564.9749268313
 20
361.6461912106
 30
0.0
 11
564.9749268313
 21
171.0248599682
 31
0.0
  0
LINE
  5
10E
330
1F
100
AcDbEntity
  8
0
  6
Continuous
 62
     7
370
    30
100
AcDbLine
 10
592.9749268313
 20
171.0248599682
 30
0.0
 11
592.9749268313
 21
361.6461912106
 31
0.0
  0
LINE
  5
10F
330
1F
100
AcDbEntity
  8
0
  6
Continuous
 62
     7
370
    30
100
AcDbLine
 10
564.9749268313
 20
171.0248599682
 30
0.0
 11
564.9749268313
 21
130.0248599682
 31
0.0
  0
LINE
  5
110
330
1F
100
AcDbEntity
  8
0
  6
Continuous
 62
     7
370
    30
100
AcDbLine
 10
592.9749268313
 20
130.0248599682
 30
0.0
 11
592.9749268313
 21
171.0248599682
 31
0.0
  0
ARC
  5
111
330
1F
100
AcDbEntity
  8
0
  6
Continuous
 62
     7
370
    30
100
AcDbCircle
 10
494.4747554937
 20
375.0936508805
 30
0.0
 40
0.4999999999999598
100
AcDbArc
 50
90.0
 51
181.5
  0
ARC
  5
112
330
1F
100
AcDbEntity
  8
0
  6
Continuous
 62
     7
370
    30
100
AcDbCircle
 10
663.4750981687
 20
375.0936508805
 30
0.0
 40
0.4999999999999598
100
AcDbArc
 50
358.5
 51
90.0
  0
LINE
  5
113
330
1F
100
AcDbEntity
  8
0
  6
Continuous
 62
     7
370
    30
100
AcDbLine
 10
493.9749268316
 20
375.0805624063
 30
0.0
 11
494.2296385593
 21
365.3535139494
 31
0.0
  0
LINE
  5
114
330
1F
100
AcDbEntity
  8
0
  6
Continuous
 62
     7
370
    30
100
AcDbLine
 10
663.7202151032
 20
365.3535139494
 30
0.0
 11
663.9749268309
 21
375.0805624063
 31
0.0
  0
ARC
  5
115
330
1F
100
AcDbEntity
  8
0
  6
Continuous
 62
     7
370
    30
100
AcDbCircle
 10
496.2289532092
 20
365.4058678461
 30
0.0
 40
2.000000000000043
100
AcDbArc
 50
181.499999986
 51
267.4907349552
  0
ARC
  5
116
330
1F
100
AcDbEntity
  8
0
  6
Continuous
 62
     7
370
    30
100
AcDbCircle
 10
661.7209004533
 20
365.4058678461
 30
0.0
 40
2.000000000000043
100
AcDbArc
 50
272.5092650448
 51
358.5000000141
  0
ARC
  5
117
330
1F
100
AcDbEntity
  8
0
  6
Continuous
 62
     7
370
    30
100
AcDbCircle
 10
578.9749268312
 20
2253.5936508405
 30
0.0
 40
1892.0
100
AcDbArc
 50
267.4907349552
 51
269.5730031875
  0
ARC
  5
118
330
1F
100
AcDbEntity
  8
0
  6
Continuous
 62
     7
370
    30
100
AcDbCircle
 10
578.9749268312
 20
2253.5936508405
 30
0.0
 40
1892.0
100
AcDbArc
 50
270.4269968125
 51
272.5092650448
  0
LINE
  5
119
330
1F
100
AcDbEntity
  8
0
  6
Continuous
 62
     7
370
    30
100
AcDbLine
 10
659.9749268312
 20
375.5936508805
 30
0.0
 11
659.9749268312
 21
375.9436508805
 31
0.0
  0
LINE
  5
11A
330
1F
100
AcDbEntity
  8
0
  6
Continuous
 62
     7
370
    30
100
AcDbLine
 10
497.9749268312
 20
375.9436508805
 30
0.0
 11
497.9749268312
 21
375.5936508805
 31
0.0
  0
ARC
  5
11B
330
1F
100
AcDbEntity
  8
0
  6
Continuous
 62
     7
370
    30
100
AcDbCircle
 10
578.9749268313
 20
130.0248599682
 30
0.0
 40
14.00000000000001
100
AcDbArc
 50
270.0
 51
0.0
  0
ARC
  5
11C
330
1F
100
AcDbEntity
  8
0
  6
Continuous
 62
     7
370
    30
100
AcDbCircle
 10
578.9749268313
 20
130.0248599682
 30
0.0
 40
14.00000000000001
100
AcDbArc
 50
180.0
 51
270.0
  0
LINE
  5
11D
330
1F
100
AcDbEntity
  8
0
  6
Continuous
 62
     7
370
    30
100
AcDbLine
 10
494.4747554937
 20
375.5936508805
 30
0.0
 11
663.4750981687
 21
375.5936508805
 31
0.0
  0
LINE
  5
11E
330
1F
100
AcDbEntity
  8
0
  6
Continuous
 62
     7
370
    30
100
AcDbLine
 10
578.9749268312
 20
361.6461912106
 30
0.0
 11
564.8749268312
 21
361.6461912106
 31
0.0
  0
LINE
  5
11F
330
1F
100
AcDbEntity
  8
0
  6
Continuous
 62
     7
370
    30
100
AcDbLine
 10
593.0749268312
 20
361.6461912106
 30
0.0
 11
578.9749268312
 21
361.6461912106
 31
0.0
  0
LINE
  5
120
330
1F
100
AcDbEntity
  8
0
  6
Continuous
 62
     7
370
    30
100
AcDbLine
 10
659.9749268312
 20
375.9436508805
 30
0.0
 11
497.9749268312
 21
375.9436508805
 31
0.0
  0
LINE
  5
121
330
1F
100
AcDbEntity
  8
0
  6
Continuous
 62
   252
370
     0
100
AcDbLine
 10
578.9749268313
 20
171.0248599682
 30
0.0
 11
592.9749268313
 21
171.0248599682
 31
0.0
  0
LINE
  5
122
330
1F
100
AcDbEntity
  8
0
  6
Continuous
 62
   252
370
     0
100
AcDbLine
 10
564.9749268313
 20
171.0248599682
 30
0.0
 11
578.9749268313
 21
171.0248599682
 31
0.0
  0
LINE
  5
123
330
1F
100
AcDbEntity
  8
0
  6
Continuous
 62
   252
370
     0
100
AcDbLine
 10
493.9749268312
 20
375.0805624063
 30
0.0
 11
663.9749268312
 21
375.0805624063
 31
0.0
  0
LINE
  5
124
330
1F
100
AcDbEntity
  8
0
  6
Continuous
 62
   252
370
     0
100
AcDbLine
 10
494.2296385593
 20
365.3535139494
 30
0.0
 11
663.7202151032
 21
365.3535139494
 31
0.0
  0
LINE
  5
125
330
1F
100
AcDbEntity
  8
0
  6
Continuous
 62
   252
370
     0
100
AcDbLine
 10
578.9749268312
 20
363.407785536
 30
0.0
 11
661.8084623301
 21
363.407785536
 31
0.0
  0
LINE
  5
126
330
1F
100
AcDbEntity
  8
0
  6
Continuous
 62
   252
370
     0
100
AcDbLine
 10
496.1413913324
 20
363.407785536
 30
0.0
 11
578.9749268312
 21
363.407785536
 31
0.0
  0
SPLINE
  5
127
330
1F
100
AcDbEntity
  8
0
  6
Continuous
 62
     7
370
    30
100
AcDbSpline
210
0.0
220
0.0
230
1.0
 70
     8
 71
     3
 72
    83
 73
    79
 74
     0
 42
0.000000001
 43
0.00000001
 40
0.0
 40
0.0
 40
0.0
 40
0.0
 40
0.014444723891097
 40
0.0202278897352458
 40
0.0298407187141919
 40
0.0398177166460354
 40
0.0505204352257538
 40
0.0616941543351527
 40
0.0732367133342609
 40
0.0850665362907766
 40
0.0971256318474671
 40
0.1093710795357358
 40
0.1217705342705118
 40
0.1342991559233217
 40
0.1469375444138098
 40
0.1596703178624907
 40
0.1724851147239213
 40
0.1853718803770023
 40
0.1983223481644827
 40
0.2113296557539784
 40
0.2243880572783797
 40
0.2374927043516191
 40
0.2506394773499332
 40
0.263824853885009
 40
0.2770458051488674
 40
0.2902997133938175
 40
0.3035843056177625
 40
0.3168975997998492
 40
0.3302378609507123
 40
0.3436035649034598
 40
0.3569933682618273
 40
0.3704060832819181
 40
0.3838406567345149
 40
0.3972961520024744
 40
0.4107717338193478
 40
0.4242666551806036
 40
0.4377802460473815
 40
0.4513119035385448
 40
0.4648610833624873
 40
0.4784272922851216
 40
0.4920100814684707
 40
0.505609040539692
 40
0.5192237922785575
 40
0.5328539878250066
 40
0.5464993023287411
 40
0.5601594309706757
 40
0.5738340853018552
 40
0.5875229898491252
 40
0.6012258789476543
 40
0.6149424937641471
 40
0.6286725794822869
 40
0.6424158826243036
 40
0.6561721484862147
 40
0.669941118670573
 40
0.6837225287002152
 40
0.697516105700009
 40
0.711321566138824
 40
0.7251386136218569
 40
0.738966936727964
 40
0.7528062068895813
 40
0.7666560763124903
 40
0.7805161759348997
 40
0.7943861134302779
 40
0.8082654712543785
 40
0.8221538047452804
 40
0.8360506402811553
 40
0.8499554735062821
 40
0.8638677676362089
 40
0.8777869518529711
 40
0.8917124198062196
 40
0.9056435282359123
 40
0.9195795957308676
 40
0.9335199016453328
 40
0.9474636851890857
 40
0.9614100387375337
 40
0.9753579480855642
 40
0.9893065148530822
 40
1.0
 40
1.0
 40
1.0
 40
1.0
 10
774.327557779508
 20
140.2686512141904
 30
0.0
 10
774.2337094859582
 20
140.1054027428056
 30
0.0
 10
774.1022875946104
 20
139.876795252381
 30
0.0
 10
773.9105701171883
 20
139.538336735376
 30
0.0
 10
773.7485070174863
 20
139.2500321714118
 30
0.0
 10
773.5566223037986
 20
138.9049723045875
 30
0.0
 10
773.3565948934081
 20
138.541225053973
 30
0.0
 10
773.148697602527
 20
138.15860861309
 30
0.0
 10
772.9359044530931
 20
137.7620509184101
 30
0.0
 10
772.7199065165152
 20
137.354262730322
 30
0.0
 10
772.5019836212939
 20
136.937302112017
 30
0.0
 10
772.2830811651896
 20
136.5126805457516
 30
0.0
 10
772.0639179442408
 20
136.0815423793534
 30
0.0
 10
771.8450517777325
 20
135.6447716918778
 30
0.0
 10
771.6269240796576
 20
135.2030650963018
 30
0.0
 10
771.4098904281301
 20
134.7569814687547
 30
0.0
 10
771.1942419512815
 20
134.3069766635576
 30
0.0
 10
770.9802205809185
 20
133.8534281981117
 30
0.0
 10
770.7680301257673
 20
133.3966531205741
 30
0.0
 10
770.5578444449282
 20
132.9369211574294
 30
0.0
 10
770.3498135738456
 20
132.4744645364601
 30
0.0
 10
770.1440683810439
 20
132.0094854296557
 30
0.0
 10
769.9407241543598
 20
131.542161666306
 30
0.0
 10
769.7398833961126
 20
131.0726511710664
 30
0.0
 10
769.5416380259863
 20
130.6010954498821
 30
0.0
 10
769.3460711350226
 20
130.1276223562269
 30
0.0
 10
769.1532583955462
 20
129.652348307248
 30
0.0
 10
768.9632692045717
 20
129.1753800750305
 30
0.0
 10
768.7761676187502
 20
128.6968162465386
 30
0.0
 10
768.5920131247575
 20
128.2167484228466
 30
0.0
 10
768.4108612786762
 20
127.7352622115253
 30
0.0
 10
768.2327642402455
 20
127.2524380536537
 30
0.0
 10
768.0577712220993
 20
126.7683519176532
 30
0.0
 10
767.8859288697882
 20
126.2830758851885
 30
0.0
 10
767.7172815850435
 20
125.7966786490238
 30
0.0
 10
767.5518718022245
 20
125.309225938696
 30
0.0
 10
767.3897402258897
 20
124.8207808866663
 30
0.0
 10
767.2309260359071
 20
124.3314043451907
 30
0.0
 10
767.0754670652979
 20
123.8411551622032
 30
0.0
 10
766.9233999550419
 20
123.3500904229786
 30
0.0
 10
766.7747602893182
 20
122.858265663151
 30
0.0
 10
766.6295827140154
 20
122.3657350576562
 30
0.0
 10
766.4879010408736
 20
121.8725515894265
 30
0.0
 10
766.3497483391868
 20
121.3787672009855
 30
0.0
 10
766.2151570166935
 20
120.8844329316306
 30
0.0
 10
766.0841588909775
 20
120.3895990424071
 30
0.0
 10
765.9567852525051
 20
119.8943151307814
 30
0.0
 10
765.833066920212
 20
119.3986302365808
 30
0.0
 10
765.7130342904175
 20
118.9025929405792
 30
0.0
 10
765.5967173796914
 20
118.4062514568497
 30
0.0
 10
765.4841458622022
 20
117.9096537198652
 30
0.0
 10
765.3753491019733
 20
117.4128474671716
 30
0.0
 10
765.2703561803937
 20
116.9158803183221
 30
0.0
 10
765.169195919263
 20
116.4187998506623
 30
0.0
 10
765.0718968995872
 20
115.9216536724421
 30
0.0
 10
764.9784874762947
 20
115.4244894936459
 30
0.0
 10
764.8889957889977
 20
114.9273551948578
 30
0.0
 10
764.8034497688841
 20
114.4302988943897
 30
0.0
 10
764.7218771418
 20
113.9333690138502
 30
0.0
 10
764.6443054275518
 20
113.4366143422443
 30
0.0
 10
764.5707619354403
 20
112.9400840986525
 30
0.0
 10
764.5012737560193
 20
112.4438279934526
 30
0.0
 10
764.4358677490553
 20
111.9478962880204
 30
0.0
 10
764.3745705277192
 20
111.4523398527567
 30
0.0
 10
764.317408438752
 20
110.9572102232122
 30
0.0
 10
764.2644075394718
 20
110.4625596542758
 30
0.0
 10
764.2155935682792
 20
109.9684411712365
 30
0.0
 10
764.1709919210922
 20
109.4749086207132
 30
0.0
 10
764.1306275872796
 20
108.9820167085302
 30
0.0
 10
764.0945252186075
 20
108.4898210708187
 30
0.0
 10
764.0627086833873
 20
107.9983782033203
 30
0.0
 10
764.0352025253337
 20
107.5077459001444
 30
0.0
 10
764.0120262929805
 20
107.017981767581
 30
0.0
 10
763.9932155196632
 20
106.5291501383526
 30
0.0
 10
763.9787432822966
 20
106.0413017261438
 30
0.0
 10
763.9688124690418
 20
105.5545505676643
 30
0.0
 10
763.9632345216318
 20
105.1065633531716
 30
0.0
 10
763.9630204426638
 20
104.8213886945868
 30
0.0
 10
763.9629275425161
 20
104.6976363793802
 30
0.0
  0
SPLINE
  5
128
330
1F
100
AcDbEntity
  8
0
  6
Continuous
 62
     7
370
    30
100
AcDbSpline
210
0.0
220
0.0
230
1.0
 70
     8
 71
     3
 72
    80
 73
    76
 74
     0
 42
0.000000001
 43
0.00000001
 40
0.0
 40
0.0
 40
0.0
 40
0.0
 40
0.0078761670516354
 40
0.0223957608890582
 40
0.0369223954513076
 40
0.0514550007046959
 40
0.065992564184764
 40
0.0805341323272469
 40
0.0950786450225414
 40
0.1096251460967786
 40
0.124172879552856
 40
0.1387211517020217
 40
0.1532693293837791
 40
0.1678168394880354
 40
0.1823631683339531
 40
0.1969078609210197
 40
0.211450520085539
 40
0.2259908055924545
 40
0.2405284331935395
 40
0.2550631736809011
 40
0.269594851965066
 40
0.2841233462045135
 40
0.298648587015186
 40
0.3131705567861128
 40
0.3276892891301239
 40
0.3422048684962435
 40
0.3567174299744302
 40
0.3712271593228757
 40
0.3857342932524778
 40
0.4002391200050779
 40
0.4147419802675303
 40
0.4292432684694668
 40
0.4437434345195023
 40
0.4582429860452839
 40
0.4727424912125676
 40
0.4872425822164529
 40
0.5017439595530878
 40
0.5162473972075193
 40
0.5307537489204173
 40
0.5452639557360137
 40
0.5597790550836662
 40
0.5743001917048948
 40
0.5888286308253705
 40
0.6033657740733211
 40
0.6179131787934983
 40
0.6324725815923629
 40
0.64704592721065
 40
0.6616354041718112
 40
0.6762434891436038
 40
0.6908730026394939
 40
0.7055271796706108
 40
0.7186897512428831
 40
0.7318464740758533
 40
0.7449962406005225
 40
0.7581388435456641
 40
0.7712739878547522
 40
0.7844012644812056
 40
0.7975201131638842
 40
0.8106297698265806
 40
0.8237291905225796
 40
0.8368169385827726
 40
0.8498910121507408
 40
0.8629485714918135
 40
0.8759854903301786
 40
0.8889955819759207
 40
0.9019691862267716
 40
0.9148904011317132
 40
0.9277311549793826
 40
0.9404369369931102
 40
0.952886412150065
 40
0.9647450242781518
 40
0.9750699418673111
 40
0.9828619857078145
 40
0.9917316537788826
 40
0.9999999999999999
 40
0.9999999999999999
 40
0.9999999999999999
 40
0.9999999999999999
 10
799.9545969780532
 20
167.0360965747432
 30
0.0
 10
799.8756349443415
 20
166.9906225540841
 30
0.0
 10
799.651107605761
 20
166.8613178698806
 30
0.0
 10
799.2823622616219
 20
166.6428520257044
 30
0.0
 10
798.848221701186
 20
166.3811016184921
 30
0.0
 10
798.4153034362198
 20
166.1142605265437
 30
0.0
 10
797.9835803753939
 20
165.8426765331498
 30
0.0
 10
797.5531261945574
 20
165.5663195164639
 30
0.0
 10
797.1239869526239
 20
165.2852618723151
 30
0.0
 10
796.696214013896
 20
164.999548697497
 30
0.0
 10
796.2698532454605
 20
164.7092310895785
 30
0.0
 10
795.8449479656216
 20
164.4143569950015
 30
0.0
 10
795.4215396914277
 20
164.1149745098035
 30
0.0
 10
794.9996683723223
 20
163.8111311524344
 30
0.0
 10
794.5793723880903
 20
163.5028739753658
 30
0.0
 10
794.1606886094195
 20
163.1902494555444
 30
0.0
 10
793.7436524441108
 20
162.8733034498449
 30
0.0
 10
793.3282978885311
 20
162.5520811381965
 30
0.0
 10
792.9146575780578
 20
162.2266269743646
 30
0.0
 10
792.5027628372378
 20
161.8969846382253
 30
0.0
 10
792.0926437285752
 20
161.5631969903289
 30
0.0
 10
791.6843290993988
 20
161.2253060276215
 30
0.0
 10
791.2778466261692
 20
160.8833528396622
 30
0.0
 10
790.8732228556304
 20
160.5373775644722
 30
0.0
 10
790.470483242245
 20
160.1874193431539
 30
0.0
 10
790.0696521813367
 20
159.8335162723188
 30
0.0
 10
789.6707530373845
 20
159.4757053533106
 30
0.0
 10
789.2738081668763
 20
159.1140224370933
 30
0.0
 10
788.8788389351045
 20
158.7485021635716
 30
0.0
 10
788.4858657262349
 20
158.37917789396
 30
0.0
 10
788.0949079459031
 20
158.0060816346438
 30
0.0
 10
787.7059840154891
 20
157.6292439507532
 30
0.0
 10
787.3191113570897
 20
157.2486938674
 30
0.0
 10
786.9343063680423
 20
156.8644587561945
 30
0.0
 10
786.5515843836181
 20
156.4765642042304
 30
0.0
 10
786.1709596262496
 20
156.0850338622166
 30
0.0
 10
785.7924451392705
 20
155.6898892677567
 30
0.0
 10
785.4160527027271
 20
155.2911496389697
 30
0.0
 10
785.0417927282286
 20
154.8888316325827
 30
0.0
 10
784.669674129072
 20
154.4829490592904
 30
0.0
 10
784.2997041609526
 20
154.0735125474782
 30
0.0
 10
783.9318882273267
 20
153.6605291441697
 30
0.0
 10
783.5662296419182
 20
153.2440018391947
 30
0.0
 10
783.2027293387932
 20
152.8239289948246
 30
0.0
 10
782.8413855174513
 20
152.4003036578519
 30
0.0
 10
782.4821932074582
 20
151.973112725425
 30
0.0
 10
782.1251437289499
 20
151.5423359227671
 30
0.0
 10
781.7702240300675
 20
151.107944553646
 30
0.0
 10
781.4174158288216
 20
150.6698999099872
 30
0.0
 10
781.0666946370283
 20
150.2281514158506
 30
0.0
 10
780.730082267461
 20
149.7980362575609
 30
0.0
 10
780.4075259759218
 20
149.3802159473796
 30
0.0
 10
780.0990027147393
 20
148.9753749869758
 30
0.0
 10
779.7928478019837
 20
148.5684153321961
 30
0.0
 10
779.4890945679083
 20
148.1593929873867
 30
0.0
 10
779.1877706326073
 20
147.7483571651642
 30
0.0
 10
778.8889059498856
 20
147.3353610732676
 30
0.0
 10
778.5925335794096
 20
146.9204632437737
 30
0.0
 10
778.2986907641864
 20
146.5037293956408
 30
0.0
 10
778.007420509698
 20
146.0852351570419
 30
0.0
 10
777.7187739478296
 20
145.6650701361269
 30
0.0
 10
777.4328139921749
 20
145.243344207141
 30
0.0
 10
777.1496211999178
 20
144.8201975776724
 30
0.0
 10
776.8693035878235
 20
144.3958176266875
 30
0.0
 10
776.5920139565678
 20
143.9704685754712
 30
0.0
 10
776.3179824848552
 20
143.5445472618019
 30
0.0
 10
776.0475833475022
 20
143.1186968620451
 30
0.0
 10
775.7814860581793
 20
142.6940652365699
 30
0.0
 10
775.5210559668824
 20
142.2729857180492
 30
0.0
 10
775.269682867577
 20
141.8612366547091
 30
0.0
 10
775.0366022799653
 20
141.4745958057195
 30
0.0
 10
774.836547515544
 20
141.1388904641413
 30
0.0
 10
774.6577124693283
 20
140.8358791550174
 30
0.0
 10
774.4934940469
 20
140.555361431717
 30
0.0
 10
774.3815607331667
 20
140.3619593187653
 30
0.0
 10
774.327557779508
 20
140.2686512141905
 30
0.0
  0
SPLINE
  5
129
330
1F
100
AcDbEntity
  8
0
  6
Continuous
 62
     7
370
    30
100
AcDbSpline
210
0.0
220
0.0
230
1.0
 70
     8
 71
     3
 72
    79
 73
    75
 74
     0
 42
0.000000001
 43
0.00000001
 40
0.0
 40
0.0
 40
0.0
 40
0.0
 40
0.0157914427411901
 40
0.0221247606675898
 40
0.0326501732249298
 40
0.0435751221810537
 40
0.0552944797896036
 40
0.0675283961900709
 40
0.0801642032585524
 40
0.0931117936975355
 40
0.1063069083636524
 40
0.1197018017854896
 40
0.1332603142282152
 40
0.1469545063983907
 40
0.1607623966779787
 40
0.1746664033735376
 40
0.1886522517403802
 40
0.2027081927908131
 40
0.2168244352115837
 40
0.2309927255692807
 40
0.2452060334671393
 40
0.2594583121657467
 40
0.2737443142796929
 40
0.2880594482252433
 40
0.3023996652115054
 40
0.3167613693984327
 40
0.3311413458226849
 40
0.3455367020935293
 40
0.3599448208632435
 40
0.3743633208064229
 40
0.3887900243749542
 40
0.4032229309933393
 40
0.4176601946549501
 40
0.4321001051037494
 40
0.4465410719582553
 40
0.4609816112649078
 40
0.4754203340703461
 40
0.4898559366820463
 40
0.5042871923495023
 40
0.5187129441462818
 40
0.5331320988751886
 40
0.5475436218480452
 40
0.5619465324190172
 40
0.5763399001695679
 40
0.5907228416616118
 40
0.6050945176877786
 40
0.6194541309594637
 40
0.6338009241840953
 40
0.648134178488753
 40
0.6624532121552956
 40
0.676757379637141
 40
0.6910460708326283
 40
0.7053187105936731
 40
0.7195747584515663
 40
0.7338137085454763
 40
0.7480350897400065
 40
0.7622384659225949
 40
0.7764234364710934
 40
0.7905896368846934
 40
0.8047367395730135
 40
0.8188644547983556
 40
0.8329725317683577
 40
0.8470607598764403
 40
0.8611289700889214
 40
0.8751770364788282
 40
0.8892048779056286
 40
0.9032124598433553
 40
0.9171997963584696
 40
0.9311669522399866
 40
0.94511404528563
 40
0.9590412487486305
 40
0.9729487939491895
 40
0.9868369730579001
 40
1.0
 40
1.0
 40
1.0
 40
1.0
 10
798.5769259261679
 20
126.269788957287
 30
0.0
 10
798.6444038900389
 20
126.3861587097296
 30
0.0
 10
798.7389445742216
 20
126.5491997290929
 30
0.0
 10
798.8800728042544
 20
126.7888237826606
 30
0.0
 10
799.0008644227058
 20
126.9922883076426
 30
0.0
 10
799.1462301819761
 20
127.2344325174914
 30
0.0
 10
799.3003209618405
 20
127.488195581104
 30
0.0
 10
799.4633336632915
 20
127.7534228120568
 30
0.0
 10
799.6332573043404
 20
128.0264652292379
 30
0.0
 10
799.808994518137
 20
128.3052622568674
 30
0.0
 10
799.9897029596141
 20
128.5882424994338
 30
0.0
 10
800.1747575810716
 20
128.8742378685367
 30
0.0
 10
800.3636781812651
 20
129.162352511742
 30
0.0
 10
800.5560868245725
 20
129.4518838818414
 30
0.0
 10
800.7516787902413
 20
129.7422690765581
 30
0.0
 10
800.9502027857458
 20
130.0330481247851
 30
0.0
 10
801.1514471591208
 20
130.3238383442114
 30
0.0
 10
801.3552301190355
 20
130.6143160914059
 30
0.0
 10
801.5613926733117
 20
130.9042035430392
 30
0.0
 10
801.7697934471475
 20
131.1932589630906
 30
0.0
 10
801.9803048230456
 20
131.4812694279577
 30
0.0
 10
802.1928100254419
 20
131.7680453129578
 30
0.0
 10
802.4072008907775
 20
132.053416060405
 30
0.0
 10
802.6233761419921
 20
132.3372268934344
 30
0.0
 10
802.8412400390881
 20
132.619336236956
 30
0.0
 10
803.0607013135243
 20
132.8996136738216
 30
0.0
 10
803.2816723192491
 20
133.1779383106965
 30
0.0
 10
803.5040683508506
 20
133.454197460886
 30
0.0
 10
803.7278070918991
 20
133.7282855747942
 30
0.0
 10
803.9528081656532
 20
134.0001033656309
 30
0.0
 10
804.1789927669615
 20
134.2695570904027
 30
0.0
 10
804.4062833590855
 20
134.5365579553959
 30
0.0
 10
804.6346034228503
 20
134.8010216222323
 30
0.0
 10
804.8638772482748
 20
135.0628677957503
 30
0.0
 10
805.0940297609369
 20
135.3220198789145
 30
0.0
 10
805.3249863769353
 20
135.5784046829793
 30
0.0
 10
805.5566728815434
 20
135.8319521834783
 30
0.0
 10
805.7890153276309
 20
136.0825953144414
 30
0.0
 10
806.0219399506691
 20
136.3302697946718
 30
0.0
 10
806.2553730977482
 20
136.5749139810515
 30
0.0
 10
806.4892411684967
 20
136.816468744748
 30
0.0
 10
806.7234705661856
 20
137.0548773669151
 30
0.0
 10
806.9579876575881
 20
137.2900854510608
 30
0.0
 10
807.1927187404312
 20
137.522040849731
 30
0.0
 10
807.4275900174594
 20
137.7506936035322
 30
0.0
 10
807.6625275762993
 20
137.9759958908354
 30
0.0
 10
807.8974573744518
 20
138.197901986753
 30
0.0
 10
808.1323052288412
 20
138.4163682301994
 30
0.0
 10
808.3669968094491
 20
138.6313529980152
 30
0.0
 10
808.6014576366282
 20
138.8428166852777
 30
0.0
 10
808.8356130817596
 20
139.0507216910479
 30
0.0
 10
809.0693883709696
 20
139.2550324088993
 30
0.0
 10
809.3027085916605
 20
139.4557152216601
 30
0.0
 10
809.5354987016508
 20
139.6527384998707
 30
0.0
 10
809.767683540749
 20
139.8460726035169
 30
0.0
 10
809.9991878446131
 20
140.0356898866537
 30
0.0
 10
810.2299362607616
 20
140.2215647045686
 30
0.0
 10
810.4598533666316
 20
140.403673423178
 30
0.0
 10
810.6888636895837
 20
140.5819944303799
 30
0.0
 10
810.9168917287562
 20
140.7565081490752
 30
0.0
 10
811.1438619787612
 20
140.9271970517627
 30
0.0
 10
811.3696989548953
 20
141.0940456759742
 30
0.0
 10
811.5943272207571
 20
141.2570406422775
 30
0.0
 10
811.8176714146794
 20
141.4161706674903
 30
0.0
 10
812.0396562880752
 20
141.5714265996411
 30
0.0
 10
812.2602067066505
 20
141.7228013750319
 30
0.0
 10
812.4792477968958
 20
141.8702902677198
 30
0.0
 10
812.6967045582919
 20
142.0138900516226
 30
0.0
 10
812.9125034716784
 20
142.1536022128928
 30
0.0
 10
813.1265666801343
 20
142.2894210793457
 30
0.0
 10
813.338833835991
 20
142.4213781187984
 30
0.0
 10
813.5491809223905
 20
142.5493770584391
 30
0.0
 10
813.7541883701973
 20
142.6716991485875
 30
0.0
 10
813.8881327292333
 20
142.7494400875021
 30
0.0
 10
813.9533096090893
 20
142.7872685699556
 30
0.0
  0
SPLINE
  5
12A
330
1F
100
AcDbEntity
  8
0
  6
Continuous
 62
     7
370
    30
100
AcDbSpline
210
0.0
220
0.0
230
1.0
 70
     8
 71
     3
 72
    77
 73
    73
 74
     0
 42
0.000000001
 43
0.00000001
 40
0.0
 40
0.0
 40
0.0
 40
0.0
 40
0.0000316166072801
 40
0.014526632828025
 40
0.029046424474935
 40
0.0435916398264269
 40
0.0581628595637508
 40
0.0727606014095575
 40
0.087385324573244
 40
0.1020374340207427
 40
0.116717284583906
 40
0.1314251849273705
 40
0.1461614013861471
 40
0.1609261616898823
 40
0.1757196585897527
 40
0.1905420534016768
 40
0.2053934794822675
 40
0.2202740456551478
 40
0.2351838396023011
 40
0.2501229312418503
 40
0.2650913761098899
 40
0.2800892187695853
 40
0.2951164962716518
 40
0.3101732416923894
 40
0.3252594877813847
 40
0.3403752707510512
 40
0.355520634250839
 40
0.3706956335695841
 40
0.3859003401210551
 40
0.4011348462737949
 40
0.4163992706022879
 40
0.4316937636446178
 40
0.4470185142736935
 40
0.4623737568095611
 40
0.4777597790268719
 40
0.4931769312454056
 40
0.5086256367380346
 40
0.5241064037422258
 40
0.5396198394364321
 40
0.5551666663339454
 40
0.5707477416715604
 40
0.586364080531276
 40
0.6020168836526468
 40
0.6177075711868734
 40
0.633437824050514
 40
0.6492096350977394
 40
0.6650253731234738
 40
0.6808878638467063
 40
0.695150494992494
 40
0.7094210938097202
 40
0.7236977873937834
 40
0.7379796752168712
 40
0.7522657527411252
 40
0.7665548814946795
 40
0.7808457463070114
 40
0.7951367945032592
 40
0.8094261474731749
 40
0.8237114686994894
 40
0.837989760858814
 40
0.8522570428953696
 40
0.8665078147256365
 40
0.8807341258200827
 40
0.8949238563558513
 40
0.9090573054766595
 40
0.9230997606697721
 40
0.9369831999508427
 40
0.9505527771183926
 40
0.9633617656867021
 40
0.9740913218135204
 40
0.9827395485663178
 40
0.9929861456688
 40
1.0
 40
1.0
 40
1.0
 40
1.0
 10
791.9625323650316
 20
104.697504732498
 30
0.0
 10
791.9625314668508
 20
104.6976837451233
 30
0.0
 10
791.9621187867671
 20
104.7799332621766
 30
0.0
 10
791.9635591181886
 20
104.9478143603421
 30
0.0
 10
791.9671183452632
 20
105.2014975368441
 30
0.0
 10
791.9735874027551
 20
105.4596734635249
 30
0.0
 10
791.9826282596803
 20
105.7216897351495
 30
0.0
 10
791.9943961896404
 20
105.9876439406595
 30
0.0
 10
792.0089116019947
 20
106.2574303477662
 30
0.0
 10
792.026228815752
 20
106.5309961118145
 30
0.0
 10
792.046390724473
 20
106.8082725269135
 30
0.0
 10
792.069440990635
 20
107.0891935873174
 30
0.0
 10
792.0954207851167
 20
107.3736910900657
 30
0.0
 10
792.1243696822107
 20
107.6616960417538
 30
0.0
 10
792.1563254408187
 20
107.9531383721119
 30
0.0
 10
792.1913240877979
 20
108.2479471034352
 30
0.0
 10
792.2293999230092
 20
108.5460503984922
 30
0.0
 10
792.270585548375
 20
108.8473756422201
 30
0.0
 10
792.3149118935366
 20
109.1518495156775
 30
0.0
 10
792.3624082455972
 20
109.4593980736628
 30
0.0
 10
792.413102281082
 20
109.7699468232525
 30
0.0
 10
792.4670201008037
 20
110.0834208043776
 30
0.0
 10
792.5241862676753
 20
110.3997446725981
 30
0.0
 10
792.5846238477463
 20
110.7188427845914
 30
0.0
 10
792.6483544547266
 20
111.0406392868609
 30
0.0
 10
792.7153982983577
 20
111.3650582083288
 30
0.0
 10
792.7857742370397
 20
111.6920235575512
 30
0.0
 10
792.8594998352356
 20
112.0214594254835
 30
0.0
 10
792.936591426256
 20
112.3532900948479
 30
0.0
 10
793.0170641811844
 20
112.6874401574182
 30
0.0
 10
793.1009321848429
 20
113.0238346407514
 30
0.0
 10
793.1882085199003
 20
113.3623991462394
 30
0.0
 10
793.2789053604675
 20
113.7030600007217
 30
0.0
 10
793.3730340768205
 20
114.0457444244078
 30
0.0
 10
793.4706053532626
 20
114.390380718442
 30
0.0
 10
793.5716293216119
 20
114.7368984762277
 30
0.0
 10
793.6761157133906
 20
115.085228823586
 30
0.0
 10
793.7840740345544
 20
115.4353046940879
 30
0.0
 10
793.8955137675774
 20
115.7870611474794
 30
0.0
 10
794.0104446069882
 20
116.1404357412709
 30
0.0
 10
794.1288767360795
 20
116.4953689681818
 30
0.0
 10
794.2508211549062
 20
116.8518047762729
 30
0.0
 10
794.3762900719439
 20
117.2096911917743
 30
0.0
 10
794.505297378463
 20
117.5689810778259
 30
0.0
 10
794.6378592201977
 20
117.9296330471784
 30
0.0
 10
794.7739947259736
 20
118.2916126510846
 30
0.0
 10
794.9137268236852
 20
118.6548936426554
 30
0.0
 10
795.0521133635639
 20
119.0068207102645
 30
0.0
 10
795.1886695583166
 20
119.3470199584907
 30
0.0
 10
795.3229081703346
 20
119.6751072613865
 30
0.0
 10
795.4597494488902
 20
120.0033214775999
 30
0.0
 10
795.5991636955596
 20
120.3315738450376
 30
0.0
 10
795.7411221841485
 20
120.659781426633
 30
0.0
 10
795.8855935123628
 20
120.9878584808656
 30
0.0
 10
796.032543029278
 20
121.3157154525474
 30
0.0
 10
796.1819320337875
 20
121.6432575778175
 30
0.0
 10
796.333716590884
 20
121.9703828175362
 30
0.0
 10
796.4878457486373
 20
122.2969787438246
 30
0.0
 10
796.6442587644395
 20
122.6229176920718
 30
0.0
 10
796.8028806295406
 20
122.9480489303727
 30
0.0
 10
796.9636145215603
 20
123.2721854398329
 30
0.0
 10
797.1263283789356
 20
123.5950803639921
 30
0.0
 10
797.2908293642901
 20
123.9163821691662
 30
0.0
 10
797.4568110341564
 20
124.2355416626431
 30
0.0
 10
797.6237308110752
 20
124.5515962443441
 30
0.0
 10
797.7904777683267
 20
124.8625826187413
 30
0.0
 10
797.9542123648081
 20
125.1634845794283
 30
0.0
 10
798.106822911857
 20
125.4400291301434
 30
0.0
 10
798.2404889490269
 20
125.679262146366
 30
0.0
 10
798.3645024957659
 20
125.8989386081761
 30
0.0
 10
798.4737339640973
 20
126.0906507196255
 30
0.0
 10
798.547109485808
 20
126.2180284861009
 30
0.0
 10
798.5769259261679
 20
126.269788957287
 30
0.0
  0
LINE
  5
12B
330
1F
100
AcDbEntity
  8
0
  6
Continuous
 62
     7
370
    30
100
AcDbLine
 10
791.9625296698
 20
97.6752430412
 30
0.0
 11
791.9625296698
 21
104.6974940234
 31
0.0
  0
LINE
  5
12C
330
1F
100
AcDbEntity
  8
0
  6
Continuous
 62
     7
370
    30
100
AcDbLine
 10
763.9625296698
 20
104.6974940234
 30
0.0
 11
763.9625296698
 21
97.6752430412
 31
0.0
  0
LINE
  5
12D
330
1F
100
AcDbEntity
  8
0
  6
Continuous
 62
     7
370
    30
100
AcDbLine
 10
935.5823333699
 20
245.3330128236
 30
0.0
 11
799.95447657
 21
167.0367176764
 31
0.0
  0
LINE
  5
12E
330
1F
100
AcDbEntity
  8
0
  6
Continuous
 62
     7
370
    30
100
AcDbLine
 10
813.9533388269
 20
142.7873495298
 30
0.0
 11
949.5811956268
 21
221.0836446769
 31
0.0
  0
SPLINE
  5
12F
330
1F
100
AcDbEntity
  8
0
  6
Continuous
 62
     7
370
    30
100
AcDbSpline
210
0.0
220
0.0
230
1.0
 70
     8
 71
     3
 72
    88
 73
    84
 74
     0
 42
0.000000001
 43
0.00000001
 40
0.0
 40
0.0
 40
0.0
 40
0.0
 40
0.0064295971376052
 40
0.0187486323805772
 40
0.0310917729310704
 40
0.0434612943858742
 40
0.0558593417801683
 40
0.0682878911934303
 40
0.0807487143005261
 40
0.0932433468104923
 40
0.1057730617694146
 40
0.1183388485595507
 40
0.1309413982676023
 40
0.1435810958698112
 40
0.1562580194466539
 40
0.1689719463738112
 40
0.1817223661728666
 40
0.1945084994499527
 40
0.2073293221234278
 40
0.220183593970247
 40
0.2330698903809617
 40
0.2459866361681098
 40
0.2589321402635886
 40
0.2719046302088013
 40
0.2849022854586211
 40
0.2979232686703477
 40
0.310965754329046
 40
0.3240279542560041
 40
0.3371081397220265
 40
0.3502046600690168
 40
0.3633159578875831
 40
0.3764405809223136
 40
0.3895771909666367
 40
0.402724570078821
 40
0.4158816244854011
 40
0.4290473865562882
 40
0.4422210152368498
 40
0.4554017953080561
 40
0.4685891358238787
 40
0.4817825680470286
 40
0.49498165167427
 40
0.5081861266658865
 40
0.5213958932513791
 40
0.5346109657358752
 40
0.5478314709751286
 40
0.5610576487384918
 40
0.5742898532872994
 40
0.5875285563811717
 40
0.6007743519757146
 40
0.6140279629265457
 40
0.6272902500804242
 40
0.6405622242314601
 40
0.6538450615541946
 40
0.6671401233010396
 40
0.6804489807981988
 40
0.6924007297089421
 40
0.7057037871206989
 40
0.7176493884841796
 40
0.7295928970806755
 40
0.7415331877363837
 40
0.7534700656358974
 40
0.7654032902981632
 40
0.7773325634644528
 40
0.7892575121114879
 40
0.8011776655539851
 40
0.8130924239702777
 40
0.8250010142173769
 40
0.8369024263698599
 40
0.8487953202210943
 40
0.8606778835060467
 40
0.8725476097173364
 40
0.8844009363024576
 40
0.896232628226811
 40
0.9080346689932308
 40
0.9197941279733661
 40
0.9314887002258879
 40
0.9430763035345592
 40
0.9544669220074458
 40
0.9654276169939427
 40
0.9755491832641846
 40
0.9827091089038175
 40
0.9904000398429404
 40
1.0
 40
1.0
 40
1.0
 40
1.0
 10
763.9639197491763
 20
97.59093412447817
 30
0.0
 10
763.9642870963074
 20
97.5625775867916
 30
0.0
 10
763.9653582763785
 20
97.47989024428891
 30
0.0
 10
763.9730046377495
 20
97.34284189264497
 30
0.0
 10
763.9864897960804
 20
97.17977474339875
 30
0.0
 10
764.0056825935991
 20
97.016618513107
 30
0.0
 10
764.0302612493268
 20
96.85342721126541
 30
0.0
 10
764.0603420850196
 20
96.69026057565355
 30
0.0
 10
764.0959222208364
 20
96.52717970624744
 30
0.0
 10
764.1370289087599
 20
96.3642484963721
 30
0.0
 10
764.1836788220076
 20
96.20153343701595
 30
0.0
 10
764.2358884200368
 20
96.03910377985494
 30
0.0
 10
764.2936705603342
 20
95.87703151693894
 30
0.0
 10
764.3570348159272
 20
95.71539131805912
 30
0.0
 10
764.425986822051
 20
95.55426038681917
 30
0.0
 10
764.5005279302812
 20
95.39371824878043
 30
0.0
 10
764.580654844328
 20
95.23384647490377
 30
0.0
 10
764.6663593405916
 20
95.07472834988947
 30
0.0
 10
764.7576280575272
 20
94.91644849637478
 30
0.0
 10
764.8544423656907
 20
94.75909246794403
 30
0.0
 10
764.9567783183143
 20
94.60274632472643
 30
0.0
 10
765.0646066810041
 20
94.44749620555507
 30
0.0
 10
765.1778930353328
 20
94.2934279099604
 30
0.0
 10
765.2965979485804
 20
94.14062650194529
 30
0.0
 10
765.4206771998255
 20
93.98917594558343
 30
0.0
 10
765.5500820513332
 20
93.83915878022047
 30
0.0
 10
765.6847595536699
 20
93.69065584061495
 30
0.0
 10
765.8246528731372
 20
93.54374602494327
 30
0.0
 10
765.9697016308876
 20
93.39850611132967
 30
0.0
 10
766.1198422442541
 20
93.25501062162219
 30
0.0
 10
766.2750082623472
 20
93.11333172952493
 30
0.0
 10
766.4351306896004
 20
92.9735392090379
 30
0.0
 10
766.600138292624
 20
92.83570041835773
 30
0.0
 10
766.769957887333
 20
92.69988031399562
 30
0.0
 10
766.9445146047713
 20
92.56614148976567
 30
0.0
 10
767.1237321353215
 20
92.43454423547392
 30
0.0
 10
767.3075329520591
 20
92.30514661048575
 30
0.0
 10
767.4958385148749
 20
92.17800452783135
 30
0.0
 10
767.6885694576388
 20
92.0531718450876
 30
0.0
 10
767.8856453056359
 20
91.93070074196089
 30
0.0
 10
768.0869849023576
 20
91.81064159486938
 30
0.0
 10
768.2925067808603
 20
91.69304292782535
 30
0.0
 10
768.5021298219912
 20
91.57795125247856
 30
0.0
 10
768.7157731118748
 20
91.46541136899425
 30
0.0
 10
768.9333558627733
 20
91.35546658791871
 30
0.0
 10
769.1547975706759
 20
91.24815881079523
 30
0.0
 10
769.3800181921825
 20
91.1435286030387
 30
0.0
 10
769.6089383413827
 20
91.04161526204163
 30
0.0
 10
769.8414795137486
 20
90.9424568807701
 30
0.0
 10
770.0775643420575
 20
90.84609040817062
 30
0.0
 10
770.3171169031265
 20
90.75255170423283
 30
0.0
 10
770.5600630507685
 20
90.66187560117126
 30
0.0
 10
770.8063309233904
 20
90.57409593189159
 30
0.0
 10
771.0558511430455
 20
90.48924567543467
 30
0.0
 10
771.299870650637
 20
90.41017196735623
 30
0.0
 10
771.5465252187208
 20
90.33390899796245
 30
0.0
 10
771.7868718055637
 20
90.26309211472174
 30
0.0
 10
772.0294756606379
 20
90.19506763249532
 30
0.0
 10
772.2652192065423
 20
90.13208692905017
 30
0.0
 10
772.5028528966548
 20
90.07169208293291
 30
0.0
 10
772.7422843718066
 20
90.0139030631684
 30
0.0
 10
772.9834257928718
 20
89.95873742436328
 30
0.0
 10
773.2261874852771
 20
89.9062119176261
 30
0.0
 10
773.4704775240272
 20
89.85634250313399
 30
0.0
 10
773.7162012655418
 20
89.8091443378532
 30
0.0
 10
773.96326065979
 20
89.7646317713362
 30
0.0
 10
774.2115532754672
 20
89.72281834125465
 30
0.0
 10
774.4609708752531
 20
89.68371677223844
 30
0.0
 10
774.7113972861613
 20
89.64733897946722
 30
0.0
 10
774.9627051225027
 20
89.61369608092126
 30
0.0
 10
775.214750569418
 20
89.5827984259214
 30
0.0
 10
775.4673647351267
 20
89.55465565385498
 30
0.0
 10
775.7203385921266
 20
89.52927681936443
 30
0.0
 10
775.9733951164837
 20
89.50667064354728
 30
0.0
 10
776.2261336363475
 20
89.486846135894
 30
0.0
 10
776.4779069961929
 20
89.46981391758673
 30
0.0
 10
776.7275105542628
 20
89.4555908122717
 30
0.0
 10
776.9722168284748
 20
89.44421256346405
 30
0.0
 10
777.2066397508856
 20
89.43570025630984
 30
0.0
 10
777.410700238022
 20
89.43023527681379
 30
0.0
 10
777.5912257889111
 20
89.4268411426272
 30
0.0
 10
777.7680356252934
 20
89.42461052093034
 30
0.0
 10
777.8930958292369
 20
89.42430164551298
 30
0.0
 10
777.9625296697726
 20
89.42413015685557
 30
0.0
  0
SPLINE
  5
130
330
1F
100
AcDbEntity
  8
0
  6
Continuous
 62
     7
370
    30
100
AcDbSpline
210
0.0
220
0.0
230
1.0
 70
     8
 71
     3
 72
    92
 73
    88
 74
     0
 42
0.000000001
 43
0.00000001
 40
0.0
 40
0.0
 40
0.0
 40
0.0
 40
0.0132843969761528
 40
0.0185537146177116
 40
0.0273176553892424
 40
0.0364049964247351
 40
0.0461470933144554
 40
0.0563129588131326
 40
0.0668099772373842
 40
0.0775641184738971
 40
0.0885226869931139
 40
0.0996466269822419
 40
0.1109064589264652
 40
0.1222795027974759
 40
0.1337480097403444
 40
0.1452978750160977
 40
0.1569177343644026
 40
0.1685983177292706
 40
0.1803319789906444
 40
0.1921123482317952
 40
0.2039340707707704
 40
0.2157926086020124
 40
0.2276840874027961
 40
0.2396051772581858
 40
0.2515529986633657
 40
0.2635250476931825
 40
0.2755191358700156
 40
0.2875333414130737
 40
0.2995659693860566
 40
0.3116155188597091
 40
0.3236806556472679
 40
0.3357601895014931
 40
0.3478530549050724
 40
0.3599582947706346
 40
0.3720750465120531
 40
0.3842025300528494
 40
0.3963400374254089
 40
0.4084869236791833
 40
0.4206425988677845
 40
0.4328065209273662
 40
0.4449781892917946
 40
0.4571571391150824
 40
0.4693429359981909
 40
0.4815351711322083
 40
0.4937334567874356
 40
0.5059374220941897
 40
0.5181467090700445
 40
0.5303609688673516
 40
0.5425798582180166
 40
0.5548030152367922
 40
0.5670300030015405
 40
0.5792604626837937
 40
0.5914940265416194
 40
0.6037303171394398
 40
0.615968945425385
 40
0.6282095093294006
 40
0.6404515929543897
 40
0.6526947664783185
 40
0.6649385869003006
 40
0.6771825997668164
 40
0.6894263420304012
 40
0.7016693461806724
 40
0.7139111457890848
 40
0.7261512825840498
 40
0.7383893151465133
 40
0.7506248292722972
 40
0.7628574499948861
 40
0.7750868551893493
 40
0.7873127906050614
 40
0.7995350860793047
 40
0.8117536725954246
 40
0.8239685997542169
 40
0.8361800531368642
 40
0.8483883709667505
 40
0.8605940594193128
 40
0.872797805895956
 40
0.885000489581012
 40
0.8972031886242372
 40
0.909407183359707
 40
0.9216139550615536
 40
0.9338251798600669
 40
0.946042717582584
 40
0.9582685954467879
 40
0.9705049866946218
 40
0.982754184432499
 40
0.9950185711064677
 40
1.0
 40
1.0
 40
1.0
 40
1.0
 10
777.9625296697726
 20
89.42413015685557
 30
0.0
 10
778.05857310025
 20
89.4244442096468
 30
0.0
 10
778.1927126026437
 20
89.4248828329335
 30
0.0
 10
778.3901501999646
 20
89.42779849048321
 30
0.0
 10
778.5572033225692
 20
89.43124748491415
 30
0.0
 10
778.7564559701303
 20
89.43700619628476
 30
0.0
 10
778.9656598279932
 20
89.44483225254774
 30
0.0
 10
779.18479213293
 20
89.4550174199478
 30
0.0
 10
779.4109012040866
 20
89.4676574496345
 30
0.0
 10
779.6423187451716
 20
89.48284505180759
 30
0.0
 10
779.8777612030152
 20
89.50064516199652
 30
0.0
 10
780.1162650080242
 20
89.52110705599608
 30
0.0
 10
780.357082098854
 20
89.54426763544069
 30
0.0
 10
780.5996173591656
 20
89.57015448581349
 30
0.0
 10
780.8433860434857
 20
89.59878785515404
 30
0.0
 10
781.0879846768353
 20
89.63018210435875
 30
0.0
 10
781.3330707421978
 20
89.66434675745846
 30
0.0
 10
781.5783482380972
 20
89.70128728710691
 30
0.0
 10
781.8235572291262
 20
89.74100571059837
 30
0.0
 10
782.0684661622054
 20
89.78350105077423
 30
0.0
 10
782.3128661317851
 20
89.82876969807546
 30
0.0
 10
782.5565665407717
 20
89.87680569935358
 30
0.0
 10
782.799391776101
 20
89.92760099156483
 30
0.0
 10
783.0411786323282
 20
89.98114559346165
 30
0.0
 10
783.281774293785
 20
90.03742776487775
 30
0.0
 10
783.5210347388722
 20
90.09643414073595
 30
0.0
 10
783.7588234668744
 20
90.15814984512699
 30
0.0
 10
783.9950104737222
 20
90.22255858952433
 30
0.0
 10
784.2294714216941
 20
90.28964275824097
 30
0.0
 10
784.4620869615002
 20
90.35938348352968
 30
0.0
 10
784.6927421750298
 20
90.43176071218342
 30
0.0
 10
784.9213261143342
 20
90.50675326508615
 30
0.0
 10
785.1477314178372
 20
90.58433889083966
 30
0.0
 10
785.3718539888972
 20
90.66449431434465
 30
0.0
 10
785.5935927249385
 20
90.74719528100805
 30
0.0
 10
785.812849287801
 20
90.83241659709287
 30
0.0
 10
786.0295279078043
 20
90.92013216659083
 30
0.0
 10
786.2435352154741
 20
91.01031502488865
 30
0.0
 10
786.4547800960429
 20
91.10293736941041
 30
0.0
 10
786.6631735627333
 20
91.19797058733565
 30
0.0
 10
786.8686286455782
 20
91.29538528043254
 30
0.0
 10
787.0710602931251
 20
91.39515128698619
 30
0.0
 10
787.2703852848649
 20
91.4972377007571
 30
0.0
 10
787.4665221526338
 20
91.6016128868685
 30
0.0
 10
787.6593911095907
 20
91.70824449449141
 30
0.0
 10
787.8489139856541
 20
91.81709946617542
 30
0.0
 10
788.0350141685807
 20
91.92814404367483
 30
0.0
 10
788.2176165500538
 20
92.04134377011172
 30
0.0
 10
788.3966473746418
 20
92.15666342279702
 30
0.0
 10
788.5720338521282
 20
92.27406676409028
 30
0.0
 10
788.743704554816
 20
92.39351677050917
 30
0.0
 10
788.9115894730742
 20
92.51497567997363
 30
0.0
 10
789.0756202990863
 20
92.63840523010292
 30
0.0
 10
789.2357300085753
 20
92.76376637253279
 30
0.0
 10
789.3918528512016
 20
92.89101925533858
 30
0.0
 10
789.543924340628
 20
93.02012319867146
 30
0.0
 10
789.6918812520679
 20
93.15103666956529
 30
0.0
 10
789.8356616277866
 20
93.28371725697573
 30
0.0
 10
789.9752047910455
 20
93.41812164841848
 30
0.0
 10
790.1104513688424
 20
93.55420560983305
 30
0.0
 10
790.2413433235414
 20
93.6919239704689
 30
0.0
 10
790.3678239931887
 20
93.8312306147932
 30
0.0
 10
790.4898381398924
 20
93.97207848348805
 30
0.0
 10
790.607332005175
 20
94.11441958564227
 30
0.0
 10
790.7202533706576
 20
94.25820502411908
 30
0.0
 10
790.8285516218526
 20
94.40338503585238
 30
0.0
 10
790.9321778122427
 20
94.54990904840724
 30
0.0
 10
791.031084724269
 20
94.69772575358765
 30
0.0
 10
791.1252269233692
 20
94.84678319811579
 30
0.0
 10
791.2145608008763
 20
94.99702889053648
 30
0.0
 10
791.2990446014405
 20
95.14840992248122
 30
0.0
 10
791.3786384307934
 20
95.3008731013525
 30
0.0
 10
791.4533042398909
 20
95.45436509040519
 30
0.0
 10
791.5230057828784
 20
95.60883255118307
 30
0.0
 10
791.587708544752
 20
95.76422228242367
 30
0.0
 10
791.6473796455866
 20
95.9204813488396
 30
0.0
 10
791.7019876935844
 20
96.07755719311677
 30
0.0
 10
791.7515026958296
 20
96.23539772343872
 30
0.0
 10
791.7958956338042
 20
96.39395137315546
 30
0.0
 10
791.8351391920352
 20
96.55316711527145
 30
0.0
 10
791.8692041129793
 20
96.71299447047573
 30
0.0
 10
791.8980718522479
 20
96.8733833436751
 30
0.0
 10
791.921686361968
 20
97.03428429196364
 30
0.0
 10
791.9401333451187
 20
97.19564696606439
 30
0.0
 10
791.9529695699243
 20
97.35742516582182
 30
0.0
 10
791.9599913650875
 20
97.48738853465
 30
0.0
 10
791.960825229461
 20
97.56341662896625
 30
0.0
 10
791.9610660899797
 20
97.58537723409188
 30
0.0
  0
SPLINE
  5
131
330
1F
100
AcDbEntity
  8
0
  6
Continuous
 62
     7
370
    30
100
AcDbSpline
210
0.0
220
0.0
230
1.0
 70
     8
 71
     3
 72
   181
 73
   177
 74
     0
 42
0.000000001
 43
0.00000001
 40
0.0
 40
0.0
 40
0.0
 40
0.0
 40
0.0047184455540198
 40
0.0103765969755955
 40
0.0160352215616415
 40
0.0216944658879834
 40
0.0273544746482372
 40
0.0330153902327773
 40
0.0386773523189842
 40
0.0443404974748697
 40
0.0500049587778462
 40
0.055670865450357
 40
0.0613383425142202
 40
0.0670075104649095
 40
0.0726784849674873
 40
0.0783513765752594
 40
0.0840262904724343
 40
0.0897033262415407
 40
0.0953825776566402
 40
0.101064132502907
 40
0.1067480724230172
 40
0.1124344727906847
 40
0.1181234026115019
 40
0.1238149244510696
 40
0.1295090943902847
 40
0.1352059620071429
 40
0.1409055703849287
 40
0.1466079561458683
 40
0.1523131495094573
 40
0.1580211743745887
 40
0.1637320484242943
 40
0.1694457832519231
 40
0.1751623845075243
 40
0.1808818520628981
 40
0.1866041801940117
 40
0.1923293577789645
 40
0.198057368510272
 40
0.2037881911196341
 40
0.2095217996133271
 40
0.2152581635171495
 40
0.2209972481286274
 40
0.2267390147753708
 40
0.2324834210776014
 40
0.2382304212136831
 40
0.2439799661867054
 40
0.2497320040912346
 40
0.2554864803783494
 40
0.2612433381181965
 40
0.2670025182583423
 40
0.2727639598774679
 40
0.2785276004327524
 40
0.2842933760005795
 40
0.2900612215094527
 40
0.2958310709646383
 40
0.30160285766362
 40
0.3073765144023552
 40
0.3131519736714454
 40
0.3189291678420825
 40
0.3247080293416981
 40
0.3304884908189473
 40
0.3362704852979628
 40
0.3420539463220628
 40
0.3478388080867529
 40
0.353625005562362
 40
0.3594124746062077
 40
0.3652011520648386
 40
0.3709909758663674
 40
0.3767818851033665
 40
0.3825738201064984
 40
0.388366722509386
 40
0.3941605353050347
 40
0.3999552028942175
 40
0.4057506711261717
 40
0.4115468873322579
 40
0.4173438003525265
 40
0.4231413605561888
 40
0.428939519855994
 40
0.4347382317170501
 40
0.4405374511606043
 40
0.4463371347630489
 40
0.4521372406504688
 40
0.4579377284893404
 40
0.4637385594735794
 40
0.4695396963083741
 40
0.4753411031908314
 40
0.4811427457883525
 40
0.4869445912144015
 40
0.4927466080023346
 40
0.4985487660774308
 40
0.5043510367274083
 40
0.5101533925715739
 40
0.5159558075289572
 40
0.5217582567855333
 40
0.5275607136333883
 40
0.533363151614982
 40
0.5391655498960757
 40
0.544967888761143
 40
0.5507701495788843
 40
0.556572314767568
 40
0.5623743677604673
 40
0.5681762929717653
 40
0.573978075762608
 40
0.5797797024076216
 40
0.5855811600620248
 40
0.5913824367291113
 40
0.5971835212285381
 40
0.6029844031649781
 40
0.6087850728977124
 40
0.6145855215107706
 40
0.620385740783758
 40
0.6261857231636687
 40
0.6319854617371604
 40
0.6377849502037999
 40
0.6435841828499941
 40
0.6493831545238112
 40
0.655181860610443
 40
0.6609802970085427
 40
0.6667784601074003
 40
0.6725763467647206
 40
0.6783739542853283
 40
0.6841712804004999
 40
0.6899683232481737
 40
0.6957650813538112
 40
0.7015615536118798
 40
0.707357739268294
 40
0.7131536379032497
 40
0.718949249414965
 40
0.7247445740039146
 40
0.7305396121577905
 40
0.7363343646370021
 40
0.7421288324608978
 40
0.7479230168944706
 40
0.7537169194356241
 40
0.7595105418030254
 40
0.7653038859244962
 40
0.77109695392594
 40
0.7768897481206225
 40
0.7826822709991212
 40
0.7884745252195936
 40
0.7942665135985939
 40
0.800058239102185
 40
0.8058497048376461
 40
0.8116409140454226
 40
0.8174318700914694
 40
0.823222576460101
 40
0.8290130367470231
 40
0.8348032546527967
 40
0.8405932339766569
 40
0.8463829786105003
 40
0.8521724925333791
 40
0.8579617798060521
 40
0.8637508445660025
 40
0.8695396910226622
 40
0.8753283234527929
 40
0.8811167461962778
 40
0.8869049636519524
 40
0.8926929802738659
 40
0.8984808005675857
 40
0.9042684290867277
 40
0.9100558704297923
 40
0.915843129237089
 40
0.9216302101877831
 40
0.9274171179972389
 40
0.933203857414474
 40
0.9389904332197054
 40
0.9447768502221383
 40
0.9505631132578408
 40
0.9563492271876683
 40
0.9621351968955398
 40
0.9679210272865331
 40
0.9737067232854302
 40
0.9794922898349857
 40
0.9852777318946414
 40
0.9910630544391318
 40
0.9968482624573036
 40
1.0
 40
1.0
 40
1.0
 40
1.0
 10
901.1345511946896
 20
307.1130782698846
 30
0.0
 10
901.0407173252038
 20
307.0541377841303
 30
0.0
 10
900.8343620255251
 20
306.9245184721732
 30
0.0
 10
900.5188194013236
 20
306.7186780341463
 30
0.0
 10
900.1872803085164
 20
306.4966732391703
 30
0.0
 10
899.8586158249342
 20
306.2699620139257
 30
0.0
 10
899.5327461870085
 20
306.0387205042567
 30
0.0
 10
899.2097164214297
 20
305.802916824354
 30
0.0
 10
898.8895381345478
 20
305.5625750100436
 30
0.0
 10
898.5722319244487
 20
305.3177042991311
 30
0.0
 10
898.2578160238845
 20
305.0683181060683
 30
0.0
 10
897.94630935231
 20
304.8144289581876
 30
0.0
 10
897.6377307041698
 20
304.5560498754519
 30
0.0
 10
897.3320989709871
 20
304.2931940236291
 30
0.0
 10
897.0294330845188
 20
304.0258748305962
 30
0.0
 10
896.7297520328397
 20
303.7541059786635
 30
0.0
 10
896.4330748550459
 20
303.4779014301295
 30
0.0
 10
896.1394206398783
 20
303.197275443757
 30
0.0
 10
895.8488085215149
 20
302.9122425933477
 30
0.0
 10
895.5612576743883
 20
302.6228177852569
 30
0.0
 10
895.2767873065875
 20
302.3290162755405
 30
0.0
 10
894.9954166520331
 20
302.0308536864008
 30
0.0
 10
894.7171649614559
 20
301.728346021879
 30
0.0
 10
894.442051492256
 20
301.421509682675
 30
0.0
 10
894.17009549733
 20
301.1103614800073
 30
0.0
 10
893.9013162129414
 20
300.794918648425
 30
0.0
 10
893.6357328457397
 20
300.4751988574985
 30
0.0
 10
893.3733645590095
 20
300.15122022232
 30
0.0
 10
893.1142304582638
 20
299.8230013127617
 30
0.0
 10
892.8583495762742
 20
299.4905611614485
 30
0.0
 10
892.60574085765
 20
299.1539192704093
 30
0.0
 10
892.3564231430672
 20
298.8130956163895
 30
0.0
 10
892.1104151532552
 20
298.4681106548104
 30
0.0
 10
891.8677354728427
 20
298.1189853223776
 30
0.0
 10
891.6284025341704
 20
297.765741038351
 30
0.0
 10
891.3924346011627
 20
297.4083997044949
 30
0.0
 10
891.1598497533593
 20
297.046983703739
 30
0.0
 10
890.9306658701961
 20
296.6815158975953
 30
0.0
 10
890.7049006156203
 20
296.3120196223705
 30
0.0
 10
890.4825714231235
 20
295.9385186842421
 30
0.0
 10
890.2636954812608
 20
295.5610373532459
 30
0.0
 10
890.0482897197296
 20
295.1796003562579
 30
0.0
 10
889.8363707960624
 20
294.7942328690327
 30
0.0
 10
889.6279550829933
 20
294.4049605073848
 30
0.0
 10
889.4230586565355
 20
294.011809317586
 30
0.0
 10
889.2216972848177
 20
293.6148057660694
 30
0.0
 10
889.0238864176989
 20
293.2139767285148
 30
0.0
 10
888.8296411771968
 20
292.8093494784114
 30
0.0
 10
888.6389763487352
 20
292.4009516751702
 30
0.0
 10
888.4519063732296
 20
291.9888113518793
 30
0.0
 10
888.2684453400038
 20
291.5729569027756
 30
0.0
 10
888.0886069805443
 20
291.1534170705176
 30
0.0
 10
887.9124046630743
 20
290.7302209333285
 30
0.0
 10
887.7398513879397
 20
290.3033978920888
 30
0.0
 10
887.5709597837829
 20
289.8729776574387
 30
0.0
 10
887.4057421044838
 20
289.4389902369603
 30
0.0
 10
887.2442102268388
 20
289.0014659224937
 30
0.0
 10
887.0863756489474
 20
288.5604352776451
 30
0.0
 10
886.9322494892726
 20
288.1159291255331
 30
0.0
 10
886.7818424863394
 20
287.6679785368169
 30
0.0
 10
886.6351649990326
 20
287.2166148180482
 30
0.0
 10
886.4922270074559
 20
286.7618695003792
 30
0.0
 10
886.3530381143106
 20
286.303774328654
 30
0.0
 10
886.2176075467546
 20
285.8423612509104
 30
0.0
 10
886.0859441586992
 20
285.3776624083105
 30
0.0
 10
885.9580564335054
 20
284.9097101255171
 30
0.0
 10
885.8339524870358
 20
284.4385369015211
 30
0.0
 10
885.7136400710278
 20
283.9641754009357
 30
0.0
 10
885.5971265767434
 20
283.4866584457542
 30
0.0
 10
885.4844190388662
 20
283.0060190075767
 30
0.0
 10
885.3755241396021
 20
282.522290200297
 30
0.0
 10
885.2704482129565
 20
282.0355052732519
 30
0.0
 10
885.1691972491495
 20
281.5456976048144
 30
0.0
 10
885.0717768991461
 20
281.0529006964337
 30
0.0
 10
884.9781924792642
 20
280.5571481670968
 30
0.0
 10
884.8884489758409
 20
280.0584737482102
 30
0.0
 10
884.8025510499285
 20
279.556911278875
 30
0.0
 10
884.7205030419993
 20
279.052494701548
 30
0.0
 10
884.6423089766358
 20
278.5452580580657
 30
0.0
 10
884.5679725671914
 20
278.0352354860182
 30
0.0
 10
884.4974972204001
 20
277.5224612154519
 30
0.0
 10
884.4308860409236
 20
277.006969565884
 30
0.0
 10
884.3681418358191
 20
276.4887949436034
 30
0.0
 10
884.3092671189183
 20
275.9679718392505
 30
0.0
 10
884.2542641151061
 20
275.4445348256478
 30
0.0
 10
884.2031347644893
 20
274.9185185558682
 30
0.0
 10
884.1558807264502
 20
274.389957761517
 30
0.0
 10
884.112503383576
 20
273.8588872512178
 30
0.0
 10
884.0730038454618
 20
273.3253419092773
 30
0.0
 10
884.0373829523812
 20
272.7893566945179
 30
0.0
 10
884.0056412788222
 20
272.2509666392574
 30
0.0
 10
883.9777791368886
 20
271.7102068484251
 30
0.0
 10
883.9537965838708
 20
271.167112596364
 30
0.0
 10
883.933693422636
 20
270.6217193581801
 30
0.0
 10
883.9174691954655
 20
270.0740626717464
 30
0.0
 10
883.905123186218
 20
269.524178037748
 30
0.0
 10
883.8966544271989
 20
268.9721008868102
 30
0.0
 10
883.8920617068735
 20
268.4178667192145
 30
0.0
 10
883.8913435722897
 20
267.8615111046111
 30
0.0
 10
883.8944983313747
 20
267.3030696817661
 30
0.0
 10
883.9015240551086
 20
266.7425781583329
 30
0.0
 10
883.912418579581
 20
266.1800723106363
 30
0.0
 10
883.9271795079319
 20
265.6155879834648
 30
0.0
 10
883.9458042121827
 20
265.0491610898632
 30
0.0
 10
883.968289834962
 20
264.480827610914
 30
0.0
 10
883.9946332911281
 20
263.9106235955138
 30
0.0
 10
884.0248312692967
 20
263.338585160125
 30
0.0
 10
884.0588802332736
 20
262.7647484885107
 30
0.0
 10
884.096776423402
 20
262.1891498314403
 30
0.0
 10
884.1385158578236
 20
261.6118255063634
 30
0.0
 10
884.1840943336624
 20
261.0328118970533
 30
0.0
 10
884.2335074281339
 20
260.4521454532086
 30
0.0
 10
884.2867504995821
 20
259.8698626900228
 30
0.0
 10
884.3438186884529
 20
259.2860001877051
 30
0.0
 10
884.4047069182039
 20
258.7005945909614
 30
0.0
 10
884.469409896157
 20
258.1136826084298
 30
0.0
 10
884.5379221142969
 20
257.5253010120681
 30
0.0
 10
884.6102378500201
 20
256.9354866364947
 30
0.0
 10
884.6863511668379
 20
256.3442763782799
 30
0.0
 10
884.7662559150349
 20
255.7517071951918
 30
0.0
 10
884.8499457322905
 20
255.157816105388
 30
0.0
 10
884.9374140442636
 20
254.5626401865592
 30
0.0
 10
885.028654065145
 20
253.9662165750248
 30
0.0
 10
885.1236587981798
 20
253.3685824647754
 30
0.0
 10
885.2224210361633
 20
252.7697751064714
 30
0.0
 10
885.3249333619142
 20
252.169831806384
 30
0.0
 10
885.431188148726
 20
251.5687899252966
 30
0.0
 10
885.5411775607996
 20
250.9666868773514
 30
0.0
 10
885.6548935536606
 20
250.3635601288536
 30
0.0
 10
885.7723278745625
 20
249.759447197025
 30
0.0
 10
885.89347206288
 20
249.1543856487129
 30
0.0
 10
886.0183174504908
 20
248.5484130990544
 30
0.0
 10
886.1468551621515
 20
247.9415672100977
 30
0.0
 10
886.2790761158675
 20
247.3338856893797
 30
0.0
 10
886.41497102326
 20
246.7254062884588
 30
0.0
 10
886.554530389931
 20
246.1161668014099
 30
0.0
 10
886.6977445158268
 20
245.5062050632778
 30
0.0
 10
886.8446034956046
 20
244.8955589484941
 30
0.0
 10
886.9950972189998
 20
244.2842663692511
 30
0.0
 10
887.1492153711989
 20
243.6723652738456
 30
0.0
 10
887.306947433216
 20
243.059893644981
 30
0.0
 10
887.4682826822775
 20
242.4468894980387
 30
0.0
 10
887.6332101922117
 20
241.8333908793154
 30
0.0
 10
887.8017188338492
 20
241.2194358642276
 30
0.0
 10
887.973797275432
 20
240.6050625554855
 30
0.0
 10
888.1494339830315
 20
239.9903090812363
 30
0.0
 10
888.3286172209799
 20
239.375213593178
 30
0.0
 10
888.5113350523116
 20
238.759814264648
 30
0.0
 10
888.6975753392181
 20
238.1441492886811
 30
0.0
 10
888.8873257435158
 20
237.5282568760468
 30
0.0
 10
889.0805737271269
 20
236.9121752532579
 30
0.0
 10
889.2773065525764
 20
236.2959426605574
 30
0.0
 10
889.4775112835022
 20
235.6795973498816
 30
0.0
 10
889.681174785182
 20
235.0631775828018
 30
0.0
 10
889.8882837250741
 20
234.4467216284492
 30
0.0
 10
890.0988245733772
 20
233.8302677614134
 30
0.0
 10
890.3127836036031
 20
233.2138542596281
 30
0.0
 10
890.5301468931699
 20
232.5975194022359
 30
0.0
 10
890.7509003240084
 20
231.9813014674386
 30
0.0
 10
890.975029583192
 20
231.3652387303297
 30
0.0
 10
891.2025201635685
 20
230.7493694607101
 30
0.0
 10
891.4333573644626
 20
230.1337319209041
 30
0.0
 10
891.6675262921982
 20
229.5183643635108
 30
0.0
 10
891.9050118613842
 20
228.9033050293282
 30
0.0
 10
892.1457987934307
 20
228.288592144573
 30
0.0
 10
892.3898716254922
 20
227.6742639206756
 30
0.0
 10
892.6372146805815
 20
227.0603585444194
 30
0.0
 10
892.887812182677
 20
226.446914204066
 30
0.0
 10
893.1416478308183
 20
225.8339689811341
 30
0.0
 10
893.3987063922946
 20
225.22156124352
 30
0.0
 10
893.6589677608415
 20
224.6097281675917
 30
0.0
 10
893.9224291349077
 20
223.9985112428068
 30
0.0
 10
894.1890222540063
 20
223.387935718013
 30
0.0
 10
894.458922271086
 20
222.7780872955698
 30
0.0
 10
894.6900529034483
 20
222.2612688304525
 30
0.0
 10
894.8324401973409
 20
221.9480497025549
 30
0.0
 10
894.8826550472253
 20
221.8375886420324
 30
0.0
  0
SPLINE
  5
132
330
1F
100
AcDbEntity
  8
0
  6
Continuous
 62
     7
370
    30
100
AcDbSpline
210
0.0
220
0.0
230
1.0
 70
     8
 71
     3
 72
   181
 73
   177
 74
     0
 42
0.000000001
 43
0.00000001
 40
0.0
 40
0.0
 40
0.0
 40
0.0
 40
0.0042104791562772
 40
0.0099958431533874
 40
0.0157813197536497
 40
0.021566913989875
 40
0.0273526308837915
 40
0.0331384754448951
 40
0.0389244526694225
 40
0.0447105675389298
 40
0.0504968250190461
 40
0.0562832300579597
 40
0.0620697875849257
 40
0.0678565025085504
 40
0.0736433797150353
 40
0.0794304240662824
 40
0.0852176403979192
 40
0.0910050335170261
 40
0.0967926082000023
 40
0.1025803691899855
 40
0.1083683211943623
 40
0.1141564688819454
 40
0.119944816880065
 40
0.1257333697715136
 40
0.1315221320911974
 40
0.1373111083226779
 40
0.143100302894544
 40
0.1488897201763381
 40
0.1546793644746481
 40
0.1604692400286178
 40
0.1662593510053849
 40
0.1720497014952277
 40
0.1778402955063824
 40
0.183631136959748
 40
0.1894222296831364
 40
0.1952135774051828
 40
0.2010051837492369
 40
0.206797052226575
 40
0.2125891862293776
 40
0.2183815890235694
 40
0.2241742637409121
 40
0.2299672133710387
 40
0.2357604407528465
 40
0.2415539485656808
 40
0.2473477393198806
 40
0.2531418153470241
 40
0.2589361787896884
 40
0.2647308315905864
 40
0.2705257754814325
 40
0.2763210119710852
 40
0.2821165423332506
 40
0.2879123675936642
 40
0.2937084885165433
 40
0.2995049055906543
 40
0.305301619014661
 40
0.3110986286817981
 40
0.3168959341640239
 40
0.3226935346954222
 40
0.3284914291549775
 40
0.3342896160485945
 40
0.3400880934904612
 40
0.3458868591836957
 40
0.3516859104001935
 40
0.3574852439598035
 40
0.3632848562086073
 40
0.3690847429965947
 40
0.3748848996544255
 40
0.380685320969523
 40
0.3864860011611408
 40
0.3922869338549633
 40
0.398088112056676
 40
0.4038895281246943
 40
0.4096911737424764
 40
0.4154930398895982
 40
0.4212951168123216
 40
0.4270973939934459
 40
0.4328998601213824
 40
0.4387025030585759
 40
0.4445053098091718
 40
0.4503082664862973
 40
0.4561113582785942
 40
0.46191456941638
 40
0.4677178831373989
 40
0.4735212816519968
 40
0.4793247461084015
 40
0.4851282565575826
 40
0.4909317919180569
 40
0.4967353240275728
 40
0.5025388272654199
 40
0.5083422765244847
 40
0.5141456454155843
 40
0.5199489062342175
 40
0.5257520299282881
 40
0.5315549860669813
 40
0.5373577428108247
 40
0.5431602668835773
 40
0.5489625235456326
 40
0.5547644765696385
 40
0.5605660882186219
 40
0.566367319226449
 40
0.572168128781667
 40
0.5779684745143445
 40
0.5837683124868135
 40
0.5895675971882867
 40
0.5953662815340444
 40
0.601164316869361
 40
0.6069616529785935
 40
0.6127582381000808
 40
0.6185540189468269
 40
0.624348940733956
 40
0.6301429472128288
 40
0.6359359807126893
 40
0.6417279821899188
 40
0.6475188912855051
 40
0.6533086463911281
 40
0.6590971847241531
 40
0.6648844424119936
 40
0.6706703545860577
 40
0.6764548554857939
 40
0.6822378785727744
 40
0.6880193566555337
 40
0.6937992220247372
 40
0.6995774065992796
 40
0.7053538420832334
 40
0.7111284601335108
 40
0.7169011925383025
 40
0.7226719714060702
 40
0.7284407293649746
 40
0.7342073997721028
 40
0.739971916932506
 40
0.7457342163271252
 40
0.7514942348491349
 40
0.7572519110482175
 40
0.7630071853815084
 40
0.7687600004705197
 40
0.7745103013632855
 40
0.7802580357998937
 40
0.7860031544810231
 40
0.7917456113376132
 40
0.797485363800364
 40
0.8032223730678374
 40
0.8089566043715164
 40
0.8146880272360193
 40
0.8204166157331712
 40
0.8261423487281275
 40
0.8318652101157679
 40
0.8375851890459565
 40
0.8433022801355599
 40
0.849016483666072
 40
0.8547278057648243
 40
0.8604362585684683
 40
0.8661418603670455
 40
0.8718446357274624
 40
0.8775446155948731
 40
0.8832418373709147
 40
0.8889363449674559
 40
0.8946281888354257
 40
0.9003174259672869
 40
0.9060041198730898
 40
0.911688340529266
 40
0.9173701642999607
 40
0.9230496738307954
 40
0.9287269579151229
 40
0.9344021113327019
 40
0.9400752346617688
 40
0.9457464340642947
 40
0.9514158210458422
 40
0.9570835121905281
 40
0.9627496288721015
 40
0.9684142969427829
 40
0.9740776464005931
 40
0.9797398110371649
 40
0.9854009280673648
 40
0.991061137742484
 40
0.9967205829490094
 40
0.9999999999999999
 40
0.9999999999999999
 40
0.9999999999999999
 40
0.9999999999999999
 10
908.8814487590524
 20
197.5881809251422
 30
0.0
 10
908.9757727004165
 20
197.4563840936444
 30
0.0
 10
909.199701447832
 20
197.1434932309023
 30
0.0
 10
909.5558224904167
 20
196.6522208148144
 30
0.0
 10
909.9493853971729
 20
196.113985434303
 30
0.0
 10
910.3451961080749
 20
195.5782246240079
 30
0.0
 10
910.7431319316753
 20
195.0448699700535
 30
0.0
 10
911.1431946312398
 20
194.5139823384075
 30
0.0
 10
911.5453524690322
 20
193.9855877704843
 30
0.0
 10
911.9495825337543
 20
193.4597214537543
 30
0.0
 10
912.3558594005747
 20
192.9364159370822
 30
0.0
 10
912.7641581717807
 20
192.4157042861591
 30
0.0
 10
913.1744536640264
 20
191.8976192356376
 30
0.0
 10
913.5867206281367
 20
191.3821934140104
 30
0.0
 10
914.0009336922335
 20
190.8694592810639
 30
0.0
 10
914.417067379003
 20
190.3594491423734
 30
0.0
 10
914.8350961030972
 20
189.8521951431848
 30
0.0
 10
915.2549941738611
 20
189.3477292678423
 30
0.0
 10
915.6767357966307
 20
188.8460833377623
 30
0.0
 10
916.1002950744174
 20
188.3472890098197
 30
0.0
 10
916.5256460094816
 20
187.851377774656
 30
0.0
 10
916.9527625049374
 20
187.3583809550351
 30
0.0
 10
917.3816183663446
 20
186.8683297042151
 30
0.0
 10
917.8121873032982
 20
186.3812550043456
 30
0.0
 10
918.244442931014
 20
185.8971876648877
 30
0.0
 10
918.6783587719082
 20
185.4161583210569
 30
0.0
 10
919.1139082571682
 20
184.9381974322945
 30
0.0
 10
919.5510647283201
 20
184.4633352807555
 30
0.0
 10
919.9898014387821
 20
183.991601969829
 30
0.0
 10
920.4300915554167
 20
183.5230274226749
 30
0.0
 10
920.8719081600622
 20
183.0576413807921
 30
0.0
 10
921.3152242510587
 20
182.59547340261
 30
0.0
 10
921.7600127447606
 20
182.1365528621022
 30
0.0
 10
922.2062464770335
 20
181.6809089474274
 30
0.0
 10
922.6538982047355
 20
181.2285706595962
 30
0.0
 10
923.1029406071842
 20
180.7795668111602
 30
0.0
 10
923.553346287604
 20
180.333926024929
 30
0.0
 10
924.0050877745541
 20
179.8916767327102
 30
0.0
 10
924.4581375233371
 20
179.4528471740752
 30
0.0
 10
924.9124679173832
 20
179.0174653951503
 30
0.0
 10
925.3680512696162
 20
178.5855592474288
 30
0.0
 10
925.8248598237861
 20
178.1571563866137
 30
0.0
 10
926.282865755784
 20
177.732284271477
 30
0.0
 10
926.7420411749215
 20
177.3109701627493
 30
0.0
 10
927.2023581251855
 20
176.8932411220265
 30
0.0
 10
927.6637885864585
 20
176.4791240107035
 30
0.0
 10
928.1263044757068
 20
176.0686454889271
 30
0.0
 10
928.5898776481345
 20
175.661832014571
 30
0.0
 10
929.0544798982985
 20
175.2587098422322
 30
0.0
 10
929.5200829611878
 20
174.8593050222441
 30
0.0
 10
929.9866585132611
 20
174.4636433997112
 30
0.0
 10
930.4541781734406
 20
174.0717506135605
 30
0.0
 10
930.9226135040642
 20
173.6836520956079
 30
0.0
 10
931.3919360117902
 20
173.299373069641
 30
0.0
 10
931.8621171484548
 20
172.9189385505141
 30
0.0
 10
932.3331283118786
 20
172.542373343257
 30
0.0
 10
932.804940846621
 20
172.1697020421925
 30
0.0
 10
933.2775260446836
 20
171.8009490300621
 30
0.0
 10
933.7508551461528
 20
171.4361384771595
 30
0.0
 10
934.2248993397898
 20
171.0752943404675
 30
0.0
 10
934.6996297635568
 20
170.718440362796
 30
0.0
 10
935.1750175050845
 20
170.3656000719201
 30
0.0
 10
935.6510336020764
 20
170.0167967797134
 30
0.0
 10
936.1276490426444
 20
169.6720535812778
 30
0.0
 10
936.6048347655828
 20
169.3313933540603
 30
0.0
 10
937.0825616605683
 20
168.9948387569596
 30
0.0
 10
937.5608005682981
 20
168.6624122294125
 30
0.0
 10
938.0395222805474
 20
168.3341359904656
 30
0.0
 10
938.5186975401629
 20
168.0100320378166
 30
0.0
 10
938.9982970409768
 20
167.690122146832
 30
0.0
 10
939.4782914276497
 20
167.3744278695288
 30
0.0
 10
939.9586512954392
 20
167.0629705335175
 30
0.0
 10
940.4393471898906
 20
166.7557712409058
 30
0.0
 10
940.9203496064545
 20
166.4528508671492
 30
0.0
 10
941.4016289900253
 20
166.1542300598531
 30
0.0
 10
941.8831557344092
 20
165.859929237511
 30
0.0
 10
942.3649001817182
 20
165.5699685881768
 30
0.0
 10
942.8468326216861
 20
165.2843680680685
 30
0.0
 10
943.3289232909179
 20
165.00314740009
 30
0.0
 10
943.8111423720669
 20
164.72632607227
 30
0.0
 10
944.2934599929479
 20
164.4539233361052
 30
0.0
 10
944.7758462255864
 20
164.185958204805
 30
0.0
 10
945.2582710852045
 20
163.9224494514307
 30
0.0
 10
945.7407045291554
 20
163.6634156069162
 30
0.0
 10
946.2231164558057
 20
163.4088749579683
 30
0.0
 10
946.7054767033737
 20
163.1588455448342
 30
0.0
 10
947.1877548849301
 20
162.9133452423118
 30
0.0
 10
947.6699204910535
 20
162.6723916969282
 30
0.0
 10
948.1519429372784
 20
162.4360022972913
 30
0.0
 10
948.6337917262601
 20
162.2041940943151
 30
0.0
 10
949.1154363424532
 20
161.9769838536349
 30
0.0
 10
949.5968462020987
 20
161.7543880767421
 30
0.0
 10
950.0779906520271
 20
161.5364229975481
 30
0.0
 10
950.5588389685005
 20
161.323104578753
 30
0.0
 10
951.0393603561107
 20
161.1144485080102
 30
0.0
 10
951.5195239467433
 20
160.9104701938849
 30
0.0
 10
951.9992987986278
 20
160.711184761598
 30
0.0
 10
952.4786538954901
 20
160.5166070485514
 30
0.0
 10
952.9575581458262
 20
160.3267515996309
 30
0.0
 10
953.4359803823213
 20
160.141632662282
 30
0.0
 10
953.913889361426
 20
159.9612641813591
 30
0.0
 10
954.3912537631236
 20
159.785659793744
 30
0.0
 10
954.8680421908997
 20
159.6148328227371
 30
0.0
 10
955.3442231719487
 20
159.4487962722217
 30
0.0
 10
955.8197651576345
 20
159.2875628206039
 30
0.0
 10
956.2946365242346
 20
159.1311448145354
 30
0.0
 10
956.7688055739942
 20
158.9795542624254
 30
0.0
 10
957.242240536511
 20
158.8328028277513
 30
0.0
 10
957.7149095704883
 20
158.6909018221772
 30
0.0
 10
958.1867807658718
 20
158.5538621984988
 30
0.0
 10
958.657822146409
 20
158.4216945434251
 30
0.0
 10
959.1280016726464
 20
158.2944090702201
 30
0.0
 10
959.5972872453983
 20
158.1720156112241
 30
0.0
 10
960.0656467097082
 20
158.0545236102792
 30
0.0
 10
960.5330478593303
 20
157.9419421150867
 30
0.0
 10
960.9994584417515
 20
157.8342797695239
 30
0.0
 10
961.4648461637752
 20
157.7315448059574
 30
0.0
 10
961.9291786976856
 20
157.633745037585
 30
0.0
 10
962.3924236880076
 20
157.5408878508471
 30
0.0
 10
962.8545487588798
 20
157.4529801979485
 30
0.0
 10
963.3155215220438
 20
157.3700285895345
 30
0.0
 10
963.7753095854633
 20
157.292039087569
 30
0.0
 10
964.2338805625681
 20
157.2190172984639
 30
0.0
 10
964.6912020821285
 20
157.1509683665087
 30
0.0
 10
965.1472417987475
 20
157.087896967658
 30
0.0
 10
965.6019674039602
 20
157.0298073037268
 30
0.0
 10
966.0553466379263
 20
156.9767030970528
 30
0.0
 10
966.507347301687
 20
156.9285875856805
 30
0.0
 10
966.957937269965
 20
156.8854635191235
 30
0.0
 10
967.407084504465
 20
156.8473331547639
 30
0.0
 10
967.8547570676384
 20
156.8141982549401
 30
0.0
 10
968.300923136864
 20
156.7860600847816
 30
0.0
 10
968.7455510189917
 20
156.7629194108388
 30
0.0
 10
969.188609165189
 20
156.7447765005596
 30
0.0
 10
969.6300661860253
 20
156.7316311226576
 30
0.0
 10
970.0698908667216
 20
156.723482548413
 30
0.0
 10
970.5080521824943
 20
156.7203295539451
 30
0.0
 10
970.944519313904
 20
156.7221704234848
 30
0.0
 10
971.3792616621308
 20
156.7290029536764
 30
0.0
 10
971.8122488640826
 20
156.7408244589236
 30
0.0
 10
972.243450807246
 20
156.7576317777944
 30
0.0
 10
972.672837644186
 20
156.7794212804872
 30
0.0
 10
973.100379806597
 20
156.8061888773535
 30
0.0
 10
973.5260480188052
 20
156.8379300284656
 30
0.0
 10
973.949813310634
 20
156.8746397542066
 30
0.0
 10
974.3716470295313
 20
156.9163126468521
 30
0.0
 10
974.7915208518659
 20
156.9629428831036
 30
0.0
 10
975.2094067933076
 20
157.0145242375254
 30
0.0
 10
975.6252772182006
 20
157.071050096826
 30
0.0
 10
976.0391048478577
 20
157.1325134749176
 30
0.0
 10
976.4508627676925
 20
157.1989070286785
 30
0.0
 10
976.8605244331301
 20
157.2702230743347
 30
0.0
 10
977.268063674235
 20
157.3464536043709
 30
0.0
 10
977.6734546990095
 20
157.4275903048718
 30
0.0
 10
978.0766720953146
 20
157.5136245731913
 30
0.0
 10
978.4776908313931
 20
157.60454753584
 30
0.0
 10
978.8764862549659
 20
157.7003500664768
 30
0.0
 10
979.2730340909004
 20
157.8010228038904
 30
0.0
 10
979.6673104374464
 20
157.9065561698463
 30
0.0
 10
980.0592917610556
 20
158.0169403866886
 30
0.0
 10
980.448954889818
 20
158.132165494548
 30
0.0
 10
980.8362770055012
 20
158.2522213681328
 30
0.0
 10
981.2212356344365
 20
158.3770977326224
 30
0.0
 10
981.6038086365639
 20
158.5067841798984
 30
0.0
 10
981.9839741954914
 20
158.6412701799708
 30
0.0
 10
982.3617107992316
 20
158.7805451062445
 30
0.0
 10
982.7369972505628
 20
158.9245982045953
 30
0.0
 10
983.1098125621247
 20
159.0734187670054
 30
0.0
 10
983.480136277214
 20
159.2269955366343
 30
0.0
 10
983.8479471986864
 20
159.3853189741523
 30
0.0
 10
984.2132280533293
 20
159.5483728435318
 30
0.0
 10
984.575948009703
 20
159.7161656377827
 30
0.0
 10
984.9361278199838
 20
159.8886133595394
 30
0.0
 10
985.293596688211
 20
160.0659768929826
 30
0.0
 10
985.599106308651
 20
160.2218287997514
 30
0.0
 10
985.7843986254144
 20
160.3204513192008
 30
0.0
 10
985.8523771628954
 20
160.3566331466613
 30
0.0
  0
LINE
  5
133
330
1F
100
AcDbEntity
  8
0
  6
Continuous
 62
     7
370
    30
100
AcDbLine
 10
907.9667510866
 20
311.3555649783
 30
0.0
 11
901.2183713754
 21
307.1657509223
 31
0.0
  0
LINE
  5
134
330
1F
100
AcDbEntity
  8
0
  6
Continuous
 62
     7
370
    30
100
AcDbLine
 10
985.9422426814
 20
160.4037992433
 30
0.0
 11
992.9452697491
 21
164.1525033446
 31
0.0
  0
SPLINE
  5
135
330
1F
100
AcDbEntity
  8
0
  6
Continuous
 62
     7
370
    30
100
AcDbSpline
210
0.0
220
0.0
230
1.0
 70
     8
 71
     3
 72
   406
 73
   402
 74
     0
 42
0.000000001
 43
0.00000001
 40
0.0
 40
0.0
 40
0.0
 40
0.0
 40
0.0002228931443343
 40
0.0027249826387432
 40
0.0052270510091995
 40
0.0077291150400267
 40
0.0102311890775339
 40
0.0127332917665854
 40
0.0152354416458009
 40
0.0177376570822017
 40
0.0202399562069971
 40
0.0227423568529145
 40
0.0252448764935071
 40
0.0277475321847735
 40
0.0302503405094534
 40
0.032753317524304
 40
0.0352564787107696
 40
0.0377598389291105
 40
0.0402634123764179
 40
0.0427672125485475
 40
0.0452712522062764
 40
0.04777554334569
 40
0.0502800971729505
 40
0.0527849240833858
 40
0.0552900336450785
 40
0.0577954345867849
 40
0.0603011347901133
 40
0.0628071412860314
 40
0.0653134602553078
 40
0.0678200970330654
 40
0.070327056116917
 40
0.0728343411787877
 40
0.075341955080007
 40
0.0778498998895209
 40
0.0803581769049347
 40
0.0828667866762524
 40
0.0853757290317743
 40
0.0878850031062183
 40
0.0903946073705832
 40
0.0929045396634794
 40
0.0954147972238478
 40
0.0979253767245502
 40
0.1004362743068703
 40
0.1029474856153511
 40
0.1054590058330829
 40
0.1079708297169891
 40
0.110482951633037
 40
0.1129953655910588
 40
0.1155080652791295
 40
0.1180210440973645
 40
0.1205342951908363
 40
0.1230478114816316
 40
0.1255615856999513
 40
0.1280756104139517
 40
0.1305898780585709
 40
0.1331043809629952
 40
0.1356191113767985
 40
0.1381340614948561
 40
0.1406492234807757
 40
0.1431645894889721
 40
0.1456801516853476
 40
0.1481959022666024
 40
0.1507118334781467
 40
0.1532279376306053
 40
0.1557442071151098
 40
0.1582606344171252
 40
0.160777212129176
 40
0.1632939329622333
 40
0.1658107897559541
 40
0.1683277754877929
 40
0.1708448832810382
 40
0.1733621064118353
 40
0.1758794383151774
 40
0.1783968725900201
 40
0.1809144030034829
 40
0.1834320234943445
 40
0.1859497281755842
 40
0.1884675113364035
 40
0.1909853674434852
 40
0.1935032911416619
 40
0.1960212772539768
 40
0.1985393207814193
 40
0.2010574169018457
 40
0.2035755609688253
 40
0.2060937485099275
 40
0.2086119752246291
 40
0.2111302369820093
 40
0.2136485298180873
 40
0.2161668499330137
 40
0.218685193687933
 40
0.2212035576017505
 40
0.2237219383476736
 40
0.2262403327497421
 40
0.2287587377790683
 40
0.2312771505501533
 40
0.2337955683170728
 40
0.2363139884695671
 40
0.2388324078027393
 40
0.2413508239361363
 40
0.2438692346837175
 40
0.2463876379782673
 40
0.2489060318674516
 40
0.2514244145099784
 40
0.2539427841718113
 40
0.2564611392224446
 40
0.2589794781311663
 40
0.2614977994634561
 40
0.2640161018774225
 40
0.2665343841202882
 40
0.2690526450250165
 40
0.2715708835069422
 40
0.274089098560538
 40
0.2766072892562126
 40
0.2791254547373138
 40
0.2816435942169917
 40
0.2841617069753877
 40
0.2866797923567903
 40
0.2891978497668743
 40
0.2917158786700518
 40
0.294233878586911
 40
0.2967518490917759
 40
0.2992697898101956
 40
0.3017877004167703
 40
0.3043055806328149
 40
0.3068234302242557
 40
0.3093412489995661
 40
0.3118590368077202
 40
0.3143767935363292
 40
0.3168945191097564
 40
0.3194122134873816
 40
0.3219298766618455
 40
0.3244475086574876
 40
0.3269651095286747
 40
0.3294826793584202
 40
0.3320002182568292
 40
0.3345177263597877
 40
0.337035203827633
 40
0.3395526508438326
 40
0.3420700676138705
 40
0.3445874543639916
 40
0.3471048113401564
 40
0.3496221388069709
 40
0.3521394370466787
 40
0.3546567063581568
 40
0.3571739470560817
 40
0.3596911594699741
 40
0.3622083439434119
 40
0.3647255008332029
 40
0.3672426305086576
 40
0.3697597333508365
 40
0.3722768097519101
 40
0.3747938601144618
 40
0.3773108848508765
 40
0.379827884382764
 40
0.3823448591403981
 40
0.3848618095622106
 40
0.3873787360942207
 40
0.3898956391896179
 40
0.3924125193082887
 40
0.3949293769163925
 40
0.3974462124859481
 40
0.3999630264944761
 40
0.402479819424589
 40
0.404996591763698
 40
0.4075133440036627
 40
0.4100300766404925
 40
0.4125467901740623
 40
0.4150634851078362
 40
0.4175801619486247
 40
0.4200968212063096
 40
0.4226134633936718
 40
0.4251300890261401
 40
0.4276466986216068
 40
0.430163292700247
 40
0.4326798717843316
 40
0.435196436398062
 40
0.4377129870674411
 40
0.4402295243200903
 40
0.4427460486851809
 40
0.445262560693242
 40
0.4477790608760625
 40
0.4502955497666305
 40
0.4528120278989791
 40
0.4553284958081223
 40
0.4578449540299399
 40
0.4603614031011569
 40
0.4628778435592082
 40
0.4653942759421971
 40
0.4679107007888409
 40
0.470427118638384
 40
0.4729435300306014
 40
0.4754599355056772
 40
0.4779763356042085
 40
0.4804927308671738
 40
0.4830091218358227
 40
0.4855255090517356
 40
0.4880418930567043
 40
0.4905582743927793
 40
0.4930746536021553
 40
0.4955910312272161
 40
0.4981074078104822
 40
0.5006237838945861
 40
0.5031401600222278
 40
0.5056565366016261
 40
0.5081729141292207
 40
0.5106892931478566
 40
0.5132056742003825
 40
0.5157220578295618
 40
0.5182384445781871
 40
0.5207548349888919
 40
0.5232712296042547
 40
0.5257876289666955
 40
0.5283040336184471
 40
0.5308204441015467
 40
0.5333368609578074
 40
0.5358532847287234
 40
0.5383697159554693
 40
0.5408861551788782
 40
0.5434026029392924
 40
0.5459190597766317
 40
0.5484355262302439
 40
0.5509520028388906
 40
0.5534684901406133
 40
0.5559849886727475
 40
0.558501498971758
 40
0.5610180215732053
 40
0.5635345570116143
 40
0.5660511058203854
 40
0.5685676685316968
 40
0.5710842456763445
 40
0.5736008377836771
 40
0.5761174453813827
 40
0.5786340689953857
 40
0.5811507091497043
 40
0.5836673663662453
 40
0.5861840411646236
 40
0.5887007340619885
 40
0.5912174455728373
 40
0.5937341762087459
 40
0.5962509264781645
 40
0.5987676968861609
 40
0.6012844879341769
 40
0.603801300119729
 40
0.606318133936106
 40
0.6088349898720778
 40
0.6113518684115296
 40
0.6138687700331364
 40
0.6163856952100055
 40
0.6189026444092022
 40
0.6214196180914213
 40
0.6239366167105102
 40
0.6264536407129848
 40
0.6289706905375569
 40
0.6314877666146408
 40
0.6340048693657274
 40
0.6365219992029237
 40
0.6390391565282244
 40
0.6415563417329616
 40
0.644073555197112
 40
0.6465907972885634
 40
0.649108068362402
 40
0.6516253687601312
 40
0.6541426988088255
 40
0.6566600588203187
 40
0.6591774490902617
 40
0.6616948698971968
 40
0.6642123215015693
 40
0.6667298041446748
 40
0.6692473180476071
 40
0.671764863410077
 40
0.6742824404092705
 40
0.6768000491985502
 40
0.6793176899062079
 40
0.6818353626341044
 40
0.6843530674561917
 40
0.6868708044170938
 40
0.6893885735305714
 40
0.6919063747778373
 40
0.6944242081059782
 40
0.6969420734261234
 40
0.6994599706116821
 40
0.701977899496401
 40
0.7044958598724728
 40
0.7070138514884214
 40
0.7095318740470022
 40
0.7120499272029883
 40
0.7145680105609654
 40
0.7170861236728109
 40
0.7196042660353782
 40
0.7221224370878931
 40
0.724640636209363
 40
0.7271588627158162
 40
0.7296771158575617
 40
0.7321953948162486
 40
0.734713698701963
 40
0.7372320265500616
 40
0.7397503773181385
 40
0.7422687498827034
 40
0.7447871430359018
 40
0.7473055554821341
 40
0.7498239858345593
 40
0.7523424326115081
 40
0.7548608942329494
 40
0.7573793690167301
 40
0.7598978551748318
 40
0.7624163508096009
 40
0.7649348539098576
 40
0.7674533623470472
 40
0.7699718738712664
 40
0.7724903856306312
 40
0.7750088947343973
 40
0.7775273984998887
 40
0.7800458941060201
 40
0.7825643785894957
 40
0.785082848840868
 40
0.7876013016008899
 40
0.7901197334567909
 40
0.7926381408387743
 40
0.795156520016637
 40
0.7976748670964874
 40
0.8001931780177833
 40
0.8027114485505027
 40
0.8052296742925701
 40
0.8077478506676126
 40
0.8102659729231004
 40
0.8127840361286757
 40
0.815302035175089
 40
0.8178199647734609
 40
0.8203378194550476
 40
0.8228555935715998
 40
0.8253732812962301
 40
0.8278908766250205
 40
0.8304083733791774
 40
0.8329257652080501
 40
0.8354430455928907
 40
0.837960207851409
 40
0.8404772451432996
 40
0.8429941504767083
 40
0.8455109167156977
 40
0.8480275365887155
 40
0.8505440026982605
 40
0.8530603075316816
 40
0.8555764434731291
 40
0.8580924028168684
 40
0.8606081777817223
 40
0.8631237605270395
 40
0.8656391431698344
 40
0.8681543178034391
 40
0.8706692765174517
 40
0.8731840114191611
 40
0.8756985146563476
 40
0.8782127784414814
 40
0.8807267950772525
 40
0.8832405569835254
 40
0.8857540567254945
 40
0.8882672870431426
 40
0.8907802408818314
 40
0.8932929114239669
 40
0.8958052921216353
 40
0.8983173767301361
 40
0.9008291593422139
 40
0.9033406344228151
 40
0.9058517968443408
 40
0.9083626419220977
 40
0.9108731654497706
 40
0.9133833637347407
 40
0.9158932336329779
 40
0.9184027725833883
 40
0.9209119786411225
 40
0.9234208505099634
 40
0.9259293875731478
 40
0.9284375899226138
 40
0.9309454583862913
 40
0.9334529945531602
 40
0.9359602007959884
 40
0.9384670802910939
 40
0.9409736370353333
 40
0.9434798758597377
 40
0.9459858024397867
 40
0.9484914233018785
 40
0.9509967458261062
 40
0.9535017782448524
 40
0.9560065296373179
 40
0.9585110099197587
 40
0.9610152298312783
 40
0.9635192009153621
 40
0.9660229354968642
 40
0.9685264466546514
 40
0.971029748189955
 40
0.9735328545904208
 40
0.9760357809901317
 40
0.978538543125722
 40
0.9810411572887123
 40
0.983543640274497
 40
0.9860460093281164
 40
0.9885482820871974
 40
0.9910504765223259
 40
0.9935526108753816
 40
0.9960547035959932
 40
0.9985567732767855
 40
1.0
 40
1.0
 40
1.0
 40
1.0
 10
993.3098922226741
 20
164.3513413386863
 30
0.0
 10
993.3201162757546
 20
164.3569246326178
 30
0.0
 10
993.4451105514875
 20
164.4251832552679
 30
0.0
 10
993.6823846706535
 20
164.5604996595983
 30
0.0
 10
994.0214876349745
 20
164.7576210181223
 30
0.0
 10
994.3576077728472
 20
164.9598735609142
 30
0.0
 10
994.6910803609828
 20
165.1666170867889
 30
0.0
 10
995.021789598503
 20
165.3780071171143
 30
0.0
 10
995.3497409374901
 20
165.593985797402
 30
0.0
 10
995.6749075549506
 20
165.8145521860236
 30
0.0
 10
995.99727143446
 20
166.0396897936392
 30
0.0
 10
996.3168123539873
 20
166.2693859944156
 30
0.0
 10
996.6335108331441
 20
166.5036268191817
 30
0.0
 10
996.9473473404486
 20
166.7423983448787
 30
0.0
 10
997.2583025033714
 20
166.9856863161603
 30
0.0
 10
997.5663570503051
 20
167.2334762404909
 30
0.0
 10
997.8714918250173
 20
167.4857533562002
 30
0.0
 10
998.1736877823453
 20
167.7425026344878
 30
0.0
 10
998.4729259895781
 20
168.0037087723003
 30
0.0
 10
998.7691876269819
 20
168.2693561876921
 30
0.0
 10
999.0624539892067
 20
168.5394290146205
 30
0.0
 10
999.3527064871004
 20
168.8139110980571
 30
0.0
 10
999.6399266500287
 20
169.0927859892324
 30
0.0
 10
999.9240961286528
 20
169.3760369411235
 30
0.0
 10
1000.205196698146
 20
169.6636469042031
 30
0.0
 10
1000.483210261816
 20
169.9555985224948
 30
0.0
 10
1000.758118855107
 20
170.2518741299637
 30
0.0
 10
1001.029904649938
 20
170.5524557472683
 30
0.0
 10
1001.29854995935
 20
170.8573250789066
 30
0.0
 10
1001.564037242419
 20
171.1664635107635
 30
0.0
 10
1001.826349109392
 20
171.4798521080874
 30
0.0
 10
1002.085468327019
 20
171.7974716138968
 30
0.0
 10
1002.341377824025
 20
172.1193024478308
 30
0.0
 10
1002.594060696691
 20
172.4453247054398
 30
0.0
 10
1002.843500214512
 20
172.775518157923
 30
0.0
 10
1003.089679825872
 20
173.1098622522968
 30
0.0
 10
1003.332583163731
 20
173.4483361119959
 30
0.0
 10
1003.57219405126
 20
173.7909185378858
 30
0.0
 10
1003.808496507406
 20
174.137588009679
 30
0.0
 10
1004.041474752362
 20
174.4883226877333
 30
0.0
 10
1004.271113212897
 20
174.8431004152111
 30
0.0
 10
1004.497396527542
 20
175.2018987205854
 30
0.0
 10
1004.720309551583
 20
175.5646948204565
 30
0.0
 10
1004.939837361874
 20
175.9314656226685
 30
0.0
 10
1005.155965261421
 20
176.3021877296874
 30
0.0
 10
1005.368678783742
 20
176.6768374422285
 30
0.0
 10
1005.57796369699
 20
177.0553907630937
 30
0.0
 10
1005.783806007819
 20
177.4378234011984
 30
0.0
 10
1005.986191964994
 20
177.8241107757623
 30
0.0
 10
1006.185108062746
 20
178.2142280206377
 30
0.0
 10
1006.380541043861
 20
178.6081499887505
 30
0.0
 10
1006.572477902501
 20
179.00585125663
 30
0.0
 10
1006.760905886771
 20
179.4073061290021
 30
0.0
 10
1006.945812501027
 20
179.8124886434301
 30
0.0
 10
1007.127185507932
 20
180.2213725749756
 30
0.0
 10
1007.305012930265
 20
180.6339314408653
 30
0.0
 10
1007.479283052497
 20
181.0501385051456
 30
0.0
 10
1007.649984422133
 20
181.4699667833063
 30
0.0
 10
1007.817105850847
 20
181.8933890468638
 30
0.0
 10
1007.980636415396
 20
182.3203778278827
 30
0.0
 10
1008.140565458345
 20
182.7509054234322
 30
0.0
 10
1008.296882588609
 20
183.1849438999647
 30
0.0
 10
1008.449577681817
 20
183.6224650976036
 30
0.0
 10
1008.598640880519
 20
184.0634406343413
 30
0.0
 10
1008.744062594241
 20
184.5078419101305
 30
0.0
 10
1008.885833499406
 20
184.9556401108776
 30
0.0
 10
1009.023944539128
 20
185.4068062123208
 30
0.0
 10
1009.158386922892
 20
185.8613109838014
 30
0.0
 10
1009.289152126133
 20
186.3191249919178
 30
0.0
 10
1009.416231889725
 20
186.7802186040671
 30
0.0
 10
1009.539618219383
 20
187.2445619918764
 30
0.0
 10
1009.659303385001
 20
187.7121251345187
 30
0.0
 10
1009.775279919925
 20
188.1828778219194
 30
0.0
 10
1009.887540620168
 20
188.6567896578499
 30
0.0
 10
1009.996078543595
 20
189.133830062924
 30
0.0
 10
1010.100887009054
 20
189.6139682774828
 30
0.0
 10
1010.201959595494
 20
190.0971733643885
 30
0.0
 10
1010.299290141046
 20
190.5834142117164
 30
0.0
 10
1010.3928727421
 20
191.0726595353633
 30
0.0
 10
1010.482701752365
 20
191.5648778815609
 30
0.0
 10
1010.568771781925
 20
192.0600376293186
 30
0.0
 10
1010.651077696295
 20
192.5581069927758
 30
0.0
 10
1010.729614615479
 20
193.0590540234944
 30
0.0
 10
1010.804377913037
 20
193.5628466126736
 30
0.0
 10
1010.875363215163
 20
194.0694524933111
 30
0.0
 10
1010.942566399772
 20
194.5788392422992
 30
0.0
 10
1011.005983595608
 20
195.090974282466
 30
0.0
 10
1011.06561118137
 20
195.6058248845753
 30
0.0
 10
1011.121445784849
 20
196.123358169275
 30
0.0
 10
1011.173484282099
 20
196.6435411090091
 30
0.0
 10
1011.221723796619
 20
197.166340529888
 30
0.0
 10
1011.266161698564
 20
197.6917231135344
 30
0.0
 10
1011.306795603977
 20
198.2196553988932
 30
0.0
 10
1011.343623374048
 20
198.7501037840221
 30
0.0
 10
1011.376643114391
 20
199.2830345278566
 30
0.0
 10
1011.405853174354
 20
199.8184137519595
 30
0.0
 10
1011.431252143899
 20
200.3562073905449
 30
0.0
 10
1011.452838856964
 20
200.8963812407395
 30
0.0
 10
1011.470612391088
 20
201.4389009693514
 30
0.0
 10
1011.484572067485
 20
201.9837321673081
 30
0.0
 10
1011.494717447926
 20
202.5308403017979
 30
0.0
 10
1011.501048333981
 20
203.0801907128302
 30
0.0
 10
1011.503564766494
 20
203.6317486149244
 30
0.0
 10
1011.502267025062
 20
204.1854790988071
 30
0.0
 10
1011.497155627546
 20
204.741347133112
 30
0.0
 10
1011.488231329591
 20
205.2993175660852
 30
0.0
 10
1011.475495124168
 20
205.8593551272985
 30
0.0
 10
1011.458948241118
 20
206.4214244293713
 30
0.0
 10
1011.438592146728
 20
206.9854899697046
 30
0.0
 10
1011.414428543306
 20
207.5515161322231
 30
0.0
 10
1011.386459368768
 20
208.1194671891335
 30
0.0
 10
1011.354686796242
 20
208.6893073026893
 30
0.0
 10
1011.319113233676
 20
209.2610005269795
 30
0.0
 10
1011.279741323457
 20
209.8345108097192
 30
0.0
 10
1011.23657394203
 20
210.4098019940655
 30
0.0
 10
1011.189614199535
 20
210.9868378204399
 30
0.0
 10
1011.138865439436
 20
211.5655819283761
 30
0.0
 10
1011.084331238163
 20
212.1459978583758
 30
0.0
 10
1011.026015404752
 20
212.7280490537823
 30
0.0
 10
1010.96392198049
 20
213.3116988626761
 30
0.0
 10
1010.898055238555
 20
213.896910539777
 30
0.0
 10
1010.828419683665
 20
214.4836472483741
 30
0.0
 10
1010.755020051721
 20
215.0718720622602
 30
0.0
 10
1010.677861309443
 20
215.6615479676967
 30
0.0
 10
1010.596948654018
 20
216.2526378653826
 30
0.0
 10
1010.51228751273
 20
216.8451045724471
 30
0.0
 10
1010.423883542593
 20
217.4389108244557
 30
0.0
 10
1010.331742629982
 20
218.0340192774316
 30
0.0
 10
1010.23587089025
 20
218.6303925098979
 30
0.0
 10
1010.13627466735
 20
219.2279930249285
 30
0.0
 10
1010.032960533438
 20
219.8267832522221
 30
0.0
 10
1009.925935288484
 20
220.4267255501809
 30
0.0
 10
1009.815205959858
 20
221.0277822080179
 30
0.0
 10
1009.700779801923
 20
221.6299154478641
 30
0.0
 10
1009.58266429561
 20
222.2330874269036
 30
0.0
 10
1009.46086714799
 20
222.8372602395123
 30
0.0
 10
1009.335396291827
 20
223.4423959194144
 30
0.0
 10
1009.206259885134
 20
224.0484564418549
 30
0.0
 10
1009.073466310707
 20
224.6554037257773
 30
0.0
 10
1008.937024175656
 20
225.2631996360233
 30
0.0
 10
1008.79694231092
 20
225.8718059855356
 30
0.0
 10
1008.653229770774
 20
226.4811845375809
 30
0.0
 10
1008.50589583232
 20
227.0912970079753
 30
0.0
 10
1008.354949994972
 20
227.7021050673297
 30
0.0
 10
1008.200401979923
 20
228.3135703432985
 30
0.0
 10
1008.042261729603
 20
228.9256544228461
 30
0.0
 10
1007.880539407125
 20
229.5383188545138
 30
0.0
 10
1007.71524539571
 20
230.1515251507055
 30
0.0
 10
1007.546390298113
 20
230.7652347899752
 30
0.0
 10
1007.373984936023
 20
231.3794092193305
 30
0.0
 10
1007.198040349454
 20
231.9940098565381
 30
0.0
 10
1007.018567796125
 20
232.60899809244
 30
0.0
 10
1006.835578750823
 20
233.2243352932757
 30
0.0
 10
1006.649084904754
 20
233.8399828030143
 30
0.0
 10
1006.459098164878
 20
234.4559019456954
 30
0.0
 10
1006.265630653229
 20
235.0720540277699
 30
0.0
 10
1006.068694706228
 20
235.6884003404518
 30
0.0
 10
1005.868302873973
 20
236.3049021620728
 30
0.0
 10
1005.664467919519
 20
236.9215207604477
 30
0.0
 10
1005.457202818146
 20
237.5382173952395
 30
0.0
 10
1005.246520756603
 20
238.1549533203331
 30
0.0
 10
1005.032435132352
 20
238.7716897862098
 30
0.0
 10
1004.814959552785
 20
239.38838804233
 30
0.0
 10
1004.594107834435
 20
240.0050093395157
 30
0.0
 10
1004.369894002164
 20
240.6215149323411
 30
0.0
 10
1004.142332288346
 20
241.2378660815225
 30
0.0
 10
1003.91143713203
 20
241.8540240563126
 30
0.0
 10
1003.677223178087
 20
242.4699501368984
 30
0.0
 10
1003.43970527635
 20
243.085605616798
 30
0.0
 10
1003.198898480731
 20
243.7009518052637
 30
0.0
 10
1002.954818048326
 20
244.3159500296836
 30
0.0
 10
1002.707479438513
 20
244.9305616379876
 30
0.0
 10
1002.456898312021
 20
245.5447480010509
 30
0.0
 10
1002.203090530002
 20
246.1584705151012
 30
0.0
 10
1001.946072153073
 20
246.7716906041239
 30
0.0
 10
1001.685859440355
 20
247.3843697222699
 30
0.0
 10
1001.422468848494
 20
247.996469356261
 30
0.0
 10
1001.155917030663
 20
248.6079510277995
 30
0.0
 10
1000.886220835559
 20
249.2187762959716
 30
0.0
 10
1000.61339730638
 20
249.8289067596522
 30
0.0
 10
1000.33746367979
 20
250.4383040599097
 30
0.0
 10
1000.058437384869
 20
251.0469298824084
 30
0.0
 10
999.776336042051
 20
251.6547459598117
 30
0.0
 10
999.4911774620456
 20
252.2617140741763
 30
0.0
 10
999.2029796447499
 20
252.8677960593539
 30
0.0
 10
998.9117607781435
 20
253.4729538033832
 30
0.0
 10
998.6175392371707
 20
254.0771492508835
 30
0.0
 10
998.3203335826112
 20
254.6803444054419
 30
0.0
 10
998.0201625599364
 20
255.2825013319992
 30
0.0
 10
997.7170450981491
 20
255.8835821592361
 30
0.0
 10
997.4110003086179
 20
256.4835490819478
 30
0.0
 10
997.1020474838898
 20
257.0823643634229
 30
0.0
 10
996.7902060964961
 20
257.6799903378125
 30
0.0
 10
996.475495797744
 20
258.2763894124972
 30
0.0
 10
996.1579364164929
 20
258.8715240704515
 30
0.0
 10
995.8375479579232
 20
259.4653568725972
 30
0.0
 10
995.5143506022852
 20
260.0578504601619
 30
0.0
 10
995.1883647036449
 20
260.6489675570209
 30
0.0
 10
994.8596107886086
 20
261.2386709720432
 30
0.0
 10
994.5281095550419
 20
261.8269236014255
 30
0.0
 10
994.1938818707714
 20
262.4136884310265
 30
0.0
 10
993.8569487722789
 20
262.9989285386878
 30
0.0
 10
993.5173314694357
 20
263.5826070861498
 30
0.0
 10
993.175051340433
 20
264.1646873283192
 30
0.0
 10
992.830129928404
 20
264.7451326192074
 30
0.0
 10
992.4825889337974
 20
265.323906424509
 30
0.0
 10
992.1324502168925
 20
265.9009723170176
 30
0.0
 10
991.7797357985212
 20
266.4762939753393
 30
0.0
 10
991.4244678586832
 20
267.0498351861618
 30
0.0
 10
991.0666687351421
 20
267.6215598465321
 30
0.0
 10
990.7063609220212
 20
268.1914319661082
 30
0.0
 10
990.3435670683776
 20
268.7594156694169
 30
0.0
 10
989.9783099767761
 20
269.3254751980941
 30
0.0
 10
989.6106126018432
 20
269.8895749131231
 30
0.0
 10
989.2404980488176
 20
270.4516792970593
 30
0.0
 10
988.8679895720878
 20
271.0117529562483
 30
0.0
 10
988.4931105737197
 20
271.5697606230346
 30
0.0
 10
988.1158846019757
 20
272.1256671579588
 30
0.0
 10
987.7363353498214
 20
272.6794375519506
 30
0.0
 10
987.3544866534272
 20
273.2310369285036
 30
0.0
 10
986.9703624906531
 20
273.7804305458517
 30
0.0
 10
986.5839869795354
 20
274.3275837991204
 30
0.0
 10
986.1953843767533
 20
274.8724622224822
 30
0.0
 10
985.8045790760934
 20
275.4150314912908
 30
0.0
 10
985.4115956069021
 20
275.9552574242136
 30
0.0
 10
985.0164586325315
 20
276.4931059853437
 30
0.0
 10
984.6191929487765
 20
277.028543286308
 30
0.0
 10
984.2198234823023
 20
277.5615355883617
 30
0.0
 10
983.8183752890668
 20
278.0920493044691
 30
0.0
 10
983.4148735527306
 20
278.6200510013776
 30
0.0
 10
983.0093435830656
 20
279.1455074016733
 30
0.0
 10
982.6018108143504
 20
279.6683853858299
 30
0.0
 10
982.1923008037625
 20
280.1886519942423
 30
0.0
 10
981.7808392297602
 20
280.7062744292506
 30
0.0
 10
981.3674518904608
 20
281.2212200571475
 30
0.0
 10
980.9521647020106
 20
281.733456410175
 30
0.0
 10
980.535003696949
 20
282.242951188509
 30
0.0
 10
980.1159950225651
 20
282.74967226223
 30
0.0
 10
979.6951649392502
 20
283.2535876732791
 30
0.0
 10
979.2725398188461
 20
283.7546656373999
 30
0.0
 10
978.8481461429839
 20
284.2528745460704
 30
0.0
 10
978.4220105014194
 20
284.7481829684181
 30
0.0
 10
977.9941595903655
 20
285.2405596531214
 30
0.0
 10
977.5646202108175
 20
285.7299735302968
 30
0.0
 10
977.1334192668763
 20
286.2163937133709
 30
0.0
 10
976.7005837640654
 20
286.6997895009401
 30
0.0
 10
976.2661408076441
 20
287.1801303786146
 30
0.0
 10
975.8301176009195
 20
287.6573860208456
 30
0.0
 10
975.3925414435538
 20
288.1315262927399
 30
0.0
 10
974.9534397298692
 20
288.6025212518577
 30
0.0
 10
974.5128399471479
 20
289.0703411499973
 30
0.0
 10
974.0707696739348
 20
289.5349564349614
 30
0.0
 10
973.627256578333
 20
289.9963377523111
 30
0.0
 10
973.1823284163027
 20
290.4544559470993
 30
0.0
 10
972.7360130299522
 20
290.9092820655968
 30
0.0
 10
972.2883383458387
 20
291.3607873569904
 30
0.0
 10
971.8393323732553
 20
291.8089432750786
 30
0.0
 10
971.3890232025304
 20
292.253721479939
 30
0.0
 10
970.9374390033179
 20
292.6950938395896
 30
0.0
 10
970.4846080228939
 20
293.133032431626
 30
0.0
 10
970.0305585844532
 20
293.5675095448474
 30
0.0
 10
969.5753190854058
 20
293.9984976808637
 30
0.0
 10
969.1189179956765
 20
294.4259695556881
 30
0.0
 10
968.6613838560073
 20
294.8498981013113
 30
0.0
 10
968.2027452762616
 20
295.2702564672621
 30
0.0
 10
967.7430309337327
 20
295.6870180221482
 30
0.0
 10
967.2822695714563
 20
296.1001563551831
 30
0.0
 10
966.820489996525
 20
296.5096452776974
 30
0.0
 10
966.3577210784113
 20
296.9154588246307
 30
0.0
 10
965.8939917472909
 20
297.3175712560119
 30
0.0
 10
965.4293309923788
 20
297.7159570584174
 30
0.0
 10
964.9637678602645
 20
298.1105909464197
 30
0.0
 10
964.4973314532568
 20
298.5014478640173
 30
0.0
 10
964.0300509277387
 20
298.8885029860486
 30
0.0
 10
963.561955492525
 20
299.2717317195904
 30
0.0
 10
963.0930744072338
 20
299.6511097053439
 30
0.0
 10
962.6234369806618
 20
300.0266128190016
 30
0.0
 10
962.1530725691713
 20
300.3982171726056
 30
0.0
 10
961.6820105750903
 20
300.7658991158837
 30
0.0
 10
961.2102804451166
 20
301.1296352375796
 30
0.0
 10
960.7379116687416
 20
301.4894023667628
 30
0.0
 10
960.2649337766763
 20
301.8451775741318
 30
0.0
 10
959.791376339297
 20
302.1969381732997
 30
0.0
 10
959.3172689651
 20
302.5446617220711
 30
0.0
 10
958.8426412991737
 20
302.8883260237029
 30
0.0
 10
958.3675230216778
 20
303.2279091281621
 30
0.0
 10
957.8919438463444
 20
303.5633893333645
 30
0.0
 10
957.4159335189873
 20
303.8947451864109
 30
0.0
 10
956.9395218160361
 20
304.2219554848083
 30
0.0
 10
956.4627385430715
 20
304.544999277691
 30
0.0
 10
955.9856135333927
 20
304.8638558670259
 30
0.0
 10
955.5081766465895
 20
305.1785048088191
 30
0.0
 10
955.0304577671411
 20
305.4889259143108
 30
0.0
 10
954.5524868030209
 20
305.7950992511733
 30
0.0
 10
954.0742936843312
 20
306.0970051446982
 30
0.0
 10
953.5959083619463
 20
306.3946241789882
 30
0.0
 10
953.1173608061804
 20
306.6879371981431
 30
0.0
 10
952.638681005468
 20
306.976925307451
 30
0.0
 10
952.1598989650671
 20
307.2615698745776
 30
0.0
 10
951.6810447057768
 20
307.5418525307625
 30
0.0
 10
951.2021482626762
 20
307.8177551720161
 30
0.0
 10
950.7232396838792
 20
308.0892599603272
 30
0.0
 10
950.2443490293068
 20
308.3563493248763
 30
0.0
 10
949.7655063694762
 20
308.6190059632591
 30
0.0
 10
949.286741784309
 20
308.8772128427203
 30
0.0
 10
948.8080853619527
 20
309.1309532014027
 30
0.0
 10
948.3295671976156
 20
309.3802105496104
 30
0.0
 10
947.8512173924203
 20
309.6249686710876
 30
0.0
 10
947.3730660824363
 20
309.8652116091596
 30
0.0
 10
946.895143431762
 20
310.1009236724424
 30
0.0
 10
946.4174796097379
 20
310.3320894479172
 30
0.0
 10
945.9401047597809
 20
310.5586938162937
 30
0.0
 10
945.4630490041313
 20
310.7807219493744
 30
0.0
 10
944.9863424644199
 20
310.9981593008031
 30
0.0
 10
944.5100152605596
 20
311.2109916075342
 30
0.0
 10
944.0340975096465
 20
311.4192048913304
 30
0.0
 10
943.5586193248436
 20
311.6227854602987
 30
0.0
 10
943.0836108142646
 20
311.8217199104612
 30
0.0
 10
942.609102079845
 20
312.0159951273633
 30
0.0
 10
942.1351232161944
 20
312.2055982877218
 30
0.0
 10
941.6617043094327
 20
312.3905168611143
 30
0.0
 10
941.1888754360018
 20
312.5707386117102
 30
0.0
 10
940.7166666614512
 20
312.7462516000431
 30
0.0
 10
940.2451080391858
 20
312.9170441848302
 30
0.0
 10
939.7742296091803
 20
313.0831050248331
 30
0.0
 10
939.3040613966451
 20
313.2444230807652
 30
0.0
 10
938.8346334106483
 20
313.4009876172417
 30
0.0
 10
938.365975642677
 20
313.5527882047754
 30
0.0
 10
937.8981180651409
 20
313.6998147218139
 30
0.0
 10
937.4310906298072
 20
313.8420573568191
 30
0.0
 10
936.964923266156
 20
313.9795066103887
 30
0.0
 10
936.4996458796613
 20
314.1121532974121
 30
0.0
 10
936.0352883499761
 20
314.2399885492642
 30
0.0
 10
935.5718805290267
 20
314.363003816029
 30
0.0
 10
935.1094522390014
 20
314.4811908687515
 30
0.0
 10
934.64803327023
 20
314.5945418017112
 30
0.0
 10
934.1876533789466
 20
314.7030490347141
 30
0.0
 10
933.7283422849217
 20
314.8067053153955
 30
0.0
 10
933.2701296689706
 20
314.9055037215264
 30
0.0
 10
932.8130451703192
 20
314.9994376633162
 30
0.0
 10
932.3571183838271
 20
315.0885008857039
 30
0.0
 10
931.9023788570588
 20
315.1726874706267
 30
0.0
 10
931.4488560871972
 20
315.2519918392579
 30
0.0
 10
930.996579517803
 20
315.3264087542011
 30
0.0
 10
930.5455785354003
 20
315.3959333216295
 30
0.0
 10
930.0958824659036
 20
315.4605609933587
 30
0.0
 10
929.6475205708633
 20
315.5202875688378
 30
0.0
 10
929.2005220435518
 20
315.5751091970458
 30
0.0
 10
928.7549160048691
 20
315.6250223782785
 30
0.0
 10
928.3107314990817
 20
315.6700239658092
 30
0.0
 10
927.8679974893919
 20
315.71011116741
 30
0.0
 10
927.4267428533452
 20
315.745281546714
 30
0.0
 10
926.9869963780783
 20
315.7755330244048
 30
0.0
 10
926.5487867554178
 20
315.8008638792147
 30
0.0
 10
926.1121425768363
 20
315.8212727487153
 30
0.0
 10
925.6770923282784
 20
315.8367586298857
 30
0.0
 10
925.2436643848708
 20
315.8473208794381
 30
0.0
 10
924.8118870055308
 20
315.8529592138905
 30
0.0
 10
924.3817883274876
 20
315.853673709366
 30
0.0
 10
923.9533963607373
 20
315.8494648011101
 30
0.0
 10
923.5267389824555
 20
315.8403332827087
 30
0.0
 10
923.1018439313854
 20
315.8262803049986
 30
0.0
 10
922.6787388022304
 20
315.8073073746593
 30
0.0
 10
922.2574510400715
 20
315.7834163524795
 30
0.0
 10
921.8380079348443
 20
315.7546094512903
 30
0.0
 10
921.420436615902
 20
315.7208892335659
 30
0.0
 10
921.0047640466928
 20
315.6822586086864
 30
0.0
 10
920.5910170195892
 20
315.6387208298692
 30
0.0
 10
920.1792221508905
 20
315.5902794907694
 30
0.0
 10
919.7694058760451
 20
315.5369385217629
 30
0.0
 10
919.3615944451097
 20
315.4787021859171
 30
0.0
 10
918.9558139184929
 20
315.4155750746702
 30
0.0
 10
918.5520901630033
 20
315.3475621032318
 30
0.0
 10
918.1504488482339
 20
315.2746685057296
 30
0.0
 10
917.7509154433177
 20
315.1968998301253
 30
0.0
 10
917.3535152140735
 20
315.1142619329282
 30
0.0
 10
916.9582732205772
 20
315.026760973738
 30
0.0
 10
916.5652143151641
 20
314.934403409649
 30
0.0
 10
916.1743631408991
 20
314.8371959895553
 30
0.0
 10
915.7857441305142
 20
314.7351457483936
 30
0.0
 10
915.3993815058387
 20
314.6282600013667
 30
0.0
 10
915.0152992777178
 20
314.5165463381888
 30
0.0
 10
914.6335212464279
 20
314.4000126173988
 30
0.0
 10
914.2540710025897
 20
314.2786669607872
 30
0.0
 10
913.876971928567
 20
314.1525177479738
 30
0.0
 10
913.5022472003352
 20
314.021573611211
 30
0.0
 10
913.1299197898526
 20
313.8858434303572
 30
0.0
 10
912.7600124677075
 20
313.7453363284237
 30
0.0
 10
912.3925478067954
 20
313.6000616664036
 30
0.0
 10
912.0275481840836
 20
313.4500290423896
 30
0.0
 10
911.6650357912874
 20
313.2952482764809
 30
0.0
 10
911.3050326139137
 20
313.1357294506815
 30
0.0
 10
910.9475605297729
 20
312.9714827457033
 30
0.0
 10
910.5926409628896
 20
312.8025190379096
 30
0.0
 10
910.2402961975679
 20
312.6288476619531
 30
0.0
 10
909.8905444978577
 20
312.4504847529174
 30
0.0
 10
909.5434183447995
 20
312.2674221099855
 30
0.0
 10
909.1988964012309
 20
312.0797433914881
 30
0.0
 10
908.8571574383162
 20
311.8871904838523
 30
0.0
 10
908.5655265285153
 20
311.7184874749638
 30
0.0
 10
908.3889086710774
 20
311.6121048205107
 30
0.0
 10
908.3243001890904
 20
311.5731890397756
 30
0.0
  0
LINE
  5
136
330
1F
100
AcDbEntity
  8
0
  6
Continuous
 62
     7
370
    30
100
AcDbLine
 10
949.3842090179
 20
191.4267969536
 30
0.0
 11
948.6139466028
 21
190.9019263159
 31
0.0
  0
LINE
  5
137
330
1F
100
AcDbEntity
  8
0
  6
Continuous
 62
     7
370
    30
100
AcDbLine
 10
953.4021494648
 20
183.1995073468
 30
0.0
 11
953.995963476
 21
183.5349653624
 31
0.0
  0
LINE
  5
138
330
1F
100
AcDbEntity
  8
0
  6
Continuous
 62
     7
370
    30
100
AcDbLine
 10
931.7216287227
 20
201.6421804266
 30
0.0
 11
930.9362770731
 21
201.1070277137
 31
0.0
  0
LINE
  5
139
330
1F
100
AcDbEntity
  8
0
  6
Continuous
 62
     7
370
    30
100
AcDbLine
 10
935.7244799352
 20
193.4046087446
 30
0.0
 11
936.2812750792
 21
193.7191540241
 31
0.0
  0
LINE
  5
13A
330
1F
100
AcDbEntity
  8
0
  6
Continuous
 62
     7
370
    30
100
AcDbLine
 10
764.2125296698
 20
96.1147146314
 30
0.0
 11
764.2125296698
 21
91.3878787897
 31
0.0
  0
LINE
  5
13B
330
1F
100
AcDbEntity
  8
0
  6
Continuous
 62
     7
370
    30
100
AcDbLine
 10
791.7125296698
 20
91.3878787897
 30
0.0
 11
791.7125296698
 21
96.1139968861
 31
0.0
  0
SPLINE
  5
13C
330
1F
100
AcDbEntity
  8
0
  6
Continuous
 62
     7
370
    30
100
AcDbSpline
210
0.0
220
0.0
230
1.0
 70
     8
 71
     3
 72
   184
 73
   180
 74
     0
 42
0.000000001
 43
0.00000001
 40
0.0
 40
0.0
 40
0.0
 40
0.0
 40
0.0022284352195843
 40
0.010605785453103
 40
0.0185647160903701
 40
0.0261051434841529
 40
0.0332270252858117
 40
0.0399303539449281
 40
0.045867304451231
 40
0.0514322228611831
 40
0.0566251600684713
 40
0.0614461774303051
 40
0.0658953434091809
 40
0.0704999276706537
 40
0.0746245365116565
 40
0.0782692753525867
 40
0.0814342436324614
 40
0.0841195318768405
 40
0.0862858059074838
 40
0.0880499483140896
 40
0.0896653945907541
 40
0.0911615077601782
 40
0.0925382944796377
 40
0.0937957610296639
 40
0.0950676287699432
 40
0.0965871920643616
 40
0.0988549193796636
 40
0.1015207388773527
 40
0.1045845890893865
 40
0.1080463960903308
 40
0.1119060725592752
 40
0.1161635166920775
 40
0.1208002363250229
 40
0.1254891480851994
 40
0.1301098091498398
 40
0.1346622341353881
 40
0.1434056970240313
 40
0.151886083478294
 40
0.1604000464372226
 40
0.168631582395313
 40
0.1765808590682909
 40
0.1844214787242532
 40
0.1923589737905063
 40
0.196856364002765
 40
0.2013843770751987
 40
0.2059430117974358
 40
0.2105322674029991
 40
0.2151521435673597
 40
0.2198026404057705
 40
0.2243453193576421
 40
0.2274875391011446
 40
0.2302306411763248
 40
0.2325746864609008
 40
0.2345197270619712
 40
0.2360658061043427
 40
0.2371969814646426
 40
0.2382214934633865
 40
0.2393562248742467
 40
0.2406011708798025
 40
0.24309839897267
 40
0.2459470258803707
 40
0.2491470156124811
 40
0.2526983287410369
 40
0.25779388138575
 40
0.2632202870691064
 40
0.268928058716507
 40
0.2749171671184716
 40
0.2811875838648784
 40
0.2876198242561762
 40
0.2943233645804259
 40
0.3012981804040249
 40
0.3085442481516814
 40
0.3175240751620916
 40
0.3268882491261736
 40
0.336636734276062
 40
0.3467694966962429
 40
0.3572865043609686
 40
0.3681877271687314
 40
0.3777819246211971
 40
0.3876551793858204
 40
0.397807476945149
 40
0.4082388038730078
 40
0.4189491478451202
 40
0.429789826183021
 40
0.4405049119966494
 40
0.4510900070386666
 40
0.4630279838588465
 40
0.4747963111722159
 40
0.4863950538774654
 40
0.4978242747317875
 40
0.5090840342801823
 40
0.5201743907895304
 40
0.5310954001872644
 40
0.5436224023546635
 40
0.5559190693512535
 40
0.5679854768941075
 40
0.5798216959735065
 40
0.5914277927684921
 40
0.6028038285718992
 40
0.6139498597246933
 40
0.62486593755949
 40
0.6355521083531952
 40
0.6460084132887713
 40
0.6562348884261956
 40
0.6661387178843179
 40
0.6752510932292564
 40
0.6839761503606733
 40
0.6923138456482214
 40
0.7002641332652272
 40
0.7078269652586838
 40
0.7150022916273059
 40
0.7217900604094387
 40
0.7257784452918747
 40
0.7296152020714063
 40
0.7330526206457628
 40
0.7359488465311952
 40
0.7383038146451922
 40
0.7393883364504426
 40
0.7404828848500941
 40
0.7418531998885155
 40
0.7435016785758588
 40
0.7454283481684687
 40
0.7476332409109093
 40
0.750116393968954
 40
0.7536577559856252
 40
0.7576449067993757
 40
0.7620779530532564
 40
0.7669570122835799
 40
0.7721605519216015
 40
0.7773820250807483
 40
0.782606578421017
 40
0.7878342195854664
 40
0.798797005362904
 40
0.809773429861665
 40
0.8207635348632213
 40
0.8267641207741949
 40
0.832768788460787
 40
0.8387775390032672
 40
0.844790371992318
 40
0.8508072854735182
 40
0.8567881560330575
 40
0.8624893321598978
 40
0.8683899573474658
 40
0.8739021220000748
 40
0.8790256790818987
 40
0.8837604982870726
 40
0.8881064647661338
 40
0.8909665692912043
 40
0.8936290588820491
 40
0.8960924455369432
 40
0.8981973017368189
 40
0.8998358089516426
 40
0.9006559849190324
 40
0.9013508068527976
 40
0.9022615464130564
 40
0.9034304236206013
 40
0.9048574497754945
 40
0.9065426383561586
 40
0.909204019184783
 40
0.9123285313822548
 40
0.915916222967066
 40
0.9199671470118735
 40
0.9244597520247504
 40
0.9290142184860879
 40
0.9334915188258552
 40
0.9378916347879371
 40
0.9476044557071189
 40
0.956918359687753
 40
0.9658331808929919
 40
0.9743487743153867
 40
0.9788871730956011
 40
0.983062426984413
 40
0.9868605183257477
 40
0.9902814146686959
 40
0.9922386224395229
 40
0.9940467820734407
 40
0.9957368379834994
 40
0.9976754226571966
 40
1.0
 40
1.0
 40
1.0
 40
1.0
 10
764.2164851945973
 20
91.221000220295
 30
0.0
 10
764.2168510282062
 20
91.20212331900184
 30
0.0
 10
764.2185921390683
 20
91.11228253593801
 30
0.0
 10
764.2313426814819
 20
90.95518486114653
 30
0.0
 10
764.2537877946068
 20
90.75343048083562
 30
0.0
 10
764.2837206202107
 20
90.56272118932263
 30
0.0
 10
764.3189152651624
 20
90.38308581896051
 30
0.0
 10
764.3576771008424
 20
90.21745112472671
 30
0.0
 10
764.3985478889642
 20
90.06537618051807
 30
0.0
 10
764.4403282505563
 20
89.92639843431787
 30
0.0
 10
764.483049122233
 20
89.79717617067776
 30
0.0
 10
764.5259206575244
 20
89.67765046220738
 30
0.0
 10
764.56988282625
 20
89.56341421535683
 30
0.0
 10
764.6142514767747
 20
89.45534068419245
 30
0.0
 10
764.6582572554757
 20
89.35428966356548
 30
0.0
 10
764.69896813948
 20
89.26536440597135
 30
0.0
 10
764.7356893317636
 20
89.18845899912556
 30
0.0
 10
764.7676618293114
 20
89.12379743253409
 30
0.0
 10
764.794689361644
 20
89.07065513449378
 30
0.0
 10
764.81773320216
 20
89.0263441305065
 30
0.0
 10
764.8383537487276
 20
88.98743361419496
 30
0.0
 10
764.8576355298836
 20
88.95166691693981
 30
0.0
 10
764.8756362887973
 20
88.91879303052045
 30
0.0
 10
764.8928811303879
 20
88.88774140711955
 30
0.0
 10
764.9109836067495
 20
88.85557959800727
 30
0.0
 10
764.9339230847199
 20
88.81541600564907
 30
0.0
 10
764.9637184489034
 20
88.7642611844112
 30
0.0
 10
765.001498298409
 20
88.70100550988877
 30
0.0
 10
765.046047948436
 20
88.62851473972405
 30
0.0
 10
765.0978268110136
 20
88.54689660192153
 30
0.0
 10
765.1573504632676
 20
88.4562782894005
 30
0.0
 10
765.2250900710349
 20
88.356953363697
 30
0.0
 10
765.2997627450568
 20
88.25175856604334
 30
0.0
 10
765.3791105722042
 20
88.14444767705537
 30
0.0
 10
765.460615175072
 20
88.03850296285017
 30
0.0
 10
765.5692923244997
 20
87.90251254687628
 30
0.0
 10
765.7072165751538
 20
87.73892764470456
 30
0.0
 10
765.8790211398727
 20
87.54834495226666
 30
0.0
 10
766.0557788658031
 20
87.3643505754466
 30
0.0
 10
766.2367523180056
 20
87.18705556730907
 30
0.0
 10
766.4201235117649
 20
87.01736123669437
 30
0.0
 10
766.6081894946317
 20
86.85251463399993
 30
0.0
 10
766.7747233543919
 20
86.71408918310425
 30
0.0
 10
766.9178188888828
 20
86.5999407073044
 30
0.0
 10
767.0345825466073
 20
86.50950842669403
 30
0.0
 10
767.1543125320032
 20
86.41947348037529
 30
0.0
 10
767.2770286532882
 20
86.32987239873424
 30
0.0
 10
767.4027494350048
 20
86.2407425447643
 30
0.0
 10
767.5302146613369
 20
86.1530014132568
 30
0.0
 10
767.6459403330522
 20
86.0756251175212
 30
0.0
 10
767.7451088078097
 20
86.01090611440215
 30
0.0
 10
767.8241668229364
 20
85.96025757113266
 30
0.0
 10
767.8923074254128
 20
85.91729483747629
 30
0.0
 10
767.949252362796
 20
85.88187054227312
 30
0.0
 10
767.994616938057
 20
85.85395705849244
 30
0.0
 10
768.0310987419178
 20
85.83169659036743
 30
0.0
 10
768.0636275064625
 20
85.81198156000062
 30
0.0
 10
768.0973906641311
 20
85.79165603325906
 30
0.0
 10
768.1459355096714
 20
85.76264836705843
 30
0.0
 10
768.2119172305775
 20
85.72367955367486
 30
0.0
 10
768.2981738665532
 20
85.67357952694019
 30
0.0
 10
768.3959629348143
 20
85.61784354604701
 30
0.0
 10
768.517863790088
 20
85.54981411336907
 30
0.0
 10
768.6645254211896
 20
85.47014876481515
 30
0.0
 10
768.8361928237304
 20
85.37992324771426
 30
0.0
 10
769.0200959560472
 20
85.28658973282174
 30
0.0
 10
769.2160764233867
 20
85.19073254268925
 30
0.0
 10
769.4231777570707
 20
85.09330544804322
 30
0.0
 10
769.6415793202002
 20
84.99465876877774
 30
0.0
 10
769.8714474465924
 20
84.89515334702133
 30
0.0
 10
770.1143504014867
 20
84.79461301192684
 30
0.0
 10
770.3878538911766
 20
84.6866352521094
 30
0.0
 10
770.6946188962531
 20
84.57200437910689
 30
0.0
 10
771.0374336925337
 20
84.45180769907826
 30
0.0
 10
771.4005786837935
 20
84.33290416412112
 30
0.0
 10
771.7844566564762
 20
84.21615882730538
 30
0.0
 10
772.1894087026686
 20
84.10248658283187
 30
0.0
 10
772.5936634548838
 20
83.99852057926063
 30
0.0
 10
772.9949106328829
 20
83.90410141059756
 30
0.0
 10
773.3909070057639
 20
83.81893543571506
 30
0.0
 10
773.8026145203031
 20
83.73877105948965
 30
0.0
 10
774.229982087896
 20
83.66431047628339
 30
0.0
 10
774.6708432713364
 20
83.59659291999452
 30
0.0
 10
775.1193240376871
 20
83.53697014273925
 30
0.0
 10
775.5692475291248
 20
83.48631067195191
 30
0.0
 10
776.0372654722
 20
83.44290215127911
 30
0.0
 10
776.5225505701461
 20
83.40796577108114
 30
0.0
 10
777.0241177136146
 20
83.38271864459887
 30
0.0
 10
777.5196822221726
 20
83.36828393426826
 30
0.0
 10
778.0085586000666
 20
83.3642248751544
 30
0.0
 10
778.4901182181521
 20
83.37009726350477
 30
0.0
 10
778.9637881938785
 20
83.38545171689371
 30
0.0
 10
779.4542535587236
 20
83.4111560025051
 30
0.0
 10
779.9598640223584
 20
83.4484924051351
 30
0.0
 10
780.4786996583526
 20
83.49869479454975
 30
0.0
 10
780.9842202621021
 20
83.55912490151499
 30
0.0
 10
781.4759396432023
 20
83.6290677645545
 30
0.0
 10
781.9534546571952
 20
83.70781650575681
 30
0.0
 10
782.416438674155
 20
83.79467457413168
 30
0.0
 10
782.8646380136073
 20
83.88895787073649
 30
0.0
 10
783.2978674332511
 20
83.98999656004422
 30
0.0
 10
783.7160062431886
 20
84.0971368168498
 30
0.0
 10
784.1189927996646
 20
84.20974178557486
 30
0.0
 10
784.5056510322024
 20
84.32683892788292
 30
0.0
 10
784.8691053699815
 20
84.44547341579926
 30
0.0
 10
785.208006693455
 20
84.56390137507933
 30
0.0
 10
785.5223185172196
 20
84.6807688661869
 30
0.0
 10
785.817475915637
 20
84.79705617450948
 30
0.0
 10
786.0940072862801
 20
84.91206675844357
 30
0.0
 10
786.3524622629616
 20
85.0251510649995
 30
0.0
 10
786.5934036519126
 20
85.13570484984709
 30
0.0
 10
786.7908741842768
 20
85.23044178877923
 30
0.0
 10
786.94938946753
 20
85.30913121089354
 30
0.0
 10
787.0703029656871
 20
85.37065436730657
 30
0.0
 10
787.1784099432508
 20
85.42693405283433
 30
0.0
 10
787.269951559648
 20
85.47554634218885
 30
0.0
 10
787.3362124363377
 20
85.51131713219497
 30
0.0
 10
787.3834008909303
 20
85.53706743538957
 30
0.0
 10
787.4202374999672
 20
85.5573063364183
 30
0.0
 10
787.4627909686379
 20
85.58086723324857
 30
0.0
 10
787.5137348613137
 20
85.60934143381127
 30
0.0
 10
787.5729673064639
 20
85.64282078078939
 30
0.0
 10
787.6403368521782
 20
85.68139474669503
 30
0.0
 10
787.7235555624644
 20
85.729747436558
 30
0.0
 10
787.8238537988532
 20
85.78913266634386
 30
0.0
 10
787.9422568551452
 20
85.86090915711958
 30
0.0
 10
788.0720986036496
 20
85.94172424443327
 30
0.0
 10
788.2116075856001
 20
86.03113237667267
 30
0.0
 10
788.3561381999818
 20
86.12674653170745
 30
0.0
 10
788.5012100022064
 20
86.2259356100851
 30
0.0
 10
788.6437308669286
 20
86.32667180211371
 30
0.0
 10
788.8346110703484
 20
86.46617901361311
 30
0.0
 10
789.0691180915112
 20
86.64678012737184
 30
0.0
 10
789.3404401172778
 20
86.87137578213638
 30
0.0
 10
789.5596173930186
 20
87.0667628170003
 30
0.0
 10
789.7324867515745
 20
87.23021325385663
 30
0.0
 10
789.8638015606322
 20
87.35976932092535
 30
0.0
 10
789.9910425645134
 20
87.49088349686743
 30
0.0
 10
790.1141549582178
 20
87.6235159988328
 30
0.0
 10
790.2328183675897
 20
87.75732529811044
 30
0.0
 10
790.3452154617321
 20
87.89013595040124
 30
0.0
 10
790.4527143739706
 20
88.02324616378645
 30
0.0
 10
790.553296482938
 20
88.15390168765776
 30
0.0
 10
790.6465980684668
 20
88.28113978607196
 30
0.0
 10
790.7299301464114
 20
88.40022994073205
 30
0.0
 10
790.8040134784314
 20
88.5109571710036
 30
0.0
 10
790.8640112424337
 20
88.60453743786503
 30
0.0
 10
790.9120912414337
 20
88.68218662546043
 30
0.0
 10
790.9500622461435
 20
88.74520872692318
 30
0.0
 10
790.9836505467918
 20
88.80241885668383
 30
0.0
 10
791.0118763978196
 20
88.85163974392671
 30
0.0
 10
791.0322629157796
 20
88.8878942847626
 30
0.0
 10
791.0461819403365
 20
88.91297238185588
 30
0.0
 10
791.056805732526
 20
88.9322691756351
 30
0.0
 10
791.0688551648097
 20
88.95434552078626
 30
0.0
 10
791.0839259769082
 20
88.98227110716935
 30
0.0
 10
791.1020849312787
 20
89.01640172213146
 30
0.0
 10
791.1261880361328
 20
89.06249541474028
 30
0.0
 10
791.1566798552202
 20
89.12225832939943
 30
0.0
 10
791.193770384195
 20
89.1974340111304
 30
0.0
 10
791.2348033189438
 20
89.28400645292703
 30
0.0
 10
791.2790510997831
 20
89.38189586258069
 30
0.0
 10
791.32440238801
 20
89.48794914095457
 30
0.0
 10
791.3685693632785
 20
89.59782416827805
 30
0.0
 10
791.4097874092764
 20
89.70729102958738
 30
0.0
 10
791.4632227203575
 20
89.85923240517462
 30
0.0
 10
791.5233076549588
 20
90.05152902072282
 30
0.0
 10
791.5832386683845
 20
90.281973536678
 30
0.0
 10
791.6297982492213
 20
90.50335610383131
 30
0.0
 10
791.6595308718423
 20
90.68570326839246
 30
0.0
 10
791.6778353422383
 20
90.82890996129726
 30
0.0
 10
791.6886954499558
 20
90.9329813768626
 30
0.0
 10
791.6965474641562
 20
91.02777127018786
 30
0.0
 10
791.7014065739438
 20
91.10417762797438
 30
0.0
 10
791.7043008492581
 20
91.16386650924777
 30
0.0
 10
791.7061540359832
 20
91.20954547222843
 30
0.0
 10
791.7071418140649
 20
91.25368006766408
 30
0.0
 10
791.7110078185276
 20
91.3135022196511
 30
0.0
 10
791.7119926629587
 20
91.36163378342302
 30
0.0
 10
791.7125296697724
 20
91.38787851495911
 30
0.0
  0
LINE
  5
13D
330
1F
100
AcDbEntity
  8
0
  6
Continuous
 62
     7
370
    30
100
AcDbLine
 10
791.9617550825
 20
97.5902270755
 30
0.0
 11
791.9625296698
 21
97.6752430412
 31
0.0
  0
LINE
  5
13E
330
1F
100
AcDbEntity
  8
0
  6
Continuous
 62
     7
370
    30
100
AcDbLine
 10
763.9625296698
 20
97.6752430412
 30
0.0
 11
763.9632113812
 21
97.5954864957
 31
0.0
  0
LINE
  5
13F
330
1F
100
AcDbEntity
  8
0
  6
Continuous
 62
     7
370
    30
100
AcDbLine
 10
901.1381406657
 20
307.1157527407
 30
0.0
 11
901.2999191449
 21
307.2161895059
 31
0.0
  0
LINE
  5
140
330
1F
100
AcDbEntity
  8
0
  6
Continuous
 62
     7
370
    30
100
AcDbLine
 10
986.0299693708
 20
160.4509580818
 30
0.0
 11
985.8567249043
 21
160.3582100994
 31
0.0
  0
LINE
  5
141
330
1F
100
AcDbEntity
  8
0
  6
Continuous
 62
     7
370
    30
100
AcDbLine
 10
907.9667510866
 20
311.3555649783
 30
0.0
 11
908.3198205537
 21
311.5712201485
 31
0.0
  0
LINE
  5
142
330
1F
100
AcDbEntity
  8
0
  6
Continuous
 62
     7
370
    30
100
AcDbLine
 10
993.3057633169
 20
164.3488446697
 30
0.0
 11
992.9452697491
 21
164.1525033446
 31
0.0
  0
SPLINE
  5
143
330
1F
100
AcDbEntity
  8
0
  6
Continuous
 62
     7
370
    30
100
AcDbSpline
210
0.0
220
0.0
230
1.0
 70
    11
 71
     3
 72
   118
 73
   114
 74
     0
 42
0.000000001
 43
0.00000001
 40
0.0
 40
0.0
 40
0.0
 40
0.0
 40
0.0111541428088335
 40
0.0223220348352896
 40
0.0334761729165855
 40
0.0422908912845495
 40
0.0511123866064691
 40
0.0599271030516483
 40
0.068997681116614
 40
0.0780756475332183
 40
0.0871462236246893
 40
0.0959600132953052
 40
0.1047805825648347
 40
0.1135943708365694
 40
0.1226641030489303
 40
0.1317412259591783
 40
0.140810957185042
 40
0.1496259158357017
 40
0.1584476596238051
 40
0.1672626180128621
 40
0.1763336915840959
 40
0.1854121605850575
 40
0.1944832345900435
 40
0.2033009492146176
 40
0.212125454987093
 40
0.2209431706045726
 40
0.2300171866568038
 40
0.2390986031857546
 40
0.2481726209042185
 40
0.2569934712390703
 40
0.2658211165656958
 40
0.2746419687144784
 40
0.283719239235168
 40
0.2928039133788519
 40
0.3018811860687521
 40
0.3107041763439062
 40
0.3195339615961892
 40
0.3283569537103866
 40
0.3374363629399269
 40
0.3465231756542594
 40
0.3556025866039957
 40
0.3644257821466265
 40
0.3732557688007861
 40
0.3820789654004483
 40
0.3911584592682316
 40
0.4002453532604787
 40
0.4093248476449063
 40
0.4181462245554278
 40
0.4269743865625668
 40
0.4357957632861714
 40
0.4448732515683863
 40
0.4539581348706788
 40
0.4630356222411769
 40
0.471853954899956
 40
0.4806790671290639
 40
0.4894973984414157
 40
0.4985716711580744
 40
0.5076533342837621
 40
0.5167276050617783
 40
0.5255430017560764
 40
0.534365175398297
 40
0.5431805701773027
 40
0.5522518261426214
 40
0.5613304704149177
 40
0.57040172426403
 40
0.579215578674754
 40
0.5880362114596732
 40
0.5968500642241815
 40
0.6059198229464083
 40
0.6149969713014338
 40
0.6240667286559617
 40
0.6328811101929381
 40
0.6417022749589983
 40
0.6505166558399987
 40
0.6595870929722417
 40
0.6686649239142977
 40
0.6777353610270967
 40
0.6865521094067528
 40
0.6953756471780522
 40
0.7041923961817125
 40
0.7132653915563376
 40
0.7223457859426601
 40
0.7314187826568245
 40
0.740238701046085
 40
0.7490654135940986
 40
0.7578853336160586
 40
0.7669616465454102
 40
0.7760453624306949
 40
0.7851216774727332
 40
0.7939441786306617
 40
0.8027734752216643
 40
0.8115959783049594
 40
0.8206749128078998
 40
0.8297612512190052
 40
0.8388401876807288
 40
0.8476635511010341
 40
0.8564937071761352
 40
0.8653170719690337
 40
0.874396781780383
 40
0.8834838930429731
 40
0.8925636037995359
 40
0.9013861386314407
 40
0.9102154614538194
 40
0.919037996504593
 40
0.9281167400389146
 40
0.9372028813279992
 40
0.9462816243807778
 40
0.9551041840305176
 40
0.9639335322078463
 40
0.9727560908278798
 40
0.981834927697164
 40
0.990921164828257
 40
1.0
 40
1.0
 40
1.0
 40
1.0
 10
953.3842043165798
 20
188.4672149133938
 30
0.0
 10
953.3260449710266
 20
188.5617777184122
 30
0.0
 10
953.2096545894718
 20
188.7510198918289
 30
0.0
 10
953.0214048626667
 20
189.0251975171534
 30
0.0
 10
952.8380760400636
 20
189.2721136080689
 30
0.0
 10
952.6616022265285
 20
189.492103654629
 30
0.0
 10
952.494558400187
 20
189.6870668394961
 30
0.0
 10
952.3214024602249
 20
189.8760545559196
 30
0.0
 10
952.1424973592482
 20
190.0581461565876
 30
0.0
 10
951.958335172904
 20
190.2325217080237
 30
0.0
 10
951.7729697338353
 20
190.3953443105384
 30
0.0
 10
951.5870736875003
 20
190.5463240686819
 30
0.0
 10
951.4013027036501
 20
190.6854417775736
 30
0.0
 10
951.2126261280238
 20
190.8149668205497
 30
0.0
 10
951.0215879618071
 20
190.9340203300244
 30
0.0
 10
950.8288104869811
 20
191.0419223008595
 30
0.0
 10
950.6385231049936
 20
191.1363045758089
 30
0.0
 10
950.4513276147113
 20
191.2171594702951
 30
0.0
 10
950.2677327232823
 20
191.2847743980408
 30
0.0
 10
950.0847570056989
 20
191.3402466769718
 30
0.0
 10
949.903078254658
 20
191.3828495437053
 30
0.0
 10
949.7233751500056
 20
191.4121168012195
 30
0.0
 10
949.5495821203632
 20
191.4274065115778
 30
0.0
 10
949.3821633599795
 20
191.4289944154396
 30
0.0
 10
949.221424339364
 20
191.4174430845046
 30
0.0
 10
949.0647637586504
 20
191.3925645099384
 30
0.0
 10
948.9129167456995
 20
191.353866415252
 30
0.0
 10
948.7665416844291
 20
191.3011493197933
 30
0.0
 10
948.6288427153819
 20
191.2355661127393
 30
0.0
 10
948.5000937606947
 20
191.1576471012882
 30
0.0
 10
948.3803620156116
 20
191.0681686898145
 30
0.0
 10
948.2677112305543
 20
190.9656826891938
 30
0.0
 10
948.162850649082
 20
190.8499871892426
 30
0.0
 10
948.0663438522606
 20
190.7211720439906
 30
0.0
 10
947.980306933529
 20
190.5820613586041
 30
0.0
 10
947.9047909382027
 20
190.433382010775
 30
0.0
 10
947.8396155663861
 20
190.2760380443031
 30
0.0
 10
947.7837242862048
 20
190.1074780629759
 30
0.0
 10
947.7377201811173
 20
189.9278132456787
 30
0.0
 10
947.7020083707326
 20
189.7374124367356
 30
0.0
 10
947.6773737465644
 20
189.5404630770658
 30
0.0
 10
947.6636372318557
 20
189.3378063302283
 30
0.0
 10
947.6603902178499
 20
189.1303712716594
 30
0.0
 10
947.6675795223687
 20
188.9147803209312
 30
0.0
 10
947.6856340827399
 20
188.6914447888326
 30
0.0
 10
947.7147550357423
 20
188.4609705706352
 30
0.0
 10
947.7542992476882
 20
188.2284411036807
 30
0.0
 10
947.8038778538593
 20
187.9947148571837
 30
0.0
 10
947.8629004397754
 20
187.760639129169
 30
0.0
 10
947.9323315787567
 20
187.5223860008081
 30
0.0
 10
948.0123780229845
 20
187.2806201366662
 30
0.0
 10
948.1030145298348
 20
187.0361160110217
 30
0.0
 10
948.2022382048459
 20
186.7942744770404
 30
0.0
 10
948.3094958768285
 20
186.5558725884402
 30
0.0
 10
948.4240834897965
 20
186.3215788394733
 30
0.0
 10
948.5478790144517
 20
186.0875519160922
 30
0.0
 10
948.6808440397713
 20
185.8546348923407
 30
0.0
 10
948.8227299334894
 20
185.6236836879431
 30
0.0
 10
948.9704036740371
 20
185.3997971285878
 30
0.0
 10
949.123211741751
 20
185.1835833364852
 30
0.0
 10
949.2804170756357
 20
184.9754571038135
 30
0.0
 10
949.4445955713961
 20
184.7720074334278
 30
0.0
 10
949.6154680172931
 20
184.5741611545438
 30
0.0
 10
949.7925902960225
 20
184.3827594888321
 30
0.0
 10
949.972060774497
 20
184.2020186606509
 30
0.0
 10
950.1531993159484
 20
184.0323113275911
 30
0.0
 10
950.3353186920967
 20
183.8737538105283
 30
0.0
 10
950.5213939560671
 20
183.7237559004821
 30
0.0
 10
950.7109362771722
 20
183.5832241178187
 30
0.0
 10
950.9033558458608
 20
183.4528903395505
 30
0.0
 10
951.0944272780683
 20
183.3356173034872
 30
0.0
 10
951.2835189643616
 20
183.2315022515841
 30
0.0
 10
951.4700694535729
 20
183.1403515696182
 30
0.0
 10
951.6571124169246
 20
183.060683505337
 30
0.0
 10
951.8440041690955
 20
182.9932821269226
 30
0.0
 10
952.0300755365346
 20
182.9386873051069
 30
0.0
 10
952.2112507569705
 20
182.8980960032402
 30
0.0
 10
952.3870162736057
 20
182.8713192466469
 30
0.0
 10
952.5569983410926
 20
182.8578750702756
 30
0.0
 10
952.72395014408
 20
182.8575466952037
 30
0.0
 10
952.8871456421338
 20
182.8709069735567
 30
0.0
 10
953.0459118421459
 20
182.8982425510283
 30
0.0
 10
953.1967739324854
 20
182.9389563084103
 30
0.0
 10
953.3393940597451
 20
182.992592463881
 30
0.0
 10
953.4736284049131
 20
183.058433125368
 30
0.0
 10
953.601647497914
 20
183.1375441022852
 30
0.0
 10
953.7227250722634
 20
183.2302219973121
 30
0.0
 10
953.836260465436
 20
183.3364676884588
 30
0.0
 10
953.9397659087418
 20
183.453953853888
 30
0.0
 10
954.0331187667085
 20
183.5820071165096
 30
0.0
 10
954.1164228235547
 20
183.7197528088213
 30
0.0
 10
954.1910270523738
 20
183.8694224867217
 30
0.0
 10
954.2562872026984
 20
184.0310029554256
 30
0.0
 10
954.3117428537686
 20
184.2042093404751
 30
0.0
 10
954.3561759456854
 20
184.3852362115863
 30
0.0
 10
954.389694644232
 20
184.5732681108827
 30
0.0
 10
954.4126401003047
 20
184.7673722335425
 30
0.0
 10
954.4253855552982
 20
184.9707046420685
 30
0.0
 10
954.4274415171278
 20
185.1829441657783
 30
0.0
 10
954.4185396418591
 20
185.4035526419592
 30
0.0
 10
954.3988765911105
 20
185.6276714891152
 30
0.0
 10
954.3687790018461
 20
185.8544371225803
 30
0.0
 10
954.3287864879737
 20
186.0829657091391
 30
0.0
 10
954.2782468735327
 20
186.3169864187469
 30
0.0
 10
954.216880240258
 20
186.5559066551725
 30
0.0
 10
954.1446405492633
 20
186.7989959316176
 30
0.0
 10
954.0631146506923
 20
187.040910209578
 30
0.0
 10
953.9728106246852
 20
187.2808389622494
 30
0.0
 10
953.8743895037211
 20
187.5180405359736
 30
0.0
 10
953.7662967640188
 20
187.7564047578472
 30
0.0
 10
953.6483093933566
 20
187.9950298056702
 30
0.0
 10
953.5213043095567
 20
188.2334677127284
 30
0.0
 10
953.4298918979022
 20
188.3893203489421
 30
0.0
 10
953.3842043165798
 20
188.4672149133938
 30
0.0
  0
SPLINE
  5
144
330
1F
100
AcDbEntity
  8
0
  6
Continuous
 62
     7
370
    30
100
AcDbSpline
210
0.0
220
0.0
230
1.0
 70
    11
 71
     3
 72
   118
 73
   114
 74
     0
 42
0.000000001
 43
0.00000001
 40
0.0
 40
0.0
 40
0.0
 40
0.0
 40
0.0111490746590172
 40
0.022311896209563
 40
0.033460967599496
 40
0.0422753459089757
 40
0.0510965074332706
 40
0.0599108850840179
 40
0.0689813185391089
 40
0.0780591457915933
 40
0.0871295792236488
 40
0.0959463200696071
 40
0.1047698502909469
 40
0.1135865917576148
 40
0.1226595790910441
 40
0.131739965422393
 40
0.1408129540920263
 40
0.1496328640248942
 40
0.1584595681062593
 40
0.1672794796695653
 40
0.176355783828243
 40
0.1854394909345711
 40
0.1945157972045722
 40
0.2033382930919415
 40
0.2121675844137512
 40
0.220990082226521
 40
0.2300690115090333
 40
0.2391553447014433
 40
0.248234275944219
 40
0.2570576399434352
 40
0.2658877966101667
 40
0.2747111619844446
 40
0.2837908727748399
 40
0.2928779850276167
 40
0.3019576967669312
 40
0.3107798307510931
 40
0.3196087518022959
 40
0.3284308860090133
 40
0.3375091925551011
 40
0.3465948957841381
 40
0.355673201852896
 40
0.3644925481107294
 40
0.373318675460744
 40
0.3821380206935908
 40
0.3912133541286248
 40
0.400296079232459
 40
0.4093714109752408
 40
0.4181876338543535
 40
0.4270106340902129
 40
0.4358268551474078
 40
0.4448989497639826
 40
0.4539784329938707
 40
0.4630505254453986
 40
0.471864656934233
 40
0.480685565914333
 40
0.4894996955817054
 40
0.4985697037367177
 40
0.5076471007431441
 40
0.5167171072078267
 40
0.5255310951326408
 40
0.5343518644964154
 40
0.5431658513974889
 40
0.5522358392074973
 40
0.5613132192988194
 40
0.5703832066336094
 40
0.5791990627381692
 40
0.5880217063201141
 40
0.59683756264889
 40
0.6059096063550757
 40
0.6149890474664734
 40
0.6240610921226709
 40
0.6328800105850241
 40
0.6417057220085317
 40
0.6505246418474067
 40
0.6595999178602192
 40
0.6686825958501592
 40
0.6777578738237161
 40
0.6865797061302709
 40
0.6954083339161972
 40
0.7042301681487164
 40
0.7133084354869402
 40
0.7223941068126912
 40
0.7314723762625812
 40
0.7402956953245933
 40
0.7491258083105039
 40
0.7579491290021927
 40
0.7670288340489755
 40
0.77611594164881
 40
0.7851956480311623
 40
0.7940183750581692
 40
0.8028478910673874
 40
0.8116706187132141
 40
0.8207495778239642
 40
0.8298359352421052
 40
0.8389148943273793
 40
0.8477352114314465
 40
0.8565623113625567
 40
0.8653826278057464
 40
0.8744589858645325
 40
0.8835427370388931
 40
0.892619093724698
 40
0.9014370909272774
 40
0.910261868249594
 40
0.9190798638028892
 40
0.9281538339479092
 40
0.9372351956142656
 40
0.9463091636409916
 40
0.9551271884203776
 40
0.9639519981117581
 40
0.9727700209739253
 40
0.9818442154493405
 40
0.9909258074624931
 40
1.0
 40
1.0
 40
1.0
 40
1.0
 10
935.4812749901428
 20
198.9673111803903
 30
0.0
 10
935.4199595465738
 20
199.059479636561
 30
0.0
 10
935.2972530570403
 20
199.2439301932906
 30
0.0
 10
935.1009861323297
 20
199.5091264543355
 30
0.0
 10
934.9112126041231
 20
199.746548169586
 30
0.0
 10
934.7297291679946
 20
199.95674083192
 30
0.0
 10
934.5588299981616
 20
200.1419409389806
 30
0.0
 10
934.3825799653989
 20
200.3202946846828
 30
0.0
 10
934.2013851482895
 20
200.4908827112582
 30
0.0
 10
934.0157664733659
 20
200.6529041514652
 30
0.0
 10
933.8297902563953
 20
200.802810294477
 30
0.0
 10
933.644110239565
 20
200.9403659320128
 30
0.0
 10
933.4593461055764
 20
201.0656153621641
 30
0.0
 10
933.2725047962889
 20
201.1805866307361
 30
0.0
 10
933.0841604975068
 20
201.2844227145619
 30
0.0
 10
932.8949473640187
 20
201.3764818791916
 30
0.0
 10
932.7090061019716
 20
201.4547485622972
 30
0.0
 10
932.5269052114802
 20
201.519275301047
 30
0.0
 10
932.3491052165474
 20
201.5704117894657
 30
0.0
 10
932.1727306482061
 20
201.6089841499989
 30
0.0
 10
931.9984711746669
 20
201.6343078067976
 30
0.0
 10
931.8269991481592
 20
201.645969303581
 30
0.0
 10
931.6620715202914
 20
201.6437126678883
 30
0.0
 10
931.5041065250361
 20
201.6278743351508
 30
0.0
 10
931.3533527796835
 20
201.5990721587097
 30
0.0
 10
931.2073686836603
 20
201.5568391183656
 30
0.0
 10
931.066881277238
 20
201.5007405874858
 30
0.0
 10
930.9325250429631
 20
201.4306380612015
 30
0.0
 10
930.8072514647371
 20
201.348071936822
 30
0.0
 10
930.6912795571991
 20
201.2536260808772
 30
0.0
 10
930.5846163488935
 20
201.1481178416611
 30
0.0
 10
930.4855273857357
 20
201.0298318218811
 30
0.0
 10
930.394694849193
 20
200.8986322111904
 30
0.0
 10
930.3126437548049
 20
200.7546708048971
 30
0.0
 10
930.24118154108
 20
200.6011208515601
 30
0.0
 10
930.180302092014
 20
200.4387470343677
 30
0.0
 10
930.1297691983843
 20
200.2684729782785
 30
0.0
 10
930.0887568820151
 20
200.0875180182257
 30
0.0
 10
930.0578256363258
 20
199.8960600141903
 30
0.0
 10
930.0373320129733
 20
199.6945236054062
 30
0.0
 10
930.0277276178524
 20
199.4873599598987
 30
0.0
 10
930.0287824018021
 20
199.2754260707442
 30
0.0
 10
930.0400442918888
 20
199.0596455855299
 30
0.0
 10
930.0616970204044
 20
198.8364830618181
 30
0.0
 10
930.0941165490706
 20
198.6064096268374
 30
0.0
 10
930.1374510368596
 20
198.3700747923687
 30
0.0
 10
930.1907426687226
 20
198.1326986729047
 30
0.0
 10
930.2535651521484
 20
197.8951323094568
 30
0.0
 10
930.3253031596354
 20
197.6581940572192
 30
0.0
 10
930.4071322346433
 20
197.417999376294
 30
0.0
 10
930.4992017072575
 20
197.1752596297057
 30
0.0
 10
930.6014347315692
 20
196.9307762134975
 30
0.0
 10
930.7115772236476
 20
196.689939272252
 30
0.0
 10
930.8290560608831
 20
196.4534984950125
 30
0.0
 10
930.953163033474
 20
196.2220755475142
 30
0.0
 10
931.0859278476743
 20
195.991885257676
 30
0.0
 10
931.2272563235571
 20
195.7637994634737
 30
0.0
 10
931.3768551023229
 20
195.5386814443178
 30
0.0
 10
931.5314361153569
 20
195.321479785537
 30
0.0
 10
931.690343709118
 20
195.1127605258518
 30
0.0
 10
931.852856057532
 20
194.9128806533981
 30
0.0
 10
932.0216199555426
 20
194.7185851889165
 30
0.0
 10
932.1963079993769
 20
194.5308085354339
 30
0.0
 10
932.376443117452
 20
194.3503786608664
 30
0.0
 10
932.558077452616
 20
194.1812509364167
 30
0.0
 10
932.7405450518638
 20
194.0237457478805
 30
0.0
 10
932.9231902383203
 20
193.8779165226546
 30
0.0
 10
933.1089748559237
 20
193.7413992595491
 30
0.0
 10
933.2973748794914
 20
193.6150855465282
 30
0.0
 10
933.4877831922315
 20
193.4996744836792
 30
0.0
 10
933.6760327814811
 20
193.3976928362785
 30
0.0
 10
933.8615209988375
 20
193.3091789153265
 30
0.0
 10
934.043731104248
 20
193.2338759088754
 30
0.0
 10
934.2256104589947
 20
193.1705666631027
 30
0.0
 10
934.4064975005359
 20
193.1199990115379
 30
0.0
 10
934.5857236635877
 20
193.0826640123572
 30
0.0
 10
934.759364350402
 20
193.0593798691679
 30
0.0
 10
934.9269482865665
 20
193.0498963607531
 30
0.0
 10
935.0881563420461
 20
193.0536733260944
 30
0.0
 10
935.2455974062211
 20
193.0707725793419
 30
0.0
 10
935.3985472805739
 20
193.1017134756398
 30
0.0
 10
935.5463516036947
 20
193.1467235006908
 30
0.0
 10
935.6857664048974
 20
193.2048146997134
 30
0.0
 10
935.8165065288995
 20
193.2754745655794
 30
0.0
 10
935.9384880110101
 20
193.3579389575166
 30
0.0
 10
936.0536915364283
 20
193.4535469489142
 30
0.0
 10
936.1614122476959
 20
193.5625308478376
 30
0.0
 10
936.2610839049947
 20
193.6848290990396
 30
0.0
 10
936.3505126226132
 20
193.8177483901089
 30
0.0
 10
936.4296330936801
 20
193.9605717698643
 30
0.0
 10
936.4986072371269
 20
194.1123977138593
 30
0.0
 10
936.5585605785642
 20
194.2757022593802
 30
0.0
 10
936.6088871015656
 20
194.450404870922
 30
0.0
 10
936.6491724019971
 20
194.6361622482209
 30
0.0
 10
936.6785282150925
 20
194.8288735178461
 30
0.0
 10
936.6971165056625
 20
195.0277001404247
 30
0.0
 10
936.7053265715572
 20
195.2317068453735
 30
0.0
 10
936.7032936285252
 20
195.4442335198011
 30
0.0
 10
936.6905785310736
 20
195.6648962961523
 30
0.0
 10
936.666965155396
 20
195.8931090327983
 30
0.0
 10
936.6329748861909
 20
196.1238372779551
 30
0.0
 10
936.5889760252959
 20
196.356217988764
 30
0.0
 10
936.5355387917466
 20
196.5893894357496
 30
0.0
 10
936.4717890097056
 20
196.8271676446259
 30
0.0
 10
936.3975034090872
 20
197.0689085224141
 30
0.0
 10
936.3126885693034
 20
197.3138489632471
 30
0.0
 10
936.2192067209926
 20
197.5566061210382
 30
0.0
 10
936.1175917788909
 20
197.7963911202972
 30
0.0
 10
936.0085172437803
 20
198.0325023391027
 30
0.0
 10
935.8902505347045
 20
198.2688170703065
 30
0.0
 10
935.7626434620444
 20
198.5043754664461
 30
0.0
 10
935.6265530743677
 20
198.7388032621306
 30
0.0
 10
935.5296878589259
 20
198.8911625725557
 30
0.0
 10
935.4812749901428
 20
198.9673111803903
 30
0.0
  0
LWPOLYLINE
  5
145
330
1F
100
AcDbEntity
  8
0
  6
Continuous
 62
     7
370
    30
100
AcDbPolyline
 90
       36
 70
   128
 43
0.0
 10
941.7435436587
 20
244.2376596071
 10
941.4825541017
 20
244.3843803765
 10
941.2217434139
 20
244.5231100012
 10
940.961290342
 20
244.6537534029
 10
940.7013733873
 20
244.776221045
 10
940.4421706842
 20
244.8904289944
 10
940.183859877
 20
244.9962989786
 10
939.9266179992
 20
245.0937584397
 10
939.6706213516
 20
245.1827405838
 10
939.4160453813
 20
245.2631844269
 10
939.163064562
 20
245.335034837
 10
938.9118522743
 20
245.3982425713
 10
938.6625806863
 20
245.4527643103
 10
938.4154206365
 20
245.4985626877
 10
938.170541516
 20
245.5356063154
 10
937.9281111527
 20
245.5638698057
 10
937.6882956962
 20
245.5833337882
 10
937.4512595041
 20
245.5939849231
 10
937.2171650292
 20
245.5958159108
 10
936.9861727081
 20
245.5888254964
 10
936.7584408513
 20
245.5730184708
 10
936.5341255351
 20
245.5484056672
 10
936.3133804938
 20
245.5150039542
 10
936.0963570151
 20
245.4728362236
 10
935.8832038361
 20
245.4219313749
 10
935.6740670412
 20
245.3623242959
 10
935.4690899624
 20
245.2940558383
 10
935.2684130808
 20
245.2171727899
 10
935.0721739302
 20
245.1317278425
 10
934.8805070032
 20
245.0377795557
 10
934.6935436587
 20
244.935392317
 10
934.5114120321
 20
244.8246362976
 10
934.3342369472
 20
244.705587404
 10
934.162139831
 20
244.5783272265
 10
933.9952386303
 20
244.4429429828
 10
933.9058916906
 20
244.3652236421
  0
LWPOLYLINE
  5
146
330
1F
100
AcDbEntity
  8
0
  6
Continuous
 62
     7
370
    30
100
AcDbPolyline
 90
       96
 70
   128
 43
0.0
 10
947.9047539475
 20
220.1158554954
 10
948.017997355
 20
220.1548124806
 10
948.2186742367
 20
220.231695529
 10
948.4149133872
 20
220.3171404765
 10
948.6065803142
 20
220.4110887633
 10
948.7935436587
 20
220.513476002
 10
948.9756752854
 20
220.6242320214
 10
949.1528503702
 20
220.743280915
 10
949.3249474864
 20
220.8705410925
 10
949.4918486871
 20
221.0059253362
 10
949.6534395866
 20
221.1493408605
 10
949.8096094384
 20
221.3006893756
 10
949.9602512118
 20
221.4598671547
 10
950.1052616642
 20
221.6267651053
 10
950.2445414127
 20
221.801268844
 10
950.377995002
 20
221.9832587746
 10
950.5055309697
 20
222.1726101702
 10
950.6270619089
 20
222.369193259
 10
950.7425045285
 20
222.5728733126
 10
950.8517797098
 20
222.7835107389
 10
950.9548125611
 20
223.0009611775
 10
951.0515324688
 20
223.2250755989
 10
951.1418731459
 20
223.4557004061
 10
951.2257726774
 20
223.6926775404
 10
951.3031735628
 20
223.9358445896
 10
951.3740227554
 20
224.1850348991
 10
951.4382716987
 20
224.4400776862
 10
951.4958763596
 20
224.7007981575
 10
951.5467972588
 20
224.9670176281
 10
951.5909994977
 20
225.2385536445
 10
951.6284527823
 20
225.5152201095
 10
951.6591314439
 20
225.7968274097
 10
951.6830144569
 20
226.0831825455
 10
951.7000854532
 20
226.3740892634
 10
951.710332733
 20
226.6693481906
 10
951.7137492734
 20
226.9687569711
 10
951.710332733
 20
227.2721104054
 10
951.7000854532
 20
227.5792005899
 10
951.6830144569
 20
227.8898170606
 10
951.6591314439
 20
228.2037469363
 10
951.6284527823
 20
228.5207750652
 10
951.5909994977
 20
228.8406841721
 10
951.5467972588
 20
229.1632550072
 10
951.4958763596
 20
229.4882664967
 10
951.4382716987
 20
229.8154958938
 10
951.3740227554
 20
230.1447189319
 10
951.3031735628
 20
230.4757099779
 10
951.2257726774
 20
230.8082421872
 10
951.1418731459
 20
231.1420876587
 10
951.0515324688
 20
231.4770175915
 10
950.9548125611
 20
231.8128024413
 10
950.8517797098
 20
232.1492120779
 10
950.7425045285
 20
232.4860159431
 10
950.6270619089
 20
232.8229832081
 10
950.5055309697
 20
233.1598829326
 10
950.377995002
 20
233.4964842222
 10
950.2445414127
 20
233.8325563873
 10
950.1052616642
 20
234.1678691007
 10
949.9602512118
 20
234.5021925559
 10
949.8096094384
 20
234.8352976244
 10
949.6534395866
 20
235.1669560124
 10
949.4918486871
 20
235.496940418
 10
949.3249474864
 20
235.8250246863
 10
949.1528503702
 20
236.1509839647
 10
948.9756752854
 20
236.4745948571
 10
948.7935436587
 20
236.7956355766
 10
948.6065803142
 20
237.113886098
 10
948.4149133872
 20
237.4291283084
 10
948.2186742367
 20
237.7411461563
 10
948.017997355
 20
238.0497258005
 10
947.8130202762
 20
238.3546557558
 10
947.6038834814
 20
238.6557270384
 10
947.3907303023
 20
238.9527333091
 10
947.1737068236
 20
239.2454710148
 10
946.9529617823
 20
239.5337395275
 10
946.7286464661
 20
239.8173412824
 10
946.5009146094
 20
240.0960819131
 10
946.2699222883
 20
240.3697703847
 10
946.0358278133
 20
240.6382191246
 10
945.7987916212
 20
240.9012441517
 10
945.5589761647
 20
241.1586652017
 10
945.3165458014
 20
241.410305851
 10
945.0716666809
 20
241.6559936377
 10
944.8245066311
 20
241.8955601797
 10
944.5752350432
 20
242.12884129
 10
944.3240227554
 20
242.3556770894
 10
944.0710419362
 20
242.575912116
 10
943.8164659659
 20
242.7893954317
 10
943.5604693182
 20
242.9959807257
 10
943.3032274404
 20
243.1955264148
 10
943.0449166333
 20
243.3878957403
 10
942.7857139301
 20
243.5729568619
 10
942.5257969755
 20
243.7505829479
 10
942.2653439035
 20
243.9206522623
 10
942.0045332157
 20
244.083048248
 10
941.7435436587
 20
244.2376596071
  0
LWPOLYLINE
  5
147
330
1F
100
AcDbEntity
  8
0
  6
Continuous
 62
     7
370
    30
100
AcDbPolyline
 90
      174
 70
   128
 43
0.0
 10
950.9346910778
 20
190.711621371
 10
951.0512358081
 20
190.6419945786
 10
951.1677892169
 20
190.5676719686
 10
951.2841975789
 20
190.4887515668
 10
951.4003073605
 20
190.4053374631
 10
951.5159654217
 20
190.3175396746
 10
951.6310192182
 20
190.2254739997
 10
951.7453170028
 20
190.1292618661
 10
951.8587080254
 20
190.0290301703
 10
951.9710427319
 20
189.9249111104
 10
952.0821729614
 20
189.8170420114
 10
952.1919521414
 20
189.7055651445
 10
952.3002354817
 20
189.5906275392
 10
952.4068801646
 20
189.4723807896
 10
952.511745534
 20
189.3509808539
 10
952.6146932804
 20
189.2265878497
 10
952.7155876235
 20
189.0993658417
 10
952.8142954913
 20
188.9694826263
 10
952.9106866958
 20
188.8371095093
 10
953.0046341041
 20
188.7024210811
 10
953.0960138069
 20
188.5655949853
 10
953.1847052811
 20
188.4268116852
 10
953.2705915496
 20
188.2862542254
 10
953.3535593348
 20
188.1441079905
 10
953.4334992084
 20
188.0005604607
 10
953.510305736
 20
187.8558009642
 10
953.5838776155
 20
187.7100204278
 10
953.6541178112
 20
187.5634111249
 10
953.7209336816
 20
187.4161664222
 10
953.7842371017
 20
187.2684805241
 10
953.843944579
 20
187.1205482172
 10
953.899977364
 20
186.972564613
 10
953.9522615535
 20
186.8247248905
 10
954.0007281888
 20
186.6772240392
 10
954.0453133461
 20
186.5302566014
 10
954.0859582209
 20
186.3840164161
 10
954.1226092056
 20
186.2386963629
 10
954.1552179606
 20
186.0944881081
 10
954.1837414771
 20
185.9515818512
 10
954.208142135
 20
185.8101660748
 10
954.2283877516
 20
185.6704272956
 10
954.2444516245
 20
185.5325498185
 10
954.2563125666
 20
185.3967154933
 10
954.2639549343
 20
185.2631034751
 10
954.2673686478
 20
185.1318899882
 10
954.2665492047
 20
185.0032480931
 10
954.2614976859
 20
184.8773474588
 10
954.2522207538
 20
184.7543541385
 10
954.2387306441
 20
184.6344303512
 10
954.2210451492
 20
184.5177342671
 10
954.1991875949
 20
184.4044197997
 10
954.1731868096
 20
184.2946364021
 10
954.1430770864
 20
184.1885288701
 10
954.1088981379
 20
184.0862371517
 10
954.0706950433
 20
183.9878961618
 10
954.0285181896
 20
183.8936356047
 10
953.9824232051
 20
183.803579803
 10
953.9324708853
 20
183.7178475333
 10
953.8787271137
 20
183.6365518701
 10
953.8212627742
 20
183.5598000362
 10
953.7601536579
 20
183.4876932613
 10
953.6954803631
 20
183.4203266489
 10
953.6273281889
 20
183.3577890504
 10
953.5557870229
 20
183.3001629481
 10
953.4809512225
 20
183.2475243465
 10
953.4029194903
 20
183.199942672
 10
953.3217947444
 20
183.1574806811
 10
953.2376839821
 20
183.1201943779
 10
953.1506981391
 20
183.0881329404
 10
953.0609519431
 20
183.061338655
 10
952.9685637625
 20
183.0398468614
 10
952.8736554505
 20
183.0236859056
 10
952.7763521837
 20
183.0128771028
 10
952.6767822978
 20
183.0074347089
 10
952.5750771179
 20
183.007365902
 10
952.4713707855
 20
183.0126707729
 10
952.3658000814
 20
183.0233423248
 10
952.2585042451
 20
183.0393664828
 10
952.149624792
 20
183.0607221122
 10
952.0393053255
 20
183.0873810466
 10
951.9276913488
 20
183.1193081249
 10
951.8149300723
 20
183.1564612376
 10
951.7011702194
 20
183.1987913827
 10
951.5865618308
 20
183.2462427299
 10
951.4712560662
 20
183.2987526944
 10
951.3554050052
 20
183.3562520197
 10
951.2391614466
 20
183.4186648684
 10
951.1226787067
 20
183.4859089228
 10
951.0061104175
 20
183.5578954931
 10
950.8896103236
 20
183.6345296344
 10
950.7733320799
 20
183.7157102721
 10
950.6574290486
 20
183.8013303352
 10
950.5420540969
 20
183.8912768972
 10
950.4273593955
 20
183.9854313256
 10
950.3134962183
 20
184.0836694376
 10
950.2006147419
 20
184.1858616648
 10
950.0888638485
 20
184.2918732234
 10
949.9783909291
 20
184.4015642921
 10
949.869341689
 20
184.5147901968
 10
949.7618599559
 20
184.631401601
 10
949.6560874901
 20
184.7512447033
 10
949.5521637974
 20
184.8741614396
 10
949.4502259452
 20
184.9999896922
 10
949.3504083819
 20
185.128563503
 10
949.2528427592
 20
185.2597132931
 10
949.1576577588
 20
185.3932660857
 10
949.0649789225
 20
185.529045735
 10
948.9749284865
 20
185.6668731578
 10
948.8876252207
 20
185.8065665703
 10
948.8031842713
 20
185.9479417274
 10
948.7217170096
 20
186.0908121661
 10
948.6433308848
 20
186.2349894511
 10
948.5681292821
 20
186.3802834235
 10
948.4962113867
 20
186.5265024516
 10
948.4276720529
 20
186.6734536836
 10
948.362601679
 20
186.8209433019
 10
948.3010860876
 20
186.9687767791
 10
948.2432064134
 20
187.1167591338
 10
948.189038995
 20
187.2646951888
 10
948.1386552754
 20
187.4123898274
 10
948.0921217067
 20
187.5596482518
 10
948.0494996632
 20
187.7062762393
 10
948.0108453601
 20
187.8520803985
 10
947.9762097796
 20
187.9968684251
 10
947.9456386033
 20
188.1404493544
 10
947.9191721523
 20
188.2826338143
 10
947.8968453338
 20
188.4232342742
 10
947.8786875952
 20
188.5620652927
 10
947.8647228853
 20
188.6989437623
 10
947.8549696223
 20
188.8336891506
 10
947.8494406701
 20
188.9661237388
 10
947.8481433209
 20
189.0960728557
 10
947.851079286
 20
189.2233651083
 10
947.8582446928
 20
189.3478326077
 10
947.8696300909
 20
189.4693111908
 10
947.8852204638
 20
189.5876406365
 10
947.9049952489
 20
189.7026648773
 10
947.9289283647
 20
189.814232205
 10
947.9569882454
 20
189.9221954707
 10
947.9891378821
 20
190.026412279
 10
948.0253348718
 20
190.126745176
 10
948.0655314735
 20
190.2230618301
 10
948.1096746709
 20
190.3152352069
 10
948.1577062425
 20
190.4031437369
 10
948.2095628382
 20
190.4866714753
 10
948.2651760632
 20
190.5657082554
 10
948.3244725679
 20
190.6401498337
 10
948.3873741446
 20
190.7098980274
 10
948.453797831
 20
190.7748608438
 10
948.5236560192
 20
190.8349526021
 10
948.5968565717
 20
190.8900940457
 10
948.6733029424
 20
190.9402124472
 10
948.7528943044
 20
190.9852417043
 10
948.8355256827
 20
191.0251224269
 10
948.9210880928
 20
191.0598020152
 10
949.0094686844
 20
191.0892347295
 10
949.1005508902
 20
191.1133817503
 10
949.1942145797
 20
191.1322112296
 10
949.2903362176
 20
191.1456983326
 10
949.3887890268
 20
191.1538252709
 10
949.4894431554
 20
191.1565813258
 10
949.5921658483
 20
191.153962862
 10
949.6968216222
 20
191.1459733333
 10
949.8032724439
 20
191.1326232772
 10
949.9113779129
 20
191.1139303014
 10
950.0209954464
 20
191.0899190606
 10
950.131980467
 20
191.0606212236
 10
950.2441865941
 20
191.0260754323
 10
950.3574658362
 20
190.9863272497
 10
950.4716687867
 20
190.9414291008
 10
950.5866448204
 20
190.8914402028
 10
950.7022422928
 20
190.8364264873
 10
950.8183087395
 20
190.7764605132
 10
950.9346910778
 20
190.711621371
  0
LWPOLYLINE
  5
148
330
1F
100
AcDbEntity
  8
0
  6
Continuous
 62
     7
370
    30
100
AcDbPolyline
 90
      174
 70
   128
 43
0.0
 10
933.2570215481
 20
200.9167227688
 10
933.3735662785
 20
200.8470959764
 10
933.4901196872
 20
200.7727733664
 10
933.6065280493
 20
200.6938529646
 10
933.7226378309
 20
200.6104388609
 10
933.838295892
 20
200.5226410723
 10
933.9533496885
 20
200.4305753974
 10
934.0676474731
 20
200.3343632639
 10
934.1810384958
 20
200.2341315681
 10
934.2933732023
 20
200.1300125082
 10
934.4045034317
 20
200.0221434092
 10
934.5142826118
 20
199.9106665423
 10
934.622565952
 20
199.795728937
 10
934.7292106349
 20
199.6774821873
 10
934.8340760043
 20
199.5560822517
 10
934.9370237507
 20
199.4316892475
 10
935.0379180938
 20
199.3044672395
 10
935.1366259617
 20
199.1745840241
 10
935.2330171661
 20
199.0422109071
 10
935.3269645745
 20
198.9075224789
 10
935.4183442772
 20
198.7706963831
 10
935.5070357515
 20
198.6319130829
 10
935.5929220199
 20
198.4913556231
 10
935.6758898051
 20
198.3492093883
 10
935.7558296788
 20
198.2056618585
 10
935.8326362064
 20
198.060902362
 10
935.9062080859
 20
197.9151218256
 10
935.9764482816
 20
197.7685125227
 10
936.043264152
 20
197.62126782
 10
936.106567572
 20
197.4735819219
 10
936.1662750494
 20
197.325649615
 10
936.2223078343
 20
197.1776660108
 10
936.2745920239
 20
197.0298262883
 10
936.3230586592
 20
196.8823254369
 10
936.3676438164
 20
196.7353579992
 10
936.4082886912
 20
196.5891178139
 10
936.444939676
 20
196.4437977607
 10
936.4775484309
 20
196.2995895058
 10
936.5060719475
 20
196.156683249
 10
936.5304726054
 20
196.0152674726
 10
936.550718222
 20
195.8755286934
 10
936.5667820948
 20
195.7376512163
 10
936.5786430369
 20
195.601816891
 10
936.5862854046
 20
195.4682048729
 10
936.5896991181
 20
195.336991386
 10
936.5888796751
 20
195.2083494909
 10
936.5838281562
 20
195.0824488565
 10
936.5745512242
 20
194.9594555363
 10
936.5610611145
 20
194.8395317489
 10
936.5433756195
 20
194.7228356649
 10
936.5215180652
 20
194.6095211975
 10
936.4955172799
 20
194.4997377999
 10
936.4654075568
 20
194.3936302679
 10
936.4312286082
 20
194.2913385495
 10
936.3930255136
 20
194.1929975596
 10
936.35084866
 20
194.0987370025
 10
936.3047536754
 20
194.0086812008
 10
936.2548013557
 20
193.9229489311
 10
936.2010575841
 20
193.8416532679
 10
936.1435932445
 20
193.7649014339
 10
936.0824841282
 20
193.6927946591
 10
936.0178108334
 20
193.6254280467
 10
935.9496586592
 20
193.5628904482
 10
935.8781174932
 20
193.5052643459
 10
935.8032816928
 20
193.4526257443
 10
935.7252499607
 20
193.4050440698
 10
935.6441252147
 20
193.3625820789
 10
935.5600144524
 20
193.3252957757
 10
935.4730286094
 20
193.2932343381
 10
935.3832824134
 20
193.2664400527
 10
935.2908942329
 20
193.2449482592
 10
935.1959859208
 20
193.2287873034
 10
935.098682654
 20
193.2179785006
 10
934.9991127681
 20
193.2125361067
 10
934.8974075883
 20
193.2124672998
 10
934.7937012559
 20
193.2177721707
 10
934.6881305517
 20
193.2284437226
 10
934.5808347155
 20
193.2444678806
 10
934.4719552623
 20
193.26582351
 10
934.3616357959
 20
193.2924824444
 10
934.2500218192
 20
193.3244095227
 10
934.1372605426
 20
193.3615626354
 10
934.0235006897
 20
193.4038927805
 10
933.9088923011
 20
193.4513441277
 10
933.7935865365
 20
193.5038540922
 10
933.6777354755
 20
193.5613534175
 10
933.5614919169
 20
193.6237662662
 10
933.445009177
 20
193.6910103206
 10
933.3284408878
 20
193.7629968909
 10
933.211940794
 20
193.8396310322
 10
933.0956625503
 20
193.9208116699
 10
932.9797595189
 20
194.006431733
 10
932.8643845672
 20
194.096378295
 10
932.7496898659
 20
194.1905327233
 10
932.6358266886
 20
194.2887708354
 10
932.5229452122
 20
194.3909630626
 10
932.4111943189
 20
194.4969746212
 10
932.3007213994
 20
194.6066656899
 10
932.1916721594
 20
194.7198915946
 10
932.0841904263
 20
194.8365029988
 10
931.9784179605
 20
194.9563461011
 10
931.8744942677
 20
195.0792628374
 10
931.7725564156
 20
195.20509109
 10
931.6727388522
 20
195.3336649008
 10
931.5751732296
 20
195.4648146909
 10
931.4799882291
 20
195.5983674835
 10
931.3873093928
 20
195.7341471328
 10
931.2972589569
 20
195.8719745556
 10
931.209955691
 20
196.0116679681
 10
931.1255147417
 20
196.1530431252
 10
931.04404748
 20
196.2959135639
 10
930.9656613551
 20
196.4400908489
 10
930.8904597524
 20
196.5853848213
 10
930.818541857
 20
196.7316038494
 10
930.7500025233
 20
196.8785550814
 10
930.6849321493
 20
197.0260446997
 10
930.623416558
 20
197.1738781768
 10
930.5655368837
 20
197.3218605316
 10
930.5113694654
 20
197.4697965866
 10
930.4609857457
 20
197.6174912252
 10
930.414452177
 20
197.7647496496
 10
930.3718301335
 20
197.911377637
 10
930.3331758304
 20
198.0571817963
 10
930.2985402499
 20
198.2019698229
 10
930.2679690736
 20
198.3455507522
 10
930.2415026226
 20
198.4877352121
 10
930.2191758041
 20
198.6283356719
 10
930.2010180656
 20
198.7671666904
 10
930.1870533556
 20
198.90404516
 10
930.1773000926
 20
199.0387905484
 10
930.1717711404
 20
199.1712251366
 10
930.1704737913
 20
199.3011742535
 10
930.1734097563
 20
199.4284665061
 10
930.1805751632
 20
199.5529340055
 10
930.1919605613
 20
199.6744125886
 10
930.2075509341
 20
199.7927420343
 10
930.2273257192
 20
199.9077662751
 10
930.2512588351
 20
200.0193336028
 10
930.2793187158
 20
200.1272968684
 10
930.3114683524
 20
200.2315136768
 10
930.3476653422
 20
200.3318465737
 10
930.3878619438
 20
200.4281632278
 10
930.4320051412
 20
200.5203366047
 10
930.4800367128
 20
200.6082451347
 10
930.5318933085
 20
200.6917728731
 10
930.5875065336
 20
200.7708096532
 10
930.6468030382
 20
200.8452512315
 10
930.7097046149
 20
200.9149994252
 10
930.7761283013
 20
200.9799622416
 10
930.8459864896
 20
201.0400539999
 10
930.919187042
 20
201.0951954435
 10
930.9956334127
 20
201.145313845
 10
931.0752247747
 20
201.1903431021
 10
931.157856153
 20
201.2302238247
 10
931.2434185631
 20
201.2649034129
 10
931.3317991547
 20
201.2943361273
 10
931.4228813605
 20
201.3184831481
 10
931.5165450501
 20
201.3373126274
 10
931.6126666879
 20
201.3507997304
 10
931.7111194971
 20
201.3589266687
 10
931.8117736257
 20
201.3616827235
 10
931.9144963187
 20
201.3590642598
 10
932.0191520925
 20
201.3510747311
 10
932.1256029142
 20
201.337724675
 10
932.2337083833
 20
201.3190316992
 10
932.3433259167
 20
201.2950204584
 10
932.4543109374
 20
201.2657226214
 10
932.5665170644
 20
201.23117683
 10
932.6797963066
 20
201.1914286475
 10
932.793999257
 20
201.1465304986
 10
932.9089752907
 20
201.0965416006
 10
933.0245727631
 20
201.0415278851
 10
933.1406392099
 20
200.9815619109
 10
933.2570215481
 20
200.9167227688
  0
LWPOLYLINE
  5
149
330
1F
100
AcDbEntity
  8
0
  6
Continuous
 62
     7
370
    30
100
AcDbPolyline
 90
        3
 70
   128
 43
0.0
 10
764.2125296698
 20
91.3878787897
 10
764.2125307464
 20
91.3847376115
 10
764.2153974307
 20
91.2257696544
  0
LWPOLYLINE
  5
14A
330
1F
100
AcDbEntity
  8
0
  6
Continuous
 62
   252
370
     0
100
AcDbPolyline
 90
       91
 70
   128
 43
0.0
 10
768.0630347332
 20
98.9826372407
 10
768.3255656101
 20
98.8349980688
 10
768.5947011807
 20
98.6913767588
 10
768.8702569932
 20
98.5518717415
 10
769.1520441951
 20
98.4165786268
 10
769.4398696637
 20
98.2855901377
 10
769.7335361377
 20
98.1589960473
 10
770.0328423528
 20
98.0368831168
 10
770.3375831796
 20
97.9193350364
 10
770.6475497637
 20
97.8064323675
 10
770.9625296698
 20
97.698252488
 10
771.2823070261
 20
97.5948695391
 10
771.6066626734
 20
97.4963543742
 10
771.9353743145
 20
97.4027745107
 10
772.2682166667
 20
97.3141940836
 10
772.6049616167
 20
97.2306738015
 10
772.9453783761
 20
97.152270905
 10
773.2892336405
 20
97.0790391275
 10
773.6362917485
 20
97.0110286585
 10
773.9863148439
 20
96.9482861088
 10
774.3390630383
 20
96.8908544792
 10
774.6942945758
 20
96.8387731304
 10
775.0517659983
 20
96.7920777563
 10
775.4112323129
 20
96.7508003597
 10
775.7724471592
 20
96.7149692299
 10
776.1351629787
 20
96.6846089239
 10
776.499131184
 20
96.6597402491
 10
776.8641023296
 20
96.6403802492
 10
777.2298262824
 20
96.6265421927
 10
777.5960523935
 20
96.6182355634
 10
777.9625296698
 20
96.6154660542
 10
778.3290069461
 20
96.6182355634
 10
778.6952330572
 20
96.6265421927
 10
779.06095701
 20
96.6403802492
 10
779.4259281555
 20
96.6597402491
 10
779.7898963609
 20
96.6846089239
 10
780.1526121803
 20
96.7149692299
 10
780.5138270267
 20
96.7508003597
 10
780.8732933412
 20
96.7920777563
 10
781.2307647638
 20
96.8387731304
 10
781.5859963012
 20
96.8908544792
 10
781.9387444956
 20
96.9482861088
 10
782.288767591
 20
97.0110286585
 10
782.635825699
 20
97.0790391275
 10
782.9796809634
 20
97.152270905
 10
783.3200977229
 20
97.2306738015
 10
783.6568426728
 20
97.3141940836
 10
783.9896850251
 20
97.4027745107
 10
784.3183966661
 20
97.4963543742
 10
784.6427523134
 20
97.5948695391
 10
784.9625296698
 20
97.698252488
 10
785.2775095758
 20
97.8064323675
 10
785.58747616
 20
97.9193350364
 10
785.8922169867
 20
98.0368831168
 10
786.1915232019
 20
98.1589960473
 10
786.4851896759
 20
98.2855901377
 10
786.7730151445
 20
98.4165786268
 10
787.0548023464
 20
98.5518717415
 10
787.3303581588
 20
98.6913767588
 10
787.5994937295
 20
98.8349980688
 10
787.8620246064
 20
98.9826372407
 10
788.1177708639
 20
99.13419309
 10
788.3665572265
 20
99.2895617478
 10
788.6082131882
 20
99.4486367323
 10
788.8425731302
 20
99.6113090214
 10
789.0694764338
 20
99.7774671276
 10
789.288767591
 20
99.9469971745
 10
789.5002963105
 20
100.1197829747
 10
789.703917621
 20
100.2957061093
 10
789.8994919707
 20
100.4746460095
 10
790.0868853228
 20
100.6564800388
 10
790.265969247
 20
100.8410835773
 10
790.4366210084
 20
101.0283301068
 10
790.5987236507
 20
101.218091298
 10
790.7521660768
 20
101.410237098
 10
790.8968431249
 20
101.6046358197
 10
791.0326556407
 20
101.8011542319
 10
791.1595105451
 20
101.9996576508
 10
791.2773208979
 20
102.2000100319
 10
791.3860059579
 20
102.4020740639
 10
791.4854912378
 20
102.605711262
 10
791.5757085553
 20
102.8107820635
 10
791.65659608
 20
103.0171459231
 10
791.7280983757
 20
103.2246614094
 10
791.7901664381
 20
103.4331863016
 10
791.842757729
 20
103.6425776872
 10
791.8858362049
 20
103.8526920597
 10
791.919372342
 20
104.0633854173
 10
791.9433431563
 20
104.2745133613
 10
791.9577322194
 20
104.4859311951
 10
791.9625296698
 20
104.6974940234
  0
ARC
  5
14B
330
1F
100
AcDbEntity
  8
0
  6
Continuous
 62
   252
370
     0
100
AcDbCircle
 10
770.9742536961
 20
105.3999871945
 30
0.0
 40
7.046813200319339
100
AcDbArc
 50
185.7201604664
 51
245.5986677873
  0
LWPOLYLINE
  5
14C
330
1F
100
AcDbEntity
  8
0
  6
Continuous
 62
   252
370
     0
100
AcDbPolyline
 90
       92
 70
   128
 43
0.0
 10
806.9539076984
 20
166.3436049695
 10
807.2130462657
 20
166.1900901449
 10
807.4720072323
 20
166.0288459037
 10
807.7306131193
 20
165.8599827547
 10
807.9886866913
 20
165.6836164282
 10
808.2460510774
 20
165.4998677968
 10
808.502529893
 20
165.3088627928
 10
808.7579473603
 20
165.1107323214
 10
809.0121284289
 20
164.9056121713
 10
809.2648988959
 20
164.6936429216
 10
809.5160855249
 20
164.4749698456
 10
809.7655161652
 20
164.2497428107
 10
810.0130198696
 20
164.0181161763
 10
810.2584270112
 20
163.7802486878
 10
810.5015694004
 20
163.5363033677
 10
810.7422803994
 20
163.2864474039
 10
810.9803950371
 20
163.0308520351
 10
811.2157501214
 20
162.7696924338
 10
811.4481843519
 20
162.5031475856
 10
811.6775384296
 20
162.231400167
 10
811.9036551667
 20
161.9546364202
 10
812.1263795942
 20
161.6730460252
 10
812.3455590678
 20
161.3868219701
 10
812.5610433729
 20
161.0961604184
 10
812.7726848273
 20
160.8012605751
 10
812.9803383825
 20
160.5023245498
 10
813.1838617231
 20
160.1995572183
 10
813.3831153645
 20
159.8931660823
 10
813.577962748
 20
159.5833611268
 10
813.7682703351
 20
159.2703546769
 10
813.9539076984
 20
158.9543612513
 10
814.1347476114
 20
158.6355974163
 10
814.3106661354
 20
158.3142816367
 10
814.4815427046
 20
157.9906341262
 10
814.6472602089
 20
157.6648766967
 10
814.8077050736
 20
157.3372326061
 10
814.9627673379
 20
157.0079264051
 10
815.1123407298
 20
156.677183784
 10
815.2563227393
 20
156.3452314171
 10
815.3946146882
 20
156.012296808
 10
815.5271217982
 20
155.6786081335
 10
815.6537532554
 20
155.344394087
 10
815.7744222731
 20
155.0098837223
 10
815.8890461507
 20
154.675306296
 10
815.9975463307
 20
154.3408911108
 10
816.0998484526
 20
154.0068673581
 10
816.1958824034
 20
153.6734639612
 10
816.2855823665
 20
153.340909418
 10
816.3688868659
 20
153.0094316448
 10
816.4457388089
 20
152.67925782
 10
816.5160855249
 20
152.3506142282
 10
816.5798788019
 20
152.0237261053
 10
816.6370749191
 20
151.698817484
 10
816.6876346772
 20
151.3761110406
 10
816.7315234251
 20
151.0558279419
 10
816.7687110835
 20
150.7381876939
 10
816.799172166
 20
150.4234079914
 10
816.8228857959
 20
150.1117045687
 10
816.8398357213
 20
149.8032910518
 10
816.8500103254
 20
149.4983788118
 10
816.853402635
 20
149.1971768204
 10
816.8500103254
 20
148.8998915063
 10
816.8398357213
 20
148.6067266141
 10
816.8228857959
 20
148.3178830644
 10
816.799172166
 20
148.0335588161
 10
816.7687110835
 20
147.7539487308
 10
816.7315234251
 20
147.4792444393
 10
816.6876346772
 20
147.2096342103
 10
816.6370749191
 20
146.945302821
 10
816.5798788019
 20
146.6864314311
 10
816.5160855249
 20
146.433197458
 10
816.4457388089
 20
146.1857744557
 10
816.3688868659
 20
145.9443319956
 10
816.2855823665
 20
145.7090355501
 10
816.1958824034
 20
145.4800463798
 10
816.0998484526
 20
145.2575214225
 10
815.9975463307
 20
145.0416131855
 10
815.8890461507
 20
144.8324696416
 10
815.7744222731
 20
144.6302341274
 10
815.6537532554
 20
144.435045245
 10
815.5271217982
 20
144.2470367671
 10
815.3946146882
 20
144.0663375452
 10
815.2563227393
 20
143.8930714217
 10
815.1123407298
 20
143.7273571444
 10
814.9627673379
 20
143.5693082857
 10
814.8077050736
 20
143.4190331644
 10
814.6472602089
 20
143.2766347715
 10
814.4815427046
 20
143.1422106997
 10
814.3106661354
 20
143.0158530766
 10
814.1347476114
 20
142.8976485015
 10
813.9539076984
 20
142.7876779857
 10
813.9532860553
 20
142.7873190659
  0
ARC
  5
14D
330
1F
100
AcDbEntity
  8
0
  6
Continuous
 62
   252
370
     0
100
AcDbCircle
 10
802.8524051327
 20
160.612779118
 30
0.0
 40
7.047317804465818
100
AcDbArc
 50
54.4090286052
 51
114.2824630109
  0
LWPOLYLINE
  5
14E
330
1F
100
AcDbEntity
  8
0
  6
Continuous
 62
   252
370
     0
100
AcDbPolyline
 90
       91
 70
   128
 43
0.0
 10
768.0630347332
 20
91.9603862585
 10
768.3255656101
 20
91.8127470866
 10
768.5947011807
 20
91.6691257765
 10
768.8702569932
 20
91.5296207593
 10
769.1520441951
 20
91.3943276446
 10
769.4398696637
 20
91.2633391555
 10
769.7335361377
 20
91.1367450651
 10
770.0328423528
 20
91.0146321346
 10
770.3375831796
 20
90.8970840541
 10
770.6475497637
 20
90.7841813852
 10
770.9625296698
 20
90.6760015058
 10
771.2823070261
 20
90.5726185569
 10
771.6066626734
 20
90.474103392
 10
771.9353743145
 20
90.3805235285
 10
772.2682166667
 20
90.2919431014
 10
772.6049616167
 20
90.2084228193
 10
772.9453783761
 20
90.1300199228
 10
773.2892336405
 20
90.0567881453
 10
773.6362917485
 20
89.9887776762
 10
773.9863148439
 20
89.9260351266
 10
774.3390630383
 20
89.868603497
 10
774.6942945758
 20
89.8165221482
 10
775.0517659983
 20
89.7698267741
 10
775.4112323129
 20
89.7285493774
 10
775.7724471592
 20
89.6927182477
 10
776.1351629787
 20
89.6623579417
 10
776.499131184
 20
89.6374892669
 10
776.8641023296
 20
89.618129267
 10
777.2298262824
 20
89.6042912105
 10
777.5960523935
 20
89.5959845812
 10
777.9625296698
 20
89.593215072
 10
778.3290069461
 20
89.5959845812
 10
778.6952330572
 20
89.6042912105
 10
779.06095701
 20
89.618129267
 10
779.4259281555
 20
89.6374892669
 10
779.7898963609
 20
89.6623579417
 10
780.1526121803
 20
89.6927182477
 10
780.5138270267
 20
89.7285493774
 10
780.8732933412
 20
89.7698267741
 10
781.2307647638
 20
89.8165221482
 10
781.5859963012
 20
89.868603497
 10
781.9387444956
 20
89.9260351266
 10
782.288767591
 20
89.9887776762
 10
782.635825699
 20
90.0567881453
 10
782.9796809634
 20
90.1300199228
 10
783.3200977229
 20
90.2084228193
 10
783.6568426728
 20
90.2919431014
 10
783.9896850251
 20
90.3805235285
 10
784.3183966661
 20
90.474103392
 10
784.6427523134
 20
90.5726185569
 10
784.9625296698
 20
90.6760015058
 10
785.2775095758
 20
90.7841813852
 10
785.58747616
 20
90.8970840541
 10
785.8922169867
 20
91.0146321346
 10
786.1915232019
 20
91.1367450651
 10
786.4851896759
 20
91.2633391555
 10
786.7730151445
 20
91.3943276446
 10
787.0548023464
 20
91.5296207593
 10
787.3303581588
 20
91.6691257765
 10
787.5994937295
 20
91.8127470866
 10
787.8620246064
 20
91.9603862585
 10
788.1177708639
 20
92.1119421077
 10
788.3665572265
 20
92.2673107656
 10
788.6082131882
 20
92.4263857501
 10
788.8425731302
 20
92.5890580392
 10
789.0694764338
 20
92.7552161454
 10
789.288767591
 20
92.9247461923
 10
789.5002963105
 20
93.0975319925
 10
789.703917621
 20
93.2734551271
 10
789.8994919707
 20
93.4523950273
 10
790.0868853228
 20
93.6342290566
 10
790.265969247
 20
93.8188325951
 10
790.4366210084
 20
94.0060791246
 10
790.5987236507
 20
94.1958403158
 10
790.7521660768
 20
94.3879861158
 10
790.8968431249
 20
94.5823848375
 10
791.0326556407
 20
94.7789032497
 10
791.1595105451
 20
94.9774066686
 10
791.2773208979
 20
95.1777590497
 10
791.3860059579
 20
95.3798230816
 10
791.4854912378
 20
95.5834602797
 10
791.5757085553
 20
95.7885310813
 10
791.65659608
 20
95.9948949409
 10
791.7280983757
 20
96.2024104272
 10
791.7901664381
 20
96.4109353194
 10
791.842757729
 20
96.620326705
 10
791.8858362049
 20
96.8304410775
 10
791.919372342
 20
97.0411344351
 10
791.9433431563
 20
97.2522623791
 10
791.9577322194
 20
97.4636802128
 10
791.9617550825
 20
97.5902270755
  0
ARC
  5
14F
330
1F
100
AcDbEntity
  8
0
  6
Continuous
 62
   252
370
     0
100
AcDbCircle
 10
770.9954123234
 20
98.4028063918
 30
0.0
 40
7.078390742662036
100
AcDbArc
 50
186.5490733477
 51
245.526534115
  0
LWPOLYLINE
  5
150
330
1F
100
AcDbEntity
  8
0
  6
Continuous
 62
   252
370
     0
100
AcDbPolyline
 90
      123
 70
   128
 43
0.0
 10
901.2999191449
 20
307.2161895059
 10
901.9923725714
 20
307.6293506172
 10
903.1160791335
 20
308.2447290609
 10
904.268055657
 20
308.8093868373
 10
905.4475126347
 20
309.3229369581
 10
906.6536417256
 20
309.7850274618
 10
907.8856163093
 20
310.1953416547
 10
909.1425920519
 20
310.5535983278
 10
910.4237074849
 20
310.8595519499
 10
911.7280845958
 20
311.1129928358
 10
913.0548294297
 20
311.3137472896
 10
914.4030327021
 20
311.4616777243
 10
915.7717704216
 20
311.5566827559
 10
917.1601045239
 20
311.5986972725
 10
918.567083514
 20
311.5876924795
 10
919.991743119
 20
311.5236759191
 10
921.4331069481
 20
311.406691465
 10
922.8901871628
 20
311.2368192925
 10
924.3619851529
 20
311.0141758236
 10
925.8474922217
 20
310.7389136468
 10
927.3456902768
 20
310.4112214133
 10
928.8555525281
 20
310.0313237068
 10
930.3760441915
 20
309.5994808903
 10
931.9061231978
 20
309.1159889273
 10
933.4447409074
 20
308.5811791789
 10
934.9908428286
 20
307.9954181772
 10
936.5433693403
 20
307.3591073734
 10
938.1012564184
 20
306.6726828632
 10
939.6634363649
 20
305.9366150876
 10
941.2288385397
 20
305.1514085107
 10
942.7963900944
 20
304.317601274
 10
944.3650167074
 20
303.4357648271
 10
945.9336433204
 20
302.5065035369
 10
947.5011948751
 20
301.5304542725
 10
949.06659705
 20
300.5082859693
 10
950.6287769965
 20
299.4406991705
 10
952.1866640746
 20
298.3284255468
 10
953.7391905863
 20
297.1722273948
 10
955.2852925074
 20
295.9728971151
 10
956.823910217
 20
294.7312566687
 10
958.3539892234
 20
293.448157014
 10
959.8744808867
 20
292.1244775233
 10
961.384343138
 20
290.7611253806
 10
962.8825411931
 20
289.3590349592
 10
964.3680482619
 20
287.9191671818
 10
965.839846252
 20
286.442508862
 10
967.2969264667
 20
284.9300720276
 10
968.7382902959
 20
283.3828932273
 10
970.1629499008
 20
281.80203282
 10
971.569928891
 20
280.1885742486
 10
972.9582629932
 20
278.543623297
 10
974.3270007128
 20
276.8683073323
 10
975.6752039851
 20
275.1637745326
 10
977.001948819
 20
273.4311930993
 10
978.30632593
 20
271.6717504573
 10
979.587441363
 20
269.8866524408
 10
980.8444171055
 20
268.0771224665
 10
982.0763916892
 20
266.2444006962
 10
983.2825207802
 20
264.3897431856
 10
984.4619777579
 20
262.5144210245
 10
985.6139542813
 20
260.6197194649
 10
986.7376608434
 20
258.7069370407
 10
987.8323273117
 20
256.7773846773
 10
988.8972034567
 20
254.8323847937
 10
989.9315594652
 20
252.8732703955
 10
990.9346864414
 20
250.9013841619
 10
991.9058968922
 20
248.9180775253
 10
992.8445251985
 20
246.9247097448
 10
993.7499280712
 20
244.9226469754
 10
994.6214849925
 20
242.9132613307
 10
995.4585986408
 20
240.8979299432
 10
996.2606953003
 20
238.8780340206
 10
997.0272252538
 20
236.8549578985
 10
997.7576631602
 20
234.8300880923
 10
998.4515084137
 20
232.8048123465
 10
999.1082854875
 20
230.7805186841
 10
999.7275442594
 20
228.7585944547
 10
1000.3088603203
 20
226.7404253843
 10
1000.8518352652
 20
224.7273946251
 10
1001.3560969663
 20
222.7208818078
 10
1001.8212998277
 20
220.7222620961
 10
1002.2471250227
 20
218.7329052442
 10
1002.6332807119
 20
216.7541746577
 10
1002.9795022435
 20
214.78742646
 10
1003.2855523347
 20
212.8340085618
 10
1003.5512212338
 20
210.8952597383
 10
1003.7763268648
 20
208.972508711
 10
1003.9607149514
 20
207.0670732376
 10
1004.1042591234
 20
205.1802592081
 10
1004.2068610026
 20
203.3133597509
 10
1004.2684502709
 20
201.4676543454
 10
1004.2889847181
 20
199.6444079461
 10
1004.2684502709
 20
197.8448701148
 10
1004.2068610026
 20
196.0702741649
 10
1004.1042591234
 20
194.3218363159
 10
1003.9607149514
 20
192.6007548597
 10
1003.7763268648
 20
190.9082093396
 10
1003.5512212338
 20
189.2453597417
 10
1003.2855523347
 20
187.6133457001
 10
1002.9795022435
 20
186.0132857157
 10
1002.6332807119
 20
184.4462763897
 10
1002.2471250227
 20
182.9133916719
 10
1001.8212998277
 20
181.4156821251
 10
1001.3560969663
 20
179.9541742045
 10
1000.8518352652
 20
178.5298695546
 10
1000.3088603203
 20
177.1437443228
 10
999.7275442594
 20
175.7967484899
 10
999.1082854875
 20
174.4898052197
 10
998.4515084137
 20
173.2238102258
 10
997.7576631602
 20
171.999631158
 10
997.0272252538
 20
170.8181070073
 10
996.2606953003
 20
169.6800475315
 10
995.4585986408
 20
168.5862326997
 10
994.6214849925
 20
167.5374121579
 10
993.7499280712
 20
166.5343047153
 10
992.8445251985
 20
165.5775978516
 10
991.9058968922
 20
164.667947246
 10
990.9346864414
 20
163.8059763276
 10
989.9315594652
 20
162.9922758481
 10
988.8972034567
 20
162.2274034772
 10
987.8323273117
 20
161.5118834202
 10
986.7376608434
 20
160.8462060589
 10
986.0299693708
 20
160.4509580818
  0
LWPOLYLINE
  5
151
330
1F
100
AcDbEntity
  8
0
  6
Continuous
 62
   252
370
     0
100
AcDbPolyline
 90
      145
 70
   128
 43
0.0
 10
942.9891789519
 20
301.0804864203
 10
944.5224192168
 20
300.172188158
 10
946.0546086753
 20
299.2181574026
 10
947.5846972415
 20
298.2190479989
 10
949.1116362689
 20
297.1755446869
 10
950.6343792699
 20
296.0883626313
 10
952.1518826326
 20
294.9582469326
 10
953.6631063358
 20
293.7859721157
 10
955.1670146623
 20
292.572341599
 10
956.6625769086
 20
291.3181871443
 10
958.1487680909
 20
290.0243682865
 10
959.624569648
 20
288.6917717444
 10
961.0889701393
 20
287.321310813
 10
962.5409659378
 20
285.9139247379
 10
963.9795619182
 20
284.4705780711
 10
965.4037721386
 20
282.9922600104
 10
966.8126205164
 20
281.4799837211
 10
968.2051414974
 20
279.9347856418
 10
969.5803807173
 20
278.3577247742
 10
970.9373956557
 20
276.7498819569
 10
972.2752562824
 20
275.1123591252
 10
973.5930456946
 20
273.4462785553
 10
974.8898607452
 20
271.7527820957
 10
976.164812662
 20
270.0330303843
 10
977.4170276566
 20
268.2882020529
 10
978.6456475234
 20
266.5194929198
 10
979.8498302278
 20
264.7281151698
 10
981.0287504829
 20
262.9152965238
 10
982.1816003159
 20
261.0822793972
 10
983.307589621
 20
259.2303200482
 10
984.4059467014
 20
257.3606877174
 10
985.4759187979
 20
255.4746637573
 10
986.5167726052
 20
253.5735407545
 10
987.5277947741
 20
251.6586216439
 10
988.5082924005
 20
249.7312188153
 10
989.4575935002
 20
247.7926532142
 10
990.3750474698
 20
245.8442534369
 10
991.260025532
 20
243.8873548191
 10
992.1119211672
 20
241.9232985214
 10
992.9301505286
 20
239.9534306098
 10
993.7141528427
 20
237.9791011335
 10
994.4633907934
 20
236.0016631993
 10
995.1773508906
 20
234.0224720443
 10
995.8555438215
 20
232.0428841073
 10
996.4975047867
 20
230.064256099
 10
997.1027938182
 20
228.0879440721
 10
997.6709960811
 20
226.1153024923
 10
998.201722158
 20
224.1476833096
 10
998.6946083156
 20
222.1864350317
 10
999.1493167546
 20
220.2329018004
 10
999.5655358403
 20
218.2884224698
 10
999.9429803171
 20
216.3543296887
 10
1000.2813915033
 20
214.4319489879
 10
1000.5805374689
 20
212.522597871
 10
1000.840213194
 20
210.627584912
 10
1001.0602407101
 20
208.7482088579
 10
1001.2404692211
 20
206.8857577394
 10
1001.3807752075
 20
205.0415079873
 10
1001.4810625105
 20
203.2167235584
 10
1001.5412623983
 20
201.4126550687
 10
1001.5613336128
 20
199.6305389366
 10
1001.5412623983
 20
197.8715965356
 10
1001.4810625105
 20
196.1370333568
 10
1001.3807752075
 20
194.4280381833
 10
1001.2404692211
 20
192.745782275
 10
1001.0602407101
 20
191.091418566
 10
1000.840213194
 20
189.4660808746
 10
1000.5805374689
 20
187.8708831261
 10
1000.2813915033
 20
186.3069185893
 10
999.9429803171
 20
184.7752591274
 10
999.5655358403
 20
183.2769544632
 10
999.1493167546
 20
181.81303146
 10
998.6946083156
 20
180.3844934175
 10
998.201722158
 20
178.9923193842
 10
997.6709960811
 20
177.6374634867
 10
997.1027938182
 20
176.3208542756
 10
996.4975047867
 20
175.043394089
 10
995.8555438215
 20
173.8059584344
 10
995.1773508906
 20
172.6093953883
 10
994.4633907934
 20
171.4545250154
 10
993.7141528427
 20
170.3421388059
 10
992.9301505286
 20
169.272999134
 10
992.1119211672
 20
168.2478387344
 10
991.260025532
 20
167.2673602011
 10
990.3750474698
 20
166.3322355048
 10
989.4575935002
 20
165.4431055335
 10
988.5082924005
 20
164.6005796524
 10
987.5277947741
 20
163.8052352866
 10
986.5167726052
 20
163.0576175254
 10
985.4759187979
 20
162.3582387488
 10
984.4059467014
 20
161.7075782759
 10
983.307589621
 20
161.1060820371
 10
982.1816003159
 20
160.5541622676
 10
981.0287504829
 20
160.0521972259
 10
979.8498302278
 20
159.6005309336
 10
978.6456475234
 20
159.1994729403
 10
977.4170276566
 20
158.849298111
 10
976.164812662
 20
158.5502464382
 10
974.8898607452
 20
158.3025228769
 10
973.5930456946
 20
158.1062972044
 10
972.2752562824
 20
157.9617039041
 10
970.9373956557
 20
157.868842073
 10
969.5803807173
 20
157.8277753538
 10
968.2051414974
 20
157.8385318918
 10
966.8126205164
 20
157.9011043148
 10
965.4037721386
 20
158.0154497389
 10
963.9795619182
 20
158.1814897975
 10
962.5409659378
 20
158.399110695
 10
961.0889701393
 20
158.6681632848
 10
959.624569648
 20
158.9884631719
 10
958.1487680909
 20
159.3597908386
 10
956.6625769086
 20
159.7818917954
 10
955.1670146623
 20
160.2544767556
 10
953.6631063358
 20
160.777221833
 10
952.1518826326
 20
161.3497687641
 10
950.6343792699
 20
161.971725154
 10
949.1116362689
 20
162.6426647448
 10
947.5846972415
 20
163.362127708
 10
946.0546086753
 20
164.1296209597
 10
944.5224192168
 20
164.9446184982
 10
942.9891789519
 20
165.8065617651
 10
941.4559386871
 20
166.7148600274
 10
939.9237492285
 20
167.6688907828
 10
938.3936606624
 20
168.6680001865
 10
936.8667216349
 20
169.7115034986
 10
935.3439786339
 20
170.7986855541
 10
933.8264752713
 20
171.9288012528
 10
932.3152515681
 20
173.1010760697
 10
930.8113432415
 20
174.3147065864
 10
929.3157809953
 20
175.5688610411
 10
927.829589813
 20
176.8626798989
 10
926.3537882559
 20
178.195276441
 10
924.8893877646
 20
179.5657373724
 10
923.437391966
 20
180.9731234475
 10
921.9987959856
 20
182.4164701143
 10
920.5745857653
 20
183.894788175
 10
919.1657373874
 20
185.4070644643
 10
917.7732164064
 20
186.9522625436
 10
916.3979771866
 20
188.5293234112
 10
915.0409622482
 20
190.1371662285
 10
913.7031016215
 20
191.7746890602
 10
912.3853122093
 20
193.4407696301
 10
911.0884971587
 20
195.1342660897
 10
909.8135452419
 20
196.8540178011
 10
909.1643589548
 20
197.7515015048
  0
LWPOLYLINE
  5
152
330
1F
100
AcDbEntity
  8
0
  6
Continuous
 62
   252
370
     0
100
AcDbPolyline
 90
       85
 70
   128
 43
0.0
 10
895.1654967002
 20
222.0008696528
 10
894.7183323719
 20
222.9996933663
 10
893.8664367367
 20
224.9637496641
 10
893.0482073753
 20
226.9336175756
 10
892.2642050612
 20
228.9079470519
 10
891.5149671104
 20
230.8853849861
 10
890.8010070133
 20
232.8645761411
 10
890.1228140823
 20
234.8441640781
 10
889.4808531171
 20
236.8227920864
 10
888.8755640856
 20
238.7991041133
 10
888.3073618227
 20
240.7717456931
 10
887.7766357459
 20
242.7393648758
 10
887.2837495882
 20
244.7006131537
 10
886.8290411493
 20
246.654146385
 10
886.4128220636
 20
248.5986257157
 10
886.0353775868
 20
250.5327184967
 10
885.6969664006
 20
252.4550991975
 10
885.397820435
 20
254.3644503144
 10
885.1381447098
 20
256.2594632734
 10
884.9181171938
 20
258.1388393275
 10
884.7378886828
 20
260.001290446
 10
884.5975826964
 20
261.8455401981
 10
884.4972953933
 20
263.670324627
 10
884.4370955056
 20
265.4743931168
 10
884.417024291
 20
267.2565092488
 10
884.4370955056
 20
269.0154516499
 10
884.4972953933
 20
270.7500148286
 10
884.5975826964
 20
272.4590100021
 10
884.7378886828
 20
274.1412659104
 10
884.9181171938
 20
275.7956296194
 10
885.1381447098
 20
277.4209673108
 10
885.397820435
 20
279.0161650593
 10
885.6969664006
 20
280.5801295961
 10
886.0353775868
 20
282.111789058
 10
886.4128220636
 20
283.6100937222
 10
886.8290411493
 20
285.0740167254
 10
887.2837495882
 20
286.5025547679
 10
887.7766357459
 20
287.8947288012
 10
888.3073618227
 20
289.2495846987
 10
888.8755640856
 20
290.5661939098
 10
889.4808531171
 20
291.8436540964
 10
890.1228140823
 20
293.081089751
 10
890.8010070133
 20
294.2776527971
 10
891.5149671104
 20
295.4325231701
 10
892.2642050612
 20
296.5449093795
 10
893.0482073753
 20
297.6140490514
 10
893.8664367367
 20
298.639209451
 10
894.7183323719
 20
299.6196879844
 10
895.6033104341
 20
300.5548126806
 10
896.5207644036
 20
301.4439426519
 10
897.4700655034
 20
302.286468533
 10
898.4505631297
 20
303.0818128988
 10
899.4615852986
 20
303.82943066
 10
900.5024391059
 20
304.5288094366
 10
901.5724112025
 20
305.1794699095
 10
902.6707682829
 20
305.7809661484
 10
903.7967575879
 20
306.3328859178
 10
904.9496074209
 20
306.8348509595
 10
906.1285276761
 20
307.2865172518
 10
907.3327103804
 20
307.6875752452
 10
908.5613302473
 20
308.0377500744
 10
909.8135452419
 20
308.3368017472
 10
911.0884971587
 20
308.5845253085
 10
912.3853122093
 20
308.780750981
 10
913.7031016215
 20
308.9253442813
 10
915.0409622482
 20
309.0182061124
 10
916.3979771866
 20
309.0592728316
 10
917.7732164064
 20
309.0485162937
 10
919.1657373874
 20
308.9859438706
 10
920.5745857653
 20
308.8715984465
 10
921.9987959856
 20
308.7055583879
 10
923.437391966
 20
308.4879374904
 10
924.8893877646
 20
308.2188849006
 10
926.3537882559
 20
307.8985850135
 10
927.829589813
 20
307.5272573469
 10
929.3157809953
 20
307.10515639
 10
930.8113432415
 20
306.6325714298
 10
932.3152515681
 20
306.1098263524
 10
933.8264752713
 20
305.5372794213
 10
935.3439786339
 20
304.9153230314
 10
936.8667216349
 20
304.2443834406
 10
938.3936606624
 20
303.5249204774
 10
939.9237492285
 20
302.7574272257
 10
941.4559386871
 20
301.9424296872
 10
942.9891789519
 20
301.0804864203
  0
LWPOLYLINE
  5
153
330
1F
100
AcDbEntity
  8
0
  6
Continuous
 62
   252
370
     0
100
AcDbPolyline
 90
      123
 70
   128
 43
0.0
 10
908.3198205537
 20
311.5712201485
 10
908.6537040826
 20
311.7687289802
 10
909.7815275069
 20
312.3916270022
 10
910.9379191295
 20
312.9634106519
 10
912.1220821633
 20
313.4836859538
 10
913.333200686
 20
313.9520944235
 10
914.5704402021
 20
314.3683133141
 10
915.8329482183
 20
314.7320558387
 10
917.1198548302
 20
315.0430713684
 10
918.4302733222
 20
315.3011456044
 10
919.7633007785
 20
315.5061007264
 10
921.1180187048
 20
315.6577955142
 10
922.4934936616
 20
315.756125446
 10
923.8887779073
 20
315.8010227694
 10
925.302910051
 20
315.792456549
 10
926.734915715
 20
315.7304326871
 10
928.1838082063
 20
315.6149939199
 10
929.6485891965
 20
315.4462197882
 10
931.1282494095
 20
315.224226582
 10
932.6217693169
 20
314.9491672611
 10
934.1281198406
 20
314.6212313493
 10
935.6462630619
 20
314.2406448038
 10
937.1751529366
 20
313.8076698596
 10
938.7137360157
 20
313.3226048489
 10
940.2609521714
 20
312.7857839954
 10
941.8157353272
 20
312.1975771841
 10
943.377014193
 20
311.5583897064
 10
944.9437130029
 20
310.8686619807
 10
946.5147522564
 20
310.1288692492
 10
948.0890494624
 20
309.3395212504
 10
949.665519885
 20
308.5011618677
 10
951.2430772909
 20
307.6143687548
 10
952.8206346977
 20
306.6797529375
 10
954.3971051231
 20
305.6979583929
 10
955.9714023337
 20
304.6696616058
 10
957.5424415937
 20
303.5955711019
 10
959.1091404119
 20
302.4764269606
 10
960.6704192878
 20
301.3130003042
 10
962.2252024556
 20
300.1060927671
 10
963.772418625
 20
298.8565359432
 10
965.3110017197
 20
297.5651908131
 10
966.8398916118
 20
296.2329471504
 10
968.3580348523
 20
294.8607229094
 10
969.8643853969
 20
293.4494635919
 10
971.357905327
 20
292.0001415961
 10
972.8375655644
 20
290.5137555464
 10
974.3023465808
 20
288.9913296055
 10
975.7512391
 20
287.4339127684
 10
977.1832447936
 20
285.8425781401
 10
978.5973769684
 20
284.2184221958
 10
979.992661247
 20
282.5625640255
 10
981.3681362383
 20
280.8761445631
 10
982.7228542007
 20
279.1603257998
 10
984.0558816946
 20
277.4162899841
 10
985.3663002259
 20
275.6452388066
 10
986.6532068785
 20
273.8483925725
 10
987.9157149369
 20
272.0269893603
 10
989.1529544967
 20
270.1822841691
 10
990.3640730646
 20
268.3155480537
 10
991.5482361449
 20
266.4280672489
 10
992.7046278153
 20
264.521142283
 10
993.8324512889
 20
262.5960870821
 10
994.930929463
 20
260.6542280645
 10
995.9993054544
 20
258.6969032266
 10
997.0368431215
 20
256.7254612216
 10
998.0428275712
 20
254.7412604294
 10
999.0165656512
 20
252.7456680213
 10
999.9573864281
 20
250.7400590178
 10
1000.8646416493
 20
248.7258153411
 10
1001.7377061901
 20
246.7043248627
 10
1002.5759784838
 20
244.6769804476
 10
1003.3788809368
 20
242.6451789944
 10
1004.1458603264
 20
240.6103204724
 10
1004.8763881816
 20
238.5738069575
 10
1005.5699611479
 20
236.5370416661
 10
1006.2261013336
 20
234.5014279879
 10
1006.8443566392
 20
232.4683685189
 10
1007.4243010691
 20
230.4392640957
 10
1007.965535025
 20
228.4155128292
 10
1008.4676855812
 20
226.3985091423
 10
1008.9304067414
 20
224.3896428082
 10
1009.3533796777
 20
222.3902979936
 10
1009.7363129493
 20
220.4018523044
 10
1010.0789427045
 20
218.4256758367
 10
1010.3810328613
 20
216.4631302327
 10
1010.6423752711
 20
214.5155677428
 10
1010.8627898614
 20
212.5843302933
 10
1011.0421247602
 20
210.6707485622
 10
1011.1802564008
 20
208.7761410623
 10
1011.2770896063
 20
206.9018132325
 10
1011.3325576559
 20
205.0490565383
 10
1011.3466223306
 20
203.2191475825
 10
1011.3192739394
 20
201.4133472246
 10
1011.2505313261
 20
199.632899713
 10
1011.1404418563
 20
197.879031827
 10
1010.9890813849
 20
196.1529520321
 10
1010.7965542036
 20
194.4558496466
 10
1010.562992969
 20
192.7888940227
 10
1010.2885586117
 20
191.1532337409
 10
1009.9734402248
 20
189.5499958178
 10
1009.6178549337
 20
187.9802849304
 10
1009.2220477472
 20
186.4451826546
 10
1008.7862913875
 20
184.9457467199
 10
1008.3108861034
 20
183.4830102806
 10
1007.7961594628
 20
182.0579812042
 10
1007.242466127
 20
180.6716413764
 10
1006.6501876067
 20
179.3249460253
 10
1006.0197319987
 20
178.0188230626
 10
1005.3515337051
 20
176.7541724444
 10
1004.6460531336
 20
175.5318655514
 10
1003.9037763807
 20
174.352744588
 10
1003.1252148962
 20
173.2176220024
 10
1002.3109051314
 20
172.1272799267
 10
1001.461408169
 20
171.0824696378
 10
1000.5773093369
 20
170.0839110399
 10
999.6592178045
 20
169.1322921687
 10
998.7077661632
 20
168.2282687167
 10
997.7236099905
 20
167.3724635821
 10
996.7074273983
 20
166.5654664392
 10
995.6599185654
 20
165.8078333322
 10
994.5818052555
 20
165.100086292
 10
993.4738303196
 20
164.4427129766
 10
993.3057633169
 20
164.3488446697
  0
LWPOLYLINE
  5
154
330
1F
100
AcDbEntity
  8
0
  6
Continuous
 62
   252
370
     0
100
AcDbPolyline
 90
       96
 70
   128
 43
0.0
 10
790.9205486068
 20
94.5302817247
 10
790.8012095057
 20
94.3436318813
 10
790.667954531
 20
94.1505922693
 10
790.5259918926
 20
93.9596325071
 10
790.3754188849
 20
93.770883469
 10
790.2163387029
 20
93.5844745141
 10
790.0488603723
 20
93.4005333979
 10
789.8730986743
 20
93.2191861844
 10
789.6891740674
 20
93.0405571599
 10
789.497212604
 20
92.8647687478
 10
789.2973458452
 20
92.6919414248
 10
789.0897107696
 20
92.5221936379
 10
788.8744496798
 20
92.355641724
 10
788.6517101052
 20
92.1923998293
 10
788.4216447002
 20
92.0325798317
 10
788.1844111402
 20
91.8762912639
 10
787.9401720132
 20
91.7236412381
 10
787.6890947086
 20
91.5747343732
 10
787.4313513022
 20
91.4296727224
 10
787.1671184383
 20
91.2885557038
 10
786.8965772092
 20
91.1514800319
 10
786.6199130301
 20
91.0185396515
 10
786.3373155129
 20
90.8898256733
 10
786.0489783358
 20
90.7654263115
 10
785.7550991107
 20
90.6454268231
 10
785.4558792477
 20
90.5299094499
 10
785.1515238173
 20
90.4189533616
 10
784.8422414094
 20
90.312634602
 10
784.5282439907
 20
90.2110260367
 10
784.2097467594
 20
90.1141973032
 10
783.8869679975
 20
90.0222147629
 10
783.5601289215
 20
89.9351414562
 10
783.2294535306
 20
89.8530370586
 10
782.8951684532
 20
89.7759578406
 10
782.5575027916
 20
89.7039566283
 10
782.2166879649
 20
89.6370827678
 10
781.8729575506
 20
89.575382091
 10
781.5265471244
 20
89.5188968845
 10
781.1776940986
 20
89.4676658605
 10
780.8266375597
 20
89.4217241302
 10
780.4736181044
 20
89.3811031797
 10
780.1188776745
 20
89.3458308486
 10
779.7626593913
 20
89.3159313107
 10
779.4052073892
 20
89.2914250578
 10
779.0467666478
 20
89.2723288852
 10
778.6875828246
 20
89.2586558804
 10
778.3279020861
 20
89.2504154143
 10
777.9679709396
 20
89.2476131344
 10
777.608036064
 20
89.2502509614
 10
777.2483441406
 20
89.2583270873
 10
776.8891416842
 20
89.2718359772
 10
776.5306748744
 20
89.2907683727
 10
776.1731893863
 20
89.3151112986
 10
775.8169302227
 20
89.3448480715
 10
775.4621415458
 20
89.3799583112
 10
775.1090665099
 20
89.4204179548
 10
774.7579470952
 20
89.4661992735
 10
774.4090239414
 20
89.517270891
 10
774.0625361828
 20
89.5735978053
 10
773.718721285
 20
89.6351414128
 10
773.3778148814
 20
89.7018595346
 10
773.0400506124
 20
89.7737064454
 10
772.7056599646
 20
89.8506329049
 10
772.3748721128
 20
89.9325861916
 10
772.0479137623
 20
90.0195101387
 10
771.7250089941
 20
90.111345173
 10
771.406379111
 20
90.2080283553
 10
771.092242486
 20
90.3094934238
 10
770.7828144127
 20
90.4156708394
 10
770.4783069576
 20
90.5264878333
 10
770.1789288149
 20
90.6418684572
 10
769.8848851634
 20
90.761733635
 10
769.5963775259
 20
90.886001217
 10
769.3136036313
 20
91.0145860365
 10
769.0367572785
 20
91.1473999677
 10
768.7660282043
 20
91.2843519868
 10
768.5016019528
 20
91.4253482336
 10
768.2436597486
 20
91.5702920764
 10
767.9923783723
 20
91.7190841778
 10
767.7479300398
 20
91.8716225632
 10
767.5104822835
 20
92.0278026904
 10
767.2801978385
 20
92.1875175214
 10
767.0572345301
 20
92.3506575955
 10
766.8417451663
 20
92.5171111048
 10
766.6338774327
 20
92.6867639703
 10
766.4337737914
 20
92.8594999204
 10
766.2415713836
 20
93.0352005705
 10
766.0574019351
 20
93.2137455041
 10
765.8813916664
 20
93.3950123556
 10
765.7136612063
 20
93.5788768935
 10
765.5543255088
 20
93.7652131065
 10
765.4034937746
 20
93.9538932889
 10
765.2612693763
 20
94.1447881287
 10
765.1277497873
 20
94.3377667962
 10
765.0030265153
 20
94.5326970335
 10
764.9968462039
 20
94.5427811505
  0
LWPOLYLINE
  5
155
330
1F
100
AcDbEntity
  8
0
  6
Continuous
 62
   252
370
     0
100
AcDbPolyline
 90
       76
 70
   128
 43
0.0
 10
772.7056599646
 20
84.0531931405
 10
773.0400506124
 20
83.976266681
 10
773.3778148814
 20
83.9044197702
 10
773.718721285
 20
83.8377016485
 10
774.0625361828
 20
83.776158041
 10
774.4090239414
 20
83.7198311266
 10
774.7579470952
 20
83.6687595092
 10
775.1090665099
 20
83.6229781905
 10
775.4621415458
 20
83.5825185468
 10
775.8169302227
 20
83.5474083071
 10
776.1731893863
 20
83.5176715343
 10
776.5306748744
 20
83.4933286083
 10
776.8891416842
 20
83.4743962128
 10
777.2483441406
 20
83.4608873229
 10
777.608036064
 20
83.452811197
 10
777.9679709396
 20
83.45017337
 10
778.3279020861
 20
83.4529756499
 10
778.6875828246
 20
83.461216116
 10
779.0467666478
 20
83.4748891208
 10
779.4052073892
 20
83.4939852934
 10
779.7626593913
 20
83.5184915463
 10
780.1188776745
 20
83.5483910842
 10
780.4736181044
 20
83.5836634153
 10
780.8266375597
 20
83.6242843658
 10
781.1776940986
 20
83.6702260961
 10
781.5265471244
 20
83.7214571201
 10
781.8729575506
 20
83.7779423266
 10
782.2166879649
 20
83.8396430034
 10
782.5575027916
 20
83.9065168639
 10
782.8951684532
 20
83.9785180762
 10
783.2294535306
 20
84.0555972942
 10
783.5601289215
 20
84.1377016918
 10
783.8869679975
 20
84.2247749985
 10
784.2097467594
 20
84.3167575388
 10
784.5282439907
 20
84.4135862724
 10
784.8422414094
 20
84.5151948376
 10
785.1515238173
 20
84.6215135972
 10
785.4558792477
 20
84.7324696855
 10
785.7550991107
 20
84.8479870587
 10
786.0489783358
 20
84.9679865471
 10
786.3373155129
 20
85.0923859089
 10
786.6199130301
 20
85.2210998871
 10
786.8965772092
 20
85.3540402675
 10
787.1671184383
 20
85.4911159394
 10
787.4313513022
 20
85.632232958
 10
787.6890947086
 20
85.7772946088
 10
787.9401720132
 20
85.9262014738
 10
788.1844111402
 20
86.0788514995
 10
788.4216447002
 20
86.2351400674
 10
788.6517101052
 20
86.3949600649
 10
788.8744496798
 20
86.5582019596
 10
789.0897107696
 20
86.7247538736
 10
789.2973458452
 20
86.8945016604
 10
789.497212604
 20
87.0673289834
 10
789.6891740674
 20
87.2431173955
 10
789.8730986743
 20
87.42174642
 10
790.0488603723
 20
87.6030936335
 10
790.2163387029
 20
87.7870347497
 10
790.3754188849
 20
87.9734437046
 10
790.5259918926
 20
88.1621927427
 10
790.667954531
 20
88.3531525049
 10
790.8012095057
 20
88.5461921169
 10
790.9256654906
 20
88.741179279
 10
791.0412371898
 20
88.9379803567
 10
791.147845396
 20
89.1364604725
 10
791.2454170456
 20
89.3364835979
 10
791.3338852676
 20
89.5379126471
 10
791.4131894304
 20
89.7406095706
 10
791.4832751828
 20
89.9444354503
 10
791.5440944917
 20
90.1492505938
 10
791.5956056745
 20
90.3549146313
 10
791.6377734279
 20
90.5612866108
 10
791.6705688524
 20
90.7682250953
 10
791.6939694716
 20
90.9755882595
 10
791.7079592478
 20
91.1832339871
 10
791.7125296698
 20
91.3878787897
  0
LWPOLYLINE
  5
156
330
1F
100
AcDbEntity
  8
0
  6
Continuous
 62
   252
370
     0
100
AcDbPolyline
 90
       46
 70
   128
 43
0.0
 10
764.2153974307
 20
91.2257696544
 10
764.2173849635
 20
91.1769537834
 10
764.2316594161
 20
90.9693145128
 10
764.2553443214
 20
90.7619621053
 10
764.2884234468
 20
90.5550386698
 10
764.3308741215
 20
90.3486860213
 10
764.3826672521
 20
90.1430455836
 10
764.443767342
 20
89.9382582924
 10
764.5141325164
 20
89.7344644987
 10
764.5937145504
 20
89.5318038726
 10
764.6824589025
 20
89.3304153075
 10
764.7803047518
 20
89.1304368251
 10
764.8871850395
 20
88.9320054807
 10
765.0030265153
 20
88.7352572691
 10
765.1277497873
 20
88.5403270319
 10
765.2612693763
 20
88.3473483643
 10
765.4034937746
 20
88.1564535245
 10
765.5543255088
 20
87.9677733421
 10
765.7136612063
 20
87.7814371291
 10
765.8813916664
 20
87.5975725912
 10
766.0574019351
 20
87.4163057397
 10
766.2415713836
 20
87.2377608061
 10
766.4337737914
 20
87.062060156
 10
766.6338774327
 20
86.8893242059
 10
766.8417451663
 20
86.7196713404
 10
767.0572345301
 20
86.5532178311
 10
767.2801978385
 20
86.390077757
 10
767.5104822835
 20
86.230362926
 10
767.7479300398
 20
86.0741827988
 10
767.9923783723
 20
85.9216444134
 10
768.2436597486
 20
85.772852312
 10
768.5016019528
 20
85.6279084692
 10
768.7660282043
 20
85.4869122224
 10
769.0367572785
 20
85.3499602034
 10
769.3136036313
 20
85.2171462721
 10
769.5963775259
 20
85.0885614526
 10
769.8848851634
 20
84.9642938706
 10
770.1789288149
 20
84.8444286929
 10
770.4783069576
 20
84.7290480689
 10
770.7828144127
 20
84.618231075
 10
771.092242486
 20
84.5120536594
 10
771.406379111
 20
84.4105885909
 10
771.7250089941
 20
84.3139054086
 10
772.0479137623
 20
84.2220703743
 10
772.3748721128
 20
84.1351464272
 10
772.7056599646
 20
84.0531931405
  0
ENDSEC
  0
SECTION
  2
OBJECTS
  0
DICTIONARY
  5
C
330
0
100
AcDbDictionary
281
     1
  3
ACAD_GROUP
350
D
  3
ACAD_LAYOUT
350
1A
  3
ACAD_MLINESTYLE
350
17
  3
ACAD_PLOTSETTINGS
350
19
  3
ACAD_PLOTSTYLENAME
350
E
  3
ACAD_SCALELIST
350
47
  0
DICTIONARY
  5
D
102
{ACAD_REACTORS
330
C
102
}
330
C
100
AcDbDictionary
281
     1
  0
DICTIONARY
  5
1A
102
{ACAD_REACTORS
330
C
102
}
330
C
100
AcDbDictionary
281
     1
  3
Layout1
350
1E
  3
Layout2
350
26
  3
Model
350
22
  0
DICTIONARY
  5
17
102
{ACAD_REACTORS
330
C
102
}
330
C
100
AcDbDictionary
281
     1
  3
Standard
350
18
  0
DICTIONARY
  5
19
102
{ACAD_REACTORS
330
C
102
}
330
C
100
AcDbDictionary
281
     1
  0
ACDBDICTIONARYWDFLT
  5
E
102
{ACAD_REACTORS
330
C
102
}
330
C
100
AcDbDictionary
281
     1
  3
Normal
350
F
100
AcDbDictionaryWithDefault
340
F
  0
DICTIONARY
  5
47
102
{ACAD_REACTORS
330
C
102
}
330
C
100
AcDbDictionary
281
     1
  3
A0
350
48
  3
A1
350
49
  3
A2
350
4A
  3
A3
350
4B
  3
A4
350
4C
  3
A5
350
4D
  3
A6
350
4E
  3
A7
350
4F
  3
A8
350
50
  3
A9
350
51
  3
B0
350
52
  3
B1
350
53
  3
B2
350
54
  3
B3
350
55
  3
B4
350
56
  3
B5
350
57
  3
B6
350
58
  3
B7
350
59
  3
B8
350
5A
  3
B9
350
5B
  3
C0
350
5C
  3
C1
350
5D
  3
C2
350
5E
  3
C3
350
5F
  3
C4
350
60
  3
C5
350
61
  3
C6
350
62
  3
C7
350
63
  3
C8
350
64
  3
C9
350
65
  3
D0
350
66
  3
D1
350
67
  3
D2
350
68
  0
LAYOUT
  5
1E
102
{ACAD_REACTORS
330
1A
102
}
330
1A
100
AcDbPlotSettings
  1

  2
none_device
  4

  6

 40
0.0
 41
0.0
 42
0.0
 43
0.0
 44
0.0
 45
0.0
 46
0.0
 47
0.0
 48
0.0
 49
0.0
140
0.0
141
0.0
142
1.0
143
1.0
 70
   688
 72
     1
 73
     0
 74
     5
  7

 75
    16
147
1.0
148
0.0
149
0.0
100
AcDbLayout
  1
Layout1
 70
     1
 71
     1
 10
0.0
 20
0.0
 11
420.0
 21
297.0
 12
0.0
 22
0.0
 32
0.0
 14
1.0000000000E+20
 24
1.0000000000E+20
 34
1.0000000000E+20
 15
-1.0000000000E+20
 25
-1.0000000000E+20
 35
-1.0000000000E+20
146
0.0
 13
0.0
 23
0.0
 33
0.0
 16
1.0
 26
0.0
 36
0.0
 17
0.0
 27
1.0
 37
0.0
 76
     0
330
1B
  0
LAYOUT
  5
26
102
{ACAD_REACTORS
330
1A
102
}
330
1A
100
AcDbPlotSettings
  1

  2
none_device
  4

  6

 40
0.0
 41
0.0
 42
0.0
 43
0.0
 44
0.0
 45
0.0
 46
0.0
 47
0.0
 48
0.0
 49
0.0
140
0.0
141
0.0
142
1.0
143
1.0
 70
   688
 72
     1
 73
     0
 74
     5
  7

 75
    16
147
1.0
148
0.0
149
0.0
100
AcDbLayout
  1
Layout2
 70
     1
 71
     2
 10
0.0
 20
0.0
 11
0.0
 21
0.0
 12
0.0
 22
0.0
 32
0.0
 14
0.0
 24
0.0
 34
0.0
 15
0.0
 25
0.0
 35
0.0
146
0.0
 13
0.0
 23
0.0
 33
0.0
 16
1.0
 26
0.0
 36
0.0
 17
0.0
 27
1.0
 37
0.0
 76
     0
330
23
  0
LAYOUT
  5
22
102
{ACAD_REACTORS
330
1A
102
}
330
1A
100
AcDbPlotSettings
  1

  2
none_device
  4
Letter_(8.50_x_11.00_Inches)
  6

 40
6.35
 41
6.35
 42
6.35000508
 43
6.35000508
 44
215.9
 45
279.4
 46
0.0
 47
0.0
 48
0.0
 49
0.0
140
0.0
141
0.0
142
1.0
143
1.0
 70
  1712
 72
     1
 73
     0
 74
     0
  7

 75
     0
147
1.0
148
0.0
149
0.0
100
AcDbLayout
  1
Model
 70
     1
 71
     0
 10
0.0
 20
0.0
 11
1039.0
 21
627.0
 12
0.0
 22
0.0
 32
0.0
 14
0.0
 24
0.0
 34
0.0
 15
1039.0
 25
627.0
 35
0.0
146
0.0
 13
0.0
 23
0.0
 33
0.0
 16
1.0
 26
0.0
 36
0.0
 17
0.0
 27
1.0
 37
0.0
 76
     0
330
1F
331
29
  0
MLINESTYLE
  5
18
102
{ACAD_REACTORS
330
17
102
}
330
17
100
AcDbMlineStyle
  2
Standard
 70
     0
  3

 62
   256
 51
90.0
 52
90.0
 71
     2
 49
0.5
 62
   256
  6
BYLAYER
 49
-0.5
 62
   256
  6
BYLAYER
  0
ACDBPLACEHOLDER
  5
F
102
{ACAD_REACTORS
330
E
102
}
330
E
  0
SCALE
  5
48
102
{ACAD_REACTORS
330
47
102
}
330
47
100
AcDbScale
 70
     0
300
1:1
140
1.0
141
1.0
290
     1
  0
SCALE
  5
49
102
{ACAD_REACTORS
330
47
102
}
330
47
100
AcDbScale
 70
     0
300
1:2
140
1.0
141
2.0
290
     0
  0
SCALE
  5
4A
102
{ACAD_REACTORS
330
47
102
}
330
47
100
AcDbScale
 70
     0
300
1:4
140
1.0
141
4.0
290
     0
  0
SCALE
  5
4B
102
{ACAD_REACTORS
330
47
102
}
330
47
100
AcDbScale
 70
     0
300
1:5
140
1.0
141
5.0
290
     0
  0
SCALE
  5
4C
102
{ACAD_REACTORS
330
47
102
}
330
47
100
AcDbScale
 70
     0
300
1:8
140
1.0
141
8.0
290
     0
  0
SCALE
  5
4D
102
{ACAD_REACTORS
330
47
102
}
330
47
100
AcDbScale
 70
     0
300
1:10
140
1.0
141
10.0
290
     0
  0
SCALE
  5
4E
102
{ACAD_REACTORS
330
47
102
}
330
47
100
AcDbScale
 70
     0
300
1:16
140
1.0
141
16.0
290
     0
  0
SCALE
  5
4F
102
{ACAD_REACTORS
330
47
102
}
330
47
100
AcDbScale
 70
     0
300
1:20
140
1.0
141
20.0
290
     0
  0
SCALE
  5
50
102
{ACAD_REACTORS
330
47
102
}
330
47
100
AcDbScale
 70
     0
300
1:30
140
1.0
141
30.0
290
     0
  0
SCALE
  5
51
102
{ACAD_REACTORS
330
47
102
}
330
47
100
AcDbScale
 70
     0
300
1:40
140
1.0
141
40.0
290
     0
  0
SCALE
  5
52
102
{ACAD_REACTORS
330
47
102
}
330
47
100
AcDbScale
 70
     0
300
1:50
140
1.0
141
50.0
290
     0
  0
SCALE
  5
53
102
{ACAD_REACTORS
330
47
102
}
330
47
100
AcDbScale
 70
     0
300
1:100
140
1.0
141
100.0
290
     0
  0
SCALE
  5
54
102
{ACAD_REACTORS
330
47
102
}
330
47
100
AcDbScale
 70
     0
300
2:1
140
2.0
141
1.0
290
     0
  0
SCALE
  5
55
102
{ACAD_REACTORS
330
47
102
}
330
47
100
AcDbScale
 70
     0
300
4:1
140
4.0
141
1.0
290
     0
  0
SCALE
  5
56
102
{ACAD_REACTORS
330
47
102
}
330
47
100
AcDbScale
 70
     0
300
8:1
140
8.0
141
1.0
290
     0
  0
SCALE
  5
57
102
{ACAD_REACTORS
330
47
102
}
330
47
100
AcDbScale
 70
     0
300
10:1
140
10.0
141
1.0
290
     0
  0
SCALE
  5
58
102
{ACAD_REACTORS
330
47
102
}
330
47
100
AcDbScale
 70
     0
300
100:1
140
100.0
141
1.0
290
     0
  0
SCALE
  5
59
102
{ACAD_REACTORS
330
47
102
}
330
47
100
AcDbScale
 70
     0
300
1/128" = 1'-0"
140
0.0078125
141
12.0
290
     0
  0
SCALE
  5
5A
102
{ACAD_REACTORS
330
47
102
}
330
47
100
AcDbScale
 70
     0
300
1/64" = 1'-0"
140
0.015625
141
12.0
290
     0
  0
SCALE
  5
5B
102
{ACAD_REACTORS
330
47
102
}
330
47
100
AcDbScale
 70
     0
300
1/32" = 1'-0"
140
0.03125
141
12.0
290
     0
  0
SCALE
  5
5C
102
{ACAD_REACTORS
330
47
102
}
330
47
100
AcDbScale
 70
     0
300
1/16" = 1'-0"
140
0.0625
141
12.0
290
     0
  0
SCALE
  5
5D
102
{ACAD_REACTORS
330
47
102
}
330
47
100
AcDbScale
 70
     0
300
3/32" = 1'-0"
140
0.09375
141
12.0
290
     0
  0
SCALE
  5
5E
102
{ACAD_REACTORS
330
47
102
}
330
47
100
AcDbScale
 70
     0
300
1/8" = 1'-0"
140
0.125
141
12.0
290
     0
  0
SCALE
  5
5F
102
{ACAD_REACTORS
330
47
102
}
330
47
100
AcDbScale
 70
     0
300
3/16" = 1'-0"
140
0.1875
141
12.0
290
     0
  0
SCALE
  5
60
102
{ACAD_REACTORS
330
47
102
}
330
47
100
AcDbScale
 70
     0
300
1/4" = 1'-0"
140
0.25
141
12.0
290
     0
  0
SCALE
  5
61
102
{ACAD_REACTORS
330
47
102
}
330
47
100
AcDbScale
 70
     0
300
3/8" = 1'-0"
140
0.375
141
12.0
290
     0
  0
SCALE
  5
62
102
{ACAD_REACTORS
330
47
102
}
330
47
100
AcDbScale
 70
     0
300
1/2" = 1'-0"
140
0.5
141
12.0
290
     0
  0
SCALE
  5
63
102
{ACAD_REACTORS
330
47
102
}
330
47
100
AcDbScale
 70
     0
300
3/4" = 1'-0"
140
0.75
141
12.0
290
     0
  0
SCALE
  5
64
102
{ACAD_REACTORS
330
47
102
}
330
47
100
AcDbScale
 70
     0
300
1" = 1'-0"
140
1.0
141
12.0
290
     0
  0
SCALE
  5
65
102
{ACAD_REACTORS
330
47
102
}
330
47
100
AcDbScale
 70
     0
300
1-1/2" = 1'-0"
140
1.5
141
12.0
290
     0
  0
SCALE
  5
66
102
{ACAD_REACTORS
330
47
102
}
330
47
100
AcDbScale
 70
     0
300
3" = 1'-0"
140
3.0
141
12.0
290
     0
  0
SCALE
  5
67
102
{ACAD_REACTORS
330
47
102
}
330
47
100
AcDbScale
 70
     0
300
6" = 1'-0"
140
6.0
141
12.0
290
     0
  0
SCALE
  5
68
102
{ACAD_REACTORS
330
47
102
}
330
47
100
AcDbScale
 70
     0
300
1'-0" = 1'-0"
140
12.0
141
12.0
290
     0
  0
ENDSEC
  0
EOF
