  0
SECTION
  2
HEADER
  9
$ACADVER
  1
AC1015
  9
$ACADMAINTVER
 70
     6
  9
$DWGCODEPAGE
  3
ANSI_1252
  9
$INSBASE
 10
0.0
 20
0.0
 30
0.0
  9
$EXTMIN
 10
0.0
 20
0.0
 30
0.0
  9
$EXTMAX
 10
490.0
 20
450.0
 30
0.0
  9
$LIMMIN
 10
0.0
 20
0.0
  9
$LIMMAX
 10
490.0
 20
450.0
  9
$ORTHOMODE
 70
     0
  9
$REGENMODE
 70
     1
  9
$FILLMODE
 70
     1
  9
$QTEXTMODE
 70
     0
  9
$MIRRTEXT
 70
     1
  9
$LTSCALE
 40
1.0
  9
$ATTMODE
 70
     1
  9
$TEXTSIZE
 40
3.5
  9
$TRACEWID
 40
1.0
  9
$TEXTSTYLE
  7
Standard
  9
$CLAYER
  8
0
  9
$CELTYPE
  6
ByLayer
  9
$CECOLOR
 62
   256
  9
$CELTSCALE
 40
1.0
  9
$DISPSILH
 70
     0
  9
$DIMSCALE
 40
1.0
  9
$DIMASZ
 40
3.302
  9
$DIMEXO
 40
1.0
  9
$DIMDLI
 40
3.75
  9
$DIMRND
 40
0.0
  9
$DIMDLE
 40
0.0
  9
$DIMEXE
 40
1.0
  9
$DIMTP
 40
0.0
  9
$DIMTM
 40
0.0
  9
$DIMTXT
 40
2.8
  9
$DIMCEN
 40
2.5
  9
$DIMTSZ
 40
0.0
  9
$DIMTOL
 70
     0
  9
$DIMLIM
 70
     0
  9
$DIMTIH
 70
     1
  9
$DIMTOH
 70
     1
  9
$DIMSE1
 70
     0
  9
$DIMSE2
 70
     0
  9
$DIMTAD
 70
     1
  9
$DIMZIN
 70
     0
  9
$DIMBLK
  1

  9
$DIMASO
 70
     1
  9
$DIMSHO
 70
     1
  9
$DIMPOST
  1

  9
$DIMAPOST
  1

  9
$DIMALT
 70
     0
  9
$DIMALTD
 70
     3
  9
$DIMALTF
 40
0.0393700787
  9
$DIMLFAC
 40
1.0
  9
$DIMTOFL
 70
     1
  9
$DIMTVP
 40
0.0
  9
$DIMTIX
 70
     0
  9
$DIMSOXD
 70
     0
  9
$DIMSAH
 70
     0
  9
$DIMBLK1
  1

  9
$DIMBLK2
  1

  9
$DIMSTYLE
  2
ISO-25
  9
$DIMCLRD
 70
     0
  9
$DIMCLRE
 70
     0
  9
$DIMCLRT
 70
     0
  9
$DIMTFAC
 40
1.0
  9
$DIMGAP
 40
1.524
  9
$DIMJUST
 70
     0
  9
$DIMSD1
 70
     0
  9
$DIMSD2
 70
     0
  9
$DIMTOLJ
 70
     0
  9
$DIMTZIN
 70
     0
  9
$DIMALTZ
 70
     0
  9
$DIMALTTZ
 70
     0
  9
$DIMUPT
 70
     0
  9
$DIMDEC
 70
     2
  9
$DIMTDEC
 70
     2
  9
$DIMALTU
 70
     2
  9
$DIMALTTD
 70
     3
  9
$DIMTXSTY
  7
Standard
  9
$DIMAUNIT
 70
     0
  9
$DIMADEC
 70
     2
  9
$DIMALTRND
 40
0.0
  9
$DIMAZIN
 70
     0
  9
$DIMDSEP
 70
    44
  9
$DIMATFIT
 70
     3
  9
$DIMFRAC
 70
     0
  9
$DIMLDRBLK
  1

  9
$DIMLUNIT
 70
     2
  9
$DIMLWD
 70
    -2
  9
$DIMLWE
 70
    -2
  9
$DIMTMOVE
 70
     0
  9
$LUNITS
 70
     2
  9
$LUPREC
 70
     2
  9
$SKETCHINC
 40
1.0
  9
$FILLETRAD
 40
10.0
  9
$AUNITS
 70
     0
  9
$AUPREC
 70
     2
  9
$MENU
  1
.
  9
$ELEVATION
 40
0.0
  9
$PELEVATION
 40
0.0
  9
$THICKNESS
 40
0.0
  9
$LIMCHECK
 70
     0
  9
$CHAMFERA
 40
0.0
  9
$CHAMFERB
 40
0.0
  9
$CHAMFERC
 40
0.0
  9
$CHAMFERD
 40
0.0
  9
$SKPOLY
 70
     0
  9
$TDCREATE
 40
2458276.573341447
  9
$TDUCREATE
 40
2458276.448341447
  9
$TDUPDATE
 40
2458276.573342165
  9
$TDUUPDATE
 40
2458276.448342165
  9
$TDINDWG
 40
0.0000000116
  9
$TDUSRTIMER
 40
0.0000000116
  9
$USRTIMER
 70
     1
  9
$ANGBASE
 50
0.0
  9
$ANGDIR
 70
     0
  9
$PDMODE
 70
     0
  9
$PDSIZE
 40
-1.0
  9
$PLINEWID
 40
0.0
  9
$SPLFRAME
 70
     0
  9
$SPLINETYPE
 70
     6
  9
$SPLINESEGS
 70
     8
  9
$HANDSEED
  5
15E
  9
$SURFTAB1
 70
     6
  9
$SURFTAB2
 70
     6
  9
$SURFTYPE
 70
     6
  9
$SURFU
 70
     6
  9
$SURFV
 70
     6
  9
$UCSBASE
  2

  9
$UCSNAME
  2

  9
$UCSORG
 10
0.0
 20
0.0
 30
0.0
  9
$UCSXDIR
 10
1.0
 20
0.0
 30
0.0
  9
$UCSYDIR
 10
0.0
 20
1.0
 30
0.0
  9
$UCSORTHOREF
  2

  9
$UCSORTHOVIEW
 70
     0
  9
$UCSORGTOP
 10
0.0
 20
0.0
 30
0.0
  9
$UCSORGBOTTOM
 10
0.0
 20
0.0
 30
0.0
  9
$UCSORGLEFT
 10
0.0
 20
0.0
 30
0.0
  9
$UCSORGRIGHT
 10
0.0
 20
0.0
 30
0.0
  9
$UCSORGFRONT
 10
0.0
 20
0.0
 30
0.0
  9
$UCSORGBACK
 10
0.0
 20
0.0
 30
0.0
  9
$PUCSBASE
  2

  9
$PUCSNAME
  2

  9
$PUCSORG
 10
0.0
 20
0.0
 30
0.0
  9
$PUCSXDIR
 10
1.0
 20
0.0
 30
0.0
  9
$PUCSYDIR
 10
0.0
 20
1.0
 30
0.0
  9
$PUCSORTHOREF
  2

  9
$PUCSORTHOVIEW
 70
     0
  9
$PUCSORGTOP
 10
0.0
 20
0.0
 30
0.0
  9
$PUCSORGBOTTOM
 10
0.0
 20
0.0
 30
0.0
  9
$PUCSORGLEFT
 10
0.0
 20
0.0
 30
0.0
  9
$PUCSORGRIGHT
 10
0.0
 20
0.0
 30
0.0
  9
$PUCSORGFRONT
 10
0.0
 20
0.0
 30
0.0
  9
$PUCSORGBACK
 10
0.0
 20
0.0
 30
0.0
  9
$USERI1
 70
     0
  9
$USERI2
 70
     0
  9
$USERI3
 70
     0
  9
$USERI4
 70
     0
  9
$USERI5
 70
     0
  9
$USERR1
 40
0.0
  9
$USERR2
 40
0.0
  9
$USERR3
 40
0.0
  9
$USERR4
 40
0.0
  9
$USERR5
 40
0.0
  9
$WORLDVIEW
 70
     1
  9
$SHADEDGE
 70
     3
  9
$SHADEDIF
 70
    70
  9
$TILEMODE
 70
     1
  9
$MAXACTVP
 70
    64
  9
$PINSBASE
 10
0.0
 20
0.0
 30
0.0
  9
$PLIMCHECK
 70
     0
  9
$PEXTMIN
 10
1.0000000000E+20
 20
1.0000000000E+20
 30
1.0000000000E+20
  9
$PEXTMAX
 10
-1.0000000000E+20
 20
-1.0000000000E+20
 30
-1.0000000000E+20
  9
$PLIMMIN
 10
0.0
 20
0.0
  9
$PLIMMAX
 10
420.0
 20
297.0
  9
$UNITMODE
 70
     0
  9
$VISRETAIN
 70
     1
  9
$PLINEGEN
 70
     0
  9
$PSLTSCALE
 70
     1
  9
$TREEDEPTH
 70
  3020
  9
$CMLSTYLE
  2
Standard
  9
$CMLJUST
 70
     0
  9
$CMLSCALE
 40
20.0
  9
$PROXYGRAPHICS
 70
     1
  9
$MEASUREMENT
 70
     1
  9
$CELWEIGHT
370
    -1
  9
$ENDCAPS
280
     0
  9
$JOINSTYLE
280
     0
  9
$LWDISPLAY
290
     1
  9
$INSUNITS
 70
     4
  9
$HYPERLINKBASE
  1

  9
$STYLESHEET
  1

  9
$XEDIT
290
     1
  9
$CEPSNTYPE
380
     0
  9
$PSTYLEMODE
290
     1
  9
$FINGERPRINTGUID
  2
{CAAC3AF8-4FE8-48A6-BDEF-5890FB17F540}
  9
$VERSIONGUID
  2
{FAEB1C32-E019-11D5-929B-00C0DF256EC4}
  9
$EXTNAMES
290
     1
  9
$PSVPSCALE
 40
0.0
  9
$OLESTARTUP
290
     0
  0
ENDSEC
  0
SECTION
  2
CLASSES
  0
CLASS
  1
ACDBDICTIONARYWDFLT
  2
AcDbDictionaryWithDefault
  3
ObjectDBX Classes
 90
        0
280
     0
281
     0
  0
CLASS
  1
VISUALSTYLE
  2
AcDbVisualStyle
  3
ObjectDBX Classes
 90
     4095
280
     0
281
     0
  0
CLASS
  1
MATERIAL
  2
AcDbMaterial
  3
ObjectDBX Classes
 90
     1153
280
     0
281
     0
  0
CLASS
  1
SCALE
  2
AcDbScale
  3
ObjectDBX Classes
 90
     1153
280
     0
281
     0
  0
CLASS
  1
TABLESTYLE
  2
AcDbTableStyle
  3
ObjectDBX Classes
 90
     4095
280
     0
281
     0
  0
CLASS
  1
MLEADERSTYLE
  2
AcDbMLeaderStyle
  3
ACDB_MLEADERSTYLE_CLASS
 90
     4095
280
     0
281
     0
  0
CLASS
  1
SUN
  2
AcDbSun
  3
SCENEOE
 90
     1153
280
     0
281
     0
  0
CLASS
  1
ACDBPLACEHOLDER
  2
AcDbPlaceHolder
  3
ObjectDBX Classes
 90
        0
280
     0
281
     0
  0
CLASS
  1
LAYOUT
  2
AcDbLayout
  3
ObjectDBX Classes
 90
        0
280
     0
281
     0
  0
ENDSEC
  0
SECTION
  2
TABLES
  0
TABLE
  2
VPORT
  5
8
330
0
100
AcDbSymbolTable
 70
     1
  0
VPORT
  5
29
330
8
100
AcDbSymbolTableRecord
100
AcDbViewportTableRecord
  2
*Active
 70
     0
 10
0.0
 20
0.0
 11
1.0
 21
1.0
 12
245.0
 22
225.0
 13
0.0
 23
0.0
 14
10.0
 24
10.0
 15
10.0
 25
10.0
 16
0.0
 26
0.0
 36
1.0
 17
0.0
 27
0.0
 37
0.0
 40
450.0
 41
1.0888888889
 42
50.0
 43
0.0
 44
0.0
 50
0.0
 51
0.0
 71
     0
 72
  2000
 73
     1
 74
     3
 75
     0
 76
     0
 77
     0
 78
     0
281
     0
 65
     1
110
0.0
120
0.0
130
0.0
111
1.0
121
0.0
131
0.0
112
0.0
122
1.0
132
0.0
 79
     0
146
0.0
  0
ENDTAB
  0
TABLE
  2
LTYPE
  5
5
330
0
100
AcDbSymbolTable
 70
     6
  0
LTYPE
  5
14
330
5
100
AcDbSymbolTableRecord
100
AcDbLinetypeTableRecord
  2
ByBlock
 70
     0
  3

 72
    65
 73
     0
 40
0.0
  0
LTYPE
  5
15
330
5
100
AcDbSymbolTableRecord
100
AcDbLinetypeTableRecord
  2
ByLayer
 70
     0
  3

 72
    65
 73
     0
 40
0.0
  0
LTYPE
  5
16
330
5
100
AcDbSymbolTableRecord
100
AcDbLinetypeTableRecord
  2
Continuous
 70
     0
  3
Solid line
 72
    65
 73
     0
 40
0.0
  0
LTYPE
  5
6E
330
5
100
AcDbSymbolTableRecord
100
AcDbLinetypeTableRecord
  2
HIDDEN
 70
     0
  3
Hidden __ __ __ __ __ __ __ __ __ __ __ __ __ __
 72
    65
 73
     2
 40
1.905
 49
1.27
 74
     0
 49
-0.635
 74
     0
  0
LTYPE
  5
6F
330
5
100
AcDbSymbolTableRecord
100
AcDbLinetypeTableRecord
  2
PHANTOM
 70
     0
  3
Phantom ______  __  __  ______  __  __  ______
 72
    65
 73
     6
 40
12.7
 49
6.35
 74
     0
 49
-1.27
 74
     0
 49
1.27
 74
     0
 49
-1.27
 74
     0
 49
1.27
 74
     0
 49
-1.27
 74
     0
  0
LTYPE
  5
70
330
5
100
AcDbSymbolTableRecord
100
AcDbLinetypeTableRecord
  2
CENTER
 70
     0
  3
Center ____ _ ____ _ ____ _ ____ _ ____ _ ____
 72
    65
 73
     4
 40
10.16
 49
6.35
 74
     0
 49
-1.27
 74
     0
 49
1.27
 74
     0
 49
-1.27
 74
     0
  0
LTYPE
  5
71
330
5
100
AcDbSymbolTableRecord
100
AcDbLinetypeTableRecord
  2
CENTERX2
 70
     0
  3
Center (2x) ________  __  ________  __  _____
 72
    65
 73
     4
 40
20.32
 49
12.7
 74
     0
 49
-2.54
 74
     0
 49
2.54
 74
     0
 49
-2.54
 74
     0
  0
LTYPE
  5
72
330
5
100
AcDbSymbolTableRecord
100
AcDbLinetypeTableRecord
  2
DOT2
 70
     0
  3
Dot (.5x) ........................................
 72
    65
 73
     2
 40
0.635
 49
0.0
 74
     0
 49
-0.635
 74
     0
  0
ENDTAB
  0
TABLE
  2
LAYER
  5
2
330
0
100
AcDbSymbolTable
 70
     2
  0
LAYER
  5
10
330
2
100
AcDbSymbolTableRecord
100
AcDbLayerTableRecord
  2
0
 70
     0
 62
     7
  6
Continuous
370
    -3
390
F
  0
LAYER
  5
73
330
2
100
AcDbSymbolTableRecord
100
AcDbLayerTableRecord
  2
FORMAT
 70
     0
 62
     7
  6
Continuous
370
    -3
390
F
  0
ENDTAB
  0
TABLE
  2
STYLE
  5
3
330
0
100
AcDbSymbolTable
 70
     2
  0
STYLE
  5
11
330
3
100
AcDbSymbolTableRecord
100
AcDbTextStyleTableRecord
  2
Standard
 70
     0
 40
0.0
 41
1.0
 50
0.0
 71
     0
 42
3.5
  3
txt
  4

  0
STYLE
  5
74
330
3
100
AcDbSymbolTableRecord
100
AcDbTextStyleTableRecord
  2
SLDTEXTSTYLE0
 70
     0
 40
0.0
 41
0.605
 50
0.0
 71
     0
 42
3.5
  3
TXT
  4

  0
ENDTAB
  0
TABLE
  2
VIEW
  5
6
330
0
100
AcDbSymbolTable
 70
     0
  0
ENDTAB
  0
TABLE
  2
UCS
  5
7
330
0
100
AcDbSymbolTable
 70
     0
  0
ENDTAB
  0
TABLE
  2
APPID
  5
9
330
0
100
AcDbSymbolTable
 70
     1
  0
APPID
  5
12
330
9
100
AcDbSymbolTableRecord
100
AcDbRegAppTableRecord
  2
ACAD
 70
     0
  0
ENDTAB
  0
TABLE
  2
DIMSTYLE
  5
A
330
0
100
AcDbSymbolTable
 70
     1
100
AcDbDimStyleTable
  0
DIMSTYLE
105
27
330
A
100
AcDbSymbolTableRecord
100
AcDbDimStyleTableRecord
  2
ISO-25
 70
     0
 41
2.5
 42
0.625
 43
3.75
 44
1.25
 73
     0
 74
     0
 77
     1
 78
     8
140
2.5
141
2.5
143
0.0393700787
147
0.625
171
     3
172
     1
178
     0
271
     2
272
     2
274
     3
278
    44
283
     0
284
     8
340
11
  0
ENDTAB
  0
TABLE
  2
BLOCK_RECORD
  5
1
330
0
100
AcDbSymbolTable
 70
     1
  0
BLOCK_RECORD
  5
1F
330
1
100
AcDbSymbolTableRecord
100
AcDbBlockTableRecord
  2
*Model_Space
340
22
  0
BLOCK_RECORD
  5
1B
330
1
100
AcDbSymbolTableRecord
100
AcDbBlockTableRecord
  2
*Paper_Space
340
1E
  0
BLOCK_RECORD
  5
23
330
1
100
AcDbSymbolTableRecord
100
AcDbBlockTableRecord
  2
*Paper_Space0
340
26
  0
ENDTAB
  0
ENDSEC
  0
SECTION
  2
BLOCKS
  0
BLOCK
  5
20
330
1F
100
AcDbEntity
  8
0
100
AcDbBlockBegin
  2
*Model_Space
 70
     0
 10
0.0
 20
0.0
 30
0.0
  3
*Model_Space
  1

  0
ENDBLK
  5
21
330
1F
100
AcDbEntity
  8
0
100
AcDbBlockEnd
  0
BLOCK
  5
1C
330
1B
100
AcDbEntity
 67
     1
  8
0
100
AcDbBlockBegin
  2
*Paper_Space
 70
     0
 10
0.0
 20
0.0
 30
0.0
  3
*Paper_Space
  1

  0
ENDBLK
  5
1D
330
1B
100
AcDbEntity
 67
     1
  8
0
100
AcDbBlockEnd
  0
BLOCK
  5
24
330
23
100
AcDbEntity
  8
0
100
AcDbBlockBegin
  2
*Paper_Space0
 70
     0
 10
0.0
 20
0.0
 30
0.0
  3
*Paper_Space0
  1

  0
ENDBLK
  5
25
330
23
100
AcDbEntity
  8
0
100
AcDbBlockEnd
  0
ENDSEC
  0
SECTION
  2
ENTITIES
  0
MTEXT
  5
75
330
1F
100
AcDbEntity
  8
0
  6
Continuous
 62
     7
370
     0
100
AcDbMText
 10
7.2782978723
 20
22.1884790273
 30
0.0
 40
10.0
 41
0.0
 71
     1
 72
     1
  1
1:1
  7
SLDTEXTSTYLE0
 73
     1
 44
1.0
  0
LINE
  5
76
330
1F
100
AcDbEntity
  8
0
  6
Continuous
 62
     7
370
    30
100
AcDbLine
 10
196.0
 20
293.0026487242
 30
0.0
 11
242.0
 21
293.0026487242
 31
0.0
  0
LINE
  5
77
330
1F
100
AcDbEntity
  8
0
  6
Continuous
 62
     7
370
    30
100
AcDbLine
 10
248.0
 20
293.0026487242
 30
0.0
 11
294.0
 21
293.0026487242
 31
0.0
  0
LINE
  5
78
330
1F
100
AcDbEntity
  8
0
  6
Continuous
 62
     7
370
    30
100
AcDbLine
 10
190.0017607393
 20
417.0008879849
 30
0.0
 11
190.0017607393
 21
299.0008879849
 31
0.0
  0
LINE
  5
79
330
1F
100
AcDbEntity
  8
0
  6
Continuous
 62
     7
370
    30
100
AcDbLine
 10
294.0
 20
422.9991272456
 30
0.0
 11
196.0
 21
422.9991272456
 31
0.0
  0
ARC
  5
7A
330
1F
100
AcDbEntity
  8
0
  6
Continuous
 62
     7
370
    30
100
AcDbCircle
 10
294.0
 20
299.0008879849
 30
0.0
 40
5.998239260702292
100
AcDbArc
 50
270.0
 51
0.0
  0
LINE
  5
7B
330
1F
100
AcDbEntity
  8
0
  6
Continuous
 62
     7
370
    30
100
AcDbLine
 10
299.9982392607
 20
299.0008879849
 30
0.0
 11
299.9982392607
 21
417.0008879849
 31
0.0
  0
ARC
  5
7C
330
1F
100
AcDbEntity
  8
0
  6
Continuous
 62
     7
370
    30
100
AcDbCircle
 10
294.0
 20
417.0008879849
 30
0.0
 40
5.998239260702746
100
AcDbArc
 50
0.0
 51
90.0
  0
ARC
  5
7D
330
1F
100
AcDbEntity
  8
0
  6
Continuous
 62
     7
370
    30
100
AcDbCircle
 10
196.0
 20
299.0008879849
 30
0.0
 40
5.998239260702746
100
AcDbArc
 50
180.0
 51
270.0
  0
ARC
  5
7E
330
1F
100
AcDbEntity
  8
0
  6
Continuous
 62
     7
370
    30
100
AcDbCircle
 10
196.0
 20
417.0008879849
 30
0.0
 40
5.998239260702292
100
AcDbArc
 50
90.0
 51
180.0
  0
ARC
  5
7F
330
1F
100
AcDbEntity
  8
0
  6
Continuous
 62
     7
370
    30
100
AcDbCircle
 10
247.6076809621
 20
381.6008879853
 30
0.0
 40
0.3000000000000574
100
AcDbArc
 50
324.7713756837
 51
72.5584061427
  0
ARC
  5
80
330
1F
100
AcDbEntity
  8
0
  6
Continuous
 62
     7
370
    30
100
AcDbCircle
 10
242.3923190379
 20
381.6008879853
 30
0.0
 40
0.3000000000000489
100
AcDbArc
 50
107.4415938573
 51
215.2286243169
  0
ARC
  5
81
330
1F
100
AcDbEntity
  8
0
  6
Continuous
 62
     7
370
    30
100
AcDbCircle
 10
245.0
 20
373.3008879853
 30
0.0
 40
8.999999999999726
100
AcDbArc
 50
72.5584061436
 51
107.4415938564
  0
LINE
  5
82
330
1F
100
AcDbEntity
  8
0
  6
Continuous
 62
     7
370
    30
100
AcDbLine
 10
196.0
 20
293.0026639547
 30
0.0
 11
196.0
 21
293.0026487242
 31
0.0
  0
LINE
  5
83
330
1F
100
AcDbEntity
  8
0
  6
Continuous
 62
     7
370
    30
100
AcDbLine
 10
294.0
 20
293.0026639547
 30
0.0
 11
294.0
 21
293.0026487242
 31
0.0
  0
LINE
  5
84
330
1F
100
AcDbEntity
  8
0
  6
Continuous
 62
     7
370
    30
100
AcDbLine
 10
190.0017607393
 20
417.0008879849
 30
0.0
 11
190.0017759698
 21
417.0008879849
 31
0.0
  0
LINE
  5
85
330
1F
100
AcDbEntity
  8
0
  6
Continuous
 62
     7
370
    30
100
AcDbLine
 10
190.0017607393
 20
299.0008879849
 30
0.0
 11
190.0017759698
 21
299.0008879849
 31
0.0
  0
LINE
  5
86
330
1F
100
AcDbEntity
  8
0
  6
Continuous
 62
     7
370
    30
100
AcDbLine
 10
294.0
 20
422.9991272456
 30
0.0
 11
294.0
 21
422.9991120151
 31
0.0
  0
LINE
  5
87
330
1F
100
AcDbEntity
  8
0
  6
Continuous
 62
     7
370
    30
100
AcDbLine
 10
196.0
 20
422.9991272456
 30
0.0
 11
196.0
 21
422.9991120151
 31
0.0
  0
LINE
  5
88
330
1F
100
AcDbEntity
  8
0
  6
Continuous
 62
     7
370
    30
100
AcDbLine
 10
299.9982240302
 20
299.0008879849
 30
0.0
 11
299.9982392607
 21
299.0008879849
 31
0.0
  0
LINE
  5
89
330
1F
100
AcDbEntity
  8
0
  6
Continuous
 62
     7
370
    30
100
AcDbLine
 10
299.9982240302
 20
417.0008879849
 30
0.0
 11
299.9982392607
 21
417.0008879849
 31
0.0
  0
ARC
  5
8A
330
1F
100
AcDbEntity
  8
0
  6
Continuous
 62
     7
370
    30
100
AcDbCircle
 10
247.0
 20
270.0008879849
 30
0.0
 40
1.0
100
AcDbArc
 50
270.0
 51
0.0
  0
LINE
  5
8B
330
1F
100
AcDbEntity
  8
0
  6
Continuous
 62
     7
370
    30
100
AcDbLine
 10
248.0
 20
331.3033225528
 30
0.0
 11
248.0
 21
270.0008879849
 31
0.0
  0
ARC
  5
8C
330
1F
100
AcDbEntity
  8
0
  6
Continuous
 62
     7
370
    30
100
AcDbCircle
 10
243.0
 20
270.0008879849
 30
0.0
 40
1.0
100
AcDbArc
 50
180.0
 51
270.0
  0
ARC
  5
8D
330
1F
100
AcDbEntity
  8
0
  6
Continuous
 62
     7
370
    30
100
AcDbCircle
 10
252.0
 20
331.3033225528
 30
0.0
 40
4.000000000085814
100
AcDbArc
 50
104.6918040813
 51
180.0
  0
LINE
  5
8E
330
1F
100
AcDbEntity
  8
0
  6
Continuous
 62
     7
370
    30
100
AcDbLine
 10
242.0
 20
270.0008879849
 30
0.0
 11
242.0
 21
331.3033225528
 31
0.0
  0
LINE
  5
8F
330
1F
100
AcDbEntity
  8
0
  6
Continuous
 62
     7
370
    30
100
AcDbLine
 10
247.0
 20
269.0008879849
 30
0.0
 11
243.0
 21
269.0008879849
 31
0.0
  0
ARC
  5
90
330
1F
100
AcDbEntity
  8
0
  6
Continuous
 62
     7
370
    30
100
AcDbCircle
 10
245.0
 20
358.0008879849
 30
0.0
 40
23.60000000003047
100
AcDbArc
 50
284.6920541509
 51
255.3080320702
  0
ARC
  5
91
330
1F
100
AcDbEntity
  8
0
  6
Continuous
 62
     7
370
    30
100
AcDbCircle
 10
238.0
 20
331.3033225528
 30
0.0
 40
4.00000000005434
100
AcDbArc
 50
0.0
 51
75.3076872141
  0
ARC
  5
92
330
1F
100
AcDbEntity
  8
0
  6
Continuous
 62
     7
370
    30
100
AcDbCircle
 10
245.0
 20
358.0008879849
 30
0.0
 40
26.99999999999996
100
AcDbArc
 50
276.3793702084
 51
263.6206297916
  0
ARC
  5
93
330
1F
100
AcDbEntity
  8
0
  6
Continuous
 62
     7
370
    30
100
AcDbCircle
 10
-3608.3299569749
 20
358.0008879849
 30
0.0
 40
4000.0
100
AcDbArc
 50
359.0843813693
 51
359.6132505514
  0
ARC
  5
94
330
1F
100
AcDbEntity
  8
0
  6
Continuous
 62
     7
370
    30
100
AcDbCircle
 10
-3608.3299569749
 20
358.0008879849
 30
0.0
 40
4000.0
100
AcDbArc
 50
0.3867494486
 51
0.9156186307
  0
ARC
  5
95
330
1F
100
AcDbEntity
  8
0
  6
Continuous
 62
     7
370
    30
100
AcDbCircle
 10
390.1594249983
 20
421.9044266057
 30
0.0
 40
1.000000000000045
100
AcDbArc
 50
0.9156186307
 51
88.9999999999
  0
ARC
  5
96
330
1F
100
AcDbEntity
  8
0
  6
Continuous
 62
     7
370
    30
100
AcDbCircle
 10
390.1594249983
 20
294.097349364
 30
0.0
 40
0.9999999999999731
100
AcDbArc
 50
271.0000000001
 51
359.0843813693
  0
LINE
  5
97
330
1F
100
AcDbEntity
  8
0
  6
Continuous
 62
     7
370
    30
100
AcDbLine
 10
396.0769705956
 20
335.0008879849
 30
0.0
 11
441.8425405956
 21
335.0008879849
 31
0.0
  0
LINE
  5
98
330
1F
100
AcDbEntity
  8
0
  6
Continuous
 62
     7
370
    30
100
AcDbLine
 10
441.8425405956
 20
381.0008879849
 30
0.0
 11
396.0769705956
 21
381.0008879849
 31
0.0
  0
SPLINE
  5
99
330
1F
100
AcDbEntity
  8
0
  6
Continuous
 62
     7
370
    30
100
AcDbSpline
210
0.0
220
0.0
230
1.0
 70
     8
 71
     3
 72
    53
 73
    49
 74
     0
 42
0.000000001
 43
0.00000001
 40
0.0
 40
0.0
 40
0.0
 40
0.0
 40
0.0254387687472714
 40
0.050248242341422
 40
0.0744215809254603
 40
0.0979523628746297
 40
0.120834560886426
 40
0.1430625196222797
 40
0.1646309347978071
 40
0.1865135953232614
 40
0.207661599380836
 40
0.2280699533398345
 40
0.2477339992370628
 40
0.2666493960798904
 40
0.2848121024472176
 40
0.3116112500763153
 40
0.3380946234700286
 40
0.3642924551339867
 40
0.3902016407275106
 40
0.4158192181301104
 40
0.4411423611050239
 40
0.4661683732625735
 40
0.5006259180436357
 40
0.5344920013837426
 40
0.547633418600867
 40
0.5606931539918742
 40
0.5742370202702038
 40
0.5885851078863467
 40
0.6040566574026031
 40
0.6203689422295067
 40
0.6375237023130009
 40
0.6555226977044082
 40
0.6743677001006243
 40
0.6940604842264041
 40
0.7146028190922291
 40
0.7332756513160885
 40
0.752601426705322
 40
0.7725812880246177
 40
0.7932163551612944
 40
0.8145077205715721
 40
0.8364564447565325
 40
0.859063551781423
 40
0.8823300248519865
 40
0.907412649302333
 40
0.933220980104368
 40
0.9597559724702945
 40
0.9870185116482576
 40
1.0
 40
1.0
 40
1.0
 40
1.0
 10
443.042543222736
 20
373.5843659679717
 30
0.0
 10
443.0425453267399
 20
373.5299365597166
 30
0.0
 10
443.0425494826997
 20
373.4224241984199
 30
0.0
 10
443.0425604844794
 20
373.2613639521672
 30
0.0
 10
443.0425736998675
 20
373.1031833575023
 30
0.0
 10
443.0425886417848
 20
372.9479103626219
 30
0.0
 10
443.0426044093052
 20
372.7957302053593
 30
0.0
 10
443.0426203073395
 20
372.6467801095034
 30
0.0
 10
443.0426359195743
 20
372.498999984707
 30
0.0
 10
443.0426506368149
 20
372.3526178261581
 30
0.0
 10
443.0426638506496
 20
372.2078659774132
 30
0.0
 10
443.042674869003
 20
372.0672497614873
 30
0.0
 10
443.0426833089584
 20
371.9309026071973
 30
0.0
 10
443.0426889656979
 20
371.7989532853366
 30
0.0
 10
443.0426918634556
 20
371.649547708178
 30
0.0
 10
443.0426910148892
 20
371.4812981805611
 30
0.0
 10
443.0426912662252
 20
371.2927988273165
 30
0.0
 10
443.0426911999448
 20
371.1050946968456
 30
0.0
 10
443.0426912173273
 20
370.9181992375319
 30
0.0
 10
443.0426912128615
 20
370.7321910111192
 30
0.0
 10
443.0426912134848
 20
370.547149728452
 30
0.0
 10
443.0426912155015
 20
370.3393030963951
 30
0.0
 10
443.0426912035773
 20
370.1088865370442
 30
0.0
 10
443.0426912409362
 20
369.9062041956696
 30
0.0
 10
443.0426911780647
 20
369.7559630527595
 30
0.0
 10
443.0426913520191
 20
369.6562655525639
 30
0.0
 10
443.0426905649712
 20
369.5532195973518
 30
0.0
 10
443.0426884556675
 20
369.4437468475371
 30
0.0
 10
443.0426851269368
 20
369.3268889297355
 30
0.0
 10
443.0426805632227
 20
369.2024813644178
 30
0.0
 10
443.0426748545692
 20
369.0711707998184
 30
0.0
 10
443.0426680744212
 20
368.9328809774772
 30
0.0
 10
443.0426603164907
 20
368.7875338241629
 30
0.0
 10
443.0426516899991
 20
368.6350496515884
 30
0.0
 10
443.0426427347602
 20
368.4823979644669
 30
0.0
 10
443.0426336546904
 20
368.3301157575808
 30
0.0
 10
443.0426246120208
 20
368.178747581449
 30
0.0
 10
443.0426153314548
 20
368.0216792217481
 30
0.0
 10
443.0426059383677
 20
367.8588549438855
 30
0.0
 10
443.042596567915
 20
367.6902191397082
 30
0.0
 10
443.0425873647987
 20
367.5157165993817
 30
0.0
 10
443.0425784840435
 20
367.3352923299487
 30
0.0
 10
443.0425699489655
 20
367.1458066518553
 30
0.0
 10
443.0425619859569
 20
366.9469871397759
 30
0.0
 10
443.0425548173761
 20
366.7385775319278
 30
0.0
 10
443.0425489030309
 20
366.5233869308356
 30
0.0
 10
443.0425449105384
 20
366.3422929775082
 30
0.0
 10
443.0425436235452
 20
366.2325889209195
 30
0.0
 10
443.0425432084007
 20
366.1972017586456
 30
0.0
  0
SPLINE
  5
9A
330
1F
100
AcDbEntity
  8
0
  6
Continuous
 62
     7
370
    30
100
AcDbSpline
210
0.0
220
0.0
230
1.0
 70
     8
 71
     3
 72
    43
 73
    39
 74
     0
 42
0.000000001
 43
0.00000001
 40
0.0
 40
0.0
 40
0.0
 40
0.0
 40
0.035905412984789
 40
0.0708211654741237
 40
0.104724544878225
 40
0.1375939199672064
 40
0.1688499656220832
 40
0.1990702521116209
 40
0.2282372180082479
 40
0.2563342285192138
 40
0.2833455535853278
 40
0.3092563456829884
 40
0.3340526175590441
 40
0.3577212201047477
 40
0.3720158961807875
 40
0.3861728153226309
 40
0.400889778753178
 40
0.4161949898610279
 40
0.4320915704790379
 40
0.4544933362561269
 40
0.4779865668846764
 40
0.5025795628770121
 40
0.5282808271037709
 40
0.5550990427062038
 40
0.5830430496321963
 40
0.6104294555012346
 40
0.6388322490985372
 40
0.6682590995427429
 40
0.698717716399223
 40
0.7302158263298579
 40
0.7627611483660629
 40
0.7963613676986049
 40
0.8310241078616121
 40
0.8667569011697097
 40
0.9035671572461854
 40
0.9407758851730142
 40
0.9790376278392454
 40
1.0
 40
1.0
 40
1.0
 40
1.0
 10
443.0425436129919
 20
378.1504106264918
 30
0.0
 10
443.042546015513
 20
378.1173431994691
 30
0.0
 10
443.0425507543342
 20
378.0521197825441
 30
0.0
 10
443.0425631796579
 20
377.953646522012
 30
0.0
 10
443.0425779340521
 20
377.8566393814605
 30
0.0
 10
443.0425943016626
 20
377.761693604749
 30
0.0
 10
443.0426111930307
 20
377.6690272070258
 30
0.0
 10
443.0426278069669
 20
377.5788018184854
 30
0.0
 10
443.0426435308382
 20
377.4906064650186
 30
0.0
 10
443.0426577523139
 20
377.4046073179313
 30
0.0
 10
443.0426699541792
 20
377.3209656323237
 30
0.0
 10
443.0426797194504
 20
377.2398366667401
 30
0.0
 10
443.0426867227171
 20
377.1613694787061
 30
0.0
 10
443.0426902899379
 20
377.0944829257572
 30
0.0
 10
443.042691378458
 20
377.0384891312856
 30
0.0
 10
443.0426910919259
 20
376.9918354644574
 30
0.0
 10
443.0426902211877
 20
376.9438248931731
 30
0.0
 10
443.0426886440807
 20
376.8936365738684
 30
0.0
 10
443.0426861286617
 20
376.8347057838937
 30
0.0
 10
443.0426823858065
 20
376.7662920629685
 30
0.0
 10
443.0426771778797
 20
376.6876006674764
 30
0.0
 10
443.0426708989681
 20
376.6045216319304
 30
0.0
 10
443.0426636322835
 20
376.5169373377615
 30
0.0
 10
443.0426554761169
 20
376.4247252817782
 30
0.0
 10
443.0426467248738
 20
376.329715483389
 30
0.0
 10
443.0426375411393
 20
376.2319886834733
 30
0.0
 10
443.0426280763858
 20
376.1316312245256
 30
0.0
 10
443.0426182926236
 20
376.0266970297876
 30
0.0
 10
443.0426083359495
 20
375.9170647331853
 30
0.0
 10
443.042598364858
 20
375.802609629684
 30
0.0
 10
443.0425885500339
 20
375.6832039753461
 30
0.0
 10
443.0425790750868
 20
375.558716522862
 30
0.0
 10
443.0425701336868
 20
375.4290151881692
 30
0.0
 10
443.0425619407445
 20
375.2939575799409
 30
0.0
 10
443.0425547337927
 20
375.1543022932779
 30
0.0
 10
443.0425488236955
 20
375.0098980854882
 30
0.0
 10
443.0425447776204
 20
374.8848492905285
 30
0.0
 10
443.042543452825
 20
374.8070245756631
 30
0.0
 10
443.0425429839137
 20
374.7794785221496
 30
0.0
  0
SPLINE
  5
9B
330
1F
100
AcDbEntity
  8
0
  6
Continuous
 62
     7
370
    30
100
AcDbSpline
210
0.0
220
0.0
230
1.0
 70
     8
 71
     3
 72
    64
 73
    60
 74
     0
 42
0.000000001
 43
0.00000001
 40
0.0
 40
0.0
 40
0.0
 40
0.0
 40
0.0016461226414076
 40
0.0262462805043759
 40
0.0500982019240057
 40
0.073194723974559
 40
0.0951355907526054
 40
0.1163312975772816
 40
0.1367725971057015
 40
0.1564497212422541
 40
0.1757301454346475
 40
0.194244742266387
 40
0.2126829712225752
 40
0.2312665556868274
 40
0.2499987966008605
 40
0.2688829899676208
 40
0.2879224248443982
 40
0.3047118602537155
 40
0.321624854438447
 40
0.3386635901208025
 40
0.3558302411354715
 40
0.3731269712089698
 40
0.3905559327010297
 40
0.4080016699961699
 40
0.4248154716962406
 40
0.4416347521620547
 40
0.4576275093596728
 40
0.4727810957884729
 40
0.4870833335718137
 40
0.500522569221525
 40
0.5130877232560951
 40
0.5237208303247057
 40
0.5336187496335036
 40
0.5427746115480478
 40
0.5512173583337999
 40
0.5597619879773081
 40
0.5687540658986961
 40
0.5799312776514811
 40
0.5917414085682738
 40
0.6041911766019775
 40
0.6172876975533751
 40
0.6337325151083284
 40
0.6511180494048694
 40
0.6694585710661447
 40
0.6887691873147698
 40
0.7090658459728876
 40
0.7303667449799962
 40
0.7494482325164997
 40
0.7693050650778044
 40
0.7899493586580244
 40
0.8113936571633118
 40
0.8336509199677358
 40
0.8567345062109424
 40
0.8806581555260807
 40
0.9033381835747586
 40
0.9267470432261671
 40
0.9508960497528319
 40
0.9757967074047331
 40
1.0
 40
1.0
 40
1.0
 40
1.0
 10
443.0425447821759
 20
380.9846244194322
 30
0.0
 10
443.0425448500189
 20
380.9842627191269
 30
0.0
 10
443.0425459317288
 20
380.9784956593498
 30
0.0
 10
443.0425493861791
 20
380.9661600612529
 30
0.0
 10
443.0425545490384
 20
380.9477662648144
 30
0.0
 10
443.0425600679249
 20
380.928630968054
 30
0.0
 10
443.0425653009441
 20
380.9090859434261
 30
0.0
 10
443.0425699537589
 20
380.88921711905
 30
0.0
 10
443.0425737796857
 20
380.8690285801835
 30
0.0
 10
443.0425765385724
 20
380.8484959506107
 30
0.0
 10
443.0425782275512
 20
380.8277172846895
 30
0.0
 10
443.0425781238385
 20
380.8064606205782
 30
0.0
 10
443.0425791789918
 20
380.7848042227502
 30
0.0
 10
443.0425816360857
 20
380.7624101817079
 30
0.0
 10
443.0425855686776
 20
380.7391669160467
 30
0.0
 10
443.0425911847121
 20
380.7150530418278
 30
0.0
 10
443.0425984223495
 20
380.6910995005237
 30
0.0
 10
443.0426072941087
 20
380.6674001096346
 30
0.0
 10
443.0426177688164
 20
380.6440472623966
 30
0.0
 10
443.0426305511592
 20
380.6199588327149
 30
0.0
 10
443.0426459744356
 20
380.5951175141674
 30
0.0
 10
443.0426644592368
 20
380.5695071411215
 30
0.0
 10
443.04268623819
 20
380.5431649938235
 30
0.0
 10
443.0427118940399
 20
380.5164908892174
 30
0.0
 10
443.0427363617241
 20
380.4893881137104
 30
0.0
 10
443.0427588793041
 20
380.4623559763956
 30
0.0
 10
443.0427784929732
 20
380.4355506648063
 30
0.0
 10
443.0427942980293
 20
380.4095296575563
 30
0.0
 10
443.0428058518866
 20
380.3843986860214
 30
0.0
 10
443.0428128533044
 20
380.3602597440084
 30
0.0
 10
443.0428150431893
 20
380.3378501249983
 30
0.0
 10
443.042812870725
 20
380.3172084330405
 30
0.0
 10
443.0428067603498
 20
380.298350592821
 30
0.0
 10
443.042797288376
 20
380.2805803379673
 30
0.0
 10
443.0427824098212
 20
380.2633336127412
 30
0.0
 10
443.0427687100943
 20
380.2460558724626
 30
0.0
 10
443.0427560100713
 20
380.226844314507
 30
0.0
 10
443.0427439905454
 20
380.2052737272999
 30
0.0
 10
443.0427329777254
 20
380.1811447938634
 30
0.0
 10
443.0427234155024
 20
380.1554458081415
 30
0.0
 10
443.0427146663127
 20
380.1262376170351
 30
0.0
 10
443.0427070150391
 20
380.093171049553
 30
0.0
 10
443.0427006896396
 20
380.0558556895267
 30
0.0
 10
443.0426959791847
 20
380.0158620361765
 30
0.0
 10
443.0426928826728
 20
379.9730484517939
 30
0.0
 10
443.0426910857043
 20
379.9272495270735
 30
0.0
 10
443.0426916156544
 20
379.8808215168207
 30
0.0
 10
443.0426879239791
 20
379.833711122449
 30
0.0
 10
443.0426809885383
 20
379.7861689459269
 30
0.0
 10
443.0426708352632
 20
379.7357363408163
 30
0.0
 10
443.0426578575714
 20
379.6822833402874
 30
0.0
 10
443.0426425611383
 20
379.6256727314531
 30
0.0
 10
443.0426255852753
 20
379.5657603962547
 30
0.0
 10
443.0426082166251
 20
379.5042476145754
 30
0.0
 10
443.0425913311773
 20
379.4412303791933
 30
0.0
 10
443.0425756611853
 20
379.3768240940145
 30
0.0
 10
443.0425617274948
 20
379.3090950935176
 30
0.0
 10
443.0425502569012
 20
379.2394325225113
 30
0.0
 10
443.0425459567148
 20
379.1916021459377
 30
0.0
 10
443.0425438371568
 20
379.1680265966525
 30
0.0
  0
LINE
  5
9C
330
1F
100
AcDbEntity
  8
0
  6
Continuous
 62
     7
370
    30
100
AcDbLine
 10
448.9426269263
 20
381.6008879849
 30
0.0
 11
443.5425405956
 21
381.6008879849
 31
0.0
  0
LINE
  5
9D
330
1F
100
AcDbEntity
  8
0
  6
Continuous
 62
     7
370
    30
100
AcDbLine
 10
460.0425405956
 20
381.6008879849
 30
0.0
 11
455.142454265
 21
381.6008879849
 31
0.0
  0
ARC
  5
9E
330
1F
100
AcDbEntity
  8
0
  6
Continuous
 62
     7
370
    30
100
AcDbCircle
 10
460.0425405956
 20
380.6008879849
 30
0.0
 40
1.0
100
AcDbArc
 50
0.0
 51
90.0
  0
SPLINE
  5
9F
330
1F
100
AcDbEntity
  8
0
  6
Continuous
 62
     7
370
    30
100
AcDbSpline
210
0.0
220
0.0
230
1.0
 70
     8
 71
     3
 72
    42
 73
    38
 74
     0
 42
0.000000001
 43
0.00000001
 40
0.0
 40
0.0
 40
0.0
 40
0.0
 40
0.0411345439619748
 40
0.0801253195460687
 40
0.1169723073201279
 40
0.1516767254391137
 40
0.1842398040522801
 40
0.2146623303247613
 40
0.2562758175740182
 40
0.2930754098216417
 40
0.3250592925893437
 40
0.3531650921611215
 40
0.3909277851224113
 40
0.4297139801143963
 40
0.4695225018653328
 40
0.5103525027000843
 40
0.5510856384958845
 40
0.5894239438400997
 40
0.6165643432433872
 40
0.6423090525576999
 40
0.6535396177285738
 40
0.6625613625075153
 40
0.6693741326800717
 40
0.6739777995616268
 40
0.6769849610173475
 40
0.6801946329021561
 40
0.6840034081194964
 40
0.6886067899929288
 40
0.7005837443772933
 40
0.7165937611121532
 40
0.7400458015644884
 40
0.7691096526537452
 40
0.8038448196546095
 40
0.8442843783750057
 40
0.8904483871360607
 40
0.9423502204670726
 40
1.0
 40
1.0
 40
1.0
 40
1.0
 10
443.5425405956462
 20
381.5985170501607
 30
0.0
 10
443.5281930123924
 20
381.5981617585181
 30
0.0
 10
443.5002455847027
 20
381.5974696916166
 30
0.0
 10
443.4597425782978
 20
381.5921023227377
 30
0.0
 10
443.421979912405
 20
381.5842373569082
 30
0.0
 10
443.3870760778466
 20
381.5741287539464
 30
0.0
 10
443.3550777467185
 20
381.5623751065175
 30
0.0
 10
443.321726340521
 20
381.547558343396
 30
0.0
 10
443.2882594361152
 20
381.5295597455556
 30
0.0
 10
443.2559340822899
 20
381.5085927647002
 30
0.0
 10
443.2289630571692
 20
381.4882073469459
 30
0.0
 10
443.2030734910433
 20
381.4659583473959
 30
0.0
 10
443.1770690059857
 20
381.4403037755957
 30
0.0
 10
443.1505246600086
 20
381.4095650493036
 30
0.0
 10
443.1259554157743
 20
381.3758877083546
 30
0.0
 10
443.1039525974932
 20
381.3396797520398
 30
0.0
 10
443.0853430401465
 20
381.3021892952427
 30
0.0
 10
443.0716627750093
 20
381.2677328922707
 30
0.0
 10
443.0619760031032
 20
381.2374215522491
 30
0.0
 10
443.0563588645086
 20
381.21577332908
 30
0.0
 10
443.0529354507148
 20
381.2001028403915
 30
0.0
 10
443.0511181540136
 20
381.1908468016791
 30
0.0
 10
443.0498600764011
 20
381.1838222460761
 30
0.0
 10
443.0490361905258
 20
381.1788839863825
 30
0.0
 10
443.0484371569474
 20
381.1751069224528
 30
0.0
 10
443.047959920806
 20
381.17198654895
 30
0.0
 10
443.0475242544793
 20
381.1690302121455
 30
0.0
 10
443.0469243027815
 20
381.1648030513185
 30
0.0
 10
443.0462717876684
 20
381.1598730816849
 30
0.0
 10
443.0455645060724
 20
381.1540690140776
 30
0.0
 10
443.0449169715853
 20
381.1481570099053
 30
0.0
 10
443.0443358036212
 20
381.1421509564096
 30
0.0
 10
443.043841237813
 20
381.1362287504563
 30
0.0
 10
443.0434301332932
 20
381.1303680811028
 30
0.0
 10
443.0431013509758
 20
381.1245527502675
 30
0.0
 10
443.0428460477278
 20
381.1187176375368
 30
0.0
 10
443.0427445794509
 20
381.1150744734463
 30
0.0
 10
443.0426911833973
 20
381.1131573167643
 30
0.0
  0
ARC
  5
A0
330
1F
100
AcDbEntity
  8
0
  6
Continuous
 62
     7
370
    30
100
AcDbCircle
 10
441.9425405956
 20
335.0741023402
 30
0.0
 40
0.1000000000000227
100
AcDbArc
 50
180.0
 51
290.0117664589
  0
ARC
  5
A1
330
1F
100
AcDbEntity
  8
0
  6
Continuous
 62
     7
370
    30
100
AcDbCircle
 10
441.9425405956
 20
380.9276736296
 30
0.0
 40
0.1000000000000227
100
AcDbArc
 50
69.9882335411
 51
180.0
  0
ARC
  5
A2
330
1F
100
AcDbEntity
  8
0
  6
Continuous
 62
     7
370
    30
100
AcDbCircle
 10
433.5925405956
 20
358.0008879849
 30
0.0
 40
24.50000000000456
100
AcDbArc
 50
67.3107539931
 51
69.9882335335
  0
ARC
  5
A3
330
1F
100
AcDbEntity
  8
0
  6
Continuous
 62
     7
370
    30
100
AcDbCircle
 10
433.5925405956
 20
358.0008879849
 30
0.0
 40
24.5000000000045
100
AcDbArc
 50
290.0117664665
 51
292.6884082071
  0
LINE
  5
A4
330
1F
100
AcDbEntity
  8
0
  6
Continuous
 62
     7
370
    30
100
AcDbLine
 10
393.5351934689
 20
385.0008879849
 30
0.0
 11
391.5789169871
 21
385.0008879849
 31
0.0
  0
LINE
  5
A5
330
1F
100
AcDbEntity
  8
0
  6
Continuous
 62
     7
370
    30
100
AcDbLine
 10
391.5789169871
 20
331.0008879849
 30
0.0
 11
393.5351934689
 21
331.0008879849
 31
0.0
  0
ARC
  5
A6
330
1F
100
AcDbEntity
  8
0
  6
Continuous
 62
     7
370
    30
100
AcDbCircle
 10
393.5351934689
 20
383.0008879849
 30
0.0
 40
2.000000000000009
100
AcDbArc
 50
14.7435628365
 51
90.0
  0
ARC
  5
A7
330
1F
100
AcDbEntity
  8
0
  6
Continuous
 62
     7
370
    30
100
AcDbCircle
 10
393.5351934689
 20
333.0008879849
 30
0.0
 40
2.000000000000009
100
AcDbArc
 50
270.0
 51
345.2564371635
  0
LINE
  5
A8
330
1F
100
AcDbEntity
  8
0
  6
Continuous
 62
     7
370
    30
100
AcDbLine
 10
395.4693425434
 20
332.4919013863
 30
0.0
 11
396.0769705956
 21
334.8008879708
 31
0.0
  0
LINE
  5
A9
330
1F
100
AcDbEntity
  8
0
  6
Continuous
 62
     7
370
    30
100
AcDbLine
 10
396.0769705956
 20
381.200887999
 30
0.0
 11
395.4693425434
 21
383.5098745835
 31
0.0
  0
ARC
  5
AA
330
1F
100
AcDbEntity
  8
0
  6
Continuous
 62
     7
370
    30
100
AcDbCircle
 10
454.6502215575
 20
381.6008879853
 30
0.0
 40
0.3000000000000574
100
AcDbArc
 50
355.2677405004
 51
72.5584061427
  0
ARC
  5
AB
330
1F
100
AcDbEntity
  8
0
  6
Continuous
 62
     7
370
    30
100
AcDbCircle
 10
449.4348596334
 20
381.6008879853
 30
0.0
 40
0.3000000000000574
100
AcDbArc
 50
107.4415938573
 51
184.7417396986
  0
ARC
  5
AC
330
1F
100
AcDbEntity
  8
0
  6
Continuous
 62
     7
370
    30
100
AcDbCircle
 10
452.0425405955
 20
373.3008879853
 30
0.0
 40
8.999999999999735
100
AcDbArc
 50
72.5584061436
 51
107.4415938564
  0
LINE
  5
AD
330
1F
100
AcDbEntity
  8
0
  6
Continuous
 62
     7
370
    30
100
AcDbLine
 10
389.8765439529
 20
293.092259329
 30
0.0
 11
384.7436283967
 21
293.0026639547
 31
0.0
  0
LINE
  5
AE
330
1F
100
AcDbEntity
  8
0
  6
Continuous
 62
     7
370
    30
100
AcDbLine
 10
389.8765439529
 20
422.9095166408
 30
0.0
 11
384.7436283967
 21
422.9991120151
 31
0.0
  0
LINE
  5
AF
330
1F
100
AcDbEntity
  8
0
  6
Continuous
 62
     7
370
    30
100
AcDbLine
 10
384.641883156
 20
417.0008879849
 30
0.0
 11
384.641883156
 21
422.8991272456
 31
0.0
  0
ARC
  5
B0
330
1F
100
AcDbEntity
  8
0
  6
Continuous
 62
     7
370
    30
100
AcDbCircle
 10
384.741883156
 20
422.8991272456
 30
0.0
 40
0.1000000000000227
100
AcDbArc
 50
89.0
 51
180.0
  0
LINE
  5
B1
330
1F
100
AcDbEntity
  8
0
  6
Continuous
 62
     7
370
    30
100
AcDbLine
 10
384.641883156
 20
299.0008879849
 30
0.0
 11
384.641883156
 21
417.0008879849
 31
0.0
  0
ARC
  5
B2
330
1F
100
AcDbEntity
  8
0
  6
Continuous
 62
     7
370
    30
100
AcDbCircle
 10
384.741883156
 20
293.1026487242
 30
0.0
 40
0.1000000000000227
100
AcDbArc
 50
179.9999999998
 51
271.0
  0
LINE
  5
B3
330
1F
100
AcDbEntity
  8
0
  6
Continuous
 62
     7
370
    30
100
AcDbLine
 10
384.641883156
 20
293.1026487242
 30
0.0
 11
384.641883156
 21
299.0008879849
 31
0.0
  0
LINE
  5
B4
330
1F
100
AcDbEntity
  8
0
  6
Continuous
 62
     7
370
    30
100
AcDbLine
 10
389.8765439529
 20
422.9095166408
 30
0.0
 11
390.1768774047
 21
422.9042743009
 31
0.0
  0
LINE
  5
B5
330
1F
100
AcDbEntity
  8
0
  6
Continuous
 62
     7
370
    30
100
AcDbLine
 10
390.1768773777
 20
293.0975016684
 30
0.0
 11
389.8765439529
 21
293.092259329
 31
0.0
  0
LINE
  5
B6
330
1F
100
AcDbEntity
  8
0
  6
Continuous
 62
     7
370
    30
100
AcDbLine
 10
441.8425405956
 20
358.0008879849
 30
0.0
 11
441.8425405956
 21
381.0008879849
 31
0.0
  0
LINE
  5
B7
330
1F
100
AcDbEntity
  8
0
  6
Continuous
 62
     7
370
    30
100
AcDbLine
 10
441.8425405956
 20
335.0008879849
 30
0.0
 11
441.8425405956
 21
358.0008879849
 31
0.0
  0
SPLINE
  5
B8
330
1F
100
AcDbEntity
  8
0
  6
Continuous
 62
     7
370
    30
100
AcDbSpline
210
0.0
220
0.0
230
1.0
 70
    24
 71
     3
 72
    12
 73
     8
 74
     0
 42
0.000000001
 43
0.00000001
 40
0.0
 40
0.0
 40
0.0
 40
0.0
 40
0.2017521938349544
 40
0.4044208404188626
 40
0.6080591989784679
 40
0.8127173452698637
 40
0.9999999999999999
 40
0.9999999999999999
 40
0.9999999999999999
 40
0.9999999999999999
 10
443.0425405956462
 20
335.6561813713907
 30
0.0
 10
443.0425405956462
 20
335.6885969575322
 30
0.0
 10
443.0425405956462
 20
335.7535753765559
 30
0.0
 10
443.0425405956462
 20
335.8587930080799
 30
0.0
 10
443.0425405956462
 20
335.9702058427936
 30
0.0
 10
443.0425405956462
 20
336.0842410739268
 30
0.0
 10
443.0425405956462
 20
336.1641445415567
 30
0.0
 10
443.0425405956462
 20
336.2023251379652
 30
0.0
  0
SPLINE
  5
B9
330
1F
100
AcDbEntity
  8
0
  6
Continuous
 62
     7
370
    30
100
AcDbSpline
210
0.0
220
0.0
230
1.0
 70
    24
 71
     3
 72
    95
 73
    91
 74
     0
 42
0.000000001
 43
0.00000001
 40
0.0
 40
0.0
 40
0.0
 40
0.0
 40
0.011338379697247
 40
0.0227398986589781
 40
0.0332485664333873
 40
0.0438135449347602
 40
0.0544362220997048
 40
0.0651178781748536
 40
0.0758596861635334
 40
0.0866627118984465
 40
0.0975279137472243
 40
0.1084561419589812
 40
0.1194481376613334
 40
0.1305045312943944
 40
0.1416257677779378
 40
0.1528119975178873
 40
0.1634185631336628
 40
0.1740828243553651
 40
0.1848046031861608
 40
0.1955836335893639
 40
0.2064195623232306
 40
0.2179738818594629
 40
0.2295910774208988
 40
0.2412704066248996
 40
0.2530110151801387
 40
0.2648119349373307
 40
0.2766720813071491
 40
0.2879076874074353
 40
0.2991937656331647
 40
0.3105291048751606
 40
0.3219123817358293
 40
0.3333422208886517
 40
0.3448172619760333
 40
0.35633616280241
 40
0.3678975987586245
 40
0.3795002622451574
 40
0.3911428620887467
 40
0.4026152023196171
 40
0.4141236412063008
 40
0.4256669983845962
 40
0.4372441064595055
 40
0.4479657276114806
 40
0.4587142530687068
 40
0.4694887896421138
 40
0.4802884516328271
 40
0.4911123602910234
 40
0.5017657458335751
 40
0.5124408572764564
 40
0.5231368783272053
 40
0.5338529968248023
 40
0.5448076844799803
 40
0.5557815998939591
 40
0.5667738888991257
 40
0.5777836985638359
 40
0.5888101762437289
 40
0.599852468576533
 40
0.6109097204184882
 40
0.621981077164185
 40
0.6330657447155761
 40
0.6441629918879149
 40
0.6552721027603056
 40
0.666392374082709
 40
0.6775231143724323
 40
0.6886636430346602
 40
0.7009287010950067
 40
0.7132039120990172
 40
0.725488408474682
 40
0.7377813335162094
 40
0.7500818401284614
 40
0.7612700186509755
 40
0.7724631447701669
 40
0.7836605976750183
 40
0.7948617599737169
 40
0.8060660169649652
 40
0.8172727559130285
 40
0.8284813653245798
 40
0.8408122373943793
 40
0.8531438198907121
 40
0.8654752977958557
 40
0.8778058534282442
 40
0.8901346652415596
 40
0.9024609066054866
 40
0.9147837445645061
 40
0.9271023385711739
 40
0.9394158391904169
 40
0.9517233867714655
 40
0.9638045251157946
 40
0.9758782432031196
 40
0.9879436900712604
 40
1.0
 40
1.0
 40
1.0
 40
1.0
 10
443.0425405956462
 20
336.2134951558305
 30
0.0
 10
443.0425405956462
 20
336.2568502839084
 30
0.0
 10
443.0425405956462
 20
336.3438019688199
 30
0.0
 10
443.0425405956462
 20
336.4784659782387
 30
0.0
 10
443.0425405956462
 20
336.6151247444154
 30
0.0
 10
443.0425405956462
 20
336.7537854369123
 30
0.0
 10
443.0425405956462
 20
336.8983714778267
 30
0.0
 10
443.0425405956462
 20
337.0489863757801
 30
0.0
 10
443.0425405956462
 20
337.2056869058781
 30
0.0
 10
443.0425405956462
 20
337.3685406519845
 30
0.0
 10
443.0425405956462
 20
337.5376100065697
 30
0.0
 10
443.0425405956462
 20
337.7129560424937
 30
0.0
 10
443.0425405956462
 20
337.8946370054096
 30
0.0
 10
443.0425405956462
 20
338.0827078768247
 30
0.0
 10
443.0425405956462
 20
338.2772187129388
 30
0.0
 10
443.0425405956462
 20
338.474352903883
 30
0.0
 10
443.0425405956462
 20
338.6737516987249
 30
0.0
 10
443.0425405956462
 20
338.8750614620728
 30
0.0
 10
443.0425405956462
 20
339.0822221272759
 30
0.0
 10
443.0425405956462
 20
339.2952532401426
 30
0.0
 10
443.0425405956462
 20
339.5186270371944
 30
0.0
 10
443.0425405956462
 20
339.7527451086296
 30
0.0
 10
443.0425405956462
 20
339.9980075449596
 30
0.0
 10
443.0425405956462
 20
340.2499042541362
 30
0.0
 10
443.0425405956462
 20
340.5084260085731
 30
0.0
 10
443.0425405956462
 20
340.7735558732281
 30
0.0
 10
443.0425405956462
 20
341.0400565333779
 30
0.0
 10
443.0425405956462
 20
341.3075018897833
 30
0.0
 10
443.0425405956462
 20
341.575475941549
 30
0.0
 10
443.0425405956462
 20
341.8491955732674
 30
0.0
 10
443.0425405956462
 20
342.128611597392
 30
0.0
 10
443.0425405956462
 20
342.4136684065055
 30
0.0
 10
443.0425405956462
 20
342.7043050081052
 30
0.0
 10
443.0425405956462
 20
343.0004556685022
 30
0.0
 10
443.0425405956462
 20
343.30205002842
 30
0.0
 10
443.0425405956462
 20
343.6090131421869
 30
0.0
 10
443.0425405956462
 20
343.9193978814625
 30
0.0
 10
443.0425405956462
 20
344.2330217278434
 30
0.0
 10
443.0425405956462
 20
344.5497034451318
 30
0.0
 10
443.0425405956462
 20
344.8712354648851
 30
0.0
 10
443.0425405956462
 20
345.1891832694023
 30
0.0
 10
443.0425405956462
 20
345.5030801159201
 30
0.0
 10
443.0425405956462
 20
345.8124879972514
 30
0.0
 10
443.0425405956462
 20
346.1257159993778
 30
0.0
 10
443.0425405956462
 20
346.4426810425616
 30
0.0
 10
443.0425405956462
 20
346.7613829021092
 30
0.0
 10
443.0425405956462
 20
347.0816656589399
 30
0.0
 10
443.0425405956462
 20
347.4033761325476
 30
0.0
 10
443.0425405956462
 20
347.7283492487612
 30
0.0
 10
443.0425405956462
 20
348.058732723058
 30
0.0
 10
443.0425405956462
 20
348.3945014864407
 30
0.0
 10
443.0425405956462
 20
348.735622962615
 30
0.0
 10
443.0425405956462
 20
349.0797468730775
 30
0.0
 10
443.0425405956462
 20
349.4267678224378
 30
0.0
 10
443.0425405956462
 20
349.7765782436283
 30
0.0
 10
443.0425405956462
 20
350.1290684071487
 30
0.0
 10
443.0425405956462
 20
350.4841265174422
 30
0.0
 10
443.0425405956462
 20
350.8416394425951
 30
0.0
 10
443.0425405956462
 20
351.2014935733211
 30
0.0
 10
443.0425405956462
 20
351.5635751025166
 30
0.0
 10
443.0425405956462
 20
351.9277695984574
 30
0.0
 10
443.0425405956462
 20
352.2939614972504
 30
0.0
 10
443.0425405956462
 20
352.6620343549598
 30
0.0
 10
443.0425405956462
 20
353.0442132577614
 30
0.0
 10
443.0425405956463
 20
353.440561718875
 30
0.0
 10
443.0425405956462
 20
353.8511099405446
 30
0.0
 10
443.0425405956462
 20
354.263329557045
 30
0.0
 10
443.0425405956462
 20
354.67705908598
 30
0.0
 10
443.0425405956462
 20
355.0795491560593
 30
0.0
 10
443.0425405956462
 20
355.4705248550273
 30
0.0
 10
443.0425405956462
 20
355.8497548414109
 30
0.0
 10
443.0425405956462
 20
356.229717441325
 30
0.0
 10
443.0425405956462
 20
356.6102888788631
 30
0.0
 10
443.0425405956462
 20
356.9913448082272
 30
0.0
 10
443.0425405956462
 20
357.3727608113103
 30
0.0
 10
443.0425405956462
 20
357.7671351158522
 30
0.0
 10
443.0425405956462
 20
358.1743536277163
 30
0.0
 10
443.0425405956462
 20
358.5942614516906
 30
0.0
 10
443.0425405956462
 20
359.0139697121018
 30
0.0
 10
443.0425405956462
 20
359.4333117243345
 30
0.0
 10
443.0425405956462
 20
359.8521211490701
 30
0.0
 10
443.0425405956462
 20
360.2702317978544
 30
0.0
 10
443.0425405956462
 20
360.6874778960745
 30
0.0
 10
443.0425405956462
 20
361.1036938092749
 30
0.0
 10
443.0425405956462
 20
361.5187154579396
 30
0.0
 10
443.0425405956462
 20
361.9299153569429
 30
0.0
 10
443.0425405956462
 20
362.3371711176187
 30
0.0
 10
443.0425405956462
 20
362.7403149083419
 30
0.0
 10
443.0425405956462
 20
363.1418080906682
 30
0.0
 10
443.0425405956462
 20
363.4079789399631
 30
0.0
 10
443.0425405956462
 20
363.5410139539597
 30
0.0
  0
SPLINE
  5
BA
330
1F
100
AcDbEntity
  8
0
  6
Continuous
 62
     7
370
    30
100
AcDbSpline
210
0.0
220
0.0
230
1.0
 70
    24
 71
     3
 72
    14
 73
    10
 74
     0
 42
0.000000001
 43
0.00000001
 40
0.0
 40
0.0
 40
0.0
 40
0.0
 40
0.1544011886957468
 40
0.3135155540923036
 40
0.4724871325872768
 40
0.6313053711131836
 40
0.7899593273814075
 40
0.9456093111333636
 40
0.9999999999999999
 40
0.9999999999999999
 40
0.9999999999999999
 40
0.9999999999999999
 10
443.0425405956462
 20
363.5521839718249
 30
0.0
 10
443.0425405956462
 20
363.6709299236178
 30
0.0
 10
443.0425405956462
 20
363.912046609228
 30
0.0
 10
443.0425405956462
 20
364.273458183326
 30
0.0
 10
443.0425405956462
 20
364.6366713185948
 30
0.0
 10
443.0425405956462
 20
364.9977640209493
 30
0.0
 10
443.0425405956462
 20
365.3543490336987
 30
0.0
 10
443.0425405956462
 20
365.6311229861562
 30
0.0
 10
443.0425405956463
 20
365.78761788983
 30
0.0
 10
443.0425405956462
 20
365.8281427344174
 30
0.0
  0
SPLINE
  5
BB
330
1F
100
AcDbEntity
  8
0
  6
Continuous
 62
     7
370
    30
100
AcDbSpline
210
0.0
220
0.0
230
1.0
 70
    24
 71
     3
 72
     9
 73
     5
 74
     0
 42
0.000000001
 43
0.00000001
 40
0.0
 40
0.0
 40
0.0
 40
0.0
 40
0.5881787203857691
 40
0.9999999999999999
 40
0.9999999999999999
 40
0.9999999999999999
 40
0.9999999999999999
 10
443.0425405956462
 20
365.8497836048019
 30
0.0
 10
443.0425405956462
 20
365.9180486138231
 30
0.0
 10
443.0425405956462
 20
366.0341102914311
 30
0.0
 10
443.0425405956462
 20
366.1491403947834
 30
0.0
 10
443.0425405956462
 20
366.1965122391402
 30
0.0
  0
SPLINE
  5
BC
330
1F
100
AcDbEntity
  8
0
  6
Continuous
 62
     7
370
    30
100
AcDbSpline
210
0.0
220
0.0
230
1.0
 70
    24
 71
     3
 72
    59
 73
    55
 74
     0
 42
0.000000001
 43
0.00000001
 40
0.0
 40
0.0
 40
0.0
 40
0.0
 40
0.0087120423367409
 40
0.0288434131665827
 40
0.0493567023091156
 40
0.0698390676503801
 40
0.0902887321483548
 40
0.1107038665787102
 40
0.131082588327534
 40
0.1514229600935707
 40
0.1717229884935194
 40
0.1919806225642714
 40
0.2121937521563098
 40
0.2323602062128722
 40
0.2524777509298174
 40
0.2725440877915538
 40
0.2925568514787671
 40
0.3125136076441097
 40
0.3343983102351216
 40
0.356208772126844
 40
0.3779414423170163
 40
0.3995926528418746
 40
0.4211586140032457
 40
0.4406868044543448
 40
0.460138268208521
 40
0.4795098745906206
 40
0.4987983949492111
 40
0.5180003641503538
 40
0.5371120051633557
 40
0.5561295889880139
 40
0.5769359145450944
 40
0.5976193082371484
 40
0.6181751652525833
 40
0.6385989926500064
 40
0.6588864040676992
 40
0.6790331154377541
 40
0.6990349416982818
 40
0.7188877944942472
 40
0.7385876808547873
 40
0.7581307028323537
 40
0.7771683817613468
 40
0.7960475692978587
 40
0.814764846906353
 40
0.8333168916010297
 40
0.8522640472476942
 40
0.8710287937988282
 40
0.8896078392912521
 40
0.9079980220398369
 40
0.9261963183929997
 40
0.9441998611181569
 40
0.9620063451297935
 40
0.9796142818485478
 40
0.9978465716601047
 40
1.0
 40
1.0
 40
1.0
 40
1.0
 10
443.0425405956462
 20
366.2502529135459
 30
0.0
 10
443.0425405956462
 20
366.3000300142648
 30
0.0
 10
443.0425405956462
 20
366.4648296590296
 30
0.0
 10
443.0425405956462
 20
366.7445671581513
 30
0.0
 10
443.0425405956462
 20
367.0892054751822
 30
0.0
 10
443.0425405956462
 20
367.4331084921427
 30
0.0
 10
443.0425405956463
 20
367.7740110224191
 30
0.0
 10
443.0425405956462
 20
368.1117620527034
 30
0.0
 10
443.0425405956462
 20
368.4462670407507
 30
0.0
 10
443.0425405956462
 20
368.7774184793862
 30
0.0
 10
443.0425405956462
 20
369.1051145746676
 30
0.0
 10
443.0425405956462
 20
369.4292543733859
 30
0.0
 10
443.0425405956463
 20
369.7497391850644
 30
0.0
 10
443.0425405956462
 20
370.0664723185153
 30
0.0
 10
443.0425405956462
 20
370.3793592820571
 30
0.0
 10
443.0425405956462
 20
370.6883078101297
 30
0.0
 10
443.0425405956462
 20
370.9932281212762
 30
0.0
 10
443.0425405956462
 20
371.3040133512899
 30
0.0
 10
443.0425405956462
 20
371.6201175548724
 30
0.0
 10
443.0425405956462
 20
371.9409553927085
 30
0.0
 10
443.0425405956462
 20
372.2564960209388
 30
0.0
 10
443.0425405956463
 20
372.5666381276971
 30
0.0
 10
443.0425405956462
 20
372.8621092858228
 30
0.0
 10
443.0425405956462
 20
373.1433382603093
 30
0.0
 10
443.0425405956462
 20
373.4107607953875
 30
0.0
 10
443.0425405956462
 20
373.6734367643191
 30
0.0
 10
443.0425405956462
 20
373.9313062294607
 30
0.0
 10
443.0425405956462
 20
374.1843110672606
 30
0.0
 10
443.0425405956462
 20
374.4323959491247
 30
0.0
 10
443.0425405956462
 20
374.6835485974754
 30
0.0
 10
443.0425405956462
 20
374.9371840459178
 30
0.0
 10
443.0425405956462
 20
375.1926925770912
 30
0.0
 10
443.0425405956462
 20
375.4420386563609
 30
0.0
 10
443.0425405956462
 20
375.6851885846328
 30
0.0
 10
443.0425405956462
 20
375.9221172338515
 30
0.0
 10
443.0425405956462
 20
376.1528077043302
 30
0.0
 10
443.0425405956462
 20
376.3772511565613
 30
0.0
 10
443.0425405956462
 20
376.5954466024584
 30
0.0
 10
443.0425405956462
 20
376.8074006860624
 30
0.0
 10
443.0425405956462
 20
377.0119180127313
 30
0.0
 10
443.0425405956462
 20
377.2091329837436
 30
0.0
 10
443.0425405956462
 20
377.3991859909491
 30
0.0
 10
443.0425405956462
 20
377.5833127112346
 30
0.0
 10
443.0425405956462
 20
377.7633573732307
 30
0.0
 10
443.0425405956462
 20
377.9391796492183
 30
0.0
 10
443.0425405956462
 20
378.1106448682518
 30
0.0
 10
443.0425405956462
 20
378.2760222749335
 30
0.0
 10
443.0425405956462
 20
378.4353774608997
 30
0.0
 10
443.0425405956462
 20
378.5887957105919
 30
0.0
 10
443.0425405956462
 20
378.7363186228761
 30
0.0
 10
443.0425405956462
 20
378.8781813639319
 30
0.0
 10
443.0425405956462
 20
379.0160644917189
 30
0.0
 10
443.0425405956462
 20
379.111858769533
 30
0.0
 10
443.0425405956462
 20
379.1610518585653
 30
0.0
 10
443.0425405956462
 20
379.1662483295094
 30
0.0
  0
SPLINE
  5
BD
330
1F
100
AcDbEntity
  8
0
  6
Continuous
 62
     7
370
    30
100
AcDbSpline
210
0.0
220
0.0
230
1.0
 70
    24
 71
     3
 72
    30
 73
    26
 74
     0
 42
0.000000001
 43
0.00000001
 40
0.0
 40
0.0
 40
0.0
 40
0.0
 40
0.0278104063992857
 40
0.0738155592649523
 40
0.1192520656304735
 40
0.1641216289019791
 40
0.2084271762083767
 40
0.2521728653589335
 40
0.2953640949188083
 40
0.3380075173861494
 40
0.3801110554444208
 40
0.4216839212549889
 40
0.462736638748941
 40
0.5104686702933855
 40
0.557516951505013
 40
0.6039050837180983
 40
0.6496579676258548
 40
0.6956171154681091
 40
0.7409738959490081
 40
0.7857587185717351
 40
0.8300033665931564
 40
0.8737409881916863
 40
0.9162374448189521
 40
0.9583120508303011
 40
1.0
 40
1.0
 40
1.0
 40
1.0
 10
443.0425405956462
 20
379.2032522676622
 30
0.0
 10
443.0425405956462
 20
379.2293872047995
 30
0.0
 10
443.0425405956462
 20
379.2987556625435
 30
0.0
 10
443.0425405956462
 20
379.4060610045046
 30
0.0
 10
443.0425405956462
 20
379.525224496342
 30
0.0
 10
443.0425405956462
 20
379.6386122778552
 30
0.0
 10
443.0425405956462
 20
379.7465981825623
 30
0.0
 10
443.0425405956462
 20
379.8492636215048
 30
0.0
 10
443.0425405956462
 20
379.9467691006829
 30
0.0
 10
443.0425405956462
 20
380.0392557076138
 30
0.0
 10
443.0425405956462
 20
380.1268701613239
 30
0.0
 10
443.0425405956462
 20
380.2097574323591
 30
0.0
 10
443.0425405956462
 20
380.2926311468527
 30
0.0
 10
443.0425405956462
 20
380.3747678684927
 30
0.0
 10
443.0425405956462
 20
380.4554331400122
 30
0.0
 10
443.0425405956462
 20
380.5303852003331
 30
0.0
 10
443.0425405956462
 20
380.6002521854717
 30
0.0
 10
443.0425405956462
 20
380.6651393846509
 30
0.0
 10
443.0425405956462
 20
380.7251472007051
 30
0.0
 10
443.0425405956462
 20
380.7800799967366
 30
0.0
 10
443.0425405956462
 20
380.8301188428032
 30
0.0
 10
443.0425405956462
 20
380.8752020322946
 30
0.0
 10
443.0425405956462
 20
380.9154874262728
 30
0.0
 10
443.0425405956462
 20
380.9515621569444
 30
0.0
 10
443.0425405956462
 20
380.9722922703947
 30
0.0
 10
443.0425405956462
 20
380.9826094809184
 30
0.0
  0
SPLINE
  5
BE
330
1F
100
AcDbEntity
  8
0
  6
Continuous
 62
     7
370
    30
100
AcDbSpline
210
0.0
220
0.0
230
1.0
 70
    24
 71
     3
 72
    14
 73
    10
 74
     0
 42
0.000000001
 43
0.00000001
 40
0.0
 40
0.0
 40
0.0
 40
0.0
 40
0.0788621514582061
 40
0.2346501981011959
 40
0.3892343602223604
 40
0.5428322890824676
 40
0.6956693081603711
 40
0.8479783660619803
 40
1.0
 40
1.0
 40
1.0
 40
1.0
 10
443.0425405956462
 20
380.9937794987836
 30
0.0
 10
443.0425405956462
 20
380.9994252540254
 30
0.0
 10
443.0425405956462
 20
381.0162239028248
 30
0.0
 10
443.0425405956462
 20
381.0390509408588
 30
0.0
 10
443.0425405956462
 20
381.0619080261079
 30
0.0
 10
443.0425405956462
 20
381.0793964668792
 30
0.0
 10
443.0425405956462
 20
381.0917600371456
 30
0.0
 10
443.0425405956462
 20
381.0994609674798
 30
0.0
 10
443.0425405956462
 20
381.100412521651
 30
0.0
 10
443.0425405956462
 20
381.1008878493908
 30
0.0
  0
SPLINE
  5
BF
330
1F
100
AcDbEntity
  8
0
  6
Continuous
 62
     7
370
    30
100
AcDbSpline
210
0.0
220
0.0
230
1.0
 70
     8
 71
     3
 72
    11
 73
     7
 74
     0
 42
0.000000001
 43
0.00000001
 40
0.0
 40
0.0
 40
0.0
 40
0.0
 40
0.2499921516190161
 40
0.5000000001443881
 40
0.7500078486049612
 40
0.9999999999999999
 40
0.9999999999999999
 40
0.9999999999999999
 40
0.9999999999999999
 10
443.0425405956462
 20
381.1008880044662
 30
0.0
 10
443.0500691983047
 20
381.1663978863396
 30
0.0
 10
443.0651268763397
 20
381.2974217634253
 30
0.0
 10
443.1808643685493
 20
381.4625642319355
 30
0.0
 10
443.346006836839
 20
381.5783017243845
 30
0.0
 10
443.4770307138374
 20
381.5933594025465
 30
0.0
 10
443.5425405956462
 20
381.6008880052661
 30
0.0
  0
SPLINE
  5
C0
330
1F
100
AcDbEntity
  8
0
  6
Continuous
 62
     7
370
    30
100
AcDbSpline
210
0.0
220
0.0
230
1.0
 70
     8
 71
     3
 72
    92
 73
    88
 74
     0
 42
0.000000001
 43
0.00000001
 40
0.0
 40
0.0
 40
0.0
 40
0.0
 40
0.0004395871603847
 40
0.0105066602390236
 40
0.0205737336802359
 40
0.0306821420544156
 40
0.0407905514810434
 40
0.0543882743623301
 40
0.0675000607235341
 40
0.0806118530111522
 40
0.0938149428415704
 40
0.1070180401683907
 40
0.1170511939236511
 40
0.1270843503705195
 40
0.1371579175193257
 40
0.1472314873836626
 40
0.1607802653932231
 40
0.1739527594241258
 40
0.1871252600170546
 40
0.2003888776707668
 40
0.2136525001702176
 40
0.2237309294738108
 40
0.2338093596874204
 40
0.243928237173682
 40
0.2540471148964218
 40
0.2676563768476698
 40
0.2808600971616526
 40
0.2941094402374294
 40
0.3073816953373057
 40
0.3208211648391125
 40
0.3342846150423435
 40
0.3479191387508722
 40
0.3615787995900069
 40
0.3752891281112252
 40
0.388531877562335
 40
0.4017746187525083
 40
0.4151111251568051
 40
0.4284476239601938
 40
0.4385854163041339
 40
0.4487232066144412
 40
0.4589031184772505
 40
0.4690830288715749
 40
0.4827782538015084
 40
0.4959195636505119
 40
0.5090608730756987
 40
0.5222946448861101
 40
0.5355284190466569
 40
0.545586629722488
 40
0.5556448419337913
 40
0.5657441878660919
 40
0.5758435359087035
 40
0.5894286689809117
 40
0.602546366962856
 40
0.6156640727147249
 40
0.6288727236688745
 40
0.6420813828671376
 40
0.6521181348854352
 40
0.662154889481085
 40
0.6722318713632718
 40
0.6823088555328337
 40
0.6958616758904745
 40
0.7090695915858514
 40
0.7222775112171388
 40
0.7355769836616711
 40
0.748876457534918
 40
0.7589826287450993
 40
0.7690887996192263
 40
0.7792357517033371
 40
0.7893827027543182
 40
0.8030302994956567
 40
0.8124871666383175
 40
0.8219440322670685
 40
0.8314344316586421
 40
0.8409248292001275
 40
0.854076502300321
 40
0.8672281677012732
 40
0.8804711534402911
 40
0.8937141309986107
 40
0.9037782060984109
 40
0.9138422786343185
 40
0.9239473698263412
 40
0.9340524587403816
 40
0.9476447029850841
 40
0.9607971285158298
 40
0.9739495502585036
 40
0.9871945693717531
 40
1.0
 40
1.0
 40
1.0
 40
1.0
 10
448.9426269262656
 20
381.6008766442527
 30
0.0
 10
448.9425981084494
 20
381.6008804298878
 30
0.0
 10
448.9419093280869
 20
381.6009709111078
 30
0.0
 10
448.9440103337846
 20
381.6006947925091
 30
0.0
 10
448.9484373969292
 20
381.60011392716
 30
0.0
 10
448.9564628451578
 20
381.5990625330342
 30
0.0
 10
448.9687571002748
 20
381.5974571693537
 30
0.0
 10
448.9866084116924
 20
381.5951365238298
 30
0.0
 10
449.0112565890813
 20
381.5919548479427
 30
0.0
 10
449.0408171358745
 20
381.5881729338543
 30
0.0
 10
449.0755866051094
 20
381.5837705107892
 30
0.0
 10
449.1123362534299
 20
381.5791753630992
 30
0.0
 10
449.1496087600193
 20
381.5745734423325
 30
0.0
 10
449.186246654918
 20
381.5701039330579
 30
0.0
 10
449.2257813320601
 20
381.5653438169022
 30
0.0
 10
449.2730566057007
 20
381.5597329532558
 30
0.0
 10
449.328639315768
 20
381.5532542377454
 30
0.0
 10
449.3936468465798
 20
381.5458486765585
 30
0.0
 10
449.462716017287
 20
381.5381736988111
 30
0.0
 10
449.536386535673
 20
381.5302080885626
 30
0.0
 10
449.6082999725912
 20
381.5226622511722
 30
0.0
 10
449.6770598985046
 20
381.5156530076064
 30
0.0
 10
449.7417149876227
 20
381.5092347162417
 30
0.0
 10
449.8087686321954
 20
381.5027644912549
 30
0.0
 10
449.8861393874819
 20
381.4955214020907
 30
0.0
 10
449.9736816023005
 20
381.4876300057906
 30
0.0
 10
450.0722908544394
 20
381.479146331993
 30
0.0
 10
450.1734766810713
 20
381.4708664230028
 30
0.0
 10
450.2785245235107
 20
381.4627286120559
 30
0.0
 10
450.3872576016646
 20
381.4547980096042
 30
0.0
 10
450.4999518847696
 20
381.4471080450008
 30
0.0
 10
450.6160771446818
 20
381.43974831541
 30
0.0
 10
450.7355504664685
 20
381.4327758798301
 30
0.0
 10
450.8562933305546
 20
381.4263502212486
 30
0.0
 10
450.977930385525
 20
381.4205065106306
 30
0.0
 10
451.100303771133
 20
381.4152581934774
 30
0.0
 10
451.2246341156265
 20
381.4105817560441
 30
0.0
 10
451.3406340701029
 20
381.4068379443024
 30
0.0
 10
451.4474619030874
 20
381.4039005131066
 30
0.0
 10
451.5448726066249
 20
381.4016248294521
 30
0.0
 10
451.6429350412004
 20
381.3997440620613
 30
0.0
 10
451.7528984125962
 20
381.3980969343187
 30
0.0
 10
451.8728778592651
 20
381.3968937650053
 30
0.0
 10
452.0027541255771
 20
381.3963177847842
 30
0.0
 10
452.1312016607442
 20
381.3964503435877
 30
0.0
 10
452.2597941077445
 20
381.3972916192768
 30
0.0
 10
452.3780272576968
 20
381.3987142539215
 30
0.0
 10
452.4855249131049
 20
381.4005270118221
 30
0.0
 10
452.5824698396654
 20
381.4025631425667
 30
0.0
 10
452.6789953771024
 20
381.4049900038162
 30
0.0
 10
452.786045094923
 20
381.4081213456259
 30
0.0
 10
452.9015991644342
 20
381.4120556990272
 30
0.0
 10
453.0250990284242
 20
381.4169199237654
 30
0.0
 10
453.1457397730421
 20
381.4222939943671
 30
0.0
 10
453.2647457599997
 20
381.4282044776845
 30
0.0
 10
453.3725263765678
 20
381.4340989835081
 30
0.0
 10
453.4692035409084
 20
381.439805922175
 30
0.0
 10
453.5553557433941
 20
381.4452088762709
 30
0.0
 10
453.6401020915266
 20
381.4508317635748
 30
0.0
 10
453.732924607687
 20
381.4573214360555
 30
0.0
 10
453.8319597592755
 20
381.4646530785678
 30
0.0
 10
453.9362514150184
 20
381.4728440320111
 30
0.0
 10
454.0366160200466
 20
381.4811584921669
 30
0.0
 10
454.1337483012007
 20
381.4896116395361
 30
0.0
 10
454.2199637834191
 20
381.4974623318022
 30
0.0
 10
454.2958592206303
 20
381.5046311012532
 30
0.0
 10
454.3623494959014
 20
381.5111007005623
 30
0.0
 10
454.4265855719054
 20
381.5175279903267
 30
0.0
 10
454.4956134190207
 20
381.5246180761562
 30
0.0
 10
454.5600703950598
 20
381.5314329849579
 30
0.0
 10
454.6200700468198
 20
381.5379395470077
 30
0.0
 10
454.6701423177378
 20
381.5434771087061
 30
0.0
 10
454.717951612174
 20
381.5488625499428
 30
0.0
 10
454.7692991560302
 20
381.5547471492616
 30
0.0
 10
454.8228808720038
 20
381.5610074748707
 30
0.0
 10
454.877340355668
 20
381.5675000047202
 30
0.0
 10
454.9270522805614
 20
381.5735345228074
 30
0.0
 10
454.9683123542013
 20
381.5786251577983
 30
0.0
 10
455.0022344040052
 20
381.5828621218375
 30
0.0
 10
455.0300088785278
 20
381.5863653415071
 30
0.0
 10
455.0548182631824
 20
381.5895215855779
 30
0.0
 10
455.0791363970315
 20
381.5926392119077
 30
0.0
 10
455.1012786532668
 20
381.5955003691331
 30
0.0
 10
455.1199032473483
 20
381.5979231712989
 30
0.0
 10
455.1329858958846
 20
381.599634179917
 30
0.0
 10
455.1410906963769
 20
381.6006972010604
 30
0.0
 10
455.1420048842695
 20
381.6008175065538
 30
0.0
 10
455.142454264981
 20
381.6008766442526
 30
0.0
  0
LINE
  5
C1
330
1F
100
AcDbEntity
  8
0
  6
Continuous
 62
     7
370
    30
100
AcDbLine
 10
443.5425405956
 20
381.6008879849
 30
0.0
 11
443.5425405957
 21
381.5977380461
 31
0.0
  0
LINE
  5
C2
330
1F
100
AcDbEntity
  8
0
  6
Continuous
 62
     7
370
    30
100
AcDbLine
 10
461.0425405956
 20
336.1398315031
 30
0.0
 11
461.0425405956
 21
380.600887985
 31
0.0
  0
LINE
  5
C3
330
1F
100
AcDbEntity
  8
0
  6
Continuous
 62
     7
370
    30
100
AcDbLine
 10
443.0425405956
 20
331.3033225528
 30
0.0
 11
443.0425405956
 21
331.4297989427
 31
0.0
  0
SPLINE
  5
C4
330
1F
100
AcDbEntity
  8
0
  6
Continuous
 62
     7
370
    30
100
AcDbSpline
210
0.0
220
0.0
230
1.0
 70
    24
 71
     3
 72
    18
 73
    14
 74
     0
 42
0.000000001
 43
0.00000001
 40
0.0
 40
0.0
 40
0.0
 40
0.0
 40
0.0916867241543705
 40
0.1845031388404234
 40
0.2783591821132162
 40
0.373158146864614
 40
0.4688123780704537
 40
0.5652545290773033
 40
0.6542921816826531
 40
0.7438654046982193
 40
0.8339029412232407
 40
0.9243349330226922
 40
1.0
 40
1.0
 40
1.0
 40
1.0
 10
443.0425405956462
 20
331.452244573554
 30
0.0
 10
443.0425405956462
 20
331.5025102727572
 30
0.0
 10
443.0425405956462
 20
331.6036610049327
 30
0.0
 10
443.0425405956462
 20
331.7558383098759
 30
0.0
 10
443.0425405956462
 20
331.9090790436479
 30
0.0
 10
443.0425405956462
 20
332.0629234348178
 30
0.0
 10
443.0425405956462
 20
332.2169310681008
 30
0.0
 10
443.0425405956462
 20
332.3663585833378
 30
0.0
 10
443.0425405956462
 20
332.510900388145
 30
0.0
 10
443.0425405956462
 20
332.6503552744196
 30
0.0
 10
443.0425405956462
 20
332.7885277220575
 30
0.0
 10
443.0425405956462
 20
332.9178146516791
 30
0.0
 10
443.0425405956462
 20
332.9998395179223
 30
0.0
 10
443.0425405956462
 20
333.0372057244271
 30
0.0
  0
SPLINE
  5
C5
330
1F
100
AcDbEntity
  8
0
  6
Continuous
 62
     7
370
    30
100
AcDbSpline
210
0.0
220
0.0
230
1.0
 70
    24
 71
     3
 72
    34
 73
    30
 74
     0
 42
0.000000001
 43
0.00000001
 40
0.0
 40
0.0
 40
0.0
 40
0.0
 40
0.033681702312364
 40
0.0674510111693306
 40
0.1012891163556946
 40
0.1351764657866799
 40
0.169093263717698
 40
0.2030200074308774
 40
0.2369380506339631
 40
0.2768777291503088
 40
0.31675703301972
 40
0.3565542728926564
 40
0.3962458880789689
 40
0.4365243451907382
 40
0.4766387500428096
 40
0.5165596538152167
 40
0.5562567423816854
 40
0.5956991711332525
 40
0.6341594292698749
 40
0.672319697799144
 40
0.7101465298404028
 40
0.747587515231651
 40
0.7853664417377999
 40
0.8226721136125088
 40
0.8594366623200029
 40
0.8956217224654435
 40
0.9311657112656916
 40
0.9659796625765891
 40
1.0
 40
1.0
 40
1.0
 40
1.0
 10
443.0425405956462
 20
333.0596513552647
 30
0.0
 10
443.0425405956462
 20
333.1041274375264
 30
0.0
 10
443.0425405956462
 20
333.1931952849168
 30
0.0
 10
443.0425405956462
 20
333.3236775706964
 30
0.0
 10
443.0425405956462
 20
333.4518607795626
 30
0.0
 10
443.0425405956462
 20
333.5773177148986
 30
0.0
 10
443.0425405956462
 20
333.6999210594925
 30
0.0
 10
443.0425405956462
 20
333.8194830727914
 30
0.0
 10
443.0425405956462
 20
333.9427706502804
 30
0.0
 10
443.0425405956462
 20
334.0689228746289
 30
0.0
 10
443.0425405956463
 20
334.1969918038231
 30
0.0
 10
443.0425405956462
 20
334.3201116178213
 30
0.0
 10
443.0425405956462
 20
334.4388723082716
 30
0.0
 10
443.0425405956462
 20
334.5530737868182
 30
0.0
 10
443.0425405956462
 20
334.6625415673919
 30
0.0
 10
443.0425405956462
 20
334.7665545472887
 30
0.0
 10
443.0425405956462
 20
334.8651137986288
 30
0.0
 10
443.0425405956462
 20
334.9577089517514
 30
0.0
 10
443.0425405956462
 20
335.0445256255699
 30
0.0
 10
443.0425405956462
 20
335.1257768276236
 30
0.0
 10
443.0425405956462
 20
335.202117029243
 30
0.0
 10
443.0425405956462
 20
335.2741733529936
 30
0.0
 10
443.0425405956462
 20
335.342002577758
 30
0.0
 10
443.0425405956462
 20
335.4056754783125
 30
0.0
 10
443.0425405956462
 20
335.4648624915826
 30
0.0
 10
443.0425405956462
 20
335.5196806754781
 30
0.0
 10
443.0425405956462
 20
335.5699884602217
 30
0.0
 10
443.0425405956462
 20
335.6160694413985
 30
0.0
 10
443.0425405956462
 20
335.6429135872843
 30
0.0
 10
443.0425405956462
 20
335.6561809125907
 30
0.0
  0
LINE
  5
C6
330
1F
100
AcDbEntity
  8
0
  6
Continuous
 62
     7
370
    30
100
AcDbLine
 10
461.0425405956
 20
331.3033225528
 30
0.0
 11
461.0425405956
 21
336.1398315031
 31
0.0
  0
LINE
  5
C7
330
1F
100
AcDbEntity
  8
0
  6
Continuous
 62
     7
370
    30
100
AcDbLine
 10
443.0425405956
 20
270.0008882349
 30
0.0
 11
443.0425405956
 21
331.3033223028
 31
0.0
  0
LINE
  5
C8
330
1F
100
AcDbEntity
  8
0
  6
Continuous
 62
     7
370
    30
100
AcDbLine
 10
444.0425405956
 20
269.0008879849
 30
0.0
 11
460.0425405956
 21
269.0008879849
 31
0.0
  0
ARC
  5
C9
330
1F
100
AcDbEntity
  8
0
  6
Continuous
 62
     7
370
    30
100
AcDbCircle
 10
444.0425405956
 20
270.0008879849
 30
0.0
 40
1.000000000000031
100
AcDbArc
 50
179.9999856759
 51
270.0
  0
LINE
  5
CA
330
1F
100
AcDbEntity
  8
0
  6
Continuous
 62
     7
370
    30
100
AcDbLine
 10
461.0425405956
 20
270.0008879849
 30
0.0
 11
461.0425405956
 21
331.3033225528
 31
0.0
  0
ARC
  5
CB
330
1F
100
AcDbEntity
  8
0
  6
Continuous
 62
     7
370
    30
100
AcDbCircle
 10
460.0425405956
 20
270.0008879849
 30
0.0
 40
1.0
100
AcDbArc
 50
270.0
 51
0.0
  0
LINE
  5
CC
330
1F
100
AcDbEntity
  8
0
  6
Continuous
 62
     7
370
    30
100
AcDbLine
 10
438.7461303878
 20
355.5008879849
 30
0.0
 11
438.7850506738
 21
355.5008879849
 31
0.0
  0
LINE
  5
CD
330
1F
100
AcDbEntity
  8
0
  6
Continuous
 62
     7
370
    30
100
AcDbLine
 10
438.7461303878
 20
360.5008879849
 30
0.0
 11
438.7850506738
 21
360.5008879849
 31
0.0
  0
LINE
  5
CE
330
1F
100
AcDbEntity
  8
0
  6
Continuous
 62
     7
370
    30
100
AcDbLine
 10
396.0769705956
 20
381.2008879849
 30
0.0
 11
396.0769705956
 21
334.8008879849
 31
0.0
  0
ARC
  5
CF
330
1F
100
AcDbEntity
  8
0
  6
Continuous
 62
     7
370
    30
100
AcDbCircle
 10
4098.3299569749
 20
358.0008879849
 30
0.0
 40
4000.0
100
AcDbArc
 50
180.3867494486
 51
180.9156186307
  0
ARC
  5
D0
330
1F
100
AcDbEntity
  8
0
  6
Continuous
 62
     7
370
    30
100
AcDbCircle
 10
4098.3299569749
 20
358.0008879849
 30
0.0
 40
4000.0
100
AcDbArc
 50
179.0843813693
 51
179.6132505514
  0
ARC
  5
D1
330
1F
100
AcDbEntity
  8
0
  6
Continuous
 62
     7
370
    30
100
AcDbCircle
 10
99.8405750017
 20
294.097349364
 30
0.0
 40
1.000000000000002
100
AcDbArc
 50
180.9156186307
 51
268.9999999999
  0
ARC
  5
D2
330
1F
100
AcDbEntity
  8
0
  6
Continuous
 62
     7
370
    30
100
AcDbCircle
 10
99.8405750017
 20
421.9044266057
 30
0.0
 40
1.000000000000045
100
AcDbArc
 50
91.0000000001
 51
179.0843813693
  0
LINE
  5
D3
330
1F
100
AcDbEntity
  8
0
  6
Continuous
 62
     7
370
    30
100
AcDbLine
 10
93.9230294044
 20
381.0008879849
 30
0.0
 11
48.1574594044
 21
381.0008879849
 31
0.0
  0
LINE
  5
D4
330
1F
100
AcDbEntity
  8
0
  6
Continuous
 62
     7
370
    30
100
AcDbLine
 10
48.1574594044
 20
335.0008879849
 30
0.0
 11
93.9230294044
 21
335.0008879849
 31
0.0
  0
LINE
  5
D5
330
1F
100
AcDbEntity
  8
0
  6
Continuous
 62
     7
370
    30
100
AcDbLine
 10
34.8578413619
 20
381.6008879849
 30
0.0
 11
29.9574594044
 21
381.6008879849
 31
0.0
  0
LINE
  5
D6
330
1F
100
AcDbEntity
  8
0
  6
Continuous
 62
     7
370
    30
100
AcDbLine
 10
46.4574594044
 20
381.6008879849
 30
0.0
 11
41.0570774469
 21
381.6008879849
 31
0.0
  0
SPLINE
  5
D7
330
1F
100
AcDbEntity
  8
0
  6
Continuous
 62
     7
370
    30
100
AcDbSpline
210
0.0
220
0.0
230
1.0
 70
     8
 71
     3
 72
    41
 73
    37
 74
     0
 42
0.000000001
 43
0.00000001
 40
0.0
 40
0.0
 40
0.0
 40
0.0
 40
0.0553793467069406
 40
0.1053292897594143
 40
0.1498559326978252
 40
0.1889663983543507
 40
0.2226706541616207
 40
0.2509847026301887
 40
0.2739370972646087
 40
0.2896666014215848
 40
0.3014167568099888
 40
0.3093977898045938
 40
0.3121774720485559
 40
0.3133475896113878
 40
0.3144271620077418
 40
0.3172675858628978
 40
0.322977481758754
 40
0.3316869845302996
 40
0.3431112915298447
 40
0.3923534182283979
 40
0.444090914652065
 40
0.4953118362140588
 40
0.5205424697631117
 40
0.5455136686370056
 40
0.5705926405243666
 40
0.5994449491116063
 40
0.6330134308548088
 40
0.6712965770941368
 40
0.7142920563614299
 40
0.7619970795524257
 40
0.7964252904203346
 40
0.832947449205607
 40
0.87156444327682
 40
0.9122779083109129
 40
0.9550896603117418
 40
1.0
 40
1.0
 40
1.0
 40
1.0
 10
46.95730881660342
 20
381.1131573167648
 30
0.0
 10
46.9572787557907
 20
381.1142841941304
 30
0.0
 10
46.95722158133408
 20
381.1164274695505
 30
0.0
 10
46.95709261097262
 20
381.1199075309946
 30
0.0
 10
46.95693201674961
 20
381.123434472518
 30
0.0
 10
46.95673428914137
 20
381.1270608377087
 30
0.0
 10
46.95649686450088
 20
381.1308078303124
 30
0.0
 10
46.95621689270678
 20
381.1346941672808
 30
0.0
 10
46.95590120868465
 20
381.1386145127361
 30
0.0
 10
46.95555533734155
 20
381.142526411128
 30
0.0
 10
46.95519206257499
 20
381.1463194747171
 30
0.0
 10
46.95483288741983
 20
381.1498340847563
 30
0.0
 10
46.95450739104723
 20
381.1528203115445
 30
0.0
 10
46.95433334423524
 20
381.1543718360201
 30
0.0
 10
46.95413487237168
 20
381.1561123004865
 30
0.0
 10
46.95373233681885
 20
381.1595323865583
 30
0.0
 10
46.95296457740386
 20
381.1655690056206
 30
0.0
 10
46.95167102606656
 20
381.1746359417373
 30
0.0
 10
46.94768280949297
 20
381.1988562057926
 30
0.0
 10
46.93868008245371
 20
381.2376983589398
 30
0.0
 10
46.92091983127729
 20
381.2886609622109
 30
0.0
 10
46.90135414396626
 20
381.3297044165524
 30
0.0
 10
46.88332394295923
 20
381.3607600863672
 30
0.0
 10
46.86873198535983
 20
381.3830689716978
 30
0.0
 10
46.85222005361049
 20
381.4056063816997
 30
0.0
 10
46.83250826331764
 20
381.4295172921446
 30
0.0
 10
46.80804814807943
 20
381.45548356117
 30
0.0
 10
46.77797437580511
 20
381.4828979146827
 30
0.0
 10
46.74166731799998
 20
381.5106761178347
 30
0.0
 10
46.70400238281758
 20
381.534128019907
 30
0.0
 10
46.66652266824832
 20
381.5531545083239
 30
0.0
 10
46.63068130259758
 20
381.5680665442307
 30
0.0
 10
46.59164180635963
 20
381.580777865572
 30
0.0
 10
46.54949468653499
 20
381.5905859030687
 30
0.0
 10
46.50442356077292
 20
381.5972272562547
 30
0.0
 10
46.47336182125229
 20
381.5980803162348
 30
0.0
 10
46.45745940435457
 20
381.5985170501606
 30
0.0
  0
SPLINE
  5
D8
330
1F
100
AcDbEntity
  8
0
  6
Continuous
 62
     7
370
    30
100
AcDbSpline
210
0.0
220
0.0
230
1.0
 70
     8
 71
     3
 72
    81
 73
    77
 74
     0
 42
0.000000001
 43
0.00000001
 40
0.0
 40
0.0
 40
0.0
 40
0.0
 40
0.0083789384539197
 40
0.0221158434547965
 40
0.03560721438109
 40
0.0488500759943546
 40
0.0618413020873875
 40
0.0745776481444653
 40
0.0870557804894602
 40
0.0998474506445318
 40
0.1123480496503676
 40
0.1245536029082221
 40
0.1364601362189909
 40
0.1480636958807015
 40
0.159360366343984
 40
0.1703462856813807
 40
0.181017659099585
 40
0.1913707706997014
 40
0.2014019936691349
 40
0.2112005147497155
 40
0.2209731264380257
 40
0.2362924037829142
 40
0.2515640728211668
 40
0.2667861979675892
 40
0.2855847374812859
 40
0.3043001354481248
 40
0.3229283471204638
 40
0.3414652275192288
 40
0.3599065461118218
 40
0.3782480001744359
 40
0.3964852270305199
 40
0.4131129098744444
 40
0.4297865850783834
 40
0.4465627191911313
 40
0.4634402464774074
 40
0.4804179551213613
 40
0.4974944798079791
 40
0.5138855939994147
 40
0.5303638832991734
 40
0.546927751951068
 40
0.5635757523443501
 40
0.5803065764578925
 40
0.5971189178712687
 40
0.6140114696062037
 40
0.6309892275742195
 40
0.6445109213034489
 40
0.6582525646949169
 40
0.6722146835481689
 40
0.6863977639153465
 40
0.7008022508519418
 40
0.7154285472099114
 40
0.7302770124744916
 40
0.7453479616453511
 40
0.7598763611352147
 40
0.7746061168884413
 40
0.7895373824112032
 40
0.8046702716979817
 40
0.8200048585106912
 40
0.8355411756747101
 40
0.8461181343522408
 40
0.8567865747914688
 40
0.8674010648837382
 40
0.8777761064901095
 40
0.8879099300436198
 40
0.8978014781330615
 40
0.9074497592725688
 40
0.9183973727013223
 40
0.9290112443436322
 40
0.9392901137556167
 40
0.949232824540947
 40
0.9588383202586311
 40
0.9681056406852213
 40
0.9765328833333596
 40
0.9846580692361089
 40
0.9924806137963181
 40
0.9999999999999999
 40
0.9999999999999999
 40
0.9999999999999999
 40
0.9999999999999999
 10
46.95745595743132
 20
336.3543877430276
 30
0.0
 10
46.95745513599434
 20
336.3750328446112
 30
0.0
 10
46.95745296784716
 20
336.4295246919067
 30
0.0
 10
46.95744662311738
 20
336.5212768296545
 30
0.0
 10
46.95743780090304
 20
336.6284281221266
 30
0.0
 10
46.957427393069
 20
336.7370669548917
 30
0.0
 10
46.9574159631506
 20
336.8467731810599
 30
0.0
 10
46.95740386298286
 20
336.957372821108
 30
0.0
 10
46.95739127186961
 20
337.0703386789032
 30
0.0
 10
46.95737851369156
 20
337.1855265003683
 30
0.0
 10
46.95736592894366
 20
337.3027729345419
 30
0.0
 10
46.95735403021094
 20
337.4199960145704
 30
0.0
 10
46.95734309197895
 20
337.5369482652952
 30
0.0
 10
46.95733335295134
 20
337.653385739113
 30
0.0
 10
46.95732501719281
 20
337.7690683366201
 30
0.0
 10
46.95731825028589
 20
337.8837600918832
 30
0.0
 10
46.95731319304024
 20
337.9972300159531
 30
0.0
 10
46.95730991256369
 20
338.1092507526079
 30
0.0
 10
46.95730857260781
 20
338.2199450235208
 30
0.0
 10
46.95730884100929
 20
338.330231569983
 30
0.0
 10
46.95730876114386
 20
338.4621326285198
 30
0.0
 10
46.95730879339712
 20
338.617572931465
 30
0.0
 10
46.95730878373668
 20
338.7978954486796
 30
0.0
 10
46.95730878655701
 20
338.9960547193999
 30
0.0
 10
46.95730878574579
 20
339.2129562106525
 30
0.0
 10
46.95730878606144
 20
339.4495444026098
 30
0.0
 10
46.95730878602829
 20
339.6905849391757
 30
0.0
 10
46.95730878605041
 20
339.9358726427849
 30
0.0
 10
46.95730878601896
 20
340.1851973848827
 30
0.0
 10
46.95730878596407
 20
340.4383440974206
 30
0.0
 10
46.9573087858829
 20
340.688049773554
 30
0.0
 10
46.95730878578712
 20
340.9343880061713
 30
0.0
 10
46.95730878567164
 20
341.1778253411787
 30
0.0
 10
46.95730878553761
 20
341.4265394472585
 30
0.0
 10
46.95730878539577
 20
341.6808069858719
 30
0.0
 10
46.95730878524938
 20
341.9406195952078
 30
0.0
 10
46.95730878514178
 20
342.2019088262508
 30
0.0
 10
46.95730878498434
 20
342.4643988172969
 30
0.0
 10
46.95730878517029
 20
342.7278172010778
 30
0.0
 10
46.95730878429948
 20
342.9962040444368
 30
0.0
 10
46.95730878770947
 20
343.2695277563543
 30
0.0
 10
46.95730877528004
 20
343.5477532970626
 30
0.0
 10
46.95730882256413
 20
343.8308452034979
 30
0.0
 10
46.95730864546866
 20
344.1187912611264
 30
0.0
 10
46.95730926571079
 20
344.3912587156009
 30
0.0
 10
46.95730687236956
 20
344.6481687745249
 30
0.0
 10
46.95730147559595
 20
344.8896490557704
 30
0.0
 10
46.95729292247371
 20
345.1371231129551
 30
0.0
 10
46.95728091175508
 20
345.390662663914
 30
0.0
 10
46.95726512491382
 20
345.6503378127654
 30
0.0
 10
46.9572451356096
 20
345.9162148853252
 30
0.0
 10
46.95722043455606
 20
346.1883566305593
 30
0.0
 10
46.957190930617
 20
346.4621085418037
 30
0.0
 10
46.95715627457112
 20
346.7372599759251
 30
0.0
 10
46.95711611864454
 20
347.0135983542551
 30
0.0
 10
46.95706915105691
 20
347.2957790556353
 30
0.0
 10
46.95701454538828
 20
347.5838371352978
 30
0.0
 10
46.95695149485306
 20
347.8778036454198
 30
0.0
 10
46.95688682512489
 20
348.1444951533624
 30
0.0
 10
46.95682377610916
 20
348.3825065500668
 30
0.0
 10
46.95676284124283
 20
348.5895822960531
 30
0.0
 10
46.95670400327384
 20
348.7963002040973
 30
0.0
 10
46.95666289270335
 20
349.0005315186344
 30
0.0
 10
46.95663792337813
 20
349.2009371001406
 30
0.0
 10
46.95663076293696
 20
349.3974187640843
 30
0.0
 10
46.95664198624673
 20
349.6001423554462
 30
0.0
 10
46.95667477134339
 20
349.8085769612416
 30
0.0
 10
46.95673159800075
 20
350.0221752578914
 30
0.0
 10
46.95680815306223
 20
350.2299118340283
 30
0.0
 10
46.95690075984095
 20
350.4316664456708
 30
0.0
 10
46.9570047019494
 20
350.6273262591851
 30
0.0
 10
46.95711212837629
 20
350.8133728188137
 30
0.0
 10
46.95721640141475
 20
350.9899221330243
 30
0.0
 10
46.95730993035752
 20
351.1571226396437
 30
0.0
 10
46.95739062438507
 20
351.3185434095006
 30
0.0
 10
46.95742344922911
 20
351.4244556402135
 30
0.0
 10
46.95743953733976
 20
351.4763653365013
 30
0.0
  0
ARC
  5
D9
330
1F
100
AcDbEntity
  8
0
  6
Continuous
 62
     7
370
    30
100
AcDbCircle
 10
29.9574594044
 20
380.6008879849
 30
0.0
 40
1.0
100
AcDbArc
 50
90.0
 51
180.0
  0
ARC
  5
DA
330
1F
100
AcDbEntity
  8
0
  6
Continuous
 62
     7
370
    30
100
AcDbCircle
 10
48.0574594044
 20
380.9276736296
 30
0.0
 40
0.1000000000000014
100
AcDbArc
 50
0.0
 51
110.0117664589
  0
ARC
  5
DB
330
1F
100
AcDbEntity
  8
0
  6
Continuous
 62
     7
370
    30
100
AcDbCircle
 10
48.0574594044
 20
335.0741023402
 30
0.0
 40
0.1000000000000014
100
AcDbArc
 50
249.9882335411
 51
0.0
  0
ARC
  5
DC
330
1F
100
AcDbEntity
  8
0
  6
Continuous
 62
     7
370
    30
100
AcDbCircle
 10
56.4074594044
 20
358.0008879849
 30
0.0
 40
24.50000000000455
100
AcDbArc
 50
110.0117664665
 51
112.6884044876
  0
ARC
  5
DD
330
1F
100
AcDbEntity
  8
0
  6
Continuous
 62
     7
370
    30
100
AcDbCircle
 10
56.4074594044
 20
358.0008879849
 30
0.0
 40
24.5000000000045
100
AcDbArc
 50
247.3112141722
 51
249.9882335335
  0
ARC
  5
DE
330
1F
100
AcDbEntity
  8
0
  6
Continuous
 62
     7
370
    30
100
AcDbCircle
 10
96.4648065311
 20
333.0008879849
 30
0.0
 40
2.000000000000023
100
AcDbArc
 50
194.7435628365
 51
270.0
  0
ARC
  5
DF
330
1F
100
AcDbEntity
  8
0
  6
Continuous
 62
     7
370
    30
100
AcDbCircle
 10
96.4648065311
 20
383.0008879849
 30
0.0
 40
2.000000000000023
100
AcDbArc
 50
90.0
 51
165.2564371635
  0
LINE
  5
E0
330
1F
100
AcDbEntity
  8
0
  6
Continuous
 62
     7
370
    30
100
AcDbLine
 10
96.4648065311
 20
331.0008879849
 30
0.0
 11
98.4210830129
 21
331.0008879849
 31
0.0
  0
LINE
  5
E1
330
1F
100
AcDbEntity
  8
0
  6
Continuous
 62
     7
370
    30
100
AcDbLine
 10
98.4210830129
 20
385.0008879849
 30
0.0
 11
96.4648065311
 21
385.0008879849
 31
0.0
  0
LINE
  5
E2
330
1F
100
AcDbEntity
  8
0
  6
Continuous
 62
     7
370
    30
100
AcDbLine
 10
94.5306574566
 20
383.5098745835
 30
0.0
 11
93.9230294044
 21
381.200887999
 31
0.0
  0
LINE
  5
E3
330
1F
100
AcDbEntity
  8
0
  6
Continuous
 62
     7
370
    30
100
AcDbLine
 10
93.9230294044
 20
334.8008879708
 30
0.0
 11
94.5306574566
 21
332.4919013863
 31
0.0
  0
ARC
  5
E4
330
1F
100
AcDbEntity
  8
0
  6
Continuous
 62
     7
370
    30
100
AcDbCircle
 10
40.5651403666
 20
381.6008879853
 30
0.0
 40
0.3000000000000532
100
AcDbArc
 50
355.2666773604
 51
72.5584061427
  0
ARC
  5
E5
330
1F
100
AcDbEntity
  8
0
  6
Continuous
 62
     7
370
    30
100
AcDbCircle
 10
35.3497784425
 20
381.6008879853
 30
0.0
 40
0.3000000000000532
100
AcDbArc
 50
107.4415938573
 51
184.7418878845
  0
ARC
  5
E6
330
1F
100
AcDbEntity
  8
0
  6
Continuous
 62
     7
370
    30
100
AcDbCircle
 10
37.9574594045
 20
373.3008879853
 30
0.0
 40
8.999999999999721
100
AcDbArc
 50
72.5584061436
 51
107.4415938564
  0
LINE
  5
E7
330
1F
100
AcDbEntity
  8
0
  6
Continuous
 62
     7
370
    30
100
AcDbLine
 10
100.1234560471
 20
293.092259329
 30
0.0
 11
105.2563716033
 21
293.0026639547
 31
0.0
  0
LINE
  5
E8
330
1F
100
AcDbEntity
  8
0
  6
Continuous
 62
     7
370
    30
100
AcDbLine
 10
100.1234560471
 20
422.9095166408
 30
0.0
 11
105.2563716033
 21
422.9991120151
 31
0.0
  0
ARC
  5
E9
330
1F
100
AcDbEntity
  8
0
  6
Continuous
 62
     7
370
    30
100
AcDbCircle
 10
105.258116844
 20
422.8991272456
 30
0.0
 40
0.0999999999999801
100
AcDbArc
 50
0.0
 51
91.0
  0
LINE
  5
EA
330
1F
100
AcDbEntity
  8
0
  6
Continuous
 62
     7
370
    30
100
AcDbLine
 10
105.358116844
 20
422.8991272456
 30
0.0
 11
105.358116844
 21
417.0008879849
 31
0.0
  0
LINE
  5
EB
330
1F
100
AcDbEntity
  8
0
  6
Continuous
 62
     7
370
    30
100
AcDbLine
 10
105.358116844
 20
417.0008879849
 30
0.0
 11
105.358116844
 21
299.0008879849
 31
0.0
  0
LINE
  5
EC
330
1F
100
AcDbEntity
  8
0
  6
Continuous
 62
     7
370
    30
100
AcDbLine
 10
105.358116844
 20
299.0008879849
 30
0.0
 11
105.358116844
 21
293.1026487242
 31
0.0
  0
ARC
  5
ED
330
1F
100
AcDbEntity
  8
0
  6
Continuous
 62
     7
370
    30
100
AcDbCircle
 10
105.258116844
 20
293.1026487242
 30
0.0
 40
0.0999999999999943
100
AcDbArc
 50
269.0
 51
0.0
  0
LINE
  5
EE
330
1F
100
AcDbEntity
  8
0
  6
Continuous
 62
     7
370
    30
100
AcDbLine
 10
100.1234560471
 20
293.092259329
 30
0.0
 11
99.8231225953
 21
293.0975016689
 31
0.0
  0
LINE
  5
EF
330
1F
100
AcDbEntity
  8
0
  6
Continuous
 62
     7
370
    30
100
AcDbLine
 10
99.8231226223
 20
422.9042743014
 30
0.0
 11
100.1234560471
 21
422.9095166408
 31
0.0
  0
LINE
  5
F0
330
1F
100
AcDbEntity
  8
0
  6
Continuous
 62
     7
370
    30
100
AcDbLine
 10
48.1574594044
 20
381.0008879849
 30
0.0
 11
48.1574594044
 21
335.0008879849
 31
0.0
  0
SPLINE
  5
F1
330
1F
100
AcDbEntity
  8
0
  6
Continuous
 62
     7
370
    30
100
AcDbSpline
210
0.0
220
0.0
230
1.0
 70
     8
 71
     3
 72
    22
 73
    18
 74
     0
 42
0.000000001
 43
0.00000001
 40
0.0
 40
0.0
 40
0.0
 40
0.0
 40
0.0617606575439624
 40
0.1235803829307182
 40
0.1754670577564521
 40
0.2273537248158393
 40
0.2793815078571685
 40
0.3314092830864951
 40
0.4157784883517466
 40
0.5002998281546196
 40
0.5855088315826465
 40
0.670875147894317
 40
0.753483058548482
 40
0.8362346737441045
 40
0.9093074665211416
 40
0.9823802537524385
 40
1.0
 40
1.0
 40
1.0
 40
1.0
 10
40.67796534620746
 20
381.5540438791573
 30
0.0
 10
40.69300055358303
 20
381.5557889822645
 30
0.0
 10
40.72308534799433
 20
381.5592808574937
 30
0.0
 10
40.76265337314688
 20
381.5639671700304
 30
0.0
 10
40.79796452338415
 20
381.568198308262
 30
0.0
 10
40.82924294167156
 20
381.571989835475
 30
0.0
 10
40.85862549747451
 20
381.5755883513448
 30
0.0
 10
40.89176138656825
 20
381.5796861223231
 30
0.0
 10
40.92694490529332
 20
381.5840891825766
 30
0.0
 10
40.96211000413709
 20
381.5885453363687
 30
0.0
 10
40.99199546794905
 20
381.5923730478854
 30
0.0
 10
41.01620607182088
 20
381.5955014452081
 30
0.0
 10
41.03478275516484
 20
381.5979182535183
 30
0.0
 10
41.04749631872415
 20
381.5995807781439
 30
0.0
 10
41.05474679184258
 20
381.6005314679305
 30
0.0
 10
41.05778982354244
 20
381.6009314154834
 30
0.0
 10
41.05719333305898
 20
381.6008530274586
 30
0.0
 10
41.05707744688229
 20
381.6008377982325
 30
0.0
  0
SPLINE
  5
F2
330
1F
100
AcDbEntity
  8
0
  6
Continuous
 62
     7
370
    30
100
AcDbSpline
210
0.0
220
0.0
230
1.0
 70
     8
 71
     3
 72
    85
 73
    81
 74
     0
 42
0.000000001
 43
0.00000001
 40
0.0
 40
0.0
 40
0.0
 40
0.0
 40
0.0105657816816542
 40
0.0244646453155422
 40
0.0345031752228999
 40
0.0445417057077694
 40
0.0546091313456999
 40
0.0646765578768967
 40
0.0802551169864207
 40
0.0958605453054563
 40
0.1096391361279295
 40
0.123417732196267
 40
0.1372707975041229
 40
0.1511238686134171
 40
0.161127478149881
 40
0.1711310892623192
 40
0.181162888589328
 40
0.1911946894302405
 40
0.2068454665048989
 40
0.2225230594073842
 40
0.2363646042278505
 40
0.2502061525628374
 40
0.2641220804528251
 40
0.2780380104220277
 40
0.2880864984799368
 40
0.2981349867082987
 40
0.3082117534953125
 40
0.3182885201084868
 40
0.3340034523290649
 40
0.3497453952805384
 40
0.3656136922112863
 40
0.3815098598022876
 40
0.3976071509168368
 40
0.4137336358525878
 40
0.4299921551552904
 40
0.4462808809967891
 40
0.4580439599220563
 40
0.4698185063589093
 40
0.4797025438517328
 40
0.48958657988682
 40
0.4994980269353618
 40
0.5094094726508575
 40
0.5254863308011659
 40
0.5415927476498601
 40
0.5578327827144172
 40
0.5741033634882395
 40
0.5897168776179944
 40
0.6053575597348173
 40
0.6191687107765177
 40
0.6329798633597178
 40
0.6468666510693569
 40
0.6607534419902003
 40
0.6707829254773368
 40
0.6808124101622417
 40
0.6908706164984468
 40
0.7009288242593539
 40
0.716514460265799
 40
0.7321268734813218
 40
0.7459110754818603
 40
0.759695283308153
 40
0.7735536292459093
 40
0.7874119807934642
 40
0.7974188815865393
 40
0.807425783722227
 40
0.8174607538604858
 40
0.827495725134739
 40
0.8431885685148194
 40
0.8589083358889555
 40
0.872787456867803
 40
0.8866665789733458
 40
0.9006205571843137
 40
0.9145745347910376
 40
0.9246509789260471
 40
0.9347274224952116
 40
0.9448324167391091
 40
0.9549374100972746
 40
0.9661781705253485
 40
0.9774288300873545
 40
0.9887094007032026
 40
1.0
 40
1.0
 40
1.0
 40
1.0
 10
34.85784136187157
 20
381.6008377982325
 30
0.0
 10
34.85792145188881
 20
381.60082723377
 30
0.0
 10
34.85810689712354
 20
381.6008027721792
 30
0.0
 10
34.86282045517522
 20
381.6001841265083
 30
0.0
 10
34.86998042941772
 20
381.5992461081087
 30
0.0
 10
34.87859211512029
 20
381.5981207530391
 30
0.0
 10
34.88936726694683
 20
381.5967168810039
 30
0.0
 10
34.90469609408436
 20
381.5947274715426
 30
0.0
 10
34.92616626105896
 20
381.5919562387837
 30
0.0
 10
34.95451487053736
 20
381.5883290810107
 30
0.0
 10
34.98615871285808
 20
381.58432032808
 30
0.0
 10
35.02045717013388
 20
381.5800218458047
 30
0.0
 10
35.05873344276149
 20
381.5752824621553
 30
0.0
 10
35.09704168413199
 20
381.5706039175769
 30
0.0
 10
35.13411852932551
 20
381.5661351976568
 30
0.0
 10
35.16897935724663
 20
381.5619830193494
 30
0.0
 10
35.20582283877652
 20
381.5576499065848
 30
0.0
 10
35.25187119541104
 20
381.5523072641344
 30
0.0
 10
35.30854520377104
 20
381.5458510302494
 30
0.0
 10
35.37478305447777
 20
381.53849051924
 30
0.0
 10
35.44219513343441
 20
381.5311899164502
 30
0.0
 10
35.51022271971936
 20
381.5240120123947
 30
0.0
 10
35.58165574521507
 20
381.5166843480567
 30
0.0
 10
35.64948900212929
 20
381.5099348331254
 30
0.0
 10
35.71257055663516
 20
381.5038338647239
 30
0.0
 10
35.7701106298472
 20
381.4984063521784
 30
0.0
 10
35.82924859742892
 20
381.492973765882
 30
0.0
 10
35.90126636478072
 20
381.486540217811
 30
0.0
 10
35.98723892325734
 20
381.4791438715901
 30
0.0
 10
36.08860852570939
 20
381.4708491219421
 30
0.0
 10
36.19363548050615
 20
381.4627141324252
 30
0.0
 10
36.30257447101501
 20
381.4547699188429
 30
0.0
 10
36.41507724142348
 20
381.447094421181
 30
0.0
 10
36.53124546942445
 20
381.4397335854598
 30
0.0
 10
36.65050610098787
 20
381.4327737793073
 30
0.0
 10
36.76128965431177
 20
381.42687857858
 30
0.0
 10
36.86241164799385
 20
381.4219559419368
 30
0.0
 10
36.94828707229458
 20
381.4181054973301
 30
0.0
 10
37.0301408936419
 20
381.4147286745777
 30
0.0
 10
37.10780156084147
 20
381.4117805615194
 30
0.0
 10
37.18612424711927
 20
381.4090682014316
 30
0.0
 10
37.28142088862236
 20
381.4060877004823
 30
0.0
 10
37.3940671197647
 20
381.4030631746317
 30
0.0
 10
37.52468451341797
 20
381.4002800253439
 30
0.0
 10
37.65663240842551
 20
381.3982089901419
 30
0.0
 10
37.78780083748814
 20
381.39689409509
 30
0.0
 10
37.9176356867193
 20
381.396317306481
 30
0.0
 10
38.04081957579041
 20
381.3964448422644
 30
0.0
 10
38.15893973506168
 20
381.3971772937795
 30
0.0
 10
38.27199851102596
 20
381.3984236042255
 30
0.0
 10
38.38483319470483
 20
381.4002133404415
 30
0.0
 10
38.48687728334576
 20
381.4023227502407
 30
0.0
 10
38.57798569538398
 20
381.40458207195
 30
0.0
 10
38.65837602305111
 20
381.4068517622669
 30
0.0
 10
38.73834119379364
 20
381.4093834917014
 30
0.0
 10
38.8323812619638
 20
381.4126806737727
 30
0.0
 10
38.93998424876063
 20
381.4169180721569
 30
0.0
 10
39.05567891372319
 20
381.4220721343713
 30
0.0
 10
39.16508982558877
 20
381.4274709205256
 30
0.0
 10
39.26843781049101
 20
381.4330274917194
 30
0.0
 10
39.37020428568298
 20
381.4389440118758
 30
0.0
 10
39.46098043938691
 20
381.4446108621091
 30
0.0
 10
39.54105314446699
 20
381.4498991962187
 30
0.0
 10
39.61097569789276
 20
381.4547260111687
 30
0.0
 10
39.67979921467961
 20
381.4596797447495
 30
0.0
 10
39.76019100869665
 20
381.4656987424094
 30
0.0
 10
39.85114271752531
 20
381.4728415888929
 30
0.0
 10
39.94739273419029
 20
381.4808153021174
 30
0.0
 10
40.03680176678162
 20
381.4885724712327
 30
0.0
 10
40.11978565311579
 20
381.4960673046915
 30
0.0
 10
40.19999626381831
 20
381.5035882922312
 30
0.0
 10
40.27015327654561
 20
381.5103996984567
 30
0.0
 10
40.33093936067868
 20
381.5164674908627
 30
0.0
 10
40.38318924683433
 20
381.5217998141597
 30
0.0
 10
40.43376974180597
 20
381.5270712002405
 30
0.0
 10
40.48446837704078
 20
381.5324610007867
 30
0.0
 10
40.53498969327664
 20
381.5379394293872
 30
0.0
 10
40.58501765340687
 20
381.543473117146
 30
0.0
 10
40.6329716513724
 20
381.548870608726
 30
0.0
 10
40.6629630060721
 20
381.5523189449658
 30
0.0
 10
40.67796534620748
 20
381.5540438791573
 30
0.0
  0
LINE
  5
F3
330
1F
100
AcDbEntity
  8
0
  6
Continuous
 62
     7
370
    30
100
AcDbLine
 10
46.4574594044
 20
381.6008879849
 30
0.0
 11
46.4574594043
 21
381.5977380462
 31
0.0
  0
SPLINE
  5
F4
330
1F
100
AcDbEntity
  8
0
  6
Continuous
 62
     7
370
    30
100
AcDbSpline
210
0.0
220
0.0
230
1.0
 70
    24
 71
     3
 72
   161
 73
   157
 74
     0
 42
0.000000001
 43
0.00000001
 40
0.0
 40
0.0
 40
0.0
 40
0.0
 40
0.0064388338828334
 40
0.0128884623330466
 40
0.019360544384313
 40
0.0258666955026227
 40
0.032418463326729
 40
0.0376057710691623
 40
0.0428338210504215
 40
0.0481079915115485
 40
0.0534333993588476
 40
0.0588148832441099
 40
0.0642570120978838
 40
0.0697640935201669
 40
0.0753401820034498
 40
0.0809890869907869
 40
0.0867143807712762
 40
0.0924150291976148
 40
0.0981955464697023
 40
0.1040586915722613
 40
0.1100070305026434
 40
0.115122705621958
 40
0.1203027822242357
 40
0.1255485213155863
 40
0.1308610960171999
 40
0.1362415942255322
 40
0.1416910187619821
 40
0.1468928950857496
 40
0.1521571462317331
 40
0.1574840390081034
 40
0.1628737226560353
 40
0.168326231071219
 40
0.173841484653831
 40
0.1794192917799821
 40
0.1850593498885161
 40
0.1907612461779729
 40
0.1965244579095964
 40
0.2022438279567746
 40
0.2080210299165043
 40
0.2138552569020818
 40
0.2197455972102775
 40
0.2258750348826149
 40
0.2320617750379675
 40
0.2383044342315741
 40
0.2446015708427224
 40
0.2509517398168291
 40
0.2573534945796112
 40
0.2638053879418507
 40
0.2703059728555432
 40
0.277166750985444
 40
0.2840777193685202
 40
0.2910372182363664
 40
0.2980435896676475
 40
0.3050951774422631
 40
0.3121903266428708
 40
0.3183053215091525
 40
0.3244500637389536
 40
0.3306235107504783
 40
0.336824618605487
 40
0.3430523412350776
 40
0.3493056295496272
 40
0.3555834304313271
 40
0.3625160509581868
 40
0.369475734062974
 40
0.3764612501391741
 40
0.3834714130516755
 40
0.3905050769834094
 40
0.3969187920857507
 40
0.4033502088613332
 40
0.4097985463306016
 40
0.4162630469191738
 40
0.4227429756031599
 40
0.4292376191030222
 40
0.4357462851252077
 40
0.4429211959647772
 40
0.4501113941269275
 40
0.4573160402348411
 40
0.4645343217062045
 40
0.4717654519066506
 40
0.479008669373717
 40
0.4862632371079352
 40
0.4935284419273988
 40
0.5008035938819281
 40
0.5080880257227128
 40
0.5152507904476017
 40
0.5224212937237266
 40
0.5295989649608586
 40
0.5367832526966351
 40
0.5434240875426312
 40
0.5500696919054594
 40
0.5567196574091112
 40
0.5633735823644116
 40
0.5700310712162453
 40
0.5765727706207291
 40
0.5831171669384424
 40
0.5896638997532299
 40
0.59621261244968
 40
0.6028966436263626
 40
0.6095819963068531
 40
0.6162683009917916
 40
0.6229551904187001
 40
0.6296422991081317
 40
0.6363292629164886
 40
0.6430157185943843
 40
0.6497013033494281
 40
0.6563856544122784
 40
0.663068408604822
 40
0.6697492019093174
 40
0.6764276690373451
 40
0.6831034429974039
 40
0.6897761546600015
 40
0.697112139358538
 40
0.704443469889523
 40
0.7117696421180358
 40
0.7190901460264759
 40
0.72640446496302
 40
0.7330480535553737
 40
0.7396856978185492
 40
0.746316976848288
 40
0.7529414382386544
 40
0.7595586249222225
 40
0.7661680777746424
 40
0.7727693351134785
 40
0.7800206807582137
 40
0.7872609240476602
 40
0.7944894356642717
 40
0.8017055797489646
 40
0.8089087132311436
 40
0.816098185178856
 40
0.8232733361659754
 40
0.8304334976532924
 40
0.8375779913803624
 40
0.844706128764978
 40
0.8516903835599943
 40
0.8586575127241606
 40
0.8656068315034386
 40
0.8725376433376345
 40
0.878921901083523
 40
0.8852891987027534
 40
0.8916389580825222
 40
0.8979705909185363
 40
0.9042834983081488
 40
0.9104648604628885
 40
0.9166269830768417
 40
0.9227692665208029
 40
0.9288910983280998
 40
0.9361514183235881
 40
0.9433808108548687
 40
0.9505783039229518
 40
0.9577429957265676
 40
0.9648740517383758
 40
0.9719707021244723
 40
0.9790322395132718
 40
0.9860580171184419
 40
0.9930474472192078
 40
0.9999999999999999
 40
0.9999999999999999
 40
0.9999999999999999
 40
0.9999999999999999
 10
46.95745940435457
 20
381.1008880044907
 30
0.0
 10
46.95745940435457
 20
381.1003244943466
 30
0.0
 10
46.95745940435454
 20
381.0991965293454
 30
0.0
 10
46.95745940435459
 20
381.090055641347
 30
0.0
 10
46.95745940435459
 20
381.0753989469511
 30
0.0
 10
46.95745940435457
 20
381.0545905176875
 30
0.0
 10
46.95745940435454
 20
381.0295823030795
 30
0.0
 10
46.95745940435457
 20
381.0016448354468
 30
0.0
 10
46.95745940435457
 20
380.9719820537275
 30
0.0
 10
46.95745940435456
 20
380.9381663231702
 30
0.0
 10
46.9574594043546
 20
380.9000631866356
 30
0.0
 10
46.95745940435456
 20
380.8575244943273
 30
0.0
 10
46.95745940435454
 20
380.8103900003011
 30
0.0
 10
46.9574594043546
 20
380.758487832427
 30
0.0
 10
46.95745940435456
 20
380.7016352533831
 30
0.0
 10
46.95745940435459
 20
380.6396393491355
 30
0.0
 10
46.95745940435457
 20
380.5727068631257
 30
0.0
 10
46.95745940435453
 20
380.5007358483232
 30
0.0
 10
46.95745940435459
 20
380.4236217687883
 30
0.0
 10
46.95745940435457
 20
380.3407253569881
 30
0.0
 10
46.95745940435456
 20
380.2564094742128
 30
0.0
 10
46.95745940435457
 20
380.1714207136866
 30
0.0
 10
46.9574594043546
 20
380.0864924090723
 30
0.0
 10
46.95745940435454
 20
379.9967949023571
 30
0.0
 10
46.9574594043546
 20
379.9021827418917
 30
0.0
 10
46.95745940435454
 20
379.8025088331062
 30
0.0
 10
46.95745940435459
 20
379.6996606927898
 30
0.0
 10
46.95745940435457
 20
379.5938100878204
 30
0.0
 10
46.95745940435459
 20
379.4851372665235
 30
0.0
 10
46.95745940435457
 20
379.3714665118371
 30
0.0
 10
46.95745940435459
 20
379.2526829276833
 30
0.0
 10
46.95745940435457
 20
379.1286743652255
 30
0.0
 10
46.95745940435454
 20
378.9993319430426
 30
0.0
 10
46.95745940435459
 20
378.8645505840595
 30
0.0
 10
46.95745940435454
 20
378.7242295442467
 30
0.0
 10
46.95745940435459
 20
378.5782729574202
 30
0.0
 10
46.95745940435457
 20
378.4275073528026
 30
0.0
 10
46.95745940435457
 20
378.2719552786332
 30
0.0
 10
46.95745940435457
 20
378.1116468794693
 30
0.0
 10
46.95745940435457
 20
377.9455919842628
 30
0.0
 10
46.95745940435459
 20
377.7719404700448
 30
0.0
 10
46.95745940435459
 20
377.5904505821256
 30
0.0
 10
46.95745940435454
 20
377.4008853766969
 30
0.0
 10
46.95745940435457
 20
377.2050049505266
 30
0.0
 10
46.95745940435456
 20
377.0027785465165
 30
0.0
 10
46.95745940435457
 20
376.7941829722666
 30
0.0
 10
46.95745940435457
 20
376.5792021346732
 30
0.0
 10
46.95745940435454
 20
376.3578269930539
 30
0.0
 10
46.9574594043546
 20
376.1264004699225
 30
0.0
 10
46.95745940435456
 20
375.8846068648285
 30
0.0
 10
46.95745940435457
 20
375.6321363555985
 30
0.0
 10
46.95745940435457
 20
375.3726897690822
 30
0.0
 10
46.95745940435456
 20
375.1062991578239
 30
0.0
 10
46.95745940435459
 20
374.8330055343989
 30
0.0
 10
46.95745940435456
 20
374.5663108492191
 30
0.0
 10
46.9574594043546
 20
374.3072409930655
 30
0.0
 10
46.95745940435454
 20
374.0567523752728
 30
0.0
 10
46.95745940435456
 20
373.8013606711741
 30
0.0
 10
46.95745940435457
 20
373.5411175677082
 30
0.0
 10
46.95745940435456
 20
373.2760798112729
 30
0.0
 10
46.95745940435457
 20
373.0063088945092
 30
0.0
 10
46.95745940435456
 20
372.7226709816993
 30
0.0
 10
46.95745940435456
 20
372.4247375292989
 30
0.0
 10
46.95745940435457
 20
372.1120870019773
 30
0.0
 10
46.95745940435457
 20
371.7940723667232
 30
0.0
 10
46.95745940435457
 20
371.4707976291579
 30
0.0
 10
46.95745940435456
 20
371.1523684022367
 30
0.0
 10
46.95745940435459
 20
370.8393684519825
 30
0.0
 10
46.95745940435453
 20
370.5323417223926
 30
0.0
 10
46.95745940435462
 20
370.2213248899469
 30
0.0
 10
46.95745940435454
 20
369.9064092800777
 30
0.0
 10
46.95745940435456
 20
369.5876886593608
 30
0.0
 10
46.9574594043546
 20
369.2652588036301
 30
0.0
 10
46.95745940435457
 20
368.928315867631
 30
0.0
 10
46.95745940435459
 20
368.5765729024761
 30
0.0
 10
46.95745940435457
 20
368.209762849925
 30
0.0
 10
46.95745940435456
 20
367.8389782394429
 30
0.0
 10
46.95745940435456
 20
367.4643600882464
 30
0.0
 10
46.95745940435457
 20
367.086051587702
 30
0.0
 10
46.95745940435457
 20
366.704198169897
 30
0.0
 10
46.95745940435457
 20
366.3189473037779
 30
0.0
 10
46.95745940435457
 20
365.9304483483225
 30
0.0
 10
46.95745940435456
 20
365.5388524489541
 30
0.0
 10
46.95745940435456
 20
365.1466647497704
 30
0.0
 10
46.9574594043546
 20
364.7540929655129
 30
0.0
 10
46.95745940435454
 20
364.3613377175441
 30
0.0
 10
46.95745940435459
 20
363.9661868991711
 30
0.0
 10
46.95745940435456
 20
363.5789220305079
 30
0.0
 10
46.95745940435456
 20
363.1998631245819
 30
0.0
 10
46.95745940435456
 20
362.8292945210891
 30
0.0
 10
46.95745940435456
 20
362.4571774769649
 30
0.0
 10
46.95745940435457
 20
362.0836326577625
 30
0.0
 10
46.95745940435457
 20
361.7110141796286
 30
0.0
 10
46.95745940435457
 20
361.3394668963585
 30
0.0
 10
46.95745940435457
 20
360.9691296666114
 30
0.0
 10
46.95745940435457
 20
360.5978823707044
 30
0.0
 10
46.95745940435457
 20
360.2233101069138
 30
0.0
 10
46.95745940435456
 20
359.8455147854082
 30
0.0
 10
46.95745940435457
 20
359.4646057030399
 30
0.0
 10
46.95745940435454
 20
359.0832422064321
 30
0.0
 10
46.9574594043546
 20
358.7015494091895
 30
0.0
 10
46.95745940435457
 20
358.3196524890325
 30
0.0
 10
46.95745940435459
 20
357.9376766711076
 30
0.0
 10
46.95745940435457
 20
357.5557471559195
 30
0.0
 10
46.95745940435457
 20
357.1739890624575
 30
0.0
 10
46.95745940435456
 20
356.792527365933
 30
0.0
 10
46.95745940435456
 20
356.4114868418828
 30
0.0
 10
46.95745940435457
 20
356.030991990207
 30
0.0
 10
46.95745940435457
 20
355.651167033069
 30
0.0
 10
46.95745940435457
 20
355.2721356375516
 30
0.0
 10
46.9574594043546
 20
354.8814282874584
 30
0.0
 10
46.95745940435453
 20
354.4792830956972
 30
0.0
 10
46.95745940435457
 20
354.0659819449731
 30
0.0
 10
46.95745940435457
 20
353.6542634321416
 30
0.0
 10
46.95745940435456
 20
353.2442886619253
 30
0.0
 10
46.95745940435457
 20
352.8485657274381
 30
0.0
 10
46.95745940435459
 20
352.4670568970324
 30
0.0
 10
46.95745940435457
 20
352.0996917228609
 30
0.0
 10
46.95745940435457
 20
351.7342670750934
 30
0.0
 10
46.95745940435456
 20
351.3709006674428
 30
0.0
 10
46.9574594043546
 20
351.0097095968823
 30
0.0
 10
46.95745940435459
 20
350.6508093165149
 30
0.0
 10
46.95745940435456
 20
350.2824556602048
 30
0.0
 10
46.95745940435454
 20
349.9050401531713
 30
0.0
 10
46.95745940435456
 20
349.5189987425906
 30
0.0
 10
46.95745940435459
 20
349.1362951294706
 30
0.0
 10
46.95745940435457
 20
348.7570715073773
 30
0.0
 10
46.95745940435459
 20
348.3814671267988
 30
0.0
 10
46.95745940435457
 20
348.0096184397821
 30
0.0
 10
46.95745940435457
 20
347.6416589415756
 30
0.0
 10
46.95745940435456
 20
347.2777190799714
 30
0.0
 10
46.95745940435457
 20
346.9179261959671
 30
0.0
 10
46.95745940435457
 20
346.5645128719091
 30
0.0
 10
46.95745940435457
 20
346.2175163883492
 30
0.0
 10
46.95745940435457
 20
345.8769649888391
 30
0.0
 10
46.95745940435456
 20
345.5408690867465
 30
0.0
 10
46.95745940435459
 20
345.2177415447697
 30
0.0
 10
46.95745940435457
 20
344.9073121086229
 30
0.0
 10
46.95745940435457
 20
344.6092970704819
 30
0.0
 10
46.95745940435457
 20
344.3154093517843
 30
0.0
 10
46.95745940435457
 20
344.0257204969752
 30
0.0
 10
46.95745940435457
 20
343.7419904710072
 30
0.0
 10
46.95745940435459
 20
343.464203289377
 30
0.0
 10
46.95745940435454
 20
343.1923372803061
 30
0.0
 10
46.95745940435457
 20
342.9247685500547
 30
0.0
 10
46.95745940435456
 20
342.6449324465669
 30
0.0
 10
46.95745940435454
 20
342.3538251407634
 30
0.0
 10
46.95745940435456
 20
342.0525372446153
 30
0.0
 10
46.95745940435456
 20
341.7576403059409
 30
0.0
 10
46.95745940435457
 20
341.4691970095581
 30
0.0
 10
46.95745940435457
 20
341.1872574699763
 30
0.0
 10
46.95745940435459
 20
340.9118755166562
 30
0.0
 10
46.95745940435457
 20
340.6430509498162
 30
0.0
 10
46.95745940435456
 20
340.3809445547748
 30
0.0
 10
46.95745940435457
 20
340.1250832789627
 30
0.0
 10
46.95745940435456
 20
339.9594558410594
 30
0.0
 10
46.95745940435456
 20
339.8768611689993
 30
0.0
  0
SPLINE
  5
F5
330
1F
100
AcDbEntity
  8
0
  6
Continuous
 62
     7
370
    30
100
AcDbSpline
210
0.0
220
0.0
230
1.0
 70
    24
 71
     3
 72
    33
 73
    29
 74
     0
 42
0.000000001
 43
0.00000001
 40
0.0
 40
0.0
 40
0.0
 40
0.0
 40
0.0097887522123073
 40
0.0523966878914881
 40
0.0923536316805472
 40
0.1320990148187314
 40
0.1716315385439838
 40
0.2109501895902008
 40
0.2500542460114184
 40
0.2912932294326371
 40
0.3322902198687454
 40
0.3730455190791568
 40
0.4135604613802391
 40
0.4538374248843225
 40
0.4938792304549285
 40
0.531420489151754
 40
0.5687586052047514
 40
0.605896937670015
 40
0.6428391639928001
 40
0.6795892797270521
 40
0.7203833954118137
 40
0.76095006732678
 40
0.8012962648455052
 40
0.8414294639473364
 40
0.8813576547787126
 40
0.9210893509821277
 40
0.9606336008062104
 40
1.0
 40
1.0
 40
1.0
 40
1.0
 10
46.95745940435457
 20
339.6899602059527
 30
0.0
 10
46.95745940435456
 20
339.6714761284017
 30
0.0
 10
46.9574594043546
 20
339.5725355871161
 30
0.0
 10
46.95745940435457
 20
339.4032538501673
 30
0.0
 10
46.95745940435457
 20
339.1824677863877
 30
0.0
 10
46.95745940435456
 20
338.9723820894634
 30
0.0
 10
46.95745940435459
 20
338.7680651044425
 30
0.0
 10
46.95745940435456
 20
338.5696309043299
 30
0.0
 10
46.95745940435457
 20
338.3731599908162
 30
0.0
 10
46.95745940435457
 20
338.1790146316518
 30
0.0
 10
46.95745940435453
 20
337.9875499898424
 30
0.0
 10
46.95745940435459
 20
337.8025243163999
 30
0.0
 10
46.95745940435457
 20
337.6238860239198
 30
0.0
 10
46.95745940435459
 20
337.4515782601953
 30
0.0
 10
46.95745940435457
 20
337.2886759056617
 30
0.0
 10
46.95745940435456
 20
337.1347399396521
 30
0.0
 10
46.9574594043546
 20
336.9893403422702
 30
0.0
 10
46.95745940435457
 20
336.849347998606
 30
0.0
 10
46.95745940435457
 20
336.7147057503001
 30
0.0
 10
46.95745940435459
 20
336.5803911404952
 30
0.0
 10
46.95745940435456
 20
336.4470319972019
 30
0.0
 10
46.9574594043546
 20
336.3152805898428
 30
0.0
 10
46.95745940435454
 20
336.1898822004363
 30
0.0
 10
46.95745940435459
 20
336.0707651737112
 30
0.0
 10
46.95745940435457
 20
335.9578116556602
 30
0.0
 10
46.95745940435457
 20
335.8510787815768
 30
0.0
 10
46.95745940435459
 20
335.7499815901158
 30
0.0
 10
46.95745940435456
 20
335.6874069828042
 30
0.0
 10
46.95745940435457
 20
335.6561901951908
 30
0.0
  0
LINE
  5
F6
330
1F
100
AcDbEntity
  8
0
  6
Continuous
 62
     7
370
    30
100
AcDbLine
 10
28.9574594044
 20
380.6008879849
 30
0.0
 11
28.9574594044
 21
336.1398416553
 31
0.0
  0
SPLINE
  5
F7
330
1F
100
AcDbEntity
  8
0
  6
Continuous
 62
     7
370
    30
100
AcDbSpline
210
0.0
220
0.0
230
1.0
 70
    24
 71
     3
 72
    46
 73
    42
 74
     0
 42
0.000000001
 43
0.00000001
 40
0.0
 40
0.0
 40
0.0
 40
0.0
 40
0.025552285653296
 40
0.0517447148257232
 40
0.0785048492199398
 40
0.1057736554117178
 40
0.1335061623590995
 40
0.1616540890391296
 40
0.1885329628512565
 40
0.2157110055557571
 40
0.2431604364554949
 40
0.2708521551462637
 40
0.2987591732015771
 40
0.3268589414823044
 40
0.3551299114520807
 40
0.3835506173035961
 40
0.4121004023892325
 40
0.4407596869827832
 40
0.4689955129073538
 40
0.4973004015775592
 40
0.5256556236875941
 40
0.5540421117496268
 40
0.5781382183716568
 40
0.6022312014472473
 40
0.6263099944044925
 40
0.6503623153821372
 40
0.6743737848201679
 40
0.6983287802206865
 40
0.7208489501618728
 40
0.7432916020106952
 40
0.7656446561999374
 40
0.7878969451675022
 40
0.8100345010860421
 40
0.8345852774354688
 40
0.8589478485628023
 40
0.8830989162889259
 40
0.9070186167729191
 40
0.9306888965511869
 40
0.9540892561991626
 40
0.9771989346077151
 40
1.0
 40
1.0
 40
1.0
 40
1.0
 10
46.95745940435457
 20
335.6561907412908
 30
0.0
 10
46.95745940435457
 20
335.642121918212
 30
0.0
 10
46.95745940435454
 20
335.6136318156816
 30
0.0
 10
46.95745940435462
 20
335.564445860139
 30
0.0
 10
46.95745940435457
 20
335.5105750823435
 30
0.0
 10
46.95745940435457
 20
335.4516665242279
 30
0.0
 10
46.95745940435454
 20
335.3878468204167
 30
0.0
 10
46.9574594043546
 20
335.320286039793
 30
0.0
 10
46.95745940435456
 20
335.2491242123714
 30
0.0
 10
46.95745940435462
 20
335.1744927478679
 30
0.0
 10
46.95745940435453
 20
335.0948365006697
 30
0.0
 10
46.95745940435459
 20
335.0100046607897
 30
0.0
 10
46.9574594043546
 20
334.919871502194
 30
0.0
 10
46.95745940435454
 20
334.8243425122964
 30
0.0
 10
46.95745940435457
 20
334.7233565607992
 30
0.0
 10
46.95745940435456
 20
334.6168899415129
 30
0.0
 10
46.95745940435456
 20
334.504955770372
 30
0.0
 10
46.95745940435453
 20
334.3883039478334
 30
0.0
 10
46.9574594043546
 20
334.2671244734528
 30
0.0
 10
46.95745940435456
 20
334.1416359284589
 30
0.0
 10
46.95745940435457
 20
334.0112571477982
 30
0.0
 10
46.9574594043546
 20
333.8829894932841
 30
0.0
 10
46.95745940435457
 20
333.7577906460467
 30
0.0
 10
46.95745940435459
 20
333.6365151952453
 30
0.0
 10
46.95745940435459
 20
333.5122909207706
 30
0.0
 10
46.95745940435457
 20
333.3852921392758
 30
0.0
 10
46.95745940435459
 20
333.2557164101917
 30
0.0
 10
46.95745940435459
 20
333.1262835544436
 30
0.0
 10
46.95745940435457
 20
332.9973766662609
 30
0.0
 10
46.95745940435457
 20
332.8693544568175
 30
0.0
 10
46.95745940435456
 20
332.739870550073
 30
0.0
 10
46.9574594043546
 20
332.6091535720212
 30
0.0
 10
46.95745940435456
 20
332.4724074026025
 30
0.0
 10
46.95745940435457
 20
332.3297727440592
 30
0.0
 10
46.95745940435456
 20
332.1814868949722
 30
0.0
 10
46.95745940435456
 20
332.0331304571071
 30
0.0
 10
46.95745940435457
 20
331.8851061194069
 30
0.0
 10
46.95745940435456
 20
331.7378092088429
 30
0.0
 10
46.95745940435453
 20
331.5916258465073
 30
0.0
 10
46.9574594043546
 20
331.4469174770958
 30
0.0
 10
46.95745940435459
 20
331.3509725294858
 30
0.0
 10
46.95745940435457
 20
331.3033225276908
 30
0.0
  0
LINE
  5
F8
330
1F
100
AcDbEntity
  8
0
  6
Continuous
 62
     7
370
    30
100
AcDbLine
 10
28.9574594044
 20
336.1398416553
 30
0.0
 11
28.9574594044
 21
331.3033225528
 31
0.0
  0
SPLINE
  5
F9
330
1F
100
AcDbEntity
  8
0
  6
Continuous
 62
     7
370
    30
100
AcDbSpline
210
0.0
220
0.0
230
1.0
 70
     8
 71
     3
 72
    59
 73
    55
 74
     0
 42
0.000000001
 43
0.00000001
 40
0.0
 40
0.0
 40
0.0
 40
0.0
 40
0.0002010815497844
 40
0.0004572922680414
 40
0.0009429374401733
 40
0.0027194580165638
 40
0.0097624304767419
 40
0.0237757084417543
 40
0.0378247623454751
 40
0.0658383732780506
 40
0.0939148468784217
 40
0.1221680859642505
 40
0.1504785012593536
 40
0.176714517069582
 40
0.2029956985561905
 40
0.229413789323189
 40
0.2558778434408188
 40
0.2828688826510656
 40
0.309908887210648
 40
0.3370976383982771
 40
0.36433641415768
 40
0.3905911306105673
 40
0.4168908700776853
 40
0.4433273136117424
 40
0.469809718248923
 40
0.4968191952125944
 40
0.5238776919269577
 40
0.5510851431272851
 40
0.5783427033553811
 40
0.604621507676572
 40
0.6309454575622643
 40
0.6574065046786072
 40
0.683913654374329
 40
0.7109496242789853
 40
0.7380347953261803
 40
0.7652695285291532
 40
0.7925546080588559
 40
0.8433592098743926
 40
0.894494939355354
 40
0.9205863769083996
 40
0.9467243716596403
 40
0.9641692747274986
 40
0.9758795766640947
 40
0.9837386744147331
 40
0.989016486715508
 40
0.992565644017882
 40
0.994957911229531
 40
0.9965761763024095
 40
0.9976769591265301
 40
0.998432150089236
 40
0.9991439652354943
 40
0.9994656370768662
 40
0.9997905028212527
 40
1.0
 40
1.0
 40
1.0
 40
1.0
 10
46.95745932661105
 20
270.0008883599652
 30
0.0
 10
46.95745932173173
 20
270.0009942829147
 30
0.0
 10
46.95745931063536
 20
270.0012351689923
 30
0.0
 10
46.95745916601687
 20
270.0016555529822
 30
0.0
 10
46.9574582441796
 20
270.0024850008629
 30
0.0
 10
46.95744726567052
 20
270.0042093933005
 30
0.0
 10
46.95734028677877
 20
270.0063270481746
 30
0.0
 10
46.95687376860322
 20
270.0084825505694
 30
0.0
 10
46.95548231821879
 20
270.0110028076045
 30
0.0
 10
46.95252850808934
 20
270.0133436335351
 30
0.0
 10
46.94703540454923
 20
270.0155543188637
 30
0.0
 10
46.93957634558674
 20
270.0173798011847
 30
0.0
 10
46.93038103595669
 20
270.0188925653717
 30
0.0
 10
46.91963470135641
 20
270.020168952366
 30
0.0
 10
46.90749317317452
 20
270.021259119665
 30
0.0
 10
46.89368004913707
 20
270.0222171209496
 30
0.0
 10
46.87811015299813
 20
270.0230627316475
 30
0.0
 10
46.86078285916015
 20
270.0238037166831
 30
0.0
 10
46.84166247425534
 20
270.0244473414848
 30
0.0
 10
46.82087042152646
 20
270.0249953881078
 30
0.0
 10
46.79871278656613
 20
270.0254466894132
 30
0.0
 10
46.77531695323367
 20
270.0258081819736
 30
0.0
 10
46.75075402202066
 20
270.0260864185796
 30
0.0
 10
46.72475138847103
 20
270.0262874749479
 30
0.0
 10
46.69717537689009
 20
270.0264128896146
 30
0.0
 10
46.66806789431637
 20
270.0264613180642
 30
0.0
 10
46.63740872553999
 20
270.0264310362888
 30
0.0
 10
46.60541355879069
 20
270.0263207563187
 30
0.0
 10
46.57254752529917
 20
270.026131264783
 30
0.0
 10
46.53895623376381
 20
270.0258643664652
 30
0.0
 10
46.50470133859604
 20
270.0255208033324
 30
0.0
 10
46.46940183204579
 20
270.0250936489827
 30
0.0
 10
46.43288995893599
 20
270.0245752998061
 30
0.0
 10
46.39524571515367
 20
270.0239589431824
 30
0.0
 10
46.35646693831632
 20
270.0232344599116
 30
0.0
 10
46.31683962246002
 20
270.0223955803284
 30
0.0
 10
46.26484738600247
 20
270.0211520186717
 30
0.0
 10
46.1997140017302
 20
270.0193065681989
 30
0.0
 10
46.13388803169245
 20
270.0169290820991
 30
0.0
 10
46.0802441094101
 20
270.0144555962776
 30
0.0
 10
46.04391490657132
 20
270.0124175672334
 30
0.0
 10
46.01503087320344
 20
270.0103766632527
 30
0.0
 10
45.99569739901369
 20
270.0086723915562
 30
0.0
 10
45.98273849978929
 20
270.007254910643
 30
0.0
 10
45.97406059889268
 20
270.0060801692192
 30
0.0
 10
45.96825262509427
 20
270.0051075130427
 30
0.0
 10
45.96436638962065
 20
270.004301328691
 30
0.0
 10
45.96176831011331
 20
270.0036305771984
 30
0.0
 10
45.96003068425222
 20
270.003069472389
 30
0.0
 10
45.95878535946628
 20
270.002557057229
 30
0.0
 10
45.95795176566727
 20
270.0021052688638
 30
0.0
 10
45.95740753801303
 20
270.0016487520409
 30
0.0
 10
45.95711755439054
 20
270.0012801240968
 30
0.0
 10
45.95707986302654
 20
270.0009986945329
 30
0.0
 10
45.95706508611354
 20
270.0008883599698
 30
0.0
  0
LINE
  5
FA
330
1F
100
AcDbEntity
  8
0
  6
Continuous
 62
     7
370
    30
100
AcDbLine
 10
46.9574594044
 20
331.3033222893
 30
0.0
 11
46.9574594044
 21
270.0008882349
 31
0.0
  0
LINE
  5
FB
330
1F
100
AcDbEntity
  8
0
  6
Continuous
 62
     7
370
    30
100
AcDbLine
 10
45.9574594044
 20
269.0011506061
 30
0.0
 11
45.9574594044
 21
269.0008879849
 31
0.0
  0
LINE
  5
FC
330
1F
100
AcDbEntity
  8
0
  6
Continuous
 62
     7
370
    30
100
AcDbLine
 10
45.9574594044
 20
269.0008879849
 30
0.0
 11
29.9574594044
 21
269.0008879849
 31
0.0
  0
ARC
  5
FD
330
1F
100
AcDbEntity
  8
0
  6
Continuous
 62
     7
370
    30
100
AcDbCircle
 10
45.9574594044
 20
270.0008879849
 30
0.0
 40
1.000000000000031
100
AcDbArc
 50
270.0
 51
0.0000143241
  0
ARC
  5
FE
330
1F
100
AcDbEntity
  8
0
  6
Continuous
 62
     7
370
    30
100
AcDbCircle
 10
29.9574594044
 20
270.0008879849
 30
0.0
 40
1.0
100
AcDbArc
 50
180.0
 51
270.0
  0
LINE
  5
FF
330
1F
100
AcDbEntity
  8
0
  6
Continuous
 62
     7
370
    30
100
AcDbLine
 10
28.9574594044
 20
331.3033225528
 30
0.0
 11
28.9574594044
 21
270.0008879849
 31
0.0
  0
LINE
  5
100
330
1F
100
AcDbEntity
  8
0
  6
Continuous
 62
     7
370
    30
100
AcDbLine
 10
51.2538696122
 20
360.5008879849
 30
0.0
 11
51.2149493262
 21
360.5008879849
 31
0.0
  0
LINE
  5
101
330
1F
100
AcDbEntity
  8
0
  6
Continuous
 62
     7
370
    30
100
AcDbLine
 10
51.2538696122
 20
355.5008879849
 30
0.0
 11
51.2149493262
 21
355.5008879849
 31
0.0
  0
LINE
  5
102
330
1F
100
AcDbEntity
  8
0
  6
Continuous
 62
     7
370
    30
100
AcDbLine
 10
93.9230294044
 20
334.8008879849
 30
0.0
 11
93.9230294044
 21
381.2008879849
 31
0.0
  0
ARC
  5
103
330
1F
100
AcDbEntity
  8
0
  6
Continuous
 62
     7
370
    30
100
AcDbCircle
 10
245.0
 20
4207.3299569749
 30
0.0
 40
4000.0
100
AcDbArc
 50
269.2277090722
 51
269.6132505514
  0
ARC
  5
104
330
1F
100
AcDbEntity
  8
0
  6
Continuous
 62
     7
370
    30
100
AcDbCircle
 10
245.0
 20
4207.3299569749
 30
0.0
 40
4000.0
100
AcDbArc
 50
270.3867494486
 51
270.7722909278
  0
ARC
  5
105
330
1F
100
AcDbEntity
  8
0
  6
Continuous
 62
     7
370
    30
100
AcDbCircle
 10
191.0990333208
 20
208.6932285647
 30
0.0
 40
1.000000000000019
100
AcDbArc
 50
180.9999999995
 51
269.227709072
  0
ARC
  5
106
330
1F
100
AcDbEntity
  8
0
  6
Continuous
 62
     7
370
    30
100
AcDbCircle
 10
298.9009666792
 20
208.6932285647
 30
0.0
 40
1.000000000000046
100
AcDbArc
 50
270.7722909276
 51
359.0000000005
  0
LINE
  5
107
330
1F
100
AcDbEntity
  8
0
  6
Continuous
 62
     7
370
    30
100
AcDbLine
 10
222.0
 20
202.9230294044
 30
0.0
 11
222.0
 21
157.1574594044
 31
0.0
  0
LINE
  5
108
330
1F
100
AcDbEntity
  8
0
  6
Continuous
 62
     7
370
    30
100
AcDbLine
 10
268.0
 20
157.1574594044
 30
0.0
 11
268.0
 21
202.9230294044
 31
0.0
  0
LINE
  5
109
330
1F
100
AcDbEntity
  8
0
  6
Continuous
 62
     7
370
    30
100
AcDbLine
 10
221.4
 20
155.4574594044
 30
0.0
 11
221.4
 21
138.9574594044
 31
0.0
  0
LINE
  5
10A
330
1F
100
AcDbEntity
  8
0
  6
Continuous
 62
     7
370
    30
100
AcDbLine
 10
268.6
 20
138.9574594044
 30
0.0
 11
268.6
 21
155.4574594002
 31
0.0
  0
SPLINE
  5
10B
330
1F
100
AcDbEntity
  8
0
  6
Continuous
 62
     7
370
    30
100
AcDbSpline
210
0.0
220
0.0
230
1.0
 70
     8
 71
     3
 72
    43
 73
    39
 74
     0
 42
0.000000001
 43
0.00000001
 40
0.0
 40
0.0
 40
0.0
 40
0.0
 40
0.0396670354821538
 40
0.077236424132017
 40
0.1127083108103084
 40
0.1460840744854642
 40
0.1873206738429339
 40
0.2248370557925334
 40
0.2586339890283931
 40
0.2887117516382429
 40
0.3150708785986236
 40
0.3389210308203231
 40
0.36309526214718
 40
0.3877109772517441
 40
0.4127681128346958
 40
0.4511750197504767
 40
0.4905745849733751
 40
0.5295269549090753
 40
0.5660906945086266
 40
0.6002565584490499
 40
0.6321098646814144
 40
0.6472617396615966
 40
0.6546455775066308
 40
0.6582894328756841
 40
0.6601091819125653
 40
0.6606540767280239
 40
0.6616859984702758
 40
0.6630323888152149
 40
0.6683346980828339
 40
0.6762654269897822
 40
0.6931976494232883
 40
0.7162260451891014
 40
0.745372285988811
 40
0.7806449597386648
 40
0.8250251658572256
 40
0.87637939830837
 40
0.9347055425613902
 40
1.0
 40
1.0
 40
1.0
 40
1.0
 10
268.5999999201457
 20
155.4574594043543
 30
0.0
 10
268.5996362909553
 20
155.4719735431443
 30
0.0
 10
268.598928261781
 20
155.5002342933081
 30
0.0
 10
268.5934396030891
 20
155.5411741568062
 30
0.0
 10
268.5854056737334
 20
155.5793042099804
 30
0.0
 10
268.5740700245507
 20
155.6180014631819
 30
0.0
 10
268.5593356098415
 20
155.6563692935269
 30
0.0
 10
268.5412667274897
 20
155.6934551796833
 30
0.0
 10
268.5224247101071
 20
155.7254914986198
 30
0.0
 10
268.5036978667113
 20
155.752761276173
 30
0.0
 10
268.4855629192538
 20
155.7759521256898
 30
0.0
 10
268.4676006075186
 20
155.7964848607548
 30
0.0
 10
268.4490268377508
 20
155.8155864268989
 30
0.0
 10
268.4291305740564
 20
155.8339698922083
 30
0.0
 10
268.4042404877309
 20
155.8545720810442
 30
0.0
 10
268.373542575017
 20
155.8765699966241
 30
0.0
 10
268.3366916802726
 20
155.8984738000907
 30
0.0
 10
268.2987020784182
 20
155.9168301562132
 30
0.0
 10
268.2611142990957
 20
155.9312758890565
 30
0.0
 10
268.2250323090089
 20
155.9420045953032
 30
0.0
 10
268.1959036156149
 20
155.9483976627478
 30
0.0
 10
268.1762728603845
 20
155.9516546899713
 30
0.0
 10
268.1666993835747
 20
155.9529971107668
 30
0.0
 10
268.1621171265954
 20
155.9535844220074
 30
0.0
 10
268.1598096047013
 20
155.9538653072526
 30
0.0
 10
268.1587388198132
 20
155.9539930439175
 30
0.0
 10
268.1580187119051
 20
155.9540779626709
 30
0.0
 10
268.1565178778824
 20
155.9542525633124
 30
0.0
 10
268.1546254449498
 20
155.9544652576817
 30
0.0
 10
268.1516220760579
 20
155.9547897524432
 30
0.0
 10
268.1480274133849
 20
155.9551513124562
 30
0.0
 10
268.1436859946875
 20
155.9555510412429
 30
0.0
 10
268.1388955961508
 20
155.955944217956
 30
0.0
 10
268.1334674864468
 20
155.9563316887235
 30
0.0
 10
268.1273802558949
 20
155.9566936166605
 30
0.0
 10
268.1205692581497
 20
155.9570097234522
 30
0.0
 10
268.113078450582
 20
155.9572641425766
 30
0.0
 10
268.1078954980456
 20
155.9573527980842
 30
0.0
 10
268.1051579440362
 20
155.957399624529
 30
0.0
  0
SPLINE
  5
10C
330
1F
100
AcDbEntity
  8
0
  6
Continuous
 62
     7
370
    30
100
AcDbSpline
210
0.0
220
0.0
230
1.0
 70
     8
 71
     3
 72
    46
 73
    42
 74
     0
 42
0.000000001
 43
0.00000001
 40
0.0
 40
0.0
 40
0.0
 40
0.0
 40
0.0301665745606617
 40
0.0595509241454108
 40
0.0881442325220015
 40
0.115938246511929
 40
0.1429252424273133
 40
0.1690979947805214
 40
0.1923686280199569
 40
0.2149445100170461
 40
0.2368210590168818
 40
0.2579939732924271
 40
0.2784592166778591
 40
0.2982130050145241
 40
0.3172517934601636
 40
0.3356233396944371
 40
0.353860205992514
 40
0.3721043275403139
 40
0.3903553092612107
 40
0.4086127615408551
 40
0.4516712874443379
 40
0.4947587234117817
 40
0.5413153237741211
 40
0.5878942970854512
 40
0.6344900495637252
 40
0.6527990843265553
 40
0.671462791824915
 40
0.6908381822067476
 40
0.7109266614108921
 40
0.7317296198594978
 40
0.753248428985855
 40
0.7754844362228759
 40
0.7984389599799244
 40
0.822113284624112
 40
0.8465086554818808
 40
0.8716262738763737
 40
0.8974672922159344
 40
0.9224952537868534
 40
0.9481681543409443
 40
0.9744868175076818
 40
0.9999999999999999
 40
0.9999999999999999
 40
0.9999999999999999
 40
0.9999999999999999
 10
227.9390364793174
 20
155.9574565425523
 30
0.0
 10
227.886735050493
 20
155.9574542582727
 30
0.0
 10
227.7834883787719
 20
155.9574497489452
 30
0.0
 10
227.632846722669
 20
155.9574378834446
 30
0.0
 10
227.4877883462135
 20
155.9574237301115
 30
0.0
 10
227.3483906147071
 20
155.9574078560883
 30
0.0
 10
227.2145363956705
 20
155.9573912655848
 30
0.0
 10
227.0895582798157
 20
155.9573751702092
 30
0.0
 10
226.9730304767833
 20
155.95736023346
 30
0.0
 10
226.8645458323878
 20
155.957346877593
 30
0.0
 10
226.7604595909345
 20
155.9573350515625
 30
0.0
 10
226.6607063375228
 20
155.9573251006227
 30
0.0
 10
226.5652199898453
 20
155.9573172876414
 30
0.0
 10
226.4739365009928
 20
155.9573118653713
 30
0.0
 10
226.3867077001985
 20
155.957308817618
 30
0.0
 10
226.3026030590158
 20
155.9573087778412
 30
0.0
 10
226.2203923045778
 20
155.9573087883464
 30
0.0
 10
226.1390520452649
 20
155.9573087855769
 30
0.0
 10
226.0583750234545
 20
155.9573087863727
 30
0.0
 10
225.9421473824448
 20
155.9573087860365
 30
0.0
 10
225.7918795240544
 20
155.9573087872587
 30
0.0
 10
225.6049234141616
 20
155.9573087827504
 30
0.0
 10
225.417366094251
 20
155.9573088007006
 30
0.0
 10
225.2296667389666
 20
155.9573087326937
 30
0.0
 10
225.0837002203952
 20
155.9573089349711
 30
0.0
 10
224.9762594445174
 20
155.9573085868284
 30
0.0
 10
224.904625774853
 20
155.9573095820966
 30
0.0
 10
224.831645551754
 20
155.9573133347654
 30
0.0
 10
224.7569412295227
 20
155.9573193099769
 30
0.0
 10
224.6806121944143
 20
155.9573274869253
 30
0.0
 10
224.6027564942989
 20
155.9573376214935
 30
0.0
 10
224.5234783602175
 20
155.9573494566618
 30
0.0
 10
224.4428862110161
 20
155.9573626630298
 30
0.0
 10
224.3610932423376
 20
155.9573768557418
 30
0.0
 10
224.2782176740821
 20
155.9573915890834
 30
0.0
 10
224.1943815641995
 20
155.957406360478
 30
0.0
 10
224.1113951612696
 20
155.9574203173007
 30
0.0
 10
224.0293539468051
 20
155.9574329511291
 30
0.0
 10
223.9484039790316
 20
155.9574436805872
 30
0.0
 10
223.8684274134556
 20
155.957452317486
 30
0.0
 10
223.8163595866317
 20
155.9574554959329
 30
0.0
 10
223.790730247162
 20
155.9574570604594
 30
0.0
  0
SPLINE
  5
10D
330
1F
100
AcDbEntity
  8
0
  6
Continuous
 62
     7
370
    30
100
AcDbSpline
210
0.0
220
0.0
230
1.0
 70
     8
 71
     3
 72
    90
 73
    86
 74
     0
 42
0.000000001
 43
0.00000001
 40
0.0
 40
0.0
 40
0.0
 40
0.0
 40
0.0027654914614127
 40
0.0174647390937724
 40
0.0319234192453279
 40
0.0461473929614222
 40
0.0601412443776308
 40
0.0739083795420967
 40
0.087451121269774
 40
0.1020904858512502
 40
0.1164604408906033
 40
0.1305603165179787
 40
0.1444655177422747
 40
0.1582765509459493
 40
0.1786574857919699
 40
0.1988347512284216
 40
0.2188068981229229
 40
0.2385699196004905
 40
0.258117521083467
 40
0.2774413798468475
 40
0.2937834773770195
 40
0.3099473185576159
 40
0.3259192320167667
 40
0.3415586661837748
 40
0.3567963795365502
 40
0.3684766316571725
 40
0.3798911669006284
 40
0.3910321707597329
 40
0.4018918710510252
 40
0.4124625713366432
 40
0.4227366813450234
 40
0.4327067444998897
 40
0.4423654626771296
 40
0.4517057183182911
 40
0.4607205940374097
 40
0.4664437037805535
 40
0.4720226140847147
 40
0.477455542053399
 40
0.4827407505950355
 40
0.4879357051580205
 40
0.4933113055195057
 40
0.5001575695489369
 40
0.5073288849792842
 40
0.5148291797704101
 40
0.5226625205072696
 40
0.5308331072411752
 40
0.5391902441997293
 40
0.5478810763816153
 40
0.5569099199585368
 40
0.5662811860172153
 40
0.5762013437592505
 40
0.5864875795622714
 40
0.5971447942808195
 40
0.6081482868953698
 40
0.6191330060009947
 40
0.6299860180755225
 40
0.6407036420471068
 40
0.6554740320834835
 40
0.6699625451015179
 40
0.6841600461579486
 40
0.6980577731153524
 40
0.7116473325768763
 40
0.724686898471146
 40
0.7375999343071095
 40
0.7505363092316097
 40
0.7634943397923976
 40
0.7855284059378579
 40
0.8076118783384052
 40
0.8297367029251587
 40
0.8384382492200826
 40
0.8471444674380623
 40
0.8558554118987073
 40
0.8647835664725797
 40
0.874104749750491
 40
0.8838219191701494
 40
0.893938067136081
 40
0.9044562110777383
 40
0.915379382851646
 40
0.9267106174436128
 40
0.9384529409189915
 40
0.9506093575599209
 40
0.9624530702905079
 40
0.9746699912117657
 40
0.987262516733498
 40
1.0
 40
1.0
 40
1.0
 40
1.0
 10
244.1386949306404
 20
155.9573146351318
 30
0.0
 10
244.1232370307375
 20
155.9573049753969
 30
0.0
 10
244.0256167008581
 20
155.9572439718645
 30
0.0
 10
243.8471214980407
 20
155.9568491254356
 30
0.0
 10
243.6046064715268
 20
155.9562651404457
 30
0.0
 10
243.3661216937301
 20
155.9556127901909
 30
0.0
 10
243.1316619381765
 20
155.9550112786202
 30
0.0
 10
242.9012294420345
 20
155.9545182817637
 30
0.0
 10
242.6674910131326
 20
155.9541731521355
 30
0.0
 10
242.4307842654559
 20
155.9540306197919
 30
0.0
 10
242.1914708598288
 20
155.9541210755867
 30
0.0
 10
241.9568520579157
 20
155.9544755636954
 30
0.0
 10
241.7258667390854
 20
155.9549291719878
 30
0.0
 10
241.4604981029819
 20
155.9553370783661
 30
0.0
 10
241.1610986276876
 20
155.9557314614558
 30
0.0
 10
240.8285544202555
 20
155.956072940456
 30
0.0
 10
240.5002331461226
 20
155.9563357843112
 30
0.0
 10
240.1762214871715
 20
155.9565324083224
 30
0.0
 10
239.8566413347198
 20
155.9566750389161
 30
0.0
 10
239.5565757963165
 20
155.9567683853638
 30
0.0
 10
239.2756820384958
 20
155.9568249969043
 30
0.0
 10
239.013650198534
 20
155.9568547076562
 30
0.0
 10
238.7560931039975
 20
155.9568579860865
 30
0.0
 10
238.5043026923973
 20
155.9568540731337
 30
0.0
 10
238.2763063001844
 20
155.9568467378677
 30
0.0
 10
238.0715317734343
 20
155.9568361564988
 30
0.0
 10
237.8891029366867
 20
155.9568235240494
 30
0.0
 10
237.7114951108594
 20
155.9568078038202
 30
0.0
 10
237.5388073202301
 20
155.9567888984643
 30
0.0
 10
237.3711353335961
 20
155.9567666779935
 30
0.0
 10
237.2085713579198
 20
155.956740995658
 30
0.0
 10
237.0512037659646
 20
155.956711683768
 30
0.0
 10
236.8991168784007
 20
155.956678555251
 30
0.0
 10
236.7523908359187
 20
155.9566414017714
 30
0.0
 10
236.6265675282597
 20
155.9566045317911
 30
0.0
 10
236.5205967108658
 20
155.9565695016369
 30
0.0
 10
236.4334336255206
 20
155.956537903425
 30
0.0
 10
236.3486693724053
 20
155.9565041827137
 30
0.0
 10
236.2660150569121
 20
155.9564682938966
 30
0.0
 10
236.1837646744602
 20
155.9564286653546
 30
0.0
 10
236.0936291845941
 20
155.956397006242
 30
0.0
 10
235.9935161810951
 20
155.9563730869446
 30
0.0
 10
235.8827524721906
 20
155.9563603350256
 30
0.0
 10
235.7672480603057
 20
155.9563601568259
 30
0.0
 10
235.6469822348585
 20
155.9563726247942
 30
0.0
 10
235.5227257225256
 20
155.9563973490849
 30
0.0
 10
235.3945138577915
 20
155.9564336526849
 30
0.0
 10
235.2623834745901
 20
155.9564806991911
 30
0.0
 10
235.1255946272603
 20
155.9565378751391
 30
0.0
 10
234.9831207016697
 20
155.9566046453388
 30
0.0
 10
234.8348943191912
 20
155.9566799187705
 30
0.0
 10
234.6808551704524
 20
155.9567624799461
 30
0.0
 10
234.5220850570478
 20
155.9568494466456
 30
0.0
 10
234.3605878265414
 20
155.9569400403686
 30
0.0
 10
234.1987485732418
 20
155.9570179534203
 30
0.0
 10
234.0389353306362
 20
155.9570833448098
 30
0.0
 10
233.8612265677351
 20
155.9571446734764
 30
0.0
 10
233.6666404898743
 20
155.9571985777098
 30
0.0
 10
233.456251758838
 20
155.9572427348573
 30
0.0
 10
233.2511884381425
 20
155.9572741368486
 30
0.0
 10
233.0515135624092
 20
155.9572948281007
 30
0.0
 10
232.8584071751772
 20
155.9573067150315
 30
0.0
 10
232.6709278248919
 20
155.9573093251217
 30
0.0
 10
232.4875646742639
 20
155.9573086420313
 30
0.0
 10
232.3057049586111
 20
155.9573088241606
 30
0.0
 10
232.0824773633809
 20
155.9573087675824
 30
0.0
 10
231.8188996413536
 20
155.9573087938223
 30
0.0
 10
231.5163666044632
 20
155.9573087788801
 30
0.0
 10
231.277488396069
 20
155.9573088025502
 30
0.0
 10
231.1004805757392
 20
155.9573087648997
 30
0.0
 10
230.9840908291734
 20
155.9573088686383
 30
0.0
 10
230.8672431509188
 20
155.9573084750041
 30
0.0
 10
230.7483061000394
 20
155.9573100301608
 30
0.0
 10
230.6256560373155
 20
155.9573150643919
 30
0.0
 10
230.4985699341253
 20
155.9573229617824
 30
0.0
 10
230.3671080586037
 20
155.9573335980277
 30
0.0
 10
230.2313323128821
 20
155.9573465764184
 30
0.0
 10
230.0913120861222
 20
155.9573614487914
 30
0.0
 10
229.9471233504177
 20
155.9573776519088
 30
0.0
 10
229.7988485935926
 20
155.9573945282962
 30
0.0
 10
229.6496275580084
 20
155.9574109736563
 30
0.0
 10
229.4996548725814
 20
155.9574262371124
 30
0.0
 10
229.3491652855968
 20
155.9574394817837
 30
0.0
 10
229.1962422556157
 20
155.9574504498561
 30
0.0
 10
229.0942734729635
 20
155.9574545688439
 30
0.0
 10
229.0429973098323
 20
155.9574566401239
 30
0.0
  0
SPLINE
  5
10E
330
1F
100
AcDbEntity
  8
0
  6
Continuous
 62
     7
370
    30
100
AcDbSpline
210
0.0
220
0.0
230
1.0
 70
     8
 71
     3
 72
    44
 73
    40
 74
     0
 42
0.000000001
 43
0.00000001
 40
0.0
 40
0.0
 40
0.0
 40
0.0
 40
0.0615825957162046
 40
0.1176504753604598
 40
0.1682007439070559
 40
0.2132309896385321
 40
0.2527393864869387
 40
0.2867248902000945
 40
0.315187636271261
 40
0.335563856818327
 40
0.3517174389711685
 40
0.3636582782107278
 40
0.371414449993124
 40
0.3737561438238484
 40
0.374562746017797
 40
0.3751510587014233
 40
0.3753801823472648
 40
0.3767885067936053
 40
0.3778977249960156
 40
0.3798895726595128
 40
0.4063070081407627
 40
0.4345122675497222
 40
0.4638608703395656
 40
0.5042922904083409
 40
0.5442591949940473
 40
0.5835324933569589
 40
0.6029156074221512
 40
0.6230910329691731
 40
0.6463659796480187
 40
0.6728426086621878
 40
0.7025219847618659
 40
0.7354042083096296
 40
0.7714887545443271
 40
0.81077503888052
 40
0.8532632630384164
 40
0.887238957437875
 40
0.923019425630791
 40
0.9606063327229714
 40
1.0
 40
1.0
 40
1.0
 40
1.0
 10
221.9043740162174
 20
155.9574594043543
 30
0.0
 10
221.9022217337355
 20
155.9574545371753
 30
0.0
 10
221.8981099054803
 20
155.9574452386729
 30
0.0
 10
221.8922634402562
 20
155.9573699428475
 30
0.0
 10
221.8869498362843
 20
155.9572585033805
 30
0.0
 10
221.8821241734208
 20
155.9571146895594
 30
0.0
 10
221.8777418174994
 20
155.956946618988
 30
0.0
 10
221.8737640781634
 20
155.9567608137089
 30
0.0
 10
221.8702727413659
 20
155.9565701199567
 30
0.0
 10
221.8672174541567
 20
155.956381474744
 30
0.0
 10
221.8646157848904
 20
155.9562055204646
 30
0.0
 10
221.8622534054492
 20
155.9560325914686
 30
0.0
 10
221.860374964999
 20
155.9558867892794
 30
0.0
 10
221.8589054361132
 20
155.9557668672363
 30
0.0
 10
221.8581667329179
 20
155.9557051808485
 30
0.0
 10
221.857742876733
 20
155.9556693711006
 30
0.0
 10
221.8569684714118
 20
155.9556032838503
 30
0.0
 10
221.8558100093409
 20
155.955502256665
 30
0.0
 10
221.8540559481638
 20
155.9553436587632
 30
0.0
 10
221.8423625986325
 20
155.9542440736521
 30
0.0
 10
221.8201533452663
 20
155.9513915636274
 30
0.0
 10
221.7874477478408
 20
155.9450114487439
 30
0.0
 10
221.7499193865107
 20
155.9349739178977
 30
0.0
 10
221.7089199035337
 20
155.9202652906984
 30
0.0
 10
221.6659697327885
 20
155.9000363081265
 30
0.0
 10
221.6323024461735
 20
155.8801134219226
 30
0.0
 10
221.6066067415411
 20
155.8623861785123
 30
0.0
 10
221.5868090885109
 20
155.8473118261412
 30
0.0
 10
221.5656535686527
 20
155.8294108003398
 30
0.0
 10
221.5428556404036
 20
155.8076889891061
 30
0.0
 10
221.5189691173331
 20
155.7816863164996
 30
0.0
 10
221.4947069011306
 20
155.7509884151168
 30
0.0
 10
221.4709192231365
 20
155.7152288699078
 30
0.0
 10
221.4485987466893
 20
155.6741284444893
 30
0.0
 10
221.4307019462078
 20
155.6318106845036
 30
0.0
 10
221.4171416516308
 20
155.5893989842082
 30
0.0
 10
221.4076563103431
 20
155.547896379932
 30
0.0
 10
221.4012445641839
 20
155.5035863093878
 30
0.0
 10
221.4004216427403
 20
155.4730737527161
 30
0.0
 10
221.4000005248959
 20
155.4574594043543
 30
0.0
  0
ARC
  5
10F
330
1F
100
AcDbEntity
  8
0
  6
Continuous
 62
     7
370
    30
100
AcDbCircle
 10
222.4
 20
138.9574594044
 30
0.0
 40
1.0
100
AcDbArc
 50
180.0
 51
270.0
  0
ARC
  5
110
330
1F
100
AcDbEntity
  8
0
  6
Continuous
 62
     7
370
    30
100
AcDbCircle
 10
267.6
 20
138.9574594044
 30
0.0
 40
1.0
100
AcDbArc
 50
270.0
 51
0.0
  0
ARC
  5
111
330
1F
100
AcDbEntity
  8
0
  6
Continuous
 62
     7
370
    30
100
AcDbCircle
 10
222.0732143553
 20
157.0574594044
 30
0.0
 40
0.0999999999999943
100
AcDbArc
 50
90.0
 51
200.0117664589
  0
ARC
  5
112
330
1F
100
AcDbEntity
  8
0
  6
Continuous
 62
     7
370
    30
100
AcDbCircle
 10
267.9267856447
 20
157.0574594044
 30
0.0
 40
0.0999999999999943
100
AcDbArc
 50
339.9882335411
 51
89.9999999999
  0
ARC
  5
113
330
1F
100
AcDbEntity
  8
0
  6
Continuous
 62
     7
370
    30
100
AcDbCircle
 10
245.0
 20
165.4074594044
 30
0.0
 40
24.5000000000045
100
AcDbArc
 50
200.0117664665
 51
202.6883023215
  0
ARC
  5
114
330
1F
100
AcDbEntity
  8
0
  6
Continuous
 62
     7
370
    30
100
AcDbCircle
 10
245.0
 20
165.4074594044
 30
0.0
 40
24.50000000000444
100
AcDbArc
 50
337.3112141722
 51
339.9882335335
  0
LINE
  5
115
330
1F
100
AcDbEntity
  8
0
  6
Continuous
 62
     7
370
    30
100
AcDbLine
 10
272.0
 20
205.4648065311
 30
0.0
 11
272.0
 21
207.4210830129
 31
0.0
  0
LINE
  5
116
330
1F
100
AcDbEntity
  8
0
  6
Continuous
 62
     7
370
    30
100
AcDbLine
 10
218.0
 20
207.4210830129
 30
0.0
 11
218.0
 21
205.4648065311
 31
0.0
  0
ARC
  5
117
330
1F
100
AcDbEntity
  8
0
  6
Continuous
 62
     7
370
    30
100
AcDbCircle
 10
270.0
 20
205.4648065311
 30
0.0
 40
2.0
100
AcDbArc
 50
284.7435628365
 51
0.0
  0
ARC
  5
118
330
1F
100
AcDbEntity
  8
0
  6
Continuous
 62
     7
370
    30
100
AcDbCircle
 10
220.0
 20
205.4648065311
 30
0.0
 40
2.000000000000002
100
AcDbArc
 50
180.0
 51
255.2564371635
  0
LINE
  5
119
330
1F
100
AcDbEntity
  8
0
  6
Continuous
 62
     7
370
    30
100
AcDbLine
 10
219.4910134014
 20
203.5306574566
 30
0.0
 11
221.7999999859
 21
202.9230294044
 31
0.0
  0
LINE
  5
11A
330
1F
100
AcDbEntity
  8
0
  6
Continuous
 62
     7
370
    30
100
AcDbLine
 10
268.2000000141
 20
202.9230294044
 30
0.0
 11
270.5089865986
 21
203.5306574566
 31
0.0
  0
CIRCLE
  5
11B
330
1F
100
AcDbEntity
  8
0
  6
Continuous
 62
     7
370
    30
100
AcDbCircle
 10
245.0
 20
146.9574594045
 30
0.0
 40
2.907680962079979
  0
LINE
  5
11C
330
1F
100
AcDbEntity
  8
0
  6
Continuous
 62
     7
370
    30
100
AcDbLine
 10
299.908414301
 20
209.1111756648
 30
0.0
 11
299.9982240302
 21
214.2563716033
 31
0.0
  0
LINE
  5
11D
330
1F
100
AcDbEntity
  8
0
  6
Continuous
 62
     7
370
    30
100
AcDbLine
 10
190.091585699
 20
209.1111756648
 30
0.0
 11
190.0017759698
 21
214.2563716033
 31
0.0
  0
LINE
  5
11E
330
1F
100
AcDbEntity
  8
0
  6
Continuous
 62
     7
370
    30
100
AcDbLine
 10
190.1017607393
 20
214.358116844
 30
0.0
 11
196.0
 21
214.358116844
 31
0.0
  0
ARC
  5
11F
330
1F
100
AcDbEntity
  8
0
  6
Continuous
 62
     7
370
    30
100
AcDbCircle
 10
190.1017607393
 20
214.258116844
 30
0.0
 40
0.1000000000000227
100
AcDbArc
 50
90.0
 51
181.0
  0
LINE
  5
120
330
1F
100
AcDbEntity
  8
0
  6
Continuous
 62
     7
370
    30
100
AcDbLine
 10
294.0
 20
214.358116844
 30
0.0
 11
299.8982392607
 21
214.358116844
 31
0.0
  0
ARC
  5
121
330
1F
100
AcDbEntity
  8
0
  6
Continuous
 62
     7
370
    30
100
AcDbCircle
 10
299.8982392607
 20
214.258116844
 30
0.0
 40
0.0999999999999943
100
AcDbArc
 50
359.0
 51
90.0
  0
LINE
  5
122
330
1F
100
AcDbEntity
  8
0
  6
Continuous
 62
     7
370
    30
100
AcDbLine
 10
196.0
 20
214.358116844
 30
0.0
 11
294.0
 21
214.358116844
 31
0.0
  0
LINE
  5
123
330
1F
100
AcDbEntity
  8
0
  6
Continuous
 62
     7
370
    30
100
AcDbLine
 10
190.0991856251
 20
208.6757761852
 30
0.0
 11
190.091585699
 21
209.1111756648
 31
0.0
  0
LINE
  5
124
330
1F
100
AcDbEntity
  8
0
  6
Continuous
 62
     7
370
    30
100
AcDbLine
 10
299.908414301
 20
209.1111756648
 30
0.0
 11
299.9008143749
 21
208.6757761851
 31
0.0
  0
LINE
  5
125
330
1F
100
AcDbEntity
  8
0
  6
Continuous
 62
     7
370
    30
100
AcDbLine
 10
222.0
 20
157.1574594044
 30
0.0
 11
268.0
 21
157.1574594044
 31
0.0
  0
SPLINE
  5
126
330
1F
100
AcDbEntity
  8
0
  6
Continuous
 62
     7
370
    30
100
AcDbSpline
210
0.0
220
0.0
230
1.0
 70
    11
 71
     3
 72
   171
 73
   167
 74
     0
 42
0.000000001
 43
0.00000001
 40
0.0
 40
0.0
 40
0.0
 40
0.0
 40
0.0060269311722492
 40
0.0120560293761438
 40
0.0180829509223652
 40
0.025576154307109
 40
0.0330693511241763
 40
0.0398194186595177
 40
0.0465694824663974
 40
0.0533594099466752
 40
0.0595511914715571
 40
0.0657477529180969
 40
0.0719443085239074
 40
0.0781360820780095
 40
0.0848447895451813
 40
0.0915565401014672
 40
0.0982652508383256
 40
0.1024982752028641
 40
0.106731299942992
 40
0.1129036106698119
 40
0.1190806364923892
 40
0.1252576765156269
 40
0.1314300066217678
 40
0.1381161103191762
 40
0.1448051957513657
 40
0.1514913143136929
 40
0.1557093589756184
 40
0.1599274042740896
 40
0.166128133107946
 40
0.1723335678778304
 40
0.1785390151474021
 40
0.1847397610392169
 40
0.1914560696941153
 40
0.1981753571692181
 40
0.2048916695927227
 40
0.2091286216060012
 40
0.2133655735461865
 40
0.2199975115612061
 40
0.2266323150962493
 40
0.2332642466725985
 40
0.2399903504439597
 40
0.246716450820784
 40
0.2535248710039722
 40
0.2603332868252404
 40
0.267182165161567
 40
0.2737977889649463
 40
0.2799077083088078
 40
0.2860199028192462
 40
0.2921298123452414
 40
0.298885658112406
 40
0.3056445975669917
 40
0.3124004331788353
 40
0.3166636554485641
 40
0.3209268774851404
 40
0.327113390692775
 40
0.3333046776744611
 40
0.339495966333565
 40
0.3456824818303528
 40
0.3523852719117684
 40
0.3590910936807858
 40
0.3657938932789119
 40
0.3700230412275404
 40
0.3742521897752091
 40
0.3804271657848319
 40
0.3866068391353005
 40
0.3927865296269353
 40
0.3989615290286442
 40
0.4056500415326737
 40
0.4123415218117485
 40
0.4190300479721782
 40
0.4232494258568857
 40
0.427468804219241
 40
0.4336862805177626
 40
0.4399084846489305
 40
0.4461306948965041
 40
0.4523481795419195
 40
0.4590829836867204
 40
0.465820787486577
 40
0.4725555884939183
 40
0.4768044092328341
 40
0.4810532295993279
 40
0.4873680031788512
 40
0.4936852571938029
 40
0.5000000214535029
 40
0.506191115507088
 40
0.5123869224768838
 40
0.5185827124522315
 40
0.524773783313917
 40
0.5314805578516512
 40
0.5381903435646204
 40
0.5448971045121176
 40
0.5491285861455516
 40
0.5533600673036033
 40
0.5595518488284763
 40
0.5657484102750077
 40
0.5719449658808092
 40
0.5781367394349031
 40
0.5848454469020657
 40
0.5915571974583423
 40
0.5982659081951919
 40
0.6024989325597238
 40
0.6067319572998466
 40
0.612904268026657
 40
0.6190812938492246
 40
0.6252583338724523
 40
0.631430663978584
 40
0.6381167676759822
 40
0.6448058531081613
 40
0.6514919716704778
 40
0.6557100163323963
 40
0.6599280616308613
 40
0.6661287904647147
 40
0.6723342252345957
 40
0.6785396725041639
 40
0.684740418395976
 40
0.6914567270508704
 40
0.6981760145259688
 40
0.7048923269494698
 40
0.7091292789627464
 40
0.7133662309029292
 40
0.7199738477226707
 40
0.7266193854192395
 40
0.7332649209504131
 40
0.739991024721779
 40
0.746717125098608
 40
0.7535255452818013
 40
0.7603339611030748
 40
0.7671828394394069
 40
0.7732514842307489
 40
0.7793223534980107
 40
0.7853909882271998
 40
0.7929379875884566
 40
0.8004849812747638
 40
0.8072852954474413
 40
0.8140856071110623
 40
0.8209268560378181
 40
0.8271133692454573
 40
0.8333046562271474
 40
0.8394959448862556
 40
0.8456824603830472
 40
0.8523852504644677
 40
0.8590910722334909
 40
0.8657938718316218
 40
0.8700230197802532
 40
0.8742521683279253
 40
0.8804271443375468
 40
0.886606817688014
 40
0.8927865081796468
 40
0.8989615075813548
 40
0.905650020085383
 40
0.9123415003644569
 40
0.9190300265248853
 40
0.9232494044095919
 40
0.927468782771946
 40
0.9336862590704612
 40
0.9399084632016227
 40
0.9461306734491901
 40
0.9523481580945983
 40
0.9590829622393924
 40
0.9658207660392417
 40
0.972555567046576
 40
0.9768043877854865
 40
0.9810532081519758
 40
0.9873679817294501
 40
0.99368523574235
 40
1.0
 40
1.0
 40
1.0
 40
1.0
 10
246.4862191696968
 20
149.6779653462072
 30
0.0
 10
246.4516873345204
 20
149.6963416704181
 30
0.0
 10
246.3826112479682
 20
149.7331009261954
 30
0.0
 10
246.2764317234519
 20
149.7832273575937
 30
0.0
 10
246.1598144650146
 20
149.8333520341828
 30
0.0
 10
246.0321958923313
 20
149.8817750814068
 30
0.0
 10
245.8979656134625
 20
149.9256410605272
 30
0.0
 10
245.7665389541257
 20
149.9621511933336
 30
0.0
 10
245.6381143673979
 20
149.9920297242321
 30
0.0
 10
245.5120813226162
 20
150.015748123538
 30
0.0
 10
245.3887372107351
 20
150.033771028773
 30
0.0
 10
245.2686097938753
 20
150.0465702512234
 30
0.0
 10
245.1480693669381
 20
150.0546974914475
 30
0.0
 10
245.0239722485028
 20
150.0582218759395
 30
0.0
 10
244.8964780396466
 20
150.0566443848887
 30
0.0
 10
244.7658126825175
 20
150.0495176949782
 30
0.0
 10
244.6515858303541
 20
150.0384451953484
 30
0.0
 10
244.553811454445
 20
150.0255500797417
 30
0.0
 10
244.4598624960226
 20
150.0106104281847
 30
0.0
 10
244.3540431286324
 20
149.9902002048127
 30
0.0
 10
244.2368087510035
 20
149.9628320101837
 30
0.0
 10
244.1207362320973
 20
149.9309537028487
 30
0.0
 10
244.002852348374
 20
149.8936057894675
 30
0.0
 10
243.8834677094995
 20
149.8503770337003
 30
0.0
 10
243.7629363381242
 20
149.8009242639868
 30
0.0
 10
243.6591615435973
 20
149.7531671737771
 30
0.0
 10
243.5714548933537
 20
149.7090956381267
 30
0.0
 10
243.4877296965369
 20
149.6642138113029
 30
0.0
 10
243.3943583934231
 20
149.6101419643712
 30
0.0
 10
243.2922762219816
 20
149.5455936466172
 30
0.0
 10
243.1927876907683
 20
149.4771399029133
 30
0.0
 10
243.0933923199856
 20
149.4028919599111
 30
0.0
 10
242.9945180481745
 20
149.322559362994
 30
0.0
 10
242.8966128599168
 20
149.2359286065367
 30
0.0
 10
242.8140276446846
 20
149.156409672463
 30
0.0
 10
242.7454534817683
 20
149.0856700987097
 30
0.0
 10
242.6791509525821
 20
149.0135369247528
 30
0.0
 10
242.6052088966117
 20
148.9273564140945
 30
0.0
 10
242.5252908765809
 20
148.8259705905923
 30
0.0
 10
242.4492904759236
 20
148.72084485204
 30
0.0
 10
242.3774385913512
 20
148.6121104602448
 30
0.0
 10
242.3096339512974
 20
148.4994469416116
 30
0.0
 10
242.2464171588501
 20
148.3835120225477
 30
0.0
 10
242.187846744167
 20
148.2642476000781
 30
0.0
 10
242.1349418589311
 20
148.1437025082737
 30
0.0
 10
242.0888170437256
 20
148.025236250491
 30
0.0
 10
242.049022951975
 20
147.9095283340193
 30
0.0
 10
242.0146393832247
 20
147.7955054230008
 30
0.0
 10
241.9835917297279
 20
147.6761698648096
 30
0.0
 10
241.9565134020009
 20
147.5515401194485
 30
0.0
 10
241.9340247028545
 20
147.4217234237611
 30
0.0
 10
241.9191464973146
 20
147.307120343565
 30
0.0
 10
241.9097882178596
 20
147.2082354372814
 30
0.0
 10
241.9033288519289
 20
147.112823439859
 30
0.0
 10
241.8995856290089
 20
147.0047058037703
 30
0.0
 10
241.9001044775353
 20
146.8839914157519
 30
0.0
 10
241.9053050784378
 20
146.7633892239381
 30
0.0
 10
241.9154632115676
 20
146.6397721080823
 30
0.0
 10
241.9310550918274
 20
146.5133537037549
 30
0.0
 10
241.9524982431294
 20
146.3844072481257
 30
0.0
 10
241.9760443224794
 20
146.2722232731879
 30
0.0
 10
241.9995861672109
 20
146.1765779857727
 30
0.0
 10
242.0247473989564
 20
146.0849066229432
 30
0.0
 10
242.0566572082795
 20
145.9820051740646
 30
0.0
 10
242.0967474387355
 20
145.8684915496965
 30
0.0
 10
242.141191534034
 20
145.7566315758259
 30
0.0
 10
242.1912688214192
 20
145.6435770293105
 30
0.0
 10
242.2473535167501
 20
145.5296802793135
 30
0.0
 10
242.3097485618913
 20
145.4153292653252
 30
0.0
 10
242.368616965915
 20
145.3174434853321
 30
0.0
 10
242.422057038334
 20
145.2351200723531
 30
0.0
 10
242.4759194172991
 20
145.1567628874354
 30
0.0
 10
242.5400415269456
 20
145.0697525973403
 30
0.0
 10
242.6156127026557
 20
144.9751677947276
 30
0.0
 10
242.6948024066148
 20
144.8835996352703
 30
0.0
 10
242.7797711781686
 20
144.7927643460828
 30
0.0
 10
242.8707635467408
 20
144.7031217583703
 30
0.0
 10
242.967944587558
 20
144.6151439745298
 30
0.0
 10
243.0563580812899
 20
144.5416498518644
 30
0.0
 10
243.1344798451137
 20
144.4811498748798
 30
0.0
 10
243.2119921009501
 20
144.4243582469182
 30
0.0
 10
243.3024529074357
 20
144.3625907606971
 30
0.0
 10
243.4066613209245
 20
144.2973318434261
 30
0.0
 10
243.512690096568
 20
144.2366373551519
 30
0.0
 10
243.6203462973735
 20
144.1805273376667
 30
0.0
 10
243.7294211311916
 20
144.1289653591853
 30
0.0
 10
243.8404317813041
 20
144.0816637769533
 30
0.0
 10
243.9563172875025
 20
144.0375250126512
 30
0.0
 10
244.0770962327611
 20
143.9970704636393
 30
0.0
 10
244.2027079513107
 20
143.9607970254747
 30
0.0
 10
244.3141309737183
 20
143.933646407455
 30
0.0
 10
244.4106452715332
 20
143.9136257389197
 30
0.0
 10
244.504371560052
 20
143.8967658412263
 30
0.0
 10
244.6112632971173
 20
143.8811479432244
 30
0.0
 10
244.7313900700734
 20
143.8683485137751
 30
0.0
 10
244.8519306694372
 20
143.8602213289848
 30
0.0
 10
244.9760277408933
 20
143.8566969293924
 30
0.0
 10
245.1035219633441
 20
143.8582744248161
 30
0.0
 10
245.2341873167179
 20
143.8654011135219
 30
0.0
 10
245.3484141698123
 20
143.8764736134534
 30
0.0
 10
245.4461885455649
 20
143.8893687290117
 30
0.0
 10
245.5401375040255
 20
143.9043083805828
 30
0.0
 10
245.6459568714005
 20
143.9247186039522
 30
0.0
 10
245.763191249033
 20
143.9520867985848
 30
0.0
 10
245.8792637679373
 20
143.9839651059216
 30
0.0
 10
245.99714765166
 20
144.0213130193051
 30
0.0
 10
246.1165322905334
 20
144.0645417750744
 30
0.0
 10
246.2370636619074
 20
144.1139945447904
 30
0.0
 10
246.3408384564339
 20
144.1617516350014
 30
0.0
 10
246.4285451066749
 20
144.2058231706548
 30
0.0
 10
246.5122703034969
 20
144.2507049974747
 30
0.0
 10
246.6056416065754
 20
144.3047768444386
 30
0.0
 10
246.7077237781523
 20
144.3693251620726
 30
0.0
 10
246.8072123088559
 20
144.4377789062318
 30
0.0
 10
246.9066076815852
 20
144.5120268474983
 30
0.0
 10
247.0054819455351
 20
144.5923594514273
 30
0.0
 10
247.1033871636063
 20
144.6789901812939
 30
0.0
 10
247.1859722813577
 20
144.7585092023121
 30
0.0
 10
247.2545466837882
 20
144.8292485624397
 30
0.0
 10
247.3207415217572
 20
144.9012664372187
 30
0.0
 10
247.3946381687371
 20
144.9873693059488
 30
0.0
 10
247.4745664347683
 20
145.0887475654997
 30
0.0
 10
247.5506600217417
 20
145.194000904081
 30
0.0
 10
247.6225616413325
 20
145.3028081872881
 30
0.0
 10
247.6903659545512
 20
145.4154719116903
 30
0.0
 10
247.7535829837984
 20
145.5314067716351
 30
0.0
 10
247.8121527791535
 20
145.6506712225381
 30
0.0
 10
247.8636324159741
 20
145.7679638619718
 30
0.0
 10
247.9085644778572
 20
145.8828018275811
 30
0.0
 10
247.9474308819499
 20
145.9945018881257
 30
0.0
 10
247.9848282625858
 20
146.1168016618429
 30
0.0
 10
248.0193666743014
 20
146.2499176864773
 30
0.0
 10
248.0485426852025
 20
146.3891953381535
 30
0.0
 10
248.0706203158553
 20
146.5248660071259
 30
0.0
 10
248.0863424642844
 20
146.6568143455795
 30
0.0
 10
248.0960904070151
 20
146.7853476901104
 30
0.0
 10
248.1004145868528
 20
146.9102125164074
 30
0.0
 10
248.0998954645879
 20
147.0309275240121
 30
0.0
 10
248.0946949369852
 20
147.1515295499109
 30
0.0
 10
248.0845367838813
 20
147.2751467109713
 30
0.0
 10
248.0689449093985
 20
147.4015651022175
 30
0.0
 10
248.0475017564978
 20
147.5305115614595
 30
0.0
 10
248.0239556775417
 20
147.6426955355007
 30
0.0
 10
248.000413832742
 20
147.7383408230658
 30
0.0
 10
247.9752526010112
 20
147.8300121858577
 30
0.0
 10
247.9433427916798
 20
147.9329136347498
 30
0.0
 10
247.9032525612236
 20
148.0464272591129
 30
0.0
 10
247.8588084659226
 20
148.1582872329837
 30
0.0
 10
247.8087311785353
 20
148.271341779498
 30
0.0
 10
247.752646483202
 20
148.3852385294934
 30
0.0
 10
247.6902514380599
 20
148.4995895434827
 30
0.0
 10
247.6313830340301
 20
148.597475323467
 30
0.0
 10
247.5779429616201
 20
148.6797987364639
 30
0.0
 10
247.5240805826131
 20
148.7581559213074
 30
0.0
 10
247.4599584731886
 20
148.8451662118068
 30
0.0
 10
247.3843872965834
 20
148.9397510127977
 30
0.0
 10
247.3051975959448
 20
149.0313191782793
 30
0.0
 10
247.2202288116596
 20
149.1221544443748
 30
0.0
 10
247.1292364944484
 20
149.2117971252517
 30
0.0
 10
247.032055258783
 20
149.2997745556588
 30
0.0
 10
246.9436424020975
 20
149.3732698338615
 30
0.0
 10
246.8655190729263
 20
149.433766971467
 30
0.0
 10
246.7880128383958
 20
149.4905695214335
 30
0.0
 10
246.6975183983193
 20
149.5522759997118
 30
0.0
 10
246.5934444269053
 20
149.6177787810504
 30
0.0
 10
246.5219562253541
 20
149.6579057941499
 30
0.0
 10
246.4862191696968
 20
149.6779653462072
 30
0.0
  0
SPLINE
  5
127
330
1F
100
AcDbEntity
  8
0
  6
Continuous
 62
     7
370
    30
100
AcDbSpline
210
0.0
220
0.0
230
1.0
 70
    24
 71
     3
 72
   109
 73
   105
 74
     0
 42
0.000000001
 43
0.00000001
 40
0.0
 40
0.0
 40
0.0
 40
0.0
 40
0.0100409428434063
 40
0.0200987191128726
 40
0.0301915103134439
 40
0.0403374300091954
 40
0.050554485992036
 40
0.0586437551828124
 40
0.0667965592463325
 40
0.0750212851998547
 40
0.0833259125261039
 40
0.0917179867879815
 40
0.1002046329356454
 40
0.1087925683912492
 40
0.1174881158722446
 40
0.126297215957418
 40
0.1352254393993784
 40
0.144115230013767
 40
0.1531295709007246
 40
0.1622727645175611
 40
0.1715488123703273
 40
0.179526375142279
 40
0.1876043678400885
 40
0.1957847569208044
 40
0.2040693717906563
 40
0.2124599089534416
 40
0.2209579322439369
 40
0.2290699201901819
 40
0.2372791776166052
 40
0.2455861205932039
 40
0.2539909818518874
 40
0.2624938142507812
 40
0.2710944936591354
 40
0.2797927212519525
 40
0.2885880252047794
 40
0.2974797617805756
 40
0.3064671158022351
 40
0.3153861015672065
 40
0.3243952724400749
 40
0.3334933701334826
 40
0.3426789729055141
 40
0.3522374324728976
 40
0.3618852515372349
 40
0.3716202727063608
 40
0.3814402478664962
 40
0.3913429235489629
 40
0.4013260439152104
 40
0.411387352167737
 40
0.4215245917292541
 40
0.4322235291948237
 40
0.4430007350972875
 40
0.4538536211357208
 40
0.4647796018895854
 40
0.4757760945913073
 40
0.4868405185048796
 40
0.4963764554551646
 40
0.5059587814849436
 40
0.5155858707556858
 40
0.5252560953135742
 40
0.5349678238821626
 40
0.5447194204743863
 40
0.5545092428214873
 40
0.5653202138345479
 40
0.5761733871785132
 40
0.5870668453619624
 40
0.5979987386843006
 40
0.6089672803183008
 40
0.6189690520565339
 40
0.628998428403378
 40
0.6390541914719894
 40
0.6491351598743696
 40
0.6592401873885477
 40
0.6693681617014555
 40
0.6795180032263042
 40
0.6907068102304307
 40
0.7019194568202735
 40
0.7131546340422545
 40
0.7244110747270831
 40
0.7356875521696038
 40
0.7469828789186099
 40
0.7582959056713439
 40
0.7696255202669875
 40
0.78097064677309
 40
0.7923302446585105
 40
0.8035001105864271
 40
0.8146820442819032
 40
0.8258751559465713
 40
0.8370785856107286
 40
0.8474345358238448
 40
0.8577979237883882
 40
0.8681681126685225
 40
0.8785444760560936
 40
0.8889263971086152
 40
0.8991277520456153
 40
0.9093333126434671
 40
0.9195425168566075
 40
0.9297548085664861
 40
0.9401781206490588
 40
0.9506034935309071
 40
0.9610303510018012
 40
0.9714581203397825
 40
0.9818862316034143
 40
0.9923141169344287
 40
1.0
 40
1.0
 40
1.0
 40
1.0
 10
244.9999826410351
 20
155.9574594043543
 30
0.0
 10
245.1225831201838
 20
155.9574594043543
 30
0.0
 10
245.367989615564
 20
155.9574594043543
 30
0.0
 10
245.7365361336291
 20
155.9574594043543
 30
0.0
 10
246.1061758560965
 20
155.9574594043543
 30
0.0
 10
246.4774731626287
 20
155.9574594043543
 30
0.0
 10
246.8239870942719
 20
155.9574594043543
 30
0.0
 10
247.1458494759573
 20
155.9574594043543
 30
0.0
 10
247.4431194465157
 20
155.9574594043543
 30
0.0
 10
247.742592172831
 20
155.9574594043543
 30
0.0
 10
248.0444947949467
 20
155.9574594043543
 30
0.0
 10
248.3490341218287
 20
155.9574594043543
 30
0.0
 10
248.6563964546731
 20
155.9574594043543
 30
0.0
 10
248.9667475330515
 20
155.9574594043543
 30
0.0
 10
249.2802325880144
 20
155.9574594043543
 30
0.0
 10
249.5969763373604
 20
155.9574594043543
 30
0.0
 10
249.9151382116494
 20
155.9574594043543
 30
0.0
 10
250.2347674434892
 20
155.9574594043543
 30
0.0
 10
250.5558954693719
 20
155.9574594043543
 30
0.0
 10
250.8804498714773
 20
155.9574594043543
 30
0.0
 10
251.1915411786721
 20
155.9574594043543
 30
0.0
 10
251.4889407538993
 20
155.9574594043543
 30
0.0
 10
251.7724193978694
 20
155.9574594043543
 30
0.0
 10
252.0583571827232
 20
155.9574594043543
 30
0.0
 10
252.3467260392333
 20
155.9574594043543
 30
0.0
 10
252.6374879081474
 20
155.9574594043543
 30
0.0
 10
252.9249048584936
 20
155.9574594043543
 30
0.0
 10
253.2088675159869
 20
155.9574594043543
 30
0.0
 10
253.4892616617149
 20
155.9574594043543
 30
0.0
 10
253.7715262159514
 20
155.9574594043543
 30
0.0
 10
254.0555672744131
 20
155.9574594043543
 30
0.0
 10
254.3412807872238
 20
155.9574594043543
 30
0.0
 10
254.628552844136
 20
155.9574594043543
 30
0.0
 10
254.917259876803
 20
155.9574594043543
 30
0.0
 10
255.2072688903855
 20
155.9574594043543
 30
0.0
 10
255.4984376619792
 20
155.9574594043543
 30
0.0
 10
255.7888486231689
 20
155.9574594043543
 30
0.0
 10
256.0783527437059
 20
155.9574594043543
 30
0.0
 10
256.3667987657183
 20
155.9574594043543
 30
0.0
 10
256.6557365367627
 20
155.9574594043543
 30
0.0
 10
256.9480031831407
 20
155.9574594043543
 30
0.0
 10
257.2433771453208
 20
155.9574594043543
 30
0.0
 10
257.5416152150076
 20
155.9574594043543
 30
0.0
 10
257.8395733214377
 20
155.9574594043543
 30
0.0
 10
258.1370322106771
 20
155.9574594043543
 30
0.0
 10
258.4337708942969
 20
155.9574594043543
 30
0.0
 10
258.7295677266677
 20
155.9574594043543
 30
0.0
 10
259.0242007596404
 20
155.9574594043543
 30
0.0
 10
259.3221538524517
 20
155.9574594043543
 30
0.0
 10
259.6230592107727
 20
155.9574594043543
 30
0.0
 10
259.9265218622948
 20
155.9574594043543
 30
0.0
 10
260.2277113543636
 20
155.9574594043543
 30
0.0
 10
260.526374939377
 20
155.9574594043543
 30
0.0
 10
260.8222611995253
 20
155.9574594043543
 30
0.0
 10
261.1010579439922
 20
155.9574594043543
 30
0.0
 10
261.3631763177216
 20
155.9574594043543
 30
0.0
 10
261.609044237434
 20
155.9574594043543
 30
0.0
 10
261.8521993046053
 20
155.9574594043543
 30
0.0
 10
262.0924903964737
 20
155.9574594043543
 30
0.0
 10
262.3297679744231
 20
155.9574594043543
 30
0.0
 10
262.5638845581193
 20
155.9574594043543
 30
0.0
 10
262.8024324162622
 20
155.9574594043543
 30
0.0
 10
263.0448066135106
 20
155.9574594043543
 30
0.0
 10
263.2903510497043
 20
155.9574594043543
 30
0.0
 10
263.5313603764452
 20
155.9574594043543
 30
0.0
 10
263.7676619680854
 20
155.9574594043543
 30
0.0
 10
263.9920434378451
 20
155.9574594043543
 30
0.0
 10
264.2049003724906
 20
155.9574594043543
 30
0.0
 10
264.4066394573012
 20
155.9574594043543
 30
0.0
 10
264.6039819159657
 20
155.9574594043543
 30
0.0
 10
264.7968163257451
 20
155.9574594043543
 30
0.0
 10
264.985034579616
 20
155.9574594043543
 30
0.0
 10
265.1685320887635
 20
155.9574594043543
 30
0.0
 10
265.3531820058142
 20
155.9574594043544
 30
0.0
 10
265.5382749719045
 20
155.9574594043543
 30
0.0
 10
265.7230538839192
 20
155.9574594043543
 30
0.0
 10
265.9016340459794
 20
155.9574594043543
 30
0.0
 10
266.0738998939623
 20
155.9574594043543
 30
0.0
 10
266.2397409274903
 20
155.9574594043543
 30
0.0
 10
266.3990515812814
 20
155.9574594043543
 30
0.0
 10
266.5517312496006
 20
155.9574594043543
 30
0.0
 10
266.6976842742222
 20
155.9574594043543
 30
0.0
 10
266.8368199248245
 20
155.9574594043543
 30
0.0
 10
266.9682639764213
 20
155.9574594043543
 30
0.0
 10
267.0920820009995
 20
155.9574594043543
 30
0.0
 10
267.2083466648738
 20
155.9574594043543
 30
0.0
 10
267.3177350694684
 20
155.9574594043543
 30
0.0
 10
267.4175720819986
 20
155.9574594043543
 30
0.0
 10
267.5084131362115
 20
155.9574594043543
 30
0.0
 10
267.5908070336948
 20
155.9574594043543
 30
0.0
 10
267.6671484326781
 20
155.9574594043543
 30
0.0
 10
267.7374006085364
 20
155.9574594043543
 30
0.0
 10
267.801147952765
 20
155.9574594043543
 30
0.0
 10
267.8584878459559
 20
155.9574594043543
 30
0.0
 10
267.909521041216
 20
155.9574594043543
 30
0.0
 10
267.9545695026933
 20
155.9574594043543
 30
0.0
 10
267.9938790840322
 20
155.9574594043543
 30
0.0
 10
268.0272866972105
 20
155.9574594043543
 30
0.0
 10
268.0546367680489
 20
155.9574594043543
 30
0.0
 10
268.0756733481961
 20
155.9574594043543
 30
0.0
 10
268.0904606560202
 20
155.9574594043543
 30
0.0
 10
268.0987191322251
 20
155.9574594043543
 30
0.0
 10
268.1012261702687
 20
155.9574594043543
 30
0.0
 10
268.0981294422423
 20
155.9574594043543
 30
0.0
 10
268.0968154644451
 20
155.9574594043543
 30
0.0
  0
SPLINE
  5
128
330
1F
100
AcDbEntity
  8
0
  6
Continuous
 62
     7
370
    30
100
AcDbSpline
210
0.0
220
0.0
230
1.0
 70
    24
 71
     3
 72
    42
 73
    38
 74
     0
 42
0.000000001
 43
0.00000001
 40
0.0
 40
0.0
 40
0.0
 40
0.0
 40
0.012495956529669
 40
0.0440108099819933
 40
0.0755274791200179
 40
0.1070438809471838
 40
0.1385579256587655
 40
0.1700675135726264
 40
0.2015705320131104
 40
0.2330648521388038
 40
0.2645483257050926
 40
0.2960187817526398
 40
0.3274740232131543
 40
0.3583506150960006
 40
0.3892082425203126
 40
0.4200447306238214
 40
0.4508578668261347
 40
0.4792942492232823
 40
0.5077069795140002
 40
0.536094212636605
 40
0.5644540641511882
 40
0.5927845801154114
 40
0.6205786827853809
 40
0.6483405394218352
 40
0.6760681029522628
 40
0.7037592652095765
 40
0.731975764864684
 40
0.7601497281219587
 40
0.7882787106193465
 40
0.8163601962168322
 40
0.8443915953358043
 40
0.872370243173957
 40
0.9002933977868451
 40
0.9281582380276767
 40
0.9559618613373988
 40
0.9837012813776445
 40
1.0
 40
1.0
 40
1.0
 40
1.0
 10
221.9044678051088
 20
155.9574594043543
 30
0.0
 10
221.903299332491
 20
155.9574594043542
 30
0.0
 10
221.8991839671543
 20
155.9574594043542
 30
0.0
 10
221.8996403847649
 20
155.9574594043542
 30
0.0
 10
221.9062797677111
 20
155.9574594043543
 30
0.0
 10
221.9209710622565
 20
155.9574594043543
 30
0.0
 10
221.9431753388572
 20
155.9574594043542
 30
0.0
 10
221.9730238984153
 20
155.9574594043543
 30
0.0
 10
222.0104626884847
 20
155.9574594043542
 30
0.0
 10
222.05548152769
 20
155.9574594043543
 30
0.0
 10
222.1080526914145
 20
155.9574594043543
 30
0.0
 10
222.1681473456621
 20
155.9574594043543
 30
0.0
 10
222.2353292312431
 20
155.9574594043543
 30
0.0
 10
222.3094050283311
 20
155.9574594043543
 30
0.0
 10
222.3901799973368
 20
155.9574594043542
 30
0.0
 10
222.4780553920402
 20
155.9574594043543
 30
0.0
 10
222.5705673016696
 20
155.9574594043542
 30
0.0
 10
222.6670495248135
 20
155.9574594043543
 30
0.0
 10
222.7668630096433
 20
155.9574594043543
 30
0.0
 10
222.8725506888426
 20
155.9574594043542
 30
0.0
 10
222.9840605475111
 20
155.9574594043543
 30
0.0
 10
223.1006405827211
 20
155.9574594043542
 30
0.0
 10
223.2221131427625
 20
155.9574594043543
 30
0.0
 10
223.3483008435429
 20
155.9574594043542
 30
0.0
 10
223.4798749191381
 20
155.9574594043543
 30
0.0
 10
223.6176997828003
 20
155.9574594043542
 30
0.0
 10
223.7618348890929
 20
155.9574594043543
 30
0.0
 10
223.9123339289566
 20
155.9574594043543
 30
0.0
 10
224.0681486785401
 20
155.9574594043542
 30
0.0
 10
224.2291963702525
 20
155.9574594043543
 30
0.0
 10
224.3953927670359
 20
155.9574594043543
 30
0.0
 10
224.5666431902513
 20
155.9574594043543
 30
0.0
 10
224.7428758811439
 20
155.9574594043543
 30
0.0
 10
224.9239179084699
 20
155.9574594043543
 30
0.0
 10
225.1099568394951
 20
155.9574594043542
 30
0.0
 10
225.2738735283476
 20
155.9574594043543
 30
0.0
 10
225.3777881301644
 20
155.9574594043543
 30
0.0
 10
225.4162474044935
 20
155.9574594043543
 30
0.0
  0
SPLINE
  5
129
330
1F
100
AcDbEntity
  8
0
  6
Continuous
 62
     7
370
    30
100
AcDbSpline
210
0.0
220
0.0
230
1.0
 70
    24
 71
     3
 72
    75
 73
    71
 74
     0
 42
0.000000001
 43
0.00000001
 40
0.0
 40
0.0
 40
0.0
 40
0.0
 40
0.0066947751605825
 40
0.0226373020714793
 40
0.038535212384759
 40
0.0559689594397495
 40
0.0733435650205887
 40
0.0906562003351123
 40
0.1079039434175225
 40
0.1250837753262051
 40
0.140640282496011
 40
0.156135667801311
 40
0.1715674372900619
 40
0.1869330189605577
 40
0.2022296524248812
 40
0.2174543288325607
 40
0.2326040775950749
 40
0.2491787701410409
 40
0.2656555329559101
 40
0.282030697764082
 40
0.298300685407766
 40
0.3144620016324537
 40
0.3305112336727234
 40
0.3464450476331253
 40
0.3622601866566262
 40
0.3779534698709373
 40
0.3935217921010481
 40
0.4086875489845116
 40
0.423727048778786
 40
0.4386375682170782
 40
0.4534164601492313
 40
0.4685101045605174
 40
0.4834584386108891
 40
0.4982588398633651
 40
0.5129087896627997
 40
0.5274058793140476
 40
0.5417478247281476
 40
0.5559327896325875
 40
0.569959588198318
 40
0.5844837576489238
 40
0.5988328106964828
 40
0.6130065206939604
 40
0.6270050366081215
 40
0.6408288832407106
 40
0.6544789624097564
 40
0.6679565550931301
 40
0.6812633245327121
 40
0.6944013202941194
 40
0.707372983273878
 40
0.7201811516432695
 40
0.7328290677162079
 40
0.7475348111071033
 40
0.7620298981187812
 40
0.7763216000773157
 40
0.79041758862778
 40
0.8045771249551434
 40
0.8185510781519231
 40
0.8323488170703547
 40
0.8459801338019226
 40
0.8594552409562698
 40
0.8725479580680691
 40
0.8855107073845276
 40
0.8983543317421344
 40
0.9110900538899441
 40
0.9261270072119101
 40
0.941047759350603
 40
0.9558733184123515
 40
0.9706254330403082
 40
0.9853265878691351
 40
1.0
 40
1.0
 40
1.0
 40
1.0
 10
225.6124038779022
 20
155.9574594043543
 30
0.0
 10
225.6401728953933
 20
155.9574594043543
 30
0.0
 10
225.7340693477906
 20
155.9574594043543
 30
0.0
 10
225.8990503640874
 20
155.9574594043543
 30
0.0
 10
226.1138283483866
 20
155.9574594043543
 30
0.0
 10
226.3404422204779
 20
155.9574594043543
 30
0.0
 10
226.5788853634536
 20
155.9574594043543
 30
0.0
 10
226.8219886213398
 20
155.9574594043543
 30
0.0
 10
227.0695481974134
 20
155.9574594043542
 30
0.0
 10
227.3138090099907
 20
155.9574594043543
 30
0.0
 10
227.5541205102654
 20
155.9574594043543
 30
0.0
 10
227.7898864026085
 20
155.9574594043543
 30
0.0
 10
228.0287579002197
 20
155.9574594043543
 30
0.0
 10
228.270587240244
 20
155.9574594043543
 30
0.0
 10
228.5152217504468
 20
155.9574594043543
 30
0.0
 10
228.7625048770595
 20
155.9574594043543
 30
0.0
 10
229.0205361859335
 20
155.9574594043543
 30
0.0
 10
229.2894919743951
 20
155.9574594043543
 30
0.0
 10
229.5695285075137
 20
155.9574594043543
 30
0.0
 10
229.8519557651996
 20
155.9574594043543
 30
0.0
 10
230.1365597596478
 20
155.9574594043543
 30
0.0
 10
230.4231269428658
 20
155.9574594043543
 30
0.0
 10
230.7114443676815
 20
155.9574594043543
 30
0.0
 10
231.0013000236906
 20
155.9574594043543
 30
0.0
 10
231.29248313539
 20
155.9574594043543
 30
0.0
 10
231.5847844382509
 20
155.9574594043543
 30
0.0
 10
231.8762726925129
 20
155.9574594043543
 30
0.0
 10
232.1667079120664
 20
155.9574594043543
 30
0.0
 10
232.4558605621636
 20
155.9574594043543
 30
0.0
 10
232.7453118844451
 20
155.9574594043543
 30
0.0
 10
233.0378072026032
 20
155.9574594043543
 30
0.0
 10
233.3331983143691
 20
155.9574594043543
 30
0.0
 10
233.6313295167519
 20
155.9574594043543
 30
0.0
 10
233.9289933930228
 20
155.9574594043543
 30
0.0
 10
234.2260009425194
 20
155.9574594043543
 30
0.0
 10
234.5221680042406
 20
155.9574594043543
 30
0.0
 10
234.8173177575636
 20
155.9574594043543
 30
0.0
 10
235.1112847131561
 20
155.9574594043543
 30
0.0
 10
235.4084811914258
 20
155.9574594043543
 30
0.0
 10
235.7087621105545
 20
155.9574594043543
 30
0.0
 10
236.0119802300848
 20
155.9574594043543
 30
0.0
 10
236.3132978294528
 20
155.9574594043543
 30
0.0
 10
236.6125927717273
 20
155.9574594043543
 30
0.0
 10
236.9097559713022
 20
155.9574594043543
 30
0.0
 10
237.2046914636595
 20
155.9574594043543
 30
0.0
 10
237.4973165516392
 20
155.9574594043543
 30
0.0
 10
237.7875619273841
 20
155.9574594043543
 30
0.0
 10
238.0753718157383
 20
155.9574594043543
 30
0.0
 10
238.3607040565692
 20
155.9574594043543
 30
0.0
 10
238.6435304058547
 20
155.9574594043543
 30
0.0
 10
238.940193306604
 20
155.9574594043543
 30
0.0
 10
239.2504680444833
 20
155.9574594043543
 30
0.0
 10
239.5741364484507
 20
155.9574594043543
 30
0.0
 10
239.8943740936816
 20
155.9574594043543
 30
0.0
 10
240.2131249623773
 20
155.9574594043543
 30
0.0
 10
240.5304398902086
 20
155.9574594043543
 30
0.0
 10
240.8463851818615
 20
155.9574594043543
 30
0.0
 10
241.1591398847016
 20
155.9574594043543
 30
0.0
 10
241.468838687076
 20
155.9574594043543
 30
0.0
 10
241.7738356439638
 20
155.9574594043543
 30
0.0
 10
242.0743197394628
 20
155.9574594043543
 30
0.0
 10
242.3704939148532
 20
155.9574594043543
 30
0.0
 10
242.6643823420841
 20
155.9574594043543
 30
0.0
 10
242.9744875249519
 20
155.9574594043543
 30
0.0
 10
243.3008536045553
 20
155.9574594043543
 30
0.0
 10
243.643571376656
 20
155.9574594043543
 30
0.0
 10
243.9844060529787
 20
155.9574594043543
 30
0.0
 10
244.323778404732
 20
155.9574594043543
 30
0.0
 10
244.6621298201063
 20
155.9574594043543
 30
0.0
 10
244.8874141851841
 20
155.9574594043543
 30
0.0
 10
244.9999499832423
 20
155.9574594043543
 30
0.0
  0
LINE
  5
12A
330
1F
100
AcDbEntity
  8
0
  6
Continuous
 62
     7
370
    30
100
AcDbLine
 10
222.4
 20
137.9574594044
 30
0.0
 11
267.6
 21
137.9574594044
 31
0.0
  0
LINE
  5
12B
330
1F
100
AcDbEntity
  8
0
  6
Continuous
 62
     7
370
    30
100
AcDbLine
 10
268.2
 20
202.9230294044
 30
0.0
 11
221.8
 21
202.9230294044
 31
0.0
  0
SPLINE
  5
12C
330
1F
100
AcDbEntity
  8
0
  6
Continuous
 62
     7
370
    30
100
AcDbSpline
210
0.0
220
0.0
230
1.0
 70
     8
 71
     3
 72
    82
 73
    78
 74
     0
 42
0.000000001
 43
0.00000001
 40
0.0
 40
0.0
 40
0.0
 40
0.0
 40
0.007119920794012
 40
0.0206261070381255
 40
0.0341315295767688
 40
0.0476361824176208
 40
0.0611399472094309
 40
0.0746427275111197
 40
0.0881444465174452
 40
0.1016450449501088
 40
0.1151444791151483
 40
0.1286427191254076
 40
0.1421397472830088
 40
0.1556355566144456
 40
0.1691301495510287
 40
0.1826235367437194
 40
0.1961157360044763
 40
0.2096067713625569
 40
0.2230966722269244
 40
0.2365854726456342
 40
0.2500732106522324
 40
0.2635599276916444
 40
0.2770456681169859
 40
0.2905304787508118
 40
0.3040144085027133
 40
0.3174975080388018
 40
0.3309798294957225
 40
0.3444614262353752
 40
0.3579423526351023
 40
0.371422663908978
 40
0.3849024159569558
 40
0.3983816652378891
 40
0.4118604686635459
 40
0.4253388835106844
 40
0.4388169673487275
 40
0.4522947779807748
 40
0.465772373395293
 40
0.4792498117271831
 40
0.4927271512258805
 40
0.5062044502287352
 40
0.5196817671385134
 40
0.5331591416244905
 40
0.5466366314674249
 40
0.560114295156208
 40
0.5735921911681302
 40
0.58707037794216
 40
0.6005489138474288
 40
0.6140278571446268
 40
0.6275072659383932
 40
0.6409871981183187
 40
0.6544677112872801
 40
0.66794886267427
 40
0.681430709028562
 40
0.6949133064941878
 40
0.7083967104585172
 40
0.7218809753749934
 40
0.7353661545534457
 40
0.7488522999152281
 40
0.7623394617080039
 40
0.775827688174679
 40
0.7893170251716134
 40
0.8028075157290897
 40
0.8162991995479065
 40
0.8297921124234351
 40
0.8432862855915279
 40
0.8567817449843711
 40
0.8702785103902995
 40
0.8837765945059232
 40
0.8972760018714914
 40
0.9107767276791047
 40
0.9242787564436024
 40
0.9377820605264738
 40
0.9512865985042236
 40
0.9647923133727552
 40
0.9782991305829082
 40
0.9918069559048913
 40
1.0
 40
1.0
 40
1.0
 40
1.0
 10
462.8250445028348
 20
179.886659286375
 30
0.0
 10
462.8249912409671
 20
179.9049384869098
 30
0.0
 10
462.8248369436066
 20
179.9578925516685
 30
0.0
 10
462.8231247925977
 20
180.046313142785
 30
0.0
 10
462.8192867817065
 20
180.1522055733279
 30
0.0
 10
462.8135240662089
 20
180.2590462743688
 30
0.0
 10
462.8058734525637
 20
180.3667698501397
 30
0.0
 10
462.7963309524052
 20
180.475333642217
 30
0.0
 10
462.7849045065283
 20
180.5846884570342
 30
0.0
 10
462.7715998461492
 20
180.6947865165689
 30
0.0
 10
462.7564242728751
 20
180.805579341267
 30
0.0
 10
462.7393856388333
 20
180.9170183313188
 30
0.0
 10
462.7204926135088
 20
181.0290546260394
 30
0.0
 10
462.6997546064168
 20
181.1416391577136
 30
0.0
 10
462.6771817823786
 20
181.2547226543907
 30
0.0
 10
462.6527850522425
 20
181.3682556573845
 30
0.0
 10
462.6265760703043
 20
181.4821885358185
 30
0.0
 10
462.5985672299462
 20
181.5964715029026
 30
0.0
 10
462.5687716596627
 20
181.711054632628
 30
0.0
 10
462.537203218815
 20
181.8258878771725
 30
0.0
 10
462.5038764932148
 20
181.9409210848756
 30
0.0
 10
462.468806790452
 20
182.056104018756
 30
0.0
 10
462.432010134941
 20
182.1713863755163
 30
0.0
 10
462.3935032626487
 20
182.2867178049865
 30
0.0
 10
462.3533036154827
 20
182.4020479299579
 30
0.0
 10
462.3114293353195
 20
182.5173263663606
 30
0.0
 10
462.2678992576568
 20
182.6325027437418
 30
0.0
 10
462.2227329048785
 20
182.7475267260003
 30
0.0
 10
462.1759504791263
 20
182.8623480323379
 30
0.0
 10
462.1275728547708
 20
182.9769164583897
 30
0.0
 10
462.0776215704812
 20
183.0911818974943
 30
0.0
 10
462.0261188208921
 20
183.2050943620725
 30
0.0
 10
461.9730874478702
 20
183.3186040050781
 30
0.0
 10
461.9185509313838
 20
183.4316611414911
 30
0.0
 10
461.8625333799774
 20
183.5442162698238
 30
0.0
 10
461.8050595208612
 20
183.6562200936094
 30
0.0
 10
461.7461546896181
 20
183.7676235428473
 30
0.0
 10
461.6858448195395
 20
183.8783777953779
 30
0.0
 10
461.6241564305957
 20
183.9884342981616
 30
0.0
 10
461.5611166180529
 20
184.0977447884374
 30
0.0
 10
461.4967530706354
 20
184.2062612643422
 30
0.0
 10
461.4310940324103
 20
184.3139360560633
 30
0.0
 10
461.3641682891616
 20
184.4207218487631
 30
0.0
 10
461.2960051230153
 20
184.5265717517779
 30
0.0
 10
461.2266343280958
 20
184.6314392702288
 30
0.0
 10
461.1560861983714
 20
184.7352783231251
 30
0.0
 10
461.0843915141006
 20
184.8380432630535
 30
0.0
 10
461.0115815280241
 20
184.9396888955752
 30
0.0
 10
460.9376879513247
 20
185.0401704983071
 30
0.0
 10
460.8627429393701
 20
185.1394438396677
 30
0.0
 10
460.7867790772611
 20
185.2374651972697
 30
0.0
 10
460.7098293652077
 20
185.3341913759344
 30
0.0
 10
460.6319272037539
 20
185.4295797253154
 30
0.0
 10
460.5531063788837
 20
185.5235881571028
 30
0.0
 10
460.4734010470294
 20
185.6161751617978
 30
0.0
 10
460.3928457200217
 20
185.7072998250334
 30
0.0
 10
460.3114752500074
 20
185.7969218434273
 30
0.0
 10
460.2293248143792
 20
185.8850015399501
 30
0.0
 10
460.1464299007545
 20
185.9714998787922
 30
0.0
 10
460.0628262920504
 20
186.0563784797194
 30
0.0
 10
459.9785500517034
 20
186.1395996319039
 30
0.0
 10
459.8936375090852
 20
186.2211263072294
 30
0.0
 10
459.8081252451787
 20
186.3009221730481
 30
0.0
 10
459.7220500785705
 20
186.3789516044513
 30
0.0
 10
459.6354490518343
 20
186.4551796958498
 30
0.0
 10
459.5483594183808
 20
186.5295722726394
 30
0.0
 10
459.4608186298252
 20
186.6020959001564
 30
0.0
 10
459.3728643240843
 20
186.6727179004433
 30
0.0
 10
459.2845343137878
 20
186.7414063377376
 30
0.0
 10
459.1958665770023
 20
186.8081301187849
 30
0.0
 10
459.1068992432259
 20
186.8728586629286
 30
0.0
 10
459.0176706014008
 20
186.9355631767727
 30
0.0
 10
458.9282190305398
 20
186.9962119388383
 30
0.0
 10
458.8385832244444
 20
187.0547879419911
 30
0.0
 10
458.7488013243609
 20
187.111223085133
 30
0.0
 10
458.6707051334678
 20
187.1585051740254
 30
0.0
 10
458.6225399585079
 20
187.1865240597403
 30
0.0
 10
458.604355461163
 20
187.1971024361982
 30
0.0
  0
LINE
  5
12D
330
1F
100
AcDbEntity
  8
0
  6
Continuous
 62
     7
370
    30
100
AcDbLine
 10
462.8250445028
 20
83.5348434839
 30
0.0
 11
462.8250445028
 21
179.8866592864
 31
0.0
  0
LINE
  5
12E
330
1F
100
AcDbEntity
  8
0
  6
Continuous
 62
     7
370
    30
100
AcDbLine
 10
458.6043554612
 20
187.1971024362
 30
0.0
 11
389.3078909049
 21
227.2010999155
 31
0.0
  0
SPLINE
  5
12F
330
1F
100
AcDbEntity
  8
0
  6
Continuous
 62
     7
370
    30
100
AcDbSpline
210
0.0
220
0.0
230
1.0
 70
     8
 71
     3
 72
    95
 73
    91
 74
     0
 42
0.000000001
 43
0.00000001
 40
0.0
 40
0.0
 40
0.0
 40
0.0
 40
0.0118150311796341
 40
0.0217912258801797
 40
0.0299311083102639
 40
0.0362431278412095
 40
0.0413479660561873
 40
0.0461874906362309
 40
0.0566979582233174
 40
0.0678056940170009
 40
0.0772909647268574
 40
0.0872894001736193
 40
0.0979362562764181
 40
0.1098533631133279
 40
0.1166342861373953
 40
0.1235980913617961
 40
0.1291185193139641
 40
0.1329897894696571
 40
0.1374833405211045
 40
0.1433100487768371
 40
0.1549806466401087
 40
0.1642226406849274
 40
0.1726012309653323
 40
0.1816510920201553
 40
0.1914286965123796
 40
0.2000683361062691
 40
0.2052101840220426
 40
0.2111675067146404
 40
0.2178920786055851
 40
0.223963342254358
 40
0.228721033757117
 40
0.2325307831099219
 40
0.23745147279962
 40
0.2439042069167028
 40
0.2501032729601954
 40
0.2555527650455764
 40
0.2602624711027896
 40
0.2697517588051807
 40
0.2789605820721515
 40
0.2891958869206894
 40
0.2985915334049016
 40
0.324650414698302
 40
0.3488867300901419
 40
0.3681677966181294
 40
0.3914766777851103
 40
0.4156911669336821
 40
0.4395494903889108
 40
0.4620934125172267
 40
0.485251355435821
 40
0.500751649730995
 40
0.5151120713197604
 40
0.5278850502363349
 40
0.5425000416776687
 40
0.5521913846901992
 40
0.5594136402586168
 40
0.5684959174244848
 40
0.5789866002844557
 40
0.5892223006044711
 40
0.599048055444112
 40
0.6084646731971108
 40
0.6174730327693949
 40
0.6318939008290247
 40
0.6442361094915338
 40
0.6561405920526088
 40
0.6692177459981504
 40
0.6807052698104216
 40
0.6933291646365436
 40
0.7060214252513274
 40
0.7176320572749761
 40
0.7451677847143092
 40
0.7740562724363461
 40
0.8032305372942646
 40
0.834448446730866
 40
0.8451163100989556
 40
0.8558397372648655
 40
0.8666187007331944
 40
0.8768062971460793
 40
0.8848858290259091
 40
0.890797188913969
 40
0.8932461173852809
 40
0.8967810912369335
 40
0.9015540694027552
 40
0.9075641309048151
 40
0.9148101275736341
 40
0.9232906939757196
 40
0.9350947656978289
 40
0.9486712671929438
 40
0.9640167864659865
 40
0.9811276456257587
 40
1.0
 40
1.0
 40
1.0
 40
1.0
 10
382.6534021792358
 20
225.3080950252942
 30
0.0
 10
382.6413948827869
 20
225.300737906279
 30
0.0
 10
382.61924904964
 20
225.2871686960205
 30
0.0
 10
382.5896799322963
 20
225.2682415820756
 30
0.0
 10
382.566158729658
 20
225.2528142427868
 30
0.0
 10
382.5482160653328
 20
225.2407969410015
 30
0.0
 10
382.5340693569335
 20
225.2311781623457
 30
0.0
 10
382.5156009308569
 20
225.2184516920875
 30
0.0
 10
382.4903809648896
 20
225.2007004267636
 30
0.0
 10
382.4612441145075
 20
225.1795412573664
 30
0.0
 10
382.4333004379899
 20
225.1586661348407
 30
0.0
 10
382.4061794150703
 20
225.1378638847378
 30
0.0
 10
382.3773645990944
 20
225.1151493090962
 30
0.0
 10
382.3512451766773
 20
225.0939398419075
 30
0.0
 10
382.3284680448276
 20
225.0749784870095
 30
0.0
 10
382.3113851102058
 20
225.0604965415668
 30
0.0
 10
382.2970141707165
 20
225.0481104730147
 30
0.0
 10
382.2850215464329
 20
225.0376472487098
 30
0.0
 10
382.2728842824522
 20
225.0269436410115
 30
0.0
 10
382.2541765442252
 20
225.0102266844269
 30
0.0
 10
382.2316527182382
 20
224.9896476646674
 30
0.0
 10
382.2071473426189
 20
224.9666581763625
 30
0.0
 10
382.1850793358981
 20
224.9454898345242
 30
0.0
 10
382.1628822823012
 20
224.9237295871163
 30
0.0
 10
382.1406959322621
 20
224.901466342721
 30
0.0
 10
382.1218921254344
 20
224.8821633247898
 30
0.0
 10
382.1062853896037
 20
224.8658691582014
 30
0.0
 10
382.0922885055697
 20
224.8510559709968
 30
0.0
 10
382.0776729423502
 20
224.8353467620243
 30
0.0
 10
382.0640942916967
 20
224.8205228870738
 30
0.0
 10
382.0528450749518
 20
224.8080793362873
 30
0.0
 10
382.0425467271456
 20
224.7965685901134
 30
0.0
 10
382.031037606009
 20
224.7835679758712
 30
0.0
 10
382.0178105685802
 20
224.7684203858947
 30
0.0
 10
382.0042917992777
 20
224.7527008210431
 30
0.0
 10
381.992165667083
 20
224.73840150557
 30
0.0
 10
381.9777032328064
 20
224.7211376648013
 30
0.0
 10
381.9606421575809
 20
224.7004214497215
 30
0.0
 10
381.9398393642416
 20
224.6745899598989
 30
0.0
 10
381.9193774899778
 20
224.6485839870662
 30
0.0
 10
381.8874311234849
 20
224.6070189706289
 30
0.0
 10
381.8466971415282
 20
224.5517254336485
 30
0.0
 10
381.801012256341
 20
224.4858643920255
 30
0.0
 10
381.7587328483627
 20
224.4216635903838
 30
0.0
 10
381.7177438353169
 20
224.3561515133387
 30
0.0
 10
381.6757333852383
 20
224.2850208701804
 30
0.0
 10
381.6358271954551
 20
224.2133597794708
 30
0.0
 10
381.5981264909403
 20
224.1416440837553
 30
0.0
 10
381.5663337618235
 20
224.0775779428839
 30
0.0
 10
381.5398238588905
 20
224.0214464273184
 30
0.0
 10
381.5191035208363
 20
223.9758339279952
 30
0.0
 10
381.4994024803176
 20
223.9308823398547
 30
0.0
 10
381.4823945571665
 20
223.8906283676916
 30
0.0
 10
381.4682837364021
 20
223.8561054418098
 30
0.0
 10
381.4570038940125
 20
223.8278616595368
 30
0.0
 10
381.4456015963482
 20
223.7986641675107
 30
0.0
 10
381.4332083713317
 20
223.7660534331773
 30
0.0
 10
381.4207142633481
 20
223.7322025609877
 30
0.0
 10
381.4088705819262
 20
223.6991720443476
 30
0.0
 10
381.3977129803716
 20
223.6671618901428
 30
0.0
 10
381.3849371832943
 20
223.6294794267896
 30
0.0
 10
381.3713905032944
 20
223.5880419921756
 30
0.0
 10
381.3574231370493
 20
223.54347422277
 30
0.0
 10
381.344452252162
 20
223.5004578089136
 30
0.0
 10
381.3321959081292
 20
223.4581181410754
 30
0.0
 10
381.3201416592894
 20
223.4147235589308
 30
0.0
 10
381.3086296019154
 20
223.3715222798005
 30
0.0
 10
381.2975183778411
 20
223.3279072768744
 30
0.0
 10
381.2825170342877
 20
223.2663395036403
 30
0.0
 10
381.2641072025607
 20
223.1849050418299
 30
0.0
 10
381.2432250395016
 20
223.0812027867892
 30
0.0
 10
381.2238947722989
 20
222.9717568844103
 30
0.0
 10
381.2105447788829
 20
222.8836805474013
 30
0.0
 10
381.2016964173674
 20
222.8179325942014
 30
0.0
 10
381.1966095720788
 20
222.7775614223465
 30
0.0
 10
381.1919197132933
 20
222.7376308198367
 30
0.0
 10
381.1879079360596
 20
222.7008846885848
 30
0.0
 10
381.1847765951833
 20
222.6701898510525
 30
0.0
 10
381.1827565878307
 20
222.6492701703409
 30
0.0
 10
381.1813441630529
 20
222.6341344537737
 30
0.0
 10
381.1800997477542
 20
222.6204603886169
 30
0.0
 10
381.1784996618746
 20
222.6022378578412
 30
0.0
 10
381.176576493844
 20
222.5792529811245
 30
0.0
 10
381.1743928668876
 20
222.551473134631
 30
0.0
 10
381.171829895604
 20
222.5161827189501
 30
0.0
 10
381.1690003127553
 20
222.4726063359677
 30
0.0
 10
381.1660797840964
 20
222.4199400743948
 30
0.0
 10
381.1634212172457
 20
222.3600772393389
 30
0.0
 10
381.1611827625737
 20
222.2929560971608
 30
0.0
 10
381.1604041094501
 20
222.2455148792295
 30
0.0
 10
381.1599957240882
 20
222.2206330693852
 30
0.0
  0
LINE
  5
130
330
1F
100
AcDbEntity
  8
0
  6
Continuous
 62
     7
370
    30
100
AcDbLine
 10
386.2209982401
 20
227.4706160441
 30
0.0
 11
382.6504679694
 21
225.3063414811
 31
0.0
  0
SPLINE
  5
131
330
1F
100
AcDbEntity
  8
0
  6
Continuous
 62
     7
370
    30
100
AcDbSpline
210
0.0
220
0.0
230
1.0
 70
     8
 71
     3
 72
    45
 73
    41
 74
     0
 42
0.000000001
 43
0.00000001
 40
0.0
 40
0.0
 40
0.0
 40
0.0
 40
0.0143073724707075
 40
0.0414519362894462
 40
0.0685984430226757
 40
0.0957456673810253
 40
0.1228930656988011
 40
0.15003996807209
 40
0.1771857255019677
 40
0.2043296037789973
 40
0.231470778563101
 40
0.2586083312548679
 40
0.2857412459721746
 40
0.312868408010568
 40
0.3399886042128184
 40
0.3671005257165472
 40
0.3942027735821332
 40
0.4212938678072842
 40
0.4483722602301786
 40
0.4754363517640383
 40
0.5024845143224929
 40
0.5295151176534585
 40
0.5565265611063753
 40
0.5835173101218202
 40
0.6104859369372606
 40
0.6374311646790932
 40
0.6643519136747527
 40
0.6912473484752942
 40
0.7181169237870734
 40
0.7449604272729683
 40
0.7717780170533468
 40
0.798570251724118
 40
0.8253381108418788
 40
0.852083004101758
 40
0.8788067678540571
 40
0.9055116481456608
 40
0.9322002700927254
 40
0.9588755940704967
 40
0.9855408598758588
 40
1.0
 40
1.0
 40
1.0
 40
1.0
 10
389.3078909048815
 20
227.2010999155106
 30
0.0
 10
389.2920848221135
 20
227.2101630587889
 30
0.0
 10
389.2462907577439
 20
227.236421188192
 30
0.0
 10
389.1704880307751
 20
227.2782021873301
 30
0.0
 10
389.0805188158278
 20
227.3256996205076
 30
0.0
 10
388.9906028638028
 20
227.3709332451954
 30
0.0
 10
388.9007816320924
 20
227.4139179598947
 30
0.0
 10
388.8110946822426
 20
227.454622657176
 30
0.0
 10
388.7215819669024
 20
227.4930299070809
 30
0.0
 10
388.6322833868031
 20
227.5291198897478
 30
0.0
 10
388.5432390094075
 20
227.5628746857343
 30
0.0
 10
388.4544890426811
 20
227.5942771515072
 30
0.0
 10
388.3660738421275
 20
227.623311264856
 30
0.0
 10
388.2780339051193
 20
227.6499620814856
 30
0.0
 10
388.1904098634708
 20
227.6742158007136
 30
0.0
 10
388.1032424698141
 20
227.6960598065529
 30
0.0
 10
388.0165725773766
 20
227.7154827193617
 30
0.0
 10
387.9304411116535
 20
227.7324744476244
 30
0.0
 10
387.844889032842
 20
227.7470262412172
 30
0.0
 10
387.7599572879872
 20
227.7591307439035
 30
0.0
 10
387.6756867520971
 20
227.7687820433001
 30
0.0
 10
387.5921181578844
 20
227.77597571599
 30
0.0
 10
387.5092920143169
 20
227.7807088652377
 30
0.0
 10
387.4272485148148
 20
227.7829801485799
 30
0.0
 10
387.3460274366585
 20
227.7827897925592
 30
0.0
 10
387.2656680339984
 20
227.7801395919662
 30
0.0
 10
387.1862089275091
 20
227.7750328915875
 30
0.0
 10
387.1076879949525
 20
227.7674745481655
 30
0.0
 10
387.0301422655547
 20
227.7574708744991
 30
0.0
 10
386.9536078286089
 20
227.745029556074
 30
0.0
 10
386.8781197399996
 20
227.7301595787189
 30
0.0
 10
386.80371200975
 20
227.7128710321488
 30
0.0
 10
386.7304173814181
 20
227.693175307228
 30
0.0
 10
386.6582679981578
 20
227.671083776763
 30
0.0
 10
386.5872928867983
 20
227.6466121041134
 30
0.0
 10
386.517527431986
 20
227.619763576486
 30
0.0
 10
386.448978276542
 20
227.5905906709253
 30
0.0
 10
386.3817545425416
 20
227.5589649764624
 30
0.0
 10
386.3256703756538
 20
227.5305480333025
 30
0.0
 10
386.2925215016195
 20
227.5117701341051
 30
0.0
 10
386.2808665195283
 20
227.5051679165266
 30
0.0
  0
SPLINE
  5
132
330
1F
100
AcDbEntity
  8
0
  6
Continuous
 62
     7
370
    30
100
AcDbSpline
210
0.0
220
0.0
230
1.0
 70
     8
 71
     3
 72
    33
 73
    29
 74
     0
 42
0.000000001
 43
0.00000001
 40
0.0
 40
0.0
 40
0.0
 40
0.0
 40
0.0211514094273223
 40
0.0613383936797871
 40
0.1015253805317931
 40
0.1417123690340034
 40
0.1818993592086702
 40
0.2220863510049228
 40
0.2622733444368228
 40
0.3024603395137339
 40
0.3426473361860224
 40
0.3828343344719135
 40
0.4230213343574121
 40
0.4632083358255252
 40
0.5033953388791148
 40
0.5435823434989028
 40
0.5837693496797739
 40
0.6239563574116963
 40
0.6641433666786679
 40
0.7043303774828777
 40
0.7445173898073978
 40
0.7847044036444817
 40
0.8248914189872129
 40
0.8650784358147973
 40
0.9052654541338531
 40
0.9454524739168866
 40
0.9856394951679327
 40
1.0
 40
1.0
 40
1.0
 40
1.0
 10
381.1599956222126
 20
222.220624904776
 30
0.0
 10
381.1541845537126
 20
221.7503476742222
 30
0.0
 10
381.1373326456365
 20
220.3865591283354
 30
0.0
 10
381.1108497660096
 20
218.1300775952235
 30
0.0
 10
381.0811531001068
 20
215.4515341777891
 30
0.0
 10
381.0533265723516
 20
212.7740799480076
 30
0.0
 10
381.0273384565323
 20
210.0976983002621
 30
0.0
 10
381.0031972771929
 20
207.4223959438031
 30
0.0
 10
380.9809007721038
 20
204.7481733343209
 30
0.0
 10
380.9604495677979
 20
202.0750326022844
 30
0.0
 10
380.9418435152067
 20
199.4029754283908
 30
0.0
 10
380.9250826715374
 20
196.7320036134339
 30
0.0
 10
380.9101670371639
 20
194.0621189245241
 30
0.0
 10
380.8970966261597
 20
191.3933231370407
 30
0.0
 10
380.8858714472834
 20
188.7256180233806
 30
0.0
 10
380.8764915095152
 20
186.0590053558004
 30
0.0
 10
380.8689568189093
 20
183.3934869050931
 30
0.0
 10
380.8632673856582
 20
180.7290644444889
 30
0.0
 10
380.8594231989791
 20
178.0657397343977
 30
0.0
 10
380.8574243204989
 20
175.4035145791261
 30
0.0
 10
380.8572705358381
 20
172.7423906160991
 30
0.0
 10
380.8589626548827
 20
170.0823701016026
 30
0.0
 10
380.8624976591156
 20
167.4234529796693
 30
0.0
 10
380.8678868120228
 20
164.7656478203056
 30
0.0
 10
380.8750880701219
 20
162.1089309967281
 30
0.0
 10
380.8842583284704
 20
159.4533990398824
 30
0.0
 10
380.8925512205366
 20
157.3673880485669
 30
0.0
 10
380.898422044463
 20
156.16693833289
 30
0.0
 10
380.8999676323461
 20
155.8509008298075
 30
0.0
  0
SPLINE
  5
133
330
1F
100
AcDbEntity
  8
0
  6
Continuous
 62
     7
370
    30
100
AcDbSpline
210
0.0
220
0.0
230
1.0
 70
     8
 71
     3
 72
   118
 73
   114
 74
     0
 42
0.000000001
 43
0.00000001
 40
0.0
 40
0.0
 40
0.0
 40
0.0
 40
0.0209022767790377
 40
0.0394021967953121
 40
0.0554981896616644
 40
0.069188432407903
 40
0.0803039381830866
 40
0.0890892170695589
 40
0.0955428497619287
 40
0.1015999091184581
 40
0.1092786186952799
 40
0.1184001069790552
 40
0.1284056878353259
 40
0.1378267812346037
 40
0.1466132563065042
 40
0.1607232805472821
 40
0.1728248606817818
 40
0.1833566102279835
 40
0.1924991374981817
 40
0.1994870152499418
 40
0.2066684698420958
 40
0.2164192689501734
 40
0.2286698065141635
 40
0.2416350255905765
 40
0.2547271038439947
 40
0.2679344549562735
 40
0.2798589180028973
 40
0.2889435761233805
 40
0.2966910922461274
 40
0.3052491464219979
 40
0.3148064380436671
 40
0.3255944967124056
 40
0.3379243134433461
 40
0.3517882062598129
 40
0.3681289715670367
 40
0.384535321999405
 40
0.3992536707215337
 40
0.4122007169898348
 40
0.4234452233875585
 40
0.4348002827420043
 40
0.4450947992936071
 40
0.4543356759425788
 40
0.4635438858716771
 40
0.4751333343074166
 40
0.489821116145302
 40
0.5008351124092268
 40
0.5150605133140077
 40
0.5224226601918845
 40
0.5283059371018755
 40
0.5341952210837061
 40
0.5415665788241086
 40
0.5497988646171506
 40
0.5569784000071951
 40
0.5628178901627
 40
0.5699233952492178
 40
0.5786397388849245
 40
0.5862293440337134
 40
0.5920988324346136
 40
0.600516094194261
 40
0.6105319748043798
 40
0.6203507070764208
 40
0.6296621811960698
 40
0.6387843966444651
 40
0.6471901124735927
 40
0.6566211517399192
 40
0.6675951052116956
 40
0.6795660498490663
 40
0.6863615830749109
 40
0.6921976335944882
 40
0.698351456322751
 40
0.7057073133337758
 40
0.7138478085944773
 40
0.7200324328694017
 40
0.7242907454906435
 40
0.7299447544873976
 40
0.7378048862128604
 40
0.7456131870205778
 40
0.7521734077022914
 40
0.7616712566740168
 40
0.7721409952772877
 40
0.7809175755546297
 40
0.7891972166524888
 40
0.7932270731443528
 40
0.7982401354158318
 40
0.8042471471647675
 40
0.8109879587542953
 40
0.8165784332731724
 40
0.8206819139287083
 40
0.8250390748968592
 40
0.8330824142948734
 40
0.8411741313635631
 40
0.8482319465961881
 40
0.8542486004417119
 40
0.8592077691943265
 40
0.8625473919328775
 40
0.8670073226481487
 40
0.8729512686693862
 40
0.8790511249079276
 40
0.8838811171858064
 40
0.8910362334430303
 40
0.9016478982786484
 40
0.9111469409181133
 40
0.918913990998129
 40
0.9270078716078154
 40
0.9354995341006305
 40
0.943382362446912
 40
0.9491396000516057
 40
0.9549815202648751
 40
0.9609947651864927
 40
0.9674029785258008
 40
0.9758565165754999
 40
0.9867190067651997
 40
1.0
 40
1.0
 40
1.0
 40
1.0
 10
454.4449971545054
 20
78.97425549468323
 30
0.0
 10
454.4690007554423
 20
78.96086367533525
 30
0.0
 10
454.5142491567486
 20
78.93561919565612
 30
0.0
 10
454.5780845728746
 20
78.90152226575498
 30
0.0
 10
454.633668912054
 20
78.87265687496229
 30
0.0
 10
454.6807880980267
 20
78.84885602106942
 30
0.0
 10
454.7195107628838
 20
78.8297389071334
 30
0.0
 10
454.7499150407783
 20
78.81500932885835
 30
0.0
 10
454.7745101379996
 20
78.80326729969842
 30
0.0
 10
454.7978871495405
 20
78.79224220170595
 30
0.0
 10
454.8243869107061
 20
78.77991299012609
 30
0.0
 10
454.8554912595982
 20
78.76568345215479
 30
0.0
 10
454.8886333286285
 20
78.75081504096457
 30
0.0
 10
454.9213943126463
 20
78.73641173840304
 30
0.0
 10
454.9589338893046
 20
78.72022316101268
 30
0.0
 10
454.9996034244759
 20
78.70311439127143
 30
0.0
 10
455.0423481750965
 20
78.68564945720422
 30
0.0
 10
455.0793302922853
 20
78.6709252157157
 30
0.0
 10
455.1103730609484
 20
78.6588473837492
 30
0.0
 10
455.1375317024163
 20
78.64848283608511
 30
0.0
 10
455.1654433125362
 20
78.6380135554188
 30
0.0
 10
455.1995304031023
 20
78.62549492954199
 30
0.0
 10
455.2403687981598
 20
78.61091266170095
 30
0.0
 10
455.2851271755654
 20
78.59545318605471
 30
0.0
 10
455.3310183154978
 20
78.58015683920539
 30
0.0
 10
455.3757043742596
 20
78.56580781923158
 30
0.0
 10
455.4157010250772
 20
78.55343205527463
 30
0.0
 10
455.4493215420672
 20
78.54335810192808
 30
0.0
 10
455.4790458110488
 20
78.5346851832168
 30
0.0
 10
455.5093383092393
 20
78.52607763930389
 30
0.0
 10
455.5431915416914
 20
78.51674587551224
 30
0.0
 10
455.5814597489719
 20
78.50656258361255
 30
0.0
 10
455.6248041383338
 20
78.49550113164622
 30
0.0
 10
455.6745010898782
 20
78.48343197465698
 30
0.0
 10
455.7295118633972
 20
78.47085818909855
 30
0.0
 10
455.7860781147804
 20
78.45883046239535
 30
0.0
 10
455.8380040562878
 20
78.44857466716637
 30
0.0
 10
455.8834935871629
 20
78.44019621754411
 30
0.0
 10
455.9244195860138
 20
78.4331308153594
 30
0.0
 10
455.96237285249
 20
78.42698912593654
 30
0.0
 10
455.9981469141883
 20
78.42157491872781
 30
0.0
 10
456.031659362384
 20
78.41682271999032
 30
0.0
 10
456.0667757298843
 20
78.41216275337156
 30
0.0
 10
456.1082515832392
 20
78.40708660730886
 30
0.0
 10
456.1517926992567
 20
78.4023282634032
 30
0.0
 10
456.1983581681363
 20
78.3978400197638
 30
0.0
 10
456.2364012802148
 20
78.39465868267145
 30
0.0
 10
456.2683890269656
 20
78.39233562275786
 30
0.0
 10
456.2906560674331
 20
78.39086922737309
 30
0.0
 10
456.3129477442159
 20
78.38953596806746
 30
0.0
 10
456.3379660284446
 20
78.38821078603885
 30
0.0
 10
456.3644524897667
 20
78.38702194461273
 30
0.0
 10
456.3891275649627
 20
78.3861122843767
 30
0.0
 10
456.412480180109
 20
78.385410228765
 30
0.0
 10
456.4376341278959
 20
78.38482502323451
 30
0.0
 10
456.4647900903694
 20
78.38442024619088
 30
0.0
 10
456.4904657410945
 20
78.38425976117381
 30
0.0
 10
456.5157694352752
 20
78.38428316876455
 30
0.0
 10
456.5438875434922
 20
78.3845244932124
 30
0.0
 10
456.5765333625748
 20
78.38512955032984
 30
0.0
 10
456.6101547861161
 20
78.38611514200578
 30
0.0
 10
456.642701847886
 20
78.38741014011232
 30
0.0
 10
456.673587679323
 20
78.38895323367268
 30
0.0
 10
456.704561319404
 20
78.39080248770571
 30
0.0
 10
456.7376330777884
 20
78.39310729486687
 30
0.0
 10
456.7747329549217
 20
78.39612038253138
 30
0.0
 10
456.808733277391
 20
78.39932648518213
 30
0.0
 10
456.8367970540048
 20
78.40227589349888
 30
0.0
 10
456.8582103365383
 20
78.40468305857651
 30
0.0
 10
456.8802537780429
 20
78.40731521956725
 30
0.0
 10
456.9048804696243
 20
78.41045111107262
 30
0.0
 10
456.9294835359091
 20
78.41380920922741
 30
0.0
 10
456.950517350986
 20
78.41685923743105
 30
0.0
 10
456.9687310577976
 20
78.4196140652873
 30
0.0
 10
456.9888512151305
 20
78.42277730947603
 30
0.0
 10
457.0129307311831
 20
78.4267602387744
 30
0.0
 10
457.0379639472606
 20
78.43114010550323
 30
0.0
 10
457.0647772104555
 20
78.4360680424086
 30
0.0
 10
457.0945414634451
 20
78.44183417018355
 30
0.0
 10
457.1267114804444
 20
78.44846846953065
 30
0.0
 10
457.1574174251033
 20
78.45517474934292
 30
0.0
 10
457.1808875824979
 20
78.46055649903444
 30
0.0
 10
457.2001409260341
 20
78.46512426490906
 30
0.0
 10
457.2168473737444
 20
78.46918584563126
 30
0.0
 10
457.2365185130085
 20
78.47410971283617
 30
0.0
 10
457.2567692752484
 20
78.47934826946434
 30
0.0
 10
457.2748690499148
 20
78.48417803420371
 30
0.0
 10
457.2903231379222
 20
78.48840156269446
 30
0.0
 10
457.3084745864066
 20
78.49346520668207
 30
0.0
 10
457.3309602754719
 20
78.49992621793639
 30
0.0
 10
457.3563110394272
 20
78.50748901256834
 30
0.0
 10
457.3793695540015
 20
78.51460805560676
 30
0.0
 10
457.3989658333425
 20
78.52083591371975
 30
0.0
 10
457.4144831105355
 20
78.5258864961967
 30
0.0
 10
457.4282998719114
 20
78.53046427676496
 30
0.0
 10
457.4431806647179
 20
78.53547680242126
 30
0.0
 10
457.4610071649627
 20
78.54161388653766
 30
0.0
 10
457.4791698507095
 20
78.54802389911391
 30
0.0
 10
457.4985490070202
 20
78.55501639461428
 30
0.0
 10
457.5226855860464
 20
78.5639357179021
 30
0.0
 10
457.5517712477552
 20
78.57506446705176
 30
0.0
 10
457.5813076075453
 20
78.58680977927479
 30
0.0
 10
457.6080677659419
 20
78.59780049169765
 30
0.0
 10
457.6336826628273
 20
78.60863237031901
 30
0.0
 10
457.6593110433449
 20
78.61979998282645
 30
0.0
 10
457.6825384295271
 20
78.63021995464308
 30
0.0
 10
457.7031514775401
 20
78.63969670707411
 30
0.0
 10
457.7210369588701
 20
78.64808658800942
 30
0.0
 10
457.7389465900422
 20
78.65665543046838
 30
0.0
 10
457.7584920520262
 20
78.66619234404872
 30
0.0
 10
457.784659783511
 20
78.67926406332434
 30
0.0
 10
457.8184895521026
 20
78.69665981804755
 30
0.0
 10
457.843862630651
 20
78.71041456330404
 30
0.0
 10
457.8578200070007
 20
78.71798085667963
 30
0.0
  0
LINE
  5
134
330
1F
100
AcDbEntity
  8
0
  6
Continuous
 62
     7
370
    30
100
AcDbLine
 10
457.8552652732
 20
78.7165559509
 30
0.0
 11
461.5147424286
 21
80.7260840929
 31
0.0
  0
SPLINE
  5
135
330
1F
100
AcDbEntity
  8
0
  6
Continuous
 62
     7
370
    30
100
AcDbSpline
210
0.0
220
0.0
230
1.0
 70
     8
 71
     3
 72
    45
 73
    41
 74
     0
 42
0.000000001
 43
0.00000001
 40
0.0
 40
0.0
 40
0.0
 40
0.0
 40
0.0189547680459794
 40
0.0456575537803102
 40
0.072363415219132
 40
0.0990759322343201
 40
0.1257985309539665
 40
0.1525344116802742
 40
0.1792864854078599
 40
0.2060573210620008
 40
0.2328491050047875
 40
0.2596636137284024
 40
0.286502199994333
 40
0.3133657920487941
 40
0.3402549049646926
 40
0.3671696626776545
 40
0.3941098289256142
 40
0.421074845066344
 40
0.4480638726603233
 40
0.4750758387405261
 40
0.5021094818410871
 40
0.5291633970882262
 40
0.556236078952765
 40
0.5833259605817106
 40
0.6104314489544548
 40
0.6375509554122932
 40
0.6646829213841075
 40
0.6918258393539718
 40
0.7189782692999659
 40
0.7461388509548325
 40
0.7733063123301059
 40
0.8004794749829229
 40
0.8276572565228643
 40
0.8548386708392776
 40
0.882022826501207
 40
0.9092089237424905
 40
0.9363962503906483
 40
0.9635841770558902
 40
0.9907720199976813
 40
1.0
 40
1.0
 40
1.0
 40
1.0
 10
461.5793537063191
 20
80.76341295625808
 30
0.0
 10
461.5943942320364
 20
80.77241728480871
 30
0.0
 10
461.6306233016909
 20
80.7941065829347
 30
0.0
 10
461.6864678761865
 20
80.83112747653651
 30
0.0
 10
461.7470810043835
 20
80.87406429967717
 30
0.0
 10
461.8062296271403
 20
80.91932594650403
 30
0.0
 10
461.8639511114182
 20
80.96679021795552
 30
0.0
 10
461.9202050954546
 20
81.01646690549467
 30
0.0
 10
461.9749721611978
 20
81.06832951806246
 30
0.0
 10
462.0282273503555
 20
81.12236023315131
 30
0.0
 10
462.0799472695633
 20
81.17853768176842
 30
0.0
 10
462.1301082226172
 20
81.23684006949306
 30
0.0
 10
462.1786867798441
 20
81.29724419979264
 30
0.0
 10
462.2256597198375
 20
81.35972561831328
 30
0.0
 10
462.2710041598725
 20
81.42425848331422
 30
0.0
 10
462.3146976495651
 20
81.49081553959095
 30
0.0
 10
462.3567182816009
 20
81.55936809589754
 30
0.0
 10
462.3970447986673
 20
81.62988603212878
 30
0.0
 10
462.4356566963776
 20
81.70233782704803
 30
0.0
 10
462.4725343173455
 20
81.77669060558573
 30
0.0
 10
462.5076589339124
 20
81.85291020161992
 30
0.0
 10
462.5410128175916
 20
81.93096123248098
 30
0.0
 10
462.5725792943174
 20
82.0108071811995
 30
0.0
 10
462.6023427853846
 20
82.09241048278093
 30
0.0
 10
462.6302888346806
 20
82.1757326111657
 30
0.0
 10
462.6564041233265
 20
82.2607341640785
 30
0.0
 10
462.6806764732697
 20
82.34737494353156
 30
0.0
 10
462.7030948414292
 20
82.43561403043844
 30
0.0
 10
462.7236493066445
 20
82.52540985205614
 30
0.0
 10
462.7423310495244
 20
82.61672024262955
 30
0.0
 10
462.7591323330989
 20
82.70950249377151
 30
0.0
 10
462.7740464624179
 20
82.80371340737322
 30
0.0
 10
462.7870678114646
 20
82.89930930467266
 30
0.0
 10
462.7981915932921
 20
82.99624616707662
 30
0.0
 10
462.8074145879045
 20
83.09447925649971
 30
0.0
 10
462.8147322982048
 20
83.19396465344592
 30
0.0
 10
462.8201494437617
 20
83.29465361597327
 30
0.0
 10
462.8236406757476
 20
83.39651355122116
 30
0.0
 10
462.824932363846
 20
83.47678400845216
 30
0.0
 10
462.8250218312718
 20
83.52310538046933
 30
0.0
 10
462.8250445028345
 20
83.53484348385673
 30
0.0
  0
SPLINE
  5
136
330
1F
100
AcDbEntity
  8
0
  6
Continuous
 62
     7
370
    30
100
AcDbSpline
210
0.0
220
0.0
230
1.0
 70
     8
 71
     3
 72
    33
 73
    29
 74
     0
 42
0.000000001
 43
0.00000001
 40
0.0
 40
0.0
 40
0.0
 40
0.0
 40
0.0134296350945602
 40
0.0536078046716745
 40
0.0937859728417295
 40
0.1339641396079073
 40
0.1741423049350185
 40
0.2143204688323083
 40
0.2544986312874611
 40
0.2946767922897593
 40
0.3348549518215686
 40
0.3750331098710769
 40
0.415211266453308
 40
0.4553894215305986
 40
0.4955675750973749
 40
0.5357457271521782
 40
0.5759238776817728
 40
0.6161020266850504
 40
0.656280174127433
 40
0.6964583200282126
 40
0.7366364643637774
 40
0.7768146071286619
 40
0.8169927483003052
 40
0.8571708879025288
 40
0.8973490258860015
 40
0.9375271622664232
 40
0.9777052970309938
 40
1.0
 40
1.0
 40
1.0
 40
1.0
 10
396.9728588517592
 20
112.0147974179473
 30
0.0
 10
397.22747182568
 20
111.8654093009159
 30
0.0
 10
398.2438242787966
 20
111.2690886308681
 30
0.0
 10
400.023852430854
 20
110.226897571967
 30
0.0
 10
402.3129571835901
 20
108.8882340668764
 30
0.0
 10
404.6040827634066
 20
107.5506829818039
 30
0.0
 10
406.8970603100783
 20
106.2141534425955
 30
0.0
 10
409.1919331376559
 20
104.8786709238677
 30
0.0
 10
411.4886877070648
 20
103.5442297235795
 30
0.0
 10
413.7873257110028
 20
102.2108324927983
 30
0.0
 10
416.0878447591106
 20
100.8784796435801
 30
0.0
 10
418.3902435539919
 20
99.54717218676038
 30
0.0
 10
420.6945205035509
 20
98.21691097199586
 30
0.0
 10
423.0006740930975
 20
96.8876968912467
 30
0.0
 10
425.3087027853154
 20
95.55953082441032
 30
0.0
 10
427.6186050478255
 20
94.23241365355656
 30
0.0
 10
429.9303793452837
 20
92.90634625901426
 30
0.0
 10
432.2440241419769
 20
91.5813295216354
 30
0.0
 10
434.5595378973265
 20
90.25736431879209
 30
0.0
 10
436.8769190845666
 20
88.93445153626281
 30
0.0
 10
439.1961661185354
 20
87.6125920258051
 30
0.0
 10
441.5172776274005
 20
86.29178676210091
 30
0.0
 10
443.8402514352132
 20
84.97203625896042
 30
0.0
 10
446.1650883637378
 20
83.65334274543245
 30
0.0
 10
448.4917780388274
 20
82.33570204725973
 30
0.0
 10
450.8203518662554
 20
81.01913388318755
 30
0.0
 10
452.8049387598052
 20
79.89875636009086
 30
0.0
 10
454.0136412011208
 20
79.2174108312966
 30
0.0
 10
454.4449912547547
 20
78.97425881940129
 30
0.0
  0
LINE
  5
137
330
1F
100
AcDbEntity
  8
0
  6
Continuous
 62
     7
370
    30
100
AcDbLine
 10
405.9119365482
 20
170.29000314
 30
0.0
 11
373.5264596381
 21
151.5942652698
 31
0.0
  0
LINE
  5
138
330
1F
100
AcDbEntity
  8
0
  6
Continuous
 62
     7
370
    30
100
AcDbLine
 10
396.5248485365
 20
111.7561665681
 30
0.0
 11
428.9100673988
 21
130.4517554705
 31
0.0
  0
SPLINE
  5
139
330
1F
100
AcDbEntity
  8
0
  6
Continuous
 62
     7
370
    30
100
AcDbSpline
210
0.0
220
0.0
230
1.0
 70
     8
 71
     3
 72
   205
 73
   201
 74
     0
 42
0.000000001
 43
0.00000001
 40
0.0
 40
0.0
 40
0.0
 40
0.0
 40
0.0005705203352823
 40
0.0054886962137417
 40
0.0104068480792043
 40
0.0153252931217446
 40
0.0202443936114123
 40
0.025164508718958
 40
0.0300859929515706
 40
0.0350091946179703
 40
0.0399344543323842
 40
0.0448621035666186
 40
0.0497924632589036
 40
0.0547258424883037
 40
0.0596625372228593
 40
0.0646028291493645
 40
0.0695469845923929
 40
0.0744952535293491
 40
0.079447868708171
 40
0.0844050448731546
 40
0.0893669781040578
 40
0.0943338452724811
 40
0.0993058036187004
 40
0.104282990451245
 40
0.1092655229702828
 40
0.1142534982148782
 40
0.119246993132901
 40
0.1242460647714221
 40
0.1292507505840594
 40
0.1342610688506564
 40
0.1392770192036499
 40
0.1442985832542016
 40
0.149325725310696
 40
0.1543583931807564
 40
0.1593965190476885
 40
0.16444002041152
 40
0.1694888010841707
 40
0.1745427522285778
 40
0.1796017534306461
 40
0.1846656737938163
 40
0.1897343730456573
 40
0.1948077026463924
 40
0.1998855068898727
 40
0.2049676239879898
 40
0.2100538871302375
 40
0.2151441255108869
 40
0.2202381653172503
 40
0.225335830673128
 40
0.2304369445327401
 40
0.2355413295210657
 40
0.2406488087176134
 40
0.2457592063815445
 40
0.2508723486166904
 40
0.255988063975897
 40
0.2611061840049653
 40
0.2662265437267771
 40
0.2713489820672126
 40
0.2764733422243698
 40
0.2815994719836121
 40
0.2867272239808756
 40
0.2918564559171068
 40
0.2969870307268961
 40
0.3021188167045226
 40
0.3072516875906295
 40
0.3123855226227095
 40
0.3175202065529446
 40
0.3226556296363496
 40
0.3277916875924878
 40
0.3329282815437694
 40
0.3380653179330827
 40
0.3432027084236764
 40
0.3483403697837141
 40
0.3534782237579334
 40
0.3586161969286136
 40
0.363754217829461
 40
0.368892204583972
 40
0.3740300988046523
 40
0.379167846260597
 40
0.3843053967131627
 40
0.3894427037495092
 40
0.3945797246165206
 40
0.3997164200561205
 40
0.404852754142593
 40
0.4099886941227759
 40
0.4151242102594889
 40
0.420259275678762
 40
0.4253938662212093
 40
0.4305279602979517
 40
0.4356615387511689
 40
0.4407945847195446
 40
0.445927083508753
 40
0.4510590224669925
 40
0.4561903908656332
 40
0.4613211797850252
 40
0.4664513820053235
 40
0.4715809919023569
 40
0.4767100053484562
 40
0.4818384196181104
 40
0.4869662332983392
 40
0.4920934462036331
 40
0.4972200592954294
 40
0.5023460746058601
 40
0.5074714951655921
 40
0.5125963249358171
 40
0.5177205687440107
 40
0.5228442322233595
 40
0.5279673217558162
 40
0.5330898444184345
 40
0.5382118079330622
 40
0.5433332206189629
 40
0.5484540913485055
 40
0.5535744295055465
 40
0.5586942449465173
 40
0.563813547964001
 40
0.5689323492526508
 40
0.574050659877517
 40
0.5791684912442264
 40
0.5842858550715101
 40
0.5894027633653689
 40
0.5945192283951782
 40
0.599635262671435
 40
0.6047508789251435
 40
0.6098660900886219
 40
0.6149809092778048
 40
0.6200953497758525
 40
0.6252094250179855
 40
0.6303231485774708
 40
0.6354365341527719
 40
0.6405495955556952
 40
0.645662346700443
 40
0.6507748015936269
 40
0.6558869743251247
 40
0.6609988790597036
 40
0.6661105300292807
 40
0.6712219415259938
 40
0.6763331278959114
 40
0.681444103533071
 40
0.68655488287443
 40
0.6916654803949513
 40
0.6967759106034069
 40
0.7018861880384177
 40
0.7069963272649759
 40
0.7121063428712413
 40
0.7172162494656763
 40
0.7223260616744461
 40
0.7274357941390202
 40
0.7325454615140546
 40
0.7376550784653746
 40
0.7427646596681731
 40
0.7478742198052344
 40
0.7529837735653637
 40
0.7580933346147098
 40
0.7632029137784945
 40
0.7683125257546676
 40
0.773422185241482
 40
0.778531906935887
 40
0.7836417055318153
 40
0.7887515957184389
 40
0.7938615921782852
 40
0.7989717095851726
 40
0.8040819626019489
 40
0.8091923658780719
 40
0.8143029340468455
 40
0.8194136817224598
 40
0.824524623496674
 40
0.8296357739350915
 40
0.834747147573161
 40
0.8398587589116387
 40
0.8449706224116589
 40
0.8500827524892538
 40
0.8551951635093055
 40
0.8603078697789812
 40
0.8654208855403628
 40
0.8705342249625592
 40
0.8756479021329713
 40
0.8807619310477546
 40
0.8858763256013683
 40
0.8909910995753757
 40
0.8961062666260108
 40
0.901221840270884
 40
0.9063378338744559
 40
0.911454260632299
 40
0.9165711335541363
 40
0.9216884654454667
 40
0.9268062688877128
 40
0.9319245562169011
 40
0.9370433395005634
 40
0.9421626305130856
 40
0.9472824407089466
 40
0.9524027811942432
 40
0.9575236626960234
 40
0.962645095529348
 40
0.967767089562231
 40
0.9728896541778821
 40
0.9780127982345925
 40
0.98313653002271
 40
0.9882608572188942
 40
0.9933857868371875
 40
0.998511325177137
 40
1.0
 40
1.0
 40
1.0
 40
1.0
 10
358.861545285896
 20
143.8210347307759
 30
0.0
 10
358.8564816988377
 20
143.8181626411223
 30
0.0
 10
358.8077674122532
 20
143.7905316757876
 30
0.0
 10
358.7166598200616
 20
143.735959700442
 30
0.0
 10
358.5883403022239
 20
143.6571718324741
 30
0.0
 10
358.4615194792354
 20
143.5758734666836
 30
0.0
 10
358.336039708409
 20
143.4923678477405
 30
0.0
 10
358.2119581355299
 20
143.4065832359405
 30
0.0
 10
358.0892742976817
 20
143.3185482984058
 30
0.0
 10
357.9680032570857
 20
143.2282647988119
 30
0.0
 10
357.8481560209174
 20
143.1357417481069
 30
0.0
 10
357.7297448085251
 20
143.0409862812758
 30
0.0
 10
357.6127816550935
 20
142.9440061363655
 30
0.0
 10
357.4972787986156
 20
142.8448090250311
 30
0.0
 10
357.3832485855081
 20
142.743402838124
 30
0.0
 10
357.2707035019863
 20
142.6397956286239
 30
0.0
 10
357.1596561683435
 20
142.5339956551576
 30
0.0
 10
357.0501193397784
 20
142.4260114097553
 30
0.0
 10
356.9421059020686
 20
142.315851649922
 30
0.0
 10
356.8356288652629
 20
142.2035254292296
 30
0.0
 10
356.7307013546082
 20
142.0890421275756
 30
0.0
 10
356.6273365990252
 20
141.9724114803951
 30
0.0
 10
356.5255479171805
 20
141.8536436066208
 30
0.0
 10
356.4253487013121
 20
141.732749035063
 30
0.0
 10
356.3267523989669
 20
141.6097387289357
 30
0.0
 10
356.229772492834
 20
141.4846241082657
 30
0.0
 10
356.134422478888
 20
141.3574170699502
 30
0.0
 10
356.0407158430646
 20
141.2281300052562
 30
0.0
 10
355.9486660367136
 20
141.0967758145904
 30
0.0
 10
355.8582864510876
 20
140.9633679193991
 30
0.0
 10
355.7695903911313
 20
140.8279202711047
 30
0.0
 10
355.6825910488429
 20
140.6904473570137
 30
0.0
 10
355.5973014764825
 20
140.5509642031832
 30
0.0
 10
355.5137345598951
 20
140.4094863742623
 30
0.0
 10
355.4319029922136
 20
140.2660299703752
 30
0.0
 10
355.3518192481947
 20
140.1206116211419
 30
0.0
 10
355.2734955594215
 20
139.9732484769715
 30
0.0
 10
355.1969438905969
 20
139.8239581977983
 30
0.0
 10
355.1221759171218
 20
139.6727589394503
 30
0.0
 10
355.049203004135
 20
139.5196693378761
 30
0.0
 10
354.9780361871608
 20
139.3647084914631
 30
0.0
 10
354.908686154488
 20
139.2078959417043
 30
0.0
 10
354.8411632313718
 20
139.0492516524757
 30
0.0
 10
354.7754773661259
 20
138.8887959881897
 30
0.0
 10
354.7116381181411
 20
138.7265496910952
 30
0.0
 10
354.649654647843
 20
138.5625338579842
 30
0.0
 10
354.5895357085745
 20
138.3967699165608
 30
0.0
 10
354.5312896403671
 20
138.2292796017124
 30
0.0
 10
354.4749243655411
 20
138.0600849319106
 30
0.0
 10
354.4204473860615
 20
137.8892081859494
 30
0.0
 10
354.3678657825532
 20
137.7166718802091
 30
0.0
 10
354.3171862148733
 20
137.5424987466109
 30
0.0
 10
354.2684149241227
 20
137.3667117114091
 30
0.0
 10
354.2215577359733
 20
137.1893338749412
 30
0.0
 10
354.1766200651827
 20
137.0103884924369
 30
0.0
 10
354.1336069211635
 20
136.8298989559622
 30
0.0
 10
354.0925229144763
 20
136.6478887775568
 30
0.0
 10
354.0533722641142
 20
136.4643815736013
 30
0.0
 10
354.0161588054535
 20
136.2794010504354
 30
0.0
 10
353.9808859987451
 20
136.0929709912267
 30
0.0
 10
353.9475569380331
 20
135.9051152440822
 30
0.0
 10
353.9161743603882
 20
135.7158577113737
 30
0.0
 10
353.8867406553552
 20
135.5252223402429
 30
0.0
 10
353.8592578745215
 20
135.3332331142415
 30
0.0
 10
353.83372774112
 20
135.1399140460521
 30
0.0
 10
353.8101516595918
 20
134.9452891712317
 30
0.0
 10
353.788530725039
 20
134.7493825429134
 30
0.0
 10
353.7688657325094
 20
134.5522182273997
 30
0.0
 10
353.7511571860632
 20
134.3538203005807
 30
0.0
 10
353.7354053075765
 20
134.1542128451059
 30
0.0
 10
353.7216100452471
 20
133.953419948242
 30
0.0
 10
353.709771081774
 20
133.751465700347
 30
0.0
 10
353.6998878421872
 20
133.548374193897
 30
0.0
 10
353.691959502721
 20
133.344169559279
 30
0.0
 10
353.6859850017855
 20
133.1388761648467
 30
0.0
 10
353.6819630293662
 20
132.9325183680312
 30
0.0
 10
353.679892034525
 20
132.7251204786569
 30
0.0
 10
353.6797702369346
 20
132.5167065552495
 30
0.0
 10
353.6815956397592
 20
132.3073006615368
 30
0.0
 10
353.6853660347307
 20
132.0969268678117
 30
0.0
 10
353.6910790068632
 20
131.8856092524278
 30
0.0
 10
353.6987319388159
 20
131.6733719033737
 30
0.0
 10
353.7083220149186
 20
131.4602389198933
 30
0.0
 10
353.7198462248746
 20
131.246234414124
 30
0.0
 10
353.7333013671567
 20
131.0313825127257
 30
0.0
 10
353.7486840521125
 20
130.8157073584816
 30
0.0
 10
353.7659907047947
 20
130.5992331118473
 30
0.0
 10
353.7852175675349
 20
130.3819839524321
 30
0.0
 10
353.806360702275
 20
130.163984080399
 30
0.0
 10
353.829415992675
 20
129.9452577177704
 30
0.0
 10
353.8543791460112
 20
129.7258291096271
 30
0.0
 10
353.8812456948826
 20
129.5057225251958
 30
0.0
 10
353.9100109987388
 20
129.2849622588132
 30
0.0
 10
353.9406702452464
 20
129.0635726307665
 30
0.0
 10
353.9732184515054
 20
128.8415779880013
 30
0.0
 10
354.0076504651324
 20
128.6190027046988
 30
0.0
 10
354.0439609652201
 20
128.3958711827159
 30
0.0
 10
354.082144463189
 20
128.1722078518912
 30
0.0
 10
354.1221953035394
 20
127.9480371702146
 30
0.0
 10
354.1641076645178
 20
127.7233836238633
 30
0.0
 10
354.2078755587064
 20
127.4982717271023
 30
0.0
 10
354.2534928335459
 20
127.272726022056
 30
0.0
 10
354.3009531718
 20
127.0467710783494
 30
0.0
 10
354.3502500919722
 20
126.8204314926233
 30
0.0
 10
354.4013769486805
 20
126.5937318879272
 30
0.0
 10
354.4543269329977
 20
126.3666969129921
 30
0.0
 10
354.5090930727672
 20
126.1393512413887
 30
0.0
 10
354.5656682328951
 20
125.9117195705719
 30
0.0
 10
354.6240451156305
 20
125.683826620819
 30
0.0
 10
354.6842162608346
 20
125.4556971340628
 30
0.0
 10
354.7461740462464
 20
125.2273558726258
 30
0.0
 10
354.8099106877481
 20
124.9988276178582
 30
0.0
 10
354.8754182396361
 20
124.7701371686844
 30
0.0
 10
354.9426885948978
 20
124.541309340063
 30
0.0
 10
355.0117134855035
 20
124.3123689613617
 30
0.0
 10
355.0824844827093
 20
124.0833408746559
 30
0.0
 10
355.1549929973811
 20
123.8542499329488
 30
0.0
 10
355.2292302803363
 20
123.6251209983237
 30
0.0
 10
355.3051874227093
 20
123.3959789400259
 30
0.0
 10
355.3828553563414
 20
123.1668486324834
 30
0.0
 10
355.4622248541968
 20
122.937754953266
 30
0.0
 10
355.5432865308072
 20
122.7087227809891
 30
0.0
 10
355.6260308427451
 20
122.4797769931648
 30
0.0
 10
355.7104480891282
 20
122.2509424640028
 30
0.0
 10
355.7965284121569
 20
122.0222440621656
 30
0.0
 10
355.8842617976821
 20
121.793706648481
 30
0.0
 10
355.9736380758089
 20
121.5653550736152
 30
0.0
 10
356.0646469215333
 20
121.3372141757074
 30
0.0
 10
356.1572778554146
 20
121.1093087779726
 30
0.0
 10
356.2515202442819
 20
120.8816636862721
 30
0.0
 10
356.3473633019779
 20
120.6543036866561
 30
0.0
 10
356.4447960901371
 20
120.42725354288
 30
0.0
 10
356.5438075190009
 20
120.2005379938979
 30
0.0
 10
356.6443863482687
 20
119.9741817513364
 30
0.0
 10
356.7465211879849
 20
119.7482094969481
 30
0.0
 10
356.8502004994623
 20
119.5226458800505
 30
0.0
 10
356.955412596242
 20
119.2975155149501
 30
0.0
 10
357.0621456450875
 20
119.072842978357
 30
0.0
 10
357.1703876670164
 20
118.8486528067864
 30
0.0
 10
357.2801265383659
 20
118.6249694939568
 30
0.0
 10
357.3913499918941
 20
118.4018174881787
 30
0.0
 10
357.5040456179161
 20
118.1792211897431
 30
0.0
 10
357.6182008654729
 20
117.9572049483055
 30
0.0
 10
357.7338030435364
 20
117.735793060272
 30
0.0
 10
357.8508393222452
 20
117.5150097661867
 30
0.0
 10
357.9692967341747
 20
117.2948792481219
 30
0.0
 10
358.0891621756391
 20
117.0754256270749
 30
0.0
 10
358.2104224080245
 20
116.8566729603702
 30
0.0
 10
358.3330640591533
 20
116.638645239072
 30
0.0
 10
358.4570736246791
 20
116.4213663854052
 30
0.0
 10
358.5824374611108
 20
116.2048602646954
 30
0.0
 10
358.7091417632652
 20
115.9891507225412
 30
0.0
 10
358.837172596253
 20
115.7742615268431
 30
0.0
 10
358.9665159058525
 20
115.5602163509124
 30
0.0
 10
359.0971575451676
 20
115.3470387319044
 30
0.0
 10
359.2290832441941
 20
115.1347521228043
 30
0.0
 10
359.3622786114072
 20
114.9233798899637
 30
0.0
 10
359.4967291353722
 20
114.7129453106565
 30
0.0
 10
359.6324201863787
 20
114.5034715706585
 30
0.0
 10
359.7693370180966
 20
114.2949817618514
 30
0.0
 10
359.9074647692526
 20
114.0874988798526
 30
0.0
 10
360.0467884653262
 20
113.8810458216718
 30
0.0
 10
360.1872930202651
 20
113.6756453833962
 30
0.0
 10
360.3289632382162
 20
113.4713202579058
 30
0.0
 10
360.4717838152735
 20
113.2680930326196
 30
0.0
 10
360.6157393412404
 20
113.0659861872749
 30
0.0
 10
360.7608143014043
 20
112.8650220917395
 30
0.0
 10
360.9069930783239
 20
112.6652230038598
 30
0.0
 10
361.0542599536258
 20
112.4666110673447
 30
0.0
 10
361.2025991098089
 20
112.269208309688
 30
0.0
 10
361.3519946320565
 20
112.073036640129
 30
0.0
 10
361.5024305100517
 20
111.8781178476549
 30
0.0
 10
361.653890639797
 20
111.6844735990424
 30
0.0
 10
361.8063588254329
 20
111.4921254369446
 30
0.0
 10
361.9598187810574
 20
111.3010947780193
 30
0.0
 10
362.114254132539
 20
111.1114029111054
 30
0.0
 10
362.2696484193264
 20
110.9230709954432
 30
0.0
 10
362.4259850962463
 20
110.7361200589437
 30
0.0
 10
362.5832475352944
 20
110.5505709965054
 30
0.0
 10
362.7414190274076
 20
110.3664445683823
 30
0.0
 10
362.900482784223
 20
110.1837613986003
 30
0.0
 10
363.0604219398147
 20
110.0025419734277
 30
0.0
 10
363.2212195524077
 20
109.822806639896
 30
0.0
 10
363.382858606067
 20
109.6445756043773
 30
0.0
 10
363.5453220123508
 20
109.4678689312031
 30
0.0
 10
363.7085926119457
 20
109.292706541387
 30
0.0
 10
363.8726531762098
 20
109.1191082112189
 30
0.0
 10
364.0374864088707
 20
108.947093571595
 30
0.0
 10
364.2030749469435
 20
108.7766821048728
 30
0.0
 10
364.3694013643359
 20
108.6078931512203
 30
0.0
 10
364.5364481651737
 20
108.4407458797952
 30
0.0
 10
364.7041978152316
 20
108.2752593914629
 30
0.0
 10
364.8726326308321
 20
108.111452330787
 30
0.0
 10
365.0417351994502
 20
107.9493443300053
 30
0.0
 10
365.2114868152937
 20
107.7889506150466
 30
0.0
 10
365.3818733239727
 20
107.6303021357469
 30
0.0
 10
365.5528633109228
 20
107.4733704223048
 30
0.0
 10
365.7244895218989
 20
107.3183480704599
 30
0.0
 10
365.8558436906433
 20
107.2009718377769
 30
0.0
 10
365.9301570880435
 20
107.1358769969534
 30
0.0
 10
365.94688296019
 20
107.1212259646617
 30
0.0
  0
SPLINE
  5
13A
330
1F
100
AcDbEntity
  8
0
  6
Continuous
 62
     7
370
    30
100
AcDbSpline
210
0.0
220
0.0
230
1.0
 70
     8
 71
     3
 72
    59
 73
    55
 74
     0
 42
0.000000001
 43
0.00000001
 40
0.0
 40
0.0
 40
0.0
 40
0.0
 40
0.010728890353258
 40
0.0308509017869096
 40
0.0509662026620688
 40
0.0710715485627022
 40
0.0911662576548713
 40
0.1112496382419506
 40
0.1313209903681068
 40
0.1513796084048066
 40
0.1714247838807628
 40
0.1914558085512007
 40
0.2114719776994806
 40
0.231472593658389
 40
0.2514569695380748
 40
0.2714244331412932
 40
0.2913743310433915
 40
0.3113060328120827
 40
0.3312189353363931
 40
0.3511124672326821
 40
0.3709860932914412
 40
0.3908393189264461
 40
0.4106716945857364
 40
0.430482820081803
 40
0.4502723487979671
 40
0.4700399917270208
 40
0.4897855212989288
 40
0.5095087749549324
 40
0.5292096584272828
 40
0.5488881486866215
 40
0.5685442965202258
 40
0.5881782287101955
 40
0.6077901497828149
 40
0.627380343304675
 40
0.6469491727072496
 40
0.6664970816243463
 40
0.6860245937339498
 40
0.7055323120983326
 40
0.7250209180044797
 40
0.7444911693081739
 40
0.7639438982921143
 40
0.7833800090517241
 40
0.8028004744253066
 40
0.8222063324909842
 40
0.8415986826537273
 40
0.8609786813492413
 40
0.8803475373954346
 40
0.8997065070211973
 40
0.9190568886067144
 40
0.9384000171693001
 40
0.9577372586302145
 40
0.977070003898796
 40
0.9963996628108989
 40
0.9999999999999999
 40
0.9999999999999999
 40
0.9999999999999999
 40
0.9999999999999999
 10
374.4488662561035
 20
102.2278555528266
 30
0.0
 10
374.4803616180778
 20
102.2192765869281
 30
0.0
 10
374.5709264656081
 20
102.1946077884174
 30
0.0
 10
374.7202894198667
 20
102.1557288977177
 30
0.0
 10
374.896800661862
 20
102.1120145062966
 30
0.0
 10
375.0728638293024
 20
102.0708007094079
 30
0.0
 10
375.2484537150002
 20
102.0320535166417
 30
0.0
 10
375.4235456827931
 20
101.9957899434627
 30
0.0
 10
375.5981168728243
 20
101.9620122576001
 30
0.0
 10
375.7721438802797
 20
101.9307260662105
 30
0.0
 10
375.9456033988149
 20
101.9019354567496
 30
0.0
 10
376.1184720728285
 20
101.8756442820854
 30
0.0
 10
376.290726563435
 20
101.8518558021002
 30
0.0
 10
376.4623435590179
 20
101.8305727668475
 30
0.0
 10
376.6332998022565
 20
101.8117973833425
 30
0.0
 10
376.8035721141994
 20
101.7955313155577
 30
0.0
 10
376.9731374203692
 20
101.7817756778098
 30
0.0
 10
377.1419727773191
 20
101.7705310323973
 30
0.0
 10
377.3100553997843
 20
101.7617973887688
 30
0.0
 10
377.4773626880883
 20
101.7555742051109
 30
0.0
 10
377.6438722555664
 20
101.7518603922519
 30
0.0
 10
377.8095619557254
 20
101.7506543200107
 30
0.0
 10
377.9744099088536
 20
101.7519538260207
 30
0.0
 10
378.1383945277917
 20
101.7557562270486
 30
0.0
 10
378.3014945425708
 20
101.7620583327874
 30
0.0
 10
378.463689023634
 20
101.7708564620732
 30
0.0
 10
378.6249574033633
 20
101.7821464614368
 30
0.0
 10
378.7852794956502
 20
101.7959237258727
 30
0.0
 10
378.944635513271
 20
101.8121832216688
 30
0.0
 10
379.1030060828483
 20
101.8309195111159
 30
0.0
 10
379.2603722572112
 20
101.8521267788793
 30
0.0
 10
379.4167155249988
 20
101.8757988597986
 30
0.0
 10
379.572017817386
 20
101.9019292678485
 30
0.0
 10
379.7262615118465
 20
101.9305112259879
 30
0.0
 10
379.8794294329069
 20
101.9615376965961
 30
0.0
 10
380.0315048498846
 20
101.9950014122001
 30
0.0
 10
380.1824714716371
 20
102.0308949061777
 30
0.0
 10
380.3323134383883
 20
102.069210543137
 30
0.0
 10
380.4810153107442
 20
102.1099405486386
 30
0.0
 10
380.6285620559805
 20
102.1530770380599
 30
0.0
 10
380.7749390319628
 20
102.1986120439606
 30
0.0
 10
380.9201319681384
 20
102.2465375429822
 30
0.0
 10
381.0641269466192
 20
102.2968454771758
 30
0.0
 10
381.2069103731118
 20
102.3495277875933
 30
0.0
 10
381.3484689769872
 20
102.4045763925761
 30
0.0
 10
381.4887896951857
 20
102.461983361645
 30
0.0
 10
381.6278599829368
 20
102.5217403486474
 30
0.0
 10
381.7656665278993
 20
102.5838407748273
 30
0.0
 10
381.9021999145435
 20
102.6482717440131
 30
0.0
 10
382.0374370940964
 20
102.7150442394521
 30
0.0
 10
382.1714066379673
 20
102.7840805174048
 30
0.0
 10
382.3039451784737
 20
102.8556341952979
 30
0.0
 10
382.3998980535383
 20
102.9089004572036
 30
0.0
 10
382.4512574974087
 20
102.9390134323382
 30
0.0
 10
382.4593216643174
 20
102.9437415999215
 30
0.0
  0
LINE
  5
13B
330
1F
100
AcDbEntity
  8
0
  6
Continuous
 62
     7
370
    30
100
AcDbLine
 10
370.5287425875
 20
150.5565216088
 30
0.0
 11
358.8614806979
 21
143.8211546863
 31
0.0
  0
LINE
  5
13C
330
1F
100
AcDbEntity
  8
0
  6
Continuous
 62
     7
370
    30
100
AcDbLine
 10
382.4595627881
 20
102.9436483819
 30
0.0
 11
394.1268246733
 21
109.6790153019
 31
0.0
  0
SPLINE
  5
13D
330
1F
100
AcDbEntity
  8
0
  6
Continuous
 62
     7
370
    30
100
AcDbSpline
210
0.0
220
0.0
230
1.0
 70
     8
 71
     3
 72
   457
 73
   453
 74
     0
 42
0.000000001
 43
0.00000001
 40
0.0
 40
0.0
 40
0.0
 40
0.0
 40
0.0031350384653952
 40
0.0060940079207898
 40
0.0072081552190865
 40
0.0082500259482806
 40
0.009161404946264
 40
0.0099418557027359
 40
0.0105912021443712
 40
0.0111092986966492
 40
0.0114488289852471
 40
0.0117415333425048
 40
0.0121469091406114
 40
0.0126770459413083
 40
0.013332055469972
 40
0.0141120737855022
 40
0.015013975233242
 40
0.0174979812198026
 40
0.0197987868782709
 40
0.0211672170214398
 40
0.0224605310043686
 40
0.0236188449439651
 40
0.0246001708086532
 40
0.0252468702405088
 40
0.025784026666727
 40
0.0263342692474371
 40
0.0270281636361004
 40
0.0278844866583897
 40
0.0288907662725004
 40
0.0300449047681573
 40
0.0312425285357004
 40
0.0324271990506159
 40
0.0335988883765539
 40
0.0347575691331533
 40
0.0359007291077437
 40
0.0370308843765586
 40
0.0381283953907011
 40
0.0390722660111792
 40
0.0398415804075445
 40
0.0403234589782456
 40
0.0406998456965189
 40
0.041115408457305
 40
0.0416547340569592
 40
0.0423179152678765
 40
0.0433437331041149
 40
0.0445152724073184
 40
0.0456638437433173
 40
0.0467780167807896
 40
0.0478577354093093
 40
0.048902945765588
 40
0.0499135971212474
 40
0.0509101276410114
 40
0.0519124650084057
 40
0.0529206140078176
 40
0.0539345793907853
 40
0.0549543655655124
 40
0.0559117529401255
 40
0.0567389936160422
 40
0.0573828480860648
 40
0.0579356171674598
 40
0.0585531179081865
 40
0.0592706769991583
 40
0.0600883836310663
 40
0.0610063387113111
 40
0.0625879974617772
 40
0.0642041903008782
 40
0.0658324776301007
 40
0.0674728717442246
 40
0.0687702543181597
 40
0.0700733484361046
 40
0.0712695217298973
 40
0.0722914302297975
 40
0.0731388644269741
 40
0.0738116521389777
 40
0.0744098753477491
 40
0.0751562832465085
 40
0.0761060628573232
 40
0.077227753902868
 40
0.0784905506181368
 40
0.0810077250861582
 40
0.0836454868770065
 40
0.0847148096502399
 40
0.0857899218273845
 40
0.0867547966618767
 40
0.0875816739798374
 40
0.088056199470212
 40
0.0884693076074628
 40
0.0888209717494461
 40
0.0891666180679662
 40
0.0896556291874457
 40
0.090296348618833
 40
0.0910394971866377
 40
0.0919028003183917
 40
0.0927650343940867
 40
0.0935995207300019
 40
0.094406234552065
 40
0.0964735431910585
 40
0.0983318494113836
 40
0.0999807562876274
 40
0.1014199240834746
 40
0.1026862306283912
 40
0.1038147778435471
 40
0.1044152443657339
 40
0.1049677928634179
 40
0.1054723981974166
 40
0.1059290375388245
 40
0.1063376903345121
 40
0.106774586500797
 40
0.1073434944800903
 40
0.1080450762661155
 40
0.1093455710622296
 40
0.1107066419014408
 40
0.1120522170777077
 40
0.1133822727290185
 40
0.1147080650174823
 40
0.1160953707259293
 40
0.1175549140294537
 40
0.1190867791300024
 40
0.120690609507463
 40
0.1214504561880511
 40
0.1221099402943678
 40
0.1226690062309148
 40
0.123208354087223
 40
0.1236022924548991
 40
0.1238841443826307
 40
0.1242200441690536
 40
0.1246327073386562
 40
0.1252892236909173
 40
0.1260774920736953
 40
0.1269975953928951
 40
0.1281298258531061
 40
0.1293849480323777
 40
0.1306772388752572
 40
0.1320009797990087
 40
0.133356198548525
 40
0.1345096133524557
 40
0.1356849233570779
 40
0.1368821448254374
 40
0.1381012940543766
 40
0.1393423873609153
 40
0.1405163914027525
 40
0.1412923107352929
 40
0.1419379547695308
 40
0.1424532625803817
 40
0.1428381858878677
 40
0.1431359842640414
 40
0.1435126113619703
 40
0.1441296119364041
 40
0.1449008511890953
 40
0.14582641189218
 40
0.1469063923191023
 40
0.148104521383442
 40
0.1492879418588609
 40
0.1519707857217847
 40
0.1545036319887114
 40
0.1559399492469345
 40
0.1573158593558699
 40
0.1585861823767176
 40
0.1597428811271989
 40
0.1607858706898131
 40
0.1617402083460571
 40
0.1629837074994029
 40
0.1642827705749407
 40
0.1657063633887267
 40
0.1672744865382965
 40
0.1689872672187702
 40
0.1708245167565841
 40
0.1738181584430166
 40
0.1769306259151923
 40
0.1801609087132922
 40
0.1814227909918093
 40
0.1824888281732433
 40
0.1833589106071796
 40
0.1840329500991093
 40
0.1843562589703897
 40
0.1846453883534828
 40
0.1850676283717214
 40
0.1856396350553897
 40
0.186361450986715
 40
0.1872331293629549
 40
0.1882547336213531
 40
0.1893354642876033
 40
0.1903810677904925
 40
0.1913915167996439
 40
0.1932739087531511
 40
0.1950204594437612
 40
0.1967108367086525
 40
0.1982506711106597
 40
0.1996398539275189
 40
0.2008966244825771
 40
0.2020610142346757
 40
0.2031343872558711
 40
0.2041167003943509
 40
0.2049371273315023
 40
0.2056809253086673
 40
0.206315125494551
 40
0.2068117180657122
 40
0.207181215182793
 40
0.2075597162175331
 40
0.208361761152775
 40
0.209325583056017
 40
0.2104512441811777
 40
0.2117388159189246
 40
0.2131883782037445
 40
0.2148000188131953
 40
0.2165738325712814
 40
0.2185099204615251
 40
0.2206083886528391
 40
0.2228693474402469
 40
0.2252882831336805
 40
0.2278443848360566
 40
0.2310298721735091
 40
0.234402608641462
 40
0.2379627283580376
 40
0.2417103574259317
 40
0.2450384206962492
 40
0.2485017140774202
 40
0.2521002939332378
 40
0.2545494947448068
 40
0.2570576591096547
 40
0.2580591451055647
 40
0.2590559967877866
 40
0.2599018805274105
 40
0.2605573078514402
 40
0.2609640530132525
 40
0.2612336558260053
 40
0.2614313581827055
 40
0.2616475065322935
 40
0.261882677752856
 40
0.2621368727285668
 40
0.2628113221330788
 40
0.2635914890208856
 40
0.2646581210494265
 40
0.2658695147121807
 40
0.2671200683279447
 40
0.2746731799705286
 40
0.2821232385289915
 40
0.2842672446660893
 40
0.2865665878168863
 40
0.2890336944008949
 40
0.2916685966790392
 40
0.2944713229297547
 40
0.2974418962169327
 40
0.3005803330821396
 40
0.303977107945949
 40
0.3075508265144704
 40
0.3113014756688541
 40
0.3135945260811288
 40
0.3159452281859513
 40
0.3182071548166912
 40
0.3203050359835591
 40
0.3223862716145488
 40
0.3242761734053403
 40
0.3259747336514562
 40
0.3274819486277832
 40
0.3287978175432932
 40
0.3299223416157178
 40
0.330671663585219
 40
0.3313022280831729
 40
0.3318090501335115
 40
0.332191066094264
 40
0.3324942812447685
 40
0.3328688709100675
 40
0.3336029820163958
 40
0.334531556880278
 40
0.3356545898958205
 40
0.3369720731009884
 40
0.3384839954715633
 40
0.3401903420896681
 40
0.3420910931875299
 40
0.3439137032131021
 40
0.3458824605397056
 40
0.3479001621703884
 40
0.3499178473888546
 40
0.3519355074072285
 40
0.3539531334275212
 40
0.3559707166406806
 40
0.3579882482256367
 40
0.3643285749548437
 40
0.370668029185989
 40
0.3776126201921377
 40
0.3845554644953672
 40
0.3914961918908704
 40
0.3983897172865369
 40
0.4051417247519558
 40
0.4117490983697024
 40
0.4174438969716074
 40
0.4230266003179701
 40
0.428497196413705
 40
0.4300876962825811
 40
0.4316684642722945
 40
0.4331975051805544
 40
0.4345830390274023
 40
0.4358219045994052
 40
0.4369141661976473
 40
0.4378598817212408
 40
0.4386591022162891
 40
0.4392007937892003
 40
0.4396457607899755
 40
0.4399940196547409
 40
0.4402459405610377
 40
0.4405120414636936
 40
0.4410146418138453
 40
0.4416920020845811
 40
0.4425440756614385
 40
0.4439006121099522
 40
0.4453437302613429
 40
0.4468627463313678
 40
0.448457608891108
 40
0.4508674424099259
 40
0.4534317751811192
 40
0.4561504132452566
 40
0.4590231429574483
 40
0.4620497294075961
 40
0.4652299147043938
 40
0.4685634161150444
 40
0.4720112813321045
 40
0.4754156150351621
 40
0.4787595617238268
 40
0.4830472971577766
 40
0.4872316799055043
 40
0.4913128368908853
 40
0.4967003539085507
 40
0.501897377758688
 40
0.5069042984516595
 40
0.5117215281779421
 40
0.5153737076169488
 40
0.5189092638388069
 40
0.5223284187271647
 40
0.5256556934852431
 40
0.52972965653224
 40
0.5339708044567235
 40
0.5383783724937101
 40
0.5429515281562498
 40
0.547689365735909
 40
0.5525909003469284
 40
0.5576550614751223
 40
0.5628806859881911
 40
0.5682665105592112
 40
0.5738111634495726
 40
0.579513155591494
 40
0.585370870903381
 40
0.5910349208220623
 40
0.596834257257025
 40
0.6027671623466715
 40
0.608831781186477
 40
0.6150261109252614
 40
0.62220392781755
 40
0.6295422902362858
 40
0.6370373723689128
 40
0.6446850135463679
 40
0.65079764594224
 40
0.6568860021106375
 40
0.662860327062743
 40
0.6687209043572674
 40
0.6755499283252245
 40
0.6822189135797848
 40
0.6887286431614296
 40
0.6950799972875642
 40
0.7012739468917117
 40
0.7073115474591016
 40
0.7131939331039779
 40
0.7189223108440567
 40
0.7244979550363594
 40
0.72992220194635
 40
0.7351964444289201
 40
0.7403221267054266
 40
0.7450201853510322
 40
0.7495887843095252
 40
0.7540292353174155
 40
0.7583428752629832
 40
0.7625310638040583
 40
0.7662228637551926
 40
0.7698136629205733
 40
0.773304548714485
 40
0.7766966171434195
 40
0.7800622859167795
 40
0.7835033580437004
 40
0.7870826065747206
 40
0.7907970793438954
 40
0.7946436685481068
 40
0.7993906618204442
 40
0.8043144813235301
 40
0.8094090511855618
 40
0.8146680173501271
 40
0.8200847685508192
 40
0.8256524640739878
 40
0.832058780899452
 40
0.8386355141840008
 40
0.8453724321567588
 40
0.8486010636072215
 40
0.8518477707416087
 40
0.8550010055957153
 40
0.8580388522546505
 40
0.860963337965162
 40
0.8645321240411165
 40
0.8679235402815606
 40
0.8711412752207464
 40
0.8741888202167308
 40
0.8770694695433984
 40
0.8797863215680876
 40
0.8823422808518128
 40
0.884063610635544
 40
0.8857058607618903
 40
0.8872699021996788
 40
0.8887565594396062
 40
0.8901434789610333
 40
0.8910975241082952
 40
0.8919257990142969
 40
0.8926290240372808
 40
0.8932052029940049
 40
0.8936248952480654
 40
0.8941136492799732
 40
0.8947969785818656
 40
0.895673960467717
 40
0.8967434168555211
 40
0.8980039206115568
 40
0.899426262767172
 40
0.9010294838713319
 40
0.9028115815813971
 40
0.9047703614547138
 40
0.9069438327972701
 40
0.90929533523749
 40
0.9118220424044852
 40
0.9145210003453844
 40
0.9173891547983983
 40
0.9203668191787003
 40
0.9233663461956639
 40
0.926292423970672
 40
0.9291465897130767
 40
0.9331021262857698
 40
0.9369179783376375
 40
0.9405979630132281
 40
0.9441456420153381
 40
0.9475643265562605
 40
0.9517336241533033
 40
0.9557046899337458
 40
0.959482697356648
 40
0.9630722540933789
 40
0.9664774341334579
 40
0.9690259339295744
 40
0.9714643554204763
 40
0.9738173305675517
 40
0.9761621238883145
 40
0.97850518524016
 40
0.9814920263485102
 40
0.9844778440580012
 40
0.9874636822859016
 40
0.9904506128955604
 40
0.9934729067825877
 40
0.9966519875197991
 40
1.0
 40
1.0
 40
1.0
 40
1.0
 10
394.2235830855026
 20
109.7357795353613
 30
0.0
 10
394.2536475901497
 20
109.753843380692
 30
0.0
 10
394.3120881265182
 20
109.7889565755508
 30
0.0
 10
394.3794162109535
 20
109.8308706695673
 30
0.0
 10
394.4264601954118
 20
109.8606202802843
 30
0.0
 10
394.4544761881513
 20
109.8785104043914
 30
0.0
 10
394.4794207467073
 20
109.894575495939
 30
0.0
 10
394.5007415011221
 20
109.9084091881782
 30
0.0
 10
394.5184593969747
 20
109.9199771875187
 30
0.0
 10
394.5321595414729
 20
109.9289676576574
 30
0.0
 10
394.5426140774256
 20
109.9358538995069
 30
0.0
 10
394.5520715888731
 20
109.9421005522905
 30
0.0
 10
394.5633349447718
 20
109.9495625637271
 30
0.0
 10
394.5779345541058
 20
109.9592743698821
 30
0.0
 10
394.5959814247537
 20
109.971341434913
 30
0.0
 10
394.6174272632539
 20
109.9857710520349
 30
0.0
 10
394.6556156616666
 20
110.011654185336
 30
0.0
 10
394.7075136151711
 20
110.0473486747884
 30
0.0
 10
394.7632988741989
 20
110.086513645634
 30
0.0
 10
394.8080590986494
 20
110.1184338290326
 30
0.0
 10
394.8423818973095
 20
110.143188577544
 30
0.0
 10
394.8731223209302
 20
110.1655903230954
 30
0.0
 10
394.8980015994025
 20
110.1838848025712
 30
0.0
 10
394.9172918396168
 20
110.1981667274812
 30
0.0
 10
394.9327165871614
 20
110.2096435058681
 30
0.0
 10
394.9485374133135
 20
110.2214686157297
 30
0.0
 10
394.9671611175764
 20
110.2354611632466
 30
0.0
 10
394.9897801393543
 20
110.2525655737512
 30
0.0
 10
395.0164029707213
 20
110.2728540134765
 30
0.0
 10
395.0459496845153
 20
110.2955730409907
 30
0.0
 10
395.0769642423726
 20
110.3196534042489
 30
0.0
 10
395.108028660335
 20
110.3440100934476
 30
0.0
 10
395.1386506715928
 20
110.3682530978761
 30
0.0
 10
395.1688110911981
 20
110.3923592880554
 30
0.0
 10
395.1985130670903
 20
110.4163228858477
 30
0.0
 10
395.227590564932
 20
110.4400004472321
 30
0.0
 10
395.2548609975792
 20
110.4624079558666
 30
0.0
 10
395.2789576704506
 20
110.4823717437635
 30
0.0
 10
395.2977296196528
 20
110.4980319184883
 30
0.0
 10
395.3116230223616
 20
110.5096807941637
 30
0.0
 10
395.3224829509656
 20
110.5188177496404
 30
0.0
 10
395.3338189176298
 20
110.528385615213
 30
0.0
 10
395.3475773783231
 20
110.5400427259282
 30
0.0
 10
395.3664911489043
 20
110.5561452087917
 30
0.0
 10
395.3907105325042
 20
110.5769045592459
 30
0.0
 10
395.4189474720247
 20
110.6013208578272
 30
0.0
 10
395.4478294184236
 20
110.6265268260155
 30
0.0
 10
395.4758434616951
 20
110.6511962358572
 30
0.0
 10
395.5029010029316
 20
110.6752315530814
 30
0.0
 10
395.529008971479
 20
110.6986191986022
 30
0.0
 10
395.5543441465487
 20
110.7214995827714
 30
0.0
 10
395.5792461685536
 20
110.7441674063001
 30
0.0
 10
395.6040505250068
 20
110.7669245823611
 30
0.0
 10
395.628920702071
 20
110.7899230062431
 30
0.0
 10
395.6538553622145
 20
110.8131645576813
 30
0.0
 10
395.6782956233648
 20
110.8361272977873
 30
0.0
 10
395.7011388832947
 20
110.8577559937879
 30
0.0
 10
395.720864154678
 20
110.8765629417185
 30
0.0
 10
395.7372642741134
 20
110.8922894046565
 30
0.0
 10
395.7519362434392
 20
110.906424367921
 30
0.0
 10
395.767174828088
 20
110.921172149763
 30
0.0
 10
395.7845143333457
 20
110.9380404198206
 30
0.0
 10
395.804224763718
 20
110.9573297262975
 30
0.0
 10
395.8308030124904
 20
110.9835156352669
 30
0.0
 10
395.8636453694657
 20
111.0161876469432
 30
0.0
 10
395.9019538142113
 20
111.054770925358
 30
0.0
 10
395.9405207442195
 20
111.0941032346235
 30
0.0
 10
395.9763744811464
 20
111.1311310523425
 30
0.0
 10
396.0095106875222
 20
111.1657404608199
 30
0.0
 10
396.0390455730523
 20
111.196897449509
 30
0.0
 10
396.0663216836631
 20
111.2259482030663
 30
0.0
 10
396.089978423583
 20
111.2513586885547
 30
0.0
 10
396.1095329722045
 20
111.272513388926
 30
0.0
 10
396.1257852146068
 20
111.2901978683787
 30
0.0
 10
396.1412266599047
 20
111.3070817499169
 30
0.0
 10
396.1587461238652
 20
111.3263361959728
 30
0.0
 10
396.1801985978551
 20
111.3500659693139
 30
0.0
 10
396.205490319638
 20
111.3782640041772
 30
0.0
 10
396.2425158486565
 20
111.419920261125
 30
0.0
 10
396.29066667871
 20
111.4748768667243
 30
0.0
 10
396.3369340286877
 20
111.5287266760178
 30
0.0
 10
396.372242727071
 20
111.5704032072713
 30
0.0
 10
396.3951098270014
 20
111.5976144069586
 30
0.0
 10
396.4161152162357
 20
111.6228039876771
 30
0.0
 10
396.4326652240929
 20
111.6427857131352
 30
0.0
 10
396.4451554455499
 20
111.6579402646331
 30
0.0
 10
396.4541685920591
 20
111.668912812555
 30
0.0
 10
396.4622327034378
 20
111.6787584468443
 30
0.0
 10
396.4708358415778
 20
111.6892899227142
 30
0.0
 10
396.4815169317735
 20
111.7024064329546
 30
0.0
 10
396.4950466308931
 20
111.7190921664556
 30
0.0
 10
396.5112376833193
 20
111.7391647629546
 30
0.0
 10
396.5289709329726
 20
111.7612831300142
 30
0.0
 10
396.5473004436604
 20
111.7842947393997
 30
0.0
 10
396.5651671125693
 20
111.8068695235581
 30
0.0
 10
396.5915514481235
 20
111.8404138315426
 30
0.0
 10
396.6250345435326
 20
111.8834480298299
 30
0.0
 10
396.6641765972311
 20
111.934507057148
 30
0.0
 10
396.6986690914148
 20
111.9801011795764
 30
0.0
 10
396.7288458541911
 20
112.0204587959771
 30
0.0
 10
396.7552721718382
 20
112.0561639692678
 30
0.0
 10
396.7758192440523
 20
112.0841781297612
 30
0.0
 10
396.7914154478308
 20
112.1055817480797
 30
0.0
 10
396.8027199837126
 20
112.1211634836817
 30
0.0
 10
396.8130213113037
 20
112.1354193601548
 30
0.0
 10
396.8223248984783
 20
112.1483414102316
 30
0.0
 10
396.8311527249653
 20
112.1606428954671
 30
0.0
 10
396.8407241247433
 20
112.1740233142607
 30
0.0
 10
396.8522530924153
 20
112.1902018379814
 30
0.0
 10
396.8695676948622
 20
112.2146165159584
 30
0.0
 10
396.8921238108742
 20
112.2466642831073
 30
0.0
 10
396.918849999095
 20
112.2850220724457
 30
0.0
 10
396.9456201284072
 20
112.323839591676
 30
0.0
 10
396.9720059114459
 20
112.362490588399
 30
0.0
 10
396.998515722314
 20
112.4017173219962
 30
0.0
 10
397.0257145280242
 20
112.442381227053
 30
0.0
 10
397.0540807755814
 20
112.4852529606208
 30
0.0
 10
397.0836559902698
 20
112.5304648230001
 30
0.0
 10
397.1085556547034
 20
112.5689877883954
 30
0.0
 10
397.1277787625187
 20
112.5989984882558
 30
0.0
 10
397.1403192532034
 20
112.6186831143078
 30
0.0
 10
397.151431892137
 20
112.6362080962396
 30
0.0
 10
397.1608425993675
 20
112.6511117111273
 30
0.0
 10
397.1684889936724
 20
112.6632646403048
 30
0.0
 10
397.1748445316048
 20
112.6733921556381
 30
0.0
 10
397.1813078254244
 20
112.6837158301616
 30
0.0
 10
397.190105900822
 20
112.6978092488554
 30
0.0
 10
397.2017079932293
 20
112.7164708473863
 30
0.0
 10
397.2164311717484
 20
112.7402845190289
 30
0.0
 10
397.2340473959167
 20
112.7689654192771
 30
0.0
 10
397.2544630992862
 20
112.8024680181833
 30
0.0
 10
397.2770521266686
 20
112.8398801603019
 30
0.0
 10
397.3006753869937
 20
112.8793923576201
 30
0.0
 10
397.3247609325232
 20
112.9200879294646
 30
0.0
 10
397.3478572602825
 20
112.959519813845
 30
0.0
 10
397.3699267639442
 20
112.9975678622094
 30
0.0
 10
397.3909321749705
 20
113.0341113556866
 30
0.0
 10
397.4122071138898
 20
113.0714680185257
 30
0.0
 10
397.433745056772
 20
113.1096455143796
 30
0.0
 10
397.4550179910216
 20
113.1477185466273
 30
0.0
 10
397.4735860819579
 20
113.1812672975718
 30
0.0
 10
397.4886169184284
 20
113.2086341395532
 30
0.0
 10
397.4997936420239
 20
113.2290980888492
 30
0.0
 10
397.5086880154504
 20
113.2454579647726
 30
0.0
 10
397.5155651684838
 20
113.258152527318
 30
0.0
 10
397.5216345441851
 20
113.2693862854917
 30
0.0
 10
397.5290196326381
 20
113.2830917901822
 30
0.0
 10
397.5390860658806
 20
113.301847032071
 30
0.0
 10
397.5522366252058
 20
113.3264835839158
 30
0.0
 10
397.567950485814
 20
113.3561211615029
 30
0.0
 10
397.585987645588
 20
113.390413005142
 30
0.0
 10
397.6053632959217
 20
113.4275854889032
 30
0.0
 10
397.6335372725713
 20
113.482154452222
 30
0.0
 10
397.668779980427
 20
113.551480968536
 30
0.0
 10
397.7049136989647
 20
113.624070447412
 30
0.0
 10
397.7336401621262
 20
113.68271543263
 30
0.0
 10
397.7554144562061
 20
113.7276794727262
 30
0.0
 10
397.7755499862269
 20
113.7697114665909
 30
0.0
 10
397.7937988085442
 20
113.8081859525834
 30
0.0
 10
397.810283098601
 20
113.8432560281042
 30
0.0
 10
397.8271240727323
 20
113.8793812608694
 30
0.0
 10
397.8451821604341
 20
113.9184709894312
 30
0.0
 10
397.86551468818
 20
113.9629509418294
 30
0.0
 10
397.8873381303351
 20
114.0112369673575
 30
0.0
 10
397.9110581141285
 20
114.0643801407961
 30
0.0
 10
397.9366166154902
 20
114.1224375277242
 30
0.0
 10
397.9689522596536
 20
114.1969998023427
 30
0.0
 10
398.0076381814278
 20
114.2880578412351
 30
0.0
 10
398.0522669723325
 20
114.3958952360383
 30
0.0
 10
398.0879046090273
 20
114.4844118987323
 30
0.0
 10
398.1135830708465
 20
114.5494611148768
 30
0.0
 10
398.1282476971608
 20
114.5869936588167
 30
0.0
 10
398.140141776447
 20
114.6176977397646
 30
0.0
 10
398.1486082387243
 20
114.6397042364429
 30
0.0
 10
398.1544213393436
 20
114.6548813331724
 30
0.0
 10
398.159086387309
 20
114.6670944116211
 30
0.0
 10
398.1648579441213
 20
114.6822524730568
 30
0.0
 10
398.1725497446777
 20
114.7025439124695
 30
0.0
 10
398.1822141867534
 20
114.728187837744
 30
0.0
 10
398.1938233389249
 20
114.7592137608701
 30
0.0
 10
398.2069424492543
 20
114.7945764340805
 30
0.0
 10
398.2207308175838
 20
114.8320994880938
 30
0.0
 10
398.2343714116341
 20
114.8695820996682
 30
0.0
 10
398.2513778968948
 20
114.9167560249546
 30
0.0
 10
398.2712116808978
 20
114.9725106707215
 30
0.0
 10
398.2936646492046
 20
115.0367002058026
 30
0.0
 10
398.3144162243175
 20
115.096987648198
 30
0.0
 10
398.3334541882577
 20
115.1531459358331
 30
0.0
 10
398.3505207133759
 20
115.204194560576
 30
0.0
 10
398.3659043665212
 20
115.2507957729775
 30
0.0
 10
398.3798867018547
 20
115.2936487933578
 30
0.0
 10
398.3926627905474
 20
115.3332317702232
 30
0.0
 10
398.4039853172826
 20
115.3686644349656
 30
0.0
 10
398.4139412135339
 20
115.4000966529399
 30
0.0
 10
398.4224840070027
 20
115.4272758346901
 30
0.0
 10
398.4297294001262
 20
115.4504847068334
 30
0.0
 10
398.4355023169894
 20
115.4690807668541
 30
0.0
 10
398.4402749996382
 20
115.4845211262598
 30
0.0
 10
398.4461977275444
 20
115.5037535531251
 30
0.0
 10
398.4543480695704
 20
115.5303759102835
 30
0.0
 10
398.4652561617598
 20
115.5663226484849
 30
0.0
 10
398.4778857721715
 20
115.608382521612
 30
0.0
 10
398.4921889372333
 20
115.6566015385885
 30
0.0
 10
398.508110678577
 20
115.7110320184339
 30
0.0
 10
398.5255889745229
 20
115.7717325491892
 30
0.0
 10
398.5445546878196
 20
115.8387678017599
 30
0.0
 10
398.5649315098329
 20
115.91220840451
 30
0.0
 10
398.5866358758888
 20
115.992130664344
 30
0.0
 10
398.6095613240386
 20
116.0785578015828
 30
0.0
 10
398.6335259389198
 20
116.1712476764388
 30
0.0
 10
398.6599596119316
 20
116.2763585597589
 30
0.0
 10
398.6887099076705
 20
116.3944713924996
 30
0.0
 10
398.7196420057909
 20
116.5264892176454
 30
0.0
 10
398.751186621925
 20
116.6668185193825
 30
0.0
 10
398.7814326761237
 20
116.8075681013035
 30
0.0
 10
398.8102789228963
 20
116.9479852997511
 30
0.0
 10
398.8376494945376
 20
117.087301601413
 30
0.0
 10
398.8616851735812
 20
117.2156635888384
 30
0.0
 10
398.8825190214738
 20
117.3317645533651
 30
0.0
 10
398.8965782467622
 20
117.4129804443421
 30
0.0
 10
398.9069689114139
 20
117.4745895780494
 30
0.0
 10
398.9134401331111
 20
117.5135423791341
 30
0.0
 10
398.9190523415103
 20
117.5478030824276
 30
0.0
 10
398.923293649493
 20
117.5739962718505
 30
0.0
 10
398.9262309955783
 20
117.5922867625595
 30
0.0
 10
398.9281481157926
 20
117.6042875822731
 30
0.0
 10
398.9296397403776
 20
117.6136590210595
 30
0.0
 10
398.9310525486042
 20
117.6225640783607
 30
0.0
 10
398.9325832516074
 20
117.632246491389
 30
0.0
 10
398.9350995804654
 20
117.6482248922908
 30
0.0
 10
398.9387698212194
 20
117.6717022914679
 30
0.0
 10
398.9441288221763
 20
117.7063817445143
 30
0.0
 10
398.9505426465705
 20
117.7485089362223
 30
0.0
 10
398.9578201051055
 20
117.7972052852523
 30
0.0
 10
398.9780981068456
 20
117.9356898561034
 30
0.0
 10
399.0088173948959
 20
118.1620101731407
 30
0.0
 10
399.0372799205662
 20
118.4035097273403
 30
0.0
 10
399.0552693902084
 20
118.5721925917968
 30
0.0
 10
399.0652493667173
 20
118.6705084863535
 30
0.0
 10
399.0753961095355
 20
118.7761631276798
 30
0.0
 10
399.0856133005001
 20
118.8894079659085
 30
0.0
 10
399.0957789163437
 20
119.0103225749326
 30
0.0
 10
399.1057629899516
 20
119.1389895266739
 30
0.0
 10
399.1155205010976
 20
119.2768059272879
 30
0.0
 10
399.1248820969404
 20
119.4240122832737
 30
0.0
 10
399.1336622047741
 20
119.5808556540357
 30
0.0
 10
399.1404556746605
 20
119.7222244856564
 30
0.0
 10
399.1456052402946
 20
119.8460927532733
 30
0.0
 10
399.1493484655413
 20
119.9482922740071
 30
0.0
 10
399.1525099362239
 20
120.0478899219315
 30
0.0
 10
399.1551125868455
 20
120.1437451955069
 30
0.0
 10
399.1571748113867
 20
120.2342934157521
 30
0.0
 10
399.1587550282109
 20
120.3190848044912
 30
0.0
 10
399.1598939889862
 20
120.3954524710111
 30
0.0
 10
399.1606816823541
 20
120.4633426318581
 30
0.0
 10
399.1611979680351
 20
120.5227083260444
 30
0.0
 10
399.1614954223364
 20
120.5707402690871
 30
0.0
 10
399.1616568125799
 20
120.6084893503482
 30
0.0
 10
399.1617383743035
 20
120.6369455473435
 30
0.0
 10
399.1617775071837
 20
120.6598761761183
 30
0.0
 10
399.1617919311259
 20
120.6778751942887
 30
0.0
 10
399.1617935990994
 20
120.6938819732002
 30
0.0
 10
399.1617811276037
 20
120.7152100421565
 30
0.0
 10
399.1617284659916
 20
120.7460001083623
 30
0.0
 10
399.161585389698
 20
120.7881372590478
 30
0.0
 10
399.1613063112556
 20
120.8391545847419
 30
0.0
 10
399.1608309453697
 20
120.899084937169
 30
0.0
 10
399.1600885804936
 20
120.9679665115795
 30
0.0
 10
399.1589980874894
 20
121.045842478162
 30
0.0
 10
399.1575410587642
 20
121.1286068394973
 30
0.0
 10
399.1556886421679
 20
121.215544916354
 30
0.0
 10
399.1534604866501
 20
121.3044491048578
 30
0.0
 10
399.1507906511915
 20
121.3965300340682
 30
0.0
 10
399.1477248062195
 20
121.4895533876761
 30
0.0
 10
399.1442848467286
 20
121.5827661496855
 30
0.0
 10
399.1404709226846
 20
121.6761657861872
 30
0.0
 10
399.1362831919362
 20
121.7697498926529
 30
0.0
 10
399.1284640577476
 20
121.930484866748
 30
0.0
 10
399.1155086229144
 20
122.1590937275874
 30
0.0
 10
399.0944086945066
 20
122.4661289659439
 30
0.0
 10
399.0685621894392
 20
122.7844538719377
 30
0.0
 10
399.0375436494312
 20
123.114159136955
 30
0.0
 10
399.0022189540961
 20
123.4448836524189
 30
0.0
 10
398.9629028664938
 20
123.7742879652882
 30
0.0
 10
398.9200479036411
 20
124.0999330546066
 30
0.0
 10
398.8758948892877
 20
124.4076793369854
 30
0.0
 10
398.8311480047965
 20
124.6976618401678
 30
0.0
 10
398.7864179123358
 20
124.9701280247026
 30
0.0
 10
398.7505637824446
 20
125.1764660207594
 30
0.0
 10
398.7251506410689
 20
125.3177587835831
 30
0.0
 10
398.7111069639969
 20
125.3946715217584
 30
0.0
 10
398.6974681106155
 20
125.4682893971806
 30
0.0
 10
398.6846865844036
 20
125.5363606770797
 30
0.0
 10
398.6731043489365
 20
125.5973147396686
 30
0.0
 10
398.6627793833155
 20
125.6510875443084
 30
0.0
 10
398.653753982101
 20
125.697669494353
 30
0.0
 10
398.6464209137967
 20
125.7352280735081
 30
0.0
 10
398.6406583032509
 20
125.7645710842734
 30
0.0
 10
398.6363314008152
 20
125.7865095131425
 30
0.0
 10
398.6329315433512
 20
125.8036887007768
 30
0.0
 10
398.630105964336
 20
125.8179293050317
 30
0.0
 10
398.6267694406454
 20
125.8347076967574
 30
0.0
 10
398.6220258091384
 20
125.8584837511286
 30
0.0
 10
398.6153246403395
 20
125.8919031534895
 30
0.0
 10
398.6057422318703
 20
125.9393835454919
 30
0.0
 10
398.5934982321402
 20
125.9994929684017
 30
0.0
 10
398.5788404455226
 20
126.0706225788646
 30
0.0
 10
398.5631754043334
 20
126.1457250439318
 30
0.0
 10
398.5439346344737
 20
126.2368194666233
 30
0.0
 10
398.5206666123638
 20
126.3452435323347
 30
0.0
 10
398.4928571833476
 20
126.4723450378844
 30
0.0
 10
398.4627436832222
 20
126.6072363562898
 30
0.0
 10
398.4302191809437
 20
126.7499268791328
 30
0.0
 10
398.3951714239748
 20
126.900424344939
 30
0.0
 10
398.3574830024045
 20
127.0587344399705
 30
0.0
 10
398.3171878434418
 20
127.2242184339053
 30
0.0
 10
398.2749851201227
 20
127.3936113813488
 30
0.0
 10
398.2317296711738
 20
127.5633540708562
 30
0.0
 10
398.1838382955931
 20
127.7472544481041
 30
0.0
 10
398.1312662692114
 20
127.9443528201654
 30
0.0
 10
398.0738922775411
 20
128.153961512928
 30
0.0
 10
398.0098830922627
 20
128.3821379878337
 30
0.0
 10
397.9391540060767
 20
128.6274644596724
 30
0.0
 10
397.8616291384332
 20
128.888502173749
 30
0.0
 10
397.7847862324077
 20
129.140163939318
 30
0.0
 10
397.7139957671009
 20
129.3660610362098
 30
0.0
 10
397.6495210202487
 20
129.5673603876903
 30
0.0
 10
397.5914993655584
 20
129.7452535957554
 30
0.0
 10
397.5342691100986
 20
129.9177199376802
 30
0.0
 10
397.4730398717875
 20
130.099227588918
 30
0.0
 10
397.40598033715
 20
130.2945243783719
 30
0.0
 10
397.3312574101644
 20
130.5079253772652
 30
0.0
 10
397.2520523596377
 20
130.7296604428085
 30
0.0
 10
397.1682101634295
 20
130.9596598412483
 30
0.0
 10
397.0795738983326
 20
131.1978444562282
 30
0.0
 10
396.9859853632095
 20
131.4441250019301
 30
0.0
 10
396.8872857356802
 20
131.6984012589746
 30
0.0
 10
396.7833162837395
 20
131.9605612804304
 30
0.0
 10
396.6739191327934
 20
132.2304805793611
 30
0.0
 10
396.558938081193
 20
132.5080213215506
 30
0.0
 10
396.4382195121191
 20
132.7930314269508
 30
0.0
 10
396.3141180265888
 20
133.0795608201336
 30
0.0
 10
396.1867921724637
 20
133.3671848298402
 30
0.0
 10
396.056414963416
 20
133.6554824680253
 30
0.0
 10
395.9204444690035
 20
133.9497615475239
 30
0.0
 10
395.7787746110257
 20
134.2498269200763
 30
0.0
 10
395.6245135772066
 20
134.5695473105838
 30
0.0
 10
395.4568134374607
 20
134.9091225370861
 30
0.0
 10
395.2747908921275
 20
135.2686539564145
 30
0.0
 10
395.0849833376325
 20
135.6343186716551
 30
0.0
 10
394.9018160102449
 20
135.9784522177856
 30
0.0
 10
394.7276757097873
 20
136.2983607939104
 30
0.0
 10
394.5657342133356
 20
136.5900655893508
 30
0.0
 10
394.4036515313356
 20
136.876462732931
 30
0.0
 10
394.232465285237
 20
137.1733471082835
 30
0.0
 10
394.052267438629
 20
137.4797212918051
 30
0.0
 10
393.863173163844
 20
137.794571382487
 30
0.0
 10
393.6759178328999
 20
138.1001177660947
 30
0.0
 10
393.4907117352953
 20
138.3964621788094
 30
0.0
 10
393.307750592573
 20
138.683717094342
 30
0.0
 10
393.1272161208262
 20
138.9620043088504
 30
0.0
 10
392.9492764269723
 20
139.2314539226487
 30
0.0
 10
392.7740864777087
 20
139.4922032903896
 30
0.0
 10
392.6017885777084
 20
139.744396044177
 30
0.0
 10
392.4325128559731
 20
139.9881811783615
 30
0.0
 10
392.2663778011616
 20
140.223712135997
 30
0.0
 10
392.1064622540308
 20
140.4469970046194
 30
0.0
 10
391.9527768176803
 20
140.6585226091543
 30
0.0
 10
391.8053077701113
 20
140.8587650116938
 30
0.0
 10
391.6609501888344
 20
141.052224523969
 30
0.0
 10
391.5197620572261
 20
141.2390389705309
 30
0.0
 10
391.3858823102116
 20
141.4140042547146
 30
0.0
 10
391.2592012771592
 20
141.5776737362288
 30
0.0
 10
391.1395888387844
 20
141.7305812808346
 30
0.0
 10
391.0227140378357
 20
141.8784566787582
 30
0.0
 10
390.9077971458099
 20
142.0224045784386
 30
0.0
 10
390.7929037890917
 20
142.1649127097029
 30
0.0
 10
390.6753608121417
 20
142.3092673442726
 30
0.0
 10
390.5533018341671
 20
142.4576400372114
 30
0.0
 10
390.4260283738737
 20
142.6107114271017
 30
0.0
 10
390.2847337672665
 20
142.7787766117197
 30
0.0
 10
390.1287208589963
 20
142.9620264579329
 30
0.0
 10
389.957299888323
 20
143.1605349241506
 30
0.0
 10
389.7788826523271
 20
143.3641195789258
 30
0.0
 10
389.593612839776
 20
143.5723147493126
 30
0.0
 10
389.4016502996306
 20
143.7846431163266
 30
0.0
 10
389.1949126268744
 20
144.0096041581244
 30
0.0
 10
388.9730106726478
 20
144.2467770754862
 30
0.0
 10
388.7355930066951
 20
144.4956193199556
 30
0.0
 10
388.5351628104264
 20
144.7014925459197
 30
0.0
 10
388.3743525782612
 20
144.8641722826158
 30
0.0
 10
388.2568211549386
 20
144.9818923288756
 30
0.0
 10
388.1412967171253
 20
145.096463810362
 30
0.0
 10
388.0294214628761
 20
145.2063557452553
 30
0.0
 10
387.9121549251533
 20
145.3204789263523
 30
0.0
 10
387.7902151144392
 20
145.4379512101308
 30
0.0
 10
387.6643095943338
 20
145.5579245627225
 30
0.0
 10
387.5445451751668
 20
145.6708609927611
 30
0.0
 10
387.4308455929445
 20
145.7770170657609
 30
0.0
 10
387.3231362133316
 20
145.8766333978822
 30
0.0
 10
387.2213446197117
 20
145.9699350716068
 30
0.0
 10
387.1338619976767
 20
146.0494424967828
 30
0.0
 10
387.0597092585866
 20
146.1163700378923
 30
0.0
 10
386.9979098125305
 20
146.171843834554
 30
0.0
 10
386.9389884143226
 20
146.2244583562733
 30
0.0
 10
386.8832145877334
 20
146.2740142887787
 30
0.0
 10
386.835060257128
 20
146.3165989069986
 30
0.0
 10
386.7951586739227
 20
146.3517496691187
 30
0.0
 10
386.7638467534194
 20
146.3792525374668
 30
0.0
 10
386.7372817931312
 20
146.4025269542222
 30
0.0
 10
386.7158571396069
 20
146.4212580950536
 30
0.0
 10
386.6971310663687
 20
146.4376029387553
 30
0.0
 10
386.6770451746459
 20
146.4551082964455
 30
0.0
 10
386.6511780157369
 20
146.4776083476411
 30
0.0
 10
386.6179630374258
 20
146.5064249000767
 30
0.0
 10
386.5774330926505
 20
146.5414739104067
 30
0.0
 10
386.5299765726315
 20
146.5823534345999
 30
0.0
 10
386.4757252230288
 20
146.6288766030271
 30
0.0
 10
386.4148168579873
 20
146.6808436577796
 30
0.0
 10
386.3470452713282
 20
146.7383372793109
 30
0.0
 10
386.2719614799695
 20
146.8016319760965
 30
0.0
 10
386.1895533777917
 20
146.8706143670178
 30
0.0
 10
386.0998155834533
 20
146.9451533436033
 30
0.0
 10
386.003264646375
 20
147.0246815383982
 30
0.0
 10
385.8999900167005
 20
147.1089821765826
 30
0.0
 10
385.7908079132021
 20
147.1972446372351
 30
0.0
 10
385.6776239994138
 20
147.287808127665
 30
0.0
 10
385.5635374200501
 20
147.3781338068345
 30
0.0
 10
385.4508801606486
 20
147.4663904194925
 30
0.0
 10
385.3257960528533
 20
147.5633695462691
 30
0.0
 10
385.1890810817204
 20
147.6680655097478
 30
0.0
 10
385.0415082864893
 20
147.7794787332632
 30
0.0
 10
384.8989858771751
 20
147.8855952089255
 30
0.0
 10
384.7614074928471
 20
147.9866532133809
 30
0.0
 10
384.6173320877556
 20
148.0910968852913
 30
0.0
 10
384.4675916969321
 20
148.1980813062094
 30
0.0
 10
384.313003306822
 20
148.3067995757243
 30
0.0
 10
384.1657705469231
 20
148.4087802361254
 30
0.0
 10
384.0257471248696
 20
148.5043556684492
 30
0.0
 10
383.9015951742052
 20
148.587911623076
 30
0.0
 10
383.7923418186743
 20
148.6605535209326
 30
0.0
 10
383.6967325632988
 20
148.7234740325228
 30
0.0
 10
383.6037282533668
 20
148.7840737395021
 30
0.0
 10
383.5119243087927
 20
148.843304810206
 30
0.0
 10
383.4118120263757
 20
148.907258580363
 30
0.0
 10
383.303287949264
 20
148.9758003159665
 30
0.0
 10
383.1863208926813
 20
149.0487265526907
 30
0.0
 10
383.0693038400715
 20
149.1207343849463
 30
0.0
 10
382.9517673331312
 20
149.1921146601862
 30
0.0
 10
382.8316666185568
 20
149.264053079767
 30
0.0
 10
382.7068067547078
 20
149.3378707311712
 30
0.0
 10
382.621437688416
 20
149.3873764283463
 30
0.0
 10
382.5776484104254
 20
149.4127699207421
 30
0.0
  0
SPLINE
  5
13E
330
1F
100
AcDbEntity
  8
0
  6
Continuous
 62
     7
370
    30
100
AcDbSpline
210
0.0
220
0.0
230
1.0
 70
     8
 71
     3
 72
   258
 73
   254
 74
     0
 42
0.000000001
 43
0.00000001
 40
0.0
 40
0.0
 40
0.0
 40
0.0
 40
0.015219350792192
 40
0.0299419819539754
 40
0.0441792541365761
 40
0.0579395264632448
 40
0.0712284864411767
 40
0.0840494591249154
 40
0.0957103206644622
 40
0.1069558554054329
 40
0.1177844060183224
 40
0.1281932583234345
 40
0.138178807067173
 40
0.1461736329347788
 40
0.1538686597532414
 40
0.1612608229164156
 40
0.1683468766702094
 40
0.1751195991318547
 40
0.1814733477549199
 40
0.1870342832119359
 40
0.1921736677864161
 40
0.196887316222518
 40
0.2011712604855101
 40
0.2050217897028043
 40
0.2074213100804334
 40
0.209379876189194
 40
0.2108930006749257
 40
0.2120069101328781
 40
0.2131845775918195
 40
0.2150009278497284
 40
0.2171293163507921
 40
0.2195711747624017
 40
0.2233354948606205
 40
0.2276697409225444
 40
0.2325793674061199
 40
0.2380706725379579
 40
0.2453068901438682
 40
0.2528268383535678
 40
0.2605388704275233
 40
0.2684465582149927
 40
0.2765536067463178
 40
0.2848638540344042
 40
0.2925812306034673
 40
0.3004721303257318
 40
0.308539697584417
 40
0.3168003747212841
 40
0.3254121118820059
 40
0.3344262378515607
 40
0.3426980218155883
 40
0.3512936134226282
 40
0.3602154371120302
 40
0.3641876879182028
 40
0.3676584478992413
 40
0.3706235781110503
 40
0.3730795283702891
 40
0.3750233486997116
 40
0.3773108653458699
 40
0.3799567463923715
 40
0.3830062959162952
 40
0.386431495442302
 40
0.3902136467544369
 40
0.394355873043785
 40
0.3988615897212194
 40
0.4037345106673352
 40
0.4084264077933214
 40
0.4134207493776004
 40
0.4187208536471136
 40
0.4239152346959013
 40
0.4285918807577906
 40
0.4327451790010353
 40
0.4363701358024379
 40
0.4392670625449339
 40
0.4416989329265257
 40
0.4436632045366133
 40
0.4446009082879377
 40
0.4454027050730677
 40
0.4464712196666314
 40
0.4479403391963239
 40
0.4498537472792255
 40
0.4521874047581396
 40
0.4549434676293614
 40
0.4579938358155719
 40
0.4609486290215417
 40
0.4637808695880716
 40
0.4664897670354896
 40
0.4717338824019968
 40
0.4764330656982884
 40
0.4805816304036469
 40
0.4842088443756274
 40
0.4877298061220309
 40
0.4912678532933429
 40
0.4936550534329894
 40
0.4960500195435976
 40
0.4984527716816325
 40
0.5008633297726472
 40
0.5031415118884238
 40
0.504910481857334
 40
0.5061974730702336
 40
0.5072195375065237
 40
0.5086502428157378
 40
0.510581786895198
 40
0.5129916146233274
 40
0.5158820792415134
 40
0.5192439170557012
 40
0.5227566215140409
 40
0.5262765335477083
 40
0.5298036422128969
 40
0.5477916521826076
 40
0.5513465785507352
 40
0.5547799074534517
 40
0.5577584846868263
 40
0.5602627637245172
 40
0.5616676293440973
 40
0.5628600912281473
 40
0.5638396642558765
 40
0.5646059504583273
 40
0.5653046236311405
 40
0.5662766266865781
 40
0.5677918009503198
 40
0.5697079633408669
 40
0.5719850317500493
 40
0.5743203923569875
 40
0.5790513592336836
 40
0.5837714111589334
 40
0.5884803003219785
 40
0.5932773389925264
 40
0.5982769549901231
 40
0.6034809029077209
 40
0.6088908670715301
 40
0.614345668530041
 40
0.6166737345913212
 40
0.618644207787768
 40
0.6202558630385175
 40
0.621507701817157
 40
0.6224567583451561
 40
0.6237342746512033
 40
0.6255365703528727
 40
0.6278652434002993
 40
0.6307223499788569
 40
0.6379709650201896
 40
0.6448080650544907
 40
0.6512285069632493
 40
0.6557675557261637
 40
0.6600628392768223
 40
0.6639252123477795
 40
0.667255892314163
 40
0.6690760351223595
 40
0.6706843711861106
 40
0.6720803659519183
 40
0.6732651570193603
 40
0.6745447719960986
 40
0.6764290963127091
 40
0.6787477903320428
 40
0.6813776481807307
 40
0.6841531860423375
 40
0.6870741489641551
 40
0.6901411458005603
 40
0.6933548115489988
 40
0.6994983580058062
 40
0.7055132107750327
 40
0.7113503427093567
 40
0.7156105177466806
 40
0.7196489657939075
 40
0.7231530921475604
 40
0.7261042755640664
 40
0.7281288331175443
 40
0.7304512679380162
 40
0.7331595392481796
 40
0.7362550589962218
 40
0.7406832050042287
 40
0.7452205729589813
 40
0.7497920633053977
 40
0.7543977788929161
 40
0.7580406325978807
 40
0.7615708859005113
 40
0.7645910223877385
 40
0.767072854235498
 40
0.768669565967484
 40
0.7699960170891956
 40
0.7715396706816623
 40
0.7733877756427008
 40
0.7755410360948315
 40
0.7779536652095441
 40
0.7806455141866698
 40
0.7834132372049358
 40
0.7861968229682169
 40
0.7908224928100197
 40
0.7954915446324782
 40
0.8002041220743483
 40
0.8049370099486562
 40
0.8093746516829835
 40
0.8133472616311617
 40
0.8169357134375966
 40
0.8201503274892702
 40
0.8231816802164648
 40
0.8257893905037625
 40
0.8284792181988192
 40
0.8315624237308791
 40
0.8350462816521462
 40
0.8389321261049784
 40
0.8429953482810624
 40
0.8470345190595973
 40
0.8510494729581449
 40
0.8555172692684534
 40
0.8599508380523262
 40
0.8640146807253292
 40
0.8674852717686851
 40
0.8697945505486773
 40
0.8718002794809859
 40
0.873925260280345
 40
0.8762462943901657
 40
0.8792656838554406
 40
0.8825765738875981
 40
0.8862960026721747
 40
0.8904543440917548
 40
0.8950533398885686
 40
0.9000948906417778
 40
0.9032671285358326
 40
0.9060956362120403
 40
0.908487523426408
 40
0.9104417906930421
 40
0.9116697477139541
 40
0.9126753333815029
 40
0.9139379657258278
 40
0.9155804201405012
 40
0.9176485208408067
 40
0.9200914353790562
 40
0.9225861645642909
 40
0.925025448714277
 40
0.9274091530722912
 40
0.9297371468904203
 40
0.9320093033729081
 40
0.9365630893170702
 40
0.9408729391128623
 40
0.9449378649068575
 40
0.9486081158088486
 40
0.9517236630058111
 40
0.9542829679851663
 40
0.955689708967389
 40
0.956844407469284
 40
0.9577507821960816
 40
0.95880208402698
 40
0.9602594637191091
 40
0.9620865598479434
 40
0.9643064260397766
 40
0.9669095837273044
 40
0.9698547536876727
 40
0.9738020670811058
 40
0.9782303849466718
 40
0.9831414015207384
 40
0.9885369430891927
 40
0.9944189623199707
 40
1.0
 40
1.0
 40
1.0
 40
1.0
 10
382.577648175927
 20
149.4127699270688
 30
0.0
 10
382.5108241694369
 20
149.4510764172352
 30
0.0
 10
382.3793571164898
 20
149.5264391743557
 30
0.0
 10
382.1853561411344
 20
149.6342600605503
 30
0.0
 10
381.997779476162
 20
149.7362210089414
 30
0.0
 10
381.8165326556309
 20
149.8323890762183
 30
0.0
 10
381.6415562341445
 20
149.9230961156592
 30
0.0
 10
381.4758584091651
 20
150.007029600605
 30
0.0
 10
381.3191969743011
 20
150.0846477643067
 30
0.0
 10
381.1713467194975
 20
150.1563632470779
 30
0.0
 10
381.0290625161121
 20
150.2239513130184
 30
0.0
 10
380.8923785658384
 20
150.287557092832
 30
0.0
 10
380.7681770906104
 20
150.3441979695893
 30
0.0
 10
380.6559149095139
 20
150.394470509772
 30
0.0
 10
380.5550465525674
 20
150.4389150784913
 30
0.0
 10
380.4582018885495
 20
150.4809153326785
 30
0.0
 10
380.3654354945472
 20
150.5205283995713
 30
0.0
 10
380.2772469739028
 20
150.5576225777768
 30
0.0
 10
380.1957578413271
 20
150.5914041387005
 30
0.0
 10
380.1214294203786
 20
150.6218068288279
 30
0.0
 10
380.054279205806
 20
150.6489398401888
 30
0.0
 10
379.9927159255872
 20
150.6735332903829
 30
0.0
 10
379.936783118163
 20
150.6956430564319
 30
0.0
 10
379.8909341200537
 20
150.7135927918671
 30
0.0
 10
379.8552113567602
 20
150.7274738292543
 30
0.0
 10
379.8296665119558
 20
150.7373479052037
 30
0.0
 10
379.8097187670814
 20
150.7450260861656
 30
0.0
 10
379.793164610982
 20
150.7513776588206
 30
0.0
 10
379.7753103964678
 20
150.758208880976
 30
0.0
 10
379.7530680885309
 20
150.766687863135
 30
0.0
 10
379.7253602811562
 20
150.7771991783004
 30
0.0
 10
379.6892287661473
 20
150.7908288019322
 30
0.0
 10
379.6435728895697
 20
150.8079184376326
 30
0.0
 10
379.587278881716
 20
150.8287762123591
 30
0.0
 10
379.5235708164063
 20
150.8521044003473
 30
0.0
 10
379.4473866346322
 20
150.8796282138105
 30
0.0
 10
379.3600424788711
 20
150.9106600189649
 30
0.0
 10
379.2630621280574
 20
150.944440989724
 30
0.0
 10
379.1631563873962
 20
150.9785212342223
 30
0.0
 10
379.060695710617
 20
151.0127136827629
 30
0.0
 10
378.9556457608123
 20
151.0469689153454
 30
0.0
 10
378.8514242620882
 20
151.0801357447736
 30
0.0
 10
378.7481556526415
 20
151.1122044265424
 30
0.0
 10
378.6459612814441
 20
151.1431702793259
 30
0.0
 10
378.5414699956616
 20
151.1740247714789
 30
0.0
 10
378.4338911834722
 20
151.2049363864611
 30
0.0
 10
378.3224989575126
 20
151.236025239559
 30
0.0
 10
378.2113391937435
 20
151.2660911883412
 30
0.0
 10
378.1005200877428
 20
151.2951266905077
 30
0.0
 10
377.9903561434998
 20
151.3230784970899
 30
0.0
 10
377.8987905513558
 20
151.3455223873183
 30
0.0
 10
377.8291753445685
 20
151.3621436049913
 30
0.0
 10
377.7849321152408
 20
151.3725444174274
 30
0.0
 10
377.7471607104496
 20
151.3813036099743
 30
0.0
 10
377.7158876388413
 20
151.3884718950377
 30
0.0
 10
377.6875116418726
 20
151.394914253983
 30
0.0
 10
377.6582878160458
 20
151.4014878343204
 30
0.0
 10
377.6241469116133
 20
151.4090834067571
 30
0.0
 10
377.5849722865444
 20
151.4176855470561
 30
0.0
 10
377.5410190698473
 20
151.4271922447585
 30
0.0
 10
377.4926123763456
 20
151.4374868428443
 30
0.0
 10
377.4397805827988
 20
151.448512826139
 30
0.0
 10
377.3825083004368
 20
151.4602178568595
 30
0.0
 10
377.3230940334691
 20
151.4720820911375
 30
0.0
 10
377.2617920357779
 20
151.4840299830262
 30
0.0
 10
377.1988540690754
 20
151.4959912739079
 30
0.0
 10
377.1339844337507
 20
151.5079846199139
 30
0.0
 10
377.0705620694989
 20
151.5193754359725
 30
0.0
 10
377.0119884843661
 20
151.5296034358402
 30
0.0
 10
376.9600191315529
 20
151.5384459766057
 30
0.0
 10
376.915506032407
 20
151.5458442488044
 30
0.0
 10
376.8781860175721
 20
151.5519233144219
 30
0.0
 10
376.8477905890032
 20
151.5567919859291
 30
0.0
 10
376.8255524954366
 20
151.5603041879732
 30
0.0
 10
376.8100983538631
 20
151.5627220487487
 30
0.0
 10
376.7983649165176
 20
151.5645473476941
 30
0.0
 10
376.784406269649
 20
151.5667054296349
 30
0.0
 10
376.7658064334339
 20
151.5695568604797
 30
0.0
 10
376.7419284697033
 20
151.5731759999646
 30
0.0
 10
376.7126907864079
 20
151.5775437096334
 30
0.0
 10
376.6787296865773
 20
151.5825281279042
 30
0.0
 10
376.642206838906
 20
151.5877793035863
 30
0.0
 10
376.6053972637218
 20
151.5929576810123
 30
0.0
 10
376.5700385671936
 20
151.5978262348246
 30
0.0
 10
376.5251867461158
 20
151.6038733088844
 30
0.0
 10
376.4726291819441
 20
151.6107426293216
 30
0.0
 10
376.414170817565
 20
151.6180811329321
 30
0.0
 10
376.3624812212702
 20
151.6243316320635
 30
0.0
 10
376.3157171516738
 20
151.6297965640557
 30
0.0
 10
376.2715225612613
 20
151.634795807596
 30
0.0
 10
376.2324942904419
 20
151.6390660771805
 30
0.0
 10
376.1981464479398
 20
151.6427172262892
 30
0.0
 10
376.1685051964719
 20
151.6457934109154
 30
0.0
 10
376.138787677836
 20
151.6488023032683
 30
0.0
 10
376.1095714806105
 20
151.6516861430017
 30
0.0
 10
376.0829844683435
 20
151.6542445041955
 30
0.0
 10
376.0610362310418
 20
151.6563094266739
 30
0.0
 10
376.0442635847023
 20
151.6578602317361
 30
0.0
 10
376.028882753275
 20
151.6592634890117
 30
0.0
 10
376.0108529295192
 20
151.6608849144249
 30
0.0
 10
375.9871268739632
 20
151.6629761449546
 30
0.0
 10
375.9574192809013
 20
151.665525860094
 30
0.0
 10
375.921865490766
 20
151.6684767438469
 30
0.0
 10
375.8818258936524
 20
151.6716660534091
 30
0.0
 10
375.8392498637674
 20
151.6749005135604
 30
0.0
 10
375.7960425870427
 20
151.6780196483772
 30
0.0
 10
375.6937168477412
 20
151.6850180802614
 30
0.0
 10
375.5915845287688
 20
151.6908138180718
 30
0.0
 10
375.4901873302589
 20
151.6953744027091
 30
0.0
 10
375.4497707039745
 20
151.6970371251145
 30
0.0
 10
375.4136558955622
 20
151.6983953601086
 30
0.0
 10
375.385783660443
 20
151.6993592518742
 30
0.0
 10
375.3651526426372
 20
151.7000281204151
 30
0.0
 10
375.3506934590078
 20
151.7004760968875
 30
0.0
 10
375.3388191441828
 20
151.7008296901293
 30
0.0
 10
375.3289421339485
 20
151.7011142394759
 30
0.0
 10
375.3190949761848
 20
151.7013899168707
 30
0.0
 10
375.3062235129256
 20
151.7017383073704
 30
0.0
 10
375.288439752787
 20
151.7021950468065
 30
0.0
 10
375.2653984776615
 20
151.7027427635925
 30
0.0
 10
375.2390664900964
 20
151.7033070844542
 30
0.0
 10
375.2014102023568
 20
151.7040169801399
 30
0.0
 10
375.1539640518104
 20
151.7047235000047
 30
0.0
 10
375.0970540223445
 20
151.7052682797199
 30
0.0
 10
375.0399699090872
 20
151.7055105066835
 30
0.0
 10
374.9818598269318
 20
151.705443498127
 30
0.0
 10
374.9218722110879
 20
151.7050396268783
 30
0.0
 10
374.8595498975014
 20
151.7042566194542
 30
0.0
 10
374.7955377308052
 20
151.7030626898339
 30
0.0
 10
374.7430902903403
 20
151.7017563792469
 30
0.0
 10
374.7043760925553
 20
151.7006180760435
 30
0.0
 10
374.6809360423078
 20
151.6998705446615
 30
0.0
 10
374.6617769308791
 20
151.6992197476921
 30
0.0
 10
374.646673526389
 20
151.6986816101694
 30
0.0
 10
374.6328964583576
 20
151.6981731103302
 30
0.0
 10
374.6169399146628
 20
151.6975634977935
 30
0.0
 10
374.5955311434243
 20
151.696707176143
 30
0.0
 10
374.5678911679449
 20
151.6955350123745
 30
0.0
 10
374.5187608925077
 20
151.6933026003522
 30
0.0
 10
374.4519535896317
 20
151.6898713018171
 30
0.0
 10
374.3713246261514
 20
151.6850614315445
 30
0.0
 10
374.3015361988322
 20
151.6803505347104
 30
0.0
 10
374.241847328988
 20
151.6759322265565
 30
0.0
 10
374.1922535944637
 20
151.6719994559282
 30
0.0
 10
374.1474571450805
 20
151.6682280208549
 30
0.0
 10
374.1123665191727
 20
151.6651219209296
 30
0.0
 10
374.0860797424556
 20
151.6627134626103
 30
0.0
 10
374.0673301512612
 20
151.6609567454263
 30
0.0
 10
374.0510591693113
 20
151.6594026846817
 30
0.0
 10
374.0360717404664
 20
151.6579477877629
 30
0.0
 10
374.0191939282153
 20
151.656284155893
 30
0.0
 10
373.997927621003
 20
151.6541470874846
 30
0.0
 10
373.971447132438
 20
151.6514183315342
 30
0.0
 10
373.9415438148076
 20
151.6482466541556
 30
0.0
 10
373.9093440187901
 20
151.6447250502039
 30
0.0
 10
373.8754942967205
 20
151.6409048754644
 30
0.0
 10
373.8399977499102
 20
151.6367682926326
 30
0.0
 10
373.7921351609241
 20
151.6310054805653
 30
0.0
 10
373.7330391419724
 20
151.623548317031
 30
0.0
 10
373.6640485154891
 20
151.6143215139977
 30
0.0
 10
373.6024449351174
 20
151.605626575096
 30
0.0
 10
373.5485228662378
 20
151.5976739494809
 30
0.0
 10
373.5035863012147
 20
151.5908113515198
 30
0.0
 10
373.4637024506304
 20
151.584529936117
 30
0.0
 10
373.4315186800017
 20
151.5793292427765
 30
0.0
 10
373.4038462794943
 20
151.5747698207917
 30
0.0
 10
373.3771191367224
 20
151.5702919288674
 30
0.0
 10
373.3463704285853
 20
151.5650412131905
 30
0.0
 10
373.3077072242299
 20
151.5582949289656
 30
0.0
 10
373.2622165116526
 20
151.5501368514688
 30
0.0
 10
373.2112679478778
 20
151.5407045178444
 30
0.0
 10
373.159764584842
 20
151.5308645895431
 30
0.0
 10
373.1117281058387
 20
151.5213991750791
 30
0.0
 10
373.0676826416515
 20
151.5124818658308
 30
0.0
 10
373.0296342856578
 20
151.5045989639292
 30
0.0
 10
372.9959770403228
 20
151.4974800958645
 30
0.0
 10
372.9695615459975
 20
151.4917965698526
 30
0.0
 10
372.9494684897229
 20
151.4874188933304
 30
0.0
 10
372.9328732263263
 20
151.483770969992
 30
0.0
 10
372.9153534328559
 20
151.4798862683974
 30
0.0
 10
372.8947798704828
 20
151.4752778025121
 30
0.0
 10
372.8710056668729
 20
151.4698886751886
 30
0.0
 10
372.8441355674187
 20
151.4637153995832
 30
0.0
 10
372.8150297550911
 20
151.456928467858
 30
0.0
 10
372.7845961998812
 20
151.4497197607308
 30
0.0
 10
372.7470781425471
 20
151.4406919372291
 30
0.0
 10
372.702638399271
 20
151.4297748228117
 30
0.0
 10
372.6512297888756
 20
151.4168195065052
 30
0.0
 10
372.5995592258704
 20
151.4034654947413
 30
0.0
 10
372.5488669748111
 20
151.390033971393
 30
0.0
 10
372.5009980499264
 20
151.3770460466909
 30
0.0
 10
372.4573981480685
 20
151.3649607878819
 30
0.0
 10
372.4183229563691
 20
151.35392279605
 30
0.0
 10
372.3827251736514
 20
151.3436967759489
 30
0.0
 10
372.3507306961786
 20
151.3343647520437
 30
0.0
 10
372.320680023786
 20
151.3254796087297
 30
0.0
 10
372.2904789336768
 20
151.3164362518845
 30
0.0
 10
372.2571525456211
 20
151.3063197444005
 30
0.0
 10
372.2195787547358
 20
151.2947370373859
 30
0.0
 10
372.178552591496
 20
151.281872353375
 30
0.0
 10
372.1356437902542
 20
151.2681704966057
 30
0.0
 10
372.0924059710389
 20
151.2541090133112
 30
0.0
 10
372.0478573588849
 20
151.2393594306787
 30
0.0
 10
372.0020498241117
 20
151.2239081591078
 30
0.0
 10
371.9562307105228
 20
151.2081526377148
 30
0.0
 10
371.9140476569758
 20
151.1933821670308
 30
0.0
 10
371.8794156614028
 20
151.1810615492954
 30
0.0
 10
371.8520603658349
 20
151.171211473043
 30
0.0
 10
371.8294452099982
 20
151.1629949831585
 30
0.0
 10
371.8068172031147
 20
151.1547034506811
 30
0.0
 10
371.7806694823147
 20
151.1450344457027
 30
0.0
 10
371.7504183140321
 20
151.1337257113325
 30
0.0
 10
371.7153478137629
 20
151.1204466277124
 30
0.0
 10
371.676387044088
 20
151.1054854248452
 30
0.0
 10
371.6330489500376
 20
151.0885813687216
 30
0.0
 10
371.585253293151
 20
151.0696157535963
 30
0.0
 10
371.5410127512492
 20
151.0517298181853
 30
0.0
 10
371.5029889478125
 20
151.0361134063502
 30
0.0
 10
371.4741470366534
 20
151.0241322472022
 30
0.0
 10
371.4495335560018
 20
151.0138064431855
 30
0.0
 10
371.4304382363449
 20
151.0057300532953
 30
0.0
 10
371.4161065829043
 20
150.9996323440479
 30
0.0
 10
371.4041496040058
 20
150.9945238008026
 30
0.0
 10
371.390783145565
 20
150.988788970209
 30
0.0
 10
371.3738009849171
 20
150.981463551776
 30
0.0
 10
371.3528142189158
 20
150.9723485588146
 30
0.0
 10
371.3289575013577
 20
150.9619009546986
 30
0.0
 10
371.3038778600666
 20
150.9508183618097
 30
0.0
 10
371.2790400554541
 20
150.9397438922651
 30
0.0
 10
371.2548068920998
 20
150.9288445196244
 30
0.0
 10
371.2311769281734
 20
150.918126126584
 30
0.0
 10
371.2002515807083
 20
150.9039828056542
 30
0.0
 10
371.1627150726005
 20
150.8866065556228
 30
0.0
 10
371.1192639597112
 20
150.86617580189
 30
0.0
 10
371.0788868016537
 20
150.8469106973206
 30
0.0
 10
371.0426217795235
 20
150.829374134389
 30
0.0
 10
371.0115071210841
 20
150.8141516823189
 30
0.0
 10
370.9880139530191
 20
150.8025462084269
 30
0.0
 10
370.9710889422785
 20
150.7941290348008
 30
0.0
 10
370.959663069591
 20
150.7884221051193
 30
0.0
 10
370.9494624301804
 20
150.7833094725295
 30
0.0
 10
370.9383269691483
 20
150.7777099689471
 30
0.0
 10
370.924209713349
 20
150.7705812984408
 30
0.0
 10
370.906323686158
 20
150.7615000450025
 30
0.0
 10
370.8847560753993
 20
150.750475811073
 30
0.0
 10
370.859608883792
 20
150.7375193051594
 30
0.0
 10
370.8286769070133
 20
150.7214383023583
 30
0.0
 10
370.7916899216942
 20
150.7019927699352
 30
0.0
 10
370.748195645852
 20
150.6788119500434
 30
0.0
 10
370.6999405911874
 20
150.6527041798463
 30
0.0
 10
370.6469663154178
 20
150.623546171229
 30
0.0
 10
370.5918776058721
 20
150.5927268939924
 30
0.0
 10
370.5545494862574
 20
150.5713088373425
 30
0.0
 10
370.5363754822622
 20
150.5608809922986
 30
0.0
  0
SPLINE
  5
13F
330
1F
100
AcDbEntity
  8
0
  6
Continuous
 62
     7
370
    30
100
AcDbSpline
210
0.0
220
0.0
230
1.0
 70
     8
 71
     3
 72
    27
 73
    23
 74
     0
 42
0.000000001
 43
0.00000001
 40
0.0
 40
0.0
 40
0.0
 40
0.0
 40
0.0508093389777937
 40
0.119474023175748
 40
0.1862179176632285
 40
0.2433828263207679
 40
0.303921349419743
 40
0.3615914553432164
 40
0.416757098784063
 40
0.4698685743061415
 40
0.5213058171987051
 40
0.5713771069875812
 40
0.6203308817168639
 40
0.6683681308642629
 40
0.7156526984083355
 40
0.7623192825192291
 40
0.8084795195165138
 40
0.8542266012331579
 40
0.8996388007505872
 40
0.9447821911169734
 40
0.9897127658087392
 40
1.0
 40
1.0
 40
1.0
 40
1.0
 10
373.6105491204668
 20
102.1893023622947
 30
0.0
 10
373.6195264428966
 20
102.1944371417053
 30
0.0
 10
373.6406358855625
 20
102.2065111573617
 30
0.0
 10
373.6753019862786
 20
102.2228228326236
 30
0.0
 10
373.7128760819031
 20
102.2380978954105
 30
0.0
 10
373.7508916576118
 20
102.2510527103284
 30
0.0
 10
373.7890727037687
 20
102.2618994598012
 30
0.0
 10
373.8290908002577
 20
102.2710633566254
 30
0.0
 10
373.8696485779607
 20
102.2783119487411
 30
0.0
 10
373.9108971554129
 20
102.28376698269
 30
0.0
 10
373.9529912885653
 20
102.2875093389804
 30
0.0
 10
373.9960548201816
 20
102.2895817727121
 30
0.0
 10
374.0401815650665
 20
102.2900000344099
 30
0.0
 10
374.0854399175322
 20
102.2887609226911
 30
0.0
 10
374.1318771495888
 20
102.2858485715393
 30
0.0
 10
374.1795238093179
 20
102.2812378548452
 30
0.0
 10
374.2283944962824
 20
102.2749007787369
 30
0.0
 10
374.2784984872052
 20
102.2667966856502
 30
0.0
 10
374.3298112544304
 20
102.2569183497195
 30
0.0
 10
374.3823880945474
 20
102.245129188939
 30
0.0
 10
374.4222546898964
 20
102.2351867839929
 30
0.0
 10
374.4447232747672
 20
102.2289454754837
 30
0.0
 10
374.4489092357676
 20
102.2277827020308
 30
0.0
  0
SPLINE
  5
140
330
1F
100
AcDbEntity
  8
0
  6
Continuous
 62
     7
370
    30
100
AcDbSpline
210
0.0
220
0.0
230
1.0
 70
     8
 71
     3
 72
    64
 73
    60
 74
     0
 42
0.000000001
 43
0.00000001
 40
0.0
 40
0.0
 40
0.0
 40
0.0
 40
0.0091880614759666
 40
0.0268518554597479
 40
0.0445378001838881
 40
0.0622495198531797
 40
0.0799860417339906
 40
0.0977463288348654
 40
0.1155292882016581
 40
0.1333337801130773
 40
0.1511586260252787
 40
0.1690026154063353
 40
0.18686451158633
 40
0.2047430567355213
 40
0.2226369760725706
 40
0.2405449813942395
 40
0.2584657740082144
 40
0.2763980471455522
 40
0.2943404879183599
 40
0.3122917788859266
 40
0.3302505992844456
 40
0.3482156259723629
 40
0.3661855341390139
 40
0.38415899782046
 40
0.4021346902641708
 40
0.4201112841824962
 40
0.4380872649916916
 40
0.4560610493085508
 40
0.4740313093785852
 40
0.491996717730301
 40
0.5099559474380163
 40
0.5279076725220049
 40
0.5458505685113109
 40
0.563783313210698
 40
0.5817045877174228
 40
0.59961307773596
 40
0.6175074752434687
 40
0.6353864805634089
 40
0.6532488049104184
 40
0.6710931734752734
 40
0.6889183291265758
 40
0.7067230368132029
 40
0.7245060887608503
 40
0.7422663105658714
 40
0.7600025683006298
 40
0.7777137767575221
 40
0.7953989089724146
 40
0.8130570071837744
 40
0.8306871954017309
 40
0.8482886937806084
 40
0.8658608350109606
 40
0.8834030829725877
 40
0.9009150539188612
 40
0.9183965404965938
 40
0.935847538944338
 40
0.9532682798582239
 40
0.9706592629685774
 40
0.9880212964357666
 40
1.0
 40
1.0
 40
1.0
 40
1.0
 10
365.9468283624433
 20
107.1210368897404
 30
0.0
 10
365.9585422233245
 20
107.1106748898919
 30
0.0
 10
365.9927756576654
 20
107.0803922320176
 30
0.0
 10
366.049404321257
 20
107.028818412438
 30
0.0
 10
366.1166140513377
 20
106.9657336282217
 30
0.0
 10
366.1835935015118
 20
106.9008431992899
 30
0.0
 10
366.2502925166669
 20
106.8342115319366
 30
0.0
 10
366.3166524057714
 20
106.76587123307
 30
0.0
 10
366.3826161927916
 20
106.6958673210083
 30
0.0
 10
366.4481274600624
 20
106.6242438137847
 30
0.0
 10
366.5131307153908
 20
106.5510472331946
 30
0.0
 10
366.5775713465973
 20
106.4763255694609
 30
0.0
 10
366.6413956831028
 20
106.4001284676178
 30
0.0
 10
366.7045510255576
 20
106.3225070889806
 30
0.0
 10
366.7669856812788
 20
106.243514062806
 30
0.0
 10
366.8286489957756
 20
106.1632034166427
 30
0.0
 10
366.8894913833632
 20
106.0816305151849
 30
0.0
 10
366.9494643564129
 20
105.9988519995018
 30
0.0
 10
367.0085205536956
 20
105.9149257286762
 30
0.0
 10
367.066613767997
 20
105.8299107231508
 30
0.0
 10
367.1236989732425
 20
105.7438671097992
 30
0.0
 10
367.1797323513283
 20
105.6568560685394
 30
0.0
 10
367.2346713188451
 20
105.5689397803521
 30
0.0
 10
367.2884745538743
 20
105.4801813765453
 30
0.0
 10
367.3411020230077
 20
105.390644889117
 30
0.0
 10
367.3925148305449
 20
105.3003955148581
 30
0.0
 10
367.4426752064163
 20
105.2094996954739
 30
0.0
 10
367.4915468014923
 20
105.1180246489636
 30
0.0
 10
367.5390948782684
 20
105.0260379943407
 30
0.0
 10
367.585286373641
 20
104.9336075728328
 30
0.0
 10
367.6300896921674
 20
104.8408018315545
 30
0.0
 10
367.673474738085
 20
104.7476897762709
 30
0.0
 10
367.7154129485277
 20
104.6543409236713
 30
0.0
 10
367.7558773279883
 20
104.5608252529704
 30
0.0
 10
367.7948424840927
 20
104.4672131565961
 30
0.0
 10
367.8322846647348
 20
104.373575389716
 30
0.0
 10
367.8681817966153
 20
104.2799830183387
 30
0.0
 10
367.9025135252054
 20
104.1865073657134
 30
0.0
 10
367.9352612561479
 20
104.0932199567308
 30
0.0
 10
367.9664081980807
 20
104.0001924600177
 30
0.0
 10
367.9959394068538
 20
103.9074966273929
 30
0.0
 10
368.0238418310798
 20
103.8152042303393
 30
0.0
 10
368.0501043589273
 20
103.7233869931226
 30
0.0
 10
368.0747178660389
 20
103.6321165221716
 30
0.0
 10
368.0976752643974
 20
103.541464231322
 30
0.0
 10
368.118971551972
 20
103.4515012624606
 30
0.0
 10
368.1386038627293
 20
103.3622984012785
 30
0.0
 10
368.1565715172551
 20
103.2739259871077
 30
0.0
 10
368.1728760714627
 20
103.1864538184743
 30
0.0
 10
368.1875213708618
 20
103.0999510460346
 30
0.0
 10
368.2005135802412
 20
103.0144860816024
 30
0.0
 10
368.2118612982384
 20
102.9301264140268
 30
0.0
 10
368.2215753460368
 20
102.8469387361915
 30
0.0
 10
368.2296697554169
 20
102.7649878758382
 30
0.0
 10
368.2361582742931
 20
102.6843401385183
 30
0.0
 10
368.241067534442
 20
102.6050501842716
 30
0.0
 10
368.2443881666465
 20
102.5272091532421
 30
0.0
 10
368.2460647362147
 20
102.4586246513874
 30
0.0
 10
368.246237604951
 20
102.416397590558
 30
0.0
 10
368.246308180661
 20
102.3991578926076
 30
0.0
  0
LINE
  5
141
330
1F
100
AcDbEntity
  8
0
  6
Continuous
 62
     7
370
    30
100
AcDbLine
 10
368.2463081807
 20
102.3991578926
 30
0.0
 11
368.2463081807
 21
52.3432182
 31
0.0
  0
LINE
  5
142
330
1F
100
AcDbEntity
  8
0
  6
Continuous
 62
     7
370
    30
100
AcDbLine
 10
384.388117076
 20
57.2625348792
 30
0.0
 11
384.388117076
 21
104.0569790744
 31
0.0
  0
ARC
  5
143
330
1F
100
AcDbEntity
  8
0
  6
Continuous
 62
     7
370
    30
100
AcDbCircle
 10
372.0747353054
 20
50.7104019763
 30
0.0
 40
1.000000000000017
100
AcDbArc
 50
240.0026882663
 51
299.9973117337
  0
LINE
  5
144
330
1F
100
AcDbEntity
  8
0
  6
Continuous
 62
     7
370
    30
100
AcDbLine
 10
372.5746946717
 20
49.8443531139
 30
0.0
 11
383.8884031707
 21
56.3756180085
 31
0.0
  0
LINE
  5
145
330
1F
100
AcDbEntity
  8
0
  6
Continuous
 62
     7
370
    30
100
AcDbLine
 10
368.7463488143
 20
51.4771693376
 30
0.0
 11
371.5747759391
 21
49.8443531139
 31
0.0
  0
ARC
  5
146
330
1F
100
AcDbEntity
  8
0
  6
Continuous
 62
     7
370
    30
100
AcDbCircle
 10
369.2463081807
 20
52.3432182
 30
0.0
 40
1.000000000000019
100
AcDbArc
 50
180.0
 51
240.0026882664
  0
ARC
  5
147
330
1F
100
AcDbEntity
  8
0
  6
Continuous
 62
     7
370
    30
100
AcDbCircle
 10
383.3884438044
 20
57.2416668709
 30
0.0
 40
1.000000000000025
100
AcDbArc
 50
299.9977821494
 51
1.4646804852
  0
SPLINE
  5
148
330
1F
100
AcDbEntity
  8
0
  6
Continuous
 62
     7
370
    30
100
AcDbSpline
210
0.0
220
0.0
230
1.0
 70
     8
 71
     3
 72
   258
 73
   254
 74
     0
 42
0.000000001
 43
0.00000001
 40
0.0
 40
0.0
 40
0.0
 40
0.0
 40
0.002947459185119
 40
0.0069362429721898
 40
0.0109255569620893
 40
0.0149154007370475
 40
0.0189057718646896
 40
0.0228966660203924
 40
0.0268880771169915
 40
0.030879997439811
 40
0.0348724177851318
 40
0.0388653276006464
 40
0.042858715125937
 40
0.0468525675319399
 40
0.0508468710577699
 40
0.0548416111439535
 40
0.0588367725609814
 40
0.0628323395325659
 40
0.0668282958525444
 40
0.0708246249953535
 40
0.0748213102192928
 40
0.078818334662632
 40
0.0828156814320708
 40
0.0868133336838796
 40
0.0908112746974633
 40
0.0948094879415619
 40
0.0988079571334
 40
0.1028066662908374
 40
0.1068055997779265
 40
0.1108047423441856
 40
0.114804079157956
 40
0.118803595834189
 40
0.1228032784570318
 40
0.1268031135976567
 40
0.1308030883277081
 40
0.1348031902286978
 40
0.1388034073977826
 40
0.1428037284502875
 40
0.1468041425192978
 40
0.1508046392525886
 40
0.1548052088073729
 40
0.1588058418429843
 40
0.1628065295119068
 40
0.166807263449224
 40
0.1708080357610196
 40
0.1748088390115178
 40
0.1788096662096794
 40
0.1828105107949032
 40
0.1868113666223924
 40
0.1908122279481301
 40
0.1948130879776816
 40
0.198813941573819
 40
0.2028147842182889
 40
0.206815611727332
 40
0.2108164202366116
 40
0.2148172061863927
 40
0.2188179663070106
 40
0.2228186976047204
 40
0.2268193973477966
 40
0.2308200630531896
 40
0.2348206924734652
 40
0.2388212835842648
 40
0.2428218345721113
 40
0.2468223438228387
 40
0.250822809910298
 40
0.2548232315856667
 40
0.258823607767096
 40
0.2628239375299281
 40
0.2668242200972603
 40
0.2708244548310113
 40
0.2748246412234006
 40
0.2788247788888335
 40
0.28282486755622
 40
0.2868249070616345
 40
0.2908248973414486
 40
0.2948248384257162
 40
0.2988247304320314
 40
0.3028245735596577
 40
0.3068243680839501
 40
0.3108241143512163
 40
0.3148238127737572
 40
0.3188234638252311
 40
0.322823068036328
 40
0.3268226259906515
 40
0.330822138320905
 40
0.3348216057052386
 40
0.3388210288639129
 40
0.3428204085560969
 40
0.3468197455769035
 40
0.3508190407546387
 40
0.3548182949481448
 40
0.3588175090444868
 40
0.3628166839565549
 40
0.3668158206210701
 40
0.3708149199965517
 40
0.3748139830615476
 40
0.3788130108128751
 40
0.3828120042640943
 40
0.3868109644440231
 40
0.390809892395406
 40
0.3948087891736188
 40
0.3988076558455483
 40
0.4028064934885316
 40
0.4068053031893299
 40
0.4108040860432421
 40
0.4148028431532814
 40
0.4188015756294193
 40
0.4228002845878512
 40
0.4267989711503767
 40
0.430797636443824
 40
0.4347962815994961
 40
0.4387949077527131
 40
0.4427935160423329
 40
0.4467921076104239
 40
0.4507906836017859
 40
0.4547892451637927
 40
0.4587877934459225
 40
0.4627863295996374
 40
0.4667848547780664
 40
0.4707833701358402
 40
0.4747818768288427
 40
0.478780376014122
 40
0.4827788688496784
 40
0.4867773564943238
 40
0.490775840107604
 40
0.4947743208496468
 40
0.4987727998810606
 40
0.5027712783628493
 40
0.5067697573823544
 40
0.5107682377878666
 40
0.5147667207410347
 40
0.5187652074034953
 40
0.5227636989368509
 40
0.5267621965025424
 40
0.530760701261747
 40
0.5347592143752478
 40
0.5387577370032908
 40
0.5427562703054812
 40
0.5467548154406036
 40
0.550753373566421
 40
0.5547519458395153
 40
0.5587505334150478
 40
0.5627491374464973
 40
0.5667477590854108
 40
0.5707463994810958
 40
0.5747450597802591
 40
0.5787437411266604
 40
0.5827424446606879
 40
0.5867411715188627
 40
0.5907399228333927
 40
0.5947386997316069
 40
0.5987375033352932
 40
0.6027363347600873
 40
0.6067351951147402
 40
0.61073408550031
 40
0.6147330070092913
 40
0.6187319607246752
 40
0.6227309477189541
 40
0.6267299690529811
 40
0.6307290257748036
 40
0.6347281189183037
 40
0.6387272495018933
 40
0.6427264185269012
 40
0.646725626976014
 40
0.6507248758114867
 40
0.6547241659732503
 40
0.6587234983769191
 40
0.6627228739115644
 40
0.6667222934374282
 40
0.670721757783368
 40
0.6747212677442332
 40
0.6787208240779418
 40
0.6827204275024743
 40
0.6867200786925414
 40
0.6907197782761693
 40
0.6947195268309185
 40
0.6987193248799073
 40
0.7027191728876687
 40
0.7067190712555838
 40
0.7107190203171972
 40
0.7147190203330334
 40
0.7187190714853718
 40
0.7227191738724174
 40
0.7267193275024044
 40
0.730719532287098
 40
0.7347197880351379
 40
0.7387200944448874
 40
0.7427204510969168
 40
0.7467208574461331
 40
0.7507213128134168
 40
0.7547218163768644
 40
0.7587223671626201
 40
0.762722964035246
 40
0.766723605687578
 40
0.7707242906302475
 40
0.7747250171805862
 40
0.7787257834512084
 40
0.7827265873380087
 40
0.7867274265077937
 40
0.7907282983854049
 40
0.7947292001404345
 40
0.7987301286734996
 40
0.8027310806021705
 40
0.8067320522464687
 40
0.8107330396140785
 40
0.8147340383853012
 40
0.818735043897737
 40
0.8227360501770046
 40
0.8267370509023168
 40
0.8307380401575091
 40
0.8347390116167266
 40
0.838739958529239
 40
0.842740873704729
 40
0.846741749499136
 40
0.8507425778010999
 40
0.8547433500194084
 40
0.8587440570714666
 40
0.8627446893731116
 40
0.8667452368299109
 40
0.8707456888304248
 40
0.874746034241407
 40
0.8787462614054631
 40
0.8827463581414907
 40
0.886746311748106
 40
0.8907461090104721
 40
0.894745736210982
 40
0.8987451791440857
 40
0.9027444231356406
 40
0.9067434530672217
 40
0.9107422534058334
 40
0.914740808239249
 40
0.9187391013175767
 40
0.9227371161011217
 40
0.9267348358152104
 40
0.9307322435118562
 40
0.9347293221388828
 40
0.9387260546164305
 40
0.9427224239209776
 40
0.9467184131770058
 40
0.9507140057560781
 40
0.9547091853832846
 40
0.9587039362505948
 40
0.9626982431367828
 40
0.9666920915333642
 40
0.9706854677756056
 40
0.9746783591781053
 40
0.9786707541734531
 40
0.9826626424531452
 40
0.9866540151091361
 40
0.9906448647747156
 40
0.9946351857628659
 40
0.9986249742005701
 40
1.0
 40
1.0
 40
1.0
 40
1.0
 10
397.279418747729
 20
112.8439045170008
 30
0.0
 10
397.302352575559
 20
112.873035037571
 30
0.0
 10
397.3563226535553
 20
112.9415877658333
 30
0.0
 10
397.4394459901881
 20
113.0519689200532
 30
0.0
 10
397.5290787168392
 20
113.1746543659364
 30
0.0
 10
397.617032560642
 20
113.2994464080817
 30
0.0
 10
397.7033663805224
 20
113.4262418857957
 30
0.0
 10
397.7880512002947
 20
113.5550500257929
 30
0.0
 10
397.871081819063
 20
113.6858495889635
 30
0.0
 10
397.9524469057389
 20
113.8186271586967
 30
0.0
 10
398.0321370198502
 20
113.9533668833719
 30
0.0
 10
398.1101424677103
 20
114.0900532296732
 30
0.0
 10
398.1864538823705
 20
114.2286702493886
 30
0.0
 10
398.2610620732135
 20
114.3692017809385
 30
0.0
 10
398.3339580708836
 20
114.5116314006856
 30
0.0
 10
398.4051331194567
 20
114.655942441535
 30
0.0
 10
398.4745786823344
 20
114.8021179936814
 30
0.0
 10
398.5422864440466
 20
114.9501409102702
 30
0.0
 10
398.6082483127432
 20
115.0999938118265
 30
0.0
 10
398.6724564221048
 20
115.2516590910531
 30
0.0
 10
398.7349031330291
 20
115.4051189175327
 30
0.0
 10
398.7955810350144
 20
115.5603552424211
 30
0.0
 10
398.8544829472821
 20
115.7173498030802
 30
0.0
 10
398.9116019196507
 20
115.8760841276366
 30
0.0
 10
398.9669312331808
 20
116.0365395394488
 30
0.0
 10
399.0204644006114
 20
116.198697161469
 30
0.0
 10
399.0721951666066
 20
116.3625379204888
 30
0.0
 10
399.1221175078329
 20
116.528042551263
 30
0.0
 10
399.1702256328866
 20
116.6951916005023
 30
0.0
 10
399.2165139820881
 20
116.8639654307371
 30
0.0
 10
399.2609772271638
 20
117.0343442240479
 30
0.0
 10
399.3036102708298
 20
117.2063079856641
 30
0.0
 10
399.3444082462937
 20
117.3798365474347
 30
0.0
 10
399.3833665166898
 20
117.5549095711737
 30
0.0
 10
399.420480674461
 20
117.7315065518853
 30
0.0
 10
399.455746540697
 20
117.9096068208755
 30
0.0
 10
399.4891601644439
 20
118.0891895487553
 30
0.0
 10
399.520717821991
 20
118.2702337483438
 30
0.0
 10
399.5504160161449
 20
118.4527182774778
 30
0.0
 10
399.5782514754995
 20
118.636621841735
 30
0.0
 10
399.6042211537046
 20
118.82192299708
 30
0.0
 10
399.6283222287433
 20
119.0086001524398
 30
0.0
 10
399.650552102218
 20
119.1966315722157
 30
0.0
 10
399.6709083986523
 20
119.3859953787408
 30
0.0
 10
399.689388964808
 20
119.5766695546872
 30
0.0
 10
399.7059918690238
 20
119.768631945434
 30
0.0
 10
399.7207154005721
 20
119.9618602613981
 30
0.0
 10
399.7335580690394
 20
120.1563320803378
 30
0.0
 10
399.7445186037273
 20
120.3520248496318
 30
0.0
 10
399.7535959519909
 20
120.5489158649861
 30
0.0
 10
399.7607892806938
 20
120.7469822931464
 30
0.0
 10
399.7660979759219
 20
120.9462011784836
 30
0.0
 10
399.7695216424401
 20
121.1465494694086
 30
0.0
 10
399.7710601019975
 20
121.3480039995459
 30
0.0
 10
399.7707133927013
 20
121.5505414855196
 30
0.0
 10
399.7684817685653
 20
121.7541385291907
 30
0.0
 10
399.7643656990743
 20
121.9587716199054
 30
0.0
 10
399.7583658687601
 20
122.1644171367548
 30
0.0
 10
399.7504831767885
 20
122.3710513508512
 30
0.0
 10
399.7407187365552
 20
122.5786504276192
 30
0.0
 10
399.7290738752882
 20
122.7871904291063
 30
0.0
 10
399.7155501336567
 20
122.9966473163105
 30
0.0
 10
399.7001492653812
 20
123.2069969515307
 30
0.0
 10
399.6828732368479
 20
123.4182151007358
 30
0.0
 10
399.6637242267205
 20
123.6302774359584
 30
0.0
 10
399.6427046255526
 20
123.8431595377073
 30
0.0
 10
399.6198170353946
 20
124.0568368974053
 30
0.0
 10
399.5950642693979
 20
124.2712849198478
 30
0.0
 10
399.5684493514109
 20
124.4864789256857
 30
0.0
 10
399.5399755155685
 20
124.7023941539302
 30
0.0
 10
399.5096462058721
 20
124.9190057644799
 30
0.0
 10
399.4774650757593
 20
125.1362888406719
 30
0.0
 10
399.4434359876627
 20
125.3542183918522
 30
0.0
 10
399.4075630125545
 20
125.572769355971
 30
0.0
 10
399.3698504294802
 20
125.7919166021959
 30
0.0
 10
399.3303027250743
 20
126.0116349335489
 30
0.0
 10
399.2889245930636
 20
126.231899089562
 30
0.0
 10
399.2457209337523
 20
126.4526837489521
 30
0.0
 10
399.2006968534902
 20
126.673963532316
 30
0.0
 10
399.1538576641239
 20
126.8957130048433
 30
0.0
 10
399.1052088824277
 20
127.1179066790473
 30
0.0
 10
399.054756229518
 20
127.3405190175123
 30
0.0
 10
399.0025056302449
 20
127.5635244356578
 30
0.0
 10
398.9484632125664
 20
127.7868973045192
 30
0.0
 10
398.8926353068996
 20
128.0106119535418
 30
0.0
 10
398.835028445453
 20
128.2346426733907
 30
0.0
 10
398.7756493615348
 20
128.4589637187732
 30
0.0
 10
398.714504988842
 20
128.6835493112746
 30
0.0
 10
398.6516024607253
 20
128.9083736422066
 30
0.0
 10
398.5869491094334
 20
129.1334108754654
 30
0.0
 10
398.5205524653325
 20
129.3586351504038
 30
0.0
 10
398.4524202561058
 20
129.5840205847098
 30
0.0
 10
398.3825604059273
 20
129.8095412772973
 30
0.0
 10
398.3109810346144
 20
130.0351713112035
 30
0.0
 10
398.2376904567566
 20
130.2608847564968
 30
0.0
 10
398.1626971808207
 20
130.486655673189
 30
0.0
 10
398.0860099082327
 20
130.7124581141576
 30
0.0
 10
398.0076375324373
 20
130.9382661280705
 30
0.0
 10
397.9275891379322
 20
131.16405376232
 30
0.0
 10
397.8458739992799
 20
131.3897950659583
 30
0.0
 10
397.7625015800968
 20
131.6154640926394
 30
0.0
 10
397.6774815320172
 20
131.8410349035635
 30
0.0
 10
397.5908236936355
 20
132.0664815704246
 30
0.0
 10
397.5025380894237
 20
132.2917781783608
 30
0.0
 10
397.4126349286273
 20
132.5168988289054
 30
0.0
 10
397.3211246041363
 20
132.7418176429412
 30
0.0
 10
397.2280176913341
 20
132.9665087636532
 30
0.0
 10
397.1333249469234
 20
133.1909463594832
 30
0.0
 10
397.0370573077291
 20
133.4151046270823
 30
0.0
 10
396.9392258894783
 20
133.6389577942638
 30
0.0
 10
396.8398419855578
 20
133.8624801229542
 30
0.0
 10
396.7389170657492
 20
134.0856459121412
 30
0.0
 10
396.6364627749418
 20
134.3084295008212
 30
0.0
 10
396.5324909318232
 20
134.5308052709402
 30
0.0
 10
396.4270135275475
 20
134.7527476503362
 30
0.0
 10
396.3200427243826
 20
134.9742311156712
 30
0.0
 10
396.2115908543347
 20
135.1952301953652
 30
0.0
 10
396.1016704177526
 20
135.415719472519
 30
0.0
 10
395.9902940819091
 20
135.6356735878365
 30
0.0
 10
395.8774746795634
 20
135.855067242537
 30
0.0
 10
395.7632252075002
 20
136.0738752012637
 30
0.0
 10
395.6475588250506
 20
136.2920722949833
 30
0.0
 10
395.5304888525902
 20
136.5096334238796
 30
0.0
 10
395.4120287700188
 20
136.726533560238
 30
0.0
 10
395.2921922152185
 20
136.9427477513221
 30
0.0
 10
395.1709929824934
 20
137.1582511222421
 30
0.0
 10
395.0484450209885
 20
137.3730188788124
 30
0.0
 10
394.9245624338539
 20
137.5870263090815
 30
0.0
 10
394.7993594791671
 20
137.8002487819441
 30
0.0
 10
394.6728505651785
 20
138.0126617556344
 30
0.0
 10
394.5450502478484
 20
138.2242407818492
 30
0.0
 10
394.4159732265113
 20
138.4349615127099
 30
0.0
 10
394.2856343454516
 20
138.6447996979879
 30
0.0
 10
394.154048592192
 20
138.8537311878866
 30
0.0
 10
394.0212310957655
 20
139.0617319358088
 30
0.0
 10
393.8871971249685
 20
139.2687780011115
 30
0.0
 10
393.7519620865984
 20
139.474845551848
 30
0.0
 10
393.6155415236735
 20
139.6799108674944
 30
0.0
 10
393.4779511136357
 20
139.8839503416632
 30
0.0
 10
393.3392066665396
 20
140.086940484801
 30
0.0
 10
393.1993241232224
 20
140.2888579268706
 30
0.0
 10
393.0583195534617
 20
140.4896794200192
 30
0.0
 10
392.9162091541144
 20
140.689381841228
 30
0.0
 10
392.773009247244
 20
140.8879421949476
 30
0.0
 10
392.6287362782314
 20
141.0853376157149
 30
0.0
 10
392.4834068138713
 20
141.2815453707539
 30
0.0
 10
392.3370375404563
 20
141.4765428625575
 30
0.0
 10
392.1896452618461
 20
141.6703076314519
 30
0.0
 10
392.0412468975238
 20
141.8628173581427
 30
0.0
 10
391.8918594806401
 20
142.0540498662415
 30
0.0
 10
391.7415001560431
 20
142.243983124774
 30
0.0
 10
391.5901861782998
 20
142.4325952506674
 30
0.0
 10
391.4379349097019
 20
142.6198645112185
 30
0.0
 10
391.2847638182627
 20
142.8057693265412
 30
0.0
 10
391.1306904757029
 20
142.9902882719933
 30
0.0
 10
390.9757325554267
 20
143.1734000805816
 30
0.0
 10
390.8199078304864
 20
143.3550836453456
 30
0.0
 10
390.6632341715389
 20
143.5353180217204
 30
0.0
 10
390.5057295447933
 20
143.7140824298758
 30
0.0
 10
390.3474120099499
 20
143.8913562570332
 30
0.0
 10
390.1882997181307
 20
144.0671190597608
 30
0.0
 10
390.0284109098042
 20
144.2413505662434
 30
0.0
 10
389.8677639127015
 20
144.414030678531
 30
0.0
 10
389.7063771397276
 20
144.5851394747613
 30
0.0
 10
389.5442690868667
 20
144.7546572113595
 30
0.0
 10
389.3814583310821
 20
144.9225643252134
 30
0.0
 10
389.2179635282124
 20
145.088841435823
 30
0.0
 10
389.0538034108632
 20
145.2534693474265
 30
0.0
 10
388.8889967862968
 20
145.4164290510997
 30
0.0
 10
388.7235625343181
 20
145.5777017268308
 30
0.0
 10
388.5575196051607
 20
145.7372687455694
 30
0.0
 10
388.3908870173696
 20
145.8951116712498
 30
0.0
 10
388.2236838556869
 20
146.0512122627881
 30
0.0
 10
388.0559292689347
 20
146.2055524760542
 30
0.0
 10
387.8876424679021
 20
146.3581144658163
 30
0.0
 10
387.7188427232333
 20
146.5088805876602
 30
0.0
 10
387.5495493633188
 20
146.6578333998822
 30
0.0
 10
387.379781772191
 20
146.8049556653558
 30
0.0
 10
387.2095593874233
 20
146.9502303533731
 30
0.0
 10
387.0389016980376
 20
147.0936406414587
 30
0.0
 10
386.8678282424154
 20
147.2351699171597
 30
0.0
 10
386.6963586062192
 20
147.374801779808
 30
0.0
 10
386.5245124203204
 20
147.5125200422603
 30
0.0
 10
386.3523093587382
 20
147.64830873261
 30
0.0
 10
386.1797691365882
 20
147.7821520958775
 30
0.0
 10
386.0069115080437
 20
147.9140345956741
 30
0.0
 10
385.8337562643078
 20
148.0439409158444
 30
0.0
 10
385.6603232316006
 20
148.1718559620852
 30
0.0
 10
385.4866322691601
 20
148.2977648635425
 30
0.0
 10
385.3127032672589
 20
148.4216529743872
 30
0.0
 10
385.1385561452377
 20
148.5435058753712
 30
0.0
 10
384.9642108495552
 20
148.6633093753639
 30
0.0
 10
384.7896873518573
 20
148.7810495128714
 30
0.0
 10
384.6150056470646
 20
148.8967125575384
 30
0.0
 10
384.4401857514806
 20
149.0102850116355
 30
0.0
 10
384.2652477009194
 20
149.1217536115327
 30
0.0
 10
384.0902115488561
 20
149.2311053291608
 30
0.0
 10
383.9150973645976
 20
149.338327373463
 30
0.0
 10
383.7399252314757
 20
149.4434071918382
 30
0.0
 10
383.5647152450636
 20
149.5463324715782
 30
0.0
 10
383.3894875114136
 20
149.6470911413016
 30
0.0
 10
383.2142621453178
 20
149.7456713723856
 30
0.0
 10
383.039059268591
 20
149.8420615803998
 30
0.0
 10
382.8638990083743
 20
149.9362504265434
 30
0.0
 10
382.6888014954612
 20
150.0282268190889
 30
0.0
 10
382.5137868626414
 20
150.1179799148359
 30
0.0
 10
382.3388752569631
 20
150.2054991136228
 30
0.0
 10
382.1640868376628
 20
150.2907740609826
 30
0.0
 10
381.989441762925
 20
150.3737946561034
 30
0.0
 10
381.814960174468
 20
150.4545510596206
 30
0.0
 10
381.6406621964667
 20
150.5330336941246
 30
0.0
 10
381.4665679455946
 20
150.6092332400804
 30
0.0
 10
381.2926975294312
 20
150.6831406374555
 30
0.0
 10
381.1190710448619
 20
150.7547470873828
 30
0.0
 10
380.9457085764676
 20
150.8240440538631
 30
0.0
 10
380.7726301948979
 20
150.8910232655061
 30
0.0
 10
380.5998559552179
 20
150.9556767173167
 30
0.0
 10
380.4274058952273
 20
151.0179966725244
 30
0.0
 10
380.2553000337372
 20
151.0779756644593
 30
0.0
 10
380.0835583688018
 20
151.1356064984752
 30
0.0
 10
379.9122008758912
 20
151.1908822539195
 30
0.0
 10
379.7412475059992
 20
151.2437962861493
 30
0.0
 10
379.5707181836726
 20
151.2943422285923
 30
0.0
 10
379.4006328049529
 20
151.34251399485
 30
0.0
 10
379.231011235219
 20
151.3883057808384
 30
0.0
 10
379.0618733069186
 20
151.4317120669637
 30
0.0
 10
378.8932388171744
 20
151.4727276203226
 30
0.0
 10
378.7251275252588
 20
151.5113474969242
 30
0.0
 10
378.5575591499179
 20
151.5475670439198
 30
0.0
 10
378.3905533665393
 20
151.5813819018312
 30
0.0
 10
378.2241298041476
 20
151.6127880067656
 30
0.0
 10
378.0583080422219
 20
151.6417815925999
 30
0.0
 10
377.8931076073209
 20
151.668359193119
 30
0.0
 10
377.728547969512
 20
151.6925176440907
 30
0.0
 10
377.5646485385952
 20
151.7142540852532
 30
0.0
 10
377.4014286601184
 20
151.733565962198
 30
0.0
 10
377.2389076111828
 20
151.7504510281164
 30
0.0
 10
377.077104596032
 20
151.764907345406
 30
0.0
 10
376.9160387414594
 20
151.776933287034
 30
0.0
 10
376.7557290919249
 20
151.786527537911
 30
0.0
 10
376.5961946048171
 20
151.7936890952049
 30
0.0
 10
376.4374541443007
 20
151.7984172714483
 30
0.0
 10
376.2795264796357
 20
151.8007116859328
 30
0.0
 10
376.1224302661016
 20
151.800572298391
 30
0.0
 10
375.9661840902427
 20
151.7979992833342
 30
0.0
 10
375.810806274638
 20
151.7929934973058
 30
0.0
 10
375.65631557969
 20
151.7855547319714
 30
0.0
 10
375.5027285581882
 20
151.7756882271803
 30
0.0
 10
375.350069399601
 20
151.7633803613174
 30
0.0
 10
375.1983331713832
 20
151.7486893493253
 30
0.0
 10
375.0476229513869
 20
151.7314068084881
 30
0.0
 10
374.9303963002649
 20
151.7164891771996
 30
0.0
 10
374.8637470478349
 20
151.7065076055917
 30
0.0
 10
374.8466645473878
 20
151.7039492843018
 30
0.0
  0
SPLINE
  5
149
330
1F
100
AcDbEntity
  8
0
  6
Continuous
 62
     7
370
    30
100
AcDbSpline
210
0.0
220
0.0
230
1.0
 70
     8
 71
     3
 72
    64
 73
    60
 74
     0
 42
0.000000001
 43
0.00000001
 40
0.0
 40
0.0
 40
0.0
 40
0.0
 40
0.0012829424360917
 40
0.0189287893759478
 40
0.036574409064508
 40
0.0542211758920809
 40
0.0718706894440835
 40
0.0895245407181003
 40
0.1071843077098882
 40
0.1248515510291143
 40
0.1425278095569379
 40
0.1602145961559449
 40
0.1779133934418501
 40
0.1956256496295366
 40
0.2133527744640163
 40
0.2310961352500162
 40
0.2488570529937061
 40
0.2666367986713221
 40
0.2844365896398964
 40
0.3022575862068021
 40
0.3201008883748664
 40
0.3379675327811483
 40
0.3558584898466157
 40
0.3737746611559185
 40
0.3917168770851022
 40
0.4096858946947469
 40
0.4276823959069765
 40
0.4457069859817755
 40
0.4637601923083947
 40
0.481842463525453
 40
0.4999541689813665
 40
0.5180955985445835
 40
0.5362669627710536
 40
0.5544683934323313
 40
0.5726999444059514
 40
0.5909615929256045
 40
0.6092532411855754
 40
0.6275747182900847
 40
0.6459257825352643
 40
0.6643061240070338
 40
0.682715367476017
 40
0.7011530755664546
 40
0.7196187521737794
 40
0.7381118461030659
 40
0.7566317548974897
 40
0.7751778288258675
 40
0.7937493749955159
 40
0.8123456615565973
 40
0.8309659219642321
 40
0.8496093592639443
 40
0.8682751503680558
 40
0.8869624502902692
 40
0.9056703963091891
 40
0.9243981120312009
 40
0.9431447113283007
 40
0.9619093021260109
 40
0.9806909900220069
 40
0.9994888817170996
 40
1.0
 40
1.0
 40
1.0
 40
1.0
 10
404.1896797505452
 20
173.9143391137089
 30
0.0
 10
404.1861878928137
 20
173.9123574497149
 30
0.0
 10
404.1346683252406
 20
173.8831195826828
 30
0.0
 10
404.0363587294033
 20
173.8244756907395
 30
0.0
 10
403.8948794105415
 20
173.7382477097073
 30
0.0
 10
403.7549114576942
 20
173.6494921885906
 30
0.0
 10
403.6162832885003
 20
173.5585353499414
 30
0.0
 10
403.4790546528319
 20
173.4652985246007
 30
0.0
 10
403.3432232351237
 20
173.3698113213294
 30
0.0
 10
403.2088034700344
 20
173.2720742150195
 30
0.0
 10
403.0758054353813
 20
173.1720953995764
 30
0.0
 10
402.9442405274293
 20
173.0698809320595
 30
0.0
 10
402.814119954655
 20
172.9654374008002
 30
0.0
 10
402.6854551552761
 20
172.8587712377291
 30
0.0
 10
402.5582576971063
 20
172.749888932573
 30
0.0
 10
402.4325393143506
 20
172.6387970070712
 30
0.0
 10
402.3083119056935
 20
172.5255020553121
 30
0.0
 10
402.185587540709
 20
172.4100107679312
 30
0.0
 10
402.0643784618995
 20
172.292329962062
 30
0.0
 10
401.9446970856875
 20
172.1724666109719
 30
0.0
 10
401.8265560013994
 20
172.0504278747931
 30
0.0
 10
401.7099679684341
 20
171.9262211317349
 30
0.0
 10
401.5949459115108
 20
171.7998540096807
 30
0.0
 10
401.4815029139818
 20
171.6713344179208
 30
0.0
 10
401.3696522091875
 20
171.5406705787919
 30
0.0
 10
401.2594071698498
 20
171.4078710589728
 30
0.0
 10
401.1507812955136
 20
171.2729448001826
 30
0.0
 10
401.0437881980637
 20
171.1359011490138
 30
0.0
 10
400.9384415853652
 20
170.9967498856369
 30
0.0
 10
400.8347552430913
 20
170.8555012511058
 30
0.0
 10
400.7327430148262
 20
170.7121659730027
 30
0.0
 10
400.6324187805498
 20
170.5667552891645
 30
0.0
 10
400.5337964336324
 20
170.4192809692487
 30
0.0
 10
400.4368898564877
 20
170.2697553339093
 30
0.0
 10
400.3417128950518
 20
170.1181912713767
 30
0.0
 10
400.2482793322743
 20
169.9646022512583
 30
0.0
 10
400.1566028608212
 20
169.8090023354047
 30
0.0
 10
400.0666970552075
 20
169.651406185718
 30
0.0
 10
399.9785753435822
 20
169.4918290688139
 30
0.0
 10
399.8922509794021
 20
169.3302868574835
 30
0.0
 10
399.8077370132303
 20
169.1667960289409
 30
0.0
 10
399.7250462648979
 20
169.0013736598796
 30
0.0
 10
399.6441912962694
 20
168.834037418396
 30
0.0
 10
399.5651843848159
 20
168.6648055528989
 30
0.0
 10
399.4880374983168
 20
168.4936968780668
 30
0.0
 10
399.4127622705027
 20
168.3207307582959
 30
0.0
 10
399.3393699792971
 20
168.1459270878193
 30
0.0
 10
399.2678715223309
 20
167.969306271529
 30
0.0
 10
399.1982774104187
 20
167.7908891925292
 30
0.0
 10
399.1305977023059
 20
167.6106972198575
 30
0.0
 10
399.064842167991
 20
167.4287520578538
 30
0.0
 10
399.0010196068845
 20
167.2450761807436
 30
0.0
 10
398.9391403353372
 20
167.059691073946
 30
0.0
 10
398.8792068362683
 20
166.8726236702771
 30
0.0
 10
398.8212486683337
 20
166.6838821512899
 30
0.0
 10
398.7651919567789
 20
166.4935462507536
 30
0.0
 10
398.7113471307746
 20
166.3014296161706
 30
0.0
 10
398.6757095785511
 20
166.1710075631152
 30
0.0
 10
398.658587607075
 20
166.1042396595925
 30
0.0
 10
398.6581343806968
 20
166.1024722827958
 30
0.0
  0
SPLINE
  5
14A
330
1F
100
AcDbEntity
  8
0
  6
Continuous
 62
     7
370
    30
100
AcDbSpline
210
0.0
220
0.0
230
1.0
 70
     8
 71
     3
 72
    63
 73
    59
 74
     0
 42
0.000000001
 43
0.00000001
 40
0.0
 40
0.0
 40
0.0
 40
0.0
 40
0.0041396210032631
 40
0.0229811532563312
 40
0.0418081515076637
 40
0.0606197175173961
 40
0.0794149453946222
 40
0.0981929246837164
 40
0.1169527436725129
 40
0.1356934929105544
 40
0.1544142689222103
 40
0.173114178096732
 40
0.1917923407337711
 40
0.2104478952199687
 40
0.2290800023100065
 40
0.2476878494819278
 40
0.2662706553358496
 40
0.2848276740018043
 40
0.3033581995224747
 40
0.3218615701750135
 40
0.3403371726958783
 40
0.3587844463734515
 40
0.3772028869728448
 40
0.395592050459909
 40
0.4139515564924366
 40
0.4322810916488747
 40
0.4505804123679307
 40
0.4688493475756889
 40
0.4870878009793023
 40
0.5052957530110379
 40
0.5234732624096108
 40
0.5416204674295052
 40
0.559737586673108
 40
0.5778249195437316
 40
0.5958828463216671
 40
0.6139118278683159
 40
0.6319124049665666
 40
0.6498851973084471
 40
0.6678309021434173
 40
0.6857502926027087
 40
0.703644215716592
 40
0.7215135901431139
 40
0.7393594036272036
 40
0.7571827102106603
 40
0.7749846272118349
 40
0.792766331996478
 40
0.810529058558529
 40
0.8282740939301914
 40
0.8460027744402561
 40
0.8637164818379269
 40
0.8814166392988605
 40
0.8991047073298936
 40
0.9167821795859207
 40
0.9344505786141739
 40
0.9521114515371198
 40
0.9697663656868637
 40
0.9874169042015912
 40
1.0
 40
1.0
 40
1.0
 40
1.0
 10
421.6564709455
 20
126.2643433695492
 30
0.0
 10
421.6706999511123
 20
126.2603865572088
 30
0.0
 10
421.7496924382032
 20
126.2384202683315
 30
0.0
 10
421.8931949689311
 20
126.2008856832588
 30
0.0
 10
422.0868967776432
 20
126.151877877406
 30
0.0
 10
422.2801820553285
 20
126.105603857672
 30
0.0
 10
422.4730483638751
 20
126.0618057247277
 30
0.0
 10
422.6654654037483
 20
126.0205603953143
 30
0.0
 10
422.8574102294521
 20
125.9818544947884
 30
0.0
 10
423.0488578583997
 20
125.9456980981754
 30
0.0
 10
423.239783818557
 20
125.9120942766927
 30
0.0
 10
423.4301635032975
 20
125.8810472300745
 30
0.0
 10
423.6199723820906
 20
125.8525600971293
 30
0.0
 10
423.8091859835146
 20
125.826635530331
 30
0.0
 10
423.997779940171
 20
125.8032755337116
 30
0.0
 10
424.1857300177107
 20
125.7824815007484
 30
0.0
 10
424.3730121484278
 20
125.7642542018434
 30
0.0
 10
424.5596024635869
 20
125.7485937885004
 30
0.0
 10
424.7454773256653
 20
125.735499796346
 30
0.0
 10
424.9306133598115
 20
125.7249711518275
 30
0.0
 10
425.114987484326
 20
125.7170061813157
 30
0.0
 10
425.2985769398381
 20
125.711602622931
 30
0.0
 10
425.4813593169077
 20
125.7087576409481
 30
0.0
 10
425.6633125817809
 20
125.708467842717
 30
0.0
 10
425.8444151000555
 20
125.7107292979783
 30
0.0
 10
426.024645658038
 20
125.7155375604296
 30
0.0
 10
426.2039834815989
 20
125.7228876913726
 30
0.0
 10
426.3824082523691
 20
125.7327742852469
 30
0.0
 10
426.5599001211522
 20
125.7451914968365
 30
0.0
 10
426.7364397184607
 20
125.7601330699195
 30
0.0
 10
426.9120081621259
 20
125.7775923671173
 30
0.0
 10
427.0865870619599
 20
125.7975624006935
 30
0.0
 10
427.2601585214892
 20
125.8200358640447
 30
0.0
 10
427.4327051368081
 20
125.8450051636279
 30
0.0
 10
427.6042099926352
 20
125.8724624510694
 30
0.0
 10
427.7746566556809
 20
125.9023996552079
 30
0.0
 10
427.9440291654612
 20
125.9348085138338
 30
0.0
 10
428.1123120227152
 20
125.9696806048962
 30
0.0
 10
428.2794901755976
 20
126.0070073769674
 30
0.0
 10
428.4455490038384
 20
126.0467801787652
 30
0.0
 10
428.6104743010658
 20
126.0889902875554
 30
0.0
 10
428.7742522554976
 20
126.1336289362714
 30
0.0
 10
428.9368694292147
 20
126.1806873392006
 30
0.0
 10
429.0983127362026
 20
126.2301567161448
 30
0.0
 10
429.2585694194499
 20
126.282028314809
 30
0.0
 10
429.4176270269975
 20
126.3362934318467
 30
0.0
 10
429.5754733882565
 20
126.3929434305419
 30
0.0
 10
429.7320965865988
 20
126.45196976231
 30
0.0
 10
429.8874849439491
 20
126.513363964975
 30
0.0
 10
430.0416269595695
 20
126.5771177383879
 30
0.0
 10
430.1945114192438
 20
126.6432227223923
 30
0.0
 10
430.3461268695981
 20
126.7116713748858
 30
0.0
 10
430.4964634603331
 20
126.7824537388763
 30
0.0
 10
430.6455059587254
 20
126.8555695287238
 30
0.0
 10
430.7932596865887
 20
126.930983078422
 30
0.0
 10
430.9396536692169
 20
127.0087913871346
 30
0.0
 10
431.0710096831081
 20
127.0809643025925
 30
0.0
 10
431.1529747033589
 20
127.128220506574
 30
0.0
 10
431.1870881576413
 20
127.1478883154656
 30
0.0
  0
LINE
  5
14B
330
1F
100
AcDbEntity
  8
0
  6
Continuous
 62
     7
370
    30
100
AcDbLine
 10
431.1872207857
 20
127.1476510949
 30
0.0
 11
432.5705171518
 21
127.9462110892
 31
0.0
  0
LINE
  5
14C
330
1F
100
AcDbEntity
  8
0
  6
Continuous
 62
     7
370
    30
100
AcDbLine
 10
405.5727113706
 20
174.7128496577
 30
0.0
 11
404.1894150045
 21
173.9142896634
 31
0.0
  0
SPLINE
  5
14D
330
1F
100
AcDbEntity
  8
0
  6
Continuous
 62
     7
370
    30
100
AcDbSpline
210
0.0
220
0.0
230
1.0
 70
    11
 71
     3
 72
   214
 73
   210
 74
     0
 42
0.000000001
 43
0.00000001
 40
0.0
 40
0.0
 40
0.0
 40
0.0
 40
0.00262198370706
 40
0.0075535992798594
 40
0.0124879684225716
 40
0.0174255568113141
 40
0.0223666127209207
 40
0.0273113658274551
 40
0.0322600218918919
 40
0.0372127562851373
 40
0.0421697061457835
 40
0.0471309609658657
 40
0.0520965513963643
 40
0.0570664360748912
 40
0.0620404863105893
 40
0.0670184685259824
 40
0.0720000244648954
 40
0.0769846493442922
 40
0.0819716683714415
 40
0.0869602123800268
 40
0.0919489370876374
 40
0.0969362725526374
 40
0.1019205451233966
 40
0.1068998119377602
 40
0.1118718652028582
 40
0.1168342517980841
 40
0.1217843111912458
 40
0.1267192337771722
 40
0.1316361400501367
 40
0.1365321787306626
 40
0.1414046393662569
 40
0.146251072470102
 40
0.15106940848929
 40
0.1558580662702779
 40
0.1606160424463308
 40
0.1653429752097294
 40
0.1700391788338098
 40
0.1747056484710986
 40
0.1793440375668686
 40
0.1839566122488973
 40
0.1885461880900242
 40
0.1931160547388824
 40
0.1976698932919504
 40
0.2022116902260821
 40
0.2067456505049597
 40
0.2112761113392436
 40
0.2158063302319092
 40
0.2203403517403139
 40
0.2248824550975881
 40
0.229436740823468
 40
0.2340070498768622
 40
0.2385968844828306
 40
0.2432093321335079
 40
0.2478469950920934
 40
0.2525119286495591
 40
0.2572055921124808
 40
0.2619288168319813
 40
0.2666817953225888
 40
0.2714640945348922
 40
0.2762746946324614
 40
0.2811120523485588
 40
0.2859741855011391
 40
0.29085877297744
 40
0.2957632629134906
 40
0.3006849812076972
 40
0.3056212330127843
 40
0.3105693912872231
 40
0.3155269685087714
 40
0.3204916698367966
 40
0.3254614279796202
 40
0.3304344215262211
 40
0.3354090794379419
 40
0.340383815960658
 40
0.3453574776347206
 40
0.3503292453970904
 40
0.3552984823615541
 40
0.3602647114087368
 40
0.36522759343758
 40
0.3701869070707277
 40
0.3751425302249928
 40
0.380094423728826
 40
0.3850426170084876
 40
0.3899871957594949
 40
0.3949282914568846
 40
0.3998660725250749
 40
0.4048007369764479
 40
0.4097325063296994
 40
0.4146616206293581
 40
0.4195883344026844
 40
0.4245129134069671
 40
0.4294356320372134
 40
0.4343567712803573
 40
0.4392766171168127
 40
0.4441954592830833
 40
0.4491135903200966
 40
0.4540313048409939
 40
0.4589488989592232
 40
0.4638666499098706
 40
0.4687847762716084
 40
0.4737035761724009
 40
0.478623347666001
 40
0.4835443882294616
 40
0.4884669941417291
 40
0.4933914596808097
 40
0.4983180760770997
 40
0.5032471301522501
 40
0.5081789025627934
 40
0.5131136655555515
 40
0.5180516801275625
 40
0.52299319246707
 40
0.5279384295343795
 40
0.5328875936227294
 40
0.5378408557209621
 40
0.5427983474834861
 40
0.5477601516018298
 40
0.552726290369917
 40
0.5576967122482468
 40
0.5626712762682125
 40
0.5676497341873775
 40
0.5726317104226308
 40
0.5776166799654578
 40
0.5826039447377704
 40
0.5875926091907275
 40
0.5925812412505621
 40
0.5975682866222204
 40
0.6025520377409317
 40
0.6075305176319206
 40
0.6125014859629924
 40
0.6174624608107943
 40
0.6224107590779013
 40
0.6273435574924682
 40
0.6322579743402446
 40
0.6371511697289314
 40
0.6420204595741696
 40
0.6468634360975757
 40
0.6516780859780442
 40
0.6564628968421881
 40
0.6612169437120875
 40
0.6659399492046503
 40
0.670632314247518
 40
0.6752951192250142
 40
0.6799300982001513
 40
0.684539590760472
 40
0.6891264769455081
 40
0.693694100706498
 40
0.6982461866556658
 40
0.7027867537744015
 40
0.7073200285422601
 40
0.7118503588363871
 40
0.7163808188057806
 40
0.7209156310335244
 40
0.7254590565876833
 40
0.7300151675318086
 40
0.7345877662116301
 40
0.7391803063885148
 40
0.7437958177892562
 40
0.7484368365220699
 40
0.7531053447155902
 40
0.7578027234276358
 40
0.7625297231370921
 40
0.7672864557844061
 40
0.7720724112460369
 40
0.7768864993304426
 40
0.781727116058174
 40
0.786592230494412
 40
0.7914794861981013
 40
0.7963863098788847
 40
0.8013100194056694
 40
0.8062479239474636
 40
0.8111974105601458
 40
0.8161560135984098
 40
0.8211214655078228
 40
0.8260917294731678
 40
0.8310650158330231
 40
0.8360397850347395
 40
0.8410144374562618
 40
0.8459879003373196
 40
0.8509593789362597
 40
0.855928257862072
 40
0.8608940786740097
 40
0.8658565182847855
 40
0.8708153688851947
 40
0.8757705197679783
 40
0.8807219412090591
 40
0.8856696704117084
 40
0.890613799420185
 40
0.8955544648507398
 40
0.9004918392583425
 40
0.9054261239478243
 40
0.9103575430414641
 40
0.9152863386260743
 40
0.920212766817907
 40
0.9251370946005246
 40
0.9300595973077617
 40
0.9349805566398645
 40
0.9399002591153484
 40
0.9448189948737972
 40
0.9497370567555224
 40
0.9546547395928303
 40
0.9595723396544988
 40
0.9644901217078251
 40
0.9694083169607826
 40
0.974327223556725
 40
0.9792471395058416
 40
0.9841683621708804
 40
0.9890911876259618
 40
0.9940159098264418
 40
0.9986840084624807
 40
1.0
 40
1.0
 40
1.0
 40
1.0
 10
375.5331100766953
 20
147.6586730129081
 30
0.0
 10
375.518112390176
 20
147.6560849896459
 30
0.0
 10
375.4749059759687
 20
147.6486292260585
 30
0.0
 10
375.4040503043153
 20
147.6351083795888
 30
0.0
 10
375.3208553467293
 20
147.6176195990244
 30
0.0
 10
375.2385269006871
 20
147.5985690139736
 30
0.0
 10
375.1571230540787
 20
147.5779933622274
 30
0.0
 10
375.0767177556825
 20
147.555895975941
 30
0.0
 10
374.9973804120708
 20
147.5322900603379
 30
0.0
 10
374.9191810928106
 20
147.507187014659
 30
0.0
 10
374.8421891917522
 20
147.4805995728705
 30
0.0
 10
374.7664738635534
 20
147.4525409877475
 30
0.0
 10
374.6921040041461
 20
147.4230253005694
 30
0.0
 10
374.6191483730644
 20
147.3920673499818
 30
0.0
 10
374.5476756951678
 20
147.3596828881716
 30
0.0
 10
374.4777547813723
 20
147.3258887129946
 30
0.0
 10
374.4094546512485
 20
147.2907028480747
 30
0.0
 10
374.3428446523218
 20
147.2541447692392
 30
0.0
 10
374.2779945638356
 20
147.2162356832395
 30
0.0
 10
374.2149757508105
 20
147.176999532725
 30
0.0
 10
374.1538609479545
 20
147.1364634622362
 30
0.0
 10
374.0947234129878
 20
147.0946579226597
 30
0.0
 10
374.0376357684607
 20
147.0516163895294
 30
0.0
 10
373.9826698813676
 20
147.0073757737341
 30
0.0
 10
373.9298970417956
 20
146.9619772382505
 30
0.0
 10
373.8793873366617
 20
146.9154665002828
 30
0.0
 10
373.8312088685844
 20
146.8678940003725
 30
0.0
 10
373.7854268440398
 20
146.8193148939445
 30
0.0
 10
373.7421025763601
 20
146.7697888293985
 30
0.0
 10
373.7012924703456
 20
146.7193794939992
 30
0.0
 10
373.663047071098
 20
146.6681539328596
 30
0.0
 10
373.6274102655603
 20
146.6161816739034
 30
0.0
 10
373.594418718006
 20
146.5635337178016
 30
0.0
 10
373.5641015999743
 20
146.5102814708957
 30
0.0
 10
373.5364806438742
 20
146.4564957066343
 30
0.0
 10
373.511570513499
 20
146.4022456352188
 30
0.0
 10
373.4893794510004
 20
146.3475981434562
 30
0.0
 10
373.4699101346677
 20
146.2926172415336
 30
0.0
 10
373.4531606687867
 20
146.2373637262625
 30
0.0
 10
373.4391256263499
 20
146.1818950467052
 30
0.0
 10
373.4277970750541
 20
146.1262653417149
 30
0.0
 10
373.4191655327754
 20
146.0705256112287
 30
0.0
 10
373.4132208161948
 20
146.0147239835116
 30
0.0
 10
373.4099527618706
 20
145.9589060466398
 30
0.0
 10
373.4093518104686
 20
145.9031152223375
 30
0.0
 10
373.4114092811424
 20
145.8473977871652
 30
0.0
 10
373.4161167525481
 20
145.7917998813803
 30
0.0
 10
373.4234661096073
 20
145.7363663877699
 30
0.0
 10
373.433450813101
 20
145.6811367016375
 30
0.0
 10
373.446066074571
 20
145.6261485680817
 30
0.0
 10
373.4613085141398
 20
145.5714400057663
 30
0.0
 10
373.4791757572538
 20
145.5170498903215
 30
0.0
 10
373.4996658536687
 20
145.4630185291405
 30
0.0
 10
373.5227765269855
 20
145.4093881941879
 30
0.0
 10
373.5485042772521
 20
145.3562035719831
 30
0.0
 10
373.5768433762695
 20
145.3035120859422
 30
0.0
 10
373.6077848128801
 20
145.2513640480195
 30
0.0
 10
373.6413152603773
 20
145.1998126054089
 30
0.0
 10
373.6774161466338
 20
145.1489134640522
 30
0.0
 10
373.7160629064017
 20
145.0987243924751
 30
0.0
 10
373.7572244827714
 20
145.0493045339863
 30
0.0
 10
373.8008631215865
 20
145.0007135783126
 30
0.0
 10
373.8469344718484
 20
144.9530108608093
 30
0.0
 10
373.8953879720343
 20
144.9062544649854
 30
0.0
 10
373.946167472762
 20
144.860500400671
 30
0.0
 10
373.9992120255
 20
144.8158019167276
 30
0.0
 10
374.0544567579544
 20
144.7722089868584
 30
0.0
 10
374.1118337595152
 20
144.729767984118
 30
0.0
 10
374.1712729123527
 20
144.6885215383775
 30
0.0
 10
374.2327026216894
 20
144.6485085544001
 30
0.0
 10
374.2960504182024
 20
144.6097643579273
 30
0.0
 10
374.3612422929618
 20
144.5723215824086
 30
0.0
 10
374.4282037687288
 20
144.5362098462745
 30
0.0
 10
374.4968606613339
 20
144.5014557511222
 30
0.0
 10
374.5671404793889
 20
144.4680827028542
 30
0.0
 10
374.6389716155477
 20
144.4361117949673
 30
0.0
 10
374.7122827293512
 20
144.4055623877471
 30
0.0
 10
374.7870026828166
 20
144.3764523350031
 30
0.0
 10
374.8630604584866
 20
144.3487981726547
 30
0.0
 10
374.9403850709865
 20
144.3226152707998
 30
0.0
 10
375.0189054799584
 20
144.2979179525564
 30
0.0
 10
375.0985505098199
 20
144.2747195837495
 30
0.0
 10
375.1792487798439
 20
144.2530326377757
 30
0.0
 10
375.2609286465633
 20
144.2328687398947
 30
0.0
 10
375.3435181593889
 20
144.2142386949014
 30
0.0
 10
375.4269450295376
 20
144.1971525017346
 30
0.0
 10
375.5111366118299
 20
144.1816193581224
 30
0.0
 10
375.5960198985628
 20
144.1676476579253
 30
0.0
 10
375.6815215244586
 20
144.1552449834139
 30
0.0
 10
375.7675677815797
 20
144.1444180943378
 30
0.0
 10
375.8540846430606
 20
144.1351729153128
 30
0.0
 10
375.9409977945097
 20
144.1275145227623
 30
0.0
 10
376.028232671966
 20
144.1214471324082
 30
0.0
 10
376.1157145053405
 20
144.1169740881007
 30
0.0
 10
376.2033683663196
 20
144.1140978526046
 30
0.0
 10
376.2911192197556
 20
144.112820000818
 30
0.0
 10
376.3788918591374
 20
144.1131412153421
 30
0.0
 10
376.4666106101425
 20
144.1150612659359
 30
0.0
 10
376.5541998632306
 20
144.1185789835105
 30
0.0
 10
376.6415842555792
 20
144.1236922761507
 30
0.0
 10
376.7286890780754
 20
144.1303981868215
 30
0.0
 10
376.8154398583872
 20
144.1386928954726
 30
0.0
 10
376.901762412303
 20
144.1485717345046
 30
0.0
 10
376.9875828916477
 20
144.1600292070338
 30
0.0
 10
377.0728278277062
 20
144.1730590075853
 30
0.0
 10
377.1574241690999
 20
144.1876540446931
 30
0.0
 10
377.2412993129914
 20
144.203806464725
 30
0.0
 10
377.3243811284206
 20
144.2215076760389
 30
0.0
 10
377.4065979705151
 20
144.2407483723321
 30
0.0
 10
377.4878786842693
 20
144.2615185537394
 30
0.0
 10
377.5681525965629
 20
144.2838075438839
 30
0.0
 10
377.6473494951202
 20
144.3076040006567
 30
0.0
 10
377.7253995932134
 20
144.3328959180155
 30
0.0
 10
377.8022334791222
 20
144.3596706155371
 30
0.0
 10
377.8777820497353
 20
144.3879147118568
 30
0.0
 10
377.951976428253
 20
144.4176140774939
 30
0.0
 10
378.0247478668185
 20
144.4487537619538
 30
0.0
 10
378.096027636122
 20
144.4813178894771
 30
0.0
 10
378.1657469056942
 20
144.515289517501
 30
0.0
 10
378.2338366207696
 20
144.550650451943
 30
0.0
 10
378.3002273843758
 20
144.5873810140652
 30
0.0
 10
378.3648493564739
 20
144.6254597550744
 30
0.0
 10
378.4276308639326
 20
144.6648622876758
 30
0.0
 10
378.4884990968519
 20
144.7055610746378
 30
0.0
 10
378.5473807450203
 20
144.7475252111321
 30
0.0
 10
378.6042033775998
 20
144.7907208843489
 30
0.0
 10
378.6588951716646
 20
144.8351106645273
 30
0.0
 10
378.7113849516402
 20
144.8806528257379
 30
0.0
 10
378.7616028358954
 20
144.927301058067
 30
0.0
 10
378.8094810361875
 20
144.9750043186381
 30
0.0
 10
378.8549547832911
 20
145.0237068654199
 30
0.0
 10
378.8979633304267
 20
145.0733485079755
 30
0.0
 10
378.9384509653171
 20
145.1238650911883
 30
0.0
 10
378.9763679468776
 20
145.175189203277
 30
0.0
 10
379.0116712782087
 20
145.2272510717025
 30
0.0
 10
379.04432523656
 20
145.2799795850592
 30
0.0
 10
379.0743016032504
 20
145.3333033612804
 30
0.0
 10
379.1015795687607
 20
145.3871517766295
 30
0.0
 10
379.1261453243052
 20
145.4414558774337
 30
0.0
 10
379.1479913841009
 20
145.4961491154606
 30
0.0
 10
379.1671157063589
 20
145.551167873684
 30
0.0
 10
379.1835206924562
 20
145.606451776181
 30
0.0
 10
379.1972121427808
 20
145.6619437987801
 30
0.0
 10
379.2081982370609
 20
145.7175902123874
 30
0.0
 10
379.2164885907779
 20
145.7733403975215
 30
0.0
 10
379.222093421853
 20
145.8291465673389
 30
0.0
 10
379.2250228465873
 20
145.884963429809
 30
0.0
 10
379.2252863130577
 20
145.9407478095747
 30
0.0
 10
379.2228924046061
 20
145.9964528732029
 30
0.0
 10
379.217849514397
 20
146.0520326507196
 30
0.0
 10
379.2101657079879
 20
146.1074423982708
 30
0.0
 10
379.1998472497593
 20
146.162643548038
 30
0.0
 10
379.1868987334072
 20
146.2175983521403
 30
0.0
 10
379.1713233853109
 20
146.2722687156515
 30
0.0
 10
379.1531234904089
 20
146.3266156127189
 30
0.0
 10
379.1323009954143
 20
146.3805985150607
 30
0.0
 10
379.1088582794889
 20
146.4341748672753
 30
0.0
 10
379.0827990678151
 20
146.4872996505304
 30
0.0
 10
379.0541294461515
 20
146.5399250795938
 30
0.0
 10
379.0228589169874
 20
146.5920004755443
 30
0.0
 10
378.9890014236518
 20
146.6434723467638
 30
0.0
 10
378.9525762613395
 20
146.6942846939754
 30
0.0
 10
378.9136087965434
 20
146.7443795327679
 30
0.0
 10
378.8721309302929
 20
146.7936976024762
 30
0.0
 10
378.8281812649744
 20
146.842179207763
 30
0.0
 10
378.7818049658916
 20
146.8897651232167
 30
0.0
 10
378.7330533417056
 20
146.9363974850492
 30
0.0
 10
378.6819831965163
 20
146.9820205987588
 30
0.0
 10
378.6286560257182
 20
147.0265816061356
 30
0.0
 10
378.5731371352708
 20
147.0700309759159
 30
0.0
 10
378.5154947599136
 20
147.1123228053569
 30
0.0
 10
378.4557992426858
 20
147.1534149408916
 30
0.0
 10
378.3941223197646
 20
147.1932689418808
 30
0.0
 10
378.3305365352625
 20
147.2318499208931
 30
0.0
 10
378.2651161201128
 20
147.2691255411565
 30
0.0
 10
378.1979355260996
 20
147.305066586996
 30
0.0
 10
378.1290688884238
 20
147.3396468130108
 30
0.0
 10
378.0585884206532
 20
147.3728432129945
 30
0.0
 10
377.9865656937258
 20
147.4046349270439
 30
0.0
 10
377.9130720183668
 20
147.4350027976367
 30
0.0
 10
377.838178512514
 20
147.463929147714
 30
0.0
 10
377.7619561846241
 20
147.4913975968615
 30
0.0
 10
377.6844760223211
 20
147.5173929136591
 30
0.0
 10
377.6058090788537
 20
147.5419009007704
 30
0.0
 10
377.526026552186
 20
147.5649083086439
 30
0.0
 10
377.4451998534399
 20
147.5864027734877
 30
0.0
 10
377.3634006628438
 20
147.6063727752965
 30
0.0
 10
377.2807009724204
 20
147.6248076120229
 30
0.0
 10
377.1971731153924
 20
147.6416973863951
 30
0.0
 10
377.1128897828052
 20
147.657033002335
 30
0.0
 10
377.027924028191
 20
147.6708061683726
 30
0.0
 10
376.9423492612935
 20
147.6830094058713
 30
0.0
 10
376.8562392319717
 20
147.6936360602496
 30
0.0
 10
376.7696680054314
 20
147.7026803137146
 30
0.0
 10
376.6827099299339
 20
147.7101371982973
 30
0.0
 10
376.5954395980782
 20
147.716002608246
 30
0.0
 10
376.5079318027638
 20
147.7202733109281
 30
0.0
 10
376.4202614886978
 20
147.7229469559501
 30
0.0
 10
376.3325037009837
 20
147.724022080888
 30
0.0
 10
376.2447337228416
 20
147.7234981187358
 30
0.0
 10
376.1570272269157
 20
147.7213754127684
 30
0.0
 10
376.069459798445
 20
147.7176552739168
 30
0.0
 10
375.9821067476612
 20
147.7123398185193
 30
0.0
 10
375.8950425987207
 20
147.7054324364324
 30
0.0
 10
375.8083423796201
 20
147.6969358515021
 30
0.0
 10
375.7220780338048
 20
147.6868593351628
 30
0.0
 10
375.6378336419972
 20
147.6753960809617
 30
0.0
 10
375.5749524533894
 20
147.6656911563383
 30
0.0
 10
375.540653035229
 20
147.6599381792075
 30
0.0
 10
375.5331100766953
 20
147.6586730129081
 30
0.0
  0
LWPOLYLINE
  5
14E
330
1F
100
AcDbEntity
  8
0
  6
Continuous
 62
     7
370
    30
100
AcDbPolyline
 90
        3
 70
   128
 43
0.0
 10
386.2787768414
 20
227.5043302453
 10
386.2575488816
 20
227.4922439128
 10
386.2209982401
 20
227.4706160441
  0
LWPOLYLINE
  5
14F
330
1F
100
AcDbEntity
  8
0
  6
Continuous
 62
     7
370
    30
100
AcDbPolyline
 90
        3
 70
   128
 43
0.0
 10
461.5147424286
 20
80.7260840929
 10
461.5522374681
 20
80.747201886
 10
461.5774020757
 20
80.7619797255
  0
LWPOLYLINE
  5
150
330
1F
100
AcDbEntity
  8
0
  6
Continuous
 62
     7
370
    30
100
AcDbPolyline
 90
      105
 70
   128
 43
0.0
 10
374.8556978714
 20
151.7054397203
 10
375.0322327604
 20
151.7302504353
 10
375.398137177
 20
151.77039898
 10
375.7696146737
 20
151.7961834899
 10
376.1464106585
 20
151.8075862936
 10
376.5282668943
 20
151.804599576
 10
376.9149216757
 20
151.7872253843
 10
377.3061100089
 20
151.7554756257
 10
377.7015637931
 20
151.70937206
 10
378.1010120039
 20
151.6489462842
 10
378.5041808795
 20
151.5742397112
 10
378.910794108
 20
151.4853035411
 10
379.3205730171
 20
151.3821987264
 10
379.7332367648
 20
151.2649959298
 10
380.1485025319
 20
151.1337754764
 10
380.5660857161
 20
150.9886272981
 10
380.9857001267
 20
150.8296508722
 10
381.4070581809
 20
150.6569551533
 10
381.8298711009
 20
150.4706584982
 10
382.253849112
 20
150.2708885856
 10
382.6787016408
 20
150.0577823275
 10
383.1041375145
 20
149.8314857766
 10
383.5298651606
 20
149.592154025
 10
383.9555928068
 20
149.3399510989
 10
384.3810286805
 20
149.0750498456
 10
384.8058812092
 20
148.797631815
 10
385.2298592203
 20
148.5078871357
 10
385.6526721404
 20
148.2060143842
 10
386.0740301946
 20
147.892220449
 10
386.4936446051
 20
147.5667203888
 10
386.9112277893
 20
147.2297372851
 10
387.3264935565
 20
146.8815020893
 10
387.7391573042
 20
146.5222534643
 10
388.1489362133
 20
146.1522376213
 10
388.5555494418
 20
145.7717081505
 10
388.9587183174
 20
145.380925848
 10
389.3581665281
 20
144.9801585364
 10
389.7536203123
 20
144.5696808815
 10
390.1448086456
 20
144.1497742043
 10
390.531463427
 20
143.7207262878
 10
390.9133196627
 20
143.28283118
 10
391.2901156475
 20
142.8363889923
 10
391.6615931443
 20
142.381705694
 10
392.0274975609
 20
141.9190929023
 10
392.3875781247
 20
141.4488676688
 10
392.7415880545
 20
140.9713522625
 10
393.0892847295
 20
140.4868739485
 10
393.4304298559
 20
139.995764764
 10
393.7647896298
 20
139.4983612909
 10
394.0921348977
 20
138.9950044246
 10
394.4122413135
 20
138.4860391406
 10
394.7248894923
 20
137.9718142585
 10
395.0298651606
 20
137.4526822023
 10
395.3269593034
 20
136.9289987591
 10
395.6159683071
 20
136.4011228354
 10
395.8966940994
 20
135.869416211
 10
396.1689442849
 20
135.3342432911
 10
396.432532277
 20
134.7959708565
 10
396.6872774254
 20
134.2549678121
 10
396.9330051408
 20
133.7116049346
 10
397.1695470135
 20
133.1662546175
 10
397.3967409295
 20
132.6192906168
 10
397.6144311816
 20
132.0710877944
 10
397.8224685757
 20
131.522021861
 10
398.0207105333
 20
130.9724691189
 10
398.2090211894
 20
130.4228062043
 10
398.3872714851
 20
129.8734098286
 10
398.5553392567
 20
129.3246565206
 10
398.7131093189
 20
128.7769223684
 10
398.8604735439
 20
128.2305827618
 10
398.9973309358
 20
127.6860121344
 10
399.1235876992
 20
127.143583708
 10
399.2391573042
 20
126.6036692357
 10
399.3439605449
 20
126.066638748
 10
399.4379255947
 20
125.5328602989
 10
399.5209880544
 20
125.0026997133
 10
399.5930909973
 20
124.4765203368
 10
399.6541850076
 20
123.9546827865
 10
399.7042282145
 20
123.4375447039
 10
399.7431863208
 20
122.9254605095
 10
399.7710326267
 20
122.4187811602
 10
399.7877480477
 20
121.9178539088
 10
399.7933211279
 20
121.4230220657
 10
399.7877480477
 20
120.9346247641
 10
399.7710326267
 20
120.4529967269
 10
399.7431863208
 20
119.9784680381
 10
399.7042282145
 20
119.5113639159
 10
399.6541850076
 20
119.05200449
 10
399.5930909973
 20
118.6007045826
 10
399.5209880544
 20
118.157773492
 10
399.4379255947
 20
117.7235147811
 10
399.3439605449
 20
117.2982260691
 10
399.2391573042
 20
116.8821988276
 10
399.1235876992
 20
116.475718181
 10
398.9973309358
 20
116.0790627107
 10
398.8604735439
 20
115.6925042646
 10
398.7131093189
 20
115.3163077706
 10
398.5553392567
 20
114.9507310549
 10
398.3872714851
 20
114.5960246656
 10
398.2090211894
 20
114.2524317007
 10
398.0207105333
 20
113.9201876416
 10
397.8224685757
 20
113.5995201919
 10
397.6144311816
 20
113.290649121
 10
397.3967409295
 20
112.9937861137
 10
397.2837458217
 20
112.8491992847
  0
SPLINE
  5
151
330
1F
100
AcDbEntity
  8
0
  6
Continuous
 62
     7
370
    30
100
AcDbSpline
210
0.0
220
0.0
230
1.0
 70
     8
 71
     3
 72
    24
 73
    20
 74
     0
 42
0.000000001
 43
0.00000001
 40
0.0
 40
0.0
 40
0.0
 40
0.0
 40
0.0727016410074872
 40
0.145403170055299
 40
0.2056597738063328
 40
0.265916324743388
 40
0.3201970006953971
 40
0.3744776466649778
 40
0.4290788564106469
 40
0.4954742606796769
 40
0.5619152274603151
 40
0.6283105372029285
 40
0.6822586161185515
 40
0.7362311660388315
 40
0.7901792712476429
 40
0.8582528934338394
 40
0.9244394144839749
 40
0.9906710066002248
 40
0.9999999999999999
 40
0.9999999999999999
 40
0.9999999999999999
 40
0.9999999999999999
 10
379.291979845491
 20
146.3839878843035
 30
0.0
 10
379.2745346929536
 20
146.4189331236288
 30
0.0
 10
379.239644414744
 20
146.488823548464
 30
0.0
 10
379.1789677722616
 20
146.5846816234027
 30
0.0
 10
379.1150808248061
 20
146.6724423861399
 30
0.0
 10
379.0511480779966
 20
146.7496144968684
 30
0.0
 10
378.9840406703135
 20
146.8219463683161
 30
0.0
 10
378.9143554086913
 20
146.8896910652913
 30
0.0
 10
378.8344397843595
 20
146.959980917162
 30
0.0
 10
378.7431149131456
 20
147.0320146168548
 30
0.0
 10
378.6395066040674
 20
147.1047104004678
 30
0.0
 10
378.536504926478
 20
147.1690454323252
 30
0.0
 10
378.435629184633
 20
147.2256654041061
 30
0.0
 10
378.3381986416051
 20
147.2753370516872
 30
0.0
 10
378.2283433541833
 20
147.3260496982275
 30
0.0
 10
378.1064639376943
 20
147.3763522761277
 30
0.0
 10
377.971354943715
 20
147.4245505943589
 30
0.0
 10
377.8736965308815
 20
147.4564413185176
 30
0.0
 10
377.8196253269679
 20
147.4709122476475
 30
0.0
 10
377.8129494932513
 20
147.4726988828545
 30
0.0
  0
LWPOLYLINE
  5
152
330
1F
100
AcDbEntity
  8
0
  6
Continuous
 62
     7
370
    30
100
AcDbPolyline
 90
       86
 70
   128
 43
0.0
 10
373.7021453784
 20
146.7197641576
 10
373.6865746809
 20
146.7066180307
 10
373.6031417309
 20
146.6289052112
 10
373.529306447
 20
146.5516792575
 10
373.4628996744
 20
146.473026347
 10
373.4041838779
 20
146.3932178782
 10
373.3622436447
 20
146.3276150656
 10
373.3255050346
 20
146.2613786689
 10
373.2940622093
 20
146.1946518667
 10
373.2620167742
 20
146.1098560881
 10
373.2388944327
 20
146.0260240136
 10
373.2240926666
 20
145.941781327
 10
373.217668862
 20
145.8573963702
 10
373.2186418957
 20
145.7888115613
 10
373.2251504542
 20
145.7202493829
 10
373.2371779444
 20
145.651853668
 10
373.2602105304
 20
145.5658825512
 10
373.2961483579
 20
145.4706542796
 10
373.3427721396
 20
145.3763061512
 10
373.3920202706
 20
145.2949881088
 10
373.4491771599
 20
145.2146292063
 10
373.5140174937
 20
145.1355028364
 10
373.5722776868
 20
145.072208316
 10
373.6354509787
 20
145.0098652714
 10
373.7033699869
 20
144.9486221094
 10
373.79570574
 20
144.8730213945
 10
373.8927037537
 20
144.8012301482
 10
373.9963128621
 20
144.7315162441
 10
374.106109172
 20
144.664154556
 10
374.1997347249
 20
144.611248323
 10
374.2971696429
 20
144.5600559829
 10
374.3981491432
 20
144.5107202152
 10
374.5304182095
 20
144.4512317507
 10
374.6638653533
 20
144.3965241906
 10
374.8018056726
 20
144.3450380812
 10
374.9436778383
 20
144.297012595
 10
375.0616291363
 20
144.2606437906
 10
375.1818273686
 20
144.2267167288
 10
375.3039527107
 20
144.1953456417
 10
375.4605295134
 20
144.1595214097
 10
375.6163161832
 20
144.1286162352
 10
375.7740688968
 20
144.1019942391
 10
375.9331550851
 20
144.0798235908
 10
376.0631419347
 20
144.0651741031
 10
376.1936301522
 20
144.053588331
 10
376.3242764719
 20
144.0451333877
 10
376.4890585406
 20
144.0390120458
 10
376.6172464427
 20
144.0378105601
 10
376.7456579226
 20
144.039802194
 10
376.873336449
 20
144.0450336293
 10
377.0015918668
 20
144.0536578312
 10
377.1286456005
 20
144.0656492848
 10
377.2557995791
 20
144.081234433
 10
377.3812604468
 20
144.1002907179
 10
377.5055258532
 20
144.1229635714
 10
377.6672961799
 20
144.1585239727
 10
377.8246904699
 20
144.200217609
 10
377.9514741073
 20
144.2393844373
 10
378.0746016499
 20
144.2826539655
 10
378.1821766013
 20
144.3250984664
 10
378.2863533687
 20
144.3707488301
 10
378.3875295144
 20
144.4198361996
 10
378.5044207397
 20
144.4831329292
 10
378.615506386
 20
144.5507871262
 10
378.7203310381
 20
144.6225175536
 10
378.800730282
 20
144.6837012559
 10
378.8767469599
 20
144.7473791868
 10
378.9481773042
 20
144.8133662257
 10
379.0316102542
 20
144.8997642505
 10
379.1054455381
 20
144.9869851261
 10
379.1718523106
 20
145.0770422429
 10
379.2305681072
 20
145.1695249483
 10
379.2725083404
 20
145.2462744943
 10
379.3092469505
 20
145.324336673
 10
379.3406897758
 20
145.4034738295
 10
379.3727352109
 20
145.5046338107
 10
379.3958575523
 20
145.6051460481
 10
379.4106593185
 20
145.7064929488
 10
379.4170831231
 20
145.808198658
 10
379.4161100894
 20
145.8908925357
 10
379.4096015309
 20
145.9734973153
 10
379.3975740407
 20
146.0557570647
 10
379.3745414546
 20
146.1588212067
 10
379.3386036272
 20
146.272360348
 10
379.2919798455
 20
146.3839878843
 10
379.2919798455
 20
146.3839878843
  0
LINE
  5
153
330
1F
100
AcDbEntity
  8
0
  6
Continuous
 62
     7
370
    30
100
AcDbLine
 10
394.2170805555
 20
109.7330927452
 30
0.0
 11
394.1261097651
 21
109.6802511443
 31
0.0
  0
ARC
  5
154
330
1F
100
AcDbEntity
  8
0
  6
Continuous
 62
     7
370
    30
100
AcDbCircle
 10
374.4760373017
 20
145.6214766264
 30
0.0
 40
1.262487589858395
100
AcDbArc
 50
137.5386299392
 51
173.983725911
  0
ARC
  5
155
330
1F
100
AcDbEntity
  8
0
  6
Continuous
 62
     7
370
    30
100
AcDbCircle
 10
378.1691573482
 20
145.626081741
 30
0.0
 40
1.251698706154805
100
AcDbArc
 50
5.9964827567
 51
42.6566044038
  0
ARC
  5
156
330
1F
100
AcDbEntity
  8
0
  6
Continuous
 62
     7
370
    30
100
AcDbCircle
 10
382.8937339396
 20
57.9672396216
 30
0.0
 40
1.652121999156969
100
AcDbArc
 50
316.6579635527
 51
334.7515238324
  0
LINE
  5
157
330
1F
100
AcDbEntity
  8
0
  6
Continuous
 62
     7
370
    30
100
AcDbLine
 10
400.712231123
 20
121.3791289986
 30
0.0
 11
400.7007093938
 21
121.354005514
 31
0.0
  0
SPLINE
  5
158
330
1F
100
AcDbEntity
  8
0
  6
Continuous
 62
     7
370
    30
100
AcDbSpline
210
0.0
220
0.0
230
1.0
 70
     8
 71
     3
 72
    13
 73
     9
 74
     0
 42
0.000000001
 43
0.00000001
 40
0.0
 40
0.0
 40
0.0
 40
0.0
 40
0.2413306091858439
 40
0.4830869513209033
 40
0.7239449330381749
 40
0.8534158107920776
 40
0.9828182837243231
 40
1.0
 40
1.0
 40
1.0
 40
1.0
 10
400.7007093936671
 20
121.3540055142853
 30
0.0
 10
400.6949920122623
 20
121.3418432112278
 30
0.0
 10
400.6835471633818
 20
121.3174971495122
 30
0.0
 10
400.6673038003984
 20
121.2876016505406
 30
0.0
 10
400.6543691005162
 20
121.2674023953949
 30
0.0
 10
400.6447256116929
 20
121.2559046129135
 30
0.0
 10
400.6395831156072
 20
121.2506481639585
 30
0.0
 10
400.6372866737078
 20
121.2499134842289
 30
0.0
 10
400.637017498612
 20
121.2498273694935
 30
0.0
  0
LWPOLYLINE
  5
159
330
1F
100
AcDbEntity
  8
0
  6
Continuous
 62
     7
370
    30
100
AcDbPolyline
 90
      133
 70
   128
 43
0.0
 10
425.8700835568
 20
128.6968101535
 10
425.8776666147
 20
128.6991476988
 10
426.2149338649
 20
128.8114759411
 10
426.5451256134
 20
128.9379785456
 10
426.8680155632
 20
129.0785688138
 10
427.1833824218
 20
129.2331503921
 10
427.4910100525
 20
129.4016173379
 10
427.7906876226
 20
129.5838541926
 10
428.0822097481
 20
129.77973606
 10
428.3653766342
 20
129.9891286925
 10
428.6399942127
 20
130.2118885829
 10
428.9058742742
 20
130.4478630626
 10
429.1628345979
 20
130.6968904066
 10
429.4106990759
 20
130.9587999438
 10
429.6492978345
 20
131.2334121747
 10
429.8784673498
 20
131.5205388937
 10
430.0980505606
 20
131.8199833184
 10
430.3078969755
 20
132.1315402248
 10
430.5078627763
 20
132.4549960871
 10
430.6978109163
 20
132.7901292249
 10
430.8776112146
 20
133.1367099547
 10
431.0471404451
 20
133.4945007474
 10
431.2062824208
 20
133.8632563911
 10
431.3549280739
 20
134.2427241589
 10
431.4929755301
 20
134.6326439828
 10
431.6203301784
 20
135.0327486311
 10
431.7369047364
 20
135.4427638921
 10
431.8426193097
 20
135.8624087617
 10
431.9374014468
 20
136.2913956365
 10
432.0211861888
 20
136.7294305101
 10
432.0939161138
 20
137.1762131754
 10
432.1555413764
 20
137.6314374298
 10
432.2060197416
 20
138.0947912854
 10
432.2453166141
 20
138.5659571827
 10
432.2734050618
 20
139.0446122079
 10
432.2902658343
 20
139.5304283149
 10
432.295887376
 20
140.0230725496
 10
432.2902658343
 20
140.5222072783
 10
432.2734050618
 20
141.0274904188
 10
432.2453166141
 20
141.5385756755
 10
432.2060197416
 20
142.055112776
 10
432.1555413764
 20
142.5767477115
 10
432.0939161138
 20
143.1031229796
 10
432.0211861888
 20
143.6338778289
 10
431.9374014468
 20
144.1686485065
 10
431.8426193097
 20
144.7070685075
 10
431.7369047364
 20
145.2487688254
 10
431.6203301784
 20
145.7933782062
 10
431.4929755301
 20
146.3405234016
 10
431.3549280739
 20
146.8898294257
 10
431.2062824208
 20
147.4409198115
 10
431.0471404451
 20
147.9934168693
 10
430.8776112146
 20
148.5469419452
 10
430.6978109163
 20
149.1011156807
 10
430.5078627763
 20
149.6555582729
 10
430.3078969755
 20
150.2098897344
 10
430.0980505606
 20
150.7637301542
 10
429.8784673498
 20
151.3166999577
 10
429.6492978345
 20
151.8684201671
 10
429.4106990759
 20
152.4185126608
 10
429.1628345979
 20
152.966600433
 10
428.9058742742
 20
153.5123078516
 10
428.6399942127
 20
154.0552609161
 10
428.3653766342
 20
154.5950875136
 10
428.0822097481
 20
155.1314176738
 10
427.7906876226
 20
155.6638838229
 10
427.4910100525
 20
156.1921210352
 10
427.1833824218
 20
156.7157672832
 10
426.8680155632
 20
157.2344636861
 10
426.5451256134
 20
157.7478547551
 10
426.2149338649
 20
158.2555886376
 10
425.8776666147
 20
158.7573173584
 10
425.5335550089
 20
159.2526970574
 10
425.1828348845
 20
159.7413882263
 10
424.8257466075
 20
160.2230559406
 10
424.4625349084
 20
160.6973700891
 10
424.0934487143
 20
161.1640056008
 10
423.7187409784
 20
161.6226426669
 10
423.3386685068
 20
162.0729669605
 10
422.9534917821
 20
162.5146698519
 10
422.5634747851
 20
162.9474486198
 10
422.1688848142
 20
163.3710066595
 10
421.7699923015
 20
163.7850536852
 10
421.367070628
 20
164.18930593
 10
420.9603959361
 20
164.5834863395
 10
420.5502469404
 20
164.9673247622
 10
420.1369047364
 20
165.3405581343
 10
419.7206526083
 20
165.7029306603
 10
419.3017758345
 20
166.0541939883
 10
418.8805614922
 20
166.3941073799
 10
418.4572982607
 20
166.7224378754
 10
418.0322762234
 20
167.0389604535
 10
417.6057866692
 20
167.3434581854
 10
417.1781218928
 20
167.6357223837
 10
416.7495749943
 20
167.9155527449
 10
416.3204396782
 20
168.1827574875
 10
415.8910100525
 20
168.4371534825
 10
415.4615804268
 20
168.6785663797
 10
415.0324451107
 20
168.9068307268
 10
414.6038982122
 20
169.1217900827
 10
414.1762334358
 20
169.323297125
 10
413.7497438816
 20
169.511213751
 10
413.3247218443
 20
169.6854111719
 10
412.9014586128
 20
169.8457700014
 10
412.4802442705
 20
169.9921803378
 10
412.0613674967
 20
170.1245418386
 10
411.6451153686
 20
170.2427637899
 10
411.2317731646
 20
170.3467651683
 10
410.8216241689
 20
170.4364746964
 10
410.414949477
 20
170.5118308918
 10
410.0120278035
 20
170.572782109
 10
409.6131352908
 20
170.6192865753
 10
409.2185453199
 20
170.6513124188
 10
408.8285283229
 20
170.6688376905
 10
408.4433515982
 20
170.6718503795
 10
408.0632791266
 20
170.660348421
 10
407.6885713907
 20
170.634339698
 10
407.3194851966
 20
170.5938420354
 10
406.9562734975
 20
170.5388831885
 10
406.5991852205
 20
170.4695008231
 10
406.2484650961
 20
170.3857424906
 10
405.9043534903
 20
170.2876655947
 10
405.5670862401
 20
170.1753373524
 10
405.2368944916
 20
170.0488347479
 10
404.9140045418
 20
169.9082444797
 10
404.5986376832
 20
169.7536629015
 10
404.2910100525
 20
169.5851959556
 10
403.9913324824
 20
169.4029591009
 10
403.6998103569
 20
169.2070772335
 10
403.4166434707
 20
168.997684601
 10
403.1420258923
 20
168.7749247106
 10
402.8761458308
 20
168.5389502309
 10
402.8719527062
 20
168.535057823
  0
ARC
  5
15A
330
1F
100
AcDbEntity
  8
0
  6
Continuous
 62
     7
370
    30
100
AcDbCircle
 10
424.2563473957
 20
136.6646485707
 30
0.0
 40
7.907868463647979
100
AcDbArc
 50
287.0667299742
 51
296.9332447432
  0
ARC
  5
15B
330
1F
100
AcDbEntity
  8
0
  6
Continuous
 62
     7
370
    30
100
AcDbCircle
 10
408.9722432999
 20
163.1436680446
 30
0.0
 40
7.919704557623723
100
AcDbArc
 50
123.0687697693
 51
132.920502448
  0
LWPOLYLINE
  5
15C
330
1F
100
AcDbEntity
  8
0
  6
Continuous
 62
     7
370
    30
100
AcDbPolyline
 90
        3
 70
   128
 43
0.0
 10
428.3449572909
 20
130.1255243492
 10
428.3525403488
 20
130.1278618945
 10
428.6613293814
 20
130.2300607374
  0
LWPOLYLINE
  5
15D
330
1F
100
AcDbEntity
  8
0
  6
Continuous
 62
     7
370
    30
100
AcDbPolyline
 90
        3
 70
   128
 43
0.0
 10
405.5955644578
 20
170.1854667519
 10
405.351019565
 20
169.9676644266
 10
405.3468264403
 20
169.9637720187
  0
ENDSEC
  0
SECTION
  2
OBJECTS
  0
DICTIONARY
  5
C
330
0
100
AcDbDictionary
281
     1
  3
ACAD_GROUP
350
D
  3
ACAD_LAYOUT
350
1A
  3
ACAD_MLINESTYLE
350
17
  3
ACAD_PLOTSETTINGS
350
19
  3
ACAD_PLOTSTYLENAME
350
E
  3
ACAD_SCALELIST
350
47
  0
DICTIONARY
  5
D
102
{ACAD_REACTORS
330
C
102
}
330
C
100
AcDbDictionary
281
     1
  0
DICTIONARY
  5
1A
102
{ACAD_REACTORS
330
C
102
}
330
C
100
AcDbDictionary
281
     1
  3
Layout1
350
1E
  3
Layout2
350
26
  3
Model
350
22
  0
DICTIONARY
  5
17
102
{ACAD_REACTORS
330
C
102
}
330
C
100
AcDbDictionary
281
     1
  3
Standard
350
18
  0
DICTIONARY
  5
19
102
{ACAD_REACTORS
330
C
102
}
330
C
100
AcDbDictionary
281
     1
  0
ACDBDICTIONARYWDFLT
  5
E
102
{ACAD_REACTORS
330
C
102
}
330
C
100
AcDbDictionary
281
     1
  3
Normal
350
F
100
AcDbDictionaryWithDefault
340
F
  0
DICTIONARY
  5
47
102
{ACAD_REACTORS
330
C
102
}
330
C
100
AcDbDictionary
281
     1
  3
A0
350
48
  3
A1
350
49
  3
A2
350
4A
  3
A3
350
4B
  3
A4
350
4C
  3
A5
350
4D
  3
A6
350
4E
  3
A7
350
4F
  3
A8
350
50
  3
A9
350
51
  3
B0
350
52
  3
B1
350
53
  3
B2
350
54
  3
B3
350
55
  3
B4
350
56
  3
B5
350
57
  3
B6
350
58
  3
B7
350
59
  3
B8
350
5A
  3
B9
350
5B
  3
C0
350
5C
  3
C1
350
5D
  3
C2
350
5E
  3
C3
350
5F
  3
C4
350
60
  3
C5
350
61
  3
C6
350
62
  3
C7
350
63
  3
C8
350
64
  3
C9
350
65
  3
D0
350
66
  3
D1
350
67
  3
D2
350
68
  0
LAYOUT
  5
1E
102
{ACAD_REACTORS
330
1A
102
}
330
1A
100
AcDbPlotSettings
  1

  2
none_device
  4

  6

 40
0.0
 41
0.0
 42
0.0
 43
0.0
 44
0.0
 45
0.0
 46
0.0
 47
0.0
 48
0.0
 49
0.0
140
0.0
141
0.0
142
1.0
143
1.0
 70
   688
 72
     1
 73
     0
 74
     5
  7

 75
    16
147
1.0
148
0.0
149
0.0
100
AcDbLayout
  1
Layout1
 70
     1
 71
     1
 10
0.0
 20
0.0
 11
420.0
 21
297.0
 12
0.0
 22
0.0
 32
0.0
 14
1.0000000000E+20
 24
1.0000000000E+20
 34
1.0000000000E+20
 15
-1.0000000000E+20
 25
-1.0000000000E+20
 35
-1.0000000000E+20
146
0.0
 13
0.0
 23
0.0
 33
0.0
 16
1.0
 26
0.0
 36
0.0
 17
0.0
 27
1.0
 37
0.0
 76
     0
330
1B
  0
LAYOUT
  5
26
102
{ACAD_REACTORS
330
1A
102
}
330
1A
100
AcDbPlotSettings
  1

  2
none_device
  4

  6

 40
0.0
 41
0.0
 42
0.0
 43
0.0
 44
0.0
 45
0.0
 46
0.0
 47
0.0
 48
0.0
 49
0.0
140
0.0
141
0.0
142
1.0
143
1.0
 70
   688
 72
     1
 73
     0
 74
     5
  7

 75
    16
147
1.0
148
0.0
149
0.0
100
AcDbLayout
  1
Layout2
 70
     1
 71
     2
 10
0.0
 20
0.0
 11
0.0
 21
0.0
 12
0.0
 22
0.0
 32
0.0
 14
0.0
 24
0.0
 34
0.0
 15
0.0
 25
0.0
 35
0.0
146
0.0
 13
0.0
 23
0.0
 33
0.0
 16
1.0
 26
0.0
 36
0.0
 17
0.0
 27
1.0
 37
0.0
 76
     0
330
23
  0
LAYOUT
  5
22
102
{ACAD_REACTORS
330
1A
102
}
330
1A
100
AcDbPlotSettings
  1

  2
none_device
  4
Letter_(8.50_x_11.00_Inches)
  6

 40
6.35
 41
6.35
 42
6.35000508
 43
6.35000508
 44
215.9
 45
279.4
 46
0.0
 47
0.0
 48
0.0
 49
0.0
140
0.0
141
0.0
142
1.0
143
1.0
 70
  1712
 72
     1
 73
     0
 74
     0
  7

 75
     0
147
1.0
148
0.0
149
0.0
100
AcDbLayout
  1
Model
 70
     1
 71
     0
 10
0.0
 20
0.0
 11
490.0
 21
450.0
 12
0.0
 22
0.0
 32
0.0
 14
0.0
 24
0.0
 34
0.0
 15
490.0
 25
450.0
 35
0.0
146
0.0
 13
0.0
 23
0.0
 33
0.0
 16
1.0
 26
0.0
 36
0.0
 17
0.0
 27
1.0
 37
0.0
 76
     0
330
1F
331
29
  0
MLINESTYLE
  5
18
102
{ACAD_REACTORS
330
17
102
}
330
17
100
AcDbMlineStyle
  2
Standard
 70
     0
  3

 62
   256
 51
90.0
 52
90.0
 71
     2
 49
0.5
 62
   256
  6
BYLAYER
 49
-0.5
 62
   256
  6
BYLAYER
  0
ACDBPLACEHOLDER
  5
F
102
{ACAD_REACTORS
330
E
102
}
330
E
  0
SCALE
  5
48
102
{ACAD_REACTORS
330
47
102
}
330
47
100
AcDbScale
 70
     0
300
1:1
140
1.0
141
1.0
290
     1
  0
SCALE
  5
49
102
{ACAD_REACTORS
330
47
102
}
330
47
100
AcDbScale
 70
     0
300
1:2
140
1.0
141
2.0
290
     0
  0
SCALE
  5
4A
102
{ACAD_REACTORS
330
47
102
}
330
47
100
AcDbScale
 70
     0
300
1:4
140
1.0
141
4.0
290
     0
  0
SCALE
  5
4B
102
{ACAD_REACTORS
330
47
102
}
330
47
100
AcDbScale
 70
     0
300
1:5
140
1.0
141
5.0
290
     0
  0
SCALE
  5
4C
102
{ACAD_REACTORS
330
47
102
}
330
47
100
AcDbScale
 70
     0
300
1:8
140
1.0
141
8.0
290
     0
  0
SCALE
  5
4D
102
{ACAD_REACTORS
330
47
102
}
330
47
100
AcDbScale
 70
     0
300
1:10
140
1.0
141
10.0
290
     0
  0
SCALE
  5
4E
102
{ACAD_REACTORS
330
47
102
}
330
47
100
AcDbScale
 70
     0
300
1:16
140
1.0
141
16.0
290
     0
  0
SCALE
  5
4F
102
{ACAD_REACTORS
330
47
102
}
330
47
100
AcDbScale
 70
     0
300
1:20
140
1.0
141
20.0
290
     0
  0
SCALE
  5
50
102
{ACAD_REACTORS
330
47
102
}
330
47
100
AcDbScale
 70
     0
300
1:30
140
1.0
141
30.0
290
     0
  0
SCALE
  5
51
102
{ACAD_REACTORS
330
47
102
}
330
47
100
AcDbScale
 70
     0
300
1:40
140
1.0
141
40.0
290
     0
  0
SCALE
  5
52
102
{ACAD_REACTORS
330
47
102
}
330
47
100
AcDbScale
 70
     0
300
1:50
140
1.0
141
50.0
290
     0
  0
SCALE
  5
53
102
{ACAD_REACTORS
330
47
102
}
330
47
100
AcDbScale
 70
     0
300
1:100
140
1.0
141
100.0
290
     0
  0
SCALE
  5
54
102
{ACAD_REACTORS
330
47
102
}
330
47
100
AcDbScale
 70
     0
300
2:1
140
2.0
141
1.0
290
     0
  0
SCALE
  5
55
102
{ACAD_REACTORS
330
47
102
}
330
47
100
AcDbScale
 70
     0
300
4:1
140
4.0
141
1.0
290
     0
  0
SCALE
  5
56
102
{ACAD_REACTORS
330
47
102
}
330
47
100
AcDbScale
 70
     0
300
8:1
140
8.0
141
1.0
290
     0
  0
SCALE
  5
57
102
{ACAD_REACTORS
330
47
102
}
330
47
100
AcDbScale
 70
     0
300
10:1
140
10.0
141
1.0
290
     0
  0
SCALE
  5
58
102
{ACAD_REACTORS
330
47
102
}
330
47
100
AcDbScale
 70
     0
300
100:1
140
100.0
141
1.0
290
     0
  0
SCALE
  5
59
102
{ACAD_REACTORS
330
47
102
}
330
47
100
AcDbScale
 70
     0
300
1/128" = 1'-0"
140
0.0078125
141
12.0
290
     0
  0
SCALE
  5
5A
102
{ACAD_REACTORS
330
47
102
}
330
47
100
AcDbScale
 70
     0
300
1/64" = 1'-0"
140
0.015625
141
12.0
290
     0
  0
SCALE
  5
5B
102
{ACAD_REACTORS
330
47
102
}
330
47
100
AcDbScale
 70
     0
300
1/32" = 1'-0"
140
0.03125
141
12.0
290
     0
  0
SCALE
  5
5C
102
{ACAD_REACTORS
330
47
102
}
330
47
100
AcDbScale
 70
     0
300
1/16" = 1'-0"
140
0.0625
141
12.0
290
     0
  0
SCALE
  5
5D
102
{ACAD_REACTORS
330
47
102
}
330
47
100
AcDbScale
 70
     0
300
3/32" = 1'-0"
140
0.09375
141
12.0
290
     0
  0
SCALE
  5
5E
102
{ACAD_REACTORS
330
47
102
}
330
47
100
AcDbScale
 70
     0
300
1/8" = 1'-0"
140
0.125
141
12.0
290
     0
  0
SCALE
  5
5F
102
{ACAD_REACTORS
330
47
102
}
330
47
100
AcDbScale
 70
     0
300
3/16" = 1'-0"
140
0.1875
141
12.0
290
     0
  0
SCALE
  5
60
102
{ACAD_REACTORS
330
47
102
}
330
47
100
AcDbScale
 70
     0
300
1/4" = 1'-0"
140
0.25
141
12.0
290
     0
  0
SCALE
  5
61
102
{ACAD_REACTORS
330
47
102
}
330
47
100
AcDbScale
 70
     0
300
3/8" = 1'-0"
140
0.375
141
12.0
290
     0
  0
SCALE
  5
62
102
{ACAD_REACTORS
330
47
102
}
330
47
100
AcDbScale
 70
     0
300
1/2" = 1'-0"
140
0.5
141
12.0
290
     0
  0
SCALE
  5
63
102
{ACAD_REACTORS
330
47
102
}
330
47
100
AcDbScale
 70
     0
300
3/4" = 1'-0"
140
0.75
141
12.0
290
     0
  0
SCALE
  5
64
102
{ACAD_REACTORS
330
47
102
}
330
47
100
AcDbScale
 70
     0
300
1" = 1'-0"
140
1.0
141
12.0
290
     0
  0
SCALE
  5
65
102
{ACAD_REACTORS
330
47
102
}
330
47
100
AcDbScale
 70
     0
300
1-1/2" = 1'-0"
140
1.5
141
12.0
290
     0
  0
SCALE
  5
66
102
{ACAD_REACTORS
330
47
102
}
330
47
100
AcDbScale
 70
     0
300
3" = 1'-0"
140
3.0
141
12.0
290
     0
  0
SCALE
  5
67
102
{ACAD_REACTORS
330
47
102
}
330
47
100
AcDbScale
 70
     0
300
6" = 1'-0"
140
6.0
141
12.0
290
     0
  0
SCALE
  5
68
102
{ACAD_REACTORS
330
47
102
}
330
47
100
AcDbScale
 70
     0
300
1'-0" = 1'-0"
140
12.0
141
12.0
290
     0
  0
ENDSEC
  0
EOF
