  0
SECTION
  2
HEADER
  9
$ACADVER
  1
AC1015
  9
$ACADMAINTVER
 70
     6
  9
$DWGCODEPAGE
  3
ANSI_1252
  9
$INSBASE
 10
0.0
 20
0.0
 30
0.0
  9
$EXTMIN
 10
0.0
 20
0.0
 30
0.0
  9
$EXTMAX
 10
824.0
 20
432.0
 30
0.0
  9
$LIMMIN
 10
0.0
 20
0.0
  9
$LIMMAX
 10
824.0
 20
432.0
  9
$ORTHOMODE
 70
     0
  9
$REGENMODE
 70
     1
  9
$FILLMODE
 70
     1
  9
$QTEXTMODE
 70
     0
  9
$MIRRTEXT
 70
     1
  9
$LTSCALE
 40
1.0
  9
$ATTMODE
 70
     1
  9
$TEXTSIZE
 40
3.5
  9
$TRACEWID
 40
1.0
  9
$TEXTSTYLE
  7
Standard
  9
$CLAYER
  8
0
  9
$CELTYPE
  6
ByLayer
  9
$CECOLOR
 62
   256
  9
$CELTSCALE
 40
1.0
  9
$DISPSILH
 70
     0
  9
$DIMSCALE
 40
1.0
  9
$DIMASZ
 40
3.302
  9
$DIMEXO
 40
1.0
  9
$DIMDLI
 40
3.75
  9
$DIMRND
 40
0.0
  9
$DIMDLE
 40
0.0
  9
$DIMEXE
 40
1.0
  9
$DIMTP
 40
0.0
  9
$DIMTM
 40
0.0
  9
$DIMTXT
 40
2.8
  9
$DIMCEN
 40
2.5
  9
$DIMTSZ
 40
0.0
  9
$DIMTOL
 70
     0
  9
$DIMLIM
 70
     0
  9
$DIMTIH
 70
     1
  9
$DIMTOH
 70
     1
  9
$DIMSE1
 70
     0
  9
$DIMSE2
 70
     0
  9
$DIMTAD
 70
     1
  9
$DIMZIN
 70
     0
  9
$DIMBLK
  1

  9
$DIMASO
 70
     1
  9
$DIMSHO
 70
     1
  9
$DIMPOST
  1

  9
$DIMAPOST
  1

  9
$DIMALT
 70
     0
  9
$DIMALTD
 70
     3
  9
$DIMALTF
 40
0.0393700787
  9
$DIMLFAC
 40
1.0
  9
$DIMTOFL
 70
     1
  9
$DIMTVP
 40
0.0
  9
$DIMTIX
 70
     0
  9
$DIMSOXD
 70
     0
  9
$DIMSAH
 70
     0
  9
$DIMBLK1
  1

  9
$DIMBLK2
  1

  9
$DIMSTYLE
  2
ISO-25
  9
$DIMCLRD
 70
     0
  9
$DIMCLRE
 70
     0
  9
$DIMCLRT
 70
     0
  9
$DIMTFAC
 40
1.0
  9
$DIMGAP
 40
1.524
  9
$DIMJUST
 70
     0
  9
$DIMSD1
 70
     0
  9
$DIMSD2
 70
     0
  9
$DIMTOLJ
 70
     0
  9
$DIMTZIN
 70
     0
  9
$DIMALTZ
 70
     0
  9
$DIMALTTZ
 70
     0
  9
$DIMUPT
 70
     0
  9
$DIMDEC
 70
     2
  9
$DIMTDEC
 70
     2
  9
$DIMALTU
 70
     2
  9
$DIMALTTD
 70
     3
  9
$DIMTXSTY
  7
Standard
  9
$DIMAUNIT
 70
     0
  9
$DIMADEC
 70
     2
  9
$DIMALTRND
 40
0.0
  9
$DIMAZIN
 70
     0
  9
$DIMDSEP
 70
    44
  9
$DIMATFIT
 70
     3
  9
$DIMFRAC
 70
     0
  9
$DIMLDRBLK
  1

  9
$DIMLUNIT
 70
     2
  9
$DIMLWD
 70
    -2
  9
$DIMLWE
 70
    -2
  9
$DIMTMOVE
 70
     0
  9
$LUNITS
 70
     2
  9
$LUPREC
 70
     2
  9
$SKETCHINC
 40
1.0
  9
$FILLETRAD
 40
10.0
  9
$AUNITS
 70
     0
  9
$AUPREC
 70
     2
  9
$MENU
  1
.
  9
$ELEVATION
 40
0.0
  9
$PELEVATION
 40
0.0
  9
$THICKNESS
 40
0.0
  9
$LIMCHECK
 70
     0
  9
$CHAMFERA
 40
0.0
  9
$CHAMFERB
 40
0.0
  9
$CHAMFERC
 40
0.0
  9
$CHAMFERD
 40
0.0
  9
$SKPOLY
 70
     0
  9
$TDCREATE
 40
2457630.320007025
  9
$TDUCREATE
 40
2457630.195007025
  9
$TDUPDATE
 40
2457630.320007697
  9
$TDUUPDATE
 40
2457630.195007697
  9
$TDINDWG
 40
0.0000000116
  9
$TDUSRTIMER
 40
0.0000000116
  9
$USRTIMER
 70
     1
  9
$ANGBASE
 50
0.0
  9
$ANGDIR
 70
     0
  9
$PDMODE
 70
     0
  9
$PDSIZE
 40
-1.0
  9
$PLINEWID
 40
0.0
  9
$SPLFRAME
 70
     0
  9
$SPLINETYPE
 70
     6
  9
$SPLINESEGS
 70
     8
  9
$HANDSEED
  5
10A
  9
$SURFTAB1
 70
     6
  9
$SURFTAB2
 70
     6
  9
$SURFTYPE
 70
     6
  9
$SURFU
 70
     6
  9
$SURFV
 70
     6
  9
$UCSBASE
  2

  9
$UCSNAME
  2

  9
$UCSORG
 10
0.0
 20
0.0
 30
0.0
  9
$UCSXDIR
 10
1.0
 20
0.0
 30
0.0
  9
$UCSYDIR
 10
0.0
 20
1.0
 30
0.0
  9
$UCSORTHOREF
  2

  9
$UCSORTHOVIEW
 70
     0
  9
$UCSORGTOP
 10
0.0
 20
0.0
 30
0.0
  9
$UCSORGBOTTOM
 10
0.0
 20
0.0
 30
0.0
  9
$UCSORGLEFT
 10
0.0
 20
0.0
 30
0.0
  9
$UCSORGRIGHT
 10
0.0
 20
0.0
 30
0.0
  9
$UCSORGFRONT
 10
0.0
 20
0.0
 30
0.0
  9
$UCSORGBACK
 10
0.0
 20
0.0
 30
0.0
  9
$PUCSBASE
  2

  9
$PUCSNAME
  2

  9
$PUCSORG
 10
0.0
 20
0.0
 30
0.0
  9
$PUCSXDIR
 10
1.0
 20
0.0
 30
0.0
  9
$PUCSYDIR
 10
0.0
 20
1.0
 30
0.0
  9
$PUCSORTHOREF
  2

  9
$PUCSORTHOVIEW
 70
     0
  9
$PUCSORGTOP
 10
0.0
 20
0.0
 30
0.0
  9
$PUCSORGBOTTOM
 10
0.0
 20
0.0
 30
0.0
  9
$PUCSORGLEFT
 10
0.0
 20
0.0
 30
0.0
  9
$PUCSORGRIGHT
 10
0.0
 20
0.0
 30
0.0
  9
$PUCSORGFRONT
 10
0.0
 20
0.0
 30
0.0
  9
$PUCSORGBACK
 10
0.0
 20
0.0
 30
0.0
  9
$USERI1
 70
     0
  9
$USERI2
 70
     0
  9
$USERI3
 70
     0
  9
$USERI4
 70
     0
  9
$USERI5
 70
     0
  9
$USERR1
 40
0.0
  9
$USERR2
 40
0.0
  9
$USERR3
 40
0.0
  9
$USERR4
 40
0.0
  9
$USERR5
 40
0.0
  9
$WORLDVIEW
 70
     1
  9
$SHADEDGE
 70
     3
  9
$SHADEDIF
 70
    70
  9
$TILEMODE
 70
     1
  9
$MAXACTVP
 70
    64
  9
$PINSBASE
 10
0.0
 20
0.0
 30
0.0
  9
$PLIMCHECK
 70
     0
  9
$PEXTMIN
 10
1.0000000000E+20
 20
1.0000000000E+20
 30
1.0000000000E+20
  9
$PEXTMAX
 10
-1.0000000000E+20
 20
-1.0000000000E+20
 30
-1.0000000000E+20
  9
$PLIMMIN
 10
0.0
 20
0.0
  9
$PLIMMAX
 10
420.0
 20
297.0
  9
$UNITMODE
 70
     0
  9
$VISRETAIN
 70
     1
  9
$PLINEGEN
 70
     0
  9
$PSLTSCALE
 70
     1
  9
$TREEDEPTH
 70
  3020
  9
$CMLSTYLE
  2
Standard
  9
$CMLJUST
 70
     0
  9
$CMLSCALE
 40
20.0
  9
$PROXYGRAPHICS
 70
     1
  9
$MEASUREMENT
 70
     1
  9
$CELWEIGHT
370
    -1
  9
$ENDCAPS
280
     0
  9
$JOINSTYLE
280
     0
  9
$LWDISPLAY
290
     1
  9
$INSUNITS
 70
     4
  9
$HYPERLINKBASE
  1

  9
$STYLESHEET
  1

  9
$XEDIT
290
     1
  9
$CEPSNTYPE
380
     0
  9
$PSTYLEMODE
290
     1
  9
$FINGERPRINTGUID
  2
{78D19FA8-910D-49E6-9EDA-235B4C7DAB79}
  9
$VERSIONGUID
  2
{FAEB1C32-E019-11D5-929B-00C0DF256EC4}
  9
$EXTNAMES
290
     1
  9
$PSVPSCALE
 40
0.0
  9
$OLESTARTUP
290
     0
  0
ENDSEC
  0
SECTION
  2
CLASSES
  0
CLASS
  1
ACDBDICTIONARYWDFLT
  2
AcDbDictionaryWithDefault
  3
ObjectDBX Classes
 90
        0
280
     0
281
     0
  0
CLASS
  1
VISUALSTYLE
  2
AcDbVisualStyle
  3
ObjectDBX Classes
 90
     4095
280
     0
281
     0
  0
CLASS
  1
MATERIAL
  2
AcDbMaterial
  3
ObjectDBX Classes
 90
     1153
280
     0
281
     0
  0
CLASS
  1
SCALE
  2
AcDbScale
  3
ObjectDBX Classes
 90
     1153
280
     0
281
     0
  0
CLASS
  1
TABLESTYLE
  2
AcDbTableStyle
  3
ObjectDBX Classes
 90
     4095
280
     0
281
     0
  0
CLASS
  1
MLEADERSTYLE
  2
AcDbMLeaderStyle
  3
ACDB_MLEADERSTYLE_CLASS
 90
     4095
280
     0
281
     0
  0
CLASS
  1
SUN
  2
AcDbSun
  3
SCENEOE
 90
     1153
280
     0
281
     0
  0
CLASS
  1
ACDBPLACEHOLDER
  2
AcDbPlaceHolder
  3
ObjectDBX Classes
 90
        0
280
     0
281
     0
  0
CLASS
  1
LAYOUT
  2
AcDbLayout
  3
ObjectDBX Classes
 90
        0
280
     0
281
     0
  0
ENDSEC
  0
SECTION
  2
TABLES
  0
TABLE
  2
VPORT
  5
8
330
0
100
AcDbSymbolTable
 70
     1
  0
VPORT
  5
29
330
8
100
AcDbSymbolTableRecord
100
AcDbViewportTableRecord
  2
*Active
 70
     0
 10
0.0
 20
0.0
 11
1.0
 21
1.0
 12
412.0
 22
216.0
 13
0.0
 23
0.0
 14
10.0
 24
10.0
 15
10.0
 25
10.0
 16
0.0
 26
0.0
 36
1.0
 17
0.0
 27
0.0
 37
0.0
 40
432.0
 41
1.9074074074
 42
50.0
 43
0.0
 44
0.0
 50
0.0
 51
0.0
 71
     0
 72
  2000
 73
     1
 74
     3
 75
     0
 76
     0
 77
     0
 78
     0
281
     0
 65
     1
110
0.0
120
0.0
130
0.0
111
1.0
121
0.0
131
0.0
112
0.0
122
1.0
132
0.0
 79
     0
146
0.0
  0
ENDTAB
  0
TABLE
  2
LTYPE
  5
5
330
0
100
AcDbSymbolTable
 70
     6
  0
LTYPE
  5
14
330
5
100
AcDbSymbolTableRecord
100
AcDbLinetypeTableRecord
  2
ByBlock
 70
     0
  3

 72
    65
 73
     0
 40
0.0
  0
LTYPE
  5
15
330
5
100
AcDbSymbolTableRecord
100
AcDbLinetypeTableRecord
  2
ByLayer
 70
     0
  3

 72
    65
 73
     0
 40
0.0
  0
LTYPE
  5
16
330
5
100
AcDbSymbolTableRecord
100
AcDbLinetypeTableRecord
  2
Continuous
 70
     0
  3
Solid line
 72
    65
 73
     0
 40
0.0
  0
LTYPE
  5
6E
330
5
100
AcDbSymbolTableRecord
100
AcDbLinetypeTableRecord
  2
HIDDEN
 70
     0
  3
Hidden __ __ __ __ __ __ __ __ __ __ __ __ __ __
 72
    65
 73
     2
 40
1.905
 49
1.27
 74
     0
 49
-0.635
 74
     0
  0
LTYPE
  5
6F
330
5
100
AcDbSymbolTableRecord
100
AcDbLinetypeTableRecord
  2
PHANTOM
 70
     0
  3
Phantom ______  __  __  ______  __  __  ______
 72
    65
 73
     6
 40
12.7
 49
6.35
 74
     0
 49
-1.27
 74
     0
 49
1.27
 74
     0
 49
-1.27
 74
     0
 49
1.27
 74
     0
 49
-1.27
 74
     0
  0
LTYPE
  5
70
330
5
100
AcDbSymbolTableRecord
100
AcDbLinetypeTableRecord
  2
CENTER
 70
     0
  3
Center ____ _ ____ _ ____ _ ____ _ ____ _ ____
 72
    65
 73
     4
 40
10.16
 49
6.35
 74
     0
 49
-1.27
 74
     0
 49
1.27
 74
     0
 49
-1.27
 74
     0
  0
LTYPE
  5
71
330
5
100
AcDbSymbolTableRecord
100
AcDbLinetypeTableRecord
  2
CENTERX2
 70
     0
  3
Center (2x) ________  __  ________  __  _____
 72
    65
 73
     4
 40
20.32
 49
12.7
 74
     0
 49
-2.54
 74
     0
 49
2.54
 74
     0
 49
-2.54
 74
     0
  0
LTYPE
  5
72
330
5
100
AcDbSymbolTableRecord
100
AcDbLinetypeTableRecord
  2
DOT2
 70
     0
  3
Dot (.5x) ........................................
 72
    65
 73
     2
 40
0.635
 49
0.0
 74
     0
 49
-0.635
 74
     0
  0
ENDTAB
  0
TABLE
  2
LAYER
  5
2
330
0
100
AcDbSymbolTable
 70
     2
  0
LAYER
  5
10
330
2
100
AcDbSymbolTableRecord
100
AcDbLayerTableRecord
  2
0
 70
     0
 62
     7
  6
Continuous
370
    -3
390
F
  0
LAYER
  5
73
330
2
100
AcDbSymbolTableRecord
100
AcDbLayerTableRecord
  2
FORMAT
 70
     0
 62
     7
  6
Continuous
370
    -3
390
F
  0
ENDTAB
  0
TABLE
  2
STYLE
  5
3
330
0
100
AcDbSymbolTable
 70
     2
  0
STYLE
  5
11
330
3
100
AcDbSymbolTableRecord
100
AcDbTextStyleTableRecord
  2
Standard
 70
     0
 40
0.0
 41
1.0
 50
0.0
 71
     0
 42
3.5
  3
txt
  4

  0
STYLE
  5
74
330
3
100
AcDbSymbolTableRecord
100
AcDbTextStyleTableRecord
  2
SLDTEXTSTYLE0
 70
     0
 40
0.0
 41
0.605
 50
0.0
 71
     0
 42
3.5
  3
TXT
  4

  0
ENDTAB
  0
TABLE
  2
VIEW
  5
6
330
0
100
AcDbSymbolTable
 70
     0
  0
ENDTAB
  0
TABLE
  2
UCS
  5
7
330
0
100
AcDbSymbolTable
 70
     0
  0
ENDTAB
  0
TABLE
  2
APPID
  5
9
330
0
100
AcDbSymbolTable
 70
     1
  0
APPID
  5
12
330
9
100
AcDbSymbolTableRecord
100
AcDbRegAppTableRecord
  2
ACAD
 70
     0
  0
ENDTAB
  0
TABLE
  2
DIMSTYLE
  5
A
330
0
100
AcDbSymbolTable
 70
     1
100
AcDbDimStyleTable
  0
DIMSTYLE
105
27
330
A
100
AcDbSymbolTableRecord
100
AcDbDimStyleTableRecord
  2
ISO-25
 70
     0
 41
2.5
 42
0.625
 43
3.75
 44
1.25
 73
     0
 74
     0
 77
     1
 78
     8
140
2.5
141
2.5
143
0.0393700787
147
0.625
171
     3
172
     1
178
     0
271
     2
272
     2
274
     3
278
    44
283
     0
284
     8
340
11
  0
ENDTAB
  0
TABLE
  2
BLOCK_RECORD
  5
1
330
0
100
AcDbSymbolTable
 70
     1
  0
BLOCK_RECORD
  5
1F
330
1
100
AcDbSymbolTableRecord
100
AcDbBlockTableRecord
  2
*Model_Space
340
22
  0
BLOCK_RECORD
  5
1B
330
1
100
AcDbSymbolTableRecord
100
AcDbBlockTableRecord
  2
*Paper_Space
340
1E
  0
BLOCK_RECORD
  5
23
330
1
100
AcDbSymbolTableRecord
100
AcDbBlockTableRecord
  2
*Paper_Space0
340
26
  0
ENDTAB
  0
ENDSEC
  0
SECTION
  2
BLOCKS
  0
BLOCK
  5
20
330
1F
100
AcDbEntity
  8
0
100
AcDbBlockBegin
  2
*Model_Space
 70
     0
 10
0.0
 20
0.0
 30
0.0
  3
*Model_Space
  1

  0
ENDBLK
  5
21
330
1F
100
AcDbEntity
  8
0
100
AcDbBlockEnd
  0
BLOCK
  5
1C
330
1B
100
AcDbEntity
 67
     1
  8
0
100
AcDbBlockBegin
  2
*Paper_Space
 70
     0
 10
0.0
 20
0.0
 30
0.0
  3
*Paper_Space
  1

  0
ENDBLK
  5
1D
330
1B
100
AcDbEntity
 67
     1
  8
0
100
AcDbBlockEnd
  0
BLOCK
  5
24
330
23
100
AcDbEntity
  8
0
100
AcDbBlockBegin
  2
*Paper_Space0
 70
     0
 10
0.0
 20
0.0
 30
0.0
  3
*Paper_Space0
  1

  0
ENDBLK
  5
25
330
23
100
AcDbEntity
  8
0
100
AcDbBlockEnd
  0
ENDSEC
  0
SECTION
  2
ENTITIES
  0
MTEXT
  5
75
330
1F
100
AcDbEntity
  8
0
  6
Continuous
 62
     7
370
     0
100
AcDbMText
 10
7.2782978723
 20
22.1884790273
 30
0.0
 40
10.0
 41
0.0
 71
     1
 72
     1
  1
1:1
  7
SLDTEXTSTYLE0
 73
     1
 44
1.0
  0
LINE
  5
76
330
1F
100
AcDbEntity
  8
0
  6
Continuous
 62
     7
370
    30
100
AcDbLine
 10
398.25
 20
352.4402707473
 30
0.0
 11
398.25
 21
346.0404282107
 31
0.0
  0
LINE
  5
77
330
1F
100
AcDbEntity
  8
0
  6
Continuous
 62
     7
370
    30
100
AcDbLine
 10
425.75
 20
346.0404282107
 30
0.0
 11
425.75
 21
352.4402707473
 31
0.0
  0
LINE
  5
78
330
1F
100
AcDbEntity
  8
0
  6
Continuous
 62
     7
370
    30
100
AcDbLine
 10
415.3261247273
 20
346.2862630837
 30
0.0
 11
415.3800765362
 21
346.2969041595
 31
0.0
  0
LINE
  5
79
330
1F
100
AcDbEntity
  8
0
  6
Continuous
 62
     7
370
    30
100
AcDbLine
 10
408.6199031922
 20
346.2969071656
 30
0.0
 11
408.6741221059
 21
346.2862621268
 31
0.0
  0
SPLINE
  5
7A
330
1F
100
AcDbEntity
  8
0
  6
Continuous
 62
     7
370
    30
100
AcDbSpline
210
0.0
220
0.0
230
1.0
 70
     8
 71
     3
 72
    23
 73
    19
 74
     0
 42
0.000000001
 43
0.00000001
 40
0.0
 40
0.0
 40
0.0
 40
0.0
 40
0.0788931047885387
 40
0.1112256369639688
 40
0.1648773578615322
 40
0.2206766601319037
 40
0.2806082505658666
 40
0.3432243751000559
 40
0.4079412154916809
 40
0.4742930164116249
 40
0.5419487165711449
 40
0.6106632238989187
 40
0.6802517074498345
 40
0.7505720539844458
 40
0.8215130823270724
 40
0.8929864363883946
 40
0.9649209034479462
 40
0.9999999999999999
 40
0.9999999999999999
 40
0.9999999999999999
 40
0.9999999999999999
 10
411.9999999999981
 20
345.4688026097393
 30
0.0
 10
412.0693096521143
 20
345.4690269482138
 30
0.0
 10
412.1670242778097
 20
345.4693432266742
 30
0.0
 10
412.3118577527094
 20
345.4714686235293
 30
0.0
 10
412.4363918993247
 20
345.4740423451063
 30
0.0
 10
412.5851367750321
 20
345.4783672163409
 30
0.0
 10
412.7417085976105
 20
345.4842787414651
 30
0.0
 10
412.9060450600992
 20
345.4920046979873
 30
0.0
 10
413.0759314153252
 20
345.5016243174663
 30
0.0
 10
413.250132354355
 20
345.513214290521
 30
0.0
 10
413.4277094178707
 20
345.5268298379102
 30
0.0
 10
413.6079701539737
 20
345.5425152044529
 30
0.0
 10
413.7903880877578
 20
345.5603022140626
 30
0.0
 10
413.9745521410904
 20
345.5802280153128
 30
0.0
 10
414.1601426574608
 20
345.6022784470946
 30
0.0
 10
414.3468755993438
 20
345.6266091185521
 30
0.0
 10
414.5021914326259
 20
345.6482076957467
 30
0.0
 10
414.5951170608008
 20
345.6624719267852
 30
0.0
 10
414.6255781254818
 20
345.6671477484376
 30
0.0
  0
SPLINE
  5
7B
330
1F
100
AcDbEntity
  8
0
  6
Continuous
 62
     7
370
    30
100
AcDbSpline
210
0.0
220
0.0
230
1.0
 70
     8
 71
     3
 72
    22
 73
    18
 74
     0
 42
0.000000001
 43
0.00000001
 40
0.0
 40
0.0
 40
0.0
 40
0.0
 40
0.0434178318688366
 40
0.1167831532294144
 40
0.1900793406889176
 40
0.2632864965943422
 40
0.336375879794709
 40
0.4093042794531962
 40
0.4820034335568559
 40
0.5543585159299517
 40
0.6261598008769877
 40
0.6969784722640852
 40
0.7657799053705197
 40
0.8292623753397208
 40
0.879271993300982
 40
0.9247421676036698
 40
1.0
 40
1.0
 40
1.0
 40
1.0
 10
409.3744315395368
 20
345.6671454061411
 30
0.0
 10
409.4121389406332
 20
345.6613939193394
 30
0.0
 10
409.5135624574369
 20
345.645923852421
 30
0.0
 10
409.6789898971699
 20
345.6231033584118
 30
0.0
 10
409.8705727602118
 20
345.5984681210848
 30
0.0
 10
410.0621884110745
 20
345.5760706020183
 30
0.0
 10
410.2537142366212
 20
345.5557940329458
 30
0.0
 10
410.4450080674218
 20
345.5376733953304
 30
0.0
 10
410.6358459617392
 20
345.5217035411012
 30
0.0
 10
410.8258593359537
 20
345.5078913085515
 30
0.0
 10
411.0143624504252
 20
345.4962444394437
 30
0.0
 10
411.1998617422955
 20
345.486781015336
 30
0.0
 10
411.3781477133226
 20
345.4795664697938
 30
0.0
 10
411.5382234269475
 20
345.4746772814924
 30
0.0
 10
411.6778419228966
 20
345.4716304965294
 30
0.0
 10
411.8278222832967
 20
345.4693466470331
 30
0.0
 10
411.9338843979439
 20
345.4690115180343
 30
0.0
 10
411.9999999999981
 20
345.4688026097393
 30
0.0
  0
CIRCLE
  5
7C
330
1F
100
AcDbEntity
  8
0
  6
Continuous
 62
     7
370
    30
100
AcDbCircle
 10
412.0
 20
367.5859418982
 30
0.0
 40
34.99999999999994
  0
ARC
  5
7D
330
1F
100
AcDbEntity
  8
0
  6
Continuous
 62
     7
370
    30
100
AcDbCircle
 10
408.5639310991
 20
177.6379938015
 30
0.0
 40
168.7179809316551
100
AcDbArc
 50
88.8330475694
 51
93.5047444352
  0
ARC
  5
7E
330
1F
100
AcDbEntity
  8
0
  6
Continuous
 62
     7
370
    30
100
AcDbCircle
 10
415.4360689009
 20
177.6379938015
 30
0.0
 40
168.7179809316665
100
AcDbArc
 50
86.4952555648
 51
91.1669524306
  0
SPLINE
  5
7F
330
1F
100
AcDbEntity
  8
0
  6
Continuous
 62
     7
370
    30
100
AcDbSpline
210
0.0
220
0.0
230
1.0
 70
    11
 71
     3
 72
   315
 73
   311
 74
     0
 42
0.000000001
 43
0.00000001
 40
0.0
 40
0.0
 40
0.0
 40
0.0
 40
0.0036591333004852
 40
0.0073127052799811
 40
0.0109626389745482
 40
0.0146108631736427
 40
0.0182593093779495
 40
0.0211273836689438
 40
0.0239977225953522
 40
0.0268712593047641
 40
0.0297861381860656
 40
0.0328337373090192
 40
0.0366376237171123
 40
0.040437337112509
 40
0.0442350560028007
 40
0.04803296232777
 40
0.0497388176850597
 40
0.0514453478690311
 40
0.053152749885385
 40
0.054861220438226
 40
0.0565709558628554
 40
0.0582821520591966
 40
0.0599950044259653
 40
0.0636041855251576
 40
0.067207268434848
 40
0.0708060961341866
 40
0.0744025181440512
 40
0.077998387697391
 40
0.0808245572571342
 40
0.0836524289739453
 40
0.0864828998064758
 40
0.0893168642454932
 40
0.0921552134787921
 40
0.0962690353877272
 40
0.100375031288806
 40
0.1044759322817718
 40
0.1085744796514786
 40
0.1126734194049443
 40
0.11677549676118
 40
0.1208834506489116
 40
0.1250000082671295
 40
0.1286864241458097
 40
0.132366329634637
 40
0.1360416878629215
 40
0.1397144692516165
 40
0.1433866483697255
 40
0.1462728211400598
 40
0.1491607991323252
 40
0.1520515379691915
 40
0.1549459905387959
 40
0.1578451060673628
 40
0.161454287514737
 40
0.1650573706194029
 40
0.1686561984044298
 40
0.1722526204349372
 40
0.1758484899883071
 40
0.1778670612257445
 40
0.1798863700174751
 40
0.1819067435551512
 40
0.183928508513486
 40
0.1859519908932926
 40
0.1879775158661469
 40
0.1900054076210373
 40
0.1938846512097591
 40
0.19775741697983
 40
0.2016259973300718
 40
0.2054926921033846
 40
0.209359804506833
 40
0.2124000717512202
 40
0.2154431331692564
 40
0.2184901005794838
 40
0.2215034606679684
 40
0.2243776503375081
 40
0.228648696621408
 40
0.2329153649863873
 40
0.2371807415216597
 40
0.2414479151192551
 40
0.2457199707731315
 40
0.2499999829204328
 40
0.2536584423152449
 40
0.2573115319269336
 40
0.2609611763742212
 40
0.2646093057284609
 40
0.2682578524654461
 40
0.2711261432584448
 40
0.2739968199034754
 40
0.2768708156171312
 40
0.2797861382106845
 40
0.2828337373343054
 40
0.2866376237430183
 40
0.2904373371387954
 40
0.2942350560292278
 40
0.2980329623540969
 40
0.2997388177112638
 40
0.3014453478950638
 40
0.3031527499111982
 40
0.3048612204637715
 40
0.3065709558880846
 40
0.3082821520840619
 40
0.3099950044504189
 40
0.3136041855498276
 40
0.3172072684596812
 40
0.3208060961591286
 40
0.3244025181690469
 40
0.3279983877223849
 40
0.3308245572820869
 40
0.3336524289988215
 40
0.3364828998312404
 40
0.3393168642701105
 40
0.3421552135032265
 40
0.3462690354120515
 40
0.3503750313130509
 40
0.3544759323059689
 40
0.3585744796756595
 40
0.3626734194291413
 40
0.3667754967854258
 40
0.3708834506732394
 40
0.3750000082915725
 40
0.3786864241703108
 40
0.3823663296591815
 40
0.3860416878874952
 40
0.3897144692762045
 40
0.393386648394313
 40
0.3962728211646364
 40
0.3991607991568816
 40
0.4020515379937183
 40
0.4049459905632839
 40
0.4078451060918029
 40
0.4114542875396198
 40
0.4150573706446166
 40
0.4186561984298621
 40
0.4222526204604769
 40
0.425848490013843
 40
0.4278670612512295
 40
0.4298863700428747
 40
0.4319067435804304
 40
0.4339285085386104
 40
0.4359519909182283
 40
0.4379775158908594
 40
0.440005407645493
 40
0.4438846512345218
 40
0.4477574170048131
 40
0.4516259973551873
 40
0.4554926921285439
 40
0.4593598045319459
 40
0.4624000717762329
 40
0.4654431331941124
 40
0.4684901006041265
 40
0.471503460692419
 40
0.4743776503620162
 40
0.4786486966459766
 40
0.4829153650109873
 40
0.487180741546262
 40
0.4914479151438324
 40
0.4957199707976567
 40
0.4999999829448801
 40
0.5036584423394879
 40
0.5073115319510316
 40
0.5109611763982335
 40
0.5146093057524452
 40
0.5182578524894595
 40
0.5211261432825209
 40
0.5239968199276485
 40
0.5268708156414352
 40
0.5297861382350099
 40
0.5328337373582107
 40
0.5366376237665329
 40
0.5404373371620698
 40
0.5442350560524134
 40
0.548032962377346
 40
0.5497388177345908
 40
0.5514453479184994
 40
0.5531527499347731
 40
0.5548612204875165
 40
0.5565709559120308
 40
0.5582821521082397
 40
0.5599950044748587
 40
0.563604185574258
 40
0.5672072684841042
 40
0.5708060961835467
 40
0.5744025181934626
 40
0.5779983877468006
 40
0.5808245573065046
 40
0.5836524290232433
 40
0.5864828998556679
 40
0.589316864294546
 40
0.5921552135276716
 40
0.5962690354369349
 40
0.6003750313382479
 40
0.6044759323313538
 40
0.6085744797011068
 40
0.6126734194545264
 40
0.6167754968106238
 40
0.6208834506981267
 40
0.6250000083160265
 40
0.6286864241951788
 40
0.6323663296843601
 40
0.6360416879128802
 40
0.6397144693016911
 40
0.6433866484197956
 40
0.6462728211900419
 40
0.6491607991821451
 40
0.6520515380187744
 40
0.6549459905880674
 40
0.6578451061162485
 40
0.6614542875641373
 40
0.6650573706691881
 40
0.6686561984544698
 40
0.6722526204851023
 40
0.6758484900384673
 40
0.6778670612758457
 40
0.6798863700674767
 40
0.6819067436050121
 40
0.6839285085631661
 40
0.6859519909427522
 40
0.6879775159153455
 40
0.6900054076699348
 40
0.6938846512587706
 40
0.6977574170289241
 40
0.701625997379216
 40
0.705492692152546
 40
0.7093598045559765
 40
0.7124000718003242
 40
0.7154431332182981
 40
0.7184901006284405
 40
0.7215034607168628
 40
0.7243776503864845
 40
0.7286486966704704
 40
0.7329153650354938
 40
0.7371807415707697
 40
0.7414479151683301
 40
0.7457199708221338
 40
0.749999982969327
 40
0.7536584423640232
 40
0.7573115319756304
 40
0.7609611764228703
 40
0.7646093057770948
 40
0.7682578525140956
 40
0.7711261433071284
 40
0.77399681995221
 40
0.7768708156659346
 40
0.7797861382593785
 40
0.7828337373822958
 40
0.7866376237903547
 40
0.7904373371857304
 40
0.7942350560760144
 40
0.798032962400989
 40
0.799738817758286
 40
0.8014453479422672
 40
0.8031527499586335
 40
0.8048612205114901
 40
0.8065709559361379
 40
0.8082821521325003
 40
0.8099950044992935
 40
0.8136041855985453
 40
0.8172072685082808
 40
0.8208060962076492
 40
0.8244025182175287
 40
0.827998387770868
 40
0.8308245573305999
 40
0.8336524290473902
 40
0.8364828998798901
 40
0.8393168643188675
 40
0.8421552135521166
 40
0.84626903546111
 40
0.8503750313622306
 40
0.8544759323552213
 40
0.8585744797249364
 40
0.8626734194783937
 40
0.866775496834605
 40
0.8708834507222959
 40
0.8750000083404571
 40
0.8786864242189977
 40
0.8823663297077208
 40
0.8860416879359366
 40
0.889714469324598
 40
0.893386648442708
 40
0.8962728212130676
 40
0.8991607992053794
 40
0.9020515380423131
 40
0.9049459906120053
 40
0.9078451061406805
 40
0.9114542875881866
 40
0.9150573706929505
 40
0.9186561984780415
 40
0.9222526205085803
 40
0.9258484900619487
 40
0.9278670612993717
 40
0.9298863700910779
 40
0.9319067436287195
 40
0.9339285085870104
 40
0.9359519909667636
 40
0.9379775159395551
 40
0.9400054076943731
 40
0.9438846512835158
 40
0.9477574170538878
 40
0.95162599740431
 40
0.9554926921776822
 40
0.959359804581068
 40
0.9624000718253201
 40
0.9654431332431456
 40
0.9684901006530872
 40
0.9715035915949286
 40
0.9743783089987766
 40
0.9786499159915308
 40
0.982916876517045
 40
0.9871822773494321
 40
0.9914492086477357
 40
0.9957207572494533
 40
1.0
 40
1.0
 40
1.0
 40
1.0
 10
412.0000000000003
 20
346.2189624640308
 30
0.0
 10
411.8953900475953
 20
346.2189484091931
 30
0.0
 10
411.6863291338565
 20
346.2189203208789
 30
0.0
 10
411.3730852589172
 20
346.2186926097802
 30
0.0
 10
411.0604823355839
 20
346.218328957384
 30
0.0
 10
410.7485210576872
 20
346.2178160997566
 30
0.0
 10
410.4594536150047
 20
346.2172046605644
 30
0.0
 10
410.1931432332895
 20
346.2165281395609
 30
0.0
 10
409.9494053965462
 20
346.2158176330795
 30
0.0
 10
409.705013821212
 20
346.2150132833003
 30
0.0
 10
409.4563864624369
 20
346.2141006302788
 30
0.0
 10
409.1825464174094
 20
346.2129878572127
 30
0.0
 10
408.8852306066434
 20
346.2116436321694
 30
0.0
 10
408.5687553710362
 20
346.210049790696
 30
0.0
 10
408.2544086554668
 20
346.2083025735207
 30
0.0
 10
407.9995688756816
 20
346.2067512626246
 30
0.0
 10
407.8030934206448
 20
346.2054790612361
 30
0.0
 10
407.6640659521677
 20
346.2045451628424
 30
0.0
 10
407.5254675208589
 20
346.2035803615779
 30
0.0
 10
407.387297852896
 20
346.2025846558589
 30
0.0
 10
407.2495570709093
 20
346.201558047406
 30
0.0
 10
407.1122449884215
 20
346.2005005312769
 30
0.0
 10
406.9248983940364
 20
346.1990108690268
 30
0.0
 10
406.688705540544
 20
346.1970402697158
 30
0.0
 10
406.4053208589634
 20
346.1945220306348
 30
0.0
 10
406.1251343558143
 20
346.1918765921016
 30
0.0
 10
405.8481477644975
 20
346.1891039619989
 30
0.0
 10
405.5939241459095
 20
346.1864113430266
 30
0.0
 10
405.3617302097771
 20
346.1838288071934
 30
0.0
 10
405.1508519555317
 20
346.1813828798283
 30
0.0
 10
404.9419490240336
 20
346.1788584526985
 30
0.0
 10
404.7350210728411
 20
346.1762555113968
 30
0.0
 10
404.4994989378206
 20
346.1731741593944
 30
0.0
 10
404.2370963258506
 20
346.1695754577061
 30
0.0
 10
403.9498947941107
 20
346.1654135846525
 30
0.0
 10
403.6684067823963
 20
346.1611070607523
 30
0.0
 10
403.392633807227
 20
346.156655890045
 30
0.0
 10
403.1225760037992
 20
346.1520600779779
 30
0.0
 10
402.8582335868865
 20
346.1473196333292
 30
0.0
 10
402.5996076459104
 20
346.1424345547142
 30
0.0
 10
402.3557341692301
 20
346.1375846351563
 30
0.0
 10
402.1262576616696
 20
346.1327941589829
 30
0.0
 10
401.9108647165836
 20
346.1280850819468
 30
0.0
 10
401.701127279477
 20
346.123281544691
 30
0.0
 10
401.4970461722783
 20
346.1183835435261
 30
0.0
 10
401.312799907573
 20
346.113747818532
 30
0.0
 10
401.1470736441397
 20
346.1093969085042
 30
0.0
 10
400.9986426326254
 20
346.1053501029268
 30
0.0
 10
400.8537029986697
 20
346.1012450037991
 30
0.0
 10
400.7122549517304
 20
346.0970815963213
 30
0.0
 10
400.563124233215
 20
346.0925180224898
 30
0.0
 10
400.4076492200364
 20
346.0875451237983
 30
0.0
 10
400.2473456837782
 20
346.0821528408333
 30
0.0
 10
400.0932505503052
 20
346.0766943008468
 30
0.0
 10
399.9453652157002
 20
346.0711695226698
 30
0.0
 10
399.8244168430183
 20
346.0663964746616
 30
0.0
 10
399.7276362038287
 20
346.0624053338053
 30
0.0
 10
399.6528124502319
 20
346.0592181909673
 30
0.0
 10
399.5799439531395
 20
346.0560101949486
 30
0.0
 10
399.509030588667
 20
346.0527813402188
 30
0.0
 10
399.4400723262684
 20
346.0495316310185
 30
0.0
 10
399.3730694318755
 20
346.0462610575229
 30
0.0
 10
399.2882554671408
 20
346.0419695431098
 30
0.0
 10
399.1884683187746
 20
346.0366399002857
 30
0.0
 10
399.0774798229882
 20
346.0302502921069
 30
0.0
 10
398.974264848786
 20
346.023814343058
 30
0.0
 10
398.8788248666079
 20
346.0173320874451
 30
0.0
 10
398.7974265835549
 20
346.011270227962
 30
0.0
 10
398.728247132118
 20
346.005639950723
 30
0.0
 10
398.6696259014923
 20
346.0004498805641
 30
0.0
 10
398.6160321076332
 20
345.995253282131
 30
0.0
 10
398.5681659457656
 20
345.9901337077572
 30
0.0
 10
398.5189887864538
 20
345.9842933879391
 30
0.0
 10
398.4709598431273
 20
345.9777083931882
 30
0.0
 10
398.4268272724263
 20
345.9702938276933
 30
0.0
 10
398.3925016414445
 20
345.9628599421801
 30
0.0
 10
398.3679827031203
 20
345.9554067697526
 30
0.0
 10
398.3532714632593
 20
345.9479343248397
 30
0.0
 10
398.3486057735972
 20
345.9408115805943
 30
0.0
 10
398.3523732274078
 20
345.9340499845159
 30
0.0
 10
398.3631219309427
 20
345.927659416598
 30
0.0
 10
398.38104836136
 20
345.9212815952403
 30
0.0
 10
398.4061533182987
 20
345.9149165271443
 30
0.0
 10
398.4361289775988
 20
345.9090182924231
 30
0.0
 10
398.4692874505355
 20
345.9035841423584
 30
0.0
 10
398.5041152496857
 20
345.8986103548604
 30
0.0
 10
398.5435432074706
 20
345.8936230992691
 30
0.0
 10
398.5882770482879
 20
345.8885496094092
 30
0.0
 10
398.6428166697811
 20
345.8829619463065
 30
0.0
 10
398.7086974422201
 20
345.8768955399883
 30
0.0
 10
398.7868119277668
 20
345.8704382062544
 30
0.0
 10
398.8724433985727
 20
345.8640243027035
 30
0.0
 10
398.948473459973
 20
345.8588245735817
 30
0.0
 10
399.0108243083635
 20
345.854815705164
 30
0.0
 10
399.0565948582192
 20
345.8519790005614
 30
0.0
 10
399.1038799640554
 20
345.8491510499969
 30
0.0
 10
399.1526797034817
 20
345.846331847883
 30
0.0
 10
399.2029939921672
 20
345.8435213967221
 30
0.0
 10
399.2548230723366
 20
345.8407196927092
 30
0.0
 10
399.3278317216406
 20
345.8368970887852
 30
0.0
 10
399.4244111939396
 20
345.8320778299583
 30
0.0
 10
399.5478306025512
 20
345.8262956730979
 30
0.0
 10
399.6774840821326
 20
345.8205787715975
 30
0.0
 10
399.8133712463562
 20
345.8149271608251
 30
0.0
 10
399.9453370488329
 20
345.8097400038058
 30
0.0
 10
400.0719076543064
 20
345.8050023385475
 30
0.0
 10
400.1917830510313
 20
345.8006995966434
 30
0.0
 10
400.3155057371524
 20
345.7964371590562
 30
0.0
 10
400.4430764187751
 20
345.7922150187987
 30
0.0
 10
400.5940941059663
 20
345.7874094452544
 30
0.0
 10
400.7704672062962
 20
345.7820554047523
 30
0.0
 10
400.9744414495734
 20
345.7761953692073
 30
0.0
 10
401.1855050602081
 20
345.7704519118374
 30
0.0
 10
401.4036578402266
 20
345.7648250635854
 30
0.0
 10
401.6288995226608
 20
345.7593148272098
 30
0.0
 10
401.8612296772772
 20
345.753921207093
 30
0.0
 10
402.1006483719555
 20
345.7486442254632
 30
0.0
 10
402.3383439140999
 20
345.7436682518561
 30
0.0
 10
402.5731261239048
 20
345.7389860327784
 30
0.0
 10
402.8039189454653
 20
345.7345911735076
 30
0.0
 10
403.0393412815631
 20
345.730311708739
 30
0.0
 10
403.2793933130272
 20
345.726147655243
 30
0.0
 10
403.5065911361095
 20
345.7223883101809
 30
0.0
 10
403.7198301198786
 20
345.7190068456442
 30
0.0
 10
403.9181648827853
 20
345.7159782719517
 30
0.0
 10
404.1193566244326
 20
345.7130209360291
 30
0.0
 10
404.3234060701525
 20
345.71013484215
 30
0.0
 10
404.5470677501187
 20
345.7070919916954
 30
0.0
 10
404.79079052458
 20
345.7039196927939
 30
0.0
 10
405.0550674074383
 20
345.7006488731194
 30
0.0
 10
405.3225915603564
 20
345.6975047291656
 30
0.0
 10
405.5933620604359
 20
345.6944872894182
 30
0.0
 10
405.827290112324
 20
345.6920194691432
 30
0.0
 10
406.0228967359501
 20
345.6900447652401
 30
0.0
 10
406.1790992534716
 20
345.6885180677569
 30
0.0
 10
406.3363237896156
 20
345.6870312651607
 30
0.0
 10
406.4945706154199
 20
345.6855843549236
 30
0.0
 10
406.6538395230556
 20
345.6841773364224
 30
0.0
 10
406.8141309940298
 20
345.6828102150832
 30
0.0
 10
407.0244589866617
 20
345.6810796781846
 30
0.0
 10
407.2856658634797
 20
345.6790436297248
 30
0.0
 10
407.5988218575318
 20
345.6767790299281
 30
0.0
 10
407.9142490270266
 20
345.6746730404024
 30
0.0
 10
408.2319456906189
 20
345.6727256911504
 30
0.0
 10
408.5290386545297
 20
345.6710648475292
 30
0.0
 10
408.8049796850411
 20
345.6696533159056
 30
0.0
 10
409.0593460771773
 20
345.6684572133184
 30
0.0
 10
409.3140324213574
 20
345.667363690122
 30
0.0
 10
409.5649438007607
 20
345.6663870330399
 30
0.0
 10
409.8511790607204
 20
345.6653836264779
 30
0.0
 10
410.1739109903203
 20
345.6644036480168
 30
0.0
 10
410.5373003505007
 20
345.6635031708103
 30
0.0
 10
410.9016365886952
 20
345.6628027935649
 30
0.0
 10
411.2669180824763
 20
345.6623025112397
 30
0.0
 10
411.6331441246775
 20
345.662002344357
 30
0.0
 10
411.9822312661581
 20
345.6619071460234
 30
0.0
 10
412.3136184626557
 20
345.6619840168296
 30
0.0
 10
412.6268214936874
 20
345.6622033324593
 30
0.0
 10
412.9393998132197
 20
345.6625691018158
 30
0.0
 10
413.2513530928029
 20
345.6630813412148
 30
0.0
 10
413.5404267739283
 20
345.6636929620092
 30
0.0
 10
413.8067555718199
 20
345.6643695246614
 30
0.0
 10
414.050521906865
 20
345.6650801481031
 30
0.0
 10
414.2949483158916
 20
345.665884632789
 30
0.0
 10
414.5436010839131
 20
345.6667973782595
 30
0.0
 10
414.8174535869363
 20
345.6679102000421
 30
0.0
 10
415.1147693921381
 20
345.6692544257007
 30
0.0
 10
415.4312446293579
 20
345.6708482669977
 30
0.0
 10
415.7455913445003
 20
345.6725954842206
 30
0.0
 10
416.0004311243879
 20
345.6741467951053
 30
0.0
 10
416.1969065794084
 20
345.6754189964951
 30
0.0
 10
416.3359340478825
 20
345.6763528948886
 30
0.0
 10
416.4745324791839
 20
345.677317696153
 30
0.0
 10
416.6127021471385
 20
345.678313401872
 30
0.0
 10
416.7504429291153
 20
345.6793400103248
 30
0.0
 10
416.8877550115917
 20
345.6803975264539
 30
0.0
 10
417.0751016059734
 20
345.6818871887041
 30
0.0
 10
417.3112944594697
 20
345.6838577880152
 30
0.0
 10
417.5946791410611
 20
345.6863760270965
 30
0.0
 10
417.8748656442173
 20
345.6890214656297
 30
0.0
 10
418.1518522355377
 20
345.6917940957325
 30
0.0
 10
418.406075854126
 20
345.6944867147048
 30
0.0
 10
418.6382697902558
 20
345.6970692505378
 30
0.0
 10
418.8491480444964
 20
345.699515177903
 30
0.0
 10
419.0580509759873
 20
345.7020396050327
 30
0.0
 10
419.2649789271705
 20
345.7046425463341
 30
0.0
 10
419.5005010621921
 20
345.7077238983366
 30
0.0
 10
419.7629036741726
 20
345.711322600025
 30
0.0
 10
420.0501052059303
 20
345.7154844730787
 30
0.0
 10
420.3315932176553
 20
345.7197909969791
 30
0.0
 10
420.6073661928282
 20
345.7242421676864
 30
0.0
 10
420.8774239962525
 20
345.7288379797535
 30
0.0
 10
421.1417664131548
 20
345.733578424402
 30
0.0
 10
421.4003923541135
 20
345.7384635030169
 30
0.0
 10
421.6442658307867
 20
345.7433134225748
 30
0.0
 10
421.8737423383521
 20
345.7481038987485
 30
0.0
 10
422.0891352834558
 20
345.7528129757852
 30
0.0
 10
422.2988727205741
 20
345.7576165130413
 30
0.0
 10
422.5029538277787
 20
345.7625145142064
 30
0.0
 10
422.6872000924846
 20
345.7671502392004
 30
0.0
 10
422.8529263559137
 20
345.7715011492282
 30
0.0
 10
423.0013573674201
 20
345.7755479548052
 30
0.0
 10
423.1462970013641
 20
345.7796530539326
 30
0.0
 10
423.2877450482881
 20
345.78381646141
 30
0.0
 10
423.4368757667996
 20
345.7883800352414
 30
0.0
 10
423.5923507799852
 20
345.7933529339331
 30
0.0
 10
423.7526543162608
 20
345.7987452168988
 30
0.0
 10
423.9067494497453
 20
345.8042037568856
 30
0.0
 10
424.054634784356
 20
345.8097285350628
 30
0.0
 10
424.1755831570388
 20
345.8145015830711
 30
0.0
 10
424.2723637962259
 20
345.8184927239273
 30
0.0
 10
424.3471875498183
 20
345.8216798667651
 30
0.0
 10
424.4200560469042
 20
345.8248878627837
 30
0.0
 10
424.4909694113687
 20
345.8281167175132
 30
0.0
 10
424.5599276737573
 20
345.8313664267132
 30
0.0
 10
424.6269305681385
 20
345.8346370002083
 30
0.0
 10
424.7117445328629
 20
345.8389285146213
 30
0.0
 10
424.8115316812215
 20
345.8442581574453
 30
0.0
 10
424.9225201770053
 20
345.8506477656243
 30
0.0
 10
425.0257351512057
 20
345.8570837146733
 30
0.0
 10
425.1211751333834
 20
345.8635659702863
 30
0.0
 10
425.202573416437
 20
345.8696278297693
 30
0.0
 10
425.2717528678753
 20
345.8752581070083
 30
0.0
 10
425.3303740985029
 20
345.880448177167
 30
0.0
 10
425.3839678923649
 20
345.8856447755999
 30
0.0
 10
425.4318340542372
 20
345.8907643499737
 30
0.0
 10
425.4810112135547
 20
345.8966046697919
 30
0.0
 10
425.5290401568865
 20
345.9031896645429
 30
0.0
 10
425.5731727275905
 20
345.9106042300378
 30
0.0
 10
425.6074983585727
 20
345.918038115551
 30
0.0
 10
425.6320172968943
 20
345.9254912879785
 30
0.0
 10
425.6467285367501
 20
345.9329637328913
 30
0.0
 10
425.6513942264039
 20
345.9400864771365
 30
0.0
 10
425.6476267725852
 20
345.9468480732147
 30
0.0
 10
425.6368780690453
 20
345.9532386411325
 30
0.0
 10
425.6189516386248
 20
345.9596164624901
 30
0.0
 10
425.5938466816851
 20
345.965981530586
 30
0.0
 10
425.563871022386
 20
345.9718797653073
 30
0.0
 10
425.5307125494517
 20
345.977313915372
 30
0.0
 10
425.4958847503052
 20
345.9822877028702
 30
0.0
 10
425.4564567925258
 20
345.9872749584615
 30
0.0
 10
425.4117229517208
 20
345.992348448321
 30
0.0
 10
425.3571833302427
 20
345.9979361114228
 30
0.0
 10
425.2913025578187
 20
346.00400251774
 30
0.0
 10
425.2131880722819
 20
346.0104598514733
 30
0.0
 10
425.1275566014796
 20
346.0168737550239
 30
0.0
 10
425.0515265400783
 20
346.0220734841458
 30
0.0
 10
424.9891756916841
 20
346.0260823525637
 30
0.0
 10
424.9434051418239
 20
346.0289190571666
 30
0.0
 10
424.8961200359817
 20
346.0317470077316
 30
0.0
 10
424.847320296548
 20
346.0345662098459
 30
0.0
 10
424.797006007854
 20
346.0373766610074
 30
0.0
 10
424.7451769276745
 20
346.0401783650208
 30
0.0
 10
424.6721682783673
 20
346.0440009689453
 30
0.0
 10
424.5755888060709
 20
346.0488202277724
 30
0.0
 10
424.4521693974666
 20
346.0546023846325
 30
0.0
 10
424.3225159178901
 20
346.0603192861328
 30
0.0
 10
424.186628753669
 20
346.0659708969052
 30
0.0
 10
424.0546629511923
 20
346.0711580539245
 30
0.0
 10
423.928092345717
 20
346.0758957191828
 30
0.0
 10
423.8082169489886
 20
346.080198461087
 30
0.0
 10
423.6844942628625
 20
346.0844608986743
 30
0.0
 10
423.5569235812334
 20
346.088683038932
 30
0.0
 10
423.4059058940335
 20
346.0934886124764
 30
0.0
 10
423.2295327936946
 20
346.0988426529788
 30
0.0
 10
423.0255585504102
 20
346.1047026885238
 30
0.0
 10
422.814494939771
 20
346.1104461458939
 30
0.0
 10
422.5963421597511
 20
346.116072994146
 30
0.0
 10
422.3711004773184
 20
346.1215832305214
 30
0.0
 10
422.1387703227065
 20
346.1269768506381
 30
0.0
 10
421.8993516280357
 20
346.1322538322677
 30
0.0
 10
421.6616560859013
 20
346.1372298058747
 30
0.0
 10
421.4268738761068
 20
346.1419120249522
 30
0.0
 10
421.1960810545552
 20
346.1463068842228
 30
0.0
 10
420.9606587184633
 20
346.1505863489913
 30
0.0
 10
420.7206066870021
 20
346.1547504024871
 30
0.0
 10
420.49340886392
 20
346.1585097475494
 30
0.0
 10
420.2801698801489
 20
346.1618912120861
 30
0.0
 10
420.081835117238
 20
346.1649197857786
 30
0.0
 10
419.8806433755848
 20
346.1678771217014
 30
0.0
 10
419.676593929857
 20
346.1707632155807
 30
0.0
 10
419.4529322498933
 20
346.1738060660352
 30
0.0
 10
419.2092094754431
 20
346.1769783649366
 30
0.0
 10
418.9449325926026
 20
346.180249184611
 30
0.0
 10
418.6774084396965
 20
346.1833933285646
 30
0.0
 10
418.4066379396228
 20
346.186410768312
 30
0.0
 10
418.1727098877357
 20
346.188878588587
 30
0.0
 10
417.977103264107
 20
346.1908532924901
 30
0.0
 10
417.8209007465808
 20
346.1923799899733
 30
0.0
 10
417.6636762104301
 20
346.1938667925697
 30
0.0
 10
417.5054293846173
 20
346.1953137028069
 30
0.0
 10
417.3461604769711
 20
346.1967207213081
 30
0.0
 10
417.1858690059845
 20
346.1980878426475
 30
0.0
 10
416.9755410133412
 20
346.1998183795462
 30
0.0
 10
416.7143341365121
 20
346.201854428006
 30
0.0
 10
416.4011781424612
 20
346.2041190278034
 30
0.0
 10
416.0857509729363
 20
346.2062250173273
 30
0.0
 10
415.7680543094415
 20
346.2081723665857
 30
0.0
 10
415.4709613451898
 20
346.2098332101846
 30
0.0
 10
415.1950203156991
 20
346.2112447418746
 30
0.0
 10
414.9406539199716
 20
346.2124408442272
 30
0.0
 10
414.6859639283099
 20
346.2135343840175
 30
0.0
 10
414.4350339842322
 20
346.2145111078214
 30
0.0
 10
414.1487644968794
 20
346.2155146393993
 30
0.0
 10
413.8259937944725
 20
346.2164948275586
 30
0.0
 10
413.462579760796
 20
346.2173951865973
 30
0.0
 10
413.0982414184451
 20
346.2180963869191
 30
0.0
 10
412.7329805210327
 20
346.2185935778824
 30
0.0
 10
412.366797277227
 20
346.2189048777302
 30
0.0
 10
412.122339081636
 20
346.2189432570859
 30
0.0
 10
412.0000000000003
 20
346.2189624640308
 30
0.0
  0
ARC
  5
80
330
1F
100
AcDbEntity
  8
0
  6
Continuous
 62
     7
370
    30
100
AcDbCircle
 10
415.0188566965
 20
180.1813235487
 30
0.0
 40
166.1415827552956
100
AcDbArc
 50
86.7338174498
 51
91.041143729
  0
ARC
  5
81
330
1F
100
AcDbEntity
  8
0
  6
Continuous
 62
     7
370
    30
100
AcDbCircle
 10
409.0884395181
 20
174.6308644789
 30
0.0
 40
171.6893020135404
100
AcDbArc
 50
89.028313807
 51
93.196363119
  0
LWPOLYLINE
  5
82
330
1F
100
AcDbEntity
  8
0
  6
Continuous
 62
     7
370
    30
100
AcDbPolyline
 90
       10
 70
   128
 43
0.0
 10
412.0
 20
346.1852960048
 10
411.6727881462
 20
346.1853834037
 10
411.345800547
 20
346.1856455405
 10
411.0192613034
 20
346.1860822355
 10
410.6933942092
 20
346.1866931895
 10
410.3684225972
 20
346.1874779838
 10
410.044569187
 20
346.1884360804
 10
409.7220559313
 20
346.1895668228
 10
409.4011038648
 20
346.1908694359
 10
409.2779008086
 20
346.191417032
  0
ARC
  5
83
330
1F
100
AcDbEntity
  8
0
  6
Continuous
 62
     7
370
    30
100
AcDbCircle
 10
410.0641198018
 20
703.8287361104
 30
0.0
 40
357.6354878075105
100
AcDbArc
 50
268.9141987836
 51
269.578837786
  0
ARC
  5
84
330
1F
100
AcDbEntity
  8
0
  6
Continuous
 62
     7
370
    30
100
AcDbCircle
 10
413.9355837737
 20
703.8468987887
 30
0.0
 40
357.653652841632
100
AcDbArc
 50
270.421024511
 51
271.085793558
  0
LWPOLYLINE
  5
85
330
1F
100
AcDbEntity
  8
0
  6
Continuous
 62
     7
370
    30
100
AcDbPolyline
 90
       10
 70
   128
 43
0.0
 10
414.7247774814
 20
346.1914292314
 10
414.5988961352
 20
346.1908694359
 10
414.2779440687
 20
346.1895668228
 10
413.955430813
 20
346.1884360804
 10
413.6315774028
 20
346.1874779838
 10
413.3066057908
 20
346.1866931895
 10
412.9807386966
 20
346.1860822355
 10
412.654199453
 20
346.1856455405
 10
412.3272118538
 20
346.1853834037
 10
412.0
 20
346.1852960048
  0
LINE
  5
86
330
1F
100
AcDbEntity
  8
0
  6
Continuous
 62
     7
370
    30
100
AcDbLine
 10
410.85
 20
346.2893559696
 30
0.0
 11
410.85
 21
346.2943954833
 31
0.0
  0
LINE
  5
87
330
1F
100
AcDbEntity
  8
0
  6
Continuous
 62
     7
370
    30
100
AcDbLine
 10
410.85
 20
346.2893559696
 30
0.0
 11
413.15
 21
346.2893559696
 31
0.0
  0
LINE
  5
88
330
1F
100
AcDbEntity
  8
0
  6
Continuous
 62
     7
370
    30
100
AcDbLine
 10
413.15
 20
346.2943954833
 30
0.0
 11
413.15
 21
346.2893559696
 31
0.0
  0
SPLINE
  5
89
330
1F
100
AcDbEntity
  8
0
  6
Continuous
 62
     7
370
    30
100
AcDbSpline
210
0.0
220
0.0
230
1.0
 70
     8
 71
     3
 72
    44
 73
    40
 74
     0
 42
0.000000001
 43
0.00000001
 40
0.0
 40
0.0
 40
0.0
 40
0.0
 40
0.0133083313769177
 40
0.0447206297541288
 40
0.0760839627926923
 40
0.1074158474686511
 40
0.1387338535277573
 40
0.1700555740711723
 40
0.1946797805979684
 40
0.2193256540606701
 40
0.2440016882978855
 40
0.2684209048916701
 40
0.2917755790941088
 40
0.3264835284412754
 40
0.3611582258802775
 40
0.3958234901836443
 40
0.4305031595605756
 40
0.4652210425475812
 40
0.500000869203856
 40
0.5371524319674778
 40
0.5742456442656825
 40
0.6113095567945633
 40
0.6483732891460975
 40
0.6716839221788851
 40
0.6950132103999703
 40
0.7183683568277509
 40
0.7420388872269569
 40
0.7667171120634065
 40
0.7975224724835049
 40
0.828296462775336
 40
0.8590557249459702
 40
0.8898169249065099
 40
0.905936566703358
 40
0.9220637043731382
 40
0.9382007266516277
 40
0.9543500178883272
 40
0.9705139570033484
 40
0.9866949164562157
 40
1.0
 40
1.0
 40
1.0
 40
1.0
 10
416.5620851920872
 20
346.3050648076487
 30
0.0
 10
416.5235190468956
 20
346.3047548812774
 30
0.0
 10
416.3939233634611
 20
346.3037134206986
 30
0.0
 10
416.1715868685301
 20
346.3020390322213
 30
0.0
 10
415.8944532227628
 20
346.3000907151968
 30
0.0
 10
415.6153659094834
 20
346.2982813328839
 30
0.0
 10
415.3343938380644
 20
346.296607417167
 30
0.0
 10
415.0717401079789
 20
346.2951798108016
 30
0.0
 10
414.8278676005439
 20
346.2939663309549
 30
0.0
 10
414.6031286668103
 20
346.2929379578072
 30
0.0
 10
414.3781193937717
 20
346.2919974398036
 30
0.0
 10
414.1562554299718
 20
346.2911563857893
 30
0.0
 10
413.902875035133
 20
346.2902911484218
 30
0.0
 10
413.6169954423469
 20
346.2894454637378
 30
0.0
 10
413.2951435881595
 20
346.2886683925286
 30
0.0
 10
412.9724904819061
 20
346.2880639923804
 30
0.0
 10
412.649037629732
 20
346.2876322574587
 30
0.0
 10
412.3247849818997
 20
346.2873732101461
 30
0.0
 10
411.9926133768249
 20
346.2872848716891
 30
0.0
 10
411.6530407714064
 20
346.2873809046009
 30
0.0
 10
411.3066239308471
 20
346.2876767292052
 30
0.0
 10
410.9610230217507
 20
346.2881700870135
 30
0.0
 10
410.6589590634001
 20
346.2887753996008
 30
0.0
 10
410.4001464186726
 20
346.2894159809391
 30
0.0
 10
410.1842145592526
 20
346.2900292369047
 30
0.0
 10
409.9677368731423
 20
346.2907233084491
 30
0.0
 10
409.7477526609733
 20
346.2915098293786
 30
0.0
 10
409.5057200849573
 20
346.2924675178725
 30
0.0
 10
409.243081482583
 20
346.2936232408322
 30
0.0
 10
408.9634129932205
 20
346.294993408396
 30
0.0
 10
408.6855165561563
 20
346.2964952951021
 30
0.0
 10
408.4532467269154
 20
346.2978694371555
 30
0.0
 10
408.2657639977286
 20
346.2990525332437
 30
0.0
 10
408.1223470106725
 20
346.2999966782028
 30
0.0
 10
407.9794207147493
 20
346.3009771807414
 30
0.0
 10
407.8369634942634
 20
346.3019929370544
 30
0.0
 10
407.6950552907795
 20
346.303048077354
 30
0.0
 10
407.5618461153046
 20
346.3040628050147
 30
0.0
 10
407.4766528253604
 20
346.3047626331639
 30
0.0
 10
407.4382107787213
 20
346.3050784189067
 30
0.0
  0
CIRCLE
  5
8A
330
1F
100
AcDbEntity
  8
0
  6
Continuous
 62
     7
370
    30
100
AcDbCircle
 10
412.0
 20
367.5859418982
 30
0.0
 40
35.50000000001035
  0
CIRCLE
  5
8B
330
1F
100
AcDbEntity
  8
0
  6
Continuous
 62
     7
370
    30
100
AcDbCircle
 10
412.0
 20
367.5859418982
 30
0.0
 40
35.50899815166912
  0
SPLINE
  5
8C
330
1F
100
AcDbEntity
  8
0
  6
Continuous
 62
     7
370
    30
100
AcDbSpline
210
0.0
220
0.0
230
1.0
 70
     8
 71
     3
 72
    28
 73
    24
 74
     0
 42
0.000000001
 43
0.00000001
 40
0.0
 40
0.0
 40
0.0
 40
0.0
 40
0.1249999999999997
 40
0.1249999999999997
 40
0.2499999999999994
 40
0.2499999999999994
 40
0.3124999999999993
 40
0.3124999999999993
 40
0.3749999999999992
 40
0.3749999999999992
 40
0.437499999999999
 40
0.437499999999999
 40
0.4999999999999989
 40
0.4999999999999989
 40
0.5624999999999988
 40
0.5624999999999988
 40
0.6249999999999987
 40
0.6249999999999987
 40
0.7499999999999991
 40
0.7499999999999991
 40
0.8749999999999996
 40
0.8749999999999996
 40
1.0
 40
1.0
 40
1.0
 40
1.0
 10
410.2499848168709
 20
330.3770727010116
 30
0.0
 10
410.326440104182
 20
330.4658884378624
 30
0.0
 10
410.4184150577317
 20
330.5492144856358
 30
0.0
 10
410.6384061722848
 20
330.7036536749972
 30
0.0
 10
410.7686333713598
 20
330.7758114308022
 30
0.0
 10
410.9923193302333
 20
330.8681175876025
 30
0.0
 10
411.0710788025638
 20
330.8960805888673
 30
0.0
 10
411.2380280286164
 20
330.9457997903091
 30
0.0
 10
411.3271921549093
 20
330.967705954674
 30
0.0
 10
411.5097275332392
 20
331.0029880052198
 30
0.0
 10
411.6033988596482
 20
331.0165553068145
 30
0.0
 10
411.7958441397303
 20
331.0351019096094
 30
0.0
 10
411.8959260832934
 20
331.0400509416171
 30
0.0
 10
412.0939659174
 20
331.0403681298115
 30
0.0
 10
412.1919287803647
 20
331.0358920869061
 30
0.0
 10
412.3858065074544
 20
331.0179402792696
 30
0.0
 10
412.4822244841114
 20
331.0042773559614
 30
0.0
 10
412.7572366052656
 20
330.9518872960256
 30
0.0
 10
412.9276646281473
 20
330.9006763194546
 30
0.0
 10
413.2257001116633
 20
330.7785935371398
 30
0.0
 10
413.3567704405073
 20
330.7066992547507
 30
0.0
 10
413.5806633919108
 20
330.5501933564335
 30
0.0
 10
413.6733340621106
 20
330.4661507818784
 30
0.0
 10
413.7500151831288
 20
330.3770727010116
 30
0.0
  0
ARC
  5
8D
330
1F
100
AcDbEntity
  8
0
  6
Continuous
 62
     7
370
    30
100
AcDbCircle
 10
412.0
 20
367.5859418982
 30
0.0
 40
37.2499999995503
100
AcDbArc
 50
272.6927625613
 51
267.3072374388
  0
ARC
  5
8E
330
1F
100
AcDbEntity
  8
0
  6
Continuous
 62
     7
370
    30
100
AcDbCircle
 10
412.0
 20
367.5859418982
 30
0.0
 40
25.17676603415332
100
AcDbArc
 50
0.0
 51
236.89750424
  0
LWPOLYLINE
  5
8F
330
1F
100
AcDbEntity
  8
0
  6
Continuous
 62
     7
370
    30
100
AcDbPolyline
 90
        3
 70
   128
 43
0.0
 10
398.840974803
 20
346.1217949596
 10
398.845175883
 20
346.1192199689
 10
399.0013116415
 20
346.0243174488
  0
ARC
  5
90
330
1F
100
AcDbEntity
  8
0
  6
Continuous
 62
     7
370
    30
100
AcDbCircle
 10
412.0
 20
367.5859418982
 30
0.0
 40
25.17676603415331
100
AcDbArc
 50
239.7525586026
 51
300.2450015228
  0
LWPOLYLINE
  5
91
330
1F
100
AcDbEntity
  8
0
  6
Continuous
 62
     7
370
    30
100
AcDbPolyline
 90
        3
 70
   128
 43
0.0
 10
424.9995579723
 20
346.02484173
 10
425.154824117
 20
346.1192199689
 10
425.159025197
 20
346.1217949596
  0
ARC
  5
92
330
1F
100
AcDbEntity
  8
0
  6
Continuous
 62
     7
370
    30
100
AcDbCircle
 10
412.0
 20
367.5859418982
 30
0.0
 40
25.17676603415328
100
AcDbArc
 50
303.10249576
 51
0.0
  0
SPLINE
  5
93
330
1F
100
AcDbEntity
  8
0
  6
Continuous
 62
   252
370
     0
100
AcDbSpline
210
0.0
220
0.0
230
1.0
 70
    11
 71
     3
 72
   463
 73
   459
 74
     0
 42
0.000000001
 43
0.00000001
 40
0.0
 40
0.0
 40
0.0
 40
0.0
 40
0.0026146027549992
 40
0.0052260325071271
 40
0.0078349888576438
 40
0.0104421733989176
 40
0.0130482891542835
 40
0.0156540400121416
 40
0.0182601301565619
 40
0.0200523903846275
 40
0.0218453722192833
 40
0.0236393039096033
 40
0.0254344133423371
 40
0.0272309279560471
 40
0.0290290746560929
 40
0.0309299005992576
 40
0.0328344473500167
 40
0.0353713305454413
 40
0.0379059449132457
 40
0.0404389348344677
 40
0.0429709459303802
 40
0.0455026245711075
 40
0.0480346173813829
 40
0.0502635495934518
 40
0.0524936657013239
 40
0.0547254050423911
 40
0.0554773567614145
 40
0.0562295589615629
 40
0.0569820283353921
 40
0.057734781557684
 40
0.0584878352843647
 40
0.0592412061514292
 40
0.0599949107738724
 40
0.0625741042256772
 40
0.0651498312919219
 40
0.067722761992167
 40
0.0702935685323927
 40
0.0728629247857754
 40
0.07543150576695
 40
0.0779999871017922
 40
0.0806375652625198
 40
0.0832764813235653
 40
0.0859174648849067
 40
0.0871634362314727
 40
0.0884101049504993
 40
0.0896575470093622
 40
0.0909058382342476
 40
0.092155054296711
 40
0.0947894744192908
 40
0.0974201986467142
 40
0.1000479406078731
 40
0.1026734163634841
 40
0.1052973438295835
 40
0.1079204421934622
 40
0.1105434313243963
 40
0.1134294455389172
 40
0.1163171562558361
 40
0.1192075193180474
 40
0.1221014879403339
 40
0.1250000117802838
 40
0.1276344319454508
 40
0.1302651562019705
 40
0.1328928981812782
 40
0.1355183739466515
 40
0.1381423014167012
 40
0.1407653997813021
 40
0.1433883889123193
 40
0.1451920155915307
 40
0.1469961647762189
 40
0.1488010700990595
 40
0.150606964899258
 40
0.1524140821327293
 40
0.154222654283016
 40
0.1560329132731153
 40
0.1578450903783777
 40
0.1604242839476466
 40
0.1630000110941472
 40
0.1655729418444565
 40
0.1681437484116175
 40
0.170713104675905
 40
0.173281685659077
 40
0.1758501669941459
 40
0.1784877451607403
 40
0.181126661241026
 40
0.1837676448426732
 40
0.1846575576702532
 40
0.1855478152187204
 40
0.1864384451940121
 40
0.1873294752673249
 40
0.1882209330725974
 40
0.1891128462040115
 40
0.1900052422135111
 40
0.1927774528508773
 40
0.1955459161962169
 40
0.1983114657101949
 40
0.201074937489904
 40
0.2038371695191595
 40
0.2065990009102572
 40
0.2093612711406059
 40
0.2112610352159686
 40
0.2131616756862005
 40
0.2150634645422065
 40
0.2169666732825382
 40
0.2188715727986343
 40
0.2207784332613509
 40
0.2225819673494406
 40
0.2243782287183255
 40
0.2272494737672877
 40
0.2301181510863166
 40
0.2329851958038113
 40
0.2358515446460495
 40
0.23871813502149
 40
0.2415346795336322
 40
0.244353247810845
 40
0.247174724724303
 40
0.2499999924122354
 40
0.2526143746316133
 40
0.2552256267697734
 40
0.257834448702254
 40
0.2604415422617639
 40
0.2630476106774014
 40
0.2656533580082506
 40
0.2682594885736236
 40
0.2700518021385934
 40
0.2718448581524322
 40
0.2736388848787961
 40
0.275434110211062
 40
0.2772307615865007
 40
0.2790290659013147
 40
0.2809299006016368
 40
0.2828344473524469
 40
0.2853713305479278
 40
0.2879059449157749
 40
0.290438934837026
 40
0.292970945932954
 40
0.2955026245736831
 40
0.2980346173839464
 40
0.3002635495959934
 40
0.3024936657038328
 40
0.3047254050448566
 40
0.3054773567638631
 40
0.3062295589639933
 40
0.3069820283378031
 40
0.3077347815600744
 40
0.3084878352867332
 40
0.3092412061537747
 40
0.3099949107761935
 40
0.312574104228011
 40
0.3151498312942662
 40
0.3177227619945195
 40
0.3202935685347513
 40
0.3228629247881378
 40
0.3254315057693141
 40
0.3279999871041556
 40
0.3306375652648804
 40
0.3332764813259207
 40
0.3359174648872545
 40
0.3371634362338163
 40
0.338410104952838
 40
0.3396575470116955
 40
0.3409058382365751
 40
0.3421550542990321
 40
0.3447894744215909
 40
0.3474201986489971
 40
0.3500479406101424
 40
0.3526734163657435
 40
0.3552973438318365
 40
0.3579204421957125
 40
0.3605434313266475
 40
0.3634294455411736
 40
0.3663171562581019
 40
0.3692075193203269
 40
0.3721014879426313
 40
0.3750000117826034
 40
0.3776344319477489
 40
0.3802651562042508
 40
0.3828928981835444
 40
0.3855183739489074
 40
0.3881423014189504
 40
0.3907653997835485
 40
0.3933883889145667
 40
0.395192015593781
 40
0.3969961647784738
 40
0.3988010701013209
 40
0.4006069649015277
 40
0.4024140821350092
 40
0.4042226542853078
 40
0.4060329132754209
 40
0.4078450903806988
 40
0.4104242839499653
 40
0.4130000110964639
 40
0.4155729418467716
 40
0.4181437484139315
 40
0.4207131046782183
 40
0.4232816856613901
 40
0.425850166996459
 40
0.428487745163054
 40
0.4311266612433405
 40
0.4337676448449891
 40
0.4346575576725696
 40
0.4355478152210373
 40
0.4364384451963297
 40
0.4373294752696431
 40
0.4382209330749163
 40
0.4391128462063312
 40
0.4400052422158316
 40
0.4427774528531476
 40
0.445545916198447
 40
0.4483114657123944
 40
0.4510749374920831
 40
0.4538371695213279
 40
0.4565990009124248
 40
0.4593612711427825
 40
0.4612610352181571
 40
0.4631616756884055
 40
0.4650634645444326
 40
0.4669666732847902
 40
0.4688715728009166
 40
0.4707784332636683
 40
0.4725819673517318
 40
0.4743782287205909
 40
0.4772494737695197
 40
0.4801181510885252
 40
0.4829851958060063
 40
0.4858515446482409
 40
0.4887181350236879
 40
0.4915346795358463
 40
0.494353247813085
 40
0.4971747247265785
 40
0.4999999924145562
 40
0.502614374633934
 40
0.5052256267720941
 40
0.5078344487045747
 40
0.5104415422640846
 40
0.513047610679722
 40
0.5156533580105713
 40
0.5182594885759444
 40
0.5200518021409141
 40
0.5218448581547529
 40
0.5236388848811168
 40
0.5254341102133825
 40
0.5272307615888212
 40
0.5290290659036351
 40
0.5309299006039626
 40
0.532834447354778
 40
0.5353713305502646
 40
0.5379059449181159
 40
0.54043893483937
 40
0.5429709459352995
 40
0.5455026245760287
 40
0.5480346173862908
 40
0.5502635495983356
 40
0.5524936657061718
 40
0.5547254050471915
 40
0.5554773567661963
 40
0.5562295589663248
 40
0.5569820283401327
 40
0.557734781562402
 40
0.5584878352890588
 40
0.559241206156098
 40
0.5599949107785145
 40
0.5625741042303392
 40
0.5651498312966002
 40
0.5677227619968583
 40
0.5702935685370937
 40
0.5728629247904824
 40
0.5754315057716597
 40
0.5779999871065007
 40
0.5806375652672239
 40
0.5832764813282613
 40
0.5859174648895907
 40
0.5871634362361499
 40
0.5884101049551688
 40
0.5896575470140231
 40
0.5909058382388992
 40
0.5921550543013526
 40
0.5947894744239385
 40
0.597420198651367
 40
0.6000479406125299
 40
0.602673416368144
 40
0.6052973438342453
 40
0.6079204421981248
 40
0.6105434313290584
 40
0.6134294455435778
 40
0.6163171562604939
 40
0.6192075193227011
 40
0.6221014879449822
 40
0.6250000117849251
 40
0.6276344319500996
 40
0.6302651562066255
 40
0.6328928981859381
 40
0.635518373951315
 40
0.638142301421367
 40
0.6407653997859689
 40
0.6433883889169855
 40
0.645192015596196
 40
0.6469961647808827
 40
0.6488010701037211
 40
0.650606964903917
 40
0.6524140821373849
 40
0.6542226542876678
 40
0.6560329132777626
 40
0.6578450903830199
 40
0.6604242839522666
 40
0.6630000110987488
 40
0.6655729418490437
 40
0.6681437484161942
 40
0.670713104680475
 40
0.6732816856636442
 40
0.6758501669987137
 40
0.6784877451653132
 40
0.6811266612456078
 40
0.6837676448472678
 40
0.6846575576748529
 40
0.6855478152233256
 40
0.6864384451986234
 40
0.6873294752719427
 40
0.688220933077222
 40
0.6891128462086435
 40
0.6900052422181512
 40
0.692777452855431
 40
0.6955459162007014
 40
0.6983114657146269
 40
0.7010749374943006
 40
0.7038371695235378
 40
0.7065990009146341
 40
0.7093612711449985
 40
0.7112610352203819
 40
0.7131616756906423
 40
0.7150634645466849
 40
0.7169666732870613
 40
0.7188715728032098
 40
0.7207784332659869
 40
0.7225819673539862
 40
0.7243782287227851
 40
0.7272494737716362
 40
0.7301181510905869
 40
0.7329851958080366
 40
0.7358515446502629
 40
0.7387181350257248
 40
0.7415346795379203
 40
0.7443532478152182
 40
0.7471747247287931
 40
0.7499999924168739
 40
0.752614374636095
 40
0.7552256267741292
 40
0.7578344487065146
 40
0.7604415422659602
 40
0.7630476106815642
 40
0.7656533580124111
 40
0.7682594885778127
 40
0.77005180214282
 40
0.7718448581567109
 40
0.7736388848831415
 40
0.7754341102154886
 40
0.7772307615910231
 40
0.7790290659059474
 40
0.7809299006062276
 40
0.7828344473569938
 40
0.7853713305524258
 40
0.7879059449202357
 40
0.7904389348414614
 40
0.7929709459373759
 40
0.7955026245781034
 40
0.7980346173883776
 40
0.8002635496004437
 40
0.8024936657083114
 40
0.804725405049373
 40
0.805477356768394
 40
0.8062295589685402
 40
0.8069820283423669
 40
0.8077347815646561
 40
0.8084878352913338
 40
0.8092412061583955
 40
0.8099949107808353
 40
0.8125741042326926
 40
0.8151498312989806
 40
0.8177227619992599
 40
0.8202935685395106
 40
0.8228629247929092
 40
0.8254315057740907
 40
0.8279999871089303
 40
0.8306375652696463
 40
0.8332764813306704
 40
0.835917464891981
 40
0.8371634362385292
 40
0.838410104957536
 40
0.8396575470163768
 40
0.8409058382412382
 40
0.8421550543036757
 40
0.8447894744262736
 40
0.8474201986537123
 40
0.8500479406148833
 40
0.8526734163705033
 40
0.8552973438366085
 40
0.8579204422004897
 40
0.8605434313314226
 40
0.8634294455459389
 40
0.866317156262849
 40
0.8692075193250475
 40
0.8721014879473168
 40
0.8750000117872452
 40
0.8776344319524044
 40
0.8802651562089177
 40
0.8828928981882201
 40
0.8855183739535897
 40
0.8881423014236368
 40
0.8907653997882368
 40
0.8933883889192541
 40
0.8951920155984665
 40
0.8969961647831566
 40
0.8988010701059995
 40
0.9006069649062014
 40
0.9024140821396767
 40
0.9042226542899681
 40
0.9060329132800728
 40
0.9078450903853413
 40
0.9104242839547099
 40
0.9130000111012928
 40
0.9155729418516672
 40
0.9181437484188759
 40
0.9207131046831938
 40
0.9232816856663788
 40
0.925850167001443
 40
0.9284877451680151
 40
0.9311266612482603
 40
0.9337676448498489
 40
0.934657557677405
 40
0.9355478152258463
 40
0.9364384452011101
 40
0.9373294752743929
 40
0.9382209330796334
 40
0.9391128462110135
 40
0.9400052422204773
 40
0.942777452857878
 40
0.9455459162032456
 40
0.9483114657172447
 40
0.9510749374969683
 40
0.9538371695262313
 40
0.9565990009173296
 40
0.9593612711476718
 40
0.9612610352230258
 40
0.9631616756932455
 40
0.9650634645492359
 40
0.9669666732895486
 40
0.9688715728056222
 40
0.9707784332683128
 40
0.9725821183519511
 40
0.974378518675791
 40
0.9772499426510736
 40
0.9801187454829875
 40
0.9829858623530933
 40
0.985852230093138
 40
0.9887187862693491
 40
0.9915352457128553
 40
0.9943536781532178
 40
0.9971749687559682
 40
1.0
 40
1.0
 40
1.0
 40
1.0
 10
381.0
 20
367.5859418982021
 30
0.0
 10
381.0007984835879
 20
367.4161842544833
 30
0.0
 10
381.0023944817481
 20
367.0768749797908
 30
0.0
 10
381.0153253212457
 20
366.5683102775711
 30
0.0
 10
381.0359734150034
 20
366.0604992223942
 30
0.0
 10
381.0650925596371
 20
365.5534419474599
 30
0.0
 10
381.1024810612969
 20
365.0471384192359
 30
0.0
 10
381.1481928506527
 20
364.5415893029969
 30
0.0
 10
381.1965837981338
 20
364.0894012289091
 30
0.0
 10
381.2448956388749
 20
363.6903285211696
 30
0.0
 10
381.2907812505931
 20
363.3440999861427
 30
0.0
 10
381.340594990618
 20
362.9982280742275
 30
0.0
 10
381.3943368475047
 20
362.6527125523817
 30
0.0
 10
381.4520067569163
 20
362.3075534435642
 30
0.0
 10
381.5147561616336
 20
361.9563069752219
 30
0.0
 10
381.5828606151678
 20
361.5989151548167
 30
0.0
 10
381.664745285689
 20
361.1953521971526
 30
0.0
 10
381.7609811215736
 20
360.7527468977279
 30
0.0
 10
381.8735601716198
 20
360.2720029021527
 30
0.0
 10
381.9937193627944
 20
359.7934230471924
 30
0.0
 10
382.1214586157506
 20
359.3170077843233
 30
0.0
 10
382.2567778713449
 20
358.8427572705897
 30
0.0
 10
382.3939584074449
 20
358.3895641472774
 30
0.0
 10
382.5319733699285
 20
357.9571397744571
 30
0.0
 10
382.6698602228468
 20
357.5451834135919
 30
0.0
 10
382.7818017609832
 20
357.2257030761285
 30
0.0
 10
382.8641478430714
 20
356.9975515005703
 30
0.0
 10
382.914536999126
 20
356.8599748602239
 30
0.0
 10
382.9655915761576
 20
356.722588323403
 30
0.0
 10
383.017311603095
 20
356.5853918032226
 30
0.0
 10
383.0696970590577
 20
356.4483853458819
 30
0.0
 10
383.1227479979121
 20
356.3115688545285
 30
0.0
 10
383.2198228686259
 20
356.0646607978808
 30
0.0
 10
383.3638914528773
 20
355.7090970702656
 30
0.0
 10
383.5597836752471
 20
355.2471566442874
 30
0.0
 10
383.7628897437201
 20
354.7889367054759
 30
0.0
 10
383.973209242398
 20
354.33443848235
 30
0.0
 10
384.1907422366723
 20
353.8836617854174
 30
0.0
 10
384.4154886941459
 20
353.4366067376409
 30
0.0
 10
384.6495109790848
 20
352.9893316159456
 30
0.0
 10
384.8930367384133
 20
352.5419506075895
 30
0.0
 10
385.1462913303691
 20
352.0945877417951
 30
0.0
 10
385.3611327311439
 20
351.7293728021424
 30
0.0
 10
385.5336243435497
 20
351.444169098996
 30
0.0
 10
385.6609119081037
 20
351.2373723546861
 30
0.0
 10
385.7898887754576
 20
351.0314474901907
 30
0.0
 10
385.9205552301924
 20
350.8263941720483
 30
0.0
 10
386.1017953668324
 20
350.5467996394138
 30
0.0
 10
386.3361364101413
 20
350.194677710817
 30
0.0
 10
386.6270457193398
 20
349.7727728606434
 30
0.0
 10
386.9245362344281
 20
349.3561947962837
 30
0.0
 10
387.2286075315947
 20
348.9449444888033
 30
0.0
 10
387.539259624464
 20
348.5390218405881
 30
0.0
 10
387.8564925480629
 20
348.138426875929
 30
0.0
 10
388.1911033120812
 20
347.7299800268106
 30
0.0
 10
388.5438899266892
 20
347.3143117178261
 30
0.0
 10
388.9156588968301
 20
346.8921071812881
 30
0.0
 10
389.295390631253
 20
346.4763498865283
 30
0.0
 10
389.6830850179194
 20
346.0670405651305
 30
0.0
 10
390.0664754115566
 20
345.6766669300698
 30
0.0
 10
390.4443340182625
 20
345.3049356249127
 30
0.0
 10
390.815523363014
 20
344.951592820397
 30
0.0
 10
391.1920620071365
 20
344.6048128382424
 30
0.0
 10
391.5739502681288
 20
344.2645959284929
 30
0.0
 10
391.9611880825726
 20
343.9309420507738
 30
0.0
 10
392.3537749372716
 20
343.603851638911
 30
0.0
 10
392.7102498123327
 20
343.3167205588863
 30
0.0
 10
393.0288210341259
 20
343.0673804879441
 30
0.0
 10
393.30801310504
 20
342.8539420853028
 30
0.0
 10
393.5897329819778
 20
342.6436055846918
 30
0.0
 10
393.8739808476554
 20
342.4363708129529
 30
0.0
 10
394.1607566591209
 20
342.2322378351162
 30
0.0
 10
394.4500603108453
 20
342.0312066120468
 30
0.0
 10
394.7418921722407
 20
341.8332772786736
 30
0.0
 10
395.0776624465511
 20
341.6110401173176
 30
0.0
 10
395.4582607010164
 20
341.3665398401876
 30
0.0
 10
395.8847310159999
 20
341.1021797614778
 30
0.0
 10
396.3149475905753
 20
340.8450199338175
 30
0.0
 10
396.7489101838059
 20
340.5950610722594
 30
0.0
 10
397.186618741339
 20
340.3523030732112
 30
0.0
 10
397.6280732277814
 20
340.1167460130536
 30
0.0
 10
398.0772319220729
 20
339.8863595531614
 30
0.0
 10
398.5342149862428
 20
339.6613682524105
 30
0.0
 10
398.9991347437562
 20
339.4420035198712
 30
0.0
 10
399.3642235895881
 20
339.277103265235
 30
0.0
 10
399.6271191281239
 20
339.1618514053857
 30
0.0
 10
399.7863196666605
 20
339.0931154742971
 30
0.0
 10
399.9459676818177
 20
339.0252400478025
 30
0.0
 10
400.1060633129343
 20
338.9582250674144
 30
0.0
 10
400.2666064754968
 20
338.8920705330964
 30
0.0
 10
400.4275973652734
 20
338.8267765040079
 30
0.0
 10
400.7023586022775
 20
338.7171126763677
 30
0.0
 10
401.0920384474078
 20
338.5667117786975
 30
0.0
 10
401.5984701534655
 20
338.3812693516776
 30
0.0
 10
402.107511963475
 20
338.2048379592068
 30
0.0
 10
402.619162519003
 20
338.0374185756773
 30
0.0
 10
403.1334221750776
 20
337.8790109831322
 30
0.0
 10
403.6502900543719
 20
337.7296154433621
 30
0.0
 10
404.1156255979504
 20
337.6038630204573
 30
0.0
 10
404.5285574547884
 20
337.4987606383279
 30
0.0
 10
404.8884149555381
 20
337.4117397146503
 30
0.0
 10
405.2495049396563
 20
337.3289777683989
 30
0.0
 10
405.6118276756877
 20
337.2504746320656
 30
0.0
 10
405.9753831067356
 20
337.1762306041836
 30
0.0
 10
406.3334402735758
 20
337.1075359838234
 30
0.0
 10
406.6853241826337
 20
337.0442310788134
 30
0.0
 10
407.0996436877185
 20
336.9744982002732
 30
0.0
 10
407.5833157278358
 20
336.9003493380144
 30
0.0
 10
408.1371461743983
 20
336.8256458979852
 30
0.0
 10
408.6919209940723
 20
336.7609983496551
 30
0.0
 10
409.2476391110665
 20
336.706406950925
 30
0.0
 10
409.8009853431428
 20
336.6621368956876
 30
0.0
 10
410.3519381488384
 20
336.6279797404377
 30
0.0
 10
410.9004838112317
 20
336.6037281757758
 30
0.0
 10
411.4499387704295
 20
336.5891770340002
 30
0.0
 10
411.9863081402801
 20
336.5844479351179
 30
0.0
 10
412.5090267284366
 20
336.5886981669763
 30
0.0
 10
413.0175570955678
 20
336.6011538229647
 30
0.0
 10
413.5253421407104
 20
336.6219226255384
 30
0.0
 10
414.0323818741427
 20
336.6510050104722
 30
0.0
 10
414.5386762908983
 20
336.6884008891104
 30
0.0
 10
415.0442247359497
 20
336.73411020685
 30
0.0
 10
415.496418573712
 20
336.7825029843007
 30
0.0
 10
415.895502013418
 20
336.8308167933657
 30
0.0
 10
416.2417447728848
 20
336.8767050860031
 30
0.0
 10
416.5876348984081
 20
336.9265222137844
 30
0.0
 10
416.9331726244604
 20
336.9802681995162
 30
0.0
 10
417.2783579230135
 20
337.0379429956356
 30
0.0
 10
417.6296237390325
 20
337.10069600818
 30
0.0
 10
417.9870261898831
 20
337.1688023802502
 30
0.0
 10
418.3905896997012
 20
337.2506871912983
 30
0.0
 10
418.8331950009127
 20
337.3469230175729
 30
0.0
 10
419.3139389959768
 20
337.4595020704286
 30
0.0
 10
419.7925188510812
 20
337.5796612608539
 30
0.0
 10
420.2689341139161
 20
337.7074005140123
 30
0.0
 10
420.74318462766
 20
337.8427197695528
 30
0.0
 10
421.1963777509677
 20
337.9799003056662
 30
0.0
 10
421.6288021237846
 20
338.1179152681449
 30
0.0
 10
422.0407584846437
 20
338.2558021210618
 30
0.0
 10
422.3602388221015
 20
338.3677436591959
 30
0.0
 10
422.5883903976549
 20
338.4500897412822
 30
0.0
 10
422.725967037998
 20
338.5004788973355
 30
0.0
 10
422.8633535748153
 20
338.5515334743658
 30
0.0
 10
423.000550094992
 20
338.6032535013019
 30
0.0
 10
423.1375565523287
 20
338.655638957263
 30
0.0
 10
423.2743730436779
 20
338.7086898961158
 30
0.0
 10
423.5212811003234
 20
338.8057647668289
 30
0.0
 10
423.8768448279385
 20
338.9498333510805
 30
0.0
 10
424.3387852539186
 20
339.1457255734513
 30
0.0
 10
424.7970051927314
 20
339.348831641925
 30
0.0
 10
425.2515034158584
 20
339.5591511406034
 30
0.0
 10
425.7022801127916
 20
339.7766841348782
 30
0.0
 10
426.1493351605684
 20
340.0014305923518
 30
0.0
 10
426.5966102822637
 20
340.2354528772908
 30
0.0
 10
427.0439912906193
 20
340.4789786366189
 30
0.0
 10
427.4913541564127
 20
340.7322332285743
 30
0.0
 10
427.8565690960644
 20
340.9470746293485
 30
0.0
 10
428.1417727992099
 20
341.1195662417538
 30
0.0
 10
428.348569543519
 20
341.2468538063074
 30
0.0
 10
428.5544944080135
 20
341.3758306736608
 30
0.0
 10
428.7595477261548
 20
341.5064971283951
 30
0.0
 10
429.0391422587874
 20
341.687737265034
 30
0.0
 10
429.3912641873817
 20
341.9220783083416
 30
0.0
 10
429.8131690375523
 20
342.2129876175384
 30
0.0
 10
430.2297471019098
 20
342.5104781326253
 30
0.0
 10
430.6409974093883
 20
342.8145494297909
 30
0.0
 10
431.0469200576025
 20
343.1252015226596
 30
0.0
 10
431.4475150222612
 20
343.4424344462583
 30
0.0
 10
431.8559618713798
 20
343.7770452102768
 30
0.0
 10
432.2716301803652
 20
344.1298318248852
 30
0.0
 10
432.6938347169048
 20
344.501600795027
 30
0.0
 10
433.1095920116669
 20
344.8813325294514
 30
0.0
 10
433.5189013330678
 20
345.2690269161196
 30
0.0
 10
433.9092749681303
 20
345.6524173097567
 30
0.0
 10
434.2810062732873
 20
346.0302759164609
 30
0.0
 10
434.6343490778012
 20
346.4014652612095
 30
0.0
 10
434.9811290599545
 20
346.7780039053296
 30
0.0
 10
435.3213459697029
 20
347.1598921663202
 30
0.0
 10
435.6549998474213
 20
347.5471299807628
 30
0.0
 10
435.9820902592838
 20
347.9397168354614
 30
0.0
 10
436.2692213393085
 20
348.2961917105225
 30
0.0
 10
436.518561410251
 20
348.6147629323161
 30
0.0
 10
436.7319998128927
 20
348.893955003231
 30
0.0
 10
436.9423363135044
 20
349.1756748801699
 30
0.0
 10
437.1495710852441
 20
349.459922745849
 30
0.0
 10
437.3537040630818
 20
349.7466985573162
 30
0.0
 10
437.5547352861524
 20
350.0360022090426
 30
0.0
 10
437.752664619527
 20
350.3278340704403
 30
0.0
 10
437.9749017808838
 20
350.6636043447522
 30
0.0
 10
438.219402058014
 20
351.0442025992182
 30
0.0
 10
438.4837621367234
 20
351.4706729142015
 30
0.0
 10
438.7409219643835
 20
351.9008894887767
 30
0.0
 10
438.9908808259414
 20
352.3348520820072
 30
0.0
 10
439.2336388249895
 20
352.7725606395402
 30
0.0
 10
439.469195885147
 20
353.2140151259826
 30
0.0
 10
439.6995823450392
 20
353.6631738202741
 30
0.0
 10
439.9245736457902
 20
354.120156884444
 30
0.0
 10
440.1439383783297
 20
354.5850766419575
 30
0.0
 10
440.3088386329661
 20
354.9501654877896
 30
0.0
 10
440.4240904928155
 20
355.2130610263254
 30
0.0
 10
440.4928264239043
 20
355.3722615648621
 30
0.0
 10
440.5607018503989
 20
355.5319095800194
 30
0.0
 10
440.6277168307871
 20
355.6920052111362
 30
0.0
 10
440.6938713651053
 20
355.8525483736987
 30
0.0
 10
440.759165394194
 20
356.0135392634754
 30
0.0
 10
440.8688292218332
 20
356.2883005004765
 30
0.0
 10
441.0192301195015
 20
356.6779803456014
 30
0.0
 10
441.2046725465187
 20
357.1844120516517
 30
0.0
 10
441.3811039389875
 20
357.6934538616555
 30
0.0
 10
441.5485233225156
 20
358.2051044171798
 30
0.0
 10
441.70693091506
 20
358.7193640732524
 30
0.0
 10
441.8563264548299
 20
359.2362319525466
 30
0.0
 10
441.9820788777353
 20
359.7015674961263
 30
0.0
 10
442.0871812598655
 20
360.1144993529667
 30
0.0
 10
442.1742021835441
 20
360.4743568537194
 30
0.0
 10
442.256964129797
 20
360.8354468378415
 30
0.0
 10
442.3354672661321
 20
361.1977695738776
 30
0.0
 10
442.4097112940159
 20
361.5613250049312
 30
0.0
 10
442.4784059143778
 20
361.9193821717737
 30
0.0
 10
442.5417108193887
 20
362.2712660808303
 30
0.0
 10
442.611443697929
 20
362.6855855859094
 30
0.0
 10
442.6855925601878
 20
363.1692576260214
 30
0.0
 10
442.7602960002169
 20
363.7230880725791
 30
0.0
 10
442.8249435485471
 20
364.2778628922505
 30
0.0
 10
442.8795349472772
 20
364.833581009244
 30
0.0
 10
442.9238050025145
 20
365.3869272413216
 30
0.0
 10
442.9579621577644
 20
365.9378800470204
 30
0.0
 10
442.9822137224263
 20
366.4864257094188
 30
0.0
 10
442.9967648642019
 20
367.0358806686234
 30
0.0
 10
443.0014939630842
 20
367.5722500384793
 30
0.0
 10
442.9972437312259
 20
368.0949686266387
 30
0.0
 10
442.9847880752374
 20
368.6034989937698
 30
0.0
 10
442.9640192726637
 20
369.1112840389126
 30
0.0
 10
442.9349368877299
 20
369.6183237723449
 30
0.0
 10
442.8975410090916
 20
370.1246181891004
 30
0.0
 10
442.851831691352
 20
370.6301666341518
 30
0.0
 10
442.8034389139013
 20
371.0823604719142
 30
0.0
 10
442.7551251048363
 20
371.4814439116201
 30
0.0
 10
442.7092368121989
 20
371.827686671087
 30
0.0
 10
442.6594196844176
 20
372.1735767966102
 30
0.0
 10
442.6056736986858
 20
372.5191145226625
 30
0.0
 10
442.5479989025665
 20
372.8642998212155
 30
0.0
 10
442.485245890022
 20
373.2155656372349
 30
0.0
 10
442.4171395179517
 20
373.5729680880863
 30
0.0
 10
442.3352547069034
 20
373.9765315979054
 30
0.0
 10
442.2390188806286
 20
374.4191368991178
 30
0.0
 10
442.1264398277727
 20
374.8998808941827
 30
0.0
 10
442.0062806373473
 20
375.3784607492877
 30
0.0
 10
441.8785413841888
 20
375.8548760121228
 30
0.0
 10
441.7432221286484
 20
376.3291265258668
 30
0.0
 10
441.606041592535
 20
376.7823196491743
 30
0.0
 10
441.4680266300564
 20
377.2147440219907
 30
0.0
 10
441.3301397771396
 20
377.6267003828492
 30
0.0
 10
441.2181982390056
 20
377.9461807203064
 30
0.0
 10
441.1358521569195
 20
378.1743322958594
 30
0.0
 10
441.0854630008661
 20
378.3119089362021
 30
0.0
 10
441.0344084238359
 20
378.4492954730192
 30
0.0
 10
440.9826883968999
 20
378.5864919931955
 30
0.0
 10
440.9303029409389
 20
378.7234984505317
 30
0.0
 10
440.8772520020862
 20
378.8603149418805
 30
0.0
 10
440.7801771313729
 20
379.1072229985261
 30
0.0
 10
440.6361085471208
 20
379.4627867261418
 30
0.0
 10
440.4402163247494
 20
379.9247271521228
 30
0.0
 10
440.2371102562752
 20
380.3829470909365
 30
0.0
 10
440.0267907575964
 20
380.837445314064
 30
0.0
 10
439.8092577633213
 20
381.2882220109976
 30
0.0
 10
439.5845113058476
 20
381.7352770587745
 30
0.0
 10
439.3504890209088
 20
382.1825521804698
 30
0.0
 10
439.1069632615808
 20
382.629933188825
 30
0.0
 10
438.8537086696257
 20
383.077296054618
 30
0.0
 10
438.6388672688519
 20
383.4425109942692
 30
0.0
 10
438.4663756564469
 20
383.7277146974142
 30
0.0
 10
438.3390880918935
 20
383.9345114417227
 30
0.0
 10
438.2101112245405
 20
384.1404363062168
 30
0.0
 10
438.0794447698066
 20
384.3454896243575
 30
0.0
 10
437.8982046331669
 20
384.6250841569911
 30
0.0
 10
437.6638635898578
 20
384.977206085588
 30
0.0
 10
437.3729542806586
 20
385.3991109357622
 30
0.0
 10
437.0754637655697
 20
385.8156890001226
 30
0.0
 10
436.7713924684027
 20
386.2269393076033
 30
0.0
 10
436.4607403755332
 20
386.6328619558187
 30
0.0
 10
436.1435074519342
 20
387.033456920478
 30
0.0
 10
435.8088966879159
 20
387.4419037695964
 30
0.0
 10
435.4561100733081
 20
387.8575720785806
 30
0.0
 10
435.0843411031677
 20
388.2797766151183
 30
0.0
 10
434.7046093687453
 20
388.6955339098775
 30
0.0
 10
434.3169149820797
 20
389.1048432312745
 30
0.0
 10
433.9335245884427
 20
389.4952168663351
 30
0.0
 10
433.5556659817366
 20
389.8669481714924
 30
0.0
 10
433.1844766369841
 20
390.220290976009
 30
0.0
 10
432.807937992861
 20
390.5670709581643
 30
0.0
 10
432.4260497318681
 20
390.9072878679142
 30
0.0
 10
432.038811917424
 20
391.2409417456337
 30
0.0
 10
431.6462250627249
 20
391.5680321574967
 30
0.0
 10
431.2897501876639
 20
391.8551632375213
 30
0.0
 10
430.9711789658708
 20
392.1045033084633
 30
0.0
 10
430.6919868949569
 20
392.3179417111044
 30
0.0
 10
430.4102670180195
 20
392.5282782117151
 30
0.0
 10
430.1260191523422
 20
392.7355129834536
 30
0.0
 10
429.8392433408771
 20
392.9396459612899
 30
0.0
 10
429.5499396891533
 20
393.1406771843587
 30
0.0
 10
429.2581078277585
 20
393.3386065177313
 30
0.0
 10
428.9223375534497
 20
393.560843679086
 30
0.0
 10
428.5417392989868
 20
393.805343956214
 30
0.0
 10
428.1152689840062
 20
394.0697040349217
 30
0.0
 10
427.685052409433
 20
394.3268638625802
 30
0.0
 10
427.2510898162039
 20
394.5768227241371
 30
0.0
 10
426.8133812586719
 20
394.8195807231846
 30
0.0
 10
426.37192677223
 20
395.0551377833418
 30
0.0
 10
425.9227680779384
 20
395.285524243234
 30
0.0
 10
425.4657850137677
 20
395.5105155439856
 30
0.0
 10
425.0008652562529
 20
395.7298802765259
 30
0.0
 10
424.6357764104196
 20
395.8947805311633
 30
0.0
 10
424.3728808718826
 20
396.0100323910136
 30
0.0
 10
424.2136803333451
 20
396.0787683221028
 30
0.0
 10
424.0540323181868
 20
396.1466437485981
 30
0.0
 10
423.8939366870692
 20
396.213658728987
 30
0.0
 10
423.7333935245056
 20
396.2798132633059
 30
0.0
 10
423.5724026347278
 20
396.3451072923953
 30
0.0
 10
423.2976413977282
 20
396.4547711200345
 30
0.0
 10
422.9079615526071
 20
396.605172017702
 30
0.0
 10
422.4015298465624
 20
396.7906144447178
 30
0.0
 10
421.8924880365627
 20
396.9670458371855
 30
0.0
 10
421.3808374810413
 20
397.134465220713
 30
0.0
 10
420.8665778249701
 20
397.2928728132569
 30
0.0
 10
420.349709945676
 20
397.4422683530269
 30
0.0
 10
419.8843744020954
 20
397.5680207759324
 30
0.0
 10
419.4714425452532
 20
397.6731231580631
 30
0.0
 10
419.1115850444983
 20
397.7601440817423
 30
0.0
 10
418.7504950603733
 20
397.8429060279959
 30
0.0
 10
418.3881723243336
 20
397.9214091643319
 30
0.0
 10
418.0246168932757
 20
397.9956531922169
 30
0.0
 10
417.6665597264344
 20
398.0643478125788
 30
0.0
 10
417.3146758173842
 20
398.1276527175888
 30
0.0
 10
416.900356312318
 20
398.1973855961269
 30
0.0
 10
416.4166842722184
 20
398.2715344583838
 30
0.0
 10
415.8628538256711
 20
398.3462378984111
 30
0.0
 10
415.3080790060058
 20
398.4108854467402
 30
0.0
 10
414.7523608890139
 20
398.4654768454701
 30
0.0
 10
414.1990146569334
 20
398.5097469007079
 30
0.0
 10
413.6480618512276
 20
398.5439040559589
 30
0.0
 10
413.0995161888177
 20
398.5681556206226
 30
0.0
 10
412.5500612295973
 20
398.5827067624006
 30
0.0
 10
412.0136918597397
 20
398.5874358612862
 30
0.0
 10
411.4909732715918
 20
398.5831856294311
 30
0.0
 10
410.9824429044851
 20
398.5707299734449
 30
0.0
 10
410.4746578593609
 20
398.549961170873
 30
0.0
 10
409.9676181259411
 20
398.5208787859405
 30
0.0
 10
409.4613237091921
 20
398.4834829073027
 30
0.0
 10
408.9557752641412
 20
398.4377735895632
 30
0.0
 10
408.5035814263747
 20
398.3893808121121
 30
0.0
 10
408.1044979866612
 20
398.3410670030463
 30
0.0
 10
407.7582552271842
 20
398.2951787104079
 30
0.0
 10
407.412365101648
 20
398.2453615826253
 30
0.0
 10
407.0668273755799
 20
398.1916155968919
 30
0.0
 10
406.7216420770083
 20
398.1339408007706
 30
0.0
 10
406.3703762609784
 20
398.0711877882261
 30
0.0
 10
406.0129738101258
 20
398.0030814161577
 30
0.0
 10
405.609410300316
 20
397.9211966051129
 30
0.0
 10
405.1668049991124
 20
397.8249607788414
 30
0.0
 10
404.6860610040552
 20
397.7123817259883
 30
0.0
 10
404.2074811489553
 20
397.5922225355649
 30
0.0
 10
403.731065886123
 20
397.4644832824074
 30
0.0
 10
403.2568153723793
 20
397.329164026867
 30
0.0
 10
402.8036222490699
 20
397.191983490753
 30
0.0
 10
402.3711978762495
 20
397.0539685282729
 30
0.0
 10
401.9592415153853
 20
396.9160816753538
 30
0.0
 10
401.6397611779227
 20
396.8041401372179
 30
0.0
 10
401.411609602365
 20
396.7217940551299
 30
0.0
 10
401.2740329620191
 20
396.6714048990754
 30
0.0
 10
401.1366464251986
 20
396.6203503220439
 30
0.0
 10
400.9994499050187
 20
396.5686302951065
 30
0.0
 10
400.8624434476786
 20
396.5162448391441
 30
0.0
 10
400.7256269563258
 20
396.4631939002898
 30
0.0
 10
400.4787188996754
 20
396.3661190295747
 30
0.0
 10
400.1231551720547
 20
396.222050445321
 30
0.0
 10
399.6612147460687
 20
396.0261582229479
 30
0.0
 10
399.202994807251
 20
395.8230521544724
 30
0.0
 10
398.7484965841206
 20
395.6127326557926
 30
0.0
 10
398.2977198871851
 20
395.3951996615169
 30
0.0
 10
397.8506648394074
 20
395.1704532040429
 30
0.0
 10
397.4033897177125
 20
394.9364309191041
 30
0.0
 10
396.9560087093586
 20
394.6929051597766
 30
0.0
 10
396.5086458435679
 20
394.4396505678224
 30
0.0
 10
396.1434309039196
 20
394.2248091670495
 30
0.0
 10
395.8582272007772
 20
394.0523175546453
 30
0.0
 10
395.651430456471
 20
393.9250299900928
 30
0.0
 10
395.4455055919796
 20
393.7960531227406
 30
0.0
 10
395.2404522738416
 20
393.6653866680078
 30
0.0
 10
394.9608577412095
 20
393.4841465313678
 30
0.0
 10
394.6087358126131
 20
393.2498054880573
 30
0.0
 10
394.186830962438
 20
392.958896178856
 30
0.0
 10
393.7702528980769
 20
392.6614056637654
 30
0.0
 10
393.3590025905957
 20
392.3573343665971
 30
0.0
 10
392.9530799423799
 20
392.0466822737269
 30
0.0
 10
392.5524849777204
 20
391.7294493501275
 30
0.0
 10
392.1440381286021
 20
391.3948385861094
 30
0.0
 10
391.7283698196183
 20
391.0420519715022
 30
0.0
 10
391.306165283081
 20
390.670283001363
 30
0.0
 10
390.8904079883226
 20
390.2905512669423
 30
0.0
 10
390.4810986669265
 20
389.902856880279
 30
0.0
 10
390.0907250318671
 20
389.5194664866448
 30
0.0
 10
389.7189937267108
 20
389.1416078799414
 30
0.0
 10
389.3656509221954
 20
388.7704185351914
 30
0.0
 10
389.0188709400409
 20
388.39387989107
 30
0.0
 10
388.6786540302916
 20
388.0119916300786
 30
0.0
 10
388.3450001525725
 20
387.6247538156353
 30
0.0
 10
388.0179097407097
 20
387.2321669609365
 30
0.0
 10
387.7307786606852
 20
386.8756920858755
 30
0.0
 10
387.4814385897429
 20
386.557120864082
 30
0.0
 10
387.2680001871017
 20
386.2779287931675
 30
0.0
 10
387.0576636864905
 20
385.9962089162291
 30
0.0
 10
386.8504289147515
 20
385.7119610505509
 30
0.0
 10
386.6462959369146
 20
385.4251852390845
 30
0.0
 10
386.4452647138451
 20
385.1358815873591
 30
0.0
 10
386.2473353804717
 20
384.8440497259626
 30
0.0
 10
386.0250982191122
 20
384.5082794516458
 30
0.0
 10
385.7805979419762
 20
384.1276811971699
 30
0.0
 10
385.516237863258
 20
383.7012108821728
 30
0.0
 10
385.2590780355912
 20
383.2709943075865
 30
0.0
 10
385.0091191740282
 20
382.8370317143479
 30
0.0
 10
384.766361174977
 20
382.3993231568098
 30
0.0
 10
384.5308041148181
 20
381.9578686703652
 30
0.0
 10
384.3004176549263
 20
381.5087099760745
 30
0.0
 10
384.0754263541776
 20
381.0517269119084
 30
0.0
 10
383.8560616216424
 20
380.5868071544018
 30
0.0
 10
383.6911613670104
 20
380.2217183085768
 30
0.0
 10
383.5759095071648
 20
379.958822770047
 30
0.0
 10
383.5071735760789
 20
379.7996222315148
 30
0.0
 10
383.4392981495871
 20
379.6399742163622
 30
0.0
 10
383.3722831692021
 20
379.4798785852507
 30
0.0
 10
383.3061286348873
 20
379.3193354226936
 30
0.0
 10
383.2408346058021
 20
379.1583445329227
 30
0.0
 10
383.1311707781647
 20
378.88358329592
 30
0.0
 10
382.9807698804964
 20
378.4939034507871
 30
0.0
 10
382.7953274534769
 20
377.9874717447235
 30
0.0
 10
382.6188960610068
 20
377.4784299347095
 30
0.0
 10
382.4514766774768
 20
376.9667793791786
 30
0.0
 10
382.2930690849349
 20
376.4525197231018
 30
0.0
 10
382.1436735451531
 20
375.9356518438096
 30
0.0
 10
382.0179211222871
 20
375.4703163002248
 30
0.0
 10
381.9128187400543
 20
375.0573844434081
 30
0.0
 10
381.8257978167276
 20
374.6975269425945
 30
0.0
 10
381.7430358691597
 20
374.3364369587287
 30
0.0
 10
381.6645327377449
 20
373.9741142217698
 30
0.0
 10
381.5902886914796
 20
373.6105587942074
 30
0.0
 10
381.5215922913643
 20
373.2524919864226
 30
0.0
 10
381.4582839799674
 20
372.9005895635262
 30
0.0
 10
381.388545464582
 20
372.4862401362162
 30
0.0
 10
381.3143912912062
 20
372.0025397940531
 30
0.0
 10
381.2396830907446
 20
371.4486852877363
 30
0.0
 10
381.1750336604498
 20
370.8938966186071
 30
0.0
 10
381.1204386036171
 20
370.3381748624337
 30
0.0
 10
381.0761803840388
 20
369.7848350741741
 30
0.0
 10
381.0419868281228
 20
369.2338986640479
 30
0.0
 10
381.0178865421392
 20
368.6853792736584
 30
0.0
 10
381.0027942945536
 20
368.135960304146
 30
0.0
 10
381.0009318428042
 20
367.7693623228883
 30
0.0
 10
381.0000000000001
 20
367.5859418982021
 30
0.0
  0
SPLINE
  5
94
330
1F
100
AcDbEntity
  8
0
  6
Continuous
 62
   252
370
     0
100
AcDbSpline
210
0.0
220
0.0
230
1.0
 70
    11
 71
     3
 72
   295
 73
   291
 74
     0
 42
0.000000001
 43
0.00000001
 40
0.0
 40
0.0
 40
0.0
 40
0.0
 40
0.0045746377497867
 40
0.0091406984696855
 40
0.0137019434077472
 40
0.0182621457281872
 40
0.021129778195667
 40
0.0239994272260151
 40
0.0268720274755518
 40
0.0297865367360425
 40
0.0328362924503929
 40
0.0373664429358533
 40
0.0418901730563171
 40
0.0464111574506148
 40
0.0509330774513436
 40
0.055459612108376
 40
0.0599944292401304
 40
0.0625750273149949
 40
0.0651519217027296
 40
0.0677257815578256
 40
0.0702972784037128
 40
0.0728670856162747
 40
0.0754358779001421
 40
0.0780043307597782
 40
0.0815366060620921
 40
0.0850712729216713
 40
0.0886100834469777
 40
0.0921547836019661
 40
0.0952295324335951
 40
0.0982990825255848
 40
0.1013645667177312
 40
0.1044271223617658
 40
0.1074878900740801
 40
0.110548012470346
 40
0.1141552901731397
 40
0.1177651301943405
 40
0.1213793991182341
 40
0.1249999566791288
 40
0.1291166360119015
 40
0.1332246791957452
 40
0.1373268132713476
 40
0.1414257770734023
 40
0.1455243157921809
 40
0.1496251754716321
 40
0.153731097498925
 40
0.1578448131405696
 40
0.1608551207467204
 40
0.163860538946572
 40
0.16686213129747
 40
0.1698609654273542
 40
0.1728581119117236
 40
0.1758546431349204
 40
0.1793869184122707
 40
0.1829215851763737
 40
0.1864603954902914
 40
0.1900050952729097
 40
0.1927788558990575
 40
0.1955485724395974
 40
0.1983150772773226
 40
0.2010792056965206
 40
0.2038417951370493
 40
0.2066036844386815
 40
0.2093657130790952
 40
0.2124050991921064
 40
0.2154467853956364
 40
0.2184918850467814
 40
0.2215039825826907
 40
0.2243803572805816
 40
0.2286537321575968
 40
0.2329216206583786
 40
0.2371871062586128
 40
0.2414532776442465
 40
0.2457232220130288
 40
0.2500000183921531
 40
0.2545755368184685
 40
0.2591421531486378
 40
0.2637036255195383
 40
0.2682637247860125
 40
0.2711311226053248
 40
0.2740004056104311
 40
0.2768725083826058
 40
0.2797865367392173
 40
0.2828362924531316
 40
0.2873664429381285
 40
0.2918901730583513
 40
0.296411157452629
 40
0.3009330774535577
 40
0.3054596121110077
 40
0.3099944292433963
 40
0.3125750273178467
 40
0.3151519217052383
 40
0.317725781560063
 40
0.3202972784057506
 40
0.3228670856181849
 40
0.3254358779019976
 40
0.3280043307616522
 40
0.3315366060641106
 40
0.3350712729239723
 40
0.3386100834497002
 40
0.3421547836052491
 40
0.3452295324370711
 40
0.3482990825292139
 40
0.351364566721474
 40
0.3544271223655817
 40
0.3574878900779303
 40
0.3605480124741904
 40
0.3641552901769269
 40
0.3677651301980164
 40
0.3713793991217448
 40
0.3749999566824216
 40
0.3791166360151968
 40
0.3832246791990437
 40
0.3873268132746485
 40
0.3914257770767042
 40
0.3955243157954818
 40
0.3996251754749285
 40
0.4037310975022132
 40
0.4078448131438447
 40
0.4108551207501622
 40
0.4138605389501455
 40
0.4168621313011406
 40
0.4198609654310874
 40
0.4228581119154852
 40
0.4258546431386774
 40
0.42938691841598
 40
0.4329215851799898
 40
0.4364603954937702
 40
0.440005095276208
 40
0.4427788559028017
 40
0.4455485724437007
 40
0.4483150772816974
 40
0.451079205701079
 40
0.4538417951417036
 40
0.4566036844433433
 40
0.4593657130836751
 40
0.462405099196494
 40
0.4654467853997243
 40
0.4684918850504627
 40
0.4715039825859582
 40
0.4743803572837658
 40
0.478653732160693
 40
0.4829216206614293
 40
0.4871871062616597
 40
0.4914532776473309
 40
0.4957232220161911
 40
0.5000000183954326
 40
0.5045755368217428
 40
0.509142153151908
 40
0.5137036255228061
 40
0.5182637247892815
 40
0.5211311226085966
 40
0.5240004056137081
 40
0.5268725083858896
 40
0.5297865367427019
 40
0.5328362924573976
 40
0.5373664429432258
 40
0.541890173063882
 40
0.5464111574581956
 40
0.5509330774587642
 40
0.5554596121154599
 40
0.5599944292467026
 40
0.5625750273216773
 40
0.5651519217095035
 40
0.5677257815646721
 40
0.5702972784106127
 40
0.5728670856232088
 40
0.5754358779070905
 40
0.5780043307667216
 40
0.5815366060689968
 40
0.5850712729285
 40
0.5886100834536933
 40
0.5921547836085316
 40
0.5952295324401374
 40
0.5982990825321092
 40
0.6013645667242423
 40
0.6044271223682679
 40
0.6074878900805787
 40
0.6105480124768449
 40
0.6141552901796454
 40
0.6177651302008597
 40
0.6213793991247735
 40
0.6249999566856952
 40
0.6291166360181161
 40
0.6332246792017089
 40
0.637326813277161
 40
0.6414257770791654
 40
0.6455243157979943
 40
0.6496251754775947
 40
0.6537310975051349
 40
0.6578448131471246
 40
0.6608551207535516
 40
0.6638605389536216
 40
0.6668621313046807
 40
0.6698609654346691
 40
0.6728581119190863
 40
0.6758546431422751
 40
0.6793869184195456
 40
0.682921585183493
 40
0.6864603954971814
 40
0.6900050952794976
 40
0.6927788559061523
 40
0.6955485724471008
 40
0.6983150772851352
 40
0.7010792057045422
 40
0.7038417951451803
 40
0.7066036844468206
 40
0.7093657130871409
 40
0.7124050991999328
 40
0.7154467854031199
 40
0.7184918850537991
 40
0.721503982589212
 40
0.724380357286917
 40
0.728653732163735
 40
0.732921620664414
 40
0.7371871062646397
 40
0.7414532776503588
 40
0.7457232220193201
 40
0.7500000183987149
 40
0.7545755368250432
 40
0.7591421531552195
 40
0.7637036255261223
 40
0.7682637247925956
 40
0.7711311226119061
 40
0.7740004056170101
 40
0.7768725083891818
 40
0.779786536746004
 40
0.7828362924607781
 40
0.7873664429466897
 40
0.7918901730673894
 40
0.7964111574617067
 40
0.8009330774622391
 40
0.8054596121188594
 40
0.8099944292499873
 40
0.8125750273250397
 40
0.8151519217129295
 40
0.8177257815681487
 40
0.8202972784141266
 40
0.8228670856267459
 40
0.8254358779106383
 40
0.8280043307702656
 40
0.8315366060725142
 40
0.8350712729319647
 40
0.8386100834570802
 40
0.8421547836118146
 40
0.8452295324435052
 40
0.848299082535544
 40
0.8513645667277269
 40
0.8544271223717849
 40
0.8574878900841103
 40
0.8605480124803742
 40
0.8641552901831494
 40
0.8677651302043147
 40
0.8713793991281553
 40
0.87499995668898
 40
0.8791166360211642
 40
0.8832246792045884
 40
0.8873268132799395
 40
0.8914257770819103
 40
0.8955243158007726
 40
0.899625175480472
 40
0.9037310975081775
 40
0.9078448131503966
 40
0.910855120756432
 40
0.9138605389561907
 40
0.9168621313070185
 40
0.9198609654368566
 40
0.922858111921204
 40
0.9258546431444046
 40
0.929386918421793
 40
0.932921585185971
 40
0.9364603955000024
 40
0.9400050952827735
 40
0.9427788559092682
 40
0.9455485724500876
 40
0.9483150772880246
 40
0.9510792057073658
 40
0.9538417951479694
 40
0.9566036844496074
 40
0.9593657130899568
 40
0.9624050992028175
 40
0.9654467854061123
 40
0.9684918850569382
 40
0.9715038408970433
 40
0.974379644135101
 40
0.9786524118447983
 40
0.9829199839767678
 40
0.9871854432665631
 40
0.9914518770296783
 40
0.9957223704681476
 40
1.0
 40
1.0
 40
1.0
 40
1.0
 10
412.0000000000003
 20
346.1975383536335
 30
0.0
 10
411.8792759185905
 20
346.1975180922953
 30
0.0
 10
411.6380541024482
 20
346.1974776076071
 30
0.0
 10
411.2767570188475
 20
346.1971491594117
 30
0.0
 10
410.916436186831
 20
346.1966245859399
 30
0.0
 10
410.6016052650416
 20
346.1959763383202
 30
0.0
 10
410.3319346541001
 20
346.1952913413995
 30
0.0
 10
410.1070012285943
 20
346.194635451899
 30
0.0
 10
409.8814632694675
 20
346.1938929313794
 30
0.0
 10
409.6519428498483
 20
346.1930499909077
 30
0.0
 10
409.3803284202576
 20
346.1919459137405
 30
0.0
 10
409.0686049608415
 20
346.1905212188578
 30
0.0
 10
408.7213656014175
 20
346.1887208849936
 30
0.0
 10
408.3769931225897
 20
346.1867203393876
 30
0.0
 10
408.0354891246292
 20
346.1845195813747
 30
0.0
 10
407.6968550018606
 20
346.1821186491667
 30
0.0
 10
407.4096004816304
 20
346.1798932568466
 30
0.0
 10
407.1725467237267
 20
346.1779331393934
 30
0.0
 10
406.9847093817098
 20
346.1763077278612
 30
0.0
 10
406.7984020570489
 20
346.1746226638485
 30
0.0
 10
406.613624021892
 20
346.17287795596
 30
0.0
 10
406.4303755781351
 20
346.1710736028803
 30
0.0
 10
406.2486564866265
 20
346.1692096027393
 30
0.0
 10
406.0459386130908
 20
346.1670454536617
 30
0.0
 10
405.8229382120954
 20
346.1645519716855
 30
0.0
 10
405.5805401338902
 20
346.1616964536148
 30
0.0
 10
405.3410344939084
 20
346.1587281582457
 30
0.0
 10
405.1150472970355
 20
346.1557853851752
 30
0.0
 10
404.9023817542417
 20
346.1528886958757
 30
0.0
 10
404.7028587546322
 20
346.150056687672
 30
0.0
 10
404.5063041736482
 20
346.1471507179491
 30
0.0
 10
404.3127176120134
 20
346.1441707976191
 30
0.0
 10
404.1220991426233
 20
346.1411169222917
 30
0.0
 10
403.9232769313404
 20
346.1378028779493
 30
0.0
 10
403.7168867660661
 20
346.1342122115661
 30
0.0
 10
403.503647143848
 20
346.1303279010054
 30
0.0
 10
403.2945308145735
 20
346.1263408666663
 30
0.0
 10
403.0803328749656
 20
346.1220673808576
 30
0.0
 10
402.8621318644132
 20
346.1174994844539
 30
0.0
 10
402.6411258914565
 20
346.1126283234254
 30
0.0
 10
402.4266648188598
 20
346.1076495358848
 30
0.0
 10
402.2187485805719
 20
346.1025631438754
 30
0.0
 10
402.0173775663763
 20
346.0973691509487
 30
0.0
 10
401.8225520572738
 20
346.0920675600697
 30
0.0
 10
401.6342721068635
 20
346.0866583985891
 30
0.0
 10
401.4689383033701
 20
346.0816394388457
 30
0.0
 10
401.3247672368799
 20
346.0770463055049
 30
0.0
 10
401.2002100193386
 20
346.0729089796604
 30
0.0
 10
401.079649144204
 20
346.0687298319006
 30
0.0
 10
400.9630840366963
 20
346.0645088629702
 30
0.0
 10
400.8505148466434
 20
346.0602460711087
 30
0.0
 10
400.7354776524772
 20
346.0556851843649
 30
0.0
 10
400.618840008258
 20
346.0508167133505
 30
0.0
 10
400.5015522911571
 20
346.045631293135
 30
0.0
 10
400.3898157911507
 20
346.04038779254
 30
0.0
 10
400.2914045961224
 20
346.0354742709229
 30
0.0
 10
400.2050571032825
 20
346.0309087706437
 30
0.0
 10
400.1296562287993
 20
346.0267069270808
 30
0.0
 10
400.0579250877233
 20
346.0224839116059
 30
0.0
 10
399.9898632965499
 20
346.0182397229395
 30
0.0
 10
399.9254709955124
 20
346.0139743632583
 30
0.0
 10
399.8647481601911
 20
346.0096878318229
 30
0.0
 10
399.8057920842987
 20
346.0052364695691
 30
0.0
 10
399.7490423287783
 20
346.0006176412313
 30
0.0
 10
399.694960744626
 20
345.9958289582626
 30
0.0
 10
399.6455235408179
 20
345.991034438087
 30
0.0
 10
399.6013644244768
 20
345.986309107162
 30
0.0
 10
399.5559719713632
 20
345.9809162714186
 30
0.0
 10
399.5116230891637
 20
345.974834750537
 30
0.0
 10
399.4708755198926
 20
345.9679885904172
 30
0.0
 10
399.4391882897509
 20
345.9611263816423
 30
0.0
 10
399.4165619117801
 20
345.9542481577446
 30
0.0
 10
399.402995204473
 20
345.9473539185375
 30
0.0
 10
399.3983910860596
 20
345.9402881875338
 30
0.0
 10
399.4034510935293
 20
345.9330626688217
 30
0.0
 10
399.4189721819889
 20
345.9256899080065
 30
0.0
 10
399.4448413879908
 20
345.9183375894963
 30
0.0
 10
399.4765720455887
 20
345.9119138639693
 30
0.0
 10
399.5101466751086
 20
345.9064119002196
 30
0.0
 10
399.5422851423448
 20
345.9018229595442
 30
0.0
 10
399.5786698943111
 20
345.8972218133166
 30
0.0
 10
399.6199779643654
 20
345.8925392169361
 30
0.0
 10
399.6740866499314
 20
345.8869974736114
 30
0.0
 10
399.7439111889319
 20
345.8806370946081
 30
0.0
 10
399.8321459310527
 20
345.8735520523925
 30
0.0
 10
399.9301930736105
 20
345.8665255057107
 30
0.0
 10
400.0380526716169
 20
345.8595574872815
 30
0.0
 10
400.1557228462904
 20
345.8526480255367
 30
0.0
 10
400.2647897757556
 20
345.8467869088189
 30
0.0
 10
400.3608555300482
 20
345.8419500841717
 30
0.0
 10
400.4405172792135
 20
345.838117467075
 30
0.0
 10
400.5231026085604
 20
345.8343160683216
 30
0.0
 10
400.6086110963697
 20
345.8305458730608
 30
0.0
 10
400.6970428071159
 20
345.8268068874522
 30
0.0
 10
400.7883978324379
 20
345.8230991066163
 30
0.0
 10
400.8944632180929
 20
345.8189628684237
 30
0.0
 10
401.0166692759693
 20
345.8144127872715
 30
0.0
 10
401.1566187963389
 20
345.8094669175687
 30
0.0
 10
401.3020955550071
 20
345.8045800649284
 30
0.0
 10
401.4463214606328
 20
345.7999690414476
 30
0.0
 10
401.5882887912858
 20
345.7956298318601
 30
0.0
 10
401.7270860883011
 20
345.7915587816023
 30
0.0
 10
401.8695082543804
 20
345.787548298705
 30
0.0
 10
402.015554754727
 20
345.7835983750211
 30
0.0
 10
402.1652258045092
 20
345.7797090120382
 30
0.0
 10
402.3276477905322
 20
345.7756522606059
 30
0.0
 10
402.5036270789287
 20
345.7714410932862
 30
0.0
 10
402.6939979280822
 20
345.7670901702315
 30
0.0
 10
402.8894032904661
 20
345.7628233784944
 30
0.0
 10
403.0988476975261
 20
345.7584529020136
 30
0.0
 10
403.3227212276261
 20
345.7540007472148
 30
0.0
 10
403.5614578185549
 20
345.7494913602024
 30
0.0
 10
403.8054692066922
 20
345.7451155147784
 30
0.0
 10
404.0547543116915
 20
345.7408732095951
 30
0.0
 10
404.3093129594896
 20
345.7367644526056
 30
0.0
 10
404.5691450047717
 20
345.7327892495434
 30
0.0
 10
404.8342491070799
 20
345.7289476015022
 30
0.0
 10
405.0802293430293
 20
345.7255741446846
 30
0.0
 10
405.3053397405429
 20
345.7226324905467
 30
0.0
 10
405.5081109201308
 20
345.7200910357091
 30
0.0
 10
405.7129318002765
 20
345.7176311219009
 30
0.0
 10
405.9198023444785
 20
345.7152527373943
 30
0.0
 10
406.1287226390264
 20
345.7129558852466
 30
0.0
 10
406.3522526242685
 20
345.7106086761537
 30
0.0
 10
406.5908573770617
 20
345.7082288116145
 30
0.0
 10
406.8449958745368
 20
345.7058356830437
 30
0.0
 10
407.1019809032014
 20
345.7035558210329
 30
0.0
 10
407.34279359518
 20
345.7015478474077
 30
0.0
 10
407.5665496907492
 20
345.6997860205323
 30
0.0
 10
407.7724828968332
 20
345.6982475475236
 30
0.0
 10
407.9794537426184
 20
345.6967839514422
 30
0.0
 10
408.1874622908043
 20
345.6953952244632
 30
0.0
 10
408.3965084347223
 20
345.6940813694478
 30
0.0
 10
408.6065922106057
 20
345.6928423858977
 30
0.0
 10
408.8247543783554
 20
345.6916394511563
 30
0.0
 10
409.0511240928682
 20
345.6904815339875
 30
0.0
 10
409.2858184173169
 20
345.6893780579596
 30
0.0
 10
409.5207988244583
 20
345.688369345472
 30
0.0
 10
409.7523882523877
 20
345.6874683266307
 30
0.0
 10
410.0166922269875
 20
345.6865421428911
 30
0.0
 10
410.3147488000248
 20
345.6856372520832
 30
0.0
 10
410.6502804973708
 20
345.6848058421571
 30
0.0
 10
410.986598742565
 20
345.6841592986173
 30
0.0
 10
411.3237018921834
 20
345.6836976319321
 30
0.0
 10
411.6615899553635
 20
345.6834208179939
 30
0.0
 10
412.0078828663131
 20
345.6833268759545
 30
0.0
 10
412.3620070052855
 20
345.6834301199151
 30
0.0
 10
412.7233475096237
 20
345.6837468108794
 30
0.0
 10
413.0836861324449
 20
345.6842746439511
 30
0.0
 10
413.398514224636
 20
345.684922073581
 30
0.0
 10
413.668166584997
 20
345.6856071274566
 30
0.0
 10
413.8930714991226
 20
345.6862628779996
 30
0.0
 10
414.1185746098458
 20
345.6870052693739
 30
0.0
 10
414.3480696091194
 20
345.6878481157103
 30
0.0
 10
414.6196715745686
 20
345.6889521447135
 30
0.0
 10
414.931395040832
 20
345.6903768386489
 30
0.0
 10
415.2786343982214
 20
345.6921771727977
 30
0.0
 10
415.623006877599
 20
345.6941777183275
 30
0.0
 10
415.9645108754004
 20
345.6963784763608
 30
0.0
 10
416.3031449981832
 20
345.6987794085631
 30
0.0
 10
416.5903995183846
 20
345.7010048008845
 30
0.0
 10
416.8274532762811
 20
345.7029649183374
 30
0.0
 10
417.0152906183038
 20
345.7045903298698
 30
0.0
 10
417.2015979429694
 20
345.7062753938825
 30
0.0
 10
417.3863759781299
 20
345.7080201017711
 30
0.0
 10
417.569624421889
 20
345.7098244548509
 30
0.0
 10
417.7513435133986
 20
345.7116884549918
 30
0.0
 10
417.9540613869336
 20
345.7138526040695
 30
0.0
 10
418.1770617879264
 20
345.7163460860457
 30
0.0
 10
418.4194598661267
 20
345.7192016041162
 30
0.0
 10
418.6589655061013
 20
345.7221698994853
 30
0.0
 10
418.884952702968
 20
345.7251126725556
 30
0.0
 10
419.0976182457578
 20
345.728009361855
 30
0.0
 10
419.2971412453663
 20
345.7308413700588
 30
0.0
 10
419.4936958263495
 20
345.7337473397816
 30
0.0
 10
419.6872823879838
 20
345.7367272601116
 30
0.0
 10
419.8779008573736
 20
345.739781135439
 30
0.0
 10
420.0767230686567
 20
345.7430951797814
 30
0.0
 10
420.2831132339313
 20
345.7466858461646
 30
0.0
 10
420.4963528561502
 20
345.7505701567254
 30
0.0
 10
420.7054691854258
 20
345.7545571910645
 30
0.0
 10
420.919667125028
 20
345.758830676873
 30
0.0
 10
421.1378681355696
 20
345.7633985732766
 30
0.0
 10
421.3588741085121
 20
345.7682697343047
 30
0.0
 10
421.5733351811003
 20
345.7732485218452
 30
0.0
 10
421.7812514193853
 20
345.7783349138545
 30
0.0
 10
421.9826224335836
 20
345.7835289067813
 30
0.0
 10
422.1774479426946
 20
345.7888304976604
 30
0.0
 10
422.3657278931187
 20
345.7942396591414
 30
0.0
 10
422.5310616966291
 20
345.7992586188851
 30
0.0
 10
422.6752327631358
 20
345.8038517522261
 30
0.0
 10
422.7997899806894
 20
345.807989078071
 30
0.0
 10
422.9203508558333
 20
345.8121682258309
 30
0.0
 10
423.036915963347
 20
345.8163891947614
 30
0.0
 10
423.1494851534027
 20
345.820651986623
 30
0.0
 10
423.2645223475683
 20
345.8252128733668
 30
0.0
 10
423.3811599917829
 20
345.8300813443811
 30
0.0
 10
423.4984477088748
 20
345.8352667645964
 30
0.0
 10
423.6101842088678
 20
345.8405102651911
 30
0.0
 10
423.7085954038869
 20
345.8454237868083
 30
0.0
 10
423.7949428967243
 20
345.8499892870879
 30
0.0
 10
423.8703437712136
 20
345.8541911306514
 30
0.0
 10
423.9420749122939
 20
345.8584141461268
 30
0.0
 10
424.0101367034705
 20
345.8626583347935
 30
0.0
 10
424.0745290045095
 20
345.8669236944748
 30
0.0
 10
424.135251839831
 20
345.8712102259103
 30
0.0
 10
424.194207915722
 20
345.875661588164
 30
0.0
 10
424.2509576712395
 20
345.8802804165014
 30
0.0
 10
424.3050392553869
 20
345.8850690994695
 30
0.0
 10
424.3544764591891
 20
345.8898636196445
 30
0.0
 10
424.3986355755247
 20
345.894588950569
 30
0.0
 10
424.4440280286342
 20
345.8999817863119
 30
0.0
 10
424.4883769108314
 20
345.9060633071931
 30
0.0
 10
424.5291244801009
 20
345.9129094673128
 30
0.0
 10
424.5608117102424
 20
345.9197716760877
 30
0.0
 10
424.5834380882143
 20
345.9266498999856
 30
0.0
 10
424.5970047955237
 20
345.9335441391929
 30
0.0
 10
424.6016089139412
 20
345.9406098701969
 30
0.0
 10
424.5965489064757
 20
345.947835388909
 30
0.0
 10
424.5810278180185
 20
345.9552081497243
 30
0.0
 10
424.5551586120177
 20
345.9625604682345
 30
0.0
 10
424.5234279544194
 20
345.9689841937615
 30
0.0
 10
424.4898533248982
 20
345.9744861575113
 30
0.0
 10
424.4577148576603
 20
345.9790750981866
 30
0.0
 10
424.421330105691
 20
345.9836762444143
 30
0.0
 10
424.3800220356281
 20
345.9883588407954
 30
0.0
 10
424.3259133500497
 20
345.9939005841211
 30
0.0
 10
424.2560888110366
 20
346.0002609631256
 30
0.0
 10
424.1678540689078
 20
346.007346005342
 30
0.0
 10
424.0698069263498
 20
346.0143725520238
 30
0.0
 10
423.9619473283508
 20
346.0213405704524
 30
0.0
 10
423.8442771536927
 20
346.0282500321959
 30
0.0
 10
423.7352102242294
 20
346.0341111489129
 30
0.0
 10
423.6391444699269
 20
346.0389479735599
 30
0.0
 10
423.5594827207403
 20
346.0427805906573
 30
0.0
 10
423.4768973913762
 20
346.0465819894112
 30
0.0
 10
423.3913889035545
 20
346.0503521846724
 30
0.0
 10
423.3029571928003
 20
346.0540911702813
 30
0.0
 10
423.211602167475
 20
346.0577989511173
 30
0.0
 10
423.1055367818221
 20
346.0619351893098
 30
0.0
 10
422.9833307239551
 20
346.0664852704616
 30
0.0
 10
422.8433812036033
 20
346.0714311401639
 30
0.0
 10
422.6979044449615
 20
346.0763179928034
 30
0.0
 10
422.553678539358
 20
346.0809290162834
 30
0.0
 10
422.4117112087197
 20
346.0852682258705
 30
0.0
 10
422.2729139117088
 20
346.0893392761282
 30
0.0
 10
422.1304917456326
 20
346.0933497590254
 30
0.0
 10
421.9844452452881
 20
346.0972996827092
 30
0.0
 10
421.8347741955068
 20
346.1011890456921
 30
0.0
 10
421.6723522094834
 20
346.1052457971244
 30
0.0
 10
421.4963729210853
 20
346.1094569644442
 30
0.0
 10
421.3060020719286
 20
346.1138078874989
 30
0.0
 10
421.11059670954
 20
346.1180746792361
 30
0.0
 10
420.9011523024884
 20
346.1224451557169
 30
0.0
 10
420.6772787724069
 20
346.1268973105154
 30
0.0
 10
420.4385421815031
 20
346.1314066975274
 30
0.0
 10
420.1945307933808
 20
346.1357825429511
 30
0.0
 10
419.9452456883865
 20
346.1400248481343
 30
0.0
 10
419.6906870405833
 20
346.1441336051239
 30
0.0
 10
419.430854995286
 20
346.1481088081863
 30
0.0
 10
419.1657508929523
 20
346.151950456228
 30
0.0
 10
418.9197706569902
 20
346.155323913046
 30
0.0
 10
418.6946602594779
 20
346.1582655671839
 30
0.0
 10
418.4918890799069
 20
346.1608070220215
 30
0.0
 10
418.2870681997737
 20
346.1632669358296
 30
0.0
 10
418.0801976555799
 20
346.165645320336
 30
0.0
 10
417.8712773610357
 20
346.1679421724837
 30
0.0
 10
417.6477473757924
 20
346.1702893815767
 30
0.0
 10
417.4091426229927
 20
346.1726692461159
 30
0.0
 10
417.1550041255051
 20
346.1750623746868
 30
0.0
 10
416.8980190968219
 20
346.1773422366977
 30
0.0
 10
416.6572064048312
 20
346.179350210323
 30
0.0
 10
416.4334503092581
 20
346.1811120371985
 30
0.0
 10
416.2275171031797
 20
346.1826505102071
 30
0.0
 10
416.0205462573999
 20
346.1841141062886
 30
0.0
 10
415.8125377092128
 20
346.1855028332669
 30
0.0
 10
415.6034915653123
 20
346.1868166882849
 30
0.0
 10
415.3934077893694
 20
346.1880556718254
 30
0.0
 10
415.1752456218483
 20
346.1892586066036
 30
0.0
 10
414.9488759063895
 20
346.1904165236217
 30
0.0
 10
414.7141815855264
 20
346.1915200002236
 30
0.0
 10
414.4792048243364
 20
346.1925286948673
 30
0.0
 10
414.2476339530101
 20
346.1934296516405
 30
0.0
 10
413.9833641914332
 20
346.1943556915007
 30
0.0
 10
413.6853463738326
 20
346.1952604774993
 30
0.0
 10
413.3498393427919
 20
346.1960915875676
 30
0.0
 10
413.0135231879694
 20
346.1967388622102
 30
0.0
 10
412.6763994985999
 20
346.1971978182026
 30
0.0
 10
412.3384684765017
 20
346.1974851872938
 30
0.0
 10
412.1128855987547
 20
346.1975206216599
 30
0.0
 10
412.0000000000003
 20
346.1975383536335
 30
0.0
  0
ARC
  5
95
330
1F
100
AcDbEntity
  8
0
  6
Continuous
 62
   252
370
     0
100
AcDbCircle
 10
412.0
 20
592.4400894756
 30
0.0
 40
246.7165237098206
100
AcDbArc
 50
267.095841012
 51
272.904158988
  0
CIRCLE
  5
96
330
1F
100
AcDbEntity
  8
0
  6
Continuous
 62
   252
370
     0
100
AcDbCircle
 10
412.0
 20
367.5859418982
 30
0.0
 40
14.02248442456425
  0
CIRCLE
  5
97
330
1F
100
AcDbEntity
  8
0
  6
Continuous
 62
   252
370
     0
100
AcDbCircle
 10
412.0
 20
367.5859418982
 30
0.0
 40
20.02116852541337
  0
ARC
  5
98
330
1F
100
AcDbEntity
  8
0
  6
Continuous
 62
     7
370
    30
100
AcDbCircle
 10
540.8565073017
 20
398.5859418982
 30
0.0
 40
4.0
100
AcDbArc
 50
0.0
 51
90.0
  0
ARC
  5
99
330
1F
100
AcDbEntity
  8
0
  6
Continuous
 62
     7
370
    30
100
AcDbCircle
 10
540.8565073017
 20
336.5859418982
 30
0.0
 40
4.0
100
AcDbArc
 50
270.0
 51
0.0
  0
LINE
  5
9A
330
1F
100
AcDbEntity
  8
0
  6
Continuous
 62
     7
370
    30
100
AcDbLine
 10
536.372010813
 20
332.5859418982
 30
0.0
 11
540.8565073017
 21
332.5859418982
 31
0.0
  0
LINE
  5
9B
330
1F
100
AcDbEntity
  8
0
  6
Continuous
 62
     7
370
    30
100
AcDbLine
 10
540.8565073017
 20
402.5859418982
 30
0.0
 11
536.372010813
 21
402.5859418982
 31
0.0
  0
ARC
  5
9C
330
1F
100
AcDbEntity
  8
0
  6
Continuous
 62
     7
370
    30
100
AcDbCircle
 10
783.9943850816
 20
346.3189416459
 30
0.0
 40
0.1000000000000394
100
AcDbArc
 50
271.169139328
 51
1.169139328
  0
ARC
  5
9D
330
1F
100
AcDbEntity
  8
0
  6
Continuous
 62
     7
370
    30
100
AcDbCircle
 10
756.7000684376
 20
345.7619147755
 30
0.0
 40
0.0999999999999803
100
AcDbArc
 50
181.169139328
 51
271.169139328
  0
LINE
  5
9E
330
1F
100
AcDbEntity
  8
0
  6
Continuous
 62
     7
370
    30
100
AcDbLine
 10
756.5779620366
 20
346.8441081214
 30
0.0
 11
756.6000892557
 21
345.7598743841
 31
0.0
  0
LINE
  5
9F
330
1F
100
AcDbEntity
  8
0
  6
Continuous
 62
     7
370
    30
100
AcDbLine
 10
784.0943642635
 20
346.3209820373
 30
0.0
 11
784.0719348203
 21
347.4200247517
 31
0.0
  0
LINE
  5
A0
330
1F
100
AcDbEntity
  8
0
  6
Continuous
 62
     7
370
    30
100
AcDbLine
 10
534.5760484777
 20
331.0400444102
 30
0.0
 11
536.372010813
 21
332.0769437465
 31
0.0
  0
LINE
  5
A1
330
1F
100
AcDbEntity
  8
0
  6
Continuous
 62
     7
370
    30
100
AcDbLine
 10
536.372010813
 20
403.0949400499
 30
0.0
 11
533.3565071436
 21
404.8359419028
 31
0.0
  0
ARC
  5
A2
330
1F
100
AcDbEntity
  8
0
  6
Continuous
 62
     7
370
    30
100
AcDbCircle
 10
747.0516016644
 20
363.4671030789
 30
0.0
 40
17.49999999998952
100
AcDbArc
 50
256.1167636894
 51
286.1674286786
  0
LINE
  5
A3
330
1F
100
AcDbEntity
  8
0
  6
Continuous
 62
     7
370
    30
100
AcDbLine
 10
742.8482898115
 20
346.5565124863
 30
0.0
 11
742.8525813417
 21
346.4783353682
 31
0.0
  0
LINE
  5
A4
330
1F
100
AcDbEntity
  8
0
  6
Continuous
 62
     7
370
    30
100
AcDbLine
 10
751.9243918997
 20
346.6591907956
 30
0.0
 11
751.925701653
 21
346.7466571584
 31
0.0
  0
ARC
  5
A5
330
1F
100
AcDbEntity
  8
0
  6
Continuous
 62
     7
370
    30
100
AcDbCircle
 10
722.0565682249
 20
362.9688026097
 30
0.0
 40
17.49999999998926
100
AcDbArc
 50
256.1167636894
 51
286.1674286786
  0
LINE
  5
A6
330
1F
100
AcDbEntity
  8
0
  6
Continuous
 62
     7
370
    30
100
AcDbLine
 10
717.8546420208
 20
346.0329701984
 30
0.0
 11
717.8575479022
 21
345.980034899
 31
0.0
  0
LINE
  5
A7
330
1F
100
AcDbEntity
  8
0
  6
Continuous
 62
     7
370
    30
100
AcDbLine
 10
726.9293584602
 20
346.1608903265
 30
0.0
 11
726.9302896799
 21
346.2230779161
 31
0.0
  0
LINE
  5
A8
330
1F
100
AcDbEntity
  8
0
  6
Continuous
 62
     7
370
    30
100
AcDbLine
 10
544.8565073017
 20
342.409175864
 30
0.0
 11
717.8546420208
 21
346.0329701984
 31
0.0
  0
LINE
  5
A9
330
1F
100
AcDbEntity
  8
0
  6
Continuous
 62
     7
370
    30
100
AcDbLine
 10
726.9302896799
 20
346.2230779161
 30
0.0
 11
742.8482898115
 21
346.5565124863
 31
0.0
  0
LINE
  5
AA
330
1F
100
AcDbEntity
  8
0
  6
Continuous
 62
     7
370
    30
100
AcDbLine
 10
751.925701653
 20
346.7466571584
 30
0.0
 11
756.5779620366
 21
346.8441081214
 31
0.0
  0
LINE
  5
AB
330
1F
100
AcDbEntity
  8
0
  6
Continuous
 62
     7
370
    30
100
AcDbLine
 10
784.0719348203
 20
347.4200247517
 30
0.0
 11
790.982161821
 21
347.5647733728
 31
0.0
  0
LINE
  5
AC
330
1F
100
AcDbEntity
  8
0
  6
Continuous
 62
     7
370
    30
100
AcDbLine
 10
790.982161821
 20
387.6071104236
 30
0.0
 11
544.8565073017
 21
392.7627079324
 31
0.0
  0
ARC
  5
AD
330
1F
100
AcDbEntity
  8
0
  6
Continuous
 62
     7
370
    30
100
AcDbCircle
 10
790.8565073017
 20
381.6084263228
 30
0.0
 40
6.0
100
AcDbArc
 50
0.0
 51
88.8
  0
ARC
  5
AE
330
1F
100
AcDbEntity
  8
0
  6
Continuous
 62
     7
370
    30
100
AcDbCircle
 10
790.8565073017
 20
353.5634574736
 30
0.0
 40
6.0
100
AcDbArc
 50
271.2
 51
0.0
  0
SPLINE
  5
AF
330
1F
100
AcDbEntity
  8
0
  6
Continuous
 62
     7
370
    30
100
AcDbSpline
210
0.0
220
0.0
230
1.0
 70
    24
 71
     3
 72
   121
 73
   117
 74
     0
 42
0.000000001
 43
0.00000001
 40
0.0
 40
0.0
 40
0.0
 40
0.0
 40
0.0104584113374207
 40
0.0209041306629709
 40
0.031339956381776
 40
0.0417686948633945
 40
0.0521931582012514
 40
0.0626161619490334
 40
0.0730405228431047
 40
0.080209563972955
 40
0.0873814915292541
 40
0.0945572185083247
 40
0.1017376564571939
 40
0.1089237151301386
 40
0.1161163021486242
 40
0.1237196061520513
 40
0.1313377933863077
 40
0.1414853264759947
 40
0.1516237842549251
 40
0.1617557442473288
 40
0.1718837889383756
 40
0.1820105038086415
 40
0.1921384753571376
 40
0.2010542044760152
 40
0.2099746691782489
 40
0.2189016268134603
 40
0.221909433780844
 40
0.2249182426727583
 40
0.2279281202594283
 40
0.2309391332399832
 40
0.2339513482381298
 40
0.2369648317978501
 40
0.2399796503791258
 40
0.2502964244994703
 40
0.2605993330771533
 40
0.2708910561904982
 40
0.2811742826635079
 40
0.2914517079889693
 40
0.3017260322255044
 40
0.3119999578766975
 40
0.3225502708398214
 40
0.3331059354043788
 40
0.3436698699703709
 40
0.3486537555079013
 40
0.3536404305353586
 40
0.358630198922255
 40
0.3636233639733444
 40
0.3686202283748582
 40
0.3791579091850068
 40
0.3896808064140815
 40
0.4001917745777363
 40
0.4106936779189244
 40
0.4211893881018777
 40
0.4316817818758477
 40
0.4421737387180262
 40
0.4537177959264842
 40
0.4652686391447401
 40
0.4768300917444877
 40
0.4884059665849738
 40
0.5000000622966662
 40
0.510537743277164
 40
0.5210606406226239
 40
0.5315716088588738
 40
0.5420735122391109
 40
0.5525692224378655
 40
0.5630616162147243
 40
0.573553573057235
 40
0.5807680799930485
 40
0.5879846769508328
 40
0.5952042984613183
 40
0.6024278778813557
 40
0.6096563470346326
 40
0.6168906358553478
 40
0.6241316720355181
 40
0.6313803806765736
 40
0.6416971552667741
 40
0.6520000641654807
 40
0.6622917874790825
 40
0.6725750140598333
 40
0.682852439428914
 40
0.693126763673439
 40
0.7034006893255389
 40
0.7139510023121299
 40
0.7245066669536482
 40
0.7350706016808637
 40
0.7386302530992227
 40
0.7421912834011725
 40
0.7457538034104656
 40
0.7493179238118914
 40
0.7528837551412083
 40
0.7564514077751469
 40
0.7600209919214856
 40
0.7711098348075086
 40
0.7821836885249706
 40
0.7932458869166317
 40
0.8042997743709653
 40
0.815348702823334
 40
0.8263960287230226
 40
0.8374451099797691
 40
0.8450441665118594
 40
0.8526467286235326
 40
0.8602538842784417
 40
0.8678667194708264
 40
0.8754863177664735
 40
0.883113759848841
 40
0.8903278964201562
 40
0.8975129421137695
 40
0.9089979226581999
 40
0.9204726322825851
 40
0.9319408115006352
 40
0.9434062072175747
 40
0.9548725690673528
 40
0.9661387474578622
 40
0.9774130209088998
 40
0.9886989289052707
 40
1.0
 40
1.0
 40
1.0
 40
1.0
 10
544.8565073017483
 20
367.5859418982021
 30
0.0
 10
544.8565073017483
 20
367.4161842544833
 30
0.0
 10
544.8565073017483
 20
367.0768749797908
 30
0.0
 10
544.8565073017483
 20
366.5683102775711
 30
0.0
 10
544.8565073017483
 20
366.0604992223942
 30
0.0
 10
544.8565073017483
 20
365.5534419474599
 30
0.0
 10
544.8565073017483
 20
365.0471384192359
 30
0.0
 10
544.8565073017483
 20
364.5415893029969
 30
0.0
 10
544.8565073017483
 20
364.0894012289091
 30
0.0
 10
544.8565073017483
 20
363.6903285211696
 30
0.0
 10
544.8565073017483
 20
363.3440999861427
 30
0.0
 10
544.8565073017483
 20
362.9982280742275
 30
0.0
 10
544.8565073017483
 20
362.6527125523817
 30
0.0
 10
544.8565073017483
 20
362.3075534435642
 30
0.0
 10
544.8565073017483
 20
361.9563069752219
 30
0.0
 10
544.8565073017483
 20
361.5989151548167
 30
0.0
 10
544.8565073017483
 20
361.1953521971526
 30
0.0
 10
544.8565073017483
 20
360.7527468977279
 30
0.0
 10
544.8565073017483
 20
360.2720029021527
 30
0.0
 10
544.8565073017483
 20
359.7934230471924
 30
0.0
 10
544.8565073017483
 20
359.3170077843233
 30
0.0
 10
544.8565073017483
 20
358.8427572705897
 30
0.0
 10
544.8565073017483
 20
358.3895641472774
 30
0.0
 10
544.8565073017483
 20
357.9571397744571
 30
0.0
 10
544.8565073017483
 20
357.5451834135919
 30
0.0
 10
544.8565073017483
 20
357.2257030761285
 30
0.0
 10
544.8565073017483
 20
356.9975515005703
 30
0.0
 10
544.8565073017483
 20
356.8599748602239
 30
0.0
 10
544.8565073017483
 20
356.722588323403
 30
0.0
 10
544.8565073017483
 20
356.5853918032226
 30
0.0
 10
544.8565073017483
 20
356.4483853458819
 30
0.0
 10
544.8565073017483
 20
356.3115688545285
 30
0.0
 10
544.8565073017483
 20
356.0646607978808
 30
0.0
 10
544.8565073017483
 20
355.7090970702656
 30
0.0
 10
544.8565073017483
 20
355.2471566442874
 30
0.0
 10
544.8565073017483
 20
354.7889367054759
 30
0.0
 10
544.8565073017483
 20
354.33443848235
 30
0.0
 10
544.8565073017483
 20
353.8836617854174
 30
0.0
 10
544.8565073017483
 20
353.4366067376409
 30
0.0
 10
544.8565073017483
 20
352.9893316159456
 30
0.0
 10
544.8565073017483
 20
352.5419506075895
 30
0.0
 10
544.8565073017483
 20
352.0945877417951
 30
0.0
 10
544.8565073017483
 20
351.7293728021424
 30
0.0
 10
544.8565073017483
 20
351.444169098996
 30
0.0
 10
544.8565073017483
 20
351.2373723546861
 30
0.0
 10
544.8565073017483
 20
351.0314474901907
 30
0.0
 10
544.8565073017483
 20
350.8263941720483
 30
0.0
 10
544.8565073017483
 20
350.5467996394138
 30
0.0
 10
544.8565073017483
 20
350.194677710817
 30
0.0
 10
544.8565073017483
 20
349.7727728606434
 30
0.0
 10
544.8565073017483
 20
349.3561947962837
 30
0.0
 10
544.8565073017483
 20
348.9449444888033
 30
0.0
 10
544.8565073017483
 20
348.5390218405881
 30
0.0
 10
544.8565073017483
 20
348.138426875929
 30
0.0
 10
544.8565073017483
 20
347.7299800268106
 30
0.0
 10
544.8565073017483
 20
347.3143117178261
 30
0.0
 10
544.8565073017483
 20
346.8921071812881
 30
0.0
 10
544.8565073017483
 20
346.4763498865283
 30
0.0
 10
544.8565073017483
 20
346.0670405651305
 30
0.0
 10
544.8565073017483
 20
345.6766669300698
 30
0.0
 10
544.8565073017483
 20
345.3049356249127
 30
0.0
 10
544.8565073017483
 20
344.951592820397
 30
0.0
 10
544.8565073017483
 20
344.6048128382424
 30
0.0
 10
544.8565073017483
 20
344.2645959284929
 30
0.0
 10
544.8565073017483
 20
343.9309420507738
 30
0.0
 10
544.8565073017483
 20
343.603851638911
 30
0.0
 10
544.8565073017483
 20
343.3167205588863
 30
0.0
 10
544.8565073017483
 20
343.0673804879441
 30
0.0
 10
544.8565073017483
 20
342.8539420853028
 30
0.0
 10
544.8565073017483
 20
342.6436055846918
 30
0.0
 10
544.8565073017483
 20
342.4363708129529
 30
0.0
 10
544.8565073017483
 20
342.2322378351162
 30
0.0
 10
544.8565073017483
 20
342.0312066120468
 30
0.0
 10
544.8565073017483
 20
341.8332772786736
 30
0.0
 10
544.8565073017483
 20
341.6110401173176
 30
0.0
 10
544.8565073017483
 20
341.3665398401876
 30
0.0
 10
544.8565073017483
 20
341.1021797614778
 30
0.0
 10
544.8565073017483
 20
340.8450199338175
 30
0.0
 10
544.8565073017483
 20
340.5950610722594
 30
0.0
 10
544.8565073017483
 20
340.3523030732112
 30
0.0
 10
544.8565073017483
 20
340.1167460130536
 30
0.0
 10
544.8565073017483
 20
339.8863595531614
 30
0.0
 10
544.8565073017483
 20
339.6613682524105
 30
0.0
 10
544.8565073017483
 20
339.4420035198712
 30
0.0
 10
544.8565073017483
 20
339.277103265235
 30
0.0
 10
544.8565073017483
 20
339.1618514053857
 30
0.0
 10
544.8565073017483
 20
339.0931154742971
 30
0.0
 10
544.8565073017483
 20
339.0252400478025
 30
0.0
 10
544.8565073017483
 20
338.9582250674145
 30
0.0
 10
544.8565073017483
 20
338.8920705330964
 30
0.0
 10
544.8565073017483
 20
338.8267765040079
 30
0.0
 10
544.8565073017483
 20
338.7171126763677
 30
0.0
 10
544.8565073017483
 20
338.5667117786975
 30
0.0
 10
544.8565073017483
 20
338.3812693516776
 30
0.0
 10
544.8565073017483
 20
338.2048379592068
 30
0.0
 10
544.8565073017483
 20
338.0374185756773
 30
0.0
 10
544.8565073017483
 20
337.8790109831322
 30
0.0
 10
544.8565073017483
 20
337.7296154433622
 30
0.0
 10
544.8565073017483
 20
337.603863020457
 30
0.0
 10
544.8565073017483
 20
337.4987606383285
 30
0.0
 10
544.8565073017483
 20
337.411739714648
 30
0.0
 10
544.8565073017483
 20
337.3289777684074
 30
0.0
 10
544.8565073017483
 20
337.2504746320336
 30
0.0
 10
544.8565073017483
 20
337.1762306043028
 30
0.0
 10
544.8565073017483
 20
337.1075359833883
 30
0.0
 10
544.8565073017483
 20
337.0442310803366
 30
0.0
 10
544.8565073017483
 20
336.9744981931705
 30
0.0
 10
544.8565073017483
 20
336.9003493826756
 30
0.0
 10
544.8565073017483
 20
336.8256457340225
 30
0.0
 10
544.8565073017483
 20
336.7609989604682
 30
0.0
 10
544.8565073017483
 20
336.7064046720061
 30
0.0
 10
544.8565073017483
 20
336.6621453387968
 30
0.0
 10
544.8565073017483
 20
336.6279488328157
 30
0.0
 10
544.8565073017483
 20
336.603843735043
 30
0.0
 10
544.8565073017483
 20
336.5887450123914
 30
0.0
 10
544.8565073017483
 20
336.58687668768
 30
0.0
 10
544.8565073017483
 20
336.5859418982021
 30
0.0
  0
SPLINE
  5
B0
330
1F
100
AcDbEntity
  8
0
  6
Continuous
 62
     7
370
    30
100
AcDbSpline
210
0.0
220
0.0
230
1.0
 70
    24
 71
     3
 72
   121
 73
   117
 74
     0
 42
0.000000001
 43
0.00000001
 40
0.0
 40
0.0
 40
0.0
 40
0.0
 40
0.0104575285596816
 40
0.0209025367949947
 40
0.031337824208008
 40
0.0417661981294714
 40
0.0521904714756931
 40
0.0626134604829248
 40
0.0730379824283292
 40
0.0802072364708969
 40
0.0873794603089088
 40
0.0945555669969622
 40
0.101736468108536
 40
0.1089230733926864
 40
0.1161162904341956
 40
0.1237196290046878
 40
0.1313378157766741
 40
0.1414853482506021
 40
0.1516238054143171
 40
0.1617557647918925
 40
0.1718838088683413
 40
0.1820105231240829
 40
0.1921384940579724
 40
0.2010542226358003
 40
0.2099746867966912
 40
0.2189016438901607
 40
0.2219094506750112
 40
0.2249182593843308
 40
0.2279281367883406
 40
0.230939149586166
 40
0.2339513644015094
 40
0.2369648477783489
 40
0.2399796661766613
 40
0.250296439671157
 40
0.2605993476237962
 40
0.2708910701127396
 40
0.2811742959618268
 40
0.2914517206636814
 40
0.3017260442767614
 40
0.311999969304486
 40
0.3225502816273323
 40
0.3331059455512496
 40
0.343669879476061
 40
0.3486537647110802
 40
0.3536404394358484
 40
0.3586302075198598
 40
0.3636233722678498
 40
0.3686202363660324
 40
0.3791579165367897
 40
0.3896808131273583
 40
0.4001917806532184
 40
0.4106936833571494
 40
0.4211893929032087
 40
0.431681786040473
 40
0.4421737422459578
 40
0.4537177987538623
 40
0.4652686412711368
 40
0.4768300931692426
 40
0.488405967307195
 40
0.5000000623152303
 40
0.5105377426562331
 40
0.5210606393631002
 40
0.5315716069614864
 40
0.5420735097044155
 40
0.5525692192662431
 40
0.5630616124063822
 40
0.5735535686122039
 40
0.5807680751102198
 40
0.5879846716300825
 40
0.5952042927024657
 40
0.6024278716841636
 40
0.609656340398807
 40
0.6168906287805386
 40
0.6241316645213186
 40
0.6313803727225212
 40
0.6416971466870616
 40
0.6520000549608803
 40
0.662291777650204
 40
0.6725750036071226
 40
0.682852428352654
 40
0.6931267519737483
 40
0.7034006770023714
 40
0.7139509893486425
 40
0.7245066533494434
 40
0.7350705874353672
 40
0.7386302386376186
 40
0.7421912687233687
 40
0.7457537885163639
 40
0.7493179087013865
 40
0.7528837398141881
 40
0.7564513922314928
 40
0.7600209761610738
 40
0.7711098183743239
 40
0.7821836714198964
 40
0.7932458691403488
 40
0.804299755923951
 40
0.8153486837058617
 40
0.8263960089351615
 40
0.8374450895213839
 40
0.8450441455923017
 40
0.8526467072425759
 40
0.8602538624357936
 40
0.8678666971661283
 40
0.8754862949993012
 40
0.8831137366187045
 40
0.8903284767344165
 40
0.8975140778118182
 40
0.9089997733645593
 40
0.9204749843441433
 40
0.9319434514766987
 40
0.9434089220891014
 40
0.9548751464461461
 40
0.9661409838784503
 40
0.9774147132979395
 40
0.988699875366634
 40
0.9999999999999999
 40
0.9999999999999999
 40
0.9999999999999999
 40
0.9999999999999999
 10
544.8565073017483
 20
398.585941898202
 30
0.0
 10
544.8565073017483
 20
398.5851461555768
 30
0.0
 10
544.8565073017483
 20
398.583555623033
 30
0.0
 10
544.8565073017483
 20
398.5706309845069
 30
0.0
 10
544.8565073017483
 20
398.549987665361
 30
0.0
 10
544.8565073017483
 20
398.5208716913816
 30
0.0
 10
544.8565073017483
 20
398.4834848093803
 30
0.0
 10
544.8565073017483
 20
398.4377730735685
 30
0.0
 10
544.8565073017483
 20
398.3893809032693
 30
0.0
 10
544.8565073017483
 20
398.3410669825443
 30
0.0
 10
544.8565073017483
 20
398.2951787159055
 30
0.0
 10
544.8565073017483
 20
398.2453615811508
 30
0.0
 10
544.8565073017483
 20
398.1916155972874
 30
0.0
 10
544.8565073017483
 20
398.1339408006647
 30
0.0
 10
544.8565073017483
 20
398.0711877882562
 30
0.0
 10
544.8565073017483
 20
398.0030814161494
 30
0.0
 10
544.8565073017483
 20
397.9211966051159
 30
0.0
 10
544.8565073017483
 20
397.8249607788405
 30
0.0
 10
544.8565073017483
 20
397.7123817259886
 30
0.0
 10
544.8565073017483
 20
397.5922225355649
 30
0.0
 10
544.8565073017483
 20
397.4644832824074
 30
0.0
 10
544.8565073017483
 20
397.329164026867
 30
0.0
 10
544.8565073017483
 20
397.191983490753
 30
0.0
 10
544.8565073017483
 20
397.0539685282728
 30
0.0
 10
544.8565073017483
 20
396.9160816753538
 30
0.0
 10
544.8565073017483
 20
396.8041401372178
 30
0.0
 10
544.8565073017483
 20
396.7217940551299
 30
0.0
 10
544.8565073017483
 20
396.6714048990754
 30
0.0
 10
544.8565073017483
 20
396.6203503220439
 30
0.0
 10
544.8565073017483
 20
396.5686302951065
 30
0.0
 10
544.8565073017483
 20
396.5162448391441
 30
0.0
 10
544.8565073017483
 20
396.4631939002898
 30
0.0
 10
544.8565073017483
 20
396.3661190295747
 30
0.0
 10
544.8565073017483
 20
396.222050445321
 30
0.0
 10
544.8565073017483
 20
396.0261582229479
 30
0.0
 10
544.8565073017483
 20
395.8230521544724
 30
0.0
 10
544.8565073017483
 20
395.6127326557926
 30
0.0
 10
544.8565073017483
 20
395.3951996615169
 30
0.0
 10
544.8565073017483
 20
395.1704532040428
 30
0.0
 10
544.8565073017483
 20
394.9364309191041
 30
0.0
 10
544.8565073017483
 20
394.6929051597766
 30
0.0
 10
544.8565073017483
 20
394.4396505678224
 30
0.0
 10
544.8565073017483
 20
394.2248091670495
 30
0.0
 10
544.8565073017483
 20
394.0523175546454
 30
0.0
 10
544.8565073017483
 20
393.9250299900928
 30
0.0
 10
544.8565073017483
 20
393.7960531227406
 30
0.0
 10
544.8565073017483
 20
393.6653866680077
 30
0.0
 10
544.8565073017483
 20
393.4841465313678
 30
0.0
 10
544.8565073017483
 20
393.2498054880573
 30
0.0
 10
544.8565073017483
 20
392.958896178856
 30
0.0
 10
544.8565073017483
 20
392.6614056637654
 30
0.0
 10
544.8565073017483
 20
392.3573343665972
 30
0.0
 10
544.8565073017483
 20
392.0466822737269
 30
0.0
 10
544.8565073017483
 20
391.7294493501275
 30
0.0
 10
544.8565073017483
 20
391.3948385861094
 30
0.0
 10
544.8565073017483
 20
391.0420519715022
 30
0.0
 10
544.8565073017483
 20
390.670283001363
 30
0.0
 10
544.8565073017483
 20
390.2905512669423
 30
0.0
 10
544.8565073017483
 20
389.902856880279
 30
0.0
 10
544.8565073017483
 20
389.5194664866448
 30
0.0
 10
544.8565073017483
 20
389.1416078799414
 30
0.0
 10
544.8565073017483
 20
388.7704185351914
 30
0.0
 10
544.8565073017483
 20
388.39387989107
 30
0.0
 10
544.8565073017483
 20
388.0119916300785
 30
0.0
 10
544.8565073017483
 20
387.6247538156353
 30
0.0
 10
544.8565073017483
 20
387.2321669609365
 30
0.0
 10
544.8565073017483
 20
386.8756920858755
 30
0.0
 10
544.8565073017483
 20
386.557120864082
 30
0.0
 10
544.8565073017483
 20
386.2779287931675
 30
0.0
 10
544.8565073017483
 20
385.9962089162292
 30
0.0
 10
544.8565073017483
 20
385.7119610505508
 30
0.0
 10
544.8565073017483
 20
385.4251852390845
 30
0.0
 10
544.8565073017483
 20
385.1358815873592
 30
0.0
 10
544.8565073017483
 20
384.8440497259626
 30
0.0
 10
544.8565073017483
 20
384.5082794516458
 30
0.0
 10
544.8565073017483
 20
384.1276811971699
 30
0.0
 10
544.8565073017483
 20
383.7012108821727
 30
0.0
 10
544.8565073017483
 20
383.2709943075865
 30
0.0
 10
544.8565073017483
 20
382.8370317143479
 30
0.0
 10
544.8565073017483
 20
382.3993231568098
 30
0.0
 10
544.8565073017483
 20
381.9578686703652
 30
0.0
 10
544.8565073017483
 20
381.5087099760745
 30
0.0
 10
544.8565073017483
 20
381.0517269119084
 30
0.0
 10
544.8565073017483
 20
380.5868071544018
 30
0.0
 10
544.8565073017483
 20
380.2217183085767
 30
0.0
 10
544.8565073017483
 20
379.958822770047
 30
0.0
 10
544.8565073017483
 20
379.7996222315148
 30
0.0
 10
544.8565073017483
 20
379.6399742163622
 30
0.0
 10
544.8565073017483
 20
379.4798785852507
 30
0.0
 10
544.8565073017483
 20
379.3193354226937
 30
0.0
 10
544.8565073017483
 20
379.1583445329227
 30
0.0
 10
544.8565073017483
 20
378.8835832959201
 30
0.0
 10
544.8565073017483
 20
378.4939034507871
 30
0.0
 10
544.8565073017483
 20
377.9874717447235
 30
0.0
 10
544.8565073017483
 20
377.4784299347095
 30
0.0
 10
544.8565073017483
 20
376.9667793791786
 30
0.0
 10
544.8565073017483
 20
376.4525197231018
 30
0.0
 10
544.8565073017483
 20
375.9356518438096
 30
0.0
 10
544.8565073017483
 20
375.4703163002248
 30
0.0
 10
544.8565073017483
 20
375.0573844434082
 30
0.0
 10
544.8565073017483
 20
374.6975269425945
 30
0.0
 10
544.8565073017483
 20
374.3364369587287
 30
0.0
 10
544.8565073017483
 20
373.9741142217698
 30
0.0
 10
544.8565073017483
 20
373.6105587942074
 30
0.0
 10
544.8565073017483
 20
373.2524919864226
 30
0.0
 10
544.8565073017483
 20
372.9005895635263
 30
0.0
 10
544.8565073017483
 20
372.4862401362162
 30
0.0
 10
544.8565073017483
 20
372.0025397940531
 30
0.0
 10
544.8565073017483
 20
371.4486852877363
 30
0.0
 10
544.8565073017483
 20
370.8938966186071
 30
0.0
 10
544.8565073017483
 20
370.3381748624337
 30
0.0
 10
544.8565073017483
 20
369.7848350741741
 30
0.0
 10
544.8565073017483
 20
369.2338986640479
 30
0.0
 10
544.8565073017483
 20
368.6853792736584
 30
0.0
 10
544.8565073017483
 20
368.1359603041461
 30
0.0
 10
544.8565073017483
 20
367.7693623228883
 30
0.0
 10
544.8565073017483
 20
367.5859418982021
 30
0.0
  0
LINE
  5
B1
330
1F
100
AcDbEntity
  8
0
  6
Continuous
 62
     7
370
    30
100
AcDbLine
 10
783.9964254731
 20
346.218962464
 30
0.0
 11
756.7021088291
 21
345.6619355937
 31
0.0
  0
LINE
  5
B2
330
1F
100
AcDbEntity
  8
0
  6
Continuous
 62
     7
370
    30
100
AcDbLine
 10
533.3565071405
 20
404.8359418976
 30
0.0
 11
533.3565071466
 21
330.3770727026
 31
0.0
  0
LINE
  5
B3
330
1F
100
AcDbEntity
  8
0
  6
Continuous
 62
     7
370
    30
100
AcDbLine
 10
536.372010813
 20
367.5859418982
 30
0.0
 11
536.372010813
 21
403.0949400499
 31
0.0
  0
LINE
  5
B4
330
1F
100
AcDbEntity
  8
0
  6
Continuous
 62
     7
370
    30
100
AcDbLine
 10
536.372010813
 20
332.0769437465
 30
0.0
 11
536.372010813
 21
367.5859418982
 31
0.0
  0
SPLINE
  5
B5
330
1F
100
AcDbEntity
  8
0
  6
Continuous
 62
     7
370
    30
100
AcDbSpline
210
0.0
220
0.0
230
1.0
 70
     8
 71
     3
 72
    29
 73
    25
 74
     0
 42
0.000000001
 43
0.00000001
 40
0.0
 40
0.0
 40
0.0
 40
0.0
 40
0.053486960250655
 40
0.1072660576286719
 40
0.161145290686827
 40
0.2157076645954516
 40
0.2703952312796084
 40
0.3258294865720158
 40
0.3814242587803925
 40
0.4374356408615862
 40
0.4692534981073791
 40
0.5011116445239416
 40
0.5572664105918769
 40
0.6136840832013112
 40
0.6543863639310088
 40
0.6952089581868498
 40
0.735060093803748
 40
0.7750405432751539
 40
0.8236507131471007
 40
0.8725259259301831
 40
0.9138331632570167
 40
0.9553165686806331
 40
0.9828406216210478
 40
1.0
 40
1.0
 40
1.0
 40
1.0
 10
533.3565071497399
 20
330.3770727010116
 30
0.0
 10
533.3904098142715
 20
330.395886495032
 30
0.0
 10
533.4584003142056
 20
330.4336168409734
 30
0.0
 10
533.5582406421653
 20
330.4887767229552
 30
0.0
 10
533.656705421516
 20
330.5430036671748
 30
0.0
 10
533.7531960443433
 20
330.5959574410071
 30
0.0
 10
533.8477259594255
 20
330.6476605305519
 30
0.0
 10
533.9395186457157
 20
330.6976986556616
 30
0.0
 10
534.0282055218373
 20
330.7458859520698
 30
0.0
 10
534.1006086848167
 20
330.7851011494534
 30
0.0
 10
534.1582382141396
 20
330.8162414854926
 30
0.0
 10
534.2137769576201
 20
330.84620206302
 30
0.0
 10
534.2768879053183
 20
330.8801704921768
 30
0.0
 10
534.3380318961265
 20
330.9129932241667
 30
0.0
 10
534.388018894265
 20
330.9397719891116
 30
0.0
 10
534.4280133154127
 20
330.9611632866208
 30
0.0
 10
534.4635744202358
 20
330.9801561491433
 30
0.0
 10
534.4967413145465
 20
330.9978479070978
 30
0.0
 10
534.526374832099
 20
331.0136353375691
 30
0.0
 10
534.5493845647376
 20
331.0258807716386
 30
0.0
 10
534.5649523301504
 20
331.0341598098917
 30
0.0
 10
534.5728410742234
 20
331.0383532000508
 30
0.0
 10
534.5761216450621
 20
331.0400967439957
 30
0.0
 10
534.5760644875227
 20
331.0400663647063
 30
0.0
 10
534.5760425378242
 20
331.0400546984196
 30
0.0
  0
LINE
  5
B6
330
1F
100
AcDbEntity
  8
0
  6
Continuous
 62
     7
370
    30
100
AcDbLine
 10
747.3884866207
 20
346.5687630819
 30
0.0
 11
751.9243918997
 21
346.6591907956
 31
0.0
  0
LINE
  5
B7
330
1F
100
AcDbEntity
  8
0
  6
Continuous
 62
     7
370
    30
100
AcDbLine
 10
742.8525813417
 20
346.4783353682
 30
0.0
 11
747.3884866207
 21
346.5687630819
 31
0.0
  0
LINE
  5
B8
330
1F
100
AcDbEntity
  8
0
  6
Continuous
 62
     7
370
    30
100
AcDbLine
 10
722.3934531812
 20
346.0704626127
 30
0.0
 11
726.9293584602
 21
346.1608903265
 31
0.0
  0
LINE
  5
B9
330
1F
100
AcDbEntity
  8
0
  6
Continuous
 62
     7
370
    30
100
AcDbLine
 10
717.8575479022
 20
345.980034899
 30
0.0
 11
722.3934531812
 21
346.0704626127
 31
0.0
  0
LINE
  5
BA
330
1F
100
AcDbEntity
  8
0
  6
Continuous
 62
     7
370
    30
100
AcDbLine
 10
796.8565073017
 20
381.6084263228
 30
0.0
 11
796.8565073017
 21
353.5634574736
 31
0.0
  0
LINE
  5
BB
330
1F
100
AcDbEntity
  8
0
  6
Continuous
 62
   252
370
     0
100
AcDbLine
 10
540.8565073017
 20
367.5859418982
 30
0.0
 11
540.8565073017
 21
332.5859418982
 31
0.0
  0
LINE
  5
BC
330
1F
100
AcDbEntity
  8
0
  6
Continuous
 62
   252
370
     0
100
AcDbLine
 10
540.8565073017
 20
402.5859418982
 30
0.0
 11
540.8565073017
 21
367.5859418982
 31
0.0
  0
LINE
  5
BD
330
1F
100
AcDbEntity
  8
0
  6
Continuous
 62
   252
370
     0
100
AcDbLine
 10
784.0943642635
 20
346.3209820373
 30
0.0
 11
756.6000892557
 21
345.7598743841
 31
0.0
  0
LINE
  5
BE
330
1F
100
AcDbEntity
  8
0
  6
Continuous
 62
   252
370
     0
100
AcDbLine
 10
790.982161821
 20
367.5859418982
 30
0.0
 11
790.982161821
 21
387.6071104236
 31
0.0
  0
LINE
  5
BF
330
1F
100
AcDbEntity
  8
0
  6
Continuous
 62
   252
370
     0
100
AcDbLine
 10
790.982161821
 20
347.5647733728
 30
0.0
 11
790.982161821
 21
367.5859418982
 31
0.0
  0
ARC
  5
C0
330
1F
100
AcDbEntity
  8
0
  6
Continuous
 62
     7
370
    30
100
AcDbCircle
 10
283.1434926983
 20
336.5859418982
 30
0.0
 40
4.0
100
AcDbArc
 50
180.0
 51
270.0
  0
ARC
  5
C1
330
1F
100
AcDbEntity
  8
0
  6
Continuous
 62
     7
370
    30
100
AcDbCircle
 10
283.1434926983
 20
398.5859418982
 30
0.0
 40
4.0
100
AcDbArc
 50
90.0
 51
180.0
  0
LINE
  5
C2
330
1F
100
AcDbEntity
  8
0
  6
Continuous
 62
     7
370
    30
100
AcDbLine
 10
287.627989187
 20
402.5859418982
 30
0.0
 11
283.1434926983
 21
402.5859418982
 31
0.0
  0
LINE
  5
C3
330
1F
100
AcDbEntity
  8
0
  6
Continuous
 62
     7
370
    30
100
AcDbLine
 10
283.1434926983
 20
332.5859418982
 30
0.0
 11
287.627989187
 21
332.5859418982
 31
0.0
  0
ARC
  5
C4
330
1F
100
AcDbEntity
  8
0
  6
Continuous
 62
     7
370
    30
100
AcDbCircle
 10
67.2999315624
 20
345.7619147755
 30
0.0
 40
0.0999999999999811
100
AcDbArc
 50
268.830860672
 51
358.830860672
  0
ARC
  5
C5
330
1F
100
AcDbEntity
  8
0
  6
Continuous
 62
     7
370
    30
100
AcDbCircle
 10
40.0056149184
 20
346.3189416459
 30
0.0
 40
0.1000000000000385
100
AcDbArc
 50
178.830860672
 51
268.830860672
  0
LINE
  5
C6
330
1F
100
AcDbEntity
  8
0
  6
Continuous
 62
     7
370
    30
100
AcDbLine
 10
39.9280651797
 20
347.4200247517
 30
0.0
 11
39.9056357365
 21
346.3209820373
 31
0.0
  0
LINE
  5
C7
330
1F
100
AcDbEntity
  8
0
  6
Continuous
 62
     7
370
    30
100
AcDbLine
 10
67.3999107443
 20
345.7598743841
 30
0.0
 11
67.4220379634
 21
346.8441081214
 31
0.0
  0
LINE
  5
C8
330
1F
100
AcDbEntity
  8
0
  6
Continuous
 62
     7
370
    30
100
AcDbLine
 10
290.6434928564
 20
404.8359419028
 30
0.0
 11
287.627989187
 21
403.0949400499
 31
0.0
  0
LINE
  5
C9
330
1F
100
AcDbEntity
  8
0
  6
Continuous
 62
     7
370
    30
100
AcDbLine
 10
287.627989187
 20
332.0769437465
 30
0.0
 11
289.4239535467
 21
331.0400432414
 31
0.0
  0
LINE
  5
CA
330
1F
100
AcDbEntity
  8
0
  6
Continuous
 62
     7
370
    30
100
AcDbLine
 10
72.074298347
 20
346.7466571584
 30
0.0
 11
72.0756081003
 21
346.6591907956
 31
0.0
  0
LINE
  5
CB
330
1F
100
AcDbEntity
  8
0
  6
Continuous
 62
     7
370
    30
100
AcDbLine
 10
81.1474186583
 20
346.4783353682
 30
0.0
 11
81.1517101885
 21
346.5565124863
 31
0.0
  0
ARC
  5
CC
330
1F
100
AcDbEntity
  8
0
  6
Continuous
 62
     7
370
    30
100
AcDbCircle
 10
76.9483983356
 20
363.4671030789
 30
0.0
 40
17.49999999998951
100
AcDbArc
 50
253.8325713214
 51
283.8832363106
  0
LINE
  5
CD
330
1F
100
AcDbEntity
  8
0
  6
Continuous
 62
     7
370
    30
100
AcDbLine
 10
97.0697103201
 20
346.2230779161
 30
0.0
 11
97.0706415398
 21
346.1608903265
 31
0.0
  0
LINE
  5
CE
330
1F
100
AcDbEntity
  8
0
  6
Continuous
 62
     7
370
    30
100
AcDbLine
 10
106.1424520978
 20
345.980034899
 30
0.0
 11
106.1453579792
 21
346.0329701984
 31
0.0
  0
ARC
  5
CF
330
1F
100
AcDbEntity
  8
0
  6
Continuous
 62
     7
370
    30
100
AcDbCircle
 10
101.9434317751
 20
362.9688026097
 30
0.0
 40
17.49999999998925
100
AcDbArc
 50
253.8325713214
 51
283.8832363106
  0
LINE
  5
D0
330
1F
100
AcDbEntity
  8
0
  6
Continuous
 62
     7
370
    30
100
AcDbLine
 10
279.1434926983
 20
392.7627079324
 30
0.0
 11
33.017838179
 21
387.6071104236
 31
0.0
  0
LINE
  5
D1
330
1F
100
AcDbEntity
  8
0
  6
Continuous
 62
     7
370
    30
100
AcDbLine
 10
33.017838179
 20
347.5647733728
 30
0.0
 11
39.9280651797
 21
347.4200247517
 31
0.0
  0
LINE
  5
D2
330
1F
100
AcDbEntity
  8
0
  6
Continuous
 62
     7
370
    30
100
AcDbLine
 10
67.4220379634
 20
346.8441081214
 30
0.0
 11
72.074298347
 21
346.7466571584
 31
0.0
  0
LINE
  5
D3
330
1F
100
AcDbEntity
  8
0
  6
Continuous
 62
     7
370
    30
100
AcDbLine
 10
81.1517101885
 20
346.5565124863
 30
0.0
 11
97.0697103201
 21
346.2230779161
 31
0.0
  0
LINE
  5
D4
330
1F
100
AcDbEntity
  8
0
  6
Continuous
 62
     7
370
    30
100
AcDbLine
 10
106.1453579792
 20
346.0329701984
 30
0.0
 11
279.1434926983
 21
342.409175864
 31
0.0
  0
ARC
  5
D5
330
1F
100
AcDbEntity
  8
0
  6
Continuous
 62
     7
370
    30
100
AcDbCircle
 10
33.1434926983
 20
353.5634574736
 30
0.0
 40
6.000000000000004
100
AcDbArc
 50
180.0
 51
268.8
  0
ARC
  5
D6
330
1F
100
AcDbEntity
  8
0
  6
Continuous
 62
     7
370
    30
100
AcDbCircle
 10
33.1434926983
 20
381.6084263228
 30
0.0
 40
6.000000000000004
100
AcDbArc
 50
91.2
 51
180.0
  0
LINE
  5
D7
330
1F
100
AcDbEntity
  8
0
  6
Continuous
 62
     7
370
    30
100
AcDbLine
 10
279.1434926983
 20
336.5859418982
 30
0.0
 11
279.1434926983
 21
398.5859418982
 31
0.0
  0
LINE
  5
D8
330
1F
100
AcDbEntity
  8
0
  6
Continuous
 62
     7
370
    30
100
AcDbLine
 10
67.2978911709
 20
345.6619355937
 30
0.0
 11
40.0035745269
 21
346.218962464
 31
0.0
  0
LINE
  5
D9
330
1F
100
AcDbEntity
  8
0
  6
Continuous
 62
     7
370
    30
100
AcDbLine
 10
290.6434928533
 20
330.3770727027
 30
0.0
 11
290.6434928595
 21
404.8359418976
 31
0.0
  0
LINE
  5
DA
330
1F
100
AcDbEntity
  8
0
  6
Continuous
 62
     7
370
    30
100
AcDbLine
 10
287.627989187
 20
403.0949400499
 30
0.0
 11
287.627989187
 21
332.0769437465
 31
0.0
  0
SPLINE
  5
DB
330
1F
100
AcDbEntity
  8
0
  6
Continuous
 62
     7
370
    30
100
AcDbSpline
210
0.0
220
0.0
230
1.0
 70
     8
 71
     3
 72
    30
 73
    26
 74
     0
 42
0.000000001
 43
0.00000001
 40
0.0
 40
0.0
 40
0.0
 40
0.0
 40
0.010528342737121
 40
0.0383517565763425
 40
0.0661752366053546
 40
0.0943318492151289
 40
0.1224886251020467
 40
0.1508661762077324
 40
0.1792439756882706
 40
0.2319959155477173
 40
0.2850708987073042
 40
0.3386077651458411
 40
0.3924306493252799
 40
0.437687644862363
 40
0.487821138670823
 40
0.5381315740086184
 40
0.5889303912402672
 40
0.6398798904020165
 40
0.686476059135405
 40
0.7349909435325392
 40
0.7934477816308892
 40
0.852061315566132
 40
0.9061569824630613
 40
0.9603552934684005
 40
1.0
 40
1.0
 40
1.0
 40
1.0
 10
289.4239595304062
 20
331.0400536055276
 30
0.0
 10
289.4238819614725
 20
331.040094827807
 30
0.0
 10
289.4235993999206
 20
331.0402449888409
 30
0.0
 10
289.4257917567724
 20
331.0390798730888
 30
0.0
 10
289.4305308937973
 20
331.0365607973742
 30
0.0
 10
289.4380538774741
 20
331.0325611730726
 30
0.0
 10
289.4481653236637
 20
331.027183439411
 30
0.0
 10
289.4608806521017
 20
331.0204179745978
 30
0.0
 10
289.4805078270308
 20
331.0099691878853
 30
0.0
 10
289.5101041926721
 20
330.9941998676399
 30
0.0
 10
289.5533069475509
 20
330.9711464391193
 30
0.0
 10
289.6043994938199
 20
330.9438338903806
 30
0.0
 10
289.6596917933549
 20
330.9142147322213
 30
0.0
 10
289.7192367471971
 20
330.8822485250275
 30
0.0
 10
289.7821272747261
 20
330.8484114429054
 30
0.0
 10
289.8521036160118
 20
330.8106674105917
 30
0.0
 10
289.9267409638374
 20
330.7703015952773
 30
0.0
 10
290.0033283067667
 20
330.7287642248564
 30
0.0
 10
290.0819189276311
 20
330.6860201999129
 30
0.0
 10
290.1674899062181
 20
330.6393484038387
 30
0.0
 10
290.2629554681747
 20
330.587110511675
 30
0.0
 10
290.3647776882695
 20
330.531191650456
 30
0.0
 10
290.4666609423534
 20
330.4750348689545
 30
0.0
 10
290.558790848877
 20
330.4240884632264
 30
0.0
 10
290.6183370839835
 20
330.3910359782221
 30
0.0
 10
290.6434928502602
 20
330.3770727010116
 30
0.0
  0
LINE
  5
DC
330
1F
100
AcDbEntity
  8
0
  6
Continuous
 62
     7
370
    30
100
AcDbLine
 10
72.0756081003
 20
346.6591907956
 30
0.0
 11
81.1474186583
 21
346.4783353682
 31
0.0
  0
LINE
  5
DD
330
1F
100
AcDbEntity
  8
0
  6
Continuous
 62
     7
370
    30
100
AcDbLine
 10
97.0706415398
 20
346.1608903265
 30
0.0
 11
106.1424520978
 21
345.980034899
 31
0.0
  0
LINE
  5
DE
330
1F
100
AcDbEntity
  8
0
  6
Continuous
 62
     7
370
    30
100
AcDbLine
 10
27.1434926983
 20
367.5859418982
 30
0.0
 11
27.1434926983
 21
381.6084263228
 31
0.0
  0
LINE
  5
DF
330
1F
100
AcDbEntity
  8
0
  6
Continuous
 62
     7
370
    30
100
AcDbLine
 10
27.1434926983
 20
353.5634574736
 30
0.0
 11
27.1434926983
 21
367.5859418982
 31
0.0
  0
LINE
  5
E0
330
1F
100
AcDbEntity
  8
0
  6
Continuous
 62
   252
370
     0
100
AcDbLine
 10
283.1434926983
 20
332.5859418982
 30
0.0
 11
283.1434926983
 21
402.5859418982
 31
0.0
  0
LINE
  5
E1
330
1F
100
AcDbEntity
  8
0
  6
Continuous
 62
   252
370
     0
100
AcDbLine
 10
67.3999107443
 20
345.7598743841
 30
0.0
 11
39.9056357365
 21
346.3209820373
 31
0.0
  0
LINE
  5
E2
330
1F
100
AcDbEntity
  8
0
  6
Continuous
 62
   252
370
     0
100
AcDbLine
 10
33.017838179
 20
387.6071104236
 30
0.0
 11
33.017838179
 21
347.5647733728
 31
0.0
  0
ARC
  5
E3
330
1F
100
AcDbEntity
  8
0
  6
Continuous
 62
     7
370
    30
100
AcDbCircle
 10
443.0
 20
268.1434926983
 30
0.0
 40
4.0
100
AcDbArc
 50
270.0
 51
0.0
  0
ARC
  5
E4
330
1F
100
AcDbEntity
  8
0
  6
Continuous
 62
     7
370
    30
100
AcDbCircle
 10
381.0
 20
268.1434926983
 30
0.0
 40
4.0
100
AcDbArc
 50
180.0
 51
270.0
  0
LINE
  5
E5
330
1F
100
AcDbEntity
  8
0
  6
Continuous
 62
     7
370
    30
100
AcDbLine
 10
377.0
 20
272.627989187
 30
0.0
 11
377.0
 21
268.1434926983
 31
0.0
  0
LINE
  5
E6
330
1F
100
AcDbEntity
  8
0
  6
Continuous
 62
     7
370
    30
100
AcDbLine
 10
447.0
 20
268.1434926983
 30
0.0
 11
447.0
 21
272.627989187
 31
0.0
  0
LINE
  5
E7
330
1F
100
AcDbEntity
  8
0
  6
Continuous
 62
     7
370
    30
100
AcDbLine
 10
374.7499999954
 20
275.6434928564
 30
0.0
 11
376.4910018483
 21
272.627989187
 31
0.0
  0
LINE
  5
E8
330
1F
100
AcDbEntity
  8
0
  6
Continuous
 62
     7
370
    30
100
AcDbLine
 10
447.5089981517
 20
272.627989187
 30
0.0
 11
449.2500000046
 21
275.6434928564
 31
0.0
  0
LINE
  5
E9
330
1F
100
AcDbEntity
  8
0
  6
Continuous
 62
     7
370
    30
100
AcDbLine
 10
386.8232339658
 20
264.1434926983
 30
0.0
 11
391.9788314746
 21
18.017838179
 31
0.0
  0
LINE
  5
EA
330
1F
100
AcDbEntity
  8
0
  6
Continuous
 62
     7
370
    30
100
AcDbLine
 10
432.0211685254
 20
18.017838179
 30
0.0
 11
437.1767660342
 21
264.1434926983
 31
0.0
  0
ARC
  5
EB
330
1F
100
AcDbEntity
  8
0
  6
Continuous
 62
     7
370
    30
100
AcDbCircle
 10
426.0224844246
 20
18.1434926983
 30
0.0
 40
6.000000000000005
100
AcDbArc
 50
270.0
 51
358.8
  0
ARC
  5
EC
330
1F
100
AcDbEntity
  8
0
  6
Continuous
 62
     7
370
    30
100
AcDbCircle
 10
397.9775155754
 20
18.1434926983
 30
0.0
 40
6.000000000000005
100
AcDbArc
 50
181.2
 51
270.0
  0
LINE
  5
ED
330
1F
100
AcDbEntity
  8
0
  6
Continuous
 62
     7
370
    30
100
AcDbLine
 10
443.0
 20
264.1434926983
 30
0.0
 11
381.0
 21
264.1434926983
 31
0.0
  0
LINE
  5
EE
330
1F
100
AcDbEntity
  8
0
  6
Continuous
 62
     7
370
    30
100
AcDbLine
 10
449.2499999979
 20
275.6434928564
 30
0.0
 11
374.7500000021
 21
275.6434928564
 31
0.0
  0
LINE
  5
EF
330
1F
100
AcDbEntity
  8
0
  6
Continuous
 62
     7
370
    30
100
AcDbLine
 10
376.4910018483
 20
272.627989187
 30
0.0
 11
447.5089981517
 21
272.627989187
 31
0.0
  0
LINE
  5
F0
330
1F
100
AcDbEntity
  8
0
  6
Continuous
 62
     7
370
    30
100
AcDbLine
 10
426.0224844246
 20
12.1434926983
 30
0.0
 11
397.9775155754
 21
12.1434926983
 31
0.0
  0
LINE
  5
F1
330
1F
100
AcDbEntity
  8
0
  6
Continuous
 62
   252
370
     0
100
AcDbLine
 10
447.0
 20
268.1434926983
 30
0.0
 11
377.0
 21
268.1434926983
 31
0.0
  0
LINE
  5
F2
330
1F
100
AcDbEntity
  8
0
  6
Continuous
 62
   252
370
     0
100
AcDbLine
 10
391.9788314746
 20
18.017838179
 30
0.0
 11
432.0211685254
 21
18.017838179
 31
0.0
  0
SPLINE
  5
F3
330
1F
100
AcDbEntity
  8
0
  6
Continuous
 62
     7
370
    30
100
AcDbSpline
210
0.0
220
0.0
230
1.0
 70
     8
 71
     3
 72
    87
 73
    83
 74
     0
 42
0.000000001
 43
0.00000001
 40
0.0
 40
0.0
 40
0.0
 40
0.0
 40
0.0094209946312565
 40
0.022469887941738
 40
0.0355189329667829
 40
0.048567691770204
 40
0.061615706092627
 40
0.0746624970985024
 40
0.0877075652145458
 40
0.1007503900715246
 40
0.1137904305556856
 40
0.1268271249817132
 40
0.1398598913954408
 40
0.152888128015026
 40
0.1659112138195348
 40
0.1789285092926927
 40
0.1919393573288208
 40
0.2049430843066603
 40
0.2179390013368075
 40
0.2309264056853067
 40
0.2439045823754412
 40
0.2568728059683179
 40
0.2698303425202288
 40
0.2827764517121907
 40
0.2957103891470028
 40
0.3086314088044589
 40
0.3215387656445818
 40
0.3344317183459765
 40
0.3473095321647943
 40
0.3601714818963945
 40
0.3730168549212265
 40
0.3858449543141269
 40
0.3986551019945663
 40
0.4114466418942999
 40
0.4242189431184203
 40
0.4369714030746158
 40
0.449703450545567
 40
0.462414548680366
 40
0.4751041978796491
 40
0.4877719385526924
 40
0.5004173537236006
 40
0.513040071466999
 40
0.5256397671557985
 40
0.5382161655037918
 40
0.5507690423913499
 40
0.5632982264622662
 40
0.5758036004848178
 40
0.5882851024700724
 40
0.6007427265466981
 40
0.613176523590759
 40
0.6255866016136702
 40
0.6379731259124769
 40
0.6503363189902134
 40
0.6626764602540323
 40
0.6749938855019939
 40
0.6872889862103843
 40
0.6995622086341164
 40
0.7118140527336495
 40
0.7240450709429984
 40
0.7362558667933929
 40
0.748447093406246
 40
0.7606194518710733
 40
0.7727736895214283
 40
0.7849105981224376
 40
0.7970310119834759
 40
0.8091358060068026
 40
0.8212258936844953
 40
0.8333022250526525
 40
0.8453657846130078
 40
0.8574175892289666
 40
0.86945868600406
 40
0.8814901501474696
 40
0.8935130828328961
 40
0.9055286090530861
 40
0.9175378754741231
 40
0.9295420482903701
 40
0.9415423110819028
 40
0.9535398626740897
 40
0.9655359149995212
 40
0.9775316909604602
 40
0.9895284222905653
 40
1.0
 40
1.0
 40
1.0
 40
1.0
 10
764.2435043283972
 20
147.9361563735651
 30
0.0
 10
764.3037757548603
 20
147.9040673196936
 30
0.0
 10
764.4475283257643
 20
147.8275321476792
 30
0.0
 10
764.6750643709127
 20
147.7097592736712
 30
0.0
 10
764.9260448539801
 20
147.5823721523765
 30
0.0
 10
765.1772529466092
 20
147.4578755230982
 30
0.0
 10
765.4286522238582
 20
147.3361660651405
 30
0.0
 10
765.6802209285695
 20
147.2172957599293
 30
0.0
 10
765.9319329067032
 20
147.1012746774909
 30
0.0
 10
766.1837627068618
 20
146.9881237926191
 30
0.0
 10
766.4356842075243
 20
146.8778608097218
 30
0.0
 10
766.6876709804214
 20
146.7705039337347
 30
0.0
 10
766.9396961911649
 20
146.6660708317237
 30
0.0
 10
767.191732626396
 20
146.5645788812786
 30
0.0
 10
767.4437526898054
 20
146.4660450728141
 30
0.0
 10
767.6957284094393
 20
146.3704860033048
 30
0.0
 10
767.9476314451006
 20
146.2779178444376
 30
0.0
 10
768.1994330989951
 20
146.1883563167168
 30
0.0
 10
768.4511043289057
 20
146.1018166613002
 30
0.0
 10
768.702615764182
 20
146.018313612015
 30
0.0
 10
768.9539377245329
 20
145.9378613671705
 30
0.0
 10
769.2050402416509
 20
145.8604735615636
 30
0.0
 10
769.4558930836466
 20
145.7861632388858
 30
0.0
 10
769.7064657822399
 20
145.7149428248044
 30
0.0
 10
769.9567276626126
 20
145.6468241009909
 30
0.0
 10
770.2066478757974
 20
145.5818181803712
 30
0.0
 10
770.4561954334264
 20
145.5199354838815
 30
0.0
 10
770.7053392446355
 20
145.4611857190054
 30
0.0
 10
770.9540481548751
 20
145.4055778603621
 30
0.0
 10
771.2022909863429
 20
145.3531201326061
 30
0.0
 10
771.450036579724
 20
145.3038199958782
 30
0.0
 10
771.6972538368916
 20
145.2576841340301
 30
0.0
 10
771.943911764197
 20
145.2147184458154
 30
0.0
 10
772.1899795159594
 20
145.1749280392127
 30
0.0
 10
772.435426437751
 20
145.1383172290122
 30
0.0
 10
772.6802221090671
 20
145.1048895377586
 30
0.0
 10
772.9243363849727
 20
145.0746477001061
 30
0.0
 10
773.167739436316
 20
145.0475936706008
 30
0.0
 10
773.4104017881278
 20
145.0237286348625
 30
0.0
 10
773.652294355829
 20
145.0030530240978
 30
0.0
 10
773.8933884789092
 20
144.9855665328365
 30
0.0
 10
774.1336559517683
 20
144.9712681397435
 30
0.0
 10
774.3730690514461
 20
144.960156131325
 30
0.0
 10
774.6116005620165
 20
144.9522281283116
 30
0.0
 10
774.8492237954569
 20
144.9474811144774
 30
0.0
 10
775.0859126088667
 20
144.9459114676252
 30
0.0
 10
775.3216414179387
 20
144.9475149924548
 30
0.0
 10
775.5563852066532
 20
144.9522869550114
 30
0.0
 10
775.7901195332008
 20
144.9602221184079
 30
0.0
 10
776.0228205321966
 20
144.9713147795083
 30
0.0
 10
776.2544649132775
 20
144.9855588062628
 30
0.0
 10
776.4850299562328
 20
145.0029476753908
 30
0.0
 10
776.7144935028343
 20
145.0234745101189
 30
0.0
 10
776.942833945579
 20
145.0471321176972
 30
0.0
 10
777.1700302135732
 20
145.0739130264313
 30
0.0
 10
777.3960617558137
 20
145.1038095219932
 30
0.0
 10
777.6209085221324
 20
145.1368136827937
 30
0.0
 10
777.8445509420843
 20
145.1729174142229
 30
0.0
 10
778.0669699020635
 20
145.2121124815937
 30
0.0
 10
778.2881467209293
 20
145.2543905416447
 30
0.0
 10
778.5080631244248
 20
145.2997431724883
 30
0.0
 10
778.726701218659
 20
145.34816190191
 30
0.0
 10
778.9440434629131
 20
145.3996382339514
 30
0.0
 10
779.1600726420186
 20
145.4541636737308
 30
0.0
 10
779.3747718385328
 20
145.511729750472
 30
0.0
 10
779.5881244049264
 20
145.5723280387379
 30
0.0
 10
779.8001139359718
 20
145.6359501778622
 30
0.0
 10
780.010724241487
 20
145.7025878896379
 30
0.0
 10
780.2199393196479
 20
145.7722329941614
 30
0.0
 10
780.4277433307294
 20
145.8448774243473
 30
0.0
 10
780.6341205723807
 20
145.9205132373995
 30
0.0
 10
780.8390554527604
 20
145.9991326298263
 30
0.0
 10
781.0425324756148
 20
146.0807279316926
 30
0.0
 10
781.2445361850527
 20
146.1652916709395
 30
0.0
 10
781.4450512650216
 20
146.2528163693554
 30
0.0
 10
781.6440620663897
 20
146.3432953323671
 30
0.0
 10
781.8415542734573
 20
146.4367197254851
 30
0.0
 10
782.0375085943747
 20
146.5330894959348
 30
0.0
 10
782.2319242133133
 20
146.6323726340975
 30
0.0
 10
782.4247311946388
 20
146.734657192267
 30
0.0
 10
782.6079955752975
 20
146.8351312220171
 30
0.0
 10
782.72616834327
 20
146.9029328865824
 30
0.0
 10
782.7812439308804
 20
146.9345325231228
 30
0.0
  0
SPLINE
  5
F4
330
1F
100
AcDbEntity
  8
0
  6
Continuous
 62
     7
370
    30
100
AcDbSpline
210
0.0
220
0.0
230
1.0
 70
     8
 71
     3
 72
    86
 73
    82
 74
     0
 42
0.000000001
 43
0.00000001
 40
0.0
 40
0.0
 40
0.0
 40
0.0
 40
0.0015281580032526
 40
0.013530554062328
 40
0.0255373724143552
 40
0.0375497040805569
 40
0.0495687926797132
 40
0.0615958782964187
 40
0.073632195265159
 40
0.085678969944584
 40
0.0977374184696077
 40
0.1098087444790192
 40
0.1218941368178431
 40
0.1339947672123979
 40
0.1461117879192798
 40
0.1582463293479781
 40
0.170399497659263
 40
0.1825723723411798
 40
0.1947660037676051
 40
0.2069814107426659
 40
0.2192195780385173
 40
0.2314814539324802
 40
0.2437679477538138
 40
0.2560799274485427
 40
0.2684182171750326
 40
0.2807835949432232
 40
0.2931767903101554
 40
0.3055984821490629
 40
0.3180492965077228
 40
0.3305298045731457
 40
0.3430405207623098
 40
0.3555819009568113
 40
0.3681543409013775
 40
0.38075817478615
 40
0.3933936740316878
 40
0.4060610462956081
 40
0.4187604347198345
 40
0.4314919174338798
 40
0.444255507330879
 40
0.457051152128349
 40
0.4698787347260656
 40
0.4827380738681032
 40
0.495628925114639
 40
0.5085509821263619
 40
0.5215038782587159
 40
0.5344871884622028
 40
0.5475004314790073
 40
0.560543072324135
 40
0.5736145250346977
 40
0.5867141556680776
 40
0.5998412855257087
 40
0.6129951945779101
 40
0.6261751250604068
 40
0.6393802852135922
 40
0.6526098531319392
 40
0.6658629806915523
 40
0.6791387975221695
 40
0.69243641499129
 40
0.7057549301670647
 40
0.719093429729366
 40
0.7324509937994899
 40
0.7458266996603522
 40
0.7592196253423908
 40
0.7726288530525254
 40
0.7860534724268398
 40
0.7994925835908039
 40
0.8129453000122131
 40
0.8264107511392893
 40
0.8398880848142598
 40
0.8533764694604933
 40
0.8668750960408708
 40
0.8803831797883848
 40
0.8938999617147764
 40
0.9074247099009358
 40
0.9209567205784087
 40
0.9344953190104348
 40
0.9480398601844072
 40
0.9615897293262169
 40
0.9751443422501613
 40
0.9887031455569795
 40
1.0
 40
1.0
 40
1.0
 40
1.0
 10
747.7841798664705
 20
207.5575793408075
 30
0.0
 10
747.7761251620556
 20
207.5529983707144
 30
0.0
 10
747.7048075278128
 20
207.5124377327632
 30
0.0
 10
747.5717838037383
 20
207.4331407202042
 30
0.0
 10
747.3852371629428
 20
207.3194980023517
 30
0.0
 10
747.2005044930347
 20
207.2026758926183
 30
0.0
 10
747.0173942385887
 20
207.0830437930274
 30
0.0
 10
746.8359782659733
 20
206.960510054463
 30
0.0
 10
746.6562577702001
 20
206.835106363398
 30
0.0
 10
746.4782530955639
 20
206.7068311754833
 30
0.0
 10
746.3019796592966
 20
206.5756917250602
 30
0.0
 10
746.1274544234143
 20
206.4416927758773
 30
0.0
 10
745.9546941711627
 20
206.3048396611205
 30
0.0
 10
745.7837159815616
 20
206.1651374920803
 30
0.0
 10
745.6145371133771
 20
206.022591397412
 30
0.0
 10
745.447175046782
 20
205.8772064883786
 30
0.0
 10
745.281647481808
 20
205.7289879002809
 30
0.0
 10
745.1179723474136
 20
205.5779408161185
 30
0.0
 10
744.9561678066075
 20
205.4240704977371
 30
0.0
 10
744.7962522614025
 20
205.267382317686
 30
0.0
 10
744.6382443564463
 20
205.1078817935926
 30
0.0
 10
744.4821629814734
 20
204.9455746245164
 30
0.0
 10
744.3280272723761
 20
204.7804667293512
 30
0.0
 10
744.1758566107636
 20
204.6125642871378
 30
0.0
 10
744.0256706218612
 20
204.441873779169
 30
0.0
 10
743.8774891705992
 20
204.2684020327244
 30
0.0
 10
743.7313323557446
 20
204.0921562662355
 30
0.0
 10
743.5872205019292
 20
203.9131441356541
 30
0.0
 10
743.4451741494399
 20
203.7313737817503
 30
0.0
 10
743.3052140416421
 20
203.5468538780421
 30
0.0
 10
743.1673611099282
 20
203.3595936790172
 30
0.0
 10
743.0316364560977
 20
203.169603068277
 30
0.0
 10
742.8980613320987
 20
202.9768926062043
 30
0.0
 10
742.7666571170867
 20
202.7814735767304
 30
0.0
 10
742.6374452917869
 20
202.5833580327528
 30
0.0
 10
742.5104474101757
 20
202.3825588397423
 30
0.0
 10
742.3856850685366
 20
202.1790897170687
 30
0.0
 10
742.2631798719785
 20
201.9729652765666
 30
0.0
 10
742.142953398547
 20
201.7642010578782
 30
0.0
 10
742.0250271610952
 20
201.5528135601095
 30
0.0
 10
741.9094225671233
 20
201.338820269371
 30
0.0
 10
741.7961608768318
 20
201.1222396817956
 30
0.0
 10
741.6852631596718
 20
200.903091321672
 30
0.0
 10
741.5767502497097
 20
200.6813957543746
 30
0.0
 10
741.4706427001505
 20
200.457174593825
 30
0.0
 10
741.3669607373939
 20
200.2304505042893
 30
0.0
 10
741.2657242150138
 20
200.0012471963739
 30
0.0
 10
741.1669525680674
 20
199.7695894171602
 30
0.0
 10
741.0706647681454
 20
199.5355029344912
 30
0.0
 10
740.9768792795805
 20
199.2990145155004
 30
0.0
 10
740.8856140172122
 20
199.0601518995477
 30
0.0
 10
740.7968863061084
 20
198.8189437658047
 30
0.0
 10
740.7107128436069
 20
198.5754196957941
 30
0.0
 10
740.6271096640235
 20
198.329610131265
 30
0.0
 10
740.5460921063323
 20
198.0815463278301
 30
0.0
 10
740.4676747850893
 20
197.831260304853
 30
0.0
 10
740.3918715648232
 20
197.5787847921033
 30
0.0
 10
740.318695538073
 20
197.3241531737378
 30
0.0
 10
740.2481590072048
 20
197.0673994301804
 30
0.0
 10
740.1802734700831
 20
196.8085580784852
 30
0.0
 10
740.1150496096324
 20
196.5476641117655
 30
0.0
 10
740.0524972872664
 20
196.2847529382609
 30
0.0
 10
739.992625540124
 20
196.019860320599
 30
0.0
 10
739.9354425820004
 20
195.7530223157736
 30
0.0
 10
739.8809558078307
 20
195.4842752163235
 30
0.0
 10
739.8291718015337
 20
195.2136554931707
 30
0.0
 10
739.780096347037
 20
194.9411997404945
 30
0.0
 10
739.733734442123
 20
194.6669446230571
 30
0.0
 10
739.6900903153066
 20
194.3909268260499
 30
0.0
 10
739.6491674437125
 20
194.1131830085203
 30
0.0
 10
739.6109685782801
 20
193.8337497575534
 30
0.0
 10
739.5754957513109
 20
193.5526635545964
 30
0.0
 10
739.5427503583754
 20
193.2699607119764
 30
0.0
 10
739.5127329694957
 20
192.9856774366969
 30
0.0
 10
739.4854441573407
 20
192.6998494348651
 30
0.0
 10
739.4608815313272
 20
192.4125132479213
 30
0.0
 10
739.439050945111
 20
192.123701136742
 30
0.0
 10
739.419924775666
 20
191.8334600766234
 30
0.0
 10
739.4035978514593
 20
191.5417807310108
 30
0.0
 10
739.3904791589217
 20
191.2651779028841
 30
0.0
 10
739.3841102920101
 20
191.0852107876573
 30
0.0
 10
739.3812156527615
 20
191.0034160379183
 30
0.0
  0
LINE
  5
F5
330
1F
100
AcDbEntity
  8
0
  6
Continuous
 62
     7
370
    30
100
AcDbLine
 10
751.3196616119
 20
209.5987827646
 30
0.0
 11
747.784127706
 21
207.5577624851
 31
0.0
  0
LINE
  5
F6
330
1F
100
AcDbEntity
  8
0
  6
Continuous
 62
     7
370
    30
100
AcDbLine
 10
782.7812833482
 20
146.9343421184
 30
0.0
 11
786.3168172542
 21
148.975362398
 31
0.0
  0
LINE
  5
F7
330
1F
100
AcDbEntity
  8
0
  6
Continuous
 62
     7
370
    30
100
AcDbLine
 10
616.7561579059
 20
65.7337054129
 30
0.0
 11
616.7920409353
 21
67.78480374
 31
0.0
  0
SPLINE
  5
F8
330
1F
100
AcDbEntity
  8
0
  6
Continuous
 62
     7
370
    30
100
AcDbSpline
210
0.0
220
0.0
230
1.0
 70
     8
 71
     3
 72
   132
 73
   128
 74
     0
 42
0.000000001
 43
0.00000001
 40
0.0
 40
0.0
 40
0.0
 40
0.0
 40
0.0008972666348937
 40
0.017006160877116
 40
0.0330666742554284
 40
0.0490788372760004
 40
0.0650426803272463
 40
0.0806744697581731
 40
0.096259707030209
 40
0.1117984204697405
 40
0.1272906382078818
 40
0.1430167712518244
 40
0.1586947607988167
 40
0.1743246357892995
 40
0.1899064248687566
 40
0.205440156367016
 40
0.2206497665160988
 40
0.2358130731305587
 40
0.2509301020475814
 40
0.2660008787359682
 40
0.281298156891142
 40
0.2965475378361857
 40
0.3117490471587493
 40
0.326902709971397
 40
0.3420085508915399
 40
0.3567981355884092
 40
0.3715416364983161
 40
0.3862390754364006
 40
0.4008904736819309
 40
0.4157609625791454
 40
0.4305837642563076
 40
0.4453588993378663
 40
0.4600863877884915
 40
0.4747634911897166
 40
0.484101955469045
 40
0.493018652157707
 40
0.501513550372642
 40
0.5095866207855002
 40
0.5172378356004076
 40
0.5244671685325492
 40
0.5321701757393511
 40
0.5393283341953534
 40
0.5459416118431957
 40
0.5520099790389739
 40
0.5575334085208689
 40
0.5625118753799877
 40
0.5669453570336084
 40
0.5708338332010042
 40
0.5741772858823211
 40
0.5769756993413964
 40
0.5792290600949866
 40
0.5809373569161724
 40
0.581437442106367
 40
0.5818608759802922
 40
0.5822076582229191
 40
0.5826385471171738
 40
0.5834974390560227
 40
0.584788000791928
 40
0.5863155295081128
 40
0.5879956930929267
 40
0.5910797534899356
 40
0.5945739134476967
 40
0.5984781970524594
 40
0.6027926313003913
 40
0.6075172460260028
 40
0.612486195410276
 40
0.6241940600582191
 40
0.6358883448751733
 40
0.6497923144841847
 40
0.6636770715747223
 40
0.677542629803394
 40
0.6844683485902081
 40
0.6913892710922143
 40
0.6983096063926231
 40
0.7055196970255811
 40
0.7131965696792197
 40
0.7213403045960426
 40
0.729446375239476
 40
0.7379676253644669
 40
0.7469041291379759
 40
0.7562559615268059
 40
0.7660231975073426
 40
0.7719840541638533
 40
0.7780897140766726
 40
0.7843401921535339
 40
0.7907355029485926
 40
0.7972756605859747
 40
0.8039514721028537
 40
0.8103434386818376
 40
0.8163740168837865
 40
0.8218656903754997
 40
0.8268184001033153
 40
0.8294845642195947
 40
0.8319635416506127
 40
0.8342264563232248
 40
0.8360462770973397
 40
0.8371598693150132
 40
0.8379509849258412
 40
0.838421002804608
 40
0.8388272686271757
 40
0.8393607592099265
 40
0.840021475333753
 40
0.8408094179489682
 40
0.8417245881749273
 40
0.8440546443576897
 40
0.8469432514364108
 40
0.8503904260480689
 40
0.8534058967863526
 40
0.8567485388986984
 40
0.8604183631645101
 40
0.8644153811521387
 40
0.8687396051488209
 40
0.8733882182880046
 40
0.8781322553683564
 40
0.8919274912209769
 40
0.9052846065252407
 40
0.9182035130639213
 40
0.9306841311833988
 40
0.9427263891974748
 40
0.9543302228071455
 40
0.9618980333485829
 40
0.9692160902893433
 40
0.9761511393306761
 40
0.982696591759946
 40
0.9888528954085636
 40
0.9946205234827986
 40
1.0
 40
1.0
 40
1.0
 40
1.0
 10
599.6006365506739
 20
58.43993673507114
 30
0.0
 10
599.6078151164547
 20
58.43875055500241
 30
0.0
 10
599.7438726045963
 20
58.41626853205337
 30
0.0
 10
600.0111492729854
 20
58.37844944210222
 30
0.0
 10
600.4018854207754
 20
58.32709055203566
 30
0.0
 10
600.7939690326011
 20
58.28300102511164
 30
0.0
 10
601.1843040622288
 20
58.24548385409872
 30
0.0
 10
601.5726424935267
 20
58.21461812761217
 30
0.0
 10
601.9586184878657
 20
58.19017603288673
 30
0.0
 10
602.3442741425229
 20
58.17195159172272
 30
0.0
 10
602.731619605212
 20
58.15982685621998
 30
0.0
 10
603.1203416925625
 20
58.15388720679051
 30
0.0
 10
603.5101132153003
 20
58.15421125628289
 30
0.0
 10
603.8982856022527
 20
58.16077682689991
 30
0.0
 10
604.2845540876217
 20
58.17352120088442
 30
0.0
 10
604.6663451832802
 20
58.19226544342179
 30
0.0
 10
605.0434069833838
 20
58.21681263055692
 30
0.0
 10
605.4155111218236
 20
58.24696555203585
 30
0.0
 10
605.7846750141571
 20
58.28279709715017
 30
0.0
 10
606.1528483795797
 20
58.32447785110181
 30
0.0
 10
606.51971782809
 20
58.37204342537544
 30
0.0
 10
606.8849603987034
 20
58.42552309140095
 30
0.0
 10
607.2461185392076
 20
58.48453630628295
 30
0.0
 10
607.6029486436187
 20
58.54898533472009
 30
0.0
 10
607.9531280893875
 20
58.61835599186127
 30
0.0
 10
608.2965165471912
 20
58.69243434286428
 30
0.0
 10
608.632994622657
 20
58.77100943171837
 30
0.0
 10
608.964437950861
 20
58.85442609866467
 30
0.0
 10
609.2926187276274
 20
58.94311020983329
 30
0.0
 10
609.6172438636203
 20
59.0370548069146
 30
0.0
 10
609.9380141846824
 20
59.13624608317761
 30
0.0
 10
610.252794162473
 20
59.24000089704104
 30
0.0
 10
610.561387551002
 20
59.34819174171724
 30
0.0
 10
610.8273168074996
 20
59.44717982826248
 30
0.0
 10
611.0499616815462
 20
59.53412150117066
 30
0.0
 10
611.2286631661985
 20
59.60645171128476
 30
0.0
 10
611.3969161844797
 20
59.67689628333617
 30
0.0
 10
611.5549734517293
 20
59.74521634761468
 30
0.0
 10
611.7030845772467
 20
59.8111884370233
 30
0.0
 10
611.8472099444327
 20
59.87722264941272
 30
0.0
 10
611.9865960353198
 20
59.94290910404371
 30
0.0
 10
612.120528298208
 20
60.0078099568064
 30
0.0
 10
612.2429047812924
 20
60.06865682397125
 30
0.0
 10
612.3540328763448
 20
60.12523154648103
 30
0.0
 10
612.4542012043548
 20
60.17733703640243
 30
0.0
 10
612.54367779638
 20
60.22479650154647
 30
0.0
 10
612.6227085459136
 20
60.2674527526659
 30
0.0
 10
612.6915158130587
 20
60.3051675479013
 30
0.0
 10
612.7502972322367
 20
60.33782101162016
 30
0.0
 10
612.7992245952529
 20
60.36531106329532
 30
0.0
 10
612.8384431242456
 20
60.38755304620991
 30
0.0
 10
612.8642365736999
 20
60.40228886801732
 30
0.0
 10
612.87942314983
 20
60.41100049659606
 30
0.0
 10
612.8867480568332
 20
60.41520954301408
 30
0.0
 10
612.893670566084
 20
60.41919303660367
 30
0.0
 10
612.903099378847
 20
60.42462657527267
 30
0.0
 10
612.9179472076336
 20
60.43320338521696
 30
0.0
 10
612.9390629687908
 20
60.44544948591568
 30
0.0
 10
612.9648278285856
 20
60.46047001086455
 30
0.0
 10
613.0007579770133
 20
60.4815415597722
 30
0.0
 10
613.0477075355133
 20
60.50931963872003
 30
0.0
 10
613.1069269372829
 20
60.54478711624064
 30
0.0
 10
613.172622295068
 20
60.58467686143717
 30
0.0
 10
613.2446311154731
 20
60.62907246900537
 30
0.0
 10
613.3218572575652
 20
60.67749166923947
 30
0.0
 10
613.4386774529503
 20
60.75206986847903
 30
0.0
 10
613.5908708033385
 20
60.85230464714228
 30
0.0
 10
613.7859643571726
 20
60.98656847611824
 30
0.0
 10
613.9865231911285
 20
61.13145431926073
 30
0.0
 10
614.1911916001884
 20
61.28740270435618
 30
0.0
 10
614.3557149476504
 20
61.41972214086191
 30
0.0
 10
614.48362161872
 20
61.52691000075205
 30
0.0
 10
614.5776762952515
 20
61.60794498127806
 30
0.0
 10
614.671178499698
 20
61.69079239342673
 30
0.0
 10
614.7660952886564
 20
61.77736228048744
 30
0.0
 10
614.8641585657223
 20
61.86960800264163
 30
0.0
 10
614.9636032357984
 20
61.96632261898174
 30
0.0
 10
615.0639422484056
 20
62.06736234215371
 30
0.0
 10
615.1647037787642
 20
62.17257377243735
 30
0.0
 10
615.2672749436426
 20
62.28391646351184
 30
0.0
 10
615.371181129533
 20
62.40150153080454
 30
0.0
 10
615.4608294284769
 20
62.50758152814062
 30
0.0
 10
615.5365325691939
 20
62.60059728709469
 30
0.0
 10
615.59852782686
 20
62.67905132340631
 30
0.0
 10
615.6603970877189
 20
62.75979612669255
 30
0.0
 10
615.7220196188424
 20
62.84285155748226
 30
0.0
 10
615.7832411128145
 20
62.92819463300889
 30
0.0
 10
615.8426411864383
 20
63.01397218276094
 30
0.0
 10
615.8987306309333
 20
63.09791942410586
 30
0.0
 10
615.9497539086617
 20
63.17699594855419
 30
0.0
 10
615.9953159456467
 20
63.24999166957751
 30
0.0
 10
616.0305850198979
 20
63.30826560201577
 30
0.0
 10
616.0571898565737
 20
63.35324430119049
 30
0.0
 10
616.0764295443331
 20
63.38628711946829
 30
0.0
 10
616.0932412926807
 20
63.41558681610471
 30
0.0
 10
616.106402584722
 20
63.43881934546028
 30
0.0
 10
616.1157575148787
 20
63.45548645134399
 30
0.0
 10
616.1216894241716
 20
63.46611909778809
 30
0.0
 10
616.125839250087
 20
63.47358742635553
 30
0.0
 10
616.1293379231699
 20
63.47990155132538
 30
0.0
 10
616.1332984264553
 20
63.48707070562115
 30
0.0
 10
616.1381859468229
 20
63.49595192870378
 30
0.0
 10
616.1439895934967
 20
63.50654724601826
 30
0.0
 10
616.1538419036891
 20
63.52463339721112
 30
0.0
 10
616.1686816702287
 20
63.55216484098078
 30
0.0
 10
616.1893204654073
 20
63.59111936244918
 30
0.0
 10
616.2111635277345
 20
63.63323105365723
 30
0.0
 10
616.2336086654935
 20
63.67746765247404
 30
0.0
 10
616.2561016134772
 20
63.72278835549042
 30
0.0
 10
616.2802361075894
 20
63.77263977268088
 30
0.0
 10
616.3058543216681
 20
63.82704624465932
 30
0.0
 10
616.3327779136648
 20
63.88602015579886
 30
0.0
 10
616.3603545777806
 20
63.94853150388799
 30
0.0
 10
616.4053790253039
 20
64.05444350895534
 30
0.0
 10
616.4629809566337
 20
64.20076463409832
 30
0.0
 10
616.5273252331667
 20
64.3856220477001
 30
0.0
 10
616.5820172708297
 20
64.56528136964276
 30
0.0
 10
616.6277833819689
 20
64.7395592737026
 30
0.0
 10
616.6653321013375
 20
64.90828976154175
 30
0.0
 10
616.6922578867984
 20
65.05449634359825
 30
0.0
 10
616.7112914061744
 20
65.17878120399313
 30
0.0
 10
616.7245628756416
 20
65.28137187090027
 30
0.0
 10
616.735298294407
 20
65.38035671367973
 30
0.0
 10
616.7436538055348
 20
65.4748563971844
 30
0.0
 10
616.749816229097
 20
65.5649238322557
 30
0.0
 10
616.7541465715129
 20
65.65038787040453
 30
0.0
 10
616.7555032074958
 20
65.7065851766936
 30
0.0
 10
616.7561579058844
 20
65.73370541110357
 30
0.0
  0
LINE
  5
F9
330
1F
100
AcDbEntity
  8
0
  6
Continuous
 62
     7
370
    30
100
AcDbLine
 10
749.6818128638
 20
197.3074969033
 30
0.0
 11
578.2601879665
 21
92.3955424519
 31
0.0
  0
LINE
  5
FA
330
1F
100
AcDbEntity
  8
0
  6
Continuous
 62
     7
370
    30
100
AcDbLine
 10
598.2775329164
 20
57.7207268777
 30
0.0
 11
774.8537707237
 21
153.7036623977
 31
0.0
  0
SPLINE
  5
FB
330
1F
100
AcDbEntity
  8
0
  6
Continuous
 62
     7
370
    30
100
AcDbSpline
210
0.0
220
0.0
230
1.0
 70
     8
 71
     3
 72
   244
 73
   240
 74
     0
 42
0.000000001
 43
0.00000001
 40
0.0
 40
0.0
 40
0.0
 40
0.0
 40
0.002032122769215
 40
0.0057815113859967
 40
0.0095314135069061
 40
0.0132823801362879
 40
0.0170349626824593
 40
0.0207897130288709
 40
0.0245471835836226
 40
0.0283079273015638
 40
0.0320724976732944
 40
0.035841448674985
 40
0.0396153346729246
 40
0.0433947102764358
 40
0.047180130132576
 40
0.0509721486558974
 40
0.0547713196861078
 40
0.0585781960666652
 40
0.0623933291367189
 40
0.0662172681289741
 40
0.0700505594661192
 40
0.0738937459478189
 40
0.0777473658214317
 40
0.0816119517288394
 40
0.0854880295228557
 40
0.0893761169469519
 40
0.0932767221732584
 40
0.0971903421941161
 40
0.101117461064723
 40
0.1050585479955869
 40
0.1090140552954231
 40
0.1129844161684328
 40
0.1169700423713268
 40
0.120971321740719
 40
0.1249886156030141
 40
0.1290222560850233
 40
0.1330725433471919
 40
0.1371397427657961
 40
0.1412240820968202
 40
0.1453257486578726
 40
0.14944488657124
 40
0.153581594114493
 40
0.1577359212309824
 40
0.1619078672548461
 40
0.1660973789087688
 40
0.1703043486336072
 40
0.1745286133086225
 40
0.1787699534187522
 40
0.1830280927215637
 40
0.1873026984596118
 40
0.1915933821547108
 40
0.1958997010112804
 40
0.2002211599405407
 40
0.2045572142059326
 40
0.2089072726714561
 40
0.2132707016214405
 40
0.2176468291020782
 40
0.2220349497217556
 40
0.2264343298334819
 40
0.2308442130113749
 40
0.2352638257258228
 40
0.2396923831171553
 40
0.2441290947658027
 40
0.2485731703599831
 40
0.2530238251670648
 40
0.25748028522385
 40
0.2619417921713715
 40
0.2664076076729737
 40
0.2708770173687689
 40
0.2753493343332617
 40
0.2798239020175718
 40
0.2843000966713128
 40
0.2887773292509318
 40
0.2932550091225684
 40
0.2977324951989059
 40
0.3022093219920806
 40
0.3066850615457252
 40
0.3111593232121425
 40
0.3156317529943877
 40
0.3201020326384304
 40
0.3245698785173412
 40
0.3290350403485973
 40
0.333497299781688
 40
0.3379564688909414
 40
0.3424123886040388
 40
0.3468649270938289
 40
0.3513139781568324
 40
0.3557594595987801
 40
0.3602013116439274
 40
0.3646394953821157
 40
0.3690739912644528
 40
0.3735047976563868
 40
0.3779319294542447
 40
0.38235541677007
 40
0.3867753036871734
 40
0.3911916470881249
 40
0.3956045155552881
 40
0.4000139883432581
 40
0.4044201544217845
 40
0.4088231115870394
 40
0.4132229656387215
 40
0.417619829620243
 40
0.4220138231186648
 40
0.4264050716213236
 40
0.4307937059255742
 40
0.4351798615983739
 40
0.4395636784822565
 40
0.4439453002442745
 40
0.4483248739647566
 40
0.4527025497624697
 40
0.4570784804532791
 40
0.4614528212391296
 40
0.4658257294245897
 40
0.4701973641580174
 40
0.4745678861948918
 40
0.4789374576804905
 40
0.4833062419496441
 40
0.4876744033410054
 40
0.4920421070236439
 40
0.4964095188336438
 40
0.5007768051185746
 40
0.5051441325875898
 40
0.5095116304414055
 40
0.5138794477845589
 40
0.5182477516028553
 40
0.5226167087026905
 40
0.5269864855597903
 40
0.5313572481618987
 40
0.53572916184306
 40
0.5401023911073043
 40
0.5444770994393917
 40
0.5488534491002305
 40
0.553231600904635
 40
0.5576117139787483
 40
0.561993945494575
 40
0.5663784503787269
 40
0.5707653809927234
 40
0.5751548867815843
 40
0.5795471138877464
 40
0.5839422047270627
 40
0.5883402975234415
 40
0.5927415257986954
 40
0.5971460178141096
 40
0.6015538959601309
 40
0.6059652760904437
 40
0.6103802667969941
 40
0.6147989686223473
 40
0.619221473206091
 40
0.623647862362054
 40
0.6280782070836479
 40
0.6325125664749837
 40
0.6369509866059615
 40
0.6413934992904687
 40
0.6458401207876745
 40
0.6502908504276036
 40
0.6547456691635225
 40
0.6592045380555785
 40
0.6636673966918809
 40
0.6681341615554457
 40
0.6726047243484892
 40
0.6770789502876252
 40
0.6815566763876899
 40
0.6860377097546165
 40
0.6905218259119208
 40
0.6950087671892052
 40
0.6994982412047807
 40
0.7039899194785443
 40
0.7084834362150934
 40
0.7129783872997689
 40
0.7174743295532064
 40
0.7219707499042287
 40
0.7264669730782863
 40
0.730962424572233
 40
0.7354564919688151
 40
0.7399485262178952
 40
0.7444378435943751
 40
0.7489237282051948
 40
0.7534054350546353
 40
0.7578821936644952
 40
0.7623532122313458
 40
0.7668176822869263
 40
0.7712747838119682
 40
0.7757236907385464
 40
0.7801635767606728
 40
0.7845936213614579
 40
0.7890130159540116
 40
0.793420970027481
 40
0.7978167171862829
 40
0.8021995209719114
 40
0.8065686803612957
 40
0.8109235348452111
 40
0.8152634690015085
 40
0.8195879164941389
 40
0.8238963634444186
 40
0.8281883511399588
 40
0.8324634780644221
 40
0.8367214012489812
 40
0.840961836962748
 40
0.8451845607735918
 40
0.8493894070236672
 40
0.8535762677724593
 40
0.8577450912680556
 40
0.8618958800112907
 40
0.8660286884795159
 40
0.870143620576382
 40
0.8742408268723937
 40
0.8783205016968753
 40
0.8823828801382239
 40
0.8864282350028729
 40
0.8904568737787005
 40
0.8944691356415378
 40
0.8984653885377833
 40
0.9024460263705187
 40
0.9064114663105631
 40
0.9103621462490952
 40
0.9142985224037082
 40
0.9182210670859636
 40
0.9221302666347813
 40
0.9260266195165799
 40
0.9299106345918099
 40
0.933782829543688
 40
0.9376437294647718
 40
0.9414938655948593
 40
0.945333774202974
 40
0.9491639956057215
 40
0.9529850733130644
 40
0.9567975532934688
 40
0.9606019833491353
 40
0.9643989125926574
 40
0.9681888910165312
 40
0.9719724691468784
 40
0.9757501977732232
 40
0.979522627746399
 40
0.9832903098368089
 40
0.9870537946458162
 40
0.9908136325631537
 40
0.9945703737636792
 40
0.9983245682368952
 40
1.0
 40
1.0
 40
1.0
 40
1.0
 10
578.2603135583932
 20
92.39513570045769
 30
0.0
 10
578.2312511343215
 20
92.3774260702823
 30
0.0
 10
578.1485667915148
 20
92.32704110828502
 30
0.0
 10
578.0141789653856
 20
92.24087806184971
 30
0.0
 10
577.8570544003189
 20
92.1369120818521
 30
0.0
 10
577.7018344855352
 20
92.03003183446984
 30
0.0
 10
577.5484376982766
 20
91.92043203912031
 30
0.0
 10
577.3969188423666
 20
91.80808479412534
 30
0.0
 10
577.2472958203529
 20
91.69302177688162
 30
0.0
 10
577.0995960616505
 20
91.57525854808685
 30
0.0
 10
576.9538440599674
 20
91.45481481472251
 30
0.0
 10
576.810064707623
 20
91.33170895905387
 30
0.0
 10
576.6682823963159
 20
91.20595947111768
 30
0.0
 10
576.5285212576332
 20
91.07758453022113
 30
0.0
 10
576.3908051016767
 20
90.94660208494277
 30
0.0
 10
576.2551574407335
 20
90.81302980172379
 30
0.0
 10
576.1216014941366
 20
90.67688505179278
 30
0.0
 10
575.9901602021625
 20
90.53818489154061
 30
0.0
 10
575.8608562414056
 20
90.39694604912621
 30
0.0
 10
575.7337120435263
 20
90.25318491463425
 30
0.0
 10
575.6087498166868
 20
90.10691753529204
 30
0.0
 10
575.485991569609
 20
89.95815961614295
 30
0.0
 10
575.3654591379778
 20
89.8069265268939
 30
0.0
 10
575.2471742128903
 20
89.65323331556965
 30
0.0
 10
575.1311583709982
 20
89.49709472963214
 30
0.0
 10
575.0174331059228
 20
89.33852524519301
 30
0.0
 10
574.9060198604698
 20
89.17753910493184
 30
0.0
 10
574.796940059102
 20
89.01415036528493
 30
0.0
 10
574.6902151400664
 20
88.84837295341374
 30
0.0
 10
574.5858665865107
 20
88.68022073439091
 30
0.0
 10
574.4839159558531
 20
88.50970758893153
 30
0.0
 10
574.3843849066257
 20
88.3368475018989
 30
0.0
 10
574.2872952219392
 20
88.16165466164072
 30
0.0
 10
574.1926688286909
 20
87.98414357007012
 30
0.0
 10
574.1005278115881
 20
87.80432916318077
 30
0.0
 10
574.0108944210474
 20
87.62222694147584
 30
0.0
 10
573.9237910740242
 20
87.43785310952661
 30
0.0
 10
573.839240346846
 20
87.25122472360076
 30
0.0
 10
573.7572649591688
 20
87.06235984600832
 30
0.0
 10
573.6778877482401
 20
86.8712777044838
 30
0.0
 10
573.6011316327698
 20
86.6779988546213
 30
0.0
 10
573.527019565832
 20
86.48254534303948
 30
0.0
 10
573.4555744764091
 20
86.28494086867
 30
0.0
 10
573.3868191993923
 20
86.08521093926925
 30
0.0
 10
573.3207763940986
 20
85.88338302003271
 30
0.0
 10
573.257468451646
 20
85.67948667101388
 30
0.0
 10
573.1969173918291
 20
85.47355366996156
 30
0.0
 10
573.1391447504593
 20
85.26561811718553
 30
0.0
 10
573.0841714584653
 20
85.0557165191691
 30
0.0
 10
573.0320177143761
 20
84.8438878478772
 30
0.0
 10
572.9827028521112
 20
84.63017357304867
 30
0.0
 10
572.9362452062893
 20
84.41461766526271
 30
0.0
 10
572.8926619774708
 20
84.19726656812121
 30
0.0
 10
572.8519690999365
 20
83.97816913863815
 30
0.0
 10
572.8141811146608
 20
83.75737655565055
 30
0.0
 10
572.7793110501599
 20
83.53494219694963
 30
0.0
 10
572.7473703137816
 20
83.31092148664071
 30
0.0
 10
572.7183685958247
 20
83.08537171509877
 30
0.0
 10
572.6923137885912
 20
82.85835183464707
 30
0.0
 10
572.6692119221213
 20
82.62992223477272
 30
0.0
 10
572.6490671179309
 20
82.40014450123948
 30
0.0
 10
572.6318815616046
 20
82.16908116385719
 30
0.0
 10
572.6176554945982
 20
81.93679543788657
 30
0.0
 10
572.606387225106
 20
81.70335096411227
 30
0.0
 10
572.5980731573615
 20
81.46881155246611
 30
0.0
 10
572.5927078383053
 20
81.23324093380039
 30
0.0
 10
572.5902840201667
 20
80.99670252396344
 30
0.0
 10
572.5907927371853
 20
80.75925920377513
 30
0.0
 10
572.5942233944739
 20
80.52097311786171
 30
0.0
 10
572.6005638668627
 20
80.28190549462185
 30
0.0
 10
572.6098006054949
 20
80.04211648889667
 30
0.0
 10
572.6219187499536
 20
79.80166504822961
 30
0.0
 10
572.6369022016995
 20
79.56060947975665
 30
0.0
 10
572.6547335808074
 20
79.31900894596883
 30
0.0
 10
572.6753944101607
 20
79.07692093773203
 30
0.0
 10
572.6988653245386
 20
78.83440054469578
 30
0.0
 10
572.7251264389606
 20
78.59149883589286
 30
0.0
 10
572.7541572702227
 20
78.34826534280894
 30
0.0
 10
572.78593683592
 20
78.104748074862
 30
0.0
 10
572.8204437466738
 20
77.86099355060868
 30
0.0
 10
572.8576562913686
 20
77.61704684013202
 30
0.0
 10
572.8975525151566
 20
77.37295161664467
 30
0.0
 10
572.9401102901729
 20
77.12875021543938
 30
0.0
 10
572.9853073790167
 20
76.88448369846154
 30
0.0
 10
573.0331214911965
 20
76.64019192292446
 30
0.0
 10
573.083530332803
 20
76.39591361256012
 30
0.0
 10
573.1365116497614
 20
76.1516864302598
 30
0.0
 10
573.192043265057
 20
75.90754705103359
 30
0.0
 10
573.2501031103656
 20
75.6635312343709
 30
0.0
 10
573.3106692525341
 20
75.41967389524312
 30
0.0
 10
573.3737199153765
 20
75.17600917312362
 30
0.0
 10
573.4392334972288
 20
74.93257049853585
 30
0.0
 10
573.5071885847176
 20
74.68939065674543
 30
0.0
 10
573.5775639631595
 20
74.44650184832297
 30
0.0
 10
573.650338624004
 20
74.20393574638278
 30
0.0
 10
573.725491769699
 20
73.96172355038824
 30
0.0
 10
573.8030028163321
 20
73.71989603646878
 30
0.0
 10
573.8828513943791
 20
73.47848360425397
 30
0.0
 10
573.965017347857
 20
73.2375163202719
 30
0.0
 10
574.0494807321547
 20
72.99702395799349
 30
0.0
 10
574.1362218107888
 20
72.75703603463496
 30
0.0
 10
574.2252210513007
 20
72.51758184484864
 30
0.0
 10
574.3164591204987
 20
72.27869049145214
 30
0.0
 10
574.4099168792095
 20
72.04039091335562
 30
0.0
 10
574.5055753766976
 20
71.8027119108543
 30
0.0
 10
574.6034158448825
 20
71.5656821684581
 30
0.0
 10
574.7034196924672
 20
71.32933027543254
 30
0.0
 10
574.8055684990768
 20
71.09368474422187
 30
0.0
 10
574.9098440094884
 20
70.85877402692812
 30
0.0
 10
575.0162281280209
 20
70.6246265300112
 30
0.0
 10
575.124702913139
 20
70.39127062737491
 30
0.0
 10
575.2352505723178
 20
70.15873467199552
 30
0.0
 10
575.3478534571968
 20
69.92704700624793
 30
0.0
 10
575.4624940590519
 20
69.69623597107369
 30
0.0
 10
575.5791550045955
 20
69.46632991413485
 30
0.0
 10
575.6978190521143
 20
69.23735719708569
 30
0.0
 10
575.8184690879422
 20
69.00934620209654
 30
0.0
 10
575.9410881232584
 20
68.78232533774931
 30
0.0
 10
576.0656592911988
 20
68.55632304442827
 30
0.0
 10
576.1921658442571
 20
68.33136779931431
 30
0.0
 10
576.3205911519444
 20
68.10748812110187
 30
0.0
 10
576.4509183234522
 20
67.88471321593128
 30
0.0
 10
576.5831303760564
 20
67.66307262830706
 30
0.0
 10
576.7172104040064
 20
67.44259593306315
 30
0.0
 10
576.8531419776111
 20
67.22331211151439
 30
0.0
 10
576.9909089589744
 20
67.0052499013881
 30
0.0
 10
577.130495319705
 20
66.78843810491294
 30
0.0
 10
577.2718851392989
 20
66.57290559423701
 30
0.0
 10
577.4150626033678
 20
66.35868131726878
 30
0.0
 10
577.5600120016269
 20
66.14579430402704
 30
0.0
 10
577.7067177255482
 20
65.93427367357502
 30
0.0
 10
577.8551642655832
 20
65.72414864161213
 30
0.0
 10
578.0053362078451
 20
65.51544852879496
 30
0.0
 10
578.1572182301313
 20
65.30820276985145
 30
0.0
 10
578.3107950971655
 20
65.10244092355741
 30
0.0
 10
578.4660516549122
 20
64.89819268362781
 30
0.0
 10
578.6229728238283
 20
64.69548789058346
 30
0.0
 10
578.781543590882
 20
64.49435654463761
 30
0.0
 10
578.9417490001786
 20
64.29482881964715
 30
0.0
 10
579.1035741420048
 20
64.0969350781618
 30
0.0
 10
579.2670041401049
 20
63.90070588759694
 30
0.0
 10
579.4320241369791
 20
63.70617203754511
 30
0.0
 10
579.598619276993
 20
63.51336455822656
 30
0.0
 10
579.7667746870706
 20
63.32231474006777
 30
0.0
 10
579.9364754547333
 20
63.13305415437625
 30
0.0
 10
580.1077066032467
 20
62.94561467506343
 30
0.0
 10
580.2804530636164
 20
62.76002850133852
 30
0.0
 10
580.4546996431883
 20
62.57632818127676
 30
0.0
 10
580.6304309905938
 20
62.39454663612926
 30
0.0
 10
580.807631556791
 20
62.21471718520982
 30
0.0
 10
580.9862855519586
 20
62.03687357115437
 30
0.0
 10
581.1663768980206
 20
61.86104998530545
 30
0.0
 10
581.3478891765895
 20
61.68728109292507
 30
0.0
 10
581.5308055721642
 20
61.51560205788662
 30
0.0
 10
581.715108810442
 20
61.34604856643818
 30
0.0
 10
581.9007810916722
 20
61.17865684956905
 30
0.0
 10
582.0878040190331
 20
61.01346370344066
 30
0.0
 10
582.2761585221028
 20
60.85050650728094
 30
0.0
 10
582.4658247755864
 20
60.68982323806091
 30
0.0
 10
582.6567821135764
 20
60.53145248121319
 30
0.0
 10
582.8490089397568
 20
60.37543343656962
 30
0.0
 10
583.0424826341043
 20
60.22180591864315
 30
0.0
 10
583.2371794568179
 20
60.07061035031435
 30
0.0
 10
583.4330744503777
 20
59.92188774894147
 30
0.0
 10
583.630141340846
 20
59.77567970388534
 30
0.0
 10
583.8283524397152
 20
59.63202834443104
 30
0.0
 10
584.0276785478358
 20
59.49097629710757
 30
0.0
 10
584.2280888631567
 20
59.35256663145785
 30
0.0
 10
584.4295508942192
 20
59.2168427933987
 30
0.0
 10
584.6320299253198
 20
59.08384882508616
 30
0.0
 10
584.8354870866907
 20
58.95363042059095
 30
0.0
 10
585.0398813620874
 20
58.82623331915543
 30
0.0
 10
585.2451700205602
 20
58.70170288681598
 30
0.0
 10
585.4513104983544
 20
58.5800829255147
 30
0.0
 10
585.6582582960622
 20
58.46141686991574
 30
0.0
 10
585.8659670039262
 20
58.34574762461992
 30
0.0
 10
586.0743883533586
 20
58.23311739002221
 30
0.0
 10
586.2834722935395
 20
58.12356748031122
 30
0.0
 10
586.4931670937035
 20
58.01713813610243
 30
0.0
 10
586.703419471078
 20
57.91386833458209
 30
0.0
 10
586.9141747437463
 20
57.81379560036212
 30
0.0
 10
587.1253770069554
 20
57.71695582048278
 30
0.0
 10
587.3369693306433
 20
57.62338306713944
 30
0.0
 10
587.5488939752372
 20
57.53310943172363
 30
0.0
 10
587.7610926220972
 20
57.44616487365919
 30
0.0
 10
587.9735066144291
 20
57.36257708726697
 30
0.0
 10
588.1860772040435
 20
57.28237138951786
 30
0.0
 10
588.3987457990746
 20
57.20557063103873
 30
0.0
 10
588.6114542076647
 20
57.13219513214771
 30
0.0
 10
588.824144872717
 20
57.06226264503103
 30
0.0
 10
589.0367610930707
 20
56.99578834247193
 30
0.0
 10
589.2492472269116
 20
56.93278483282774
 30
0.0
 10
589.4615488737916
 20
56.87326220026451
 30
0.0
 10
589.6736130323382
 20
56.81722806862624
 30
0.0
 10
589.8853882314955
 20
56.76468768676732
 30
0.0
 10
590.0968246339531
 20
56.715644032726
 30
0.0
 10
590.3078741112226
 20
56.67009793378622
 30
0.0
 10
590.5184902905892
 20
56.62804819926534
 30
0.0
 10
590.7286285748818
 20
56.58949176277122
 30
0.0
 10
590.9382461366063
 20
56.55442383070086
 30
0.0
 10
591.1473018885024
 20
56.52283803387126
 30
0.0
 10
591.3557564329761
 20
56.49472657938914
 30
0.0
 10
591.563571993136
 20
56.47008040013529
 30
0.0
 10
591.7707123283269
 20
56.44888929956974
 30
0.0
 10
591.9771426371158
 20
56.43114208991418
 30
0.0
 10
592.1828294506412
 20
56.41682672213597
 30
0.0
 10
592.3877405191515
 20
56.40593040652403
 30
0.0
 10
592.5918446943568
 20
56.39843972299388
 30
0.0
 10
592.7951118100309
 20
56.39434072058844
 30
0.0
 10
592.997512563028
 20
56.3936190059347
 30
0.0
 10
593.1990183966291
 20
56.39625982067728
 30
0.0
 10
593.3996013878417
 20
56.40224810813144
 30
0.0
 10
593.5992341400167
 20
56.41156856958512
 30
0.0
 10
593.7978896818795
 20
56.42420571082593
 30
0.0
 10
593.9955413738172
 20
56.44014387958183
 30
0.0
 10
594.1921628220495
 20
56.4593672946509
 30
0.0
 10
594.3877278010875
 20
56.48186006754244
 30
0.0
 10
594.5822101847145
 20
56.50760621748638
 30
0.0
 10
594.7755838855549
 20
56.53658968067457
 30
0.0
 10
594.967822803157
 20
56.56879431458547
 30
0.0
 10
595.1589007804112
 20
56.60420389822509
 30
0.0
 10
595.3487915680113
 20
56.64280212907605
 30
0.0
 10
595.5374687966012
 20
56.68457261751281
 30
0.0
 10
595.7249059561977
 20
56.72949887936502
 30
0.0
 10
595.9110763823734
 20
56.7775643273542
 30
0.0
 10
596.0959532488613
 20
56.82875226170539
 30
0.0
 10
596.2795095654677
 20
56.88304586155147
 30
0.0
 10
596.4617181829468
 20
56.94042817357764
 30
0.0
 10
596.6425517961522
 20
57.00088211331866
 30
0.0
 10
596.821982975227
 20
57.06439042368552
 30
0.0
 10
596.9999841115387
 20
57.13093579866327
 30
0.0
 10
597.176527697595
 20
57.20050039954911
 30
0.0
 10
597.3515853775688
 20
57.2730676416186
 30
0.0
 10
597.5251315881737
 20
57.3486155347421
 30
0.0
 10
597.6971301098231
 20
57.42714149617878
 30
0.0
 10
597.8675842988285
 20
57.50856991364017
 30
0.0
 10
598.0363500072634
 20
57.59309666943949
 30
0.0
 10
598.1729515213798
 20
57.66389867645361
 30
0.0
 10
598.252700006348
 20
57.70759069481193
 30
0.0
 10
598.2773081725385
 20
57.72107283744305
 30
0.0
  0
LWPOLYLINE
  5
FC
330
1F
100
AcDbEntity
  8
0
  6
Continuous
 62
     7
370
    30
100
AcDbPolyline
 90
       31
 70
   128
 43
0.0
 10
768.3280313758
 20
208.1433853073
 10
768.170393015
 20
208.2302014888
 10
767.5229905985
 20
208.5745658055
 10
766.8764758808
 20
208.8988579372
 10
766.2312919509
 20
209.2028556304
 10
765.5878809856
 20
209.4863505403
 10
764.9466839466
 20
209.7491483735
 10
764.3081402783
 20
209.9910690216
 10
763.6726876068
 20
210.2119466842
 10
763.0407614394
 20
210.4116299828
 10
762.4127948668
 20
210.5899820645
 10
761.789218266
 20
210.7468806957
 10
761.1704590052
 20
210.8822183458
 10
760.5569411511
 20
210.9959022613
 10
759.9490851781
 20
211.0878545287
 10
759.3473076805
 20
211.1580121287
 10
758.7520210864
 20
211.2063269787
 10
758.1636333755
 20
211.2327659662
 10
757.5825477994
 20
211.2373109711
 10
757.0091626052
 20
211.2199588786
 10
756.4438707623
 20
211.180721581
 10
755.8870596936
 20
211.1196259694
 10
755.3391110095
 20
211.0367139158
 10
754.8004002468
 20
210.9320422439
 10
754.2712966108
 20
210.8056826906
 10
753.7521627229
 20
210.6577218562
 10
753.2433543713
 20
210.4882611459
 10
752.745220268
 20
210.2974166994
 10
752.2581018091
 20
210.0853193121
 10
751.7823328414
 20
209.8521143449
 10
751.3196616119
 20
209.5987827646
  0
LWPOLYLINE
  5
FD
330
1F
100
AcDbEntity
  8
0
  6
Continuous
 62
     7
370
    30
100
AcDbPolyline
 90
       32
 70
   128
 43
0.0
 10
786.3168172542
 20
148.975362398
 10
786.318239433
 20
148.9761835378
 10
786.7703392155
 20
149.2511098272
 10
787.2101355255
 20
149.5466212651
 10
787.6373269486
 20
149.8625153228
 10
788.0516207092
 20
150.1985755022
 10
788.4527328709
 20
150.5545714845
 10
788.8403885317
 20
150.9302592879
 10
789.2143220115
 20
151.3253814346
 10
789.5742770352
 20
151.7396671278
 10
789.9200069075
 20
152.1728324366
 10
790.2512746824
 20
152.6245804912
 10
790.5678533256
 20
153.094601686
 10
790.8695258698
 20
153.5825738921
 10
791.1560855638
 20
154.0881626776
 10
791.4273360138
 20
154.6110215373
 10
791.6830913184
 20
155.1507921297
 10
791.9231761956
 20
155.7071045231
 10
792.1474261033
 20
156.2795774488
 10
792.3556873518
 20
156.8678185624
 10
792.5478172092
 20
157.4714247128
 10
792.7236839993
 20
158.0899822186
 10
792.8831671918
 20
158.7230671513
 10
793.0261574849
 20
159.3702456261
 10
793.1525568801
 20
160.0310740992
 10
793.2622787497
 20
160.7050996719
 10
793.3552478958
 20
161.3918604006
 10
793.4314006019
 20
162.0908856138
 10
793.4906846768
 20
162.8016962346
 10
793.5330594902
 20
163.5238051089
 10
793.5584960004
 20
164.2567173393
 10
793.5620414262
 20
164.4320616086
  0
LINE
  5
FE
330
1F
100
AcDbEntity
  8
0
  6
Continuous
 62
     7
370
    30
100
AcDbLine
 10
616.7561579059
 20
65.7337054129
 30
0.0
 11
616.7557894884
 21
65.7149379126
 31
0.0
  0
LWPOLYLINE
  5
FF
330
1F
100
AcDbEntity
  8
0
  6
Continuous
 62
     7
370
    30
100
AcDbPolyline
 90
      135
 70
   128
 43
0.0
 10
747.9595328456
 20
207.6590217168
 10
748.1403961092
 20
207.8458428378
 10
748.5336893704
 20
208.2269941954
 10
748.9406348278
 20
208.5881673577
 10
749.3609535815
 20
208.9291147945
 10
749.7943575658
 20
209.2496028377
 10
750.2405497475
 20
209.5494118406
 10
750.6992243287
 20
209.8283363292
 10
751.1700669566
 20
210.0861851426
 10
751.6527549393
 20
210.322781564
 10
752.1469574666
 20
210.5379634421
 10
752.6523358368
 20
210.731583302
 10
753.1685436886
 20
210.9035084463
 10
753.6952272392
 20
211.0536210461
 10
754.2320255258
 20
211.1818182217
 10
754.7785706537
 20
211.2880121132
 10
755.3344880483
 20
211.3721299406
 10
755.8993967114
 20
211.4341140537
 10
756.472909483
 20
211.4739219717
 10
757.0546333059
 20
211.4915264123
 10
757.6441694958
 20
211.4869153103
 10
758.241114014
 20
211.4600918258
 10
758.8450577446
 20
211.4110743423
 10
759.4555867746
 20
211.3398964541
 10
760.0722826781
 20
211.2466069428
 10
760.6947228023
 20
211.1312697444
 10
761.322480558
 20
210.9939639053
 10
761.9551257113
 20
210.8347835281
 10
762.5922246788
 20
210.6538377069
 10
763.2333408248
 20
210.4512504532
 10
763.8780347603
 20
210.2271606099
 10
764.5258646442
 20
209.9817217572
 10
765.1763864862
 20
209.7151021065
 10
765.8291544513
 20
209.4274843857
 10
766.4837211649
 20
209.1190657135
 10
767.1396380196
 20
208.7900574647
 10
767.7964554827
 20
208.4406851252
 10
768.4537234045
 20
208.0711881372
 10
769.1109913263
 20
207.6818197356
 10
769.7678087894
 20
207.272846774
 10
770.4237256441
 20
206.844549542
 10
771.0782923577
 20
206.3972215733
 10
771.7310603228
 20
205.9311694439
 10
772.3815821648
 20
205.4467125629
 10
773.0294120487
 20
204.9441829526
 10
773.6741059842
 20
204.4239250219
 10
774.3152221302
 20
203.8862953295
 10
774.9523210977
 20
203.3316623399
 10
775.584966251
 20
202.7604061709
 10
776.2127240067
 20
202.172918333
 10
776.8351641309
 20
201.5696014609
 10
777.4518600344
 20
200.9508690379
 10
778.0623890644
 20
200.3171451124
 10
778.666332795
 20
199.6688640069
 10
779.2632773132
 20
199.0064700211
 10
779.8528135031
 20
198.3304171266
 10
780.434537326
 20
197.6411686564
 10
781.0080500976
 20
196.9391969868
 10
781.5729587607
 20
196.2249832144
 10
782.1288761553
 20
195.4990168254
 10
782.6754212832
 20
194.761795361
 10
783.2122195698
 20
194.0138240759
 10
783.7389031204
 20
193.2556155923
 10
784.2551109722
 20
192.4876895485
 10
784.7604893424
 20
191.7105722425
 10
785.2546918697
 20
190.9247962719
 10
785.7373798524
 20
190.130900168
 10
786.2082224803
 20
189.3294280278
 10
786.6668970615
 20
188.5209291401
 10
787.1130892431
 20
187.7059576097
 10
787.5464932275
 20
186.8850719775
 10
787.9668119812
 20
186.0588348373
 10
788.3737574386
 20
185.2278124509
 10
788.7670506998
 20
184.3925743596
 10
789.1464222211
 20
183.5536929936
 10
789.5116120002
 20
182.7117432806
 10
789.8623697544
 20
181.8673022506
 10
790.1984550918
 20
181.0209486415
 10
790.5196376762
 20
180.1732625017
 10
790.8256973852
 20
179.324824793
 10
791.1164244607
 20
178.4762169922
 10
791.391619653
 20
177.6280206926
 10
791.6510943569
 20
176.7808172057
 10
791.8946707415
 20
175.9351871624
 10
792.1221818718
 20
175.0917101153
 10
792.3334718228
 20
174.2509641414
 10
792.5283957871
 20
173.413525446
 10
792.7068201736
 20
172.5799679679
 10
792.8686226989
 20
171.7508629855
 10
793.0136924719
 20
170.9267787262
 10
793.1419300688
 20
170.108279976
 10
793.2532476021
 20
169.2959276931
 10
793.3475687802
 20
168.4902786232
 10
793.4248289603
 20
167.691884918
 10
793.4849751919
 20
166.9012937565
 10
793.5279662539
 20
166.1190469706
 10
793.5537726823
 20
165.3456806729
 10
793.5623767907
 20
164.5817248903
 10
793.5537726823
 20
163.8277031998
 10
793.5279662539
 20
163.0841323702
 10
793.4849751919
 20
162.3515220079
 10
793.4248289603
 20
161.6303742073
 10
793.3475687802
 20
160.9211832072
 10
793.2532476021
 20
160.2244350516
 10
793.1419300688
 20
159.5406072569
 10
793.0136924719
 20
158.8701684846
 10
792.8686226989
 20
158.2135782199
 10
792.7068201736
 20
157.5712864569
 10
792.5283957871
 20
156.9437333903
 10
792.3334718228
 20
156.3313491138
 10
792.1221818718
 20
155.7345533248
 10
791.8946707415
 20
155.1537550373
 10
791.6510943569
 20
154.5893523016
 10
791.391619653
 20
154.0417319311
 10
791.1164244607
 20
153.5112692373
 10
790.8256973852
 20
152.998327773
 10
790.5196376762
 20
152.5032590827
 10
790.1984550918
 20
152.0264024615
 10
789.8623697544
 20
151.5680847233
 10
789.5116120002
 20
151.1286199762
 10
789.1464222211
 20
150.7083094073
 10
788.7670506998
 20
150.3074410765
 10
788.3737574386
 20
149.9262897189
 10
787.9668119812
 20
149.5651165567
 10
787.5464932275
 20
149.2241691198
 10
787.1130892431
 20
148.9036810767
 10
786.6668970615
 20
148.6038720738
 10
786.2082224803
 20
148.3249475851
 10
785.7373798524
 20
148.0670987718
 10
785.2546918697
 20
147.8305023504
 10
784.7604893424
 20
147.6153204722
 10
784.2551109722
 20
147.4217006124
 10
783.7389031204
 20
147.2497754681
 10
783.2122195698
 20
147.0996628683
 10
782.9566884879
 20
147.0356013502
  0
LWPOLYLINE
  5
100
330
1F
100
AcDbEntity
  8
0
  6
Continuous
 62
     7
370
    30
100
AcDbPolyline
 90
      149
 70
   128
 43
0.0
 10
781.5956117156
 20
146.3202032584
 10
781.8141504889
 20
146.3115582845
 10
782.435081321
 20
146.3025590124
 10
783.0478631742
 20
146.3169460577
 10
783.6520746192
 20
146.3547095258
 10
784.2473001208
 20
146.4158234458
 10
784.833130324
 20
146.5002457876
 10
785.409162335
 20
146.6079184914
 10
785.9749999986
 20
146.7387675073
 10
786.5302541705
 20
146.8927028463
 10
787.0745429851
 20
147.0696186422
 10
787.607492118
 20
147.2693932247
 10
788.1287350433
 20
147.4918892024
 10
788.6379132862
 20
147.7369535579
 10
789.1346766686
 20
148.0044177528
 10
789.6186835511
 20
148.2940978436
 10
790.0896010669
 20
148.6057946082
 10
790.5471053513
 20
148.9392936831
 10
790.9908817643
 20
149.2943657106
 10
791.4206251071
 20
149.6707664964
 10
791.8360398316
 20
150.068237178
 10
792.2368402443
 20
150.4865044025
 10
792.6227507021
 20
150.9252805143
 10
792.9935058024
 20
151.3842637534
 10
793.3488505653
 20
151.8631384628
 10
793.6885406092
 20
152.3615753052
 10
794.0123423184
 20
152.8792314902
 10
794.3200330046
 20
153.4157510094
 10
794.6114010591
 20
153.9707648815
 10
794.8862460992
 20
154.5438914062
 10
795.1443791052
 20
155.1347364264
 10
795.385622551
 20
155.7428935996
 10
795.609810526
 20
156.3679446771
 10
795.8167888491
 20
157.0094597917
 10
796.0064151749
 20
157.6669977534
 10
796.1785590913
 20
158.3401063529
 10
796.3331022097
 20
159.0283226723
 10
796.4699382459
 20
159.7311734038
 10
796.5889730934
 20
160.4481751748
 10
796.6901248884
 20
161.1788348811
 10
796.7733240656
 20
161.9226500249
 10
796.8385134062
 20
162.6791090614
 10
796.8856480775
 20
163.4476917501
 10
796.9146956637
 20
164.2278695127
 10
796.9256361876
 20
165.0191057965
 10
796.9184621252
 20
165.8208564436
 10
796.8931784103
 20
166.632570065
 10
796.8498024313
 20
167.45368842
 10
796.7883640193
 20
168.2836467998
 10
796.7089054272
 20
169.121874416
 10
796.6114813014
 20
169.9677947934
 10
796.4961586434
 20
170.820826166
 10
796.3630167642
 20
171.6803818776
 10
796.2121472296
 20
172.5458707848
 10
796.0436537973
 20
173.4166976638
 10
795.8576523456
 20
174.2922636199
 10
795.6542707934
 20
175.1719664989
 10
795.4336490126
 20
176.0552013017
 10
795.1959387317
 20
176.9413606001
 10
794.9413034314
 20
177.8298349547
 10
794.6699182324
 20
178.7200133338
 10
794.3819697749
 20
179.6112835341
 10
794.0776560899
 20
180.5030326012
 10
793.7571864634
 20
181.3946472513
 10
793.4207812925
 20
182.2855142932
 10
793.0686719336
 20
183.1750210498
 10
792.7011005431
 20
184.0625557795
 10
792.3183199114
 20
184.9475080969
 10
791.9205932888
 20
185.8292693928
 10
791.5081942043
 20
186.7072332522
 10
791.0814062776
 20
187.5807958721
 10
790.640523024
 20
188.4493564761
 10
790.1858476528
 20
189.3123177279
 10
789.7176928585
 20
190.1690861421
 10
789.2363806057
 20
191.0190724924
 10
788.7422419079
 20
191.8616922165
 10
788.2356165996
 20
192.6963658185
 10
787.7168531031
 20
193.5225192674
 10
787.1863081881
 20
194.3395843915
 10
786.644346727
 20
195.1469992697
 10
786.0913414435
 20
195.9442086175
 10
785.5276726567
 20
196.7306641692
 10
784.9537280192
 20
197.5058250547
 10
784.3699022508
 20
198.2691581715
 10
783.7765968665
 20
199.0201385518
 10
783.1742199011
 20
199.7582497229
 10
782.5631856281
 20
200.4829840625
 10
781.9439142747
 20
201.1938431483
 10
781.3168317333
 20
201.8903381002
 10
780.682369268
 20
202.571989917
 10
780.0409632186
 20
203.2383298053
 10
779.3930547001
 20
203.8888995024
 10
778.7390892993
 20
204.5232515912
 10
778.0795167688
 20
205.140949808
 10
777.4147907171
 20
205.7415693423
 10
776.7453682971
 20
206.3246971294
 10
776.0717098916
 20
206.889932134
 10
775.3942787964
 20
207.4368856265
 10
774.7135409022
 20
207.9651814497
 10
774.0299643736
 20
208.4744562781
 10
773.3440193275
 20
208.9643598676
 10
772.6561775098
 20
209.4345552961
 10
771.9669119709
 20
209.8847191955
 10
771.2766967401
 20
210.3145419741
 10
770.5860065
 20
210.7237280292
 10
769.89531626
 20
211.1119959509
 10
769.2051010292
 20
211.4790787152
 10
768.5158354902
 20
211.8247238678
 10
767.8279936726
 20
212.1486936977
 10
767.1420486265
 20
212.4507654008
 10
766.4584720979
 20
212.7307312329
 10
765.7777342036
 20
212.9883986527
 10
765.1003031084
 20
213.2235904543
 10
764.4266447028
 20
213.436144889
 10
763.7572222828
 20
213.6259157764
 10
763.0924962311
 20
213.7927726052
 10
762.4329237005
 20
213.9366006227
 10
761.7789582997
 20
214.0573009139
 10
761.1310497812
 20
214.1547904694
 10
760.4896437317
 20
214.2290022427
 10
759.8551812665
 20
214.2798851959
 10
759.228098725
 20
214.3074043352
 10
758.6088273715
 20
214.311540735
 10
757.9977930984
 20
214.2922915504
 10
757.395416133
 20
214.2496700198
 10
756.8021107487
 20
214.1837054552
 10
756.2182849801
 20
214.0944432226
 10
755.6443403426
 20
213.9819447104
 10
755.0806715558
 20
213.8462872874
 10
754.5276662722
 20
213.6875642493
 10
753.985704811
 20
213.5058847551
 10
753.4551598959
 20
213.3013737513
 10
752.9363963993
 20
213.0741718865
 10
752.429771091
 20
212.8244354146
 10
751.9356323931
 20
212.5523360872
 10
751.4543201402
 20
212.2580610355
 10
750.9861653458
 20
211.9418126415
 10
750.5314899746
 20
211.6038083993
 10
750.0906067209
 20
211.2442807649
 10
749.6638187941
 20
210.8634769966
 10
749.2514197094
 20
210.4616589852
 10
748.8536930867
 20
210.0391030734
 10
748.470912455
 20
209.5960998661
 10
748.1033410644
 20
209.1329540306
 10
747.7512317054
 20
208.6499840865
 10
747.4148265344
 20
208.1475221876
 10
747.0943569078
 20
207.6259138924
 10
746.7900432227
 20
207.0855179274
 10
746.6589557534
 20
206.8373261931
  0
ARC
  5
101
330
1F
100
AcDbEntity
  8
0
  6
Continuous
 62
     7
370
    30
100
AcDbCircle
 10
780.5211108353
 20
159.0498655565
 30
0.0
 40
12.1225790814458
100
AcDbArc
 50
283.4850290692
 51
300.1160120255
  0
ARC
  5
102
330
1F
100
AcDbEntity
  8
0
  6
Continuous
 62
     7
370
    30
100
AcDbCircle
 10
757.1458327259
 20
199.5415109457
 30
0.0
 40
12.12288691661314
100
AcDbArc
 50
119.8788240911
 51
136.5093817486
  0
LWPOLYLINE
  5
103
330
1F
100
AcDbEntity
  8
0
  6
Continuous
 62
     7
370
    30
100
AcDbPolyline
 90
       92
 70
   128
 43
0.0
 10
780.2569403935
 20
165.3359780682
 10
780.2508398658
 20
165.8776417873
 10
780.2325424639
 20
166.4259777964
 10
780.2020607279
 20
166.9806102934
 10
780.1594155484
 20
167.541159161
 10
780.1046361522
 20
168.1072402268
 10
780.0377600825
 20
168.6784655272
 10
779.9588331728
 20
169.254443573
 10
779.8679095156
 20
169.8347796176
 10
779.7650514255
 20
170.4190759275
 10
779.6503293963
 20
171.0069320554
 10
779.5238220526
 20
171.597945114
 10
779.3856160964
 20
172.1917100524
 10
779.2358062471
 20
172.7878199338
 10
779.0744951768
 20
173.3858662144
 10
778.9017934402
 20
173.9854390229
 10
778.7178193983
 20
174.5861274423
 10
778.5226991378
 20
175.1875197906
 10
778.3165663844
 20
175.7892039037
 10
778.0995624111
 20
176.3907674171
 10
777.8718359416
 20
176.9917980494
 10
777.6335430484
 20
177.5918838842
 10
777.3848470454
 20
178.1906136526
 10
777.1259183764
 20
178.7875770152
 10
776.8569344983
 20
179.3823648431
 10
776.5780797591
 20
179.9745694983
 10
776.2895452719
 20
180.5637851135
 10
775.991528784
 20
181.1496078697
 10
775.6842345408
 20
181.7316362732
 10
775.3678731465
 20
182.3094714309
 10
775.0426614194
 20
182.8827173233
 10
774.7088222435
 20
183.4509810763
 10
774.3665844153
 20
184.0138732305
 10
774.0161824876
 20
184.5710080076
 10
773.6578566083
 20
185.1220035752
 10
773.2918523562
 20
185.6664823086
 10
772.9184205723
 20
186.2040710492
 10
772.537817188
 20
186.7344013605
 10
772.1503030499
 20
187.2571097807
 10
771.7561437408
 20
187.7718380714
 10
771.3556093979
 20
188.2782334637
 10
770.9489745274
 20
188.7759488993
 10
770.5365178164
 20
189.2646432692
 10
770.1185219423
 20
189.7439816464
 10
769.6952733784
 20
190.2136355164
 10
769.2670621984
 20
190.673283002
 10
768.8341818766
 20
191.1226090837
 10
768.3969290876
 20
191.5613058159
 10
767.9556035027
 20
191.9890725377
 10
767.5105075844
 20
192.4056160791
 10
767.0619463792
 20
192.8106509621
 10
766.6102273085
 20
193.203899596
 10
766.155659958
 20
193.5850924678
 10
765.6985558655
 20
193.9539683269
 10
765.2392283072
 20
194.3102743642
 10
764.7779920834
 20
194.6537663855
 10
764.3151633024
 20
194.9842089784
 10
763.8510591637
 20
195.3013756741
 10
763.3859977413
 20
195.6050491023
 10
762.9202977651
 20
195.8950211405
 10
762.4542784024
 20
196.1710930563
 10
761.9882590397
 20
196.4330756438
 10
761.5225590634
 20
196.6807893533
 10
761.057497641
 20
196.9140644141
 10
760.5933935024
 20
197.1327409511
 10
760.1305647213
 20
197.3366690945
 10
759.6693284975
 20
197.5257090819
 10
759.2100009393
 20
197.699731355
 10
758.7528968467
 20
197.8586166474
 10
758.2983294963
 20
198.0022560671
 10
757.8466104256
 20
198.1305511709
 10
757.3980492203
 20
198.2434140317
 10
756.952953302
 20
198.3407672989
 10
756.5116277171
 20
198.4225442515
 10
756.0743749282
 20
198.4886888436
 10
755.6414946064
 20
198.5391557431
 10
755.2132834263
 20
198.5739103624
 10
754.7900348625
 20
198.5929288824
 10
754.3720389883
 20
198.5961982689
 10
753.9595822774
 20
198.5837162811
 10
753.5529474068
 20
198.5554914735
 10
753.1524130639
 20
198.5115431901
 10
752.7582537548
 20
198.4519015508
 10
752.3707396167
 20
198.3766074311
 10
751.9901362325
 20
198.2857124336
 10
751.6167044485
 20
198.1792788534
 10
751.2507001964
 20
198.0573796346
 10
750.8923743172
 20
197.920098321
 10
750.5419723895
 20
197.7675289982
 10
750.1997345613
 20
197.5997762297
 10
749.8658953853
 20
197.4169549848
 10
749.6818128638
 20
197.3074969033
  0
LWPOLYLINE
  5
104
330
1F
100
AcDbEntity
  8
0
  6
Continuous
 62
     7
370
    30
100
AcDbPolyline
 90
       32
 70
   128
 43
0.0
 10
774.8537707237
 20
153.7036623977
 10
775.0426614194
 20
153.8095171714
 10
775.3678731465
 20
154.0072815961
 10
775.6842345408
 20
154.2198536627
 10
775.991528784
 20
154.4470876851
 10
776.2895452719
 20
154.6888279282
 10
776.5780797591
 20
154.9449087156
 10
776.8569344983
 20
155.215154542
 10
777.1259183764
 20
155.4993801947
 10
777.3848470454
 20
155.7973908795
 10
777.6335430484
 20
156.1089823547
 10
777.8718359416
 20
156.4339410712
 10
778.0995624111
 20
156.7720443185
 10
778.3165663844
 20
157.1230603775
 10
778.5226991378
 20
157.4867486792
 10
778.7178193983
 20
157.86285997
 10
778.9017934402
 20
158.251136482
 10
779.0744951768
 20
158.6513121097
 10
779.2358062471
 20
159.0631125929
 10
779.3856160964
 20
159.486255704
 10
779.5238220526
 20
159.9204514419
 10
779.6503293963
 20
160.3654022305
 10
779.7650514255
 20
160.8208031228
 10
779.8679095156
 20
161.2863420097
 10
779.9588331728
 20
161.7616998342
 10
780.0377600825
 20
162.2465508097
 10
780.1046361522
 20
162.7405626436
 10
780.1594155484
 20
163.2433967649
 10
780.2020607279
 20
163.7547085562
 10
780.2325424639
 20
164.2741475899
 10
780.2508398658
 20
164.8013578684
 10
780.2569403935
 20
165.3359780682
  0
SPLINE
  5
105
330
1F
100
AcDbEntity
  8
0
  6
Continuous
 62
   252
370
     0
100
AcDbSpline
210
0.0
220
0.0
230
1.0
 70
     8
 71
     3
 72
   289
 73
   285
 74
     0
 42
0.000000001
 43
0.00000001
 40
0.0
 40
0.0
 40
0.0
 40
0.0
 40
0.0013120554694163
 40
0.0042316607969527
 40
0.0071541566364935
 40
0.0102019534591363
 40
0.0132983762980808
 40
0.017628353014841
 40
0.0219539461118368
 40
0.0262767405090827
 40
0.0305983242058233
 40
0.0349202865358303
 40
0.0396767634639003
 40
0.044437732821215
 40
0.0456856796319413
 40
0.0469341168025613
 40
0.0481830820292269
 40
0.049432612960299
 40
0.0506827471930287
 40
0.051933522270263
 40
0.0562133413198542
 40
0.060486664843518
 40
0.0647550076258918
 40
0.0690198897587386
 40
0.0732828350358444
 40
0.0775453693281884
 40
0.0804166140003748
 40
0.083288830531412
 40
0.0861624844259472
 40
0.0890380404905723
 40
0.0919159626102337
 40
0.0947967135268666
 40
0.0976807546207724
 40
0.1020521914618648
 40
0.1064167024530902
 40
0.1107759010328941
 40
0.1151314065434601
 40
0.1194848424480929
 40
0.1238378345256977
 40
0.12794314595393
 40
0.1320508706310872
 40
0.1361623682291826
 40
0.1402789946817808
 40
0.144402100862391
 40
0.1487735377721328
 40
0.1531380488067056
 40
0.1574972474103107
 40
0.1618527529309304
 40
0.1662061888376981
 40
0.1705591809153651
 40
0.1734913793663532
 40
0.1764246106335088
 40
0.1793593706806401
 40
0.182296154697015
 40
0.1852354568489569
 40
0.1881777700340144
 40
0.191123585638307
 40
0.1954034048772245
 40
0.1996767285204375
 40
0.2039450713684601
 40
0.2082099535290449
 40
0.212472898812047
 40
0.2167354331045602
 40
0.2204873480243407
 40
0.2242411661060461
 40
0.2279979252055166
 40
0.2294748398647289
 40
0.230952430902734
 40
0.2324307608839224
 40
0.2339098922789165
 40
0.2353898874568561
 40
0.2368708086777457
 40
0.2414709032309798
 40
0.2460640110592034
 40
0.2506520164235763
 40
0.2552368098763036
 40
0.2598202859440559
 40
0.2644043407868749
 40
0.2674928685288134
 40
0.2705830967896387
 40
0.2736756028941078
 40
0.276770962892436
 40
0.2798697512432625
 40
0.2828453478072385
 40
0.2857656973396484
 40
0.2903237935818709
 40
0.294877532310893
 40
0.2994287634163975
 40
0.3039793398462481
 40
0.3085311153478294
 40
0.3130859422045127
 40
0.3176456689810439
 40
0.3222121382915235
 40
0.3265504000197683
 40
0.3308828270171092
 40
0.3352110013850241
 40
0.3395365098913285
 40
0.3438609422384
 40
0.3481858893152946
 40
0.3510997218978204
 40
0.3540149945200645
 40
0.3569321917100403
 40
0.3598517970375767
 40
0.3627742928771175
 40
0.3658220896997669
 40
0.3689185125387197
 40
0.373248489255489
 40
0.3775740823524913
 40
0.3818968767497409
 40
0.3862184604464825
 40
0.3905404227764879
 40
0.3952968997045529
 40
0.4000578690618591
 40
0.4013058158725828
 40
0.4025542530431998
 40
0.4038032182698623
 40
0.4050527492009309
 40
0.4063028834336571
 40
0.4075536585108874
 40
0.4118334775604903
 40
0.4161068010841635
 40
0.4203751438665443
 40
0.4246400259993956
 40
0.4289029712765035
 40
0.4331655055688471
 40
0.4360367502410321
 40
0.4389089667720666
 40
0.4417826206665981
 40
0.4446581767312182
 40
0.4475360988508736
 40
0.4504168497674994
 40
0.4533008908613964
 40
0.4576723277025329
 40
0.4620368386937933
 40
0.4663960372736232
 40
0.470751542784206
 40
0.4751049786888466
 40
0.4794579707664501
 40
0.483563282194673
 40
0.4876710068718128
 40
0.4917825044698829
 40
0.4958991309224479
 40
0.5000222371030166
 40
0.5043936740128057
 40
0.508758185047416
 40
0.513117383651049
 40
0.5174728891716869
 40
0.521826325078463
 40
0.5261793171561285
 40
0.5291115156071103
 40
0.532044746874255
 40
0.5349795069213709
 40
0.5379162909377259
 40
0.5408555930896434
 40
0.5437979062746721
 40
0.5467437218789308
 40
0.5510235411178158
 40
0.555296864761003
 40
0.5595652076090067
 40
0.563830089769579
 40
0.5680930350525755
 40
0.5723555693450897
 40
0.5761074842648765
 40
0.5798613023465933
 40
0.5836180614460803
 40
0.5850949761053003
 40
0.586572567143314
 40
0.5880508971245116
 40
0.5895300285195159
 40
0.5910100236974662
 40
0.5924909449183678
 40
0.5970910394715429
 40
0.6016841472997211
 40
0.6062721526640623
 40
0.6108569461167719
 40
0.6154404221845201
 40
0.6200244770273494
 40
0.6231130047693024
 40
0.6262032330301486
 40
0.6292957391346448
 40
0.6323910991330064
 40
0.6354898874838726
 40
0.6384654840477814
 40
0.641385833580092
 40
0.6459439298221931
 40
0.6504976685511348
 40
0.6550488996566002
 40
0.6595994760864526
 40
0.6641512515880769
 40
0.6687060784448436
 40
0.673265805221499
 40
0.6778322745321431
 40
0.682170536260132
 40
0.6865029632572767
 40
0.6908311376250548
 40
0.6951566461312823
 40
0.6994810784783367
 40
0.7038060255552744
 40
0.7067198581378628
 40
0.7096351307601968
 40
0.7125523279502896
 40
0.71547193327797
 40
0.7183944291176819
 40
0.7214422259403218
 40
0.7245386487791936
 40
0.7288686254958725
 40
0.7331942185928109
 40
0.7375170129900237
 40
0.7418385966867557
 40
0.7461605590167786
 40
0.7509170359448943
 40
0.7556780053022844
 40
0.7569259521130354
 40
0.7581743892836821
 40
0.7594233545103765
 40
0.7606728854414793
 40
0.7619230196742419
 40
0.7631737947515109
 40
0.7674536138011673
 40
0.7717269373248826
 40
0.7759952801072947
 40
0.7802601622401664
 40
0.7845231075172835
 40
0.7887856418096256
 40
0.7916568864818034
 40
0.7945291030128259
 40
0.7974027569073403
 40
0.8002783129719387
 40
0.8031562350915676
 40
0.806036986008162
 40
0.8089210271020228
 40
0.8132924639431792
 40
0.8176569749344557
 40
0.8220161735142975
 40
0.8263716790248881
 40
0.8307251149295323
 40
0.8350781070071353
 40
0.8391834184353536
 40
0.8432911431124849
 40
0.8474026407105424
 40
0.8515192671630908
 40
0.8556423733436388
 40
0.8600138102534028
 40
0.8643783212879933
 40
0.8687375198916116
 40
0.8730930254122398
 40
0.8774464613190114
 40
0.8817994533966776
 40
0.8847316518476629
 40
0.8876648831148135
 40
0.8905996431619377
 40
0.8935364271783036
 40
0.8964757293302344
 40
0.8994180425152788
 40
0.9023638581195558
 40
0.90664367735864
 40
0.9109170010019856
 40
0.9151853438501063
 40
0.9194502260107549
 40
0.9237131712937864
 40
0.9279757055862949
 40
0.9317276205060429
 40
0.9354814385876893
 40
0.9392381976870746
 40
0.9407151123462462
 40
0.9421927033842065
 40
0.9436710333653461
 40
0.9451501647602876
 40
0.9466301599381703
 40
0.9481110811589996
 40
0.9527111757123715
 40
0.9573042835407015
 40
0.9618922889051486
 40
0.9664770823579175
 40
0.9710605584256791
 40
0.9756446132684751
 40
0.9787331410103791
 40
0.9818233692711551
 40
0.98491587537556
 40
0.988011235373809
 40
0.9911100237245412
 40
0.9940858044185741
 40
0.9970063822721359
 40
1.0
 40
1.0
 40
1.0
 40
1.0
 10
765.6771751413239
 20
148.7154681026114
 30
0.0
 10
765.7190746800327
 20
148.6983615694887
 30
0.0
 10
765.8542096948981
 20
148.6431893246602
 30
0.0
 10
766.0820907090475
 20
148.5546715096816
 30
0.0
 10
766.3647656069483
 20
148.4482589272118
 30
0.0
 10
766.6523497537394
 20
148.3447352893698
 30
0.0
 10
766.983714379251
 20
148.2307270699263
 30
0.0
 10
767.3542358568598
 20
148.1105784747705
 30
0.0
 10
767.7616328317871
 20
147.9879352523247
 30
0.0
 10
768.1668258309384
 20
147.8754804900676
 30
0.0
 10
768.5698145703673
 20
147.7732114084422
 30
0.0
 10
768.9839673334942
 20
147.6780573128852
 30
0.0
 10
769.4090273504893
 20
147.5912398657331
 30
0.0
 10
769.7373538855843
 20
147.5330590239031
 30
0.0
 10
769.9576379124163
 20
147.4978159666435
 30
0.0
 10
770.0710941367214
 20
147.4804800752765
 30
0.0
 10
770.1843673590746
 20
147.4639893769659
 30
0.0
 10
770.2974576813016
 20
147.4483438387171
 30
0.0
 10
770.4103651712966
 20
147.4335434762356
 30
0.0
 10
770.6140642260189
 20
147.4083256222048
 30
0.0
 10
770.9071805715133
 20
147.376786599097
 30
0.0
 10
771.2875127234619
 20
147.3455637767977
 30
0.0
 10
771.6642639559901
 20
147.3244265109285
 30
0.0
 10
772.0374329951071
 20
147.3133750747259
 30
0.0
 10
772.4070194835919
 20
147.3124093823653
 30
0.0
 10
772.7331766812583
 20
147.320536691019
 30
0.0
 10
773.0171222064149
 20
147.3342708641844
 30
0.0
 10
773.2599482233426
 20
147.3506682665331
 30
0.0
 10
773.5011494665412
 20
147.3716392994538
 30
0.0
 10
773.7407261937203
 20
147.3971839618192
 30
0.0
 10
773.9786782669487
 20
147.4273021944308
 30
0.0
 10
774.2150058809174
 20
147.4619941942669
 30
0.0
 10
774.4899523795416
 20
147.507991892138
 30
0.0
 10
774.8018961343106
 20
147.5683514851306
 30
0.0
 10
775.148869064635
 20
147.6467570935672
 30
0.0
 10
775.4907146720707
 20
147.7354376675482
 30
0.0
 10
775.8274321537963
 20
147.8343933585211
 30
0.0
 10
776.159021451764
 20
147.9436240673844
 30
0.0
 10
776.479262144827
 20
148.0608528072851
 30
0.0
 10
776.7884854638836
 20
148.1854032242833
 30
0.0
 10
777.0870292927076
 20
148.3166222014846
 30
0.0
 10
777.3810140336734
 20
148.456974810526
 30
0.0
 10
777.6704395384241
 20
148.606461472812
 30
0.0
 10
777.9608445760813
 20
148.7681641502989
 30
0.0
 10
778.2515109177591
 20
148.9424817828825
 30
0.0
 10
778.5416655339043
 20
149.1298757073984
 30
0.0
 10
778.8255033357003
 20
149.326862314665
 30
0.0
 10
779.1030239699578
 20
149.5334420704585
 30
0.0
 10
779.374226995482
 20
149.7496144034517
 30
0.0
 10
779.6102741506432
 20
149.9508003862193
 30
0.0
 10
779.8133332726036
 20
150.1336714729711
 30
0.0
 10
779.9852837139181
 20
150.2954565741509
 30
0.0
 10
780.1543691832471
 20
150.4615915396571
 30
0.0
 10
780.3205898663298
 20
150.6320765369817
 30
0.0
 10
780.4839457225543
 20
150.8069113667897
 30
0.0
 10
780.6444366655727
 20
150.986096544049
 30
0.0
 10
780.8257840483149
 20
151.197249847949
 30
0.0
 10
781.0259664250531
 20
151.4425838745783
 30
0.0
 10
781.2425785663124
 20
151.7247155744757
 30
0.0
 10
781.4522602577026
 20
152.0150123066572
 30
0.0
 10
781.655010739339
 20
152.3134741425078
 30
0.0
 10
781.8508300154369
 20
152.6201007808555
 30
0.0
 10
782.0321602467018
 20
152.9222969213128
 30
0.0
 10
782.1999337323803
 20
153.2189487442161
 30
0.0
 10
782.3550481085447
 20
153.5090292618705
 30
0.0
 10
782.4744537824474
 20
153.7453755534961
 30
0.0
 10
782.5613284662694
 20
153.9243483851055
 30
0.0
 10
782.6178555223757
 20
154.0434828451278
 30
0.0
 10
782.6735543752569
 20
154.1635927727698
 30
0.0
 10
782.7284250945632
 20
154.2846781916965
 30
0.0
 10
782.7824676108373
 20
154.4067393421941
 30
0.0
 10
782.8730305978169
 20
154.6161276376012
 30
0.0
 10
782.9966223755715
 20
154.9161449764844
 30
0.0
 10
783.1477555770223
 20
155.3119869755216
 30
0.0
 10
783.2902152461866
 20
155.715737546711
 30
0.0
 10
783.4240003766087
 20
156.1273957215041
 30
0.0
 10
783.5491109701144
 20
156.546960784933
 30
0.0
 10
783.65286602056
 20
156.9278776830371
 30
0.0
 10
783.7382613615804
 20
157.2674019489617
 30
0.0
 10
783.8078486291322
 20
157.5632993320097
 30
0.0
 10
783.8735022251244
 20
157.862781987228
 30
0.0
 10
783.9352224222582
 20
158.1658500881671
 30
0.0
 10
783.992218000315
 20
158.4683085888346
 30
0.0
 10
784.0443340660659
 20
158.7680119166582
 30
0.0
 10
784.1006019201305
 20
159.1196955108531
 30
0.0
 10
784.159050333721
 20
159.5293069318809
 30
0.0
 10
784.216626167965
 20
160.0009544573031
 30
0.0
 10
784.2653442018586
 20
160.4786761538512
 30
0.0
 10
784.3052042479213
 20
160.9624709335193
 30
0.0
 10
784.3362063002401
 20
161.4523387938993
 30
0.0
 10
784.3583504626972
 20
161.9482793813568
 30
0.0
 10
784.3716363237718
 20
162.4502925977291
 30
0.0
 10
784.375988987382
 20
162.9495969062144
 30
0.0
 10
784.3719353227023
 20
163.4452814483265
 30
0.0
 10
784.3599459858671
 20
163.9364905524442
 30
0.0
 10
784.3399548728552
 20
164.4314906215023
 30
0.0
 10
784.3119615346543
 20
164.9302820672308
 30
0.0
 10
784.2759661799547
 20
165.4328637819518
 30
0.0
 10
784.2367600696806
 20
165.8840910298442
 30
0.0
 10
784.197110262603
 20
166.2826424913766
 30
0.0
 10
784.1593455936238
 20
166.6274895247885
 30
0.0
 10
784.1179522006029
 20
166.9740551739224
 30
0.0
 10
784.0729302632158
 20
167.3223397498363
 30
0.0
 10
784.0236025279279
 20
167.6772104224244
 30
0.0
 10
783.9695289289808
 20
168.0405258674284
 30
0.0
 10
783.9025884642356
 20
168.4618150579154
 30
0.0
 10
783.8214089757171
 20
168.9365443702954
 30
0.0
 10
783.7239484936159
 20
169.4632538431011
 30
0.0
 10
783.618768723693
 20
169.9918748201903
 30
0.0
 10
783.5058698180987
 20
170.5224064749211
 30
0.0
 10
783.3812285189994
 20
171.072608694971
 30
0.0
 10
783.2439150831063
 20
171.6427216715579
 30
0.0
 10
783.1301618542997
 20
172.087529377439
 30
0.0
 10
783.0505574700596
 20
172.3878598738557
 30
0.0
 10
783.008851086159
 20
172.5429515170036
 30
0.0
 10
782.966504269332
 20
172.6982015503067
 30
0.0
 10
782.9235169972761
 20
172.8536101042296
 30
0.0
 10
782.8798892224414
 20
173.0091772846228
 30
0.0
 10
782.7998943663607
 20
173.290581482011
 30
0.0
 10
782.6806721271823
 20
173.6978869526665
 30
0.0
 10
782.5175752486122
 20
174.2312343077079
 30
0.0
 10
782.3475346638245
 20
174.7644550654486
 30
0.0
 10
782.1705507730943
 20
175.2975475236571
 30
0.0
 10
781.9866238293251
 20
175.8305111238294
 30
0.0
 10
781.8165336587026
 20
176.3053363828098
 30
0.0
 10
781.6626904702453
 20
176.7220379772293
 30
0.0
 10
781.5270973954429
 20
177.0807207148931
 30
0.0
 10
781.3883559097732
 20
177.4393447627307
 30
0.0
 10
781.2464658853781
 20
177.7979104921464
 30
0.0
 10
781.1014274424771
 20
178.1564176744609
 30
0.0
 10
780.9532403131611
 20
178.5148666891568
 30
0.0
 10
780.7759563882504
 20
178.9347085890049
 30
0.0
 10
780.5677397492851
 20
179.4151306304216
 30
0.0
 10
780.3263839076772
 20
179.9551339253319
 30
0.0
 10
780.0786934117102
 20
180.4928732951384
 30
0.0
 10
779.8246685315792
 20
181.0283476567928
 30
0.0
 10
779.5643093821233
 20
181.5615568769683
 30
0.0
 10
779.3026974901023
 20
182.0823843399606
 30
0.0
 10
779.0402529749468
 20
182.5909700092007
 30
0.0
 10
778.7773725074094
 20
183.0874750672482
 30
0.0
 10
778.5088616846115
 20
183.5819657938174
 30
0.0
 10
778.2347202157921
 20
184.0744421854432
 30
0.0
 10
777.9495102536862
 20
184.5744394106826
 30
0.0
 10
777.6532453810063
 20
185.0811202441947
 30
0.0
 10
777.3459125419371
 20
185.5935995569457
 30
0.0
 10
777.0334305398094
 20
186.1017569941982
 30
0.0
 10
776.7157991478368
 20
186.6055922790226
 30
0.0
 10
776.3930190813381
 20
187.105104488999
 30
0.0
 10
776.1007919503186
 20
187.546382163249
 30
0.0
 10
775.8409164614146
 20
187.9308902688738
 30
0.0
 10
775.6148527950163
 20
188.2599560686419
 30
0.0
 10
775.3864544928595
 20
188.5870612610413
 30
0.0
 10
775.1557213170455
 20
188.9122061978929
 30
0.0
 10
774.9226534604965
 20
189.2353907209281
 30
0.0
 10
774.6872505204285
 20
189.5566149629575
 30
0.0
 10
774.41373734513
 20
189.9239240222799
 30
0.0
 10
774.1012084325816
 20
190.3355063431695
 30
0.0
 10
773.7485999791962
 20
190.7891985761436
 30
0.0
 10
773.3923854452469
 20
191.2369695274076
 30
0.0
 10
773.0325651487967
 20
191.6788181358609
 30
0.0
 10
772.6691393485464
 20
192.1147442570267
 30
0.0
 10
772.3167936092526
 20
192.5275425809651
 30
0.0
 10
771.9760264009212
 20
192.9180019318262
 30
0.0
 10
771.6472783277111
 20
193.286904511248
 30
0.0
 10
771.3829143880755
 20
193.5774038301261
 30
0.0
 10
771.1844974824982
 20
193.7922671499544
 30
0.0
 10
771.0530706676169
 20
193.9334135932251
 30
0.0
 10
770.9212131530718
 20
194.0738522956035
 30
0.0
 10
770.7889248835502
 20
194.2135833694506
 30
0.0
 10
770.6562056856923
 20
194.3526068346384
 30
0.0
 10
770.4296057907579
 20
194.5879989642641
 30
0.0
 10
770.1080113818443
 20
194.9163706880326
 30
0.0
 10
769.6896664043038
 20
195.3323991457477
 30
0.0
 10
769.2688088347275
 20
195.7398622170229
 30
0.0
 10
768.8454400150034
 20
196.138757964985
 30
0.0
 10
768.4195605633657
 20
196.5290860348434
 30
0.0
 10
768.0378256278982
 20
196.8692694250601
 30
0.0
 10
767.701114184487
 20
197.1622601917628
 30
0.0
 10
767.4100854355431
 20
197.4106243205227
 30
0.0
 10
767.1179184341499
 20
197.6551030897087
 30
0.0
 10
766.8246128936878
 20
197.8956969796872
 30
0.0
 10
766.5341971795806
 20
198.1291667926941
 30
0.0
 10
766.2486067455593
 20
198.3542163500893
 30
0.0
 10
765.9159269620478
 20
198.6112443422178
 30
0.0
 10
765.5319928238171
 20
198.9003788731736
 30
0.0
 10
765.0947729722019
 20
199.2192669692733
 30
0.0
 10
764.6567211994418
 20
199.5284066623214
 30
0.0
 10
764.2178385414518
 20
199.8277971378012
 30
0.0
 10
763.7781250032733
 20
200.1174383859745
 30
0.0
 10
763.3375808392132
 20
200.3973303799922
 30
0.0
 10
762.8962063400053
 20
200.6674724768081
 30
0.0
 10
762.4616435696196
 20
200.9233665195668
 30
0.0
 10
762.0344179201386
 20
201.1653176149497
 30
0.0
 10
761.6150350949592
 20
201.3935773229318
 30
0.0
 10
761.1963696135549
 20
201.6121827613802
 30
0.0
 10
760.7784213438459
 20
201.8211334880401
 30
0.0
 10
760.3611911407296
 20
202.0204292503772
 30
0.0
 10
759.9900379182558
 20
202.1894176759492
 30
0.0
 10
759.6647226061799
 20
202.3314320744086
 30
0.0
 10
759.3849717579282
 20
202.4493195556904
 30
0.0
 10
759.1055466925819
 20
202.5628286499152
 30
0.0
 10
758.8264470509484
 20
202.6719597719231
 30
0.0
 10
758.5437965403232
 20
202.7781685904778
 30
0.0
 10
758.256205584613
 20
202.8817491190885
 30
0.0
 10
757.9248429995745
 20
202.9957402897369
 30
0.0
 10
757.5543207732118
 20
203.1158951410352
 30
0.0
 10
757.1469240197312
 20
203.2385365132625
 30
0.0
 10
756.7417309613119
 20
203.3509917707482
 30
0.0
 10
756.3387422377451
 20
203.4532607198456
 30
0.0
 10
755.9245894702733
 20
203.5484148516931
 30
0.0
 10
755.4995294545632
 20
203.6352322880741
 30
0.0
 10
755.1712029191564
 20
203.6934131324742
 30
0.0
 10
754.9509188923405
 20
203.7286561895675
 30
0.0
 10
754.8374626680303
 20
203.7459920809579
 30
0.0
 10
754.7241894456752
 20
203.7624827792626
 30
0.0
 10
754.6110991234452
 20
203.7781283175134
 30
0.0
 10
754.4981916334474
 20
203.7929286799948
 30
0.0
 10
754.2944925787209
 20
203.8181465340263
 30
0.0
 10
754.001376233222
 20
203.8496855571345
 30
0.0
 10
753.6210440812688
 20
203.8809083794344
 30
0.0
 10
753.2442928487371
 20
203.902045645304
 30
0.0
 10
752.871123809618
 20
203.9130970815069
 30
0.0
 10
752.5015373211321
 20
203.9140627738676
 30
0.0
 10
752.1753801234656
 20
203.905935465214
 30
0.0
 10
751.8914345983097
 20
203.8922012920484
 30
0.0
 10
751.6486085813835
 20
203.8758038896996
 30
0.0
 10
751.4074073381869
 20
203.8548328567786
 30
0.0
 10
751.1678306110101
 20
203.829288194413
 30
0.0
 10
750.9298785377847
 20
203.7991699618011
 30
0.0
 10
750.6935509238195
 20
203.7644779619644
 30
0.0
 10
750.4186044251965
 20
203.7184802640922
 30
0.0
 10
750.1066606704261
 20
203.6581206710976
 30
0.0
 10
749.7596877400981
 20
203.579715062659
 30
0.0
 10
749.41784213266
 20
203.4910344886766
 30
0.0
 10
749.0811246509326
 20
203.3920787977027
 30
0.0
 10
748.7495353529639
 20
203.282848088839
 30
0.0
 10
748.4292946599012
 20
203.1656193489384
 30
0.0
 10
748.1200713408455
 20
203.0410689319407
 30
0.0
 10
747.8215275120234
 20
202.9098499547404
 30
0.0
 10
747.52754277106
 20
202.7694973457005
 30
0.0
 10
747.2381172663128
 20
202.6200106834166
 30
0.0
 10
746.9477122286577
 20
202.4583080059308
 30
0.0
 10
746.6570458869803
 20
202.2839903733476
 30
0.0
 10
746.366891270834
 20
202.0965964488309
 30
0.0
 10
746.083053469037
 20
201.8996098415638
 30
0.0
 10
745.8055328347789
 20
201.69303008577
 30
0.0
 10
745.5343298092545
 20
201.4768577527766
 30
0.0
 10
745.2982826540931
 20
201.275671770009
 30
0.0
 10
745.0952235321331
 20
201.0928006832573
 30
0.0
 10
744.9232730908188
 20
200.9310155820777
 30
0.0
 10
744.7541876214904
 20
200.7648806165718
 30
0.0
 10
744.5879669384084
 20
200.5943956192475
 30
0.0
 10
744.4246110821845
 20
200.41956078944
 30
0.0
 10
744.2641201391671
 20
200.2403756121812
 30
0.0
 10
744.0827727564229
 20
200.029222308278
 30
0.0
 10
743.88259037968
 20
199.7838882816423
 30
0.0
 10
743.6659782384137
 20
199.5017565817362
 30
0.0
 10
743.4562965470186
 20
199.2114598495483
 30
0.0
 10
743.253546065379
 20
198.9129980136935
 30
0.0
 10
743.0577267892795
 20
198.6063713753439
 30
0.0
 10
742.8763965580148
 20
198.3041752348868
 30
0.0
 10
742.7086230723379
 20
198.0075234119857
 30
0.0
 10
742.5535086961764
 20
197.7174428943351
 30
0.0
 10
742.434103022277
 20
197.4810966027135
 30
0.0
 10
742.347228338458
 20
197.3021237711079
 30
0.0
 10
742.290701282354
 20
197.1829893110885
 30
0.0
 10
742.2350024294751
 20
197.0628793834499
 30
0.0
 10
742.1801317101721
 20
196.9417939645264
 30
0.0
 10
742.1260891938991
 20
196.8197328140338
 30
0.0
 10
742.0355262069312
 20
196.6103445186168
 30
0.0
 10
741.9119344290526
 20
196.3103271798192
 30
0.0
 10
741.7608012281294
 20
195.9144851803736
 30
0.0
 10
741.61834155701
 20
195.5107346106442
 30
0.0
 10
741.4845564338674
 20
195.0990764303786
 30
0.0
 10
741.3594458132034
 20
194.6795113873484
 30
0.0
 10
741.2556908530969
 20
194.2985944213887
 30
0.0
 10
741.1702952772447
 20
193.9590703318597
 30
0.0
 10
741.1007088035337
 20
193.6631723525319
 30
0.0
 10
741.0350522311645
 20
193.3636919329956
 30
0.0
 10
740.9733431604847
 20
193.060615474545
 30
0.0
 10
740.9163054108512
 20
192.7581817175425
 30
0.0
 10
740.8643334658593
 20
192.4583545919083
 30
0.0
 10
740.8159471553148
 20
192.1596909195891
 30
0.0
 10
740.78792504441
 20
191.9578326971809
 30
0.0
 10
740.7737409534678
 20
191.8556571189815
 30
0.0
  0
LWPOLYLINE
  5
106
330
1F
100
AcDbEntity
  8
0
  6
Continuous
 62
   252
370
     0
100
AcDbPolyline
 90
      122
 70
   128
 43
0.0
 10
782.7813268175
 20
146.9343672128
 10
782.7827055271
 20
146.9351632583
 10
783.2348053096
 20
147.2100895476
 10
783.6746016196
 20
147.5056009855
 10
784.1017930427
 20
147.8214950432
 10
784.5160868032
 20
148.1575552227
 10
784.917198965
 20
148.513551205
 10
785.3048546257
 20
148.8892390083
 10
785.6787881056
 20
149.2843611551
 10
786.0387431293
 20
149.6986468482
 10
786.3844730016
 20
150.131812157
 10
786.7157407765
 20
150.5835602116
 10
787.0323194196
 20
151.0535814065
 10
787.3339919638
 20
151.5415536126
 10
787.6205516578
 20
152.0471423981
 10
787.8918021079
 20
152.5700012577
 10
788.1475574125
 20
153.1097718501
 10
788.3876422897
 20
153.6660842436
 10
788.6118921974
 20
154.2385571693
 10
788.8201534459
 20
154.8267982829
 10
789.0122833032
 20
155.4304044333
 10
789.1881500933
 20
156.0489619391
 10
789.3476332858
 20
156.6820468717
 10
789.4906235789
 20
157.3292253465
 10
789.6170229742
 20
157.9900538197
 10
789.7267448438
 20
158.6640793923
 10
789.8197139899
 20
159.350840121
 10
789.895866696
 20
160.0498653342
 10
789.9551507709
 20
160.760675955
 10
789.9975255843
 20
161.4827848293
 10
790.0229620945
 20
162.2156970597
 10
790.0314428686
 20
162.9589103449
 10
790.0229620945
 20
163.7119153234
 10
789.9975255843
 20
164.4741959234
 10
789.9551507709
 20
165.2452297158
 10
789.895866696
 20
166.0244882726
 10
789.8197139899
 20
166.8114375287
 10
789.7267448438
 20
167.6055381487
 10
789.6170229742
 20
168.4062458955
 10
789.4906235789
 20
169.213012004
 10
789.3476332858
 20
170.0252835571
 10
789.1881500933
 20
170.8425038644
 10
789.0122833032
 20
171.664112844
 10
788.8201534459
 20
172.489547406
 10
788.6118921974
 20
173.3182418389
 10
788.3876422897
 20
174.1496281969
 10
788.1475574125
 20
174.9831366893
 10
787.8918021079
 20
175.818196071
 10
787.6205516578
 20
176.654234034
 10
787.3339919638
 20
177.4906775998
 10
787.0323194196
 20
178.3269535115
 10
786.7157407765
 20
179.1624886276
 10
786.3844730016
 20
179.996710314
 10
786.0387431293
 20
180.8290468367
 10
785.6787881056
 20
181.658927754
 10
785.3048546257
 20
182.4857843068
 10
784.917198965
 20
183.3090498091
 10
784.5160868032
 20
184.1281600357
 10
784.1017930427
 20
184.9425536095
 10
783.6746016196
 20
185.7516723857
 10
783.2348053096
 20
186.5549618348
 10
782.7827055271
 20
187.3518714223
 10
782.3186121188
 20
188.1418549861
 10
781.8428431511
 20
188.924371111
 10
781.3557246922
 20
189.6988834996
 10
780.8575905889
 20
190.4648613397
 10
780.3487822373
 20
191.2217796684
 10
779.8296483493
 20
191.9691197317
 10
779.3005447134
 20
192.7063693399
 10
778.7618339506
 20
193.4330232192
 10
778.2138852666
 20
194.1485833571
 10
777.6570741979
 20
194.8525593445
 10
777.091782355
 20
195.5444687115
 10
776.5183971607
 20
196.2238372579
 10
775.9373115846
 20
196.8901993784
 10
775.3489238738
 20
197.5430983818
 10
774.7536372797
 20
198.1820868037
 10
774.151859782
 20
198.8067267132
 10
773.5440038091
 20
199.4165900136
 10
772.930485955
 20
200.0112587348
 10
772.3117266942
 20
200.5903253207
 10
771.6881500933
 20
201.1533929079
 10
771.0601835208
 20
201.7000755981
 10
770.4282573534
 20
202.2299987222
 10
769.7928046818
 20
202.7427990974
 10
769.1542610136
 20
203.238125276
 10
768.5130639746
 20
203.715637786
 10
767.8696530092
 20
204.1750093644
 10
767.2244690793
 20
204.6159251807
 10
766.5779543617
 20
205.0380830533
 10
765.9305519452
 20
205.4411936563
 10
765.2827055271
 20
205.8249807178
 10
764.634859109
 20
206.1891812092
 10
763.9874566925
 20
206.5335455259
 10
763.3409419749
 20
206.8578376577
 10
762.695758045
 20
207.1618353509
 10
762.0523470797
 20
207.4453302607
 10
761.4111500407
 20
207.7081280939
 10
760.7726063724
 20
207.950048742
 10
760.1371537008
 20
208.1709264046
 10
759.5052275334
 20
208.3706097033
 10
758.8772609609
 20
208.548961785
 10
758.2536843601
 20
208.7058604161
 10
757.6349250993
 20
208.8411980663
 10
757.0214072451
 20
208.9548819817
 10
756.4135512722
 20
209.0468342492
 10
755.8117737746
 20
209.1169918492
 10
755.2164871805
 20
209.1653066992
 10
754.6280994696
 20
209.1917456867
 10
754.0470138935
 20
209.1962906916
 10
753.4736286992
 20
209.1789385991
 10
752.9083368564
 20
209.1397013014
 10
752.3515257876
 20
209.0786056898
 10
751.8035771036
 20
208.9956936362
 10
751.2648663409
 20
208.8910219644
 10
750.7357627049
 20
208.764662411
 10
750.2166288169
 20
208.6167015767
 10
749.7078204654
 20
208.4472408663
 10
749.209686362
 20
208.2563964199
 10
748.7225679032
 20
208.0442990326
 10
748.2467989354
 20
207.8110940653
 10
747.7840951375
 20
207.5577436836
  0
LWPOLYLINE
  5
107
330
1F
100
AcDbEntity
  8
0
  6
Continuous
 62
   252
370
     0
100
AcDbPolyline
 90
       71
 70
   128
 43
0.0
 10
616.7557894884
 20
65.7149379126
 10
616.7521565056
 20
65.6079385569
 10
616.7380633011
 20
65.4047224015
 10
616.7145603763
 20
65.2018965503
 10
616.681663839
 20
64.9996000101
 10
616.6393962348
 20
64.7979714248
 10
616.5877865318
 20
64.5971489805
 10
616.5268701006
 20
64.397270311
 10
616.4566886905
 20
64.198472403
 10
616.3772904002
 20
64.0008915028
 10
616.2887296453
 20
63.8046630223
 10
616.191067121
 20
63.6099214469
 10
616.0843697603
 20
63.4168002427
 10
615.9687106882
 20
63.2254317652
 10
615.8441691717
 20
63.0359471689
 10
615.7108305652
 20
62.8484763171
 10
615.5687862525
 20
62.6631476929
 10
615.4181335836
 20
62.4800883113
 10
615.2589758083
 20
62.299423632
 10
615.0914220054
 20
62.1212774736
 10
614.915587008
 20
61.9457719287
 10
614.7315913244
 20
61.7730272798
 10
614.5395610563
 20
61.6031619176
 10
614.3396278114
 20
61.4362922593
 10
614.1319286142
 20
61.272532669
 10
613.9166058113
 20
61.1119953795
 10
613.693806974
 20
60.9547904148
 10
613.4636847978
 20
60.8010255154
 10
613.2263969967
 20
60.6508060642
 10
612.982106196
 20
60.5042350141
 10
612.7309798204
 20
60.3614128174
 10
612.4731899794
 20
60.2224373574
 10
612.2089133492
 20
60.087403881
 10
611.9383310519
 20
59.9564049333
 10
611.6616285311
 20
59.8295302945
 10
611.3789954248
 20
59.7068669182
 10
611.0906254356
 20
59.5884988716
 10
610.796716198
 20
59.4745072783
 10
610.4974691426
 20
59.3649702625
 10
610.1930893584
 20
59.2599628953
 10
609.8837854522
 20
59.1595571436
 10
609.5697694054
 20
59.0638218205
 10
609.2512564288
 20
58.9728225381
 10
608.9284648155
 20
58.8866216629
 10
608.6016157905
 20
58.8052782725
 10
608.27093336
 20
58.7288481158
 10
607.9366441571
 20
58.657383574
 10
607.5989772869
 20
58.5909336255
 10
607.2581641696
 20
58.5295438117
 10
606.9144383812
 20
58.4732562061
 10
606.5680354944
 20
58.4221093855
 10
606.2191929164
 20
58.3761384032
 10
605.8681497265
 20
58.3353747656
 10
605.515146512
 20
58.29984641
 10
605.1604252039
 20
58.2695776857
 10
604.8042289103
 20
58.2445893374
 10
604.4468017504
 20
58.2248984909
 10
604.0883886869
 20
58.2105186413
 10
603.7292353583
 20
58.2014596439
 10
603.3695879102
 20
58.1977277072
 10
603.0096928271
 20
58.1993253888
 10
602.6497967632
 20
58.206251594
 10
602.2901463731
 20
58.2185015756
 10
601.9309881433
 20
58.2360669383
 10
601.5725682228
 20
58.2589356436
 10
601.2151322549
 20
58.2870920185
 10
600.8589252083
 20
58.3205167659
 10
600.5041912095
 20
58.3591869783
 10
600.1511733754
 20
58.4030761529
 10
599.8001136468
 20
58.4521542104
 10
599.6615348186
 20
58.4730396859
  0
LWPOLYLINE
  5
108
330
1F
100
AcDbEntity
  8
0
  6
Continuous
 62
   252
370
     0
100
AcDbPolyline
 90
      123
 70
   128
 43
0.0
 10
578.2601879665
 20
92.3955424519
 10
578.4065748051
 20
92.4825861451
 10
578.6720517291
 20
92.6279699862
 10
578.9442074628
 20
92.7613710133
 10
579.2228554845
 20
92.8826978001
 10
579.5078048225
 20
92.9918671951
 10
579.7988601869
 20
93.0888043791
 10
580.0958221029
 20
93.1734429162
 10
580.3984870475
 20
93.2457247994
 10
580.7066475894
 20
93.3056004903
 10
581.0200925308
 20
93.3530289531
 10
581.338607052
 20
93.3879776827
 10
581.6619728592
 20
93.410422727
 10
581.9899683336
 20
93.4203487032
 10
582.3223686835
 20
93.4177488086
 10
582.6589460983
 20
93.4026248251
 10
582.9994699046
 20
93.3749871178
 10
583.3437067245
 20
93.3348546283
 10
583.6914206352
 20
93.2822548614
 10
584.0423733309
 20
93.2172238662
 10
584.3963242863
 20
93.1398062119
 10
584.7530309209
 20
93.0500549566
 10
585.112248766
 20
92.9480316113
 10
585.4737316315
 20
92.8338060978
 10
585.8372317752
 20
92.7074567005
 10
586.2025000721
 20
92.5690700129
 10
586.5692861857
 20
92.4187408784
 10
586.9373387391
 20
92.2565723251
 10
587.3064054874
 20
92.0826754952
 10
587.6762334907
 20
91.8971695689
 10
588.0465692874
 20
91.7001816826
 10
588.4171590678
 20
91.4918468421
 10
588.7877488482
 20
91.2723078297
 10
589.1580846449
 20
91.0417151064
 10
589.5279126482
 20
90.8002267089
 10
589.8969793965
 20
90.5480081413
 10
590.2650319499
 20
90.2852322617
 10
590.6318180635
 20
90.0120791635
 10
590.9970863604
 20
89.7287360522
 10
591.3605865041
 20
89.435397117
 10
591.7220693696
 20
89.1322633978
 10
592.0812872147
 20
88.8195426472
 10
592.4379938493
 20
88.4974491885
 10
592.7919448047
 20
88.1662037684
 10
593.1428975004
 20
87.826033406
 10
593.4906114111
 20
87.477171237
 10
593.834848231
 20
87.1198563543
 10
594.1753720373
 20
86.7543336434
 10
594.5119494521
 20
86.3808536155
 10
594.844349802
 20
85.9996722351
 10
595.1723452764
 20
85.6110507448
 10
595.4957110836
 20
85.2152554865
 10
595.8142256048
 20
84.8125577185
 10
596.1276705462
 20
84.4032334296
 10
596.4358310881
 20
83.9875631503
 10
596.7384960327
 20
83.5658317602
 10
597.0354579487
 20
83.138328293
 10
597.3265133131
 20
82.7053457382
 10
597.6114626511
 20
82.2671808404
 10
597.8901106727
 20
81.8241338959
 10
598.1622664065
 20
81.376508547
 10
598.4277433305
 20
80.9246115738
 10
598.6863595001
 20
80.4687526837
 10
598.9379376726
 20
80.0092442999
 10
599.182305429
 20
79.5464013463
 10
599.4192952919
 20
79.0805410324
 10
599.6487448401
 20
78.6119826356
 10
599.8704968205
 20
78.1410472824
 10
600.0843992553
 20
77.6680577284
 10
600.2903055464
 20
77.1933381369
 10
600.4880745761
 20
76.7172138572
 10
600.6775708032
 20
76.2400112009
 10
600.8586643565
 20
75.7620572189
 10
601.0312311236
 20
75.2836794771
 10
601.1951528357
 20
74.8052058317
 10
601.3503171492
 20
74.3269642045
 10
601.4966177222
 20
73.8492823584
 10
601.6339542876
 20
73.3724876729
 10
601.7622327217
 20
72.8969069191
 10
601.8813651089
 20
72.4228660364
 10
601.9912698019
 20
71.9506899086
 10
602.0918714774
 20
71.4807021417
 10
602.1831011881
 20
71.0132248418
 10
602.2648964096
 20
70.5485783946
 10
602.3372010838
 20
70.0870812454
 10
602.3999656564
 20
69.6290496815
 10
602.4531471119
 20
69.1747976147
 10
602.4967090022
 20
68.7246363667
 10
602.5306214724
 20
68.2788744556
 10
602.5548612803
 20
67.8378173843
 10
602.5694118134
 20
67.4017674312
 10
602.5742630994
 20
66.9710234433
 10
602.5694118134
 20
66.545880631
 10
602.5548612803
 20
66.1266303659
 10
602.5306214724
 20
65.7135599811
 10
602.4967090022
 20
65.3069525746
 10
602.4531471119
 20
64.9070868147
 10
602.3999656564
 20
64.5142367494
 10
602.3372010838
 20
64.1286716185
 10
602.2648964096
 20
63.7506556692
 10
602.1831011881
 20
63.3804479746
 10
602.0918714774
 20
63.0183022566
 10
601.9912698019
 20
62.6644667119
 10
601.8813651089
 20
62.3191838416
 10
601.7622327217
 20
61.9826902853
 10
601.6339542876
 20
61.655216659
 10
601.4966177222
 20
61.3369873967
 10
601.3503171492
 20
61.0282205968
 10
601.1951528357
 20
60.7291278727
 10
601.0312311236
 20
60.4399142076
 10
600.8586643565
 20
60.160777814
 10
600.6775708032
 20
59.8919099982
 10
600.4880745761
 20
59.6334950287
 10
600.2903055464
 20
59.3857100103
 10
600.0843992553
 20
59.1487247623
 10
599.8704968205
 20
58.9227017026
 10
599.6487448401
 20
58.7077957362
 10
599.4192952919
 20
58.5041541489
 10
599.182305429
 20
58.3119165064
 10
598.9379376726
 20
58.1312145588
 10
598.6863595001
 20
57.9621721503
 10
598.4277433305
 20
57.8049051339
 10
598.2775329164
 20
57.7207268777
  0
LWPOLYLINE
  5
109
330
1F
100
AcDbEntity
  8
0
  6
Continuous
 62
   252
370
     0
100
AcDbPolyline
 90
      241
 70
   128
 43
0.0
 10
594.1787633691
 20
67.0217789724
 10
594.1753656112
 20
67.3234647033
 10
594.1651746664
 20
67.6288666417
 10
594.148197519
 20
67.9377754801
 10
594.1244458042
 20
68.2499795079
 10
594.0939358003
 20
68.5652647561
 10
594.0566884174
 20
68.883415144
 10
594.0127291829
 20
69.2042126271
 10
593.9620882243
 20
69.5274373468
 10
593.9048002484
 20
69.8528677812
 10
593.8409045174
 20
70.1802808963
 10
593.7704448224
 20
70.5094522997
 10
593.6934694529
 20
70.8401563937
 10
593.610031164
 20
71.1721665302
 10
593.52018714
 20
71.5052551661
 10
593.4239989557
 20
71.839194019
 10
593.3215325336
 20
72.173754224
 10
593.212858099
 20
72.5087064901
 10
593.0980501319
 20
72.8438212579
 10
592.9771873162
 20
73.1788688564
 10
592.8503524849
 20
73.5136196607
 10
592.7176325645
 20
73.8478442494
 10
592.5791185146
 20
74.1813135616
 10
592.4349052656
 20
74.5137990541
 10
592.2850916543
 20
74.8450728579
 10
592.1297803553
 20
75.1749079345
 10
591.9690778113
 20
75.5030782315
 10
591.8030941597
 20
75.8293588374
 10
591.6319431575
 20
76.1535261356
 10
591.455742103
 20
76.4753579581
 10
591.2746117556
 20
76.7946337374
 10
591.0886762531
 20
77.111134658
 10
590.8980630262
 20
77.4246438058
 10
590.7029027119
 20
77.7349463174
 10
590.5033290632
 20
78.0418295269
 10
590.2994788579
 20
78.3450831119
 10
590.0914918048
 20
78.6444992375
 10
589.8795104478
 20
78.9398726989
 10
589.6636800684
 20
79.2310010619
 10
589.4441485859
 20
79.5176848016
 10
589.2210664562
 20
79.7997274393
 10
588.9945865687
 20
80.076935677
 10
588.7648641414
 20
80.3491195302
 10
588.5320566145
 20
80.6160924575
 10
588.2963235428
 20
80.8776714891
 10
588.0578264858
 20
81.1336773517
 10
587.8167288976
 20
81.3839345918
 10
587.5731960144
 20
81.6282716955
 10
587.3273947414
 20
81.8665212064
 10
587.0794935386
 20
82.0985198402
 10
586.8296623051
 20
82.3241085965
 10
586.5780722628
 20
82.5431328682
 10
586.3248958388
 20
82.7554425469
 10
586.0703065476
 20
82.9608921261
 10
585.8144788721
 20
83.1593408011
 10
585.5575881438
 20
83.350652565
 10
585.2998104227
 20
83.5346963022
 10
585.0413223767
 20
83.7113458784
 10
584.7823011608
 20
83.8804802268
 10
584.522924295
 20
84.0419834311
 10
584.2633695434
 20
84.1957448051
 10
584.0038147917
 20
84.3416589685
 10
583.744437926
 20
84.479625919
 10
583.48541671
 20
84.6095511009
 10
583.2269286641
 20
84.73134547
 10
582.9691509429
 20
84.8449255545
 10
582.7122602146
 20
84.9502135123
 10
582.4564325391
 20
85.0471371843
 10
582.2018432479
 20
85.1356301439
 10
581.9486668239
 20
85.2156317423
 10
581.6970767816
 20
85.2870871505
 10
581.4472455481
 20
85.3499473966
 10
581.1993443453
 20
85.4041693992
 10
580.9535430723
 20
85.4497159973
 10
580.7100101891
 20
85.4865559755
 10
580.4689126009
 20
85.5146640856
 10
580.2304155439
 20
85.5340210636
 10
579.9946824722
 20
85.5446136434
 10
579.7618749453
 20
85.5464345651
 10
579.532152518
 20
85.5394825809
 10
579.3056726305
 20
85.5237624553
 10
579.0825905008
 20
85.4992849621
 10
578.8630590183
 20
85.466066877
 10
578.6472286389
 20
85.4241309659
 10
578.4352472819
 20
85.3735059696
 10
578.2272602288
 20
85.3142265841
 10
578.0234100236
 20
85.2463334363
 10
577.8238363748
 20
85.1698730569
 10
577.6286760605
 20
85.0848978481
 10
577.4380628336
 20
84.9914660475
 10
577.2521273311
 20
84.8896416887
 10
577.0709969837
 20
84.7794945569
 10
576.8947959292
 20
84.6611001416
 10
576.723644927
 20
84.5345395844
 10
576.5576612755
 20
84.3998996235
 10
576.3969587314
 20
84.2572725344
 10
576.2416474325
 20
84.1067560667
 10
576.0918338211
 20
83.9484533767
 10
575.9476205722
 20
83.7824729573
 10
575.8091065222
 20
83.6089285631
 10
575.6763866018
 20
83.4279391329
 10
575.5495517706
 20
83.2396287076
 10
575.4286889548
 20
83.0441263459
 10
575.3138809878
 20
82.8415660353
 10
575.2052065532
 20
82.6320866006
 10
575.102740131
 20
82.4158316084
 10
575.0065519467
 20
82.1929492692
 10
574.9167079227
 20
81.9635923354
 10
574.8332696338
 20
81.7279179968
 10
574.7562942643
 20
81.4860877727
 10
574.6858345693
 20
81.2382674015
 10
574.6219388384
 20
80.984626727
 10
574.5646508624
 20
80.7253395818
 10
574.5140099038
 20
80.4605836683
 10
574.4700506693
 20
80.190540437
 10
574.4328032864
 20
79.9153949621
 10
574.4022932825
 20
79.6353358146
 10
574.3785415677
 20
79.3505549329
 10
574.3615644203
 20
79.0612474917
 10
574.3513734755
 20
78.7676117678
 10
574.3479757177
 20
78.4698490045
 10
574.3513734755
 20
78.1681632736
 10
574.3615644203
 20
77.8627613353
 10
574.3785415677
 20
77.5538524968
 10
574.4022932825
 20
77.241648469
 10
574.4328032864
 20
76.9263632208
 10
574.4700506693
 20
76.6082128329
 10
574.5140099038
 20
76.2874153498
 10
574.5646508624
 20
75.9641906301
 10
574.6219388384
 20
75.6387601957
 10
574.6858345693
 20
75.3113470806
 10
574.7562942643
 20
74.9821756772
 10
574.8332696338
 20
74.6514715832
 10
574.9167079227
 20
74.3194614467
 10
575.0065519467
 20
73.9863728108
 10
575.102740131
 20
73.6524339579
 10
575.2052065532
 20
73.3178737529
 10
575.3138809878
 20
72.9829214868
 10
575.4286889548
 20
72.647806719
 10
575.5495517706
 20
72.3127591205
 10
575.6763866018
 20
71.9780083162
 10
575.8091065222
 20
71.6437837275
 10
575.9476205722
 20
71.3103144153
 10
576.0918338211
 20
70.9778289228
 10
576.2416474325
 20
70.646555119
 10
576.3969587314
 20
70.3167200424
 10
576.5576612755
 20
69.9885497454
 10
576.723644927
 20
69.6622691396
 10
576.8947959292
 20
69.3381018414
 10
577.0709969837
 20
69.0162700188
 10
577.2521273311
 20
68.6969942395
 10
577.4380628336
 20
68.3804933189
 10
577.6286760605
 20
68.0669841711
 10
577.8238363748
 20
67.7566816595
 10
578.0234100236
 20
67.44979845
 10
578.2272602288
 20
67.146544865
 10
578.4352472819
 20
66.8471287394
 10
578.6472286389
 20
66.551755278
 10
578.8630590183
 20
66.260626915
 10
579.0825905008
 20
65.9739431753
 10
579.3056726305
 20
65.6919005377
 10
579.532152518
 20
65.4146922999
 10
579.7618749453
 20
65.1425084467
 10
579.9946824722
 20
64.8755355194
 10
580.2304155439
 20
64.6139564878
 10
580.4689126009
 20
64.3579506252
 10
580.7100101891
 20
64.1076933851
 10
580.9535430723
 20
63.8633562814
 10
581.1993443453
 20
63.6251067705
 10
581.4472455481
 20
63.3931081367
 10
581.6970767816
 20
63.1675193804
 10
581.9486668239
 20
62.9484951087
 10
582.2018432479
 20
62.73618543
 10
582.4564325391
 20
62.5307358508
 10
582.7122602146
 20
62.3322871758
 10
582.9691509429
 20
62.1409754119
 10
583.2269286641
 20
61.9569316747
 10
583.48541671
 20
61.7802820985
 10
583.744437926
 20
61.6111477501
 10
584.0038147917
 20
61.4496445458
 10
584.2633695434
 20
61.2958831718
 10
584.522924295
 20
61.1499690084
 10
584.7823011608
 20
61.0120020579
 10
585.0413223767
 20
60.882076876
 10
585.2998104227
 20
60.7602825069
 10
585.5575881438
 20
60.6467024224
 10
585.8144788721
 20
60.5414144646
 10
586.0703065476
 20
60.4444907926
 10
586.3248958388
 20
60.3559978331
 10
586.5780722628
 20
60.2759962346
 10
586.8296623051
 20
60.2045408264
 10
587.0794935386
 20
60.1416805804
 10
587.3273947414
 20
60.0874585778
 10
587.5731960144
 20
60.0419119797
 10
587.8167288976
 20
60.0050720014
 10
588.0578264858
 20
59.9769638913
 10
588.2963235428
 20
59.9576069133
 10
588.5320566145
 20
59.9470143336
 10
588.7648641414
 20
59.9451934118
 10
588.9945865687
 20
59.952145396
 10
589.2210664562
 20
59.9678655216
 10
589.4441485859
 20
59.9923430148
 10
589.6636800684
 20
60.0255610999
 10
589.8795104478
 20
60.067497011
 10
590.0914918048
 20
60.1181220073
 10
590.2994788579
 20
60.1774013929
 10
590.5033290632
 20
60.2452945406
 10
590.7029027119
 20
60.32175492
 10
590.8980630262
 20
60.4067301288
 10
591.0886762531
 20
60.5001619294
 10
591.2746117556
 20
60.6019862883
 10
591.455742103
 20
60.71213342
 10
591.6319431575
 20
60.8305278353
 10
591.8030941597
 20
60.9570883925
 10
591.9690778113
 20
61.0917283534
 10
592.1297803553
 20
61.2343554425
 10
592.2850916543
 20
61.3848719102
 10
592.4349052656
 20
61.5431746002
 10
592.5791185146
 20
61.7091550196
 10
592.7176325645
 20
61.8826994138
 10
592.8503524849
 20
62.063688844
 10
592.9771873162
 20
62.2519992693
 10
593.0980501319
 20
62.447501631
 10
593.212858099
 20
62.6500619416
 10
593.3215325336
 20
62.8595413763
 10
593.4239989557
 20
63.0757963685
 10
593.52018714
 20
63.2986787077
 10
593.610031164
 20
63.5280356415
 10
593.6934694529
 20
63.7637099802
 10
593.7704448224
 20
64.0055402042
 10
593.8409045174
 20
64.2533605754
 10
593.9048002484
 20
64.5070012499
 10
593.9620882243
 20
64.7662883951
 10
594.0127291829
 20
65.0310443086
 10
594.0566884174
 20
65.3010875399
 10
594.0939358003
 20
65.5762330148
 10
594.1244458042
 20
65.8562921623
 10
594.148197519
 20
66.141073044
 10
594.1651746664
 20
66.4303804852
 10
594.1753656112
 20
66.7240162091
 10
594.1787633691
 20
67.0217789724
  0
ENDSEC
  0
SECTION
  2
OBJECTS
  0
DICTIONARY
  5
C
330
0
100
AcDbDictionary
281
     1
  3
ACAD_GROUP
350
D
  3
ACAD_LAYOUT
350
1A
  3
ACAD_MLINESTYLE
350
17
  3
ACAD_PLOTSETTINGS
350
19
  3
ACAD_PLOTSTYLENAME
350
E
  3
ACAD_SCALELIST
350
47
  0
DICTIONARY
  5
D
102
{ACAD_REACTORS
330
C
102
}
330
C
100
AcDbDictionary
281
     1
  0
DICTIONARY
  5
1A
102
{ACAD_REACTORS
330
C
102
}
330
C
100
AcDbDictionary
281
     1
  3
Layout1
350
1E
  3
Layout2
350
26
  3
Model
350
22
  0
DICTIONARY
  5
17
102
{ACAD_REACTORS
330
C
102
}
330
C
100
AcDbDictionary
281
     1
  3
Standard
350
18
  0
DICTIONARY
  5
19
102
{ACAD_REACTORS
330
C
102
}
330
C
100
AcDbDictionary
281
     1
  0
ACDBDICTIONARYWDFLT
  5
E
102
{ACAD_REACTORS
330
C
102
}
330
C
100
AcDbDictionary
281
     1
  3
Normal
350
F
100
AcDbDictionaryWithDefault
340
F
  0
DICTIONARY
  5
47
102
{ACAD_REACTORS
330
C
102
}
330
C
100
AcDbDictionary
281
     1
  3
A0
350
48
  3
A1
350
49
  3
A2
350
4A
  3
A3
350
4B
  3
A4
350
4C
  3
A5
350
4D
  3
A6
350
4E
  3
A7
350
4F
  3
A8
350
50
  3
A9
350
51
  3
B0
350
52
  3
B1
350
53
  3
B2
350
54
  3
B3
350
55
  3
B4
350
56
  3
B5
350
57
  3
B6
350
58
  3
B7
350
59
  3
B8
350
5A
  3
B9
350
5B
  3
C0
350
5C
  3
C1
350
5D
  3
C2
350
5E
  3
C3
350
5F
  3
C4
350
60
  3
C5
350
61
  3
C6
350
62
  3
C7
350
63
  3
C8
350
64
  3
C9
350
65
  3
D0
350
66
  3
D1
350
67
  3
D2
350
68
  0
LAYOUT
  5
1E
102
{ACAD_REACTORS
330
1A
102
}
330
1A
100
AcDbPlotSettings
  1

  2
none_device
  4

  6

 40
0.0
 41
0.0
 42
0.0
 43
0.0
 44
0.0
 45
0.0
 46
0.0
 47
0.0
 48
0.0
 49
0.0
140
0.0
141
0.0
142
1.0
143
1.0
 70
   688
 72
     1
 73
     0
 74
     5
  7

 75
    16
147
1.0
148
0.0
149
0.0
100
AcDbLayout
  1
Layout1
 70
     1
 71
     1
 10
0.0
 20
0.0
 11
420.0
 21
297.0
 12
0.0
 22
0.0
 32
0.0
 14
1.0000000000E+20
 24
1.0000000000E+20
 34
1.0000000000E+20
 15
-1.0000000000E+20
 25
-1.0000000000E+20
 35
-1.0000000000E+20
146
0.0
 13
0.0
 23
0.0
 33
0.0
 16
1.0
 26
0.0
 36
0.0
 17
0.0
 27
1.0
 37
0.0
 76
     0
330
1B
  0
LAYOUT
  5
26
102
{ACAD_REACTORS
330
1A
102
}
330
1A
100
AcDbPlotSettings
  1

  2
none_device
  4

  6

 40
0.0
 41
0.0
 42
0.0
 43
0.0
 44
0.0
 45
0.0
 46
0.0
 47
0.0
 48
0.0
 49
0.0
140
0.0
141
0.0
142
1.0
143
1.0
 70
   688
 72
     1
 73
     0
 74
     5
  7

 75
    16
147
1.0
148
0.0
149
0.0
100
AcDbLayout
  1
Layout2
 70
     1
 71
     2
 10
0.0
 20
0.0
 11
0.0
 21
0.0
 12
0.0
 22
0.0
 32
0.0
 14
0.0
 24
0.0
 34
0.0
 15
0.0
 25
0.0
 35
0.0
146
0.0
 13
0.0
 23
0.0
 33
0.0
 16
1.0
 26
0.0
 36
0.0
 17
0.0
 27
1.0
 37
0.0
 76
     0
330
23
  0
LAYOUT
  5
22
102
{ACAD_REACTORS
330
1A
102
}
330
1A
100
AcDbPlotSettings
  1

  2
none_device
  4
Letter_(8.50_x_11.00_Inches)
  6

 40
6.35
 41
6.35
 42
6.35000508
 43
6.35000508
 44
215.9
 45
279.4
 46
0.0
 47
0.0
 48
0.0
 49
0.0
140
0.0
141
0.0
142
1.0
143
1.0
 70
  1712
 72
     1
 73
     0
 74
     0
  7

 75
     0
147
1.0
148
0.0
149
0.0
100
AcDbLayout
  1
Model
 70
     1
 71
     0
 10
0.0
 20
0.0
 11
824.0
 21
432.0
 12
0.0
 22
0.0
 32
0.0
 14
0.0
 24
0.0
 34
0.0
 15
824.0
 25
432.0
 35
0.0
146
0.0
 13
0.0
 23
0.0
 33
0.0
 16
1.0
 26
0.0
 36
0.0
 17
0.0
 27
1.0
 37
0.0
 76
     0
330
1F
331
29
  0
MLINESTYLE
  5
18
102
{ACAD_REACTORS
330
17
102
}
330
17
100
AcDbMlineStyle
  2
Standard
 70
     0
  3

 62
   256
 51
90.0
 52
90.0
 71
     2
 49
0.5
 62
   256
  6
BYLAYER
 49
-0.5
 62
   256
  6
BYLAYER
  0
ACDBPLACEHOLDER
  5
F
102
{ACAD_REACTORS
330
E
102
}
330
E
  0
SCALE
  5
48
102
{ACAD_REACTORS
330
47
102
}
330
47
100
AcDbScale
 70
     0
300
1:1
140
1.0
141
1.0
290
     1
  0
SCALE
  5
49
102
{ACAD_REACTORS
330
47
102
}
330
47
100
AcDbScale
 70
     0
300
1:2
140
1.0
141
2.0
290
     0
  0
SCALE
  5
4A
102
{ACAD_REACTORS
330
47
102
}
330
47
100
AcDbScale
 70
     0
300
1:4
140
1.0
141
4.0
290
     0
  0
SCALE
  5
4B
102
{ACAD_REACTORS
330
47
102
}
330
47
100
AcDbScale
 70
     0
300
1:5
140
1.0
141
5.0
290
     0
  0
SCALE
  5
4C
102
{ACAD_REACTORS
330
47
102
}
330
47
100
AcDbScale
 70
     0
300
1:8
140
1.0
141
8.0
290
     0
  0
SCALE
  5
4D
102
{ACAD_REACTORS
330
47
102
}
330
47
100
AcDbScale
 70
     0
300
1:10
140
1.0
141
10.0
290
     0
  0
SCALE
  5
4E
102
{ACAD_REACTORS
330
47
102
}
330
47
100
AcDbScale
 70
     0
300
1:16
140
1.0
141
16.0
290
     0
  0
SCALE
  5
4F
102
{ACAD_REACTORS
330
47
102
}
330
47
100
AcDbScale
 70
     0
300
1:20
140
1.0
141
20.0
290
     0
  0
SCALE
  5
50
102
{ACAD_REACTORS
330
47
102
}
330
47
100
AcDbScale
 70
     0
300
1:30
140
1.0
141
30.0
290
     0
  0
SCALE
  5
51
102
{ACAD_REACTORS
330
47
102
}
330
47
100
AcDbScale
 70
     0
300
1:40
140
1.0
141
40.0
290
     0
  0
SCALE
  5
52
102
{ACAD_REACTORS
330
47
102
}
330
47
100
AcDbScale
 70
     0
300
1:50
140
1.0
141
50.0
290
     0
  0
SCALE
  5
53
102
{ACAD_REACTORS
330
47
102
}
330
47
100
AcDbScale
 70
     0
300
1:100
140
1.0
141
100.0
290
     0
  0
SCALE
  5
54
102
{ACAD_REACTORS
330
47
102
}
330
47
100
AcDbScale
 70
     0
300
2:1
140
2.0
141
1.0
290
     0
  0
SCALE
  5
55
102
{ACAD_REACTORS
330
47
102
}
330
47
100
AcDbScale
 70
     0
300
4:1
140
4.0
141
1.0
290
     0
  0
SCALE
  5
56
102
{ACAD_REACTORS
330
47
102
}
330
47
100
AcDbScale
 70
     0
300
8:1
140
8.0
141
1.0
290
     0
  0
SCALE
  5
57
102
{ACAD_REACTORS
330
47
102
}
330
47
100
AcDbScale
 70
     0
300
10:1
140
10.0
141
1.0
290
     0
  0
SCALE
  5
58
102
{ACAD_REACTORS
330
47
102
}
330
47
100
AcDbScale
 70
     0
300
100:1
140
100.0
141
1.0
290
     0
  0
SCALE
  5
59
102
{ACAD_REACTORS
330
47
102
}
330
47
100
AcDbScale
 70
     0
300
1/128" = 1'-0"
140
0.0078125
141
12.0
290
     0
  0
SCALE
  5
5A
102
{ACAD_REACTORS
330
47
102
}
330
47
100
AcDbScale
 70
     0
300
1/64" = 1'-0"
140
0.015625
141
12.0
290
     0
  0
SCALE
  5
5B
102
{ACAD_REACTORS
330
47
102
}
330
47
100
AcDbScale
 70
     0
300
1/32" = 1'-0"
140
0.03125
141
12.0
290
     0
  0
SCALE
  5
5C
102
{ACAD_REACTORS
330
47
102
}
330
47
100
AcDbScale
 70
     0
300
1/16" = 1'-0"
140
0.0625
141
12.0
290
     0
  0
SCALE
  5
5D
102
{ACAD_REACTORS
330
47
102
}
330
47
100
AcDbScale
 70
     0
300
3/32" = 1'-0"
140
0.09375
141
12.0
290
     0
  0
SCALE
  5
5E
102
{ACAD_REACTORS
330
47
102
}
330
47
100
AcDbScale
 70
     0
300
1/8" = 1'-0"
140
0.125
141
12.0
290
     0
  0
SCALE
  5
5F
102
{ACAD_REACTORS
330
47
102
}
330
47
100
AcDbScale
 70
     0
300
3/16" = 1'-0"
140
0.1875
141
12.0
290
     0
  0
SCALE
  5
60
102
{ACAD_REACTORS
330
47
102
}
330
47
100
AcDbScale
 70
     0
300
1/4" = 1'-0"
140
0.25
141
12.0
290
     0
  0
SCALE
  5
61
102
{ACAD_REACTORS
330
47
102
}
330
47
100
AcDbScale
 70
     0
300
3/8" = 1'-0"
140
0.375
141
12.0
290
     0
  0
SCALE
  5
62
102
{ACAD_REACTORS
330
47
102
}
330
47
100
AcDbScale
 70
     0
300
1/2" = 1'-0"
140
0.5
141
12.0
290
     0
  0
SCALE
  5
63
102
{ACAD_REACTORS
330
47
102
}
330
47
100
AcDbScale
 70
     0
300
3/4" = 1'-0"
140
0.75
141
12.0
290
     0
  0
SCALE
  5
64
102
{ACAD_REACTORS
330
47
102
}
330
47
100
AcDbScale
 70
     0
300
1" = 1'-0"
140
1.0
141
12.0
290
     0
  0
SCALE
  5
65
102
{ACAD_REACTORS
330
47
102
}
330
47
100
AcDbScale
 70
     0
300
1-1/2" = 1'-0"
140
1.5
141
12.0
290
     0
  0
SCALE
  5
66
102
{ACAD_REACTORS
330
47
102
}
330
47
100
AcDbScale
 70
     0
300
3" = 1'-0"
140
3.0
141
12.0
290
     0
  0
SCALE
  5
67
102
{ACAD_REACTORS
330
47
102
}
330
47
100
AcDbScale
 70
     0
300
6" = 1'-0"
140
6.0
141
12.0
290
     0
  0
SCALE
  5
68
102
{ACAD_REACTORS
330
47
102
}
330
47
100
AcDbScale
 70
     0
300
1'-0" = 1'-0"
140
12.0
141
12.0
290
     0
  0
ENDSEC
  0
EOF
