  0
SECTION
  2
HEADER
  9
$ACADVER
  1
AC1015
  9
$ACADMAINTVER
 70
     6
  9
$DWGCODEPAGE
  3
ANSI_1252
  9
$INSBASE
 10
0.0
 20
0.0
 30
0.0
  9
$EXTMIN
 10
0.0
 20
0.0
 30
0.0
  9
$EXTMAX
 10
526.0
 20
499.0
 30
0.0
  9
$LIMMIN
 10
0.0
 20
0.0
  9
$LIMMAX
 10
526.0
 20
499.0
  9
$ORTHOMODE
 70
     0
  9
$REGENMODE
 70
     1
  9
$FILLMODE
 70
     1
  9
$QTEXTMODE
 70
     0
  9
$MIRRTEXT
 70
     1
  9
$LTSCALE
 40
1.0
  9
$ATTMODE
 70
     1
  9
$TEXTSIZE
 40
3.5
  9
$TRACEWID
 40
1.0
  9
$TEXTSTYLE
  7
Standard
  9
$CLAYER
  8
0
  9
$CELTYPE
  6
ByLayer
  9
$CECOLOR
 62
   256
  9
$CELTSCALE
 40
1.0
  9
$DISPSILH
 70
     0
  9
$DIMSCALE
 40
1.0
  9
$DIMASZ
 40
3.302
  9
$DIMEXO
 40
1.0
  9
$DIMDLI
 40
3.75
  9
$DIMRND
 40
0.0
  9
$DIMDLE
 40
0.0
  9
$DIMEXE
 40
1.0
  9
$DIMTP
 40
0.0
  9
$DIMTM
 40
0.0
  9
$DIMTXT
 40
2.8
  9
$DIMCEN
 40
2.5
  9
$DIMTSZ
 40
0.0
  9
$DIMTOL
 70
     0
  9
$DIMLIM
 70
     0
  9
$DIMTIH
 70
     1
  9
$DIMTOH
 70
     1
  9
$DIMSE1
 70
     0
  9
$DIMSE2
 70
     0
  9
$DIMTAD
 70
     1
  9
$DIMZIN
 70
     0
  9
$DIMBLK
  1

  9
$DIMASO
 70
     1
  9
$DIMSHO
 70
     1
  9
$DIMPOST
  1

  9
$DIMAPOST
  1

  9
$DIMALT
 70
     0
  9
$DIMALTD
 70
     3
  9
$DIMALTF
 40
0.0393700787
  9
$DIMLFAC
 40
1.0
  9
$DIMTOFL
 70
     1
  9
$DIMTVP
 40
0.0
  9
$DIMTIX
 70
     0
  9
$DIMSOXD
 70
     0
  9
$DIMSAH
 70
     0
  9
$DIMBLK1
  1

  9
$DIMBLK2
  1

  9
$DIMSTYLE
  2
ISO-25
  9
$DIMCLRD
 70
     0
  9
$DIMCLRE
 70
     0
  9
$DIMCLRT
 70
     0
  9
$DIMTFAC
 40
1.0
  9
$DIMGAP
 40
1.524
  9
$DIMJUST
 70
     0
  9
$DIMSD1
 70
     0
  9
$DIMSD2
 70
     0
  9
$DIMTOLJ
 70
     0
  9
$DIMTZIN
 70
     0
  9
$DIMALTZ
 70
     0
  9
$DIMALTTZ
 70
     0
  9
$DIMUPT
 70
     0
  9
$DIMDEC
 70
     2
  9
$DIMTDEC
 70
     2
  9
$DIMALTU
 70
     2
  9
$DIMALTTD
 70
     3
  9
$DIMTXSTY
  7
Standard
  9
$DIMAUNIT
 70
     0
  9
$DIMADEC
 70
     2
  9
$DIMALTRND
 40
0.0
  9
$DIMAZIN
 70
     0
  9
$DIMDSEP
 70
    44
  9
$DIMATFIT
 70
     3
  9
$DIMFRAC
 70
     0
  9
$DIMLDRBLK
  1

  9
$DIMLUNIT
 70
     2
  9
$DIMLWD
 70
    -2
  9
$DIMLWE
 70
    -2
  9
$DIMTMOVE
 70
     0
  9
$LUNITS
 70
     2
  9
$LUPREC
 70
     2
  9
$SKETCHINC
 40
1.0
  9
$FILLETRAD
 40
10.0
  9
$AUNITS
 70
     0
  9
$AUPREC
 70
     2
  9
$MENU
  1
.
  9
$ELEVATION
 40
0.0
  9
$PELEVATION
 40
0.0
  9
$THICKNESS
 40
0.0
  9
$LIMCHECK
 70
     0
  9
$CHAMFERA
 40
0.0
  9
$CHAMFERB
 40
0.0
  9
$CHAMFERC
 40
0.0
  9
$CHAMFERD
 40
0.0
  9
$SKPOLY
 70
     0
  9
$TDCREATE
 40
2458640.347470683
  9
$TDUCREATE
 40
2458640.222470683
  9
$TDUPDATE
 40
2458640.347471366
  9
$TDUUPDATE
 40
2458640.222471366
  9
$TDINDWG
 40
0.0000000116
  9
$TDUSRTIMER
 40
0.0000000116
  9
$USRTIMER
 70
     1
  9
$ANGBASE
 50
0.0
  9
$ANGDIR
 70
     0
  9
$PDMODE
 70
     0
  9
$PDSIZE
 40
-1.0
  9
$PLINEWID
 40
0.0
  9
$SPLFRAME
 70
     0
  9
$SPLINETYPE
 70
     6
  9
$SPLINESEGS
 70
     8
  9
$HANDSEED
  5
157
  9
$SURFTAB1
 70
     6
  9
$SURFTAB2
 70
     6
  9
$SURFTYPE
 70
     6
  9
$SURFU
 70
     6
  9
$SURFV
 70
     6
  9
$UCSBASE
  2

  9
$UCSNAME
  2

  9
$UCSORG
 10
0.0
 20
0.0
 30
0.0
  9
$UCSXDIR
 10
1.0
 20
0.0
 30
0.0
  9
$UCSYDIR
 10
0.0
 20
1.0
 30
0.0
  9
$UCSORTHOREF
  2

  9
$UCSORTHOVIEW
 70
     0
  9
$UCSORGTOP
 10
0.0
 20
0.0
 30
0.0
  9
$UCSORGBOTTOM
 10
0.0
 20
0.0
 30
0.0
  9
$UCSORGLEFT
 10
0.0
 20
0.0
 30
0.0
  9
$UCSORGRIGHT
 10
0.0
 20
0.0
 30
0.0
  9
$UCSORGFRONT
 10
0.0
 20
0.0
 30
0.0
  9
$UCSORGBACK
 10
0.0
 20
0.0
 30
0.0
  9
$PUCSBASE
  2

  9
$PUCSNAME
  2

  9
$PUCSORG
 10
0.0
 20
0.0
 30
0.0
  9
$PUCSXDIR
 10
1.0
 20
0.0
 30
0.0
  9
$PUCSYDIR
 10
0.0
 20
1.0
 30
0.0
  9
$PUCSORTHOREF
  2

  9
$PUCSORTHOVIEW
 70
     0
  9
$PUCSORGTOP
 10
0.0
 20
0.0
 30
0.0
  9
$PUCSORGBOTTOM
 10
0.0
 20
0.0
 30
0.0
  9
$PUCSORGLEFT
 10
0.0
 20
0.0
 30
0.0
  9
$PUCSORGRIGHT
 10
0.0
 20
0.0
 30
0.0
  9
$PUCSORGFRONT
 10
0.0
 20
0.0
 30
0.0
  9
$PUCSORGBACK
 10
0.0
 20
0.0
 30
0.0
  9
$USERI1
 70
     0
  9
$USERI2
 70
     0
  9
$USERI3
 70
     0
  9
$USERI4
 70
     0
  9
$USERI5
 70
     0
  9
$USERR1
 40
0.0
  9
$USERR2
 40
0.0
  9
$USERR3
 40
0.0
  9
$USERR4
 40
0.0
  9
$USERR5
 40
0.0
  9
$WORLDVIEW
 70
     1
  9
$SHADEDGE
 70
     3
  9
$SHADEDIF
 70
    70
  9
$TILEMODE
 70
     1
  9
$MAXACTVP
 70
    64
  9
$PINSBASE
 10
0.0
 20
0.0
 30
0.0
  9
$PLIMCHECK
 70
     0
  9
$PEXTMIN
 10
1.0000000000E+20
 20
1.0000000000E+20
 30
1.0000000000E+20
  9
$PEXTMAX
 10
-1.0000000000E+20
 20
-1.0000000000E+20
 30
-1.0000000000E+20
  9
$PLIMMIN
 10
0.0
 20
0.0
  9
$PLIMMAX
 10
420.0
 20
297.0
  9
$UNITMODE
 70
     0
  9
$VISRETAIN
 70
     1
  9
$PLINEGEN
 70
     0
  9
$PSLTSCALE
 70
     1
  9
$TREEDEPTH
 70
  3020
  9
$CMLSTYLE
  2
Standard
  9
$CMLJUST
 70
     0
  9
$CMLSCALE
 40
20.0
  9
$PROXYGRAPHICS
 70
     1
  9
$MEASUREMENT
 70
     1
  9
$CELWEIGHT
370
    -1
  9
$ENDCAPS
280
     0
  9
$JOINSTYLE
280
     0
  9
$LWDISPLAY
290
     1
  9
$INSUNITS
 70
     4
  9
$HYPERLINKBASE
  1

  9
$STYLESHEET
  1

  9
$XEDIT
290
     1
  9
$CEPSNTYPE
380
     0
  9
$PSTYLEMODE
290
     1
  9
$FINGERPRINTGUID
  2
{FB80F98A-57B0-4F34-9120-A2E706F249F5}
  9
$VERSIONGUID
  2
{FAEB1C32-E019-11D5-929B-00C0DF256EC4}
  9
$EXTNAMES
290
     1
  9
$PSVPSCALE
 40
0.0
  9
$OLESTARTUP
290
     0
  0
ENDSEC
  0
SECTION
  2
CLASSES
  0
CLASS
  1
ACDBDICTIONARYWDFLT
  2
AcDbDictionaryWithDefault
  3
ObjectDBX Classes
 90
        0
280
     0
281
     0
  0
CLASS
  1
VISUALSTYLE
  2
AcDbVisualStyle
  3
ObjectDBX Classes
 90
     4095
280
     0
281
     0
  0
CLASS
  1
MATERIAL
  2
AcDbMaterial
  3
ObjectDBX Classes
 90
     1153
280
     0
281
     0
  0
CLASS
  1
SCALE
  2
AcDbScale
  3
ObjectDBX Classes
 90
     1153
280
     0
281
     0
  0
CLASS
  1
TABLESTYLE
  2
AcDbTableStyle
  3
ObjectDBX Classes
 90
     4095
280
     0
281
     0
  0
CLASS
  1
MLEADERSTYLE
  2
AcDbMLeaderStyle
  3
ACDB_MLEADERSTYLE_CLASS
 90
     4095
280
     0
281
     0
  0
CLASS
  1
SUN
  2
AcDbSun
  3
SCENEOE
 90
     1153
280
     0
281
     0
  0
CLASS
  1
ACDBPLACEHOLDER
  2
AcDbPlaceHolder
  3
ObjectDBX Classes
 90
        0
280
     0
281
     0
  0
CLASS
  1
LAYOUT
  2
AcDbLayout
  3
ObjectDBX Classes
 90
        0
280
     0
281
     0
  0
ENDSEC
  0
SECTION
  2
TABLES
  0
TABLE
  2
VPORT
  5
8
330
0
100
AcDbSymbolTable
 70
     1
  0
VPORT
  5
29
330
8
100
AcDbSymbolTableRecord
100
AcDbViewportTableRecord
  2
*Active
 70
     0
 10
0.0
 20
0.0
 11
1.0
 21
1.0
 12
263.0
 22
249.5
 13
0.0
 23
0.0
 14
10.0
 24
10.0
 15
10.0
 25
10.0
 16
0.0
 26
0.0
 36
1.0
 17
0.0
 27
0.0
 37
0.0
 40
499.0
 41
1.0541082164
 42
50.0
 43
0.0
 44
0.0
 50
0.0
 51
0.0
 71
     0
 72
  2000
 73
     1
 74
     3
 75
     0
 76
     0
 77
     0
 78
     0
281
     0
 65
     1
110
0.0
120
0.0
130
0.0
111
1.0
121
0.0
131
0.0
112
0.0
122
1.0
132
0.0
 79
     0
146
0.0
  0
ENDTAB
  0
TABLE
  2
LTYPE
  5
5
330
0
100
AcDbSymbolTable
 70
     6
  0
LTYPE
  5
14
330
5
100
AcDbSymbolTableRecord
100
AcDbLinetypeTableRecord
  2
ByBlock
 70
     0
  3

 72
    65
 73
     0
 40
0.0
  0
LTYPE
  5
15
330
5
100
AcDbSymbolTableRecord
100
AcDbLinetypeTableRecord
  2
ByLayer
 70
     0
  3

 72
    65
 73
     0
 40
0.0
  0
LTYPE
  5
16
330
5
100
AcDbSymbolTableRecord
100
AcDbLinetypeTableRecord
  2
Continuous
 70
     0
  3
Solid line
 72
    65
 73
     0
 40
0.0
  0
LTYPE
  5
6E
330
5
100
AcDbSymbolTableRecord
100
AcDbLinetypeTableRecord
  2
HIDDEN
 70
     0
  3
Hidden __ __ __ __ __ __ __ __ __ __ __ __ __ __
 72
    65
 73
     2
 40
1.905
 49
1.27
 74
     0
 49
-0.635
 74
     0
  0
LTYPE
  5
6F
330
5
100
AcDbSymbolTableRecord
100
AcDbLinetypeTableRecord
  2
PHANTOM
 70
     0
  3
Phantom ______  __  __  ______  __  __  ______
 72
    65
 73
     6
 40
12.7
 49
6.35
 74
     0
 49
-1.27
 74
     0
 49
1.27
 74
     0
 49
-1.27
 74
     0
 49
1.27
 74
     0
 49
-1.27
 74
     0
  0
LTYPE
  5
70
330
5
100
AcDbSymbolTableRecord
100
AcDbLinetypeTableRecord
  2
CENTER
 70
     0
  3
Center ____ _ ____ _ ____ _ ____ _ ____ _ ____
 72
    65
 73
     4
 40
10.16
 49
6.35
 74
     0
 49
-1.27
 74
     0
 49
1.27
 74
     0
 49
-1.27
 74
     0
  0
LTYPE
  5
71
330
5
100
AcDbSymbolTableRecord
100
AcDbLinetypeTableRecord
  2
CENTERX2
 70
     0
  3
Center (2x) ________  __  ________  __  _____
 72
    65
 73
     4
 40
20.32
 49
12.7
 74
     0
 49
-2.54
 74
     0
 49
2.54
 74
     0
 49
-2.54
 74
     0
  0
LTYPE
  5
72
330
5
100
AcDbSymbolTableRecord
100
AcDbLinetypeTableRecord
  2
DOT2
 70
     0
  3
Dot (.5x) ........................................
 72
    65
 73
     2
 40
0.635
 49
0.0
 74
     0
 49
-0.635
 74
     0
  0
ENDTAB
  0
TABLE
  2
LAYER
  5
2
330
0
100
AcDbSymbolTable
 70
     2
  0
LAYER
  5
10
330
2
100
AcDbSymbolTableRecord
100
AcDbLayerTableRecord
  2
0
 70
     0
 62
     7
  6
Continuous
370
    -3
390
F
  0
LAYER
  5
73
330
2
100
AcDbSymbolTableRecord
100
AcDbLayerTableRecord
  2
FORMAT
 70
     0
 62
     7
  6
Continuous
370
    -3
390
F
  0
ENDTAB
  0
TABLE
  2
STYLE
  5
3
330
0
100
AcDbSymbolTable
 70
     2
  0
STYLE
  5
11
330
3
100
AcDbSymbolTableRecord
100
AcDbTextStyleTableRecord
  2
Standard
 70
     0
 40
0.0
 41
1.0
 50
0.0
 71
     0
 42
3.5
  3
txt
  4

  0
STYLE
  5
74
330
3
100
AcDbSymbolTableRecord
100
AcDbTextStyleTableRecord
  2
SLDTEXTSTYLE0
 70
     0
 40
0.0
 41
0.605
 50
0.0
 71
     0
 42
3.5
  3
TXT
  4

  0
ENDTAB
  0
TABLE
  2
VIEW
  5
6
330
0
100
AcDbSymbolTable
 70
     0
  0
ENDTAB
  0
TABLE
  2
UCS
  5
7
330
0
100
AcDbSymbolTable
 70
     0
  0
ENDTAB
  0
TABLE
  2
APPID
  5
9
330
0
100
AcDbSymbolTable
 70
     1
  0
APPID
  5
12
330
9
100
AcDbSymbolTableRecord
100
AcDbRegAppTableRecord
  2
ACAD
 70
     0
  0
ENDTAB
  0
TABLE
  2
DIMSTYLE
  5
A
330
0
100
AcDbSymbolTable
 70
     1
100
AcDbDimStyleTable
  0
DIMSTYLE
105
27
330
A
100
AcDbSymbolTableRecord
100
AcDbDimStyleTableRecord
  2
ISO-25
 70
     0
 41
2.5
 42
0.625
 43
3.75
 44
1.25
 73
     0
 74
     0
 77
     1
 78
     8
140
2.5
141
2.5
143
0.0393700787
147
0.625
171
     3
172
     1
178
     0
271
     2
272
     2
274
     3
278
    44
283
     0
284
     8
340
11
  0
ENDTAB
  0
TABLE
  2
BLOCK_RECORD
  5
1
330
0
100
AcDbSymbolTable
 70
     1
  0
BLOCK_RECORD
  5
1F
330
1
100
AcDbSymbolTableRecord
100
AcDbBlockTableRecord
  2
*Model_Space
340
22
  0
BLOCK_RECORD
  5
1B
330
1
100
AcDbSymbolTableRecord
100
AcDbBlockTableRecord
  2
*Paper_Space
340
1E
  0
BLOCK_RECORD
  5
23
330
1
100
AcDbSymbolTableRecord
100
AcDbBlockTableRecord
  2
*Paper_Space0
340
26
  0
ENDTAB
  0
ENDSEC
  0
SECTION
  2
BLOCKS
  0
BLOCK
  5
20
330
1F
100
AcDbEntity
  8
0
100
AcDbBlockBegin
  2
*Model_Space
 70
     0
 10
0.0
 20
0.0
 30
0.0
  3
*Model_Space
  1

  0
ENDBLK
  5
21
330
1F
100
AcDbEntity
  8
0
100
AcDbBlockEnd
  0
BLOCK
  5
1C
330
1B
100
AcDbEntity
 67
     1
  8
0
100
AcDbBlockBegin
  2
*Paper_Space
 70
     0
 10
0.0
 20
0.0
 30
0.0
  3
*Paper_Space
  1

  0
ENDBLK
  5
1D
330
1B
100
AcDbEntity
 67
     1
  8
0
100
AcDbBlockEnd
  0
BLOCK
  5
24
330
23
100
AcDbEntity
  8
0
100
AcDbBlockBegin
  2
*Paper_Space0
 70
     0
 10
0.0
 20
0.0
 30
0.0
  3
*Paper_Space0
  1

  0
ENDBLK
  5
25
330
23
100
AcDbEntity
  8
0
100
AcDbBlockEnd
  0
ENDSEC
  0
SECTION
  2
ENTITIES
  0
MTEXT
  5
75
330
1F
100
AcDbEntity
  8
0
  6
Continuous
 62
     7
370
     0
100
AcDbMText
 10
7.2782978723
 20
22.1884790273
 30
0.0
 40
10.0
 41
0.0
 71
     1
 72
     1
  1
1:1
  7
SLDTEXTSTYLE0
 73
     1
 44
1.0
  0
ARC
  5
76
330
1F
100
AcDbEntity
  8
0
  6
Continuous
 62
     7
370
    30
100
AcDbCircle
 10
263.0
 20
386.9738997765
 30
0.0
 40
85.00017133750003
100
AcDbArc
 50
274.0300881624
 51
0.0
  0
ARC
  5
77
330
1F
100
AcDbEntity
  8
0
  6
Continuous
 62
     7
370
    30
100
AcDbCircle
 10
263.0
 20
386.9738997765
 30
0.0
 40
85.00017133750008
100
AcDbArc
 50
0.0
 51
265.9699118532
  0
LINE
  5
78
330
1F
100
AcDbEntity
  8
0
  6
Continuous
 62
     7
370
    30
100
AcDbLine
 10
257.1981184972
 20
417.4965642096
 30
0.0
 11
257.1981135797
 21
417.4938655928
 31
0.0
  0
SPLINE
  5
79
330
1F
100
AcDbEntity
  8
0
  6
Continuous
 62
     7
370
    30
100
AcDbSpline
210
0.0
220
0.0
230
1.0
 70
     8
 71
     3
 72
    53
 73
    49
 74
     0
 42
0.000000001
 43
0.00000001
 40
0.0
 40
0.0
 40
0.0
 40
0.0
 40
0.029958851804843
 40
0.0829837980020605
 40
0.1350009742683847
 40
0.1869121911206503
 40
0.2377495085617241
 40
0.2875036727121236
 40
0.3361689462024574
 40
0.3837429860241807
 40
0.4142682707543201
 40
0.443225103765114
 40
0.4701395373617858
 40
0.495059337235618
 40
0.5180400469001817
 40
0.5391471230162362
 40
0.5556475847676593
 40
0.5706123402590627
 40
0.5790374919617098
 40
0.5899945492886131
 40
0.6035185332854786
 40
0.618221195412495
 40
0.6356445637214401
 40
0.6537651637550449
 40
0.6723431593289274
 40
0.6889406127170975
 40
0.702998024149329
 40
0.7150427469312597
 40
0.725571740230258
 40
0.7335668007851716
 40
0.7405729159993074
 40
0.7486422740757991
 40
0.7583630720261002
 40
0.769742132606157
 40
0.7822999770847276
 40
0.7943293296616646
 40
0.8054193242515741
 40
0.8155699807307545
 40
0.8268091148060375
 40
0.8392296206007274
 40
0.8531693739804449
 40
0.8686335183435492
 40
0.8851454707521397
 40
0.9021704512043531
 40
0.93109412550091
 40
0.9579965399531539
 40
0.984238385542716
 40
1.0
 40
1.0
 40
1.0
 40
1.0
 10
255.9590450542812
 20
414.2457100150607
 30
0.0
 10
255.9385327919319
 20
414.2221744774984
 30
0.0
 10
255.8817153462415
 20
414.1569827836489
 30
0.0
 10
255.7847970586037
 20
414.0550777377854
 30
0.0
 10
255.6690681154011
 20
413.9397678598959
 30
0.0
 10
255.5512184639338
 20
413.8300951391349
 30
0.0
 10
255.4318355308787
 20
413.7258630261701
 30
0.0
 10
255.3119592211815
 20
413.6276954457838
 30
0.0
 10
255.1919537563489
 20
413.5354399704642
 30
0.0
 10
255.0855653830299
 20
413.4586341149824
 30
0.0
 10
254.9942544089063
 20
413.3960489229926
 30
0.0
 10
254.9198929675985
 20
413.3470851099779
 30
0.0
 10
254.8499863458743
 20
413.3027767281477
 30
0.0
 10
254.7851146352815
 20
413.2631060403602
 30
0.0
 10
254.7254276625203
 20
413.2278053368099
 30
0.0
 10
254.6734043033003
 20
413.1979767482422
 30
0.0
 10
254.6290039193737
 20
413.1731814711593
 30
0.0
 10
254.5963571394137
 20
413.1553511596741
 30
0.0
 10
254.5710307359585
 20
413.1417281090955
 30
0.0
 10
254.5489113437071
 20
413.1299690266613
 30
0.0
 10
254.5239820634283
 20
413.1168982615078
 30
0.0
 10
254.4962068819217
 20
413.1025589270873
 30
0.0
 10
254.4671348186729
 20
413.0878052992363
 30
0.0
 10
254.4375258761897
 20
413.0730513001146
 30
0.0
 10
254.409960127041
 20
413.059563794332
 30
0.0
 10
254.3859960038871
 20
413.0480373615841
 30
0.0
 10
254.3674819560313
 20
413.0392563035829
 30
0.0
 10
254.3531997365581
 20
413.0325536920856
 30
0.0
 10
254.3415671448778
 20
413.0271433554662
 30
0.0
 10
254.3323976431161
 20
413.0229099688148
 30
0.0
 10
254.3247118315541
 20
413.0193816167151
 30
0.0
 10
254.3172454991549
 20
413.0159722149085
 30
0.0
 10
254.3090005159677
 20
413.0122291834841
 30
0.0
 10
254.3000132782495
 20
413.0081766328419
 30
0.0
 10
254.2908241765276
 20
413.0040641160329
 30
0.0
 10
254.2822003999871
 20
413.0002341459216
 30
0.0
 10
254.2747017359316
 20
412.9969272166351
 30
0.0
 10
254.2679622637046
 20
412.993973741757
 30
0.0
 10
254.2618174269323
 20
412.9912968913742
 30
0.0
 10
254.2557318509549
 20
412.9886617692078
 30
0.0
 10
254.2496391516135
 20
412.9860404257229
 30
0.0
 10
254.2435444508168
 20
412.9834365419102
 30
0.0
 10
254.2378605841086
 20
412.9810267403825
 30
0.0
 10
254.2321160123502
 20
412.9786091203951
 30
0.0
 10
254.2270737015085
 20
412.9765080655924
 30
0.0
 10
254.2234485488867
 20
412.9750128618579
 30
0.0
 10
254.221755088625
 20
412.9743218814035
 30
0.0
 10
254.2218031879634
 20
412.9743408635359
 30
0.0
 10
254.2218212370295
 20
412.9743479864979
 30
0.0
  0
SPLINE
  5
7A
330
1F
100
AcDbEntity
  8
0
  6
Continuous
 62
     7
370
    30
100
AcDbSpline
210
0.0
220
0.0
230
1.0
 70
     8
 71
     3
 72
    22
 73
    18
 74
     0
 42
0.000000001
 43
0.00000001
 40
0.0
 40
0.0
 40
0.0
 40
0.0
 40
0.001098094594686
 40
0.0733286893421755
 40
0.1782898254070836
 40
0.2743190469059753
 40
0.3622965906319418
 40
0.4122634168227812
 40
0.4615476684461713
 40
0.5189250407737613
 40
0.585468496433417
 40
0.6968044756061192
 40
0.8052572124775754
 40
0.8663858408723905
 40
0.9240235197135405
 40
0.9780638746070623
 40
1.0
 40
1.0
 40
1.0
 40
1.0
 10
272.1148114547608
 20
412.8582491663254
 30
0.0
 10
272.114813386667
 20
412.8582483632188
 30
0.0
 10
272.1149423957275
 20
412.8581947332736
 30
0.0
 10
272.1144253202817
 20
412.858412408281
 30
0.0
 10
272.1127490592602
 20
412.8591244990304
 30
0.0
 10
272.1092156191093
 20
412.8606378940009
 30
0.0
 10
272.1049827577828
 20
412.8624678111663
 30
0.0
 10
272.1007477261659
 20
412.8643125513826
 30
0.0
 10
272.0965808467781
 20
412.866137082152
 30
0.0
 10
272.0908962526283
 20
412.8686417038485
 30
0.0
 10
272.0822968030477
 20
412.8724601446064
 30
0.0
 10
272.0698764248751
 20
412.8780326261578
 30
0.0
 10
272.0543466871414
 20
412.8851081050539
 30
0.0
 10
272.0398542108031
 20
412.8917996407445
 30
0.0
 10
272.0275625075307
 20
412.8975338276542
 30
0.0
 10
272.0171938016916
 20
412.9024055715138
 30
0.0
 10
272.0106998700743
 20
412.9054955184543
 30
0.0
 10
272.0088249253848
 20
412.9063876559064
 30
0.0
  0
SPLINE
  5
7B
330
1F
100
AcDbEntity
  8
0
  6
Continuous
 62
     7
370
    30
100
AcDbSpline
210
0.0
220
0.0
230
1.0
 70
     8
 71
     3
 72
    52
 73
    48
 74
     0
 42
0.000000001
 43
0.00000001
 40
0.0
 40
0.0
 40
0.0
 40
0.0
 40
0.001466777093613
 40
0.0056185015934514
 40
0.0090074651209106
 40
0.0124198202804326
 40
0.0160169994454941
 40
0.0198032924656493
 40
0.0301572356987194
 40
0.0417471755314306
 40
0.0540823099523173
 40
0.0669723968580944
 40
0.0804252836352421
 40
0.0989049692915594
 40
0.1183769050726192
 40
0.1388542045950395
 40
0.1619226984784098
 40
0.1861703660668085
 40
0.2115239469342359
 40
0.2371472212443947
 40
0.2628146269886411
 40
0.2993321442810655
 40
0.3358969835957068
 40
0.3724840962675215
 40
0.4090681598340696
 40
0.4456237072142682
 40
0.4821252559564804
 40
0.5185474361979382
 40
0.5546911209687206
 40
0.5901206799102562
 40
0.6247996500928134
 40
0.6587120351422486
 40
0.6918445815749907
 40
0.7241866489633483
 40
0.7557300669629493
 40
0.7864692709630234
 40
0.8164802012406167
 40
0.8458216541586989
 40
0.8744908507729846
 40
0.9024864974771181
 40
0.9298579606065795
 40
0.9478342094358766
 40
0.9655966417722656
 40
0.9827961301614352
 40
0.9949719902627602
 40
0.997917881523844
 40
1.0
 40
1.0
 40
1.0
 40
1.0
 10
271.7509366927932
 20
413.0395803797092
 30
0.0
 10
271.7491537396409
 20
413.0405700205305
 30
0.0
 10
271.7423241230815
 20
413.0443608477501
 30
0.0
 10
271.7308342042029
 20
413.0508195390032
 30
0.0
 10
271.7161073793405
 20
413.0591458449568
 30
0.0
 10
271.7018343266137
 20
413.0672829956739
 30
0.0
 10
271.6868269781021
 20
413.0759062443789
 30
0.0
 10
271.6618995370242
 20
413.0903522843047
 30
0.0
 10
271.625203079834
 20
413.1119659306374
 30
0.0
 10
271.5757935675846
 20
413.141820165282
 30
0.0
 10
271.5228329170965
 20
413.1747197679894
 30
0.0
 10
271.4673940810594
 20
413.210168371674
 30
0.0
 10
271.4034674601182
 20
413.2522838746556
 30
0.0
 10
271.3306871864851
 20
413.301979590013
 30
0.0
 10
271.2488166459399
 20
413.3602827374316
 30
0.0
 10
271.1616082555879
 20
413.4251610342549
 30
0.0
 10
271.069190358722
 20
413.4972277610274
 30
0.0
 10
270.9718873832533
 20
413.5770399974737
 30
0.0
 10
270.8731863376868
 20
413.6623637410278
 30
0.0
 10
270.7749312388333
 20
413.7519851778843
 30
0.0
 10
270.665108973839
 20
413.8576852741804
 30
0.0
 10
270.5454544219464
 20
413.9805814911822
 30
0.0
 10
270.4178150212704
 20
414.1221075646819
 30
0.0
 10
270.2955487426246
 20
414.2685587204738
 30
0.0
 10
270.1789344167454
 20
414.4196182208518
 30
0.0
 10
270.0682247805665
 20
414.5749504087042
 30
0.0
 10
269.9636464242527
 20
414.7342015475163
 30
0.0
 10
269.8655526420271
 20
414.8967451356627
 30
0.0
 10
269.7745741725533
 20
415.0612856390899
 30
0.0
 10
269.6911815737025
 20
415.2264105802778
 30
0.0
 10
269.6155131029905
 20
415.3909597452178
 30
0.0
 10
269.5473278045375
 20
415.5544317365876
 30
0.0
 10
269.4863423084985
 20
415.7163913887853
 30
0.0
 10
269.4322515382941
 20
415.8764414064494
 30
0.0
 10
269.3847329725729
 20
416.0342232396869
 30
0.0
 10
269.3434150799463
 20
416.189550721155
 30
0.0
 10
269.3079149044557
 20
416.3423803761981
 30
0.0
 10
269.2778774579243
 20
416.4927054190546
 30
0.0
 10
269.2529928439416
 20
416.6404138831969
 30
0.0
 10
269.2329612429974
 20
416.7853986188526
 30
0.0
 10
269.2191464978049
 20
416.9123899386556
 30
0.0
 10
269.2098506004181
 20
417.0219104923257
 30
0.0
 10
269.2037752632805
 20
417.1138958169368
 30
0.0
 10
269.199844142374
 20
417.1959357957502
 30
0.0
 10
269.1980528158708
 20
417.2521189108823
 30
0.0
 10
269.1972861001462
 20
417.2821562879617
 30
0.0
 10
269.197134082662
 20
417.2908173074125
 30
0.0
 10
269.1970711316279
 20
417.2944038694048
 30
0.0
  0
ARC
  5
7C
330
1F
100
AcDbEntity
  8
0
  6
Continuous
 62
     7
370
    30
100
AcDbCircle
 10
263.0
 20
386.9738997765
 30
0.0
 40
27.56507546582133
100
AcDbArc
 50
289.2857169392
 51
72.0732525743
  0
ARC
  5
7D
330
1F
100
AcDbEntity
  8
0
  6
Continuous
 62
     7
370
    30
100
AcDbCircle
 10
263.0
 20
386.9738997765
 30
0.0
 40
27.56507546582132
100
AcDbArc
 50
107.1805719662
 51
249.9699726467
  0
LINE
  5
7E
330
1F
100
AcDbEntity
  8
0
  6
Continuous
 62
     7
370
    30
100
AcDbLine
 10
272.1050850717
 20
360.9719781969
 30
0.0
 11
271.9567972883
 21
360.9205260538
 31
0.0
  0
ARC
  5
7F
330
1F
100
AcDbEntity
  8
0
  6
Continuous
 62
     7
370
    30
100
AcDbCircle
 10
263.0
 20
386.9738997765
 30
0.0
 40
27.85000000000002
100
AcDbArc
 50
0.0
 51
73.6634721802
  0
ARC
  5
80
330
1F
100
AcDbEntity
  8
0
  6
Continuous
 62
     7
370
    30
100
AcDbCircle
 10
263.0
 20
386.9738997765
 30
0.0
 40
27.84999999999999
100
AcDbArc
 50
105.5967588162
 51
253.0812660226
  0
ARC
  5
81
330
1F
100
AcDbEntity
  8
0
  6
Continuous
 62
     7
370
    30
100
AcDbCircle
 10
263.0
 20
386.9738997765
 30
0.0
 40
27.85000000000002
100
AcDbArc
 50
286.1711109063
 51
0.0
  0
SPLINE
  5
82
330
1F
100
AcDbEntity
  8
0
  6
Continuous
 62
     7
370
    30
100
AcDbSpline
210
0.0
220
0.0
230
1.0
 70
     8
 71
     3
 72
    25
 73
    21
 74
     0
 42
0.000000001
 43
0.00000001
 40
0.0
 40
0.0
 40
0.0
 40
0.0
 40
0.0552765880480433
 40
0.1107507068123895
 40
0.1662247223560804
 40
0.2215011691456575
 40
0.276777284546236
 40
0.332250834301846
 40
0.3877246125795946
 40
0.443001040714089
 40
0.4982937397471571
 40
0.5537833603581283
 40
0.6092733668651724
 40
0.6645665939935814
 40
0.7199588434566963
 40
0.7755482436755577
 40
0.8311379746791563
 40
0.8865306768173089
 40
0.9432653183310012
 40
1.0
 40
1.0
 40
1.0
 40
1.0
 10
268.9186455200095
 20
302.2074910125745
 30
0.0
 10
268.9164846241918
 20
302.2080726618326
 30
0.0
 10
268.9121551106018
 20
302.2092380388705
 30
0.0
 10
268.8967322497282
 20
302.210338110774
 30
0.0
 10
268.875013762427
 20
302.2109662800302
 30
0.0
 10
268.8464607819754
 20
302.2110703211254
 30
0.0
 10
268.8112329576251
 20
302.2106526096812
 30
0.0
 10
268.7696851505099
 20
302.2097370252926
 30
0.0
 10
268.7222148814051
 20
302.208344855592
 30
0.0
 10
268.6691531895025
 20
302.206492301235
 30
0.0
 10
268.6106681299938
 20
302.204188190486
 30
0.0
 10
268.547263273227
 20
302.2014701332783
 30
0.0
 10
268.4794932795282
 20
302.1983732926193
 30
0.0
 10
268.4078308721996
 20
302.1949277191969
 30
0.0
 10
268.332600764075
 20
302.1911554025417
 30
0.0
 10
268.2543477014237
 20
302.187094817278
 30
0.0
 10
268.1737690989814
 20
302.1827900631411
 30
0.0
 10
268.0908314014957
 20
302.1782414181304
 30
0.0
 10
268.0060704633663
 20
302.1734889786926
 30
0.0
 10
267.9487008179315
 20
302.170181192507
 30
0.0
 10
267.9200159850629
 20
302.1685272988288
 30
0.0
  0
ARC
  5
83
330
1F
100
AcDbEntity
  8
0
  6
Continuous
 62
     7
370
    30
100
AcDbCircle
 10
263.0
 20
386.9738997766
 30
0.0
 40
84.94797089044819
100
AcDbArc
 50
266.6796853455
 51
273.3203146545
  0
SPLINE
  5
84
330
1F
100
AcDbEntity
  8
0
  6
Continuous
 62
     7
370
    30
100
AcDbSpline
210
0.0
220
0.0
230
1.0
 70
     8
 71
     3
 72
    25
 73
    21
 74
     0
 42
0.000000001
 43
0.00000001
 40
0.0
 40
0.0
 40
0.0
 40
0.0
 40
0.0552765880461996
 40
0.110750706808122
 40
0.1662247223463695
 40
0.2215011691299563
 40
0.2767772845310976
 40
0.3322508342872549
 40
0.3877246125655591
 40
0.4430010407006064
 40
0.498293739734707
 40
0.5537833603467202
 40
0.6092733668547988
 40
0.6645665939842414
 40
0.7199588434483969
 40
0.7755482436682992
 40
0.8311379746729384
 40
0.8865306768121278
 40
0.9432653183284112
 40
1.0
 40
1.0
 40
1.0
 40
1.0
 10
257.0813544801649
 20
302.2074910127373
 30
0.0
 10
257.0835153759763
 20
302.2080726619894
 30
0.0
 10
257.0878448895535
 20
302.2092380390154
 30
0.0
 10
257.103267750359
 20
302.2103381108549
 30
0.0
 10
257.1249862375947
 20
302.2109662800494
 30
0.0
 10
257.1535392180202
 20
302.2110703211202
 30
0.0
 10
257.1887670423751
 20
302.2106526096826
 30
0.0
 10
257.230314849488
 20
302.2097370252923
 30
0.0
 10
257.2777851185925
 20
302.2083448555921
 30
0.0
 10
257.3308468104946
 20
302.2064923012351
 30
0.0
 10
257.3893318700028
 20
302.204188190486
 30
0.0
 10
257.4527367267693
 20
302.2014701332785
 30
0.0
 10
257.5205067204678
 20
302.1983732926195
 30
0.0
 10
257.5921691277962
 20
302.1949277191971
 30
0.0
 10
257.6673992359206
 20
302.1911554025419
 30
0.0
 10
257.7456522985717
 20
302.1870948172783
 30
0.0
 10
257.8262309010139
 20
302.1827900631413
 30
0.0
 10
257.9091685985003
 20
302.1782414181305
 30
0.0
 10
257.9939295366312
 20
302.1734889786927
 30
0.0
 10
258.0512991820676
 20
302.170181192507
 30
0.0
 10
258.0799840149369
 20
302.1685272988288
 30
0.0
  0
LINE
  5
85
330
1F
100
AcDbEntity
  8
0
  6
Continuous
 62
     7
370
    30
100
AcDbLine
 10
257.0268898275
 20
302.1840303647
 30
0.0
 11
257.0813544802
 21
302.2074910125
 31
0.0
  0
LINE
  5
86
330
1F
100
AcDbEntity
  8
0
  6
Continuous
 62
     7
370
    30
100
AcDbLine
 10
268.9731101725
 20
302.1840303647
 30
0.0
 11
268.9186455198
 21
302.2074910125
 31
0.0
  0
LINE
  5
87
330
1F
100
AcDbEntity
  8
0
  6
Continuous
 62
     7
370
    30
100
AcDbLine
 10
268.9737963096
 20
302.1845054568
 30
0.0
 11
268.9731101725
 21
302.1840303647
 31
0.0
  0
LINE
  5
88
330
1F
100
AcDbEntity
  8
0
  6
Continuous
 62
     7
370
    30
100
AcDbLine
 10
257.0262036235
 20
302.1845055031
 30
0.0
 11
257.0268898275
 21
302.1840303647
 31
0.0
  0
ARC
  5
89
330
1F
100
AcDbEntity
  8
0
  6
Continuous
 62
     7
370
    30
100
AcDbCircle
 10
263.0
 20
386.9738997765
 30
0.0
 40
8.550000000000056
100
AcDbArc
 50
256.0999860437
 51
283.1557035424
  0
ARC
  5
8A
330
1F
100
AcDbEntity
  8
0
  6
Continuous
 62
     7
370
    30
100
AcDbCircle
 10
263.0
 20
386.9738997765
 30
0.0
 40
7.650000000000011
100
AcDbArc
 50
284.7832444553
 51
254.4724451308
  0
LINE
  5
8B
330
1F
100
AcDbEntity
  8
0
  6
Continuous
 62
     7
370
    30
100
AcDbLine
 10
260.9460482152
 20
378.6742743594
 30
0.0
 11
260.952081403
 21
379.6031108486
 31
0.0
  0
LINE
  5
8C
330
1F
100
AcDbEntity
  8
0
  6
Continuous
 62
     7
370
    30
100
AcDbLine
 10
264.9519970245
 20
379.5771296966
 30
0.0
 11
264.9459638368
 21
378.6482932073
 31
0.0
  0
LINE
  5
8D
330
1F
100
AcDbEntity
  8
0
  6
Continuous
 62
     7
370
    30
100
AcDbLine
 10
269.2175216109
 20
420.4428474481
 30
0.0
 11
269.1965827193
 21
417.2192105889
 31
0.0
  0
LINE
  5
8E
330
1F
100
AcDbEntity
  8
0
  6
Continuous
 62
     7
370
    30
100
AcDbLine
 10
257.1968358546
 20
417.2971540493
 30
0.0
 11
257.2177743217
 21
420.5207255588
 31
0.0
  0
SPLINE
  5
8F
330
1F
100
AcDbEntity
  8
0
  6
Continuous
 62
     7
370
    30
100
AcDbSpline
210
0.0
220
0.0
230
1.0
 70
     8
 71
     3
 72
    38
 73
    34
 74
     0
 42
0.000000001
 43
0.00000001
 40
0.0
 40
0.0
 40
0.0
 40
0.0
 40
0.0392393724880574
 40
0.0774121248922284
 40
0.1145181855335295
 40
0.1505574888708446
 40
0.1855299758857935
 40
0.2194355945281168
 40
0.252274300233385
 40
0.2840460565275887
 40
0.3247365248800723
 40
0.3635317245346417
 40
0.4004315012396704
 40
0.4216685158062057
 40
0.4422224717403342
 40
0.4620934049893987
 40
0.4812813586501622
 40
0.4997863839081534
 40
0.5230756048666015
 40
0.5473908471581657
 40
0.572774883254526
 40
0.5992277631235787
 40
0.6361519072436791
 40
0.6749748407270101
 40
0.7156964086557341
 40
0.747493722652523
 40
0.780359882005146
 40
0.8142948500500844
 40
0.8492985819930998
 40
0.8853710255172375
 40
0.9225121213033699
 40
0.9607218034779705
 40
1.0
 40
1.0
 40
1.0
 40
1.0
 10
257.2177743216949
 20
420.520725558814
 30
0.0
 10
257.2281404534742
 20
420.7672113056801
 30
0.0
 10
257.2485909407544
 20
421.2534827267218
 30
0.0
 10
257.3895058344653
 20
421.9613385130394
 30
0.0
 10
257.6005999739521
 20
422.628987892566
 30
0.0
 10
257.8801423312694
 20
423.2494456426004
 30
0.0
 10
258.2163104336975
 20
423.8175820237755
 30
0.0
 10
258.599852079316
 20
424.3299129702627
 30
0.0
 10
259.021164169323
 20
424.7844954811062
 30
0.0
 10
259.5182887002282
 20
425.2221823533234
 30
0.0
 10
260.0934278133789
 20
425.6225016574815
 30
0.0
 10
260.7422774081043
 20
425.9629107469843
 30
0.0
 10
261.3125121919275
 20
426.1803010892907
 30
0.0
 10
261.7887742328641
 20
426.3135988124494
 30
0.0
 10
262.1680499681271
 20
426.3933645448828
 30
0.0
 10
262.5388509446319
 20
426.4470544136075
 30
0.0
 10
262.899405420951
 20
426.4768510255055
 30
0.0
 10
263.2825398940894
 20
426.485764655869
 30
0.0
 10
263.6977879386035
 20
426.4681565225533
 30
0.0
 10
264.1535255043778
 20
426.4145214553851
 30
0.0
 10
264.6232563688569
 20
426.3216402558051
 30
0.0
 10
265.1601364325574
 20
426.169224080338
 30
0.0
 10
265.7585470729706
 20
425.9328627517187
 30
0.0
 10
266.4037298014078
 20
425.5844205726435
 30
0.0
 10
266.9744066837933
 20
425.1768497409135
 30
0.0
 10
267.4665449125914
 20
424.7327699261762
 30
0.0
 10
267.8825856664027
 20
424.2726568317453
 30
0.0
 10
268.2600819000581
 20
423.7551666727035
 30
0.0
 10
268.5894299725308
 20
423.1823665781119
 30
0.0
 10
268.8613968476083
 20
422.5578652168795
 30
0.0
 10
269.0641951167351
 20
421.8869562162997
 30
0.0
 10
269.1961715238888
 20
421.1766640665087
 30
0.0
 10
269.2103397911707
 20
420.6896913645086
 30
0.0
 10
269.2175216110376
 20
420.4428474734156
 30
0.0
  0
LINE
  5
90
330
1F
100
AcDbEntity
  8
0
  6
Continuous
 62
     7
370
    30
100
AcDbLine
 10
260.952081403
 20
379.6031108486
 30
0.0
 11
260.9530915444
 21
379.7586266858
 31
0.0
  0
LINE
  5
91
330
1F
100
AcDbEntity
  8
0
  6
Continuous
 62
     7
370
    30
100
AcDbLine
 10
264.953007166
 20
379.7326455337
 30
0.0
 11
264.9519970245
 21
379.5771296966
 31
0.0
  0
SPLINE
  5
92
330
1F
100
AcDbEntity
  8
0
  6
Continuous
 62
     7
370
    30
100
AcDbSpline
210
0.0
220
0.0
230
1.0
 70
     8
 71
     3
 72
    31
 73
    27
 74
     0
 42
0.000000001
 43
0.00000001
 40
0.0
 40
0.0
 40
0.0
 40
0.0
 40
0.0416666666666678
 40
0.0833333333333332
 40
0.1249999999999999
 40
0.1666666666666657
 40
0.2083333333333343
 40
0.2499999999999998
 40
0.2916666666666655
 40
0.3333333333333341
 40
0.3750000000000001
 40
0.4166666666666661
 40
0.4583333333333341
 40
0.5000000000000004
 40
0.5416666666666656
 40
0.5833333333333327
 40
0.6249999999999993
 40
0.6666666666666666
 40
0.7083333333333333
 40
0.7499999999999997
 40
0.7916666666666659
 40
0.8333333333333339
 40
0.8749999999999998
 40
0.9166666666666666
 40
0.9583333333333329
 40
1.0
 40
1.0
 40
1.0
 40
1.0
 10
257.1981973459824
 20
417.5077935004373
 30
0.0
 10
257.1963922930169
 20
417.4227636235103
 30
0.0
 10
257.1927821870859
 20
417.2527038696563
 30
0.0
 10
257.170878361454
 20
416.998385417497
 30
0.0
 10
257.1369647899018
 20
416.7454714615948
 30
0.0
 10
257.0899449091619
 20
416.4946280653186
 30
0.0
 10
257.030258596913
 20
416.246506148235
 30
0.0
 10
256.9579761570106
 20
416.0017521590508
 30
0.0
 10
256.8733085447763
 20
415.7610030789846
 30
0.0
 10
256.7764700543574
 20
415.524885651558
 30
0.0
 10
256.6677144065631
 20
415.294014513153
 30
0.0
 10
256.5473242691926
 20
415.0689906568446
 30
0.0
 10
256.4156131523383
 20
414.8503998506019
 30
0.0
 10
256.2729238869658
 20
414.6388111179469
 30
0.0
 10
256.1196279225865
 20
414.4347752520533
 30
0.0
 10
255.9561243051882
 20
414.2388233950696
 30
0.0
 10
255.7828386688886
 20
414.0514656076702
 30
0.0
 10
255.6002220613772
 20
413.8731897194229
 30
0.0
 10
255.4087500056363
 20
413.7044593942014
 30
0.0
 10
255.208920385214
 20
413.5457154038674
 30
0.0
 10
255.0012554197932
 20
413.3973652229182
 30
0.0
 10
254.7862880961321
 20
413.2598165189534
 30
0.0
 10
254.5646063475881
 20
413.1333471446958
 30
0.0
 10
254.3366814654352
 20
413.018585650575
 30
0.0
 10
254.1035015378979
 20
412.9147136517873
 30
0.0
 10
253.9439673611273
 20
412.8556850237517
 30
0.0
 10
253.864200272742
 20
412.8261707097339
 30
0.0
  0
SPLINE
  5
93
330
1F
100
AcDbEntity
  8
0
  6
Continuous
 62
     7
370
    30
100
AcDbSpline
210
0.0
220
0.0
230
1.0
 70
    11
 71
     3
 72
   100
 73
    96
 74
     0
 42
0.000000001
 43
0.00000001
 40
0.0
 40
0.0
 40
0.0
 40
0.0
 40
0.01140194495969
 40
0.0228185954031124
 40
0.0342205561910686
 40
0.044926609328189
 40
0.0556691650365256
 40
0.0664241010093012
 40
0.0771666456997226
 40
0.0878726895645072
 40
0.0985673779126569
 40
0.1092985278328136
 40
0.1200420109321387
 40
0.1307730874974625
 40
0.1414677141124938
 40
0.1521706876397301
 40
0.1629102819299882
 40
0.1736622934269756
 40
0.1844018707127491
 40
0.1951048299293773
 40
0.2058259327423759
 40
0.2165837835629662
 40
0.2273541472918968
 40
0.2381120798198062
 40
0.2488332513964576
 40
0.2595549554742288
 40
0.270313292150651
 40
0.2810840932390278
 40
0.2918424942650698
 40
0.3025642524979205
 40
0.3132659507384244
 40
0.32400407651433
 40
0.3347545332347326
 40
0.3454926034829742
 40
0.3561942549933842
 40
0.3668829616454797
 40
0.3776080984315086
 40
0.3883455414735749
 40
0.3990705745585253
 40
0.4097591939391561
 40
0.420460386695501
 40
0.4311982221065077
 40
0.4419484882723189
 40
0.4526863180697199
 40
0.4633875061017588
 40
0.4741089521312076
 40
0.4848671617301972
 40
0.4956379003744071
 40
0.5063962118039175
 40
0.5171177435325297
 40
0.5278391293402156
 40
0.5385971425813721
 40
0.5493676186920499
 40
0.5601256965030941
 40
0.5708471366512026
 40
0.5815505134997203
 40
0.59229033705276
 40
0.6030424974809379
 40
0.6137822644632007
 40
0.6244855937037125
 40
0.6351801964792946
 40
0.6459112773881504
 40
0.6566546906342782
 40
0.6673856864192765
 40
0.6780802175571821
 40
0.6887858940565583
 40
0.6995282186929419
 40
0.710282983262372
 40
0.7210253162114941
 40
0.7317309997067069
 40
0.7424479554938678
 40
0.7532015992610598
 40
0.7639677316659403
 40
0.7747214495920546
 40
0.7854384677899734
 40
0.7961497576470808
 40
0.806897603342497
 40
0.8176578630978274
 40
0.8284057271893386
 40
0.8391170325280803
 40
0.8498172328654203
 40
0.8605539153043462
 40
0.8713029465917549
 40
0.8820395721902051
 40
0.8927397246923662
 40
0.9034414307640892
 40
0.9141797074275564
 40
0.9249303771605079
 40
0.9356686238533445
 40
0.946370304702515
 40
0.9570718126369295
 40
0.9678098671639956
 40
0.9785603480160515
 40
0.989298451155042
 40
1.0
 40
1.0
 40
1.0
 40
1.0
 10
249.6960531656463
 20
363.0845659658334
 30
0.0
 10
249.7266930692897
 20
363.0673982267264
 30
0.0
 10
249.7880123939225
 20
363.0330406066841
 30
0.0
 10
249.8762821558225
 20
362.984029491256
 30
0.0
 10
249.9595471920383
 20
362.9380698932442
 30
0.0
 10
250.0373481778439
 20
362.8953896800012
 30
0.0
 10
250.1097547875154
 20
362.8558682973336
 30
0.0
 10
250.1780738870505
 20
362.8187412566593
 30
0.0
 10
250.2418292667715
 20
362.7842184194402
 30
0.0
 10
250.3006310943037
 20
362.7524662795772
 30
0.0
 10
250.3541563685441
 20
362.7236065663251
 30
0.0
 10
250.4023469031618
 20
362.6976251792192
 30
0.0
 10
250.4450201200886
 20
362.6745845185811
 30
0.0
 10
250.4818728499618
 20
362.6546092553517
 30
0.0
 10
250.5126668374497
 20
362.6377906392719
 30
0.0
 10
250.5371334151724
 20
362.6242288818016
 30
0.0
 10
250.5553301991749
 20
362.6138816055305
 30
0.0
 10
250.5672132888689
 20
362.6067656710682
 30
0.0
 10
250.5726974900236
 20
362.6029194036784
 30
0.0
 10
250.5716940089905
 20
362.602380597772
 30
0.0
 10
250.5640329449477
 20
362.6052277889203
 30
0.0
 10
250.5498910640401
 20
362.6113938499191
 30
0.0
 10
250.5294072139208
 20
362.6208323656033
 30
0.0
 10
250.5027292779714
 20
362.6334943527756
 30
0.0
 10
250.4699410705589
 20
362.649360151773
 30
0.0
 10
250.4310143025515
 20
362.6684734032497
 30
0.0
 10
250.3862353747022
 20
362.6907337318572
 30
0.0
 10
250.335889522346
 20
362.7160372325934
 30
0.0
 10
250.2803337509935
 20
362.7442471468489
 30
0.0
 10
250.2198477537847
 20
362.7752635374267
 30
0.0
 10
250.1545402234347
 20
362.8090859085206
 30
0.0
 10
250.0847592504462
 20
362.8455784391064
 30
0.0
 10
250.0108558259967
 20
362.8845984459243
 30
0.0
 10
249.9333429657788
 20
362.9259223948371
 30
0.0
 10
249.8526152880725
 20
362.9693877930424
 30
0.0
 10
249.7688796490464
 20
363.0149454276871
 30
0.0
 10
249.6824857589316
 20
363.0624299966823
 30
0.0
 10
249.5938494742432
 20
363.1116374815469
 30
0.0
 10
249.503576007126
 20
363.1622633148909
 30
0.0
 10
249.4120649780456
 20
363.2141180274275
 30
0.0
 10
249.3195925222393
 20
363.2670922962856
 30
0.0
 10
249.2264711636061
 20
363.3209985283342
 30
0.0
 10
249.1331917489328
 20
363.3755485858708
 30
0.0
 10
249.0403812188038
 20
363.4303772005331
 30
0.0
 10
248.9484381352861
 20
363.4852560506915
 30
0.0
 10
248.8576813678847
 20
363.5400087600283
 30
0.0
 10
248.768356581499
 20
363.594443274167
 30
0.0
 10
248.6809263767188
 20
363.6482444014425
 30
0.0
 10
248.5959647823889
 20
363.7010284781396
 30
0.0
 10
248.5138947602838
 20
363.7525090928345
 30
0.0
 10
248.4350318173662
 20
363.8024640353284
 30
0.0
 10
248.3595230136759
 20
363.8507347238067
 30
0.0
 10
248.2876814173138
 20
363.8970708478549
 30
0.0
 10
248.2199658469487
 20
363.9411269811061
 30
0.0
 10
248.1567554630653
 20
363.9826132565055
 30
0.0
 10
248.0983243524042
 20
364.0213017061519
 30
0.0
 10
248.0447118741247
 20
364.0571046623225
 30
0.0
 10
247.9960825971454
 20
364.0898657791948
 30
0.0
 10
247.9527415992263
 20
364.1193326196722
 30
0.0
 10
247.914936356511
 20
364.1452949886914
 30
0.0
 10
247.8828924889371
 20
364.1675526863464
 30
0.0
 10
247.8565605428396
 20
364.1861046652731
 30
0.0
 10
247.8360006702448
 20
364.2008841543777
 30
0.0
 10
247.8213417843608
 20
364.2117746594989
 30
0.0
 10
247.8126950769466
 20
364.2186748845988
 30
0.0
 10
247.8102305799588
 20
364.2214441240916
 30
0.0
 10
247.8138237504761
 20
364.2201709784574
 30
0.0
 10
247.8234096509773
 20
364.2149032490843
 30
0.0
 10
247.8389285171995
 20
364.2056835812079
 30
0.0
 10
247.8603686642757
 20
364.1925238108497
 30
0.0
 10
247.8878159790754
 20
364.1753774242803
 30
0.0
 10
247.9210684296723
 20
364.154417264272
 30
0.0
 10
247.9599209003545
 20
364.1298108192685
 30
0.0
 10
248.0041287540743
 20
364.101752236431
 30
0.0
 10
248.0535306847556
 20
364.0703799276924
 30
0.0
 10
248.1081080255182
 20
364.0357511967567
 30
0.0
 10
248.1675904098796
 20
363.9980928366139
 30
0.0
 10
248.2316796976056
 20
363.9576402801538
 30
0.0
 10
248.299969036244
 20
363.9147010629861
 30
0.0
 10
248.3721600787268
 20
363.8695117363252
 30
0.0
 10
248.4481357552935
 20
363.8222068904552
 30
0.0
 10
248.5275869802525
 20
363.7730184776628
 30
0.0
 10
248.6101448230262
 20
363.7222092861368
 30
0.0
 10
248.6952752633461
 20
363.6701477687756
 30
0.0
 10
248.78260952359
 20
363.6171000174333
 30
0.0
 10
248.8719407761754
 20
363.5632433105743
 30
0.0
 10
248.962950504101
 20
363.5087760482634
 30
0.0
 10
249.0551866368356
 20
363.4539758832984
 30
0.0
 10
249.1480360630837
 20
363.3992190164333
 30
0.0
 10
249.2410591063732
 20
363.3447799205042
 30
0.0
 10
249.3339625821871
 20
363.2908516655839
 30
0.0
 10
249.426464574737
 20
363.2375648960306
 30
0.0
 10
249.5180597466875
 20
363.185195239379
 30
0.0
 10
249.6083341656632
 20
363.1339281349549
 30
0.0
 10
249.6668467533549
 20
363.1010013089544
 30
0.0
 10
249.6960531656463
 20
363.0845659658334
 30
0.0
  0
SPLINE
  5
94
330
1F
100
AcDbEntity
  8
0
  6
Continuous
 62
     7
370
    30
100
AcDbSpline
210
0.0
220
0.0
230
1.0
 70
     8
 71
     3
 72
    15
 73
    11
 74
     0
 42
0.000000001
 43
0.00000001
 40
0.0
 40
0.0
 40
0.0
 40
0.0
 40
0.1249999999999997
 40
0.2500000000000003
 40
0.3749999999999999
 40
0.4999999999999999
 40
0.625
 40
0.7500000000000004
 40
0.8749999999999999
 40
1.0
 40
1.0
 40
1.0
 40
1.0
 10
262.7587496044603
 20
351.3026865132027
 30
0.0
 10
262.382992229009
 20
351.3261850823217
 30
0.0
 10
261.6314774781064
 20
351.3731822205597
 30
0.0
 10
260.5461038824372
 20
351.70919216454
 30
0.0
 10
259.5401867066672
 20
352.2270641419806
 30
0.0
 10
258.6496872161751
 20
352.9278175219085
 30
0.0
 10
257.9045554266833
 20
353.7815289827289
 30
0.0
 10
257.336199008559
 20
354.7598089689824
 30
0.0
 10
256.945428671372
 20
355.826690906314
 30
0.0
 10
256.8602751144525
 20
356.5748433129603
 30
0.0
 10
256.8176983359927
 20
356.9489195162835
 30
0.0
  0
SPLINE
  5
95
330
1F
100
AcDbEntity
  8
0
  6
Continuous
 62
     7
370
    30
100
AcDbSpline
210
0.0
220
0.0
230
1.0
 70
     8
 71
     3
 72
    15
 73
    11
 74
     0
 42
0.000000001
 43
0.00000001
 40
0.0
 40
0.0
 40
0.0
 40
0.0
 40
0.1250000000000004
 40
0.2499999999999995
 40
0.3749999999999998
 40
0.4999999999999998
 40
0.6249999999999992
 40
0.75
 40
0.8750000000000002
 40
1.0
 40
1.0
 40
1.0
 40
1.0
 10
268.7917461670276
 20
356.8711389852102
 30
0.0
 10
268.7441694316488
 20
356.4968600875065
 30
0.0
 10
268.6490159608913
 20
355.7483022920992
 30
0.0
 10
268.2428940441011
 20
354.6845565765776
 30
0.0
 10
267.6596756243019
 20
353.7122518153965
 30
0.0
 10
266.9007230345002
 20
352.8675456561344
 30
0.0
 10
265.9980387494777
 20
352.1785619040507
 30
0.0
 10
264.9822153113531
 20
351.6749519196728
 30
0.0
 10
263.8894035324606
 20
351.355182667709
 30
0.0
 10
263.135634247127
 20
351.3201852313715
 30
0.0
 10
262.7587496044603
 20
351.3026865132027
 30
0.0
  0
SPLINE
  5
96
330
1F
100
AcDbEntity
  8
0
  6
Continuous
 62
     7
370
    30
100
AcDbSpline
210
0.0
220
0.0
230
1.0
 70
     8
 71
     3
 72
    15
 73
    11
 74
     0
 42
0.000000001
 43
0.00000001
 40
0.0
 40
0.0
 40
0.0
 40
0.0
 40
0.1205694855720855
 40
0.2448600495291063
 40
0.3717609388006232
 40
0.5000079027896533
 40
0.6282538004850953
 40
0.755151557552741
 40
0.8794371132759429
 40
1.0
 40
1.0
 40
1.0
 40
1.0
 10
253.5586217675441
 20
361.076164104958
 30
0.0
 10
253.7701796814122
 20
360.9893671955091
 30
0.0
 10
254.1998247198913
 20
360.8130946050956
 30
0.0
 10
254.7973480046905
 20
360.4342616013761
 30
0.0
 10
255.3492901212515
 20
359.9711139364887
 30
0.0
 10
255.832494544961
 20
359.4256270305447
 30
0.0
 10
256.2320653669226
 20
358.8162199758611
 30
0.0
 10
256.5341409710126
 20
358.1621008921104
 30
0.0
 10
256.7428950944792
 20
357.4861326692561
 30
0.0
 10
256.8002457080739
 20
357.025305863774
 30
0.0
 10
256.8284850362936
 20
356.7983956600846
 30
0.0
  0
LWPOLYLINE
  5
97
330
1F
100
AcDbEntity
  8
0
  6
Continuous
 62
     7
370
    30
100
AcDbPolyline
 90
        3
 70
   128
 43
0.0
 10
256.8178219123
 20
356.9468322858
 10
256.8233267687
 20
356.8638509792
 10
256.8284850363
 20
356.7983956601
  0
SPLINE
  5
98
330
1F
100
AcDbEntity
  8
0
  6
Continuous
 62
     7
370
    30
100
AcDbSpline
210
0.0
220
0.0
230
1.0
 70
     8
 71
     3
 72
    15
 73
    11
 74
     0
 42
0.000000001
 43
0.00000001
 40
0.0
 40
0.0
 40
0.0
 40
0.0
 40
0.1205628867241647
 40
0.2448484424474584
 40
0.3717461995151727
 40
0.4999920972106398
 40
0.6282390611996547
 40
0.7551399504711125
 40
0.879430514428037
 40
1.0
 40
1.0
 40
1.0
 40
1.0
 10
268.7790053147783
 20
356.7207719514474
 30
0.0
 10
268.810189892308
 20
356.9472961716118
 30
0.0
 10
268.8735219461762
 20
357.4073390918745
 30
0.0
 10
269.0910394868478
 20
358.0805384990894
 30
0.0
 10
269.4015868069908
 20
358.7306783365598
 30
0.0
 10
269.8090402958384
 20
359.334843425329
 30
0.0
 10
270.2992899876004
 20
359.8740073330384
 30
0.0
 10
270.8572019606884
 20
360.3299460238834
 30
0.0
 10
271.4595959830757
 20
360.7009850546822
 30
0.0
 10
271.8914946033515
 20
360.871661552843
 30
0.0
 10
272.1041621845518
 20
360.9557029373892
 30
0.0
  0
LWPOLYLINE
  5
99
330
1F
100
AcDbEntity
  8
0
  6
Continuous
 62
     7
370
    30
100
AcDbPolyline
 90
        3
 70
   128
 43
0.0
 10
268.7790053148
 20
356.7207719514
 10
268.786523761
 20
356.8039490137
 10
268.7915957756
 20
356.8690575353
  0
CIRCLE
  5
9A
330
1F
100
AcDbEntity
  8
0
  6
Continuous
 62
     7
370
    30
100
AcDbCircle
 10
263.0
 20
386.9738997765
 30
0.0
 40
7.499999999999996
  0
LINE
  5
9B
330
1F
100
AcDbEntity
  8
0
  6
Continuous
 62
     7
370
    30
100
AcDbLine
 10
445.7623331224
 20
359.4238997765
 30
0.0
 11
453.9173184236
 21
359.4238997765
 31
0.0
  0
LINE
  5
9C
330
1F
100
AcDbEntity
  8
0
  6
Continuous
 62
     7
370
    30
100
AcDbLine
 10
453.9173184236
 20
414.5238997765
 30
0.0
 11
445.7623331224
 21
414.5238997765
 31
0.0
  0
ARC
  5
9D
330
1F
100
AcDbEntity
  8
0
  6
Continuous
 62
     7
370
    30
100
AcDbCircle
 10
453.9173184236
 20
360.9238997765
 30
0.0
 40
1.5
100
AcDbArc
 50
270.0
 51
0.0
  0
ARC
  5
9E
330
1F
100
AcDbEntity
  8
0
  6
Continuous
 62
     7
370
    30
100
AcDbCircle
 10
453.9173184236
 20
413.0238997765
 30
0.0
 40
1.5
100
AcDbArc
 50
0.0
 51
90.0
  0
LINE
  5
9F
330
1F
100
AcDbEntity
  8
0
  6
Continuous
 62
     7
370
    30
100
AcDbLine
 10
455.4173184236
 20
364.9738997765
 30
0.0
 11
456.4673187085
 21
364.9738997765
 31
0.0
  0
LINE
  5
A0
330
1F
100
AcDbEntity
  8
0
  6
Continuous
 62
     7
370
    30
100
AcDbLine
 10
456.4673187085
 20
408.9738997765
 30
0.0
 11
455.4173184236
 21
408.9738997765
 31
0.0
  0
ARC
  5
A1
330
1F
100
AcDbEntity
  8
0
  6
Continuous
 62
     7
370
    30
100
AcDbCircle
 10
432.4673184252
 20
471.474071114
 30
0.0
 40
0.5
100
AcDbArc
 50
88.5
 51
180.0
  0
LINE
  5
A2
330
1F
100
AcDbEntity
  8
0
  6
Continuous
 62
     7
370
    30
100
AcDbLine
 10
434.4673184252
 20
302.0259288863
 30
0.0
 11
442.2074553507
 21
302.2286115045
 31
0.0
  0
LINE
  5
A3
330
1F
100
AcDbEntity
  8
0
  6
Continuous
 62
     7
370
    30
100
AcDbLine
 10
442.2074553507
 20
471.7191880486
 30
0.0
 11
432.4804068994
 21
471.9738997762
 31
0.0
  0
ARC
  5
A4
330
1F
100
AcDbEntity
  8
0
  6
Continuous
 62
     7
370
    30
100
AcDbCircle
 10
442.1551014557
 20
304.2279261544
 30
0.0
 40
1.999999999999978
100
AcDbArc
 50
271.4999999801
 51
357.4907349571
  0
ARC
  5
A5
330
1F
100
AcDbEntity
  8
0
  6
Continuous
 62
     7
370
    30
100
AcDbCircle
 10
442.155101454
 20
469.7198733988
 30
0.0
 40
2.000000000000013
100
AcDbArc
 50
2.5092650441
 51
88.500000021
  0
ARC
  5
A6
330
1F
100
AcDbEntity
  8
0
  6
Continuous
 62
     7
370
    30
100
AcDbCircle
 10
-1446.0326815348
 20
386.9738997578
 30
0.0
 40
1891.999999997577
100
AcDbArc
 50
357.490734954
 51
359.1565829292
  0
ARC
  5
A7
330
1F
100
AcDbEntity
  8
0
  6
Continuous
 62
     7
370
    30
100
AcDbCircle
 10
-1446.0326815348
 20
386.9738997578
 30
0.0
 40
1891.999999997737
100
AcDbArc
 50
0.8434170714
 51
2.5092650471
  0
LINE
  5
A8
330
1F
100
AcDbEntity
  8
0
  6
Continuous
 62
     7
370
    30
100
AcDbLine
 10
496.1190908015
 20
359.75047761
 30
0.0
 11
496.5990983787
 21
359.7546665726
 31
0.0
  0
LINE
  5
A9
330
1F
100
AcDbEntity
  8
0
  6
Continuous
 62
     7
370
    30
100
AcDbLine
 10
462.7189819179
 20
414.4888002772
 30
0.0
 11
457.0156375891
 21
414.5385726091
 31
0.0
  0
ARC
  5
AA
330
1F
100
AcDbEntity
  8
0
  6
Continuous
 62
     7
370
    30
100
AcDbCircle
 10
456.9673187085
 20
414.0389752424
 30
0.0
 40
0.5000000000000345
100
AcDbArc
 50
89.5
 51
180.0
  0
ARC
  5
AB
330
1F
100
AcDbEntity
  8
0
  6
Continuous
 62
     7
370
    30
100
AcDbCircle
 10
496.6131287548
 20
361.754865171
 30
0.0
 40
2.000000000000032
100
AcDbArc
 50
270.5
 51
358.3907190999
  0
ARC
  5
AC
330
1F
100
AcDbEntity
  8
0
  6
Continuous
 62
     7
370
    30
100
AcDbCircle
 10
-401.0326812915
 20
386.9738997765
 30
0.0
 40
900.0000000000008
100
AcDbArc
 50
0.4870199905
 51
2.3933842775
  0
ARC
  5
AD
330
1F
100
AcDbEntity
  8
0
  6
Continuous
 62
     7
370
    30
100
AcDbCircle
 10
-401.0326812915
 20
386.9738997765
 30
0.0
 40
900.0000000000007
100
AcDbArc
 50
358.3907814688
 51
359.455681907
  0
SPLINE
  5
AE
330
1F
100
AcDbEntity
  8
0
  6
Continuous
 62
     7
370
    30
100
AcDbSpline
210
0.0
220
0.0
230
1.0
 70
     8
 71
     3
 72
    52
 73
    48
 74
     0
 42
0.000000001
 43
0.00000001
 40
0.0
 40
0.0
 40
0.0
 40
0.0
 40
0.029769492002367
 40
0.0589001357119144
 40
0.0873397105864758
 40
0.1150391538566628
 40
0.1419527523152935
 40
0.1680382464174421
 40
0.1918399204118149
 40
0.2148412920573193
 40
0.2370154488312769
 40
0.2583381352706017
 40
0.2787876584947875
 40
0.2995009119434914
 40
0.319190218173265
 40
0.3378381769903211
 40
0.3554299021907913
 40
0.3719528006925502
 40
0.3873963481438417
 40
0.4009610130831682
 40
0.4135524775104661
 40
0.4252395940932848
 40
0.4374053763222636
 40
0.4505752651426722
 40
0.4656404647848291
 40
0.4818339663048113
 40
0.499153291969325
 40
0.5175943500703912
 40
0.5371511537431727
 40
0.5578155291372926
 40
0.5783040651084589
 40
0.5997565726244981
 40
0.6221594347949488
 40
0.6454964005553672
 40
0.6697483782382856
 40
0.6935379044899497
 40
0.7181067629387707
 40
0.7434308798337496
 40
0.7694834405881618
 40
0.7962348416469099
 40
0.8236526749652245
 40
0.8517017484158357
 40
0.880344144868148
 40
0.9095393219444664
 40
0.9392442535680735
 40
0.9694136133967551
 40
1.0
 40
1.0
 40
1.0
 40
1.0
 10
491.3099379376248
 20
355.9130601298634
 30
0.0
 10
491.3259757012341
 20
355.9769645958269
 30
0.0
 10
491.3577070607422
 20
356.1034021486595
 30
0.0
 10
491.4140286763851
 20
356.2883675430591
 30
0.0
 10
491.4753643620657
 20
356.4668523874778
 30
0.0
 10
491.5416733347539
 20
356.6383118206308
 30
0.0
 10
491.6120653862158
 20
356.8024729371024
 30
0.0
 10
491.6845203655616
 20
356.9562473546036
 30
0.0
 10
491.7580749573671
 20
357.099826238999
 30
0.0
 10
491.8318702763204
 20
357.2334706364952
 30
0.0
 10
491.9068442794566
 20
357.3601187480482
 30
0.0
 10
491.9824269640506
 20
357.4797726530074
 30
0.0
 10
492.0594956926972
 20
357.5945982123441
 30
0.0
 10
492.1375778368952
 20
357.7043298195684
 30
0.0
 10
492.2161758111516
 20
357.80874033067
 30
0.0
 10
492.29311057829
 20
357.9057033545834
 30
0.0
 10
492.3678682952743
 20
357.9954028151398
 30
0.0
 10
492.4399748078825
 20
358.0780414075899
 30
0.0
 10
492.5078173615892
 20
358.1525407620574
 30
0.0
 10
492.5710999021311
 20
358.219399528029
 30
0.0
 10
492.6297147175546
 20
358.2792113077477
 30
0.0
 10
492.6870833818441
 20
358.3358942324201
 30
0.0
 10
492.7462653692944
 20
358.3925450474525
 30
0.0
 10
492.8118760551293
 20
358.4532681925538
 30
0.0
 10
492.8852653680932
 20
358.5186798497257
 30
0.0
 10
492.9669735763975
 20
358.5885185086595
 30
0.0
 10
493.0559977681306
 20
358.6612464591899
 30
0.0
 10
493.1525941155875
 20
358.7364091926025
 30
0.0
 10
493.2570068372893
 20
358.8135064626708
 30
0.0
 10
493.3671528260261
 20
358.8903800346297
 30
0.0
 10
493.4828560577461
 20
358.9665190533026
 30
0.0
 10
493.6039012535247
 20
359.0414302863231
 30
0.0
 10
493.7325243981184
 20
359.115943645
 30
0.0
 10
493.8687963020521
 20
359.1894565626063
 30
0.0
 10
494.0100615562177
 20
359.2599974848891
 30
0.0
 10
494.1559705735721
 20
359.327134113424
 30
0.0
 10
494.3061378318891
 20
359.3904731440977
 30
0.0
 10
494.4629861525547
 20
359.4505945298558
 30
0.0
 10
494.6263479890265
 20
359.5069038840032
 30
0.0
 10
494.796000287864
 20
359.5588065567561
 30
0.0
 10
494.9716625556305
 20
359.6057130588612
 30
0.0
 10
495.1529955799271
 20
359.6470515749641
 30
0.0
 10
495.3396013708339
 20
359.6822550981367
 30
0.0
 10
495.5310237258773
 20
359.7108481324733
 30
0.0
 10
495.7267518917048
 20
359.7321519208792
 30
0.0
 10
495.9262182385021
 20
359.7464505948463
 30
0.0
 10
496.0604404482958
 20
359.7491838587443
 30
0.0
 10
496.1280122030777
 20
359.75055987124
 30
0.0
  0
SPLINE
  5
AF
330
1F
100
AcDbEntity
  8
0
  6
Continuous
 62
     7
370
    30
100
AcDbSpline
210
0.0
220
0.0
230
1.0
 70
     8
 71
     3
 72
    58
 73
    54
 74
     0
 42
0.000000001
 43
0.00000001
 40
0.0
 40
0.0
 40
0.0
 40
0.0
 40
0.0258482865114698
 40
0.0513219995389081
 40
0.0763731912714638
 40
0.1009557189099549
 40
0.1250255059644698
 40
0.1485407617344585
 40
0.1714621568287636
 40
0.1937529539357683
 40
0.2153790943263494
 40
0.2363092417145296
 40
0.2565147860760571
 40
0.2759698108098596
 40
0.2939189551794275
 40
0.311136531259206
 40
0.3276061910838786
 40
0.343313532857999
 40
0.3582459783995981
 40
0.3723926420391666
 40
0.3857441939871419
 40
0.39950309448603
 40
0.4122816131364342
 40
0.4241472707705356
 40
0.4365028491254541
 40
0.4498824282554065
 40
0.4629342639106875
 40
0.4768313326356203
 40
0.4915715949962862
 40
0.5071517780807139
 40
0.523567185664732
 40
0.5408115031098949
 40
0.5588765995839058
 40
0.5761487792133301
 40
0.5940927170887627
 40
0.6126972982423907
 40
0.6319496160093545
 40
0.6518348689450743
 40
0.6723362704855688
 40
0.6928796188790617
 40
0.7139703112517086
 40
0.735587067087127
 40
0.7577066601106716
 40
0.7803039304695167
 40
0.8033518210248478
 40
0.826821438999742
 40
0.8506821437309622
 40
0.87490166070467
 40
0.8994462214310968
 40
0.9242807280521301
 40
0.9493689409032056
 40
0.9746736865948044
 40
1.0
 40
1.0
 40
1.0
 40
1.0
 10
467.7512658770636
 20
419.4880228114019
 30
0.0
 10
467.7504647355817
 20
419.4199816922512
 30
0.0
 10
467.748874062144
 20
419.2848854535071
 30
0.0
 10
467.7361641310715
 20
419.0841785314813
 30
0.0
 10
467.7163760577299
 20
418.8874368094102
 30
0.0
 10
467.6892570047208
 20
418.6952879613091
 30
0.0
 10
467.6555344878524
 20
418.508302709116
 30
0.0
 10
467.6157380124016
 20
418.3269903093901
 30
0.0
 10
467.57049462865
 20
418.1517956554875
 30
0.0
 10
467.5204403990253
 20
417.9830978582955
 30
0.0
 10
467.4662317977503
 20
417.8212102720657
 30
0.0
 10
467.4085317134917
 20
417.6663817861236
 30
0.0
 10
467.3480027925838
 20
417.5187994228417
 30
0.0
 10
467.2860863568198
 20
417.3803507253284
 30
0.0
 10
467.2235314750627
 20
417.2508773574717
 30
0.0
 10
467.1610201731152
 20
417.1301710089826
 30
0.0
 10
467.0981732373328
 20
417.0163380816041
 30
0.0
 10
467.0354953403365
 20
416.9093306764144
 30
0.0
 10
466.973464954175
 20
416.8090725679941
 30
0.0
 10
466.9125324869923
 20
416.7154636541147
 30
0.0
 10
466.8513236397812
 20
416.6257529446929
 30
0.0
 10
466.7903010015469
 20
416.5403035922135
 30
0.0
 10
466.7298414896239
 20
416.4592878822475
 30
0.0
 10
466.6700839277639
 20
416.3823818325298
 30
0.0
 10
466.6078730255368
 20
416.3054036786004
 30
0.0
 10
466.5420999914899
 20
416.2273185617343
 30
0.0
 10
466.4720354468391
 20
416.1475773856546
 30
0.0
 10
466.397870080231
 20
416.0667064062347
 30
0.0
 10
466.3172883490187
 20
415.9827323554863
 30
0.0
 10
466.2300178214335
 20
415.8960409912806
 30
0.0
 10
466.1357945623885
 20
415.8070575585096
 30
0.0
 10
466.0343684967718
 20
415.7162478814909
 30
0.0
 10
465.9287301528158
 20
415.6268448927971
 30
0.0
 10
465.8192050775389
 20
415.5392773572005
 30
0.0
 10
465.7061561620971
 20
415.4539341778964
 30
0.0
 10
465.5864460288191
 20
415.3688711592288
 30
0.0
 10
465.4599984228491
 20
415.2845916104037
 30
0.0
 10
465.3267730197084
 20
415.201621745895
 30
0.0
 10
465.1880337703803
 20
415.1212399456898
 30
0.0
 10
465.0439738108337
 20
415.0438978439982
 30
0.0
 10
464.8948243708318
 20
414.9700315191465
 30
0.0
 10
464.7394984729441
 20
414.8995231808704
 30
0.0
 10
464.5781734850025
 20
414.8329087484121
 30
0.0
 10
464.4110764659519
 20
414.7707193202115
 30
0.0
 10
464.2384849998674
 20
414.7134753050667
 30
0.0
 10
464.0607273195031
 20
414.6616798493279
 30
0.0
 10
463.8781815373272
 20
414.6158139459034
 30
0.0
 10
463.6912738683083
 20
414.5763244148788
 30
0.0
 10
463.500476215405
 20
414.5436391745436
 30
0.0
 10
463.3063015884873
 20
414.518079435802
 30
0.0
 10
463.1093032428374
 20
414.5001649789888
 30
0.0
 10
462.910467931475
 20
414.4894546510812
 30
0.0
 10
462.7773798667294
 20
414.4890660151356
 30
0.0
 10
462.7108074880677
 20
414.4888716143877
 30
0.0
  0
LINE
  5
B0
330
1F
100
AcDbEntity
  8
0
  6
Continuous
 62
     7
370
    30
100
AcDbLine
 10
457.011260527
 20
351.3024903115
 30
0.0
 11
485.4753225027
 21
351.3024903115
 31
0.0
  0
ARC
  5
B1
330
1F
100
AcDbEntity
  8
0
  6
Continuous
 62
     7
370
    30
100
AcDbCircle
 10
456.9673187085
 20
351.8024903115
 30
0.0
 40
0.5
100
AcDbArc
 50
180.0
 51
270.0
  0
ARC
  5
B2
330
1F
100
AcDbEntity
  8
0
  6
Continuous
 62
     7
370
    30
100
AcDbCircle
 10
485.4753225027
 20
357.3120431232
 30
0.0
 40
5.999992498926351
100
AcDbArc
 50
270.0
 51
346.5397291537
  0
LINE
  5
B3
330
1F
100
AcDbEntity
  8
0
  6
Continuous
 62
     7
370
    30
100
AcDbLine
 10
467.7512612164
 20
420.4913139159
 30
0.0
 11
467.7512612164
 21
419.487818914
 31
0.0
  0
LINE
  5
B4
330
1F
100
AcDbEntity
  8
0
  6
Continuous
 62
     7
370
    30
100
AcDbLine
 10
496.183689907
 20
426.4817865111
 30
0.0
 11
473.7512507842
 21
426.4817865111
 31
0.0
  0
SPLINE
  5
B5
330
1F
100
AcDbEntity
  8
0
  6
Continuous
 62
     7
370
    30
100
AcDbSpline
210
0.0
220
0.0
230
1.0
 70
     8
 71
     3
 72
    40
 73
    36
 74
     0
 42
0.000000001
 43
0.00000001
 40
0.0
 40
0.0
 40
0.0
 40
0.0
 40
0.0359877038750902
 40
0.0710619561402864
 40
0.105126688838079
 40
0.1380953956306736
 40
0.1698931373531895
 40
0.2004585733371346
 40
0.2297460633865461
 40
0.2577278999678831
 40
0.284396736750973
 40
0.3097772023705522
 40
0.3346409771115852
 40
0.3594504631533371
 40
0.3841857696558104
 40
0.4088273245569511
 40
0.4333559618976008
 40
0.4577530045322448
 40
0.4938992498276452
 40
0.5296542703777909
 40
0.5649664315444817
 40
0.5868148584822024
 40
0.6107975217377221
 40
0.636880389244445
 40
0.6650184015567139
 40
0.6923339086546384
 40
0.7212468947301893
 40
0.7516933256704643
 40
0.7835980131110606
 40
0.8168742194180133
 40
0.8514235539757671
 40
0.8871362061205851
 40
0.9238915475215491
 40
0.9615591195433774
 40
1.0
 40
1.0
 40
1.0
 40
1.0
 10
498.182151616804
 20
424.5595431280443
 30
0.0
 10
498.1801591379469
 20
424.594805116335
 30
0.0
 10
498.1762247539792
 20
424.6644340616555
 30
0.0
 10
498.163696078349
 20
424.7673511650917
 30
0.0
 10
498.1467907373819
 20
424.8670225733649
 30
0.0
 10
498.1254697236539
 20
424.9630609755204
 30
0.0
 10
498.1003239563977
 20
425.0551306136501
 30
0.0
 10
498.0718275181283
 20
425.1429605856228
 30
0.0
 10
498.0405136907834
 20
425.2263409390532
 30
0.0
 10
498.0069145222553
 20
425.3051222500818
 30
0.0
 10
497.9715625307204
 20
425.3792133326967
 30
0.0
 10
497.9346155751718
 20
425.449250492628
 30
0.0
 10
497.8959396246751
 20
425.5161369277591
 30
0.0
 10
497.8550816448455
 20
425.580932332711
 30
0.0
 10
497.8119049665015
 20
425.6439292105366
 30
0.0
 10
497.7665311435977
 20
425.7050032658387
 30
0.0
 10
497.7190897181928
 20
425.7640406324022
 30
0.0
 10
497.6616918706734
 20
425.8301888248284
 30
0.0
 10
497.5932681792308
 20
425.9019735089639
 30
0.0
 10
497.5127761473199
 20
425.9775406687809
 30
0.0
 10
497.4395281659989
 20
426.039108985351
 30
0.0
 10
497.3732751729324
 20
426.0899837300007
 30
0.0
 10
497.3129956135373
 20
426.1329698038569
 30
0.0
 10
497.245684550408
 20
426.1771488642835
 30
0.0
 10
497.1736349520571
 20
426.2202358772726
 30
0.0
 10
497.097247085515
 20
426.2615857661602
 30
0.0
 10
497.0169962167637
 20
426.3006231108217
 30
0.0
 10
496.9306990780262
 20
426.3378146091467
 30
0.0
 10
496.8385024657115
 20
426.3723888115599
 30
0.0
 10
496.7406547130913
 20
426.4035674659853
 30
0.0
 10
496.6375125149235
 20
426.430567976651
 30
0.0
 10
496.5295443606271
 20
426.4526877785039
 30
0.0
 10
496.4173293154558
 20
426.4690768669769
 30
0.0
 10
496.3015508934695
 20
426.4797309267012
 30
0.0
 10
496.2232032978785
 20
426.481071800187
 30
0.0
 10
496.1836314703336
 20
426.4817490489773
 30
0.0
  0
ARC
  5
B6
330
1F
100
AcDbEntity
  8
0
  6
Continuous
 62
     7
370
    30
100
AcDbCircle
 10
473.7512507842
 20
420.481786511
 30
0.0
 40
5.999992498926397
100
AcDbArc
 50
90.0000040693
 51
179.9089905553
  0
LINE
  5
B7
330
1F
100
AcDbEntity
  8
0
  6
Continuous
 62
     7
370
    30
100
AcDbLine
 10
498.9337361882
 20
379.4738997765
 30
0.0
 11
498.9672197085
 21
379.4738997765
 31
0.0
  0
LINE
  5
B8
330
1F
100
AcDbEntity
  8
0
  6
Continuous
 62
     7
370
    30
100
AcDbLine
 10
498.9672197085
 20
394.4738997765
 30
0.0
 11
498.9348056213
 21
394.4738997765
 31
0.0
  0
ARC
  5
B9
330
1F
100
AcDbEntity
  8
0
  6
Continuous
 62
     7
370
    30
100
AcDbCircle
 10
199.0609843615
 20
386.9738997765
 30
0.0
 40
300.0000000000001
100
AcDbArc
 50
358.5674562624
 51
1.4325437376
  0
LINE
  5
BA
330
1F
100
AcDbEntity
  8
0
  6
Continuous
 62
     7
370
    30
100
AcDbLine
 10
455.4173184236
 20
360.9238997765
 30
0.0
 11
455.4173184236
 21
413.0238997765
 31
0.0
  0
SPLINE
  5
BB
330
1F
100
AcDbEntity
  8
0
  6
Continuous
 62
     7
370
    30
100
AcDbSpline
210
0.0
220
0.0
230
1.0
 70
     8
 71
     3
 72
    20
 73
    16
 74
     0
 42
0.000000001
 43
0.00000001
 40
0.0
 40
0.0
 40
0.0
 40
0.0
 40
0.0799909111182874
 40
0.1599834311261347
 40
0.2399764137685874
 40
0.3199684378172959
 40
0.3999609305444951
 40
0.4799548666065425
 40
0.5599484785387858
 40
0.6332826940395407
 40
0.7066171997002222
 40
0.7799524360126168
 40
0.8532871661754002
 40
0.9266245283770239
 40
1.0
 40
1.0
 40
1.0
 40
1.0
 10
431.9673184252352
 20
302.687014936348
 30
0.0
 10
431.9681056007823
 20
302.6656573880572
 30
0.0
 10
431.9696799677092
 20
302.6229418619025
 30
0.0
 10
431.9823365669329
 20
302.5599097741293
 30
0.0
 10
432.00230156629
 20
302.4989388904991
 30
0.0
 10
432.0299884190593
 20
302.44101417516
 30
0.0
 10
432.0647471800439
 20
302.3870695710917
 30
0.0
 10
432.1060675958774
 20
302.337975487165
 30
0.0
 10
432.1519629370969
 20
302.2957302848964
 30
0.0
 10
432.2011790350296
 20
302.2604424374143
 30
0.0
 10
432.2526100852913
 20
302.2320039128737
 30
0.0
 10
432.3070031951684
 20
302.2097291376993
 30
0.0
 10
432.3636160319189
 20
302.1940969183867
 30
0.0
 10
432.4216999576124
 20
302.1847027021769
 30
0.0
 10
432.4608345303274
 20
302.1842545160305
 30
0.0
 10
432.4804068993893
 20
302.1840303647481
 30
0.0
  0
LINE
  5
BC
330
1F
100
AcDbEntity
  8
0
  6
Continuous
 62
     7
370
    30
100
AcDbLine
 10
431.9673184252
 20
302.6870149363
 30
0.0
 11
431.9673184252
 21
471.474071114
 31
0.0
  0
LINE
  5
BD
330
1F
100
AcDbEntity
  8
0
  6
Continuous
 62
     7
370
    30
100
AcDbLine
 10
434.4673184252
 20
302.1685272987
 30
0.0
 11
434.4673184252
 21
302.0259288861
 31
0.0
  0
SPLINE
  5
BE
330
1F
100
AcDbEntity
  8
0
  6
Continuous
 62
     7
370
    30
100
AcDbSpline
210
0.0
220
0.0
230
1.0
 70
     8
 71
     3
 72
    25
 73
    21
 74
     0
 42
0.000000001
 43
0.00000001
 40
0.0
 40
0.0
 40
0.0
 40
0.0
 40
0.0552765880461905
 40
0.1107507068081219
 40
0.1662247223463694
 40
0.2215011691299563
 40
0.2767772845310975
 40
0.3322508342872554
 40
0.387724612565559
 40
0.4430010407006064
 40
0.4982937397347069
 40
0.55378336034672
 40
0.6092733668547988
 40
0.6645665939842414
 40
0.7199588434483969
 40
0.7755482436682991
 40
0.8311379746729384
 40
0.8865306768121278
 40
0.9432653183284112
 40
1.0
 40
1.0
 40
1.0
 40
1.0
 10
433.5196543814675
 20
302.2074910127373
 30
0.0
 10
433.5475674390361
 20
302.2080726619894
 30
0.0
 10
433.6034933013976
 20
302.2092380390154
 30
0.0
 10
433.6863714365292
 20
302.2103381108549
 30
0.0
 10
433.7677526069453
 20
302.2109662800494
 30
0.0
 10
433.8469300206096
 20
302.2110703211202
 30
0.0
 10
433.9233576999217
 20
302.2106526096826
 30
0.0
 10
433.9966506524543
 20
302.2097370252923
 30
0.0
 10
434.0662448964166
 20
302.2083448555921
 30
0.0
 10
434.1315541264358
 20
302.2064923012351
 30
0.0
 10
434.192050310716
 20
302.204188190486
 30
0.0
 10
434.2475058579591
 20
302.2014701332785
 30
0.0
 10
434.2975115678019
 20
302.1983732926195
 30
0.0
 10
434.3416485790574
 20
302.1949277191971
 30
0.0
 10
434.3794695064396
 20
302.1911554025419
 30
0.0
 10
434.4109000286189
 20
302.1870948172783
 30
0.0
 10
434.435771733402
 20
302.1827900631413
 30
0.0
 10
434.453778510404
 20
302.1782414181305
 30
0.0
 10
434.4651648023012
 20
302.1734889786927
 30
0.0
 10
434.4666005507546
 20
302.170181192507
 30
0.0
 10
434.4673184252354
 20
302.1685272988288
 30
0.0
  0
LINE
  5
BF
330
1F
100
AcDbEntity
  8
0
  6
Continuous
 62
     7
370
    30
100
AcDbLine
 10
432.4804068994
 20
302.1840303647
 30
0.0
 11
433.5196543815
 21
302.2074910125
 31
0.0
  0
LINE
  5
C0
330
1F
100
AcDbEntity
  8
0
  6
Continuous
 62
     7
370
    30
100
AcDbLine
 10
445.7623331224
 20
414.8238997765
 30
0.0
 11
445.7623331224
 21
359.1238997765
 31
0.0
  0
LINE
  5
C1
330
1F
100
AcDbEntity
  8
0
  6
Continuous
 62
     7
370
    30
100
AcDbLine
 10
456.9716819763
 20
414.5389562039
 30
0.0
 11
456.9716819763
 21
414.5389211507
 31
0.0
  0
SPLINE
  5
C2
330
1F
100
AcDbEntity
  8
0
  6
Continuous
 62
     7
370
    30
100
AcDbSpline
210
0.0
220
0.0
230
1.0
 70
    11
 71
     3
 72
   100
 73
    96
 74
     0
 42
0.000000001
 43
0.00000001
 40
0.0
 40
0.0
 40
0.0
 40
0.0
 40
0.01140194495969
 40
0.0228185954031133
 40
0.034220556191068
 40
0.0449266093281885
 40
0.0556691650365268
 40
0.0664241010093009
 40
0.0771666456997241
 40
0.0878726895645066
 40
0.0985673779126587
 40
0.109298527832813
 40
0.1200420109321404
 40
0.1307730874974641
 40
0.1414677141124929
 40
0.1521706876397319
 40
0.1629102819299925
 40
0.1736622934269772
 40
0.1844018707127535
 40
0.1951048299293762
 40
0.2058259327423776
 40
0.216583783562965
 40
0.2273541472918984
 40
0.2381120798198052
 40
0.248833251396459
 40
0.2595549554742279
 40
0.2703132921506524
 40
0.2810840932390316
 40
0.2918424942650688
 40
0.3025642524979197
 40
0.3132659507384234
 40
0.3240040765143312
 40
0.334754533234734
 40
0.3454926034829742
 40
0.3561942549933839
 40
0.3668829616454793
 40
0.3776080984315103
 40
0.3883455414735757
 40
0.3990705745585255
 40
0.4097591939391565
 40
0.420460386695501
 40
0.431198222106508
 40
0.4419484882723191
 40
0.45268631806972
 40
0.4633875061017588
 40
0.4741089521312077
 40
0.4848671617301966
 40
0.4956379003744072
 40
0.5063962118039185
 40
0.5171177435325308
 40
0.5278391293402152
 40
0.5385971425813711
 40
0.5493676186920494
 40
0.5601256965030934
 40
0.5708471366512038
 40
0.5815505134997176
 40
0.5922903370527615
 40
0.6030424974809396
 40
0.6137822644632019
 40
0.6244855937037139
 40
0.6351801964792986
 40
0.6459112773881516
 40
0.6566546906342768
 40
0.6673856864192779
 40
0.6780802175571834
 40
0.6887858940565597
 40
0.6995282186929432
 40
0.7102829832623733
 40
0.7210253162114953
 40
0.7317309997067082
 40
0.7424479554938638
 40
0.7532015992610583
 40
0.7639677316659389
 40
0.7747214495920531
 40
0.7854384677899743
 40
0.7961497576470817
 40
0.8068976033424962
 40
0.8176578630978261
 40
0.8284057271893371
 40
0.839117032528081
 40
0.8498172328654207
 40
0.8605539153043469
 40
0.8713029465917556
 40
0.8820395721902046
 40
0.8927397246923666
 40
0.9034414307640898
 40
0.9141797074275568
 40
0.9249303771605079
 40
0.9356686238533444
 40
0.946370304702515
 40
0.9570718126369295
 40
0.9678098671639958
 40
0.9785603480160513
 40
0.9892984511550421
 40
1.0
 40
1.0
 40
1.0
 40
1.0
 10
482.3002798887859
 20
363.0845659658333
 30
0.0
 10
482.2851946190136
 20
363.0673982267264
 30
0.0
 10
482.2550046234736
 20
363.0330406066841
 30
0.0
 10
482.200322914767
 20
362.984029491256
 30
0.0
 10
482.1403863802142
 20
362.9380698932442
 30
0.0
 10
482.0750880414324
 20
362.8953896800012
 30
0.0
 10
482.0053910127261
 20
362.8558682973337
 30
0.0
 10
481.9302689190885
 20
362.8187412566593
 30
0.0
 10
481.8502306096913
 20
362.7842184194402
 30
0.0
 10
481.7656479593253
 20
362.7524662795772
 30
0.0
 10
481.6766875617519
 20
362.7236065663251
 30
0.0
 10
481.583732666185
 20
362.6976251792192
 30
0.0
 10
481.4872321096491
 20
362.6745845185811
 30
0.0
 10
481.3878301077387
 20
362.6546092553517
 30
0.0
 10
481.2859557373118
 20
362.6377906392719
 30
0.0
 10
481.1818731258128
 20
362.6242288818016
 30
0.0
 10
481.0759574280438
 20
362.6138816055305
 30
0.0
 10
480.968761762941
 20
362.6067656710681
 30
0.0
 10
480.8610053851819
 20
362.6029194036783
 30
0.0
 10
480.7531464239196
 20
362.602380597772
 30
0.0
 10
480.6455297649666
 20
362.6052277889203
 30
0.0
 10
480.5384875894264
 20
362.6113938499191
 30
0.0
 10
480.432591439481
 20
362.6208323656033
 30
0.0
 10
480.3285525465049
 20
362.6334943527756
 30
0.0
 10
480.2268914389931
 20
362.649360151773
 30
0.0
 10
480.127990283514
 20
362.6684734032497
 30
0.0
 10
480.0320923480448
 20
362.6907337318572
 30
0.0
 10
479.9396334268749
 20
362.7160372325934
 30
0.0
 10
479.8512314248707
 20
362.7442471468489
 30
0.0
 10
479.7674016780494
 20
362.7752635374267
 30
0.0
 10
479.6885079665911
 20
362.8090859085206
 30
0.0
 10
479.6146701132079
 20
362.8455784391063
 30
0.0
 10
479.5461492728357
 20
362.8845984459243
 30
0.0
 10
479.4834026081771
 20
362.9259223948371
 30
0.0
 10
479.4268065332435
 20
362.9693877930424
 30
0.0
 10
479.3766788895701
 20
363.0149454276871
 30
0.0
 10
479.3330185180542
 20
363.0624299966823
 30
0.0
 10
479.2959597176089
 20
363.1116374815469
 30
0.0
 10
479.2657515837563
 20
363.1622633148909
 30
0.0
 10
479.2425923411295
 20
363.2141180274275
 30
0.0
 10
479.2267362483579
 20
363.2670922962856
 30
0.0
 10
479.2180735127196
 20
363.3209985283342
 30
0.0
 10
479.2165891216369
 20
363.3755485858707
 30
0.0
 10
479.2222931959802
 20
363.4303772005331
 30
0.0
 10
479.2352294832
 20
363.4852560506915
 30
0.0
 10
479.2555453628455
 20
363.5400087600283
 30
0.0
 10
479.2830189416266
 20
363.594443274167
 30
0.0
 10
479.3174410490649
 20
363.6482444014425
 30
0.0
 10
479.3585787543422
 20
363.7010284781396
 30
0.0
 10
479.4062897177617
 20
363.7525090928345
 30
0.0
 10
479.4605758317985
 20
363.8024640353284
 30
0.0
 10
479.521112982915
 20
363.8507347238067
 30
0.0
 10
479.5875559297804
 20
363.8970708478549
 30
0.0
 10
479.6594594255374
 20
363.9411269811061
 30
0.0
 10
479.7364794465468
 20
363.9826132565055
 30
0.0
 10
479.8184823279137
 20
364.0213017061519
 30
0.0
 10
479.9050886358112
 20
364.0571046623224
 30
0.0
 10
479.9958905471702
 20
364.0898657791948
 30
0.0
 10
480.0902833595897
 20
364.1193326196722
 30
0.0
 10
480.1878166366182
 20
364.1452949886914
 30
0.0
 10
480.2882532345144
 20
364.1675526863464
 30
0.0
 10
480.391210838793
 20
364.1861046652731
 30
0.0
 10
480.4962010285107
 20
364.2008841543777
 30
0.0
 10
480.6025224196518
 20
364.2117746594989
 30
0.0
 10
480.7097090826348
 20
364.2186748845988
 30
0.0
 10
480.8174395801215
 20
364.2214441240916
 30
0.0
 10
480.9253642457556
 20
364.2201709784574
 30
0.0
 10
481.032923993933
 20
364.2149032490843
 30
0.0
 10
481.1393967034566
 20
364.2056835812078
 30
0.0
 10
481.2442917076613
 20
364.1925238108498
 30
0.0
 10
481.3472319220655
 20
364.1753774242803
 30
0.0
 10
481.4479386095439
 20
364.154417264272
 30
0.0
 10
481.5459103841114
 20
364.1298108192685
 30
0.0
 10
481.6404902574539
 20
364.101752236431
 30
0.0
 10
481.7311731046392
 20
364.0703799276925
 30
0.0
 10
481.8175793040845
 20
364.0357511967567
 30
0.0
 10
481.8995424442234
 20
363.9980928366139
 30
0.0
 10
481.9767230284999
 20
363.9576402801538
 30
0.0
 10
482.0486053716391
 20
363.9147010629861
 30
0.0
 10
482.1147725336126
 20
363.8695117363251
 30
0.0
 10
482.1748852330728
 20
363.8222068904552
 30
0.0
 10
482.2289036256919
 20
363.7730184776628
 30
0.0
 10
482.2766415808999
 20
363.7222092861368
 30
0.0
 10
482.3177795059386
 20
363.6701477687756
 30
0.0
 10
482.3520617526686
 20
363.6171000174333
 30
0.0
 10
482.3792132652345
 20
363.5632433105743
 30
0.0
 10
482.3993130020656
 20
363.5087760482634
 30
0.0
 10
482.4123243621505
 20
363.4539758832983
 30
0.0
 10
482.4181588568788
 20
363.3992190164333
 30
0.0
 10
482.4167280117869
 20
363.3447799205042
 30
0.0
 10
482.4078509083321
 20
363.2908516655839
 30
0.0
 10
482.391774505875
 20
363.2375648960306
 30
0.0
 10
482.3684706947898
 20
363.185195239379
 30
0.0
 10
482.33872577896
 20
363.1339281349548
 30
0.0
 10
482.3130806106313
 20
363.1010013089544
 30
0.0
 10
482.3002798887859
 20
363.0845659658333
 30
0.0
  0
LINE
  5
C3
330
1F
100
AcDbEntity
  8
0
  6
Continuous
 62
     7
370
    30
100
AcDbLine
 10
456.4673187085
 20
361.5459028416
 30
0.0
 11
456.4673187085
 21
414.0389752424
 31
0.0
  0
LINE
  5
C4
330
1F
100
AcDbEntity
  8
0
  6
Continuous
 62
     7
370
    30
100
AcDbLine
 10
498.9348056213
 20
394.6238997765
 30
0.0
 11
498.9348056213
 21
379.6031108486
 31
0.0
  0
LWPOLYLINE
  5
C5
330
1F
100
AcDbEntity
  8
0
  6
Continuous
 62
     7
370
    30
100
AcDbPolyline
 90
        9
 70
   128
 43
0.0
 10
498.9267052922
 20
378.6742743594
 10
498.9277702609
 20
378.7903784566
 10
498.9288202503
 20
378.9064826902
 10
498.9298552604
 20
379.0225870583
 10
498.9308752912
 20
379.138691559
 10
498.9318803428
 20
379.2547961903
 10
498.9328704149
 20
379.3709009503
 10
498.9338455078
 20
379.487005837
 10
498.9348056213
 20
379.6031108486
  0
LINE
  5
C6
330
1F
100
AcDbEntity
  8
0
  6
Continuous
 62
     7
370
    30
100
AcDbLine
 10
498.9267052922
 20
378.4238997765
 30
0.0
 11
498.9267052922
 21
378.6742743594
 31
0.0
  0
LWPOLYLINE
  5
C7
330
1F
100
AcDbEntity
  8
0
  6
Continuous
 62
     7
370
    30
100
AcDbPolyline
 90
        9
 70
   128
 43
0.0
 10
498.933952715
 20
379.4738997765
 10
498.9338455078
 20
379.461024685
 10
498.9328704149
 20
379.3449197982
 10
498.9318803428
 20
379.2288150382
 10
498.9308752912
 20
379.1127104069
 10
498.9298552604
 20
378.9966059062
 10
498.9288202503
 20
378.8805015381
 10
498.9277702609
 20
378.7643973045
 10
498.9267052922
 20
378.6482932073
  0
LINE
  5
C8
330
1F
100
AcDbEntity
  8
0
  6
Continuous
 62
     7
370
    30
100
AcDbLine
 10
498.1821783948
 20
424.5588620849
 30
0.0
 11
498.1822074578
 21
424.5581594666
 31
0.0
  0
SPLINE
  5
C9
330
1F
100
AcDbEntity
  8
0
  6
Continuous
 62
     7
370
    30
100
AcDbSpline
210
0.0
220
0.0
230
1.0
 70
    24
 71
     3
 72
    39
 73
    35
 74
     0
 42
0.000000001
 43
0.00000001
 40
0.0
 40
0.0
 40
0.0
 40
0.0
 40
0.0311665377038671
 40
0.0622955610259094
 40
0.0934297775724172
 40
0.1246118736114704
 40
0.1558843393482095
 40
0.1872892981853999
 40
0.2188683433311732
 40
0.250662384777881
 40
0.2862344221489883
 40
0.3217291656266773
 40
0.3572025178650942
 40
0.3927104825516778
 40
0.4283089000165691
 40
0.4640531866718459
 40
0.4999980842743279
 40
0.5351858573399775
 40
0.5701929386723924
 40
0.6050709519303887
 40
0.6398720951522945
 40
0.6617321460908655
 40
0.6835956638185882
 40
0.7054757212056805
 40
0.7273853615161249
 40
0.7493375752824459
 40
0.7811139270455846
 40
0.8126801628889366
 40
0.8440773039231235
 40
0.875347036745495
 40
0.9065315589047882
 40
0.9376734143357638
 40
0.9688153218387286
 40
1.0
 40
1.0
 40
1.0
 40
1.0
 10
456.4673187085292
 20
356.8404035477041
 30
0.0
 10
456.4673187085292
 20
356.9049947191392
 30
0.0
 10
456.4673187085292
 20
357.0340993152321
 30
0.0
 10
456.4673187085291
 20
357.2266971883967
 30
0.0
 10
456.4673187085292
 20
357.4182346298304
 30
0.0
 10
456.4673187085291
 20
357.6086558385674
 30
0.0
 10
456.4673187085292
 20
357.7979745073793
 30
0.0
 10
456.4673187085292
 20
357.9861856882168
 30
0.0
 10
456.4673187085292
 20
358.173289922078
 30
0.0
 10
456.4673187085292
 20
358.3661518970683
 30
0.0
 10
456.4673187085292
 20
358.563718008919
 30
0.0
 10
456.4673187085291
 20
358.7647949000825
 30
0.0
 10
456.4673187085292
 20
358.9618712875977
 30
0.0
 10
456.4673187085291
 20
359.1549451561138
 30
0.0
 10
456.4673187085292
 20
359.3440155513928
 30
0.0
 10
456.4673187085292
 20
359.529080451745
 30
0.0
 10
456.4673187085292
 20
359.7084445309846
 30
0.0
 10
456.4673187085292
 20
359.8814711538827
 30
0.0
 10
456.4673187085291
 20
360.0474285747133
 30
0.0
 10
456.4673187085292
 20
360.2071738815015
 30
0.0
 10
456.4673187085292
 20
360.3417231593933
 30
0.0
 10
456.4673187085292
 20
360.4533947657508
 30
0.0
 10
456.4673187085293
 20
360.5442243945258
 30
0.0
 10
456.4673187085291
 20
360.6326003953868
 30
0.0
 10
456.4673187085292
 20
360.7185227005802
 30
0.0
 10
456.4673187085292
 20
360.8143717596951
 30
0.0
 10
456.4673187085292
 20
360.9182432909905
 30
0.0
 10
456.4673187085291
 20
361.0278041584539
 30
0.0
 10
456.4673187085292
 20
361.1307944547767
 30
0.0
 10
456.4673187085292
 20
361.2271997344359
 30
0.0
 10
456.4673187085292
 20
361.3170638015407
 30
0.0
 10
456.4673187085292
 20
361.4002216686906
 30
0.0
 10
456.4673187085292
 20
361.4772852708164
 30
0.0
 10
456.4673187085292
 20
361.5230198564765
 30
0.0
 10
456.4673187085292
 20
361.5459028416337
 30
0.0
  0
LINE
  5
CA
330
1F
100
AcDbEntity
  8
0
  6
Continuous
 62
     7
370
    30
100
AcDbLine
 10
456.9673187085
 20
351.3026513558
 30
0.0
 11
456.9673187085
 21
351.3026168791
 31
0.0
  0
LINE
  5
CB
330
1F
100
AcDbEntity
  8
0
  6
Continuous
 62
     7
370
    30
100
AcDbLine
 10
456.4673187085
 20
351.8024903115
 30
0.0
 11
456.4673187085
 21
356.8404035477
 31
0.0
  0
LINE
  5
CC
330
1F
100
AcDbEntity
  8
0
  6
Continuous
 62
     7
370
    30
100
AcDbLine
 10
498.9672197085
 20
386.4263799875
 30
0.0
 11
498.9672197085
 21
394.4738997765
 31
0.0
  0
LINE
  5
CD
330
1F
100
AcDbEntity
  8
0
  6
Continuous
 62
     7
370
    30
100
AcDbLine
 10
498.9672197085
 20
379.4738997765
 30
0.0
 11
498.9672197085
 21
386.4263799875
 31
0.0
  0
LINE
  5
CE
330
1F
100
AcDbEntity
  8
0
  6
Continuous
 62
     7
370
    30
100
AcDbLine
 10
80.2376668776
 20
414.5238997765
 30
0.0
 11
72.0826815764
 21
414.5238997765
 31
0.0
  0
LINE
  5
CF
330
1F
100
AcDbEntity
  8
0
  6
Continuous
 62
     7
370
    30
100
AcDbLine
 10
72.0826815764
 20
359.4238997765
 30
0.0
 11
80.2376668776
 21
359.4238997765
 31
0.0
  0
ARC
  5
D0
330
1F
100
AcDbEntity
  8
0
  6
Continuous
 62
     7
370
    30
100
AcDbCircle
 10
72.0826815764
 20
413.0238997765
 30
0.0
 40
1.500000000000014
100
AcDbArc
 50
90.0
 51
180.0
  0
ARC
  5
D1
330
1F
100
AcDbEntity
  8
0
  6
Continuous
 62
     7
370
    30
100
AcDbCircle
 10
72.0826815764
 20
360.9238997765
 30
0.0
 40
1.500000000000014
100
AcDbArc
 50
180.0
 51
270.0
  0
LINE
  5
D2
330
1F
100
AcDbEntity
  8
0
  6
Continuous
 62
     7
370
    30
100
AcDbLine
 10
70.5826815764
 20
408.9738997765
 30
0.0
 11
69.5326812915
 21
408.9738997765
 31
0.0
  0
LINE
  5
D3
330
1F
100
AcDbEntity
  8
0
  6
Continuous
 62
     7
370
    30
100
AcDbLine
 10
69.5326812915
 20
364.9738997765
 30
0.0
 11
70.5826815764
 21
364.9738997765
 31
0.0
  0
ARC
  5
D4
330
1F
100
AcDbEntity
  8
0
  6
Continuous
 62
     7
370
    30
100
AcDbCircle
 10
93.5326815748
 20
471.474071114
 30
0.0
 40
0.5
100
AcDbArc
 50
360.0
 51
91.5
  0
LINE
  5
D5
330
1F
100
AcDbEntity
  8
0
  6
Continuous
 62
     7
370
    30
100
AcDbLine
 10
93.5195931006
 20
471.9738997762
 30
0.0
 11
83.7925446493
 21
471.7191880486
 31
0.0
  0
LINE
  5
D6
330
1F
100
AcDbEntity
  8
0
  6
Continuous
 62
     7
370
    30
100
AcDbLine
 10
83.7925446493
 20
302.2286115045
 30
0.0
 11
91.5326815748
 21
302.0259288863
 31
0.0
  0
ARC
  5
D7
330
1F
100
AcDbEntity
  8
0
  6
Continuous
 62
     7
370
    30
100
AcDbCircle
 10
83.844898546
 20
469.7198733988
 30
0.0
 40
2.000000000000015
100
AcDbArc
 50
91.499999979
 51
177.4907349559
  0
ARC
  5
D8
330
1F
100
AcDbEntity
  8
0
  6
Continuous
 62
     7
370
    30
100
AcDbCircle
 10
83.8448985443
 20
304.2279261544
 30
0.0
 40
1.999999999999992
100
AcDbArc
 50
182.5092650429
 51
268.5000000199
  0
ARC
  5
D9
330
1F
100
AcDbEntity
  8
0
  6
Continuous
 62
     7
370
    30
100
AcDbCircle
 10
1972.0326815348
 20
386.9738997578
 30
0.0
 40
1891.999999997577
100
AcDbArc
 50
180.8434170708
 51
182.509265046
  0
ARC
  5
DA
330
1F
100
AcDbEntity
  8
0
  6
Continuous
 62
     7
370
    30
100
AcDbCircle
 10
1972.0326815348
 20
386.9738997578
 30
0.0
 40
1891.999999997737
100
AcDbArc
 50
177.4907349529
 51
179.1565829286
  0
LINE
  5
DB
330
1F
100
AcDbEntity
  8
0
  6
Continuous
 62
     7
370
    30
100
AcDbLine
 10
68.9843624109
 20
414.5385726091
 30
0.0
 11
63.2810180821
 21
414.4888002772
 31
0.0
  0
LINE
  5
DC
330
1F
100
AcDbEntity
  8
0
  6
Continuous
 62
     7
370
    30
100
AcDbLine
 10
29.4009016213
 20
359.7546665726
 30
0.0
 11
29.8809091985
 21
359.75047761
 31
0.0
  0
ARC
  5
DD
330
1F
100
AcDbEntity
  8
0
  6
Continuous
 62
     7
370
    30
100
AcDbCircle
 10
69.0326812915
 20
414.0389752424
 30
0.0
 40
0.5000000000000347
100
AcDbArc
 50
0.0
 51
90.5
  0
ARC
  5
DE
330
1F
100
AcDbEntity
  8
0
  6
Continuous
 62
     7
370
    30
100
AcDbCircle
 10
29.3868712452
 20
361.754865171
 30
0.0
 40
2.000000000000022
100
AcDbArc
 50
181.6092809001
 51
269.5
  0
ARC
  5
DF
330
1F
100
AcDbEntity
  8
0
  6
Continuous
 62
     7
370
    30
100
AcDbCircle
 10
927.0326812915
 20
386.9738997765
 30
0.0
 40
900.0000000000007
100
AcDbArc
 50
180.544318093
 51
181.6092185323
  0
ARC
  5
E0
330
1F
100
AcDbEntity
  8
0
  6
Continuous
 62
     7
370
    30
100
AcDbCircle
 10
927.0326812915
 20
386.9738997765
 30
0.0
 40
900.0000000000009
100
AcDbArc
 50
177.6066157163
 51
179.5129800095
  0
SPLINE
  5
E1
330
1F
100
AcDbEntity
  8
0
  6
Continuous
 62
     7
370
    30
100
AcDbSpline
210
0.0
220
0.0
230
1.0
 70
     8
 71
     3
 72
    58
 73
    54
 74
     0
 42
0.000000001
 43
0.00000001
 40
0.0
 40
0.0
 40
0.0
 40
0.0
 40
0.0258626719455396
 40
0.0513488705931447
 40
0.0764108552843452
 40
0.1010026663778174
 40
0.1250803891181388
 40
0.148602375516697
 40
0.1715294220927528
 40
0.1938249026815708
 40
0.2154548567947145
 40
0.2363880351644863
 40
0.2565959050846445
 40
0.2760526189479481
 40
0.2940028437694944
 40
0.3112210204851559
 40
0.3276908465832979
 40
0.3433979623828367
 40
0.3583298292926699
 40
0.3724755995456434
 40
0.3858259804617028
 40
0.3995833163739569
 40
0.4123600314171673
 40
0.4242236936398837
 40
0.4365769382409167
 40
0.4499537549344887
 40
0.4630026898486969
 40
0.4768964730345515
 40
0.491633052661035
 40
0.507209144119691
 40
0.5236200398167906
 40
0.5408594137441564
 40
0.558919123394071
 40
0.5761859651194516
 40
0.594124172135584
 40
0.6127226184507886
 40
0.631968385239131
 40
0.6518466574690542
 40
0.672340633232418
 40
0.6928763041687457
 40
0.7139588617525957
 40
0.7355670042058555
 40
0.7576774807312229
 40
0.7802651031266982
 40
0.80330278144376
 40
0.826761584930368
 40
0.8506108290061345
 40
0.8748181884503321
 40
0.89934983636045
 40
0.9241706077798276
 40
0.9492441862225443
 40
0.9745333106694628
 40
1.0
 40
1.0
 40
1.0
 40
1.0
 10
63.29043102788703
 20
414.4888574859748
 30
0.0
 10
63.22246581502364
 20
414.4890655075019
 30
0.0
 10
63.08752473362627
 20
414.489478522464
 30
0.0
 10
62.88691587503864
 20
414.500430484854
 30
0.0
 10
62.69018814883334
 20
414.5184907997964
 30
0.0
 10
62.49796566811266
 20
414.5439180415744
 30
0.0
 10
62.31082869124258
 20
414.5759908613769
 30
0.0
 10
62.12929293927152
 20
414.6141849764516
 30
0.0
 10
61.9538108021089
 20
414.6578779672754
 30
0.0
 10
61.78476874435401
 20
414.7064377011981
 30
0.0
 10
61.62248753164693
 20
414.759210968743
 30
0.0
 10
61.46722337388205
 20
414.815537493383
 30
0.0
 10
61.31917047446436
 20
414.8747566221847
 30
0.0
 10
61.18022953239771
 20
414.9354440931214
 30
0.0
 10
61.05025027528729
 20
414.996849624324
 30
0.0
 10
60.92903163273083
 20
415.0582894636623
 30
0.0
 10
60.8146780051462
 20
415.1201261734057
 30
0.0
 10
60.70714660474183
 20
415.1818547540971
 30
0.0
 10
60.60636600429692
 20
415.2429961331328
 30
0.0
 10
60.51224057296115
 20
415.3030990744532
 30
0.0
 10
60.42200827682539
 20
415.363513483593
 30
0.0
 10
60.33603629636317
 20
415.4237801781167
 30
0.0
 10
60.25450032559157
 20
415.4835239112932
 30
0.0
 10
60.17707753706033
 20
415.5426032982983
 30
0.0
 10
60.09955990929974
 20
415.6041362124666
 30
0.0
 10
60.02090298505175
 20
415.6692224051033
 30
0.0
 10
59.94055135476844
 20
415.7385865137432
 30
0.0
 10
59.85903305277326
 20
415.8120424847489
 30
0.0
 10
59.77435450479391
 20
415.8918887798347
 30
0.0
 10
59.68689902543039
 20
415.9784014575376
 30
0.0
 10
59.59708949106371
 20
416.0718484710449
 30
0.0
 10
59.50538948336825
 20
416.1724843179575
 30
0.0
 10
59.41505813123471
 20
416.2773470111711
 30
0.0
 10
59.32652717829959
 20
416.3861148991966
 30
0.0
 10
59.24018882354298
 20
416.4984286137093
 30
0.0
 10
59.1540712333867
 20
416.6174092774864
 30
0.0
 10
59.0686770598472
 20
416.7431380641647
 30
0.0
 10
58.98453219493852
 20
416.8756604772936
 30
0.0
 10
58.90292621360127
 20
417.0137241583169
 30
0.0
 10
58.82431256244733
 20
417.1571404443818
 30
0.0
 10
58.74912948689911
 20
417.3056824573928
 30
0.0
 10
58.67724972614377
 20
417.460437221354
 30
0.0
 10
58.60921093635893
 20
417.6212328984701
 30
0.0
 10
58.54554643211227
 20
417.7878479809551
 30
0.0
 10
58.48677932721122
 20
417.9600104045462
 30
0.0
 10
58.4334159718348
 20
418.1373973638175
 30
0.0
 10
58.38594103591313
 20
418.3196360391481
 30
0.0
 10
58.34480555792481
 20
418.5063052474782
 30
0.0
 10
58.31044188143503
 20
418.6969380484708
 30
0.0
 10
58.2831770062194
 20
418.8910253088603
 30
0.0
 10
58.26353329708866
 20
419.088020146781
 30
0.0
 10
58.25106390850382
 20
419.28734334675
 30
0.0
 10
58.24951252725052
 20
419.4209738249094
 30
0.0
 10
58.24873412293643
 20
419.4880228114019
 30
0.0
  0
SPLINE
  5
E2
330
1F
100
AcDbEntity
  8
0
  6
Continuous
 62
     7
370
    30
100
AcDbSpline
210
0.0
220
0.0
230
1.0
 70
     8
 71
     3
 72
    52
 73
    48
 74
     0
 42
0.000000001
 43
0.00000001
 40
0.0
 40
0.0
 40
0.0
 40
0.0
 40
0.0297980986276408
 40
0.0589543829330891
 40
0.0874168827223037
 40
0.1151367858132539
 40
0.1420686045505273
 40
0.1681702824303815
 40
0.1919855150387497
 40
0.2149989361797303
 40
0.2371837592440192
 40
0.258515843416144
 40
0.2789736005465759
 40
0.2996944219048358
 40
0.3193902005499031
 40
0.3380436342954862
 40
0.355639929874551
 40
0.3721665832714677
 40
0.3876131554528395
 40
0.4011800810731034
 40
0.4137733087082549
 40
0.4254612020972168
 40
0.4376259374949861
 40
0.4507944859327875
 40
0.4658578976639223
 40
0.4820491889658045
 40
0.4993658373442909
 40
0.5178037061296156
 40
0.5373567621379639
 40
0.5580167828487975
 40
0.5785006103011118
 40
0.5999477766997287
 40
0.6223446137467091
 40
0.6456748118435667
 40
0.6699192173417913
 40
0.6937007698648393
 40
0.7182608090591587
 40
0.7435751916838556
 40
0.7696170267587934
 40
0.7963566266669693
 40
0.8237614908001079
 40
0.8517963250593285
 40
0.880423099949394
 40
0.9096011492682016
 40
0.939287310503844
 40
0.9694361070324609
 40
1.0
 40
1.0
 40
1.0
 40
1.0
 10
29.87198779692235
 20
359.75055987124
 30
0.0
 10
29.93779012503586
 20
359.7492404334151
 30
0.0
 10
30.06797748020801
 20
359.7466299768301
 30
0.0
 10
30.26068325590117
 20
359.7331650966484
 30
0.0
 10
30.44821588644134
 20
359.7133649047313
 30
0.0
 10
30.63003636575174
 20
359.6871466415159
 30
0.0
 10
30.80567627470521
 20
359.6553160013212
 30
0.0
 10
30.97167355982467
 20
359.6191493759365
 30
0.0
 10
31.12799581098396
 20
359.5796279215379
 30
0.0
 10
31.27470269240834
 20
359.5376468480299
 30
0.0
 10
31.41486510461913
 20
359.4929498818605
 30
0.0
 10
31.54835629837119
 20
359.4460927553096
 30
0.0
 10
31.67748166589976
 20
359.3967054303781
 30
0.0
 10
31.80187619580144
 20
359.3451887613131
 30
0.0
 10
31.9212067431468
 20
359.2919765216396
 30
0.0
 10
32.03291271975858
 20
359.2387159455902
 30
0.0
 10
32.13705759178961
 20
359.1859488989286
 30
0.0
 10
32.23373211585942
 20
359.1341827974033
 30
0.0
 10
32.32152382495779
 20
359.0847478094302
 30
0.0
 10
32.40085168326107
 20
359.0380442162684
 30
0.0
 10
32.47226828048469
 20
358.9943107789535
 30
0.0
 10
32.54035555482723
 20
358.9510918318376
 30
0.0
 10
32.60881564216162
 20
358.9060996783115
 30
0.0
 10
32.68268299654412
 20
358.8557547597864
 30
0.0
 10
32.7628636201166
 20
358.798877153938
 30
0.0
 10
32.84922381043426
 20
358.7348814099676
 30
0.0
 10
32.94004039634804
 20
358.664400373405
 30
0.0
 10
33.03492781176348
 20
358.5870822739195
 30
0.0
 10
33.13345324463868
 20
358.5025766916705
 30
0.0
 10
33.23304675432565
 20
358.4124302901992
 30
0.0
 10
33.33317088270207
 20
358.316699997566
 30
0.0
 10
33.43329657408481
 20
358.2154849528725
 30
0.0
 10
33.53473363261151
 20
358.1067909154312
 30
0.0
 10
33.63691071244479
 20
357.9904133419317
 30
0.0
 10
33.73731147404207
 20
357.8684985667867
 30
0.0
 10
33.83543616854259
 20
357.7412901433173
 30
0.0
 10
33.93081500605069
 20
357.6090754145579
 30
0.0
 10
34.02455618270006
 20
357.4696213799282
 30
0.0
 10
34.1160429072129
 20
357.3229573161052
 30
0.0
 10
34.20464568913914
 20
357.1691664477382
 30
0.0
 10
34.28972718831464
 20
357.008389036661
 30
0.0
 10
34.37065411789089
 20
356.8408264468895
 30
0.0
 10
34.44678469652543
 20
356.6667382429845
 30
0.0
 10
34.51755323372979
 20
356.4864613440195
 30
0.0
 10
34.58218382109285
 20
356.3003393388061
 30
0.0
 10
34.64082566083596
 20
356.1089900557064
 30
0.0
 10
34.67357529144086
 20
355.9786671138342
 30
0.0
 10
34.69006206237527
 20
355.9130601298634
 30
0.0
  0
LINE
  5
E3
330
1F
100
AcDbEntity
  8
0
  6
Continuous
 62
     7
370
    30
100
AcDbLine
 10
58.2487387836
 20
419.487818914
 30
0.0
 11
58.2487387836
 21
420.4913139159
 31
0.0
  0
LINE
  5
E4
330
1F
100
AcDbEntity
  8
0
  6
Continuous
 62
     7
370
    30
100
AcDbLine
 10
52.2487492158
 20
426.4817865111
 30
0.0
 11
29.816310093
 21
426.4817865111
 31
0.0
  0
SPLINE
  5
E5
330
1F
100
AcDbEntity
  8
0
  6
Continuous
 62
     7
370
    30
100
AcDbSpline
210
0.0
220
0.0
230
1.0
 70
     8
 71
     3
 72
    40
 73
    36
 74
     0
 42
0.000000001
 43
0.00000001
 40
0.0
 40
0.0
 40
0.0
 40
0.0
 40
0.0384409825253551
 40
0.0761086545625904
 40
0.1128640935568038
 40
0.1485768405263269
 40
0.1831262668199384
 40
0.2164025614822976
 40
0.2483073336366482
 40
0.2787538454186725
 40
0.3076669082643584
 40
0.334982487890771
 40
0.3636132257601101
 40
0.3901124968728841
 40
0.4144330695747347
 40
0.4365404105810405
 40
0.4576840583050849
 40
0.4996864454756753
 40
0.5422457800367413
 40
0.5666428874507288
 40
0.5911715899201339
 40
0.6158132102498538
 40
0.6405485824298256
 40
0.66535813434605
 40
0.6902219751056995
 40
0.7156025081158147
 40
0.742271415710346
 40
0.7702533265893968
 40
0.7995408944032986
 40
0.8301064115449335
 40
0.8619042376971484
 40
0.8948730320285855
 40
0.9289378551753869
 40
0.9640122005700489
 40
0.9999999999999999
 40
0.9999999999999999
 40
0.9999999999999999
 40
0.9999999999999999
 10
29.81636852966638
 20
426.4817490489773
 30
0.0
 10
29.77679670212138
 20
426.4810718001868
 30
0.0
 10
29.69844910652997
 20
426.4797309267009
 30
0.0
 10
29.58267068454634
 20
426.4690768669781
 30
0.0
 10
29.47045563936551
 20
426.4526877784995
 30
0.0
 10
29.36248748510278
 20
426.4305679766666
 30
0.0
 10
29.25934528681567
 20
426.4035674659299
 30
0.0
 10
29.16149753461614
 20
426.3723888117547
 30
0.0
 10
29.0693009208281
 20
426.3378146084654
 30
0.0
 10
28.98300378721469
 20
426.3006231131875
 30
0.0
 10
28.90275290077071
 20
426.261585758005
 30
0.0
 10
28.82591903795173
 20
426.219994448046
 30
0.0
 10
28.75308193287315
 20
426.17639888731
 30
0.0
 10
28.68474560481965
 20
426.1314409671581
 30
0.0
 10
28.62368961737386
 20
426.0877478178427
 30
0.0
 10
28.5686063321921
 20
426.0452634939184
 30
0.0
 10
28.5009406645528
 20
425.989375105462
 30
0.0
 10
28.42047086254662
 20
425.9160297016336
 30
0.0
 10
28.34263451797128
 20
425.8351748461357
 30
0.0
 10
28.28091037055519
 20
425.7640407200258
 30
0.0
 10
28.2334688324494
 20
425.7050032421893
 30
0.0
 10
28.1880950399557
 20
425.6439292169119
 30
0.0
 10
28.14491835341601
 20
425.5809323309945
 30
0.0
 10
28.10406037579213
 20
425.5161369282204
 30
0.0
 10
28.06538442470024
 20
425.4492504925017
 30
0.0
 10
28.02843746931624
 20
425.3792133327327
 30
0.0
 10
27.99308547773419
 20
425.3051222500715
 30
0.0
 10
27.9594863092196
 20
425.2263409390562
 30
0.0
 10
27.92817248187088
 20
425.142960585622
 30
0.0
 10
27.89967604360252
 20
425.0551306136504
 30
0.0
 10
27.87453027634604
 20
424.9630609755204
 30
0.0
 10
27.85320926261811
 20
424.867022573365
 30
0.0
 10
27.83630392165107
 20
424.7673511650918
 30
0.0
 10
27.8237752460207
 20
424.6644340616558
 30
0.0
 10
27.81984086205313
 20
424.5948051163353
 30
0.0
 10
27.81784838319604
 20
424.5595431280447
 30
0.0
  0
ARC
  5
E6
330
1F
100
AcDbEntity
  8
0
  6
Continuous
 62
     7
370
    30
100
AcDbCircle
 10
52.2487492158
 20
420.481786511
 30
0.0
 40
5.999992498926399
100
AcDbArc
 50
0.0909576339
 51
90.0
  0
LINE
  5
E7
330
1F
100
AcDbEntity
  8
0
  6
Continuous
 62
     7
370
    30
100
AcDbLine
 10
40.5246774973
 20
351.3024903115
 30
0.0
 11
68.988739473
 21
351.3024903115
 31
0.0
  0
ARC
  5
E8
330
1F
100
AcDbEntity
  8
0
  6
Continuous
 62
     7
370
    30
100
AcDbCircle
 10
69.0326812915
 20
351.8024903115
 30
0.0
 40
0.5
100
AcDbArc
 50
270.0
 51
0.0
  0
ARC
  5
E9
330
1F
100
AcDbEntity
  8
0
  6
Continuous
 62
     7
370
    30
100
AcDbCircle
 10
40.5246774973
 20
357.3120431232
 30
0.0
 40
5.999992498926386
100
AcDbArc
 50
193.4602194319
 51
269.999869106
  0
LINE
  5
EA
330
1F
100
AcDbEntity
  8
0
  6
Continuous
 62
     7
370
    30
100
AcDbLine
 10
27.0651943787
 20
394.4738997765
 30
0.0
 11
27.0327802915
 21
394.4738997765
 31
0.0
  0
LINE
  5
EB
330
1F
100
AcDbEntity
  8
0
  6
Continuous
 62
     7
370
    30
100
AcDbLine
 10
27.0327802915
 20
379.4738997765
 30
0.0
 11
27.066047285
 21
379.4738997765
 31
0.0
  0
ARC
  5
EC
330
1F
100
AcDbEntity
  8
0
  6
Continuous
 62
     7
370
    30
100
AcDbCircle
 10
326.9390156385
 20
386.9738997765
 30
0.0
 40
300.0000000000002
100
AcDbArc
 50
178.5674562624
 51
181.4325437376
  0
LINE
  5
ED
330
1F
100
AcDbEntity
  8
0
  6
Continuous
 62
     7
370
    30
100
AcDbLine
 10
70.5826815764
 20
361.4787703518
 30
0.0
 11
70.5826815764
 21
360.9238997765
 31
0.0
  0
LINE
  5
EE
330
1F
100
AcDbEntity
  8
0
  6
Continuous
 62
     7
370
    30
100
AcDbLine
 10
70.5826815764
 20
413.0238997765
 30
0.0
 11
70.5826815764
 21
361.4787703518
 31
0.0
  0
LINE
  5
EF
330
1F
100
AcDbEntity
  8
0
  6
Continuous
 62
     7
370
    30
100
AcDbLine
 10
94.0326815748
 20
471.474071114
 30
0.0
 11
94.0326815748
 21
302.6870149363
 31
0.0
  0
SPLINE
  5
F0
330
1F
100
AcDbEntity
  8
0
  6
Continuous
 62
     7
370
    30
100
AcDbSpline
210
0.0
220
0.0
230
1.0
 70
     8
 71
     3
 72
    20
 73
    16
 74
     0
 42
0.000000001
 43
0.00000001
 40
0.0
 40
0.0
 40
0.0
 40
0.0
 40
0.0799909111192146
 40
0.1599834311287099
 40
0.2399764137790968
 40
0.3199684378555179
 40
0.399960930582591
 40
0.4799548665858557
 40
0.5599484784968742
 40
0.6332826940179577
 40
0.7066171996862002
 40
0.7799524359991222
 40
0.8532871661626298
 40
0.9266245283681462
 40
1.0
 40
1.0
 40
1.0
 40
1.0
 10
94.03268157476484
 20
302.687014936348
 30
0.0
 10
94.03189439921769
 20
302.665657388057
 30
0.0
 10
94.03032003229059
 20
302.6229418619017
 30
0.0
 10
94.01766343306718
 20
302.5599097741259
 30
0.0
 10
93.99769843370659
 20
302.4989388904865
 30
0.0
 10
93.97001158094358
 20
302.4410141751349
 30
0.0
 10
93.93525281997293
 20
302.3870695710658
 30
0.0
 10
93.89393240411671
 20
302.3379754871848
 30
0.0
 10
93.84803706289853
 20
302.2957302849429
 30
0.0
 10
93.79882096498493
 20
302.2604424374318
 30
0.0
 10
93.74738991471914
 20
302.2320039128811
 30
0.0
 10
93.69299680484164
 20
302.2097291377024
 30
0.0
 10
93.6363839680902
 20
302.1940969183883
 30
0.0
 10
93.57830004239328
 20
302.1847027021771
 30
0.0
 10
93.53916546967501
 20
302.1842545160306
 30
0.0
 10
93.51959310061083
 20
302.1840303647481
 30
0.0
  0
SPLINE
  5
F1
330
1F
100
AcDbEntity
  8
0
  6
Continuous
 62
     7
370
    30
100
AcDbSpline
210
0.0
220
0.0
230
1.0
 70
     8
 71
     3
 72
    25
 73
    21
 74
     0
 42
0.000000001
 43
0.00000001
 40
0.0
 40
0.0
 40
0.0
 40
0.0
 40
0.0552765880480431
 40
0.1107507068123893
 40
0.16622472235608
 40
0.2215011691456569
 40
0.2767772845462436
 40
0.3322508343018454
 40
0.3877246125795938
 40
0.4430010407140881
 40
0.4982937397471561
 40
0.5537833603581271
 40
0.6092733668651711
 40
0.6645665939935801
 40
0.7199588434566988
 40
0.775548243675558
 40
0.8311379746791578
 40
0.8865306768173085
 40
0.9432653183310019
 40
1.0
 40
1.0
 40
1.0
 40
1.0
 10
92.48034561852053
 20
302.2074910125745
 30
0.0
 10
92.45243256095097
 20
302.2080726618326
 30
0.0
 10
92.39650669858702
 20
302.2092380388705
 30
0.0
 10
92.3136285634612
 20
302.210338110774
 30
0.0
 10
92.23224739305496
 20
302.2109662800302
 30
0.0
 10
92.15306997939386
 20
302.2110703211254
 30
0.0
 10
92.07664230007546
 20
302.2106526096812
 30
0.0
 10
92.00334934754308
 20
302.2097370252926
 30
0.0
 10
91.93375510358011
 20
302.208344855592
 30
0.0
 10
91.86844587356076
 20
302.206492301235
 30
0.0
 10
91.8079496892808
 20
302.204188190486
 30
0.0
 10
91.75249414203788
 20
302.2014701332783
 30
0.0
 10
91.7024884321955
 20
302.1983732926193
 30
0.0
 10
91.65835142094032
 20
302.1949277191969
 30
0.0
 10
91.62053049355855
 20
302.1911554025417
 30
0.0
 10
91.5890999713795
 20
302.187094817278
 30
0.0
 10
91.56422826659683
 20
302.1827900631411
 30
0.0
 10
91.54622148959533
 20
302.1782414181304
 30
0.0
 10
91.5348351976988
 20
302.1734889786926
 30
0.0
 10
91.53339944924542
 20
302.170181192507
 30
0.0
 10
91.5326815747647
 20
302.1685272988288
 30
0.0
  0
LINE
  5
F2
330
1F
100
AcDbEntity
  8
0
  6
Continuous
 62
     7
370
    30
100
AcDbLine
 10
91.5326815748
 20
302.0259288861
 30
0.0
 11
91.5326815748
 21
302.1685272987
 31
0.0
  0
LINE
  5
F3
330
1F
100
AcDbEntity
  8
0
  6
Continuous
 62
     7
370
    30
100
AcDbLine
 10
93.5195931006
 20
302.1840303647
 30
0.0
 11
92.4803456185
 21
302.2074910125
 31
0.0
  0
LINE
  5
F4
330
1F
100
AcDbEntity
  8
0
  6
Continuous
 62
     7
370
    30
100
AcDbLine
 10
80.2376668776
 20
386.9738997765
 30
0.0
 11
80.2376668776
 21
414.8238997765
 31
0.0
  0
LINE
  5
F5
330
1F
100
AcDbEntity
  8
0
  6
Continuous
 62
     7
370
    30
100
AcDbLine
 10
80.2376668776
 20
359.1238997765
 30
0.0
 11
80.2376668776
 21
386.9738997765
 31
0.0
  0
LINE
  5
F6
330
1F
100
AcDbEntity
  8
0
  6
Continuous
 62
     7
370
    30
100
AcDbLine
 10
29.3694181742
 20
359.7549595441
 30
0.0
 11
29.3694181742
 21
359.7549413249
 31
0.0
  0
LINE
  5
F7
330
1F
100
AcDbEntity
  8
0
  6
Continuous
 62
     7
370
    30
100
AcDbLine
 10
69.5326812915
 20
414.0389752424
 30
0.0
 11
69.5326812915
 21
361.4276266248
 31
0.0
  0
LINE
  5
F8
330
1F
100
AcDbEntity
  8
0
  6
Continuous
 62
     7
370
    30
100
AcDbLine
 10
27.0651943787
 20
379.5771296966
 30
0.0
 11
27.0651943787
 21
394.6238997765
 31
0.0
  0
LINE
  5
F9
330
1F
100
AcDbEntity
  8
0
  6
Continuous
 62
     7
370
    30
100
AcDbLine
 10
27.0732947078
 20
378.6482932073
 30
0.0
 11
27.0732947078
 21
378.4238997766
 31
0.0
  0
LWPOLYLINE
  5
FA
330
1F
100
AcDbEntity
  8
0
  6
Continuous
 62
     7
370
    30
100
AcDbPolyline
 90
        9
 70
   128
 43
0.0
 10
27.0651943787
 20
379.5771296966
 10
27.0661544922
 20
379.461024685
 10
27.0671295851
 20
379.3449197982
 10
27.0681196572
 20
379.2288150382
 10
27.0691247088
 20
379.1127104069
 10
27.0701447396
 20
378.9966059062
 10
27.0711797497
 20
378.8805015381
 10
27.0722297391
 20
378.7643973045
 10
27.0732947078
 20
378.6482932073
  0
LINE
  5
FB
330
1F
100
AcDbEntity
  8
0
  6
Continuous
 62
     7
370
    30
100
AcDbLine
 10
27.8178216052
 20
424.5588620849
 30
0.0
 11
27.8177925423
 21
424.5581594676
 31
0.0
  0
SPLINE
  5
FC
330
1F
100
AcDbEntity
  8
0
  6
Continuous
 62
     7
370
    30
100
AcDbSpline
210
0.0
220
0.0
230
1.0
 70
    24
 71
     3
 72
    39
 73
    35
 74
     0
 42
0.000000001
 43
0.00000001
 40
0.0
 40
0.0
 40
0.0
 40
0.0
 40
0.0311663512475711
 40
0.0622951889744826
 40
0.0934292280982903
 40
0.124611162160985
 40
0.1558834885440794
 40
0.1872883376716357
 40
0.2188673095648314
 40
0.2506613207734073
 40
0.2862328400333727
 40
0.321727179722576
 40
0.3572002475037189
 40
0.3927080515186226
 40
0.4283064359544143
 40
0.4640508204537785
 40
0.4999959493638381
 40
0.5351834565549709
 40
0.570190404419314
 40
0.6050684144006239
 40
0.6398696817161131
 40
0.6617298742798183
 40
0.6835935816484475
 40
0.7054738756420651
 40
0.727383798393192
 40
0.7493363392265637
 40
0.7811127090979161
 40
0.812679015852473
 40
0.8440762740001301
 40
0.8753461632452961
 40
0.9065308739985714
 40
0.9376729428648519
 40
0.9688150811813707
 40
1.0
 40
1.0
 40
1.0
 40
1.0
 10
69.53268129147085
 20
361.4276266248037
 30
0.0
 10
69.53268129147084
 20
361.4055472559033
 30
0.0
 10
69.53268129147088
 20
361.3614150940355
 30
0.0
 10
69.53268129147084
 20
361.2867059140451
 30
0.0
 10
69.5326812914709
 20
361.2058561936072
 30
0.0
 10
69.53268129147085
 20
361.1182508833826
 30
0.0
 10
69.53268129147084
 20
361.0240556905384
 30
0.0
 10
69.53268129147088
 20
360.9232271936532
 30
0.0
 10
69.53268129147084
 20
360.8157775235246
 30
0.0
 10
69.5326812914709
 20
360.6974961531166
 30
0.0
 10
69.53268129147084
 20
360.568085706304
 30
0.0
 10
69.5326812914709
 20
360.4271445957862
 30
0.0
 10
69.53268129147087
 20
360.279594211362
 30
0.0
 10
69.53268129147091
 20
360.1254353584899
 30
0.0
 10
69.53268129147085
 20
359.9646696705439
 30
0.0
 10
69.53268129147087
 20
359.7972975248061
 30
0.0
 10
69.5326812914709
 20
359.6249564976703
 30
0.0
 10
69.53268129147085
 20
359.4486184788964
 30
0.0
 10
69.53268129147091
 20
359.2691349077003
 30
0.0
 10
69.5326812914709
 20
359.0856380355847
 30
0.0
 10
69.53268129147084
 20
358.921310157217
 30
0.0
 10
69.5326812914709
 20
358.7778166332228
 30
0.0
 10
69.53268129147085
 20
358.6563681597555
 30
0.0
 10
69.5326812914709
 20
358.5333365417756
 30
0.0
 10
69.53268129147081
 20
358.408720521279
 30
0.0
 10
69.53268129147088
 20
358.2638092617274
 30
0.0
 10
69.53268129147084
 20
358.0983866952356
 30
0.0
 10
69.53268129147087
 20
357.9121940157755
 30
0.0
 10
69.53268129147088
 20
357.7247689111226
 30
0.0
 10
69.53268129147087
 20
357.5361112898452
 30
0.0
 10
69.53268129147082
 20
357.3462265433038
 30
0.0
 10
69.53268129147091
 20
357.1550987747528
 30
0.0
 10
69.53268129147084
 20
356.9627921751935
 30
0.0
 10
69.53268129147087
 20
356.8337925606019
 30
0.0
 10
69.53268129147087
 20
356.7692484814559
 30
0.0
  0
LINE
  5
FD
330
1F
100
AcDbEntity
  8
0
  6
Continuous
 62
     7
370
    30
100
AcDbLine
 10
69.0326812915
 20
351.3026513558
 30
0.0
 11
69.0326812915
 21
351.3026168791
 31
0.0
  0
LINE
  5
FE
330
1F
100
AcDbEntity
  8
0
  6
Continuous
 62
     7
370
    30
100
AcDbLine
 10
69.5326812915
 20
356.7692484815
 30
0.0
 11
69.5326812915
 21
351.8024903115
 31
0.0
  0
LINE
  5
FF
330
1F
100
AcDbEntity
  8
0
  6
Continuous
 62
     7
370
    30
100
AcDbLine
 10
27.0327802915
 20
394.4738997765
 30
0.0
 11
27.0327802915
 21
379.4738997765
 31
0.0
  0
LINE
  5
100
330
1F
100
AcDbEntity
  8
0
  6
Continuous
 62
     7
370
    30
100
AcDbLine
 10
235.45
 20
234.2376668776
 30
0.0
 11
235.45
 21
226.0826815764
 31
0.0
  0
LINE
  5
101
330
1F
100
AcDbEntity
  8
0
  6
Continuous
 62
     7
370
    30
100
AcDbLine
 10
290.55
 20
226.0826815764
 30
0.0
 11
290.55
 21
234.2376668776
 31
0.0
  0
ARC
  5
102
330
1F
100
AcDbEntity
  8
0
  6
Continuous
 62
     7
370
    30
100
AcDbCircle
 10
236.95
 20
226.0826815764
 30
0.0
 40
1.5
100
AcDbArc
 50
180.0
 51
270.0
  0
ARC
  5
103
330
1F
100
AcDbEntity
  8
0
  6
Continuous
 62
     7
370
    30
100
AcDbCircle
 10
289.05
 20
226.0826815764
 30
0.0
 40
1.5
100
AcDbArc
 50
270.0
 51
0.0
  0
LINE
  5
104
330
1F
100
AcDbEntity
  8
0
  6
Continuous
 62
     7
370
    30
100
AcDbLine
 10
241.0
 20
224.5826815764
 30
0.0
 11
241.0
 21
223.5326812915
 31
0.0
  0
LINE
  5
105
330
1F
100
AcDbEntity
  8
0
  6
Continuous
 62
     7
370
    30
100
AcDbLine
 10
285.0
 20
223.5326812915
 30
0.0
 11
285.0
 21
224.5826815764
 31
0.0
  0
ARC
  5
106
330
1F
100
AcDbEntity
  8
0
  6
Continuous
 62
     7
370
    30
100
AcDbCircle
 10
178.4998286625
 20
247.5326815748
 30
0.0
 40
0.5000000000000143
100
AcDbArc
 50
90.0
 51
181.5
  0
ARC
  5
107
330
1F
100
AcDbEntity
  8
0
  6
Continuous
 62
     7
370
    30
100
AcDbCircle
 10
347.5001713375
 20
247.5326815748
 30
0.0
 40
0.5000000000000143
100
AcDbArc
 50
358.5
 51
90.0
  0
LINE
  5
108
330
1F
100
AcDbEntity
  8
0
  6
Continuous
 62
     7
370
    30
100
AcDbLine
 10
178.0000000004
 20
247.5195931006
 30
0.0
 11
178.2547117279
 21
237.7925446493
 31
0.0
  0
LINE
  5
109
330
1F
100
AcDbEntity
  8
0
  6
Continuous
 62
     7
370
    30
100
AcDbLine
 10
347.7452882721
 20
237.7925446493
 30
0.0
 11
347.9999999996
 21
247.5195931006
 31
0.0
  0
ARC
  5
10A
330
1F
100
AcDbEntity
  8
0
  6
Continuous
 62
     7
370
    30
100
AcDbCircle
 10
180.2540263778
 20
237.8448985452
 30
0.0
 40
1.999999999999995
100
AcDbArc
 50
181.4999999795
 51
267.4907349565
  0
ARC
  5
10B
330
1F
100
AcDbEntity
  8
0
  6
Continuous
 62
     7
370
    30
100
AcDbCircle
 10
345.7459736222
 20
237.8448985452
 30
0.0
 40
2.000000000000023
100
AcDbArc
 50
272.5092650435
 51
358.5000000205
  0
ARC
  5
10C
330
1F
100
AcDbEntity
  8
0
  6
Continuous
 62
     7
370
    30
100
AcDbCircle
 10
263.0
 20
2126.0326815348
 30
0.0
 40
1891.999999997599
100
AcDbArc
 50
267.4907349535
 51
269.1565829289
  0
ARC
  5
10D
330
1F
100
AcDbEntity
  8
0
  6
Continuous
 62
     7
370
    30
100
AcDbCircle
 10
263.0
 20
2126.0326815348
 30
0.0
 40
1891.999999997599
100
AcDbArc
 50
270.8434170711
 51
272.5092650465
  0
LINE
  5
10E
330
1F
100
AcDbEntity
  8
0
  6
Continuous
 62
     7
370
    30
100
AcDbLine
 10
269.2176479664
 20
183.6679470497
 30
0.0
 11
269.2176479664
 21
206.2487492158
 31
0.0
  0
SPLINE
  5
10F
330
1F
100
AcDbEntity
  8
0
  6
Continuous
 62
     7
370
    30
100
AcDbSpline
210
0.0
220
0.0
230
1.0
 70
     8
 71
     3
 72
    30
 73
    26
 74
     0
 42
0.000000001
 43
0.00000001
 40
0.0
 40
0.0
 40
0.0
 40
0.0
 40
0.0274621960343825
 40
0.0577895664245963
 40
0.0849764376624049
 40
0.109378326522118
 40
0.1261476707682375
 40
0.1418881556519065
 40
0.1569199828829775
 40
0.1716105733044722
 40
0.1913317989573277
 40
0.2130278178507327
 40
0.2404723948612991
 40
0.2739272044488349
 40
0.313324187819629
 40
0.3585748299412302
 40
0.409566587564238
 40
0.4661591431448387
 40
0.5281806841994273
 40
0.5954244423318122
 40
0.6676457556866632
 40
0.7445599362282803
 40
0.8258412223992502
 40
0.9111230724452773
 40
1.0
 40
1.0
 40
1.0
 40
1.0
 10
268.8795164536452
 20
182.5548628038042
 30
0.0
 10
268.8810643145902
 20
182.5575102965441
 30
0.0
 10
268.8843215272611
 20
182.5630814991296
 30
0.0
 10
268.8906693749484
 20
182.5741865720935
 30
0.0
 10
268.8982381989122
 20
182.587466265141
 30
0.0
 10
268.9061593732555
 20
182.6013587023542
 30
0.0
 10
268.9140808883911
 20
182.6152229082092
 30
0.0
 10
268.9216808706931
 20
182.6285082709462
 30
0.0
 10
268.9298440066891
 20
182.6427764742521
 30
0.0
 10
268.9395210024118
 20
182.6597196886932
 30
0.0
 10
268.9512532949997
 20
182.6803459102609
 30
0.0
 10
268.9657493456863
 20
182.7061180292076
 30
0.0
 10
268.9825458658596
 20
182.737222772674
 30
0.0
 10
269.0022416677868
 20
182.7754157977812
 30
0.0
 10
269.024366323649
 20
182.8209116575656
 30
0.0
 10
269.0483548338519
 20
182.8738404748344
 30
0.0
 10
269.0735310246796
 20
182.9342881838733
 30
0.0
 10
269.0991405841306
 20
183.0022981499464
 30
0.0
 10
269.1243492711452
 20
183.0778439816861
 30
0.0
 10
269.1482614072479
 20
183.1608111464388
 30
0.0
 10
269.1699239549252
 20
183.2509766830379
 30
0.0
 10
269.1884004233145
 20
183.3479923329482
 30
0.0
 10
269.2025886004394
 20
183.4513714974431
 30
0.0
 10
269.2120981777404
 20
183.5604823110387
 30
0.0
 10
269.2132759611949
 20
183.6351109536496
 30
0.0
 10
269.2138770091364
 20
183.6731955368915
 30
0.0
  0
ARC
  5
110
330
1F
100
AcDbEntity
  8
0
  6
Continuous
 62
     7
370
    30
100
AcDbCircle
 10
263.2176479663
 20
206.2487492158
 30
0.0
 40
5.99999249892638
100
AcDbArc
 50
0.0000046087
 51
72.2639050269
  0
ARC
  5
111
330
1F
100
AcDbEntity
  8
0
  6
Continuous
 62
     7
370
    30
100
AcDbCircle
 10
263.0
 20
1081.0326812915
 30
0.0
 40
900.0000000000011
100
AcDbArc
 50
270.4870199905
 51
271.6092364992
  0
ARC
  5
112
330
1F
100
AcDbEntity
  8
0
  6
Continuous
 62
     7
370
    30
100
AcDbCircle
 10
263.0
 20
1081.0326812915
 30
0.0
 40
900.0000000000011
100
AcDbArc
 50
268.3907710374
 51
269.5129800095
  0
LINE
  5
113
330
1F
100
AcDbEntity
  8
0
  6
Continuous
 62
     7
370
    30
100
AcDbLine
 10
263.2177298135
 20
212.2487387836
 30
0.0
 11
263.2112103864
 21
212.2487387836
 31
0.0
  0
SPLINE
  5
114
330
1F
100
AcDbEntity
  8
0
  6
Continuous
 62
     7
370
    30
100
AcDbSpline
210
0.0
220
0.0
230
1.0
 70
     8
 71
     3
 72
    10
 73
     6
 74
     0
 42
0.000000001
 43
0.00000001
 40
0.0
 40
0.0
 40
0.0
 40
0.0
 40
0.2249840127359418
 40
0.8110540729908048
 40
1.0
 40
1.0
 40
1.0
 40
1.0
 10
269.1605731995273
 20
183.1743871319706
 30
0.0
 10
269.1626921794137
 20
183.1854790668833
 30
0.0
 10
269.1703309767062
 20
183.2254648368892
 30
0.0
 10
269.1794267645867
 20
183.2753869764222
 30
0.0
 10
269.1863009028895
 20
183.3146754497175
 30
0.0
 10
269.1879767914587
 20
183.3242538289117
 30
0.0
  0
LINE
  5
115
330
1F
100
AcDbEntity
  8
0
  6
Continuous
 62
     7
370
    30
100
AcDbLine
 10
235.4353271688
 20
222.9843622624
 30
0.0
 11
235.7807669755
 21
183.4008810603
 31
0.0
  0
LINE
  5
116
330
1F
100
AcDbEntity
  8
0
  6
Continuous
 62
     7
370
    30
100
AcDbLine
 10
290.2192329679
 20
183.4008745774
 30
0.0
 11
290.5646728259
 21
222.9843616455
 31
0.0
  0
ARC
  5
117
330
1F
100
AcDbEntity
  8
0
  6
Continuous
 62
     7
370
    30
100
AcDbCircle
 10
235.9349245342
 20
223.0326812915
 30
0.0
 40
0.5000000000000063
100
AcDbArc
 50
90.0
 51
180.5
  0
ARC
  5
118
330
1F
100
AcDbEntity
  8
0
  6
Continuous
 62
     7
370
    30
100
AcDbCircle
 10
290.0650754658
 20
223.0326812915
 30
0.0
 40
0.5
100
AcDbArc
 50
359.5
 51
90.0
  0
ARC
  5
119
330
1F
100
AcDbEntity
  8
0
  6
Continuous
 62
     7
370
    30
100
AcDbCircle
 10
237.7809653945
 20
183.3868712452
 30
0.0
 40
2.000000000000003
100
AcDbArc
 50
180.5
 51
268.3907190999
  0
ARC
  5
11A
330
1F
100
AcDbEntity
  8
0
  6
Continuous
 62
     7
370
    30
100
AcDbCircle
 10
288.2190346055
 20
183.3868712452
 30
0.0
 40
2.000000000000022
100
AcDbArc
 50
271.6092809001
 51
359.5
  0
LINE
  5
11B
330
1F
100
AcDbEntity
  8
0
  6
Continuous
 62
     7
370
    30
100
AcDbLine
 10
255.5
 20
181.0651943787
 30
0.0
 11
255.5
 21
181.0327802915
 31
0.0
  0
LINE
  5
11C
330
1F
100
AcDbEntity
  8
0
  6
Continuous
 62
     7
370
    30
100
AcDbLine
 10
270.5
 20
181.0327802915
 30
0.0
 11
270.5
 21
181.0651943787
 31
0.0
  0
ARC
  5
11D
330
1F
100
AcDbEntity
  8
0
  6
Continuous
 62
     7
370
    30
100
AcDbCircle
 10
263.0
 20
480.9390156385
 30
0.0
 40
300.0000000000003
100
AcDbArc
 50
268.5674562624
 51
271.4325437376
  0
LINE
  5
11E
330
1F
100
AcDbEntity
  8
0
  6
Continuous
 62
     7
370
    30
100
AcDbLine
 10
236.95
 20
224.5826815764
 30
0.0
 11
289.05
 21
224.5826815764
 31
0.0
  0
LINE
  5
11F
330
1F
100
AcDbEntity
  8
0
  6
Continuous
 62
     7
370
    30
100
AcDbLine
 10
178.4998286625
 20
248.0326815748
 30
0.0
 11
347.5001713375
 21
248.0326815748
 31
0.0
  0
LINE
  5
120
330
1F
100
AcDbEntity
  8
0
  6
Continuous
 62
     7
370
    30
100
AcDbLine
 10
290.85
 20
234.2376668776
 30
0.0
 11
235.1499998369
 21
234.2376668776
 31
0.0
  0
ARC
  5
121
330
1F
100
AcDbEntity
  8
0
  6
Continuous
 62
     7
370
    30
100
AcDbCircle
 10
267.2203546916
 20
183.6665098922
 30
0.0
 40
1.997166978615937
100
AcDbArc
 50
350.1324583435
 51
0.0139528147
  0
SPLINE
  5
122
330
1F
100
AcDbEntity
  8
0
  6
Continuous
 62
     7
370
    30
100
AcDbSpline
210
0.0
220
0.0
230
1.0
 70
     8
 71
     3
 72
    16
 73
    12
 74
     0
 42
0.000000001
 43
0.00000001
 40
0.0
 40
0.0
 40
0.0
 40
0.0
 40
0.0865843135373596
 40
0.204989601000618
 40
0.3233948884638732
 40
0.4418001759271297
 40
0.5534401407417039
 40
0.665080105556278
 40
0.7767200703708518
 40
0.8883600351854245
 40
1.0
 40
1.0
 40
1.0
 40
1.0
 10
265.04519382989
 20
211.9628158030383
 30
0.0
 10
264.9941071626299
 20
211.9790504930779
 30
0.0
 10
264.8731587470305
 20
212.017486354005
 30
0.0
 10
264.6796535656767
 20
212.0691084863965
 30
0.0
 10
264.4654582538627
 20
212.1189821147581
 30
0.0
 10
264.2536151168806
 20
212.1599130151722
 30
0.0
 10
264.0446138872771
 20
212.192686908009
 30
0.0
 10
263.8387573630287
 20
212.2177337159835
 30
0.0
 10
263.6321608850126
 20
212.2355197395319
 30
0.0
 10
263.4250690895176
 20
212.2466700679458
 30
0.0
 10
263.2868429056364
 20
212.2480492116827
 30
0.0
 10
263.2177298136958
 20
212.2487387835511
 30
0.0
  0
LINE
  5
123
330
1F
100
AcDbEntity
  8
0
  6
Continuous
 62
     7
370
    30
100
AcDbLine
 10
270.6499999999
 20
181.0651943787
 30
0.0
 11
255.3500000001
 21
181.0651943787
 31
0.0
  0
LINE
  5
124
330
1F
100
AcDbEntity
  8
0
  6
Continuous
 62
     7
370
    30
100
AcDbLine
 10
257.1982040455
 20
206.248748969
 30
0.0
 11
257.1968358546
 21
183.5524178109
 31
0.0
  0
LINE
  5
125
330
1F
100
AcDbEntity
  8
0
  6
Continuous
 62
     7
370
    30
100
AcDbLine
 10
290.5650213728
 20
223.0283180237
 30
0.0
 11
290.5650471406
 21
223.0283180237
 31
0.0
  0
LINE
  5
126
330
1F
100
AcDbEntity
  8
0
  6
Continuous
 62
     7
370
    30
100
AcDbLine
 10
290.2189402357
 20
183.3694181742
 30
0.0
 11
290.2189584516
 21
183.3694181742
 31
0.0
  0
LINE
  5
127
330
1F
100
AcDbEntity
  8
0
  6
Continuous
 62
     7
370
    30
100
AcDbLine
 10
235.7810415484
 20
183.3694181742
 30
0.0
 11
235.7810597664
 21
183.3694181742
 31
0.0
  0
LINE
  5
128
330
1F
100
AcDbEntity
  8
0
  6
Continuous
 62
     7
370
    30
100
AcDbLine
 10
235.9349245342
 20
223.5326812915
 30
0.0
 11
290.0650754658
 21
223.5326812915
 31
0.0
  0
LINE
  5
129
330
1F
100
AcDbEntity
  8
0
  6
Continuous
 62
     7
370
    30
100
AcDbLine
 10
255.5
 20
181.0327802915
 30
0.0
 11
270.5
 21
181.0327802915
 31
0.0
  0
SPLINE
  5
12A
330
1F
100
AcDbEntity
  8
0
  6
Continuous
 62
     7
370
    30
100
AcDbSpline
210
0.0
220
0.0
230
1.0
 70
     8
 71
     3
 72
    15
 73
    11
 74
     0
 42
0.000000001
 43
0.00000001
 40
0.0
 40
0.0
 40
0.0
 40
0.0
 40
0.0005950208799044
 40
0.1468543986587771
 40
0.2930302953028112
 40
0.4391343542425654
 40
0.5851784864299279
 40
0.7311748249613622
 40
0.8771356787387642
 40
1.0
 40
1.0
 40
1.0
 40
1.0
 10
435.8830623033248
 20
125.3057860844055
 30
0.0
 10
435.8832840086383
 20
125.3058789555386
 30
0.0
 10
435.9380020892823
 20
125.3288000577629
 30
0.0
 10
436.0459683429592
 20
125.3770368427653
 30
0.0
 10
436.2067929654874
 20
125.4506885607367
 30
0.0
 10
436.3659762581523
 20
125.5273613263628
 30
0.0
 10
436.52372731425
 20
125.6065921244424
 30
0.0
 10
436.6799235985955
 20
125.6885797158098
 30
0.0
 10
436.8266073331425
 20
125.7684933270258
 30
0.0
 10
436.920483630236
 20
125.8223597999959
 30
0.0
 10
436.963389014835
 20
125.8469790256293
 30
0.0
  0
LINE
  5
12B
330
1F
100
AcDbEntity
  8
0
  6
Continuous
 62
     7
370
    30
100
AcDbLine
 10
417.2213049034
 20
178.0721582711
 30
0.0
 11
411.1820250946
 21
174.5857562476
 31
0.0
  0
LINE
  5
12C
330
1F
100
AcDbEntity
  8
0
  6
Continuous
 62
     7
370
    30
100
AcDbLine
 10
436.9640732291
 20
125.8471395416
 30
0.0
 11
444.7690659875
 21
130.3528659539
 31
0.0
  0
SPLINE
  5
12D
330
1F
100
AcDbEntity
  8
0
  6
Continuous
 62
     7
370
    30
100
AcDbSpline
210
0.0
220
0.0
230
1.0
 70
     8
 71
     3
 72
   212
 73
   208
 74
     0
 42
0.000000001
 43
0.00000001
 40
0.0
 40
0.0
 40
0.0
 40
0.0
 40
0.0005534353958252
 40
0.0053634100485554
 40
0.0101736137881298
 40
0.0149841181137655
 40
0.0197949940040201
 40
0.0246063117983384
 40
0.0294181410799522
 40
0.0342305505612099
 40
0.0390436079710721
 40
0.0438573799456099
 40
0.0486719319213831
 40
0.0534873280320707
 40
0.0583036310088558
 40
0.0631209020844405
 40
0.0679392009014523
 40
0.0727585854246966
 40
0.0775791118584116
 40
0.0824008345679206
 40
0.0872238060064353
 40
0.0920480766465919
 40
0.0968736949175182
 40
0.1017007071471424
 40
0.1065291575097433
 40
0.1113590879793218
 40
0.1161905382884761
 40
0.1210235458926153
 40
0.1258581459403201
 40
0.1306943712490266
 40
0.1355322522865685
 40
0.1403718171580307
 40
0.1452130915985989
 40
0.1500560989715824
 40
0.154900860271875
 40
0.1597473941349186
 40
0.1645957168505087
 40
0.169445842381848
 40
0.1742977823894843
 40
0.1791515462597353
 40
0.1840071411377751
 40
0.1888645719649272
 40
0.1937238415201929
 40
0.1985849504653786
 40
0.2034478973941915
 40
0.2083126788844717
 40
0.2131792895535556
 40
0.2180477221168037
 40
0.2229179674485638
 40
0.2277900146455044
 40
0.232663851092076
 40
0.2375394625280659
 40
0.2424168331175094
 40
0.2472959455189096
 40
0.2521767809569048
 40
0.2570593192943655
 40
0.261943539105465
 40
0.2668294177488898
 40
0.2717169314412983
 40
0.2766060553306939
 40
0.2814967635694924
 40
0.2863890293871639
 40
0.2912828251620897
 40
0.2961781224927484
 40
0.3010748922676738
 40
0.3059731047343654
 40
0.3108727295667895
 40
0.315773735931432
 40
0.320676092551961
 40
0.3255797677716514
 40
0.330484729614778
 40
0.3353909458453338
 40
0.3402983840243978
 40
0.345207011565154
 40
0.3501167957858721
 40
0.3550277039608159
 40
0.3599397033687997
 40
0.3648527613399757
 40
0.3697668452999142
 40
0.3746819228117031
 40
0.3795979616159557
 40
0.384514929668295
 40
0.3894327951749395
 40
0.3943515266260309
 40
0.3992710928266651
 40
0.4041914629261272
 40
0.4091126064447701
 40
0.4140344932990045
 40
0.4189570938243654
 40
0.4238803787966325
 40
0.4288043194508229
 40
0.4337288874989573
 40
0.4386540551454437
 40
0.4435797951011145
 40
0.4485060805957068
 40
0.453432885388683
 40
0.4583601837782576
 40
0.4632879506097071
 40
0.4682161612815424
 40
0.4731447917509471
 40
0.4780738185377467
 40
0.483003218727186
 40
0.4879329699718475
 40
0.4928630504920347
 40
0.4977934390759323
 40
0.5027241150781804
 40
0.5076550584177258
 40
0.5125862495753406
 40
0.5175176695897556
 40
0.5224493000534696
 40
0.5273811231079578
 40
0.5323131214381059
 40
0.5372452782661766
 40
0.5421775773454055
 40
0.5471100029529015
 40
0.5520425398824769
 40
0.5569751734367198
 40
0.5619078894192134
 40
0.5668406741258785
 40
0.5717735143367744
 40
0.576706397307005
 40
0.5816393107579302
 40
0.5865722428678749
 40
0.5915051814348381
 40
0.5964381128006494
 40
0.6013710266000643
 40
0.6063039128840377
 40
0.6112367621102835
 40
0.6161695651338199
 40
0.6211023131972737
 40
0.626034997921389
 40
0.6309676112955998
 40
0.6359001456685839
 40
0.640832593739011
 40
0.645764948546093
 40
0.6506972034606033
 40
0.6556293521756572
 40
0.6605613886979004
 40
0.6654933073385341
 40
0.6704251027046914
 40
0.6753567696908392
 40
0.6802883034703657
 40
0.6852196994872711
 40
0.6901509534478818
 40
0.6950820613131746
 40
0.7000130192906445
 40
0.7049438238267343
 40
0.7098744715993383
 40
0.7148049595104361
 40
0.7197352846787967
 40
0.7246654444330747
 40
0.7295954363049063
 40
0.7345252580220316
 40
0.7394549075020436
 40
0.7443843828457283
 40
0.7493136823310721
 40
0.7542428044069457
 40
0.7591717476874944
 40
0.764100510946086
 40
0.7690290931098906
 40
0.7739574932545802
 40
0.778885710598558
 40
0.7838137444984181
 40
0.7887415944435863
 40
0.7936692600514731
 40
0.7985967410629391
 40
0.8035240373376483
 40
0.8084511488495632
 40
0.8133780756828398
 40
0.8183048180274208
 40
0.8232313761752469
 40
0.8281577505161716
 40
0.8330839415342526
 40
0.8380099498040797
 40
0.8429357759872785
 40
0.8478614208289375
 40
0.8527868851544791
 40
0.8577121698662985
 40
0.862637275940817
 40
0.867562204425251
 40
0.8724869564350763
 40
0.8774115331507585
 40
0.8823359358155201
 40
0.887260165732459
 40
0.892184224262082
 40
0.8971081128199578
 40
0.9020318328742718
 40
0.9069553859436329
 40
0.91187877359493
 40
0.9168019974411544
 40
0.9217250591394036
 40
0.9266479603889562
 40
0.9315707029294341
 40
0.936493288538946
 40
0.9414157190323663
 40
0.9463379962596039
 40
0.9512601221041423
 40
0.956182098481354
 40
0.9611039273371668
 40
0.9660256106464263
 40
0.970947150411684
 40
0.9758685486618854
 40
0.9807898074510422
 40
0.9857109288569538
 40
0.9906319149802615
 40
0.9955527679431364
 40
1.0
 40
1.0
 40
1.0
 40
1.0
 10
388.2756847224493
 20
227.3847326342589
 30
0.0
 10
388.2658784068118
 20
227.3786776883069
 30
0.0
 10
388.1708442036765
 20
227.3199984671959
 30
0.0
 10
387.9920606121169
 20
227.2062103717968
 30
0.0
 10
387.7394537462062
 20
227.0431900555746
 30
0.0
 10
387.4885793929733
 20
226.8772922602047
 30
0.0
 10
387.2392448138233
 20
226.7088586691558
 30
0.0
 10
386.9915118432456
 20
226.5378041312707
 30
0.0
 10
386.7453740986356
 20
226.3641579246297
 30
0.0
 10
386.5008434845697
 20
226.1879187138144
 30
0.0
 10
386.2579270140747
 20
226.0090934238151
 30
0.0
 10
386.0166330230958
 20
225.827686827084
 30
0.0
 10
385.7769695075245
 20
225.6437043392353
 30
0.0
 10
385.5389445710456
 20
225.4571512750248
 30
0.0
 10
385.3025663069565
 20
225.2680330531251
 30
0.0
 10
385.0678428313544
 20
225.0763551467306
 30
0.0
 10
384.8347822754252
 20
224.8821231023822
 30
0.0
 10
384.6033927883539
 20
224.6853425405763
 30
0.0
 10
384.3736825370534
 20
224.4860191613082
 30
0.0
 10
384.1456597063998
 20
224.2841587483145
 30
0.0
 10
383.9193324990011
 20
224.0797671736692
 30
0.0
 10
383.6947091347506
 20
223.8728504022631
 30
0.0
 10
383.4717978501074
 20
223.6634144962705
 30
0.0
 10
383.2506068971222
 20
223.4514656195519
 30
0.0
 10
383.0311445422111
 20
223.237010041985
 30
0.0
 10
382.8134190646818
 20
223.0200541437038
 30
0.0
 10
382.597438755026
 20
222.800604419231
 30
0.0
 10
382.3832119129764
 20
222.578667481486
 30
0.0
 10
382.1707468453482
 20
222.3542500656568
 30
0.0
 10
381.9600518636623
 20
222.1273590329123
 30
0.0
 10
381.7511352815751
 20
221.8980013739564
 30
0.0
 10
381.5440054121151
 20
221.6661842123956
 30
0.0
 10
381.3386705647439
 20
221.4319148079198
 30
0.0
 10
381.1351390422524
 20
221.1952005592775
 30
0.0
 10
380.9334191375052
 20
220.9560490070408
 30
0.0
 10
380.7335191300492
 20
220.7144678361507
 30
0.0
 10
380.5354472825978
 20
220.470464878232
 30
0.0
 10
380.339211837404
 20
220.2240481136757
 30
0.0
 10
380.144821012542
 20
219.9752256734793
 30
0.0
 10
379.9522829981051
 20
219.7240058408447
 30
0.0
 10
379.7616059523424
 20
219.47039705253
 30
0.0
 10
379.5727979977409
 20
219.2144078999507
 30
0.0
 10
379.3858672170744
 20
218.9560471300335
 30
0.0
 10
379.2008216494284
 20
218.6953236458182
 30
0.0
 10
379.017669286219
 20
218.4322465068169
 30
0.0
 10
378.8364180672192
 20
218.1668249291254
 30
0.0
 10
378.657075876604
 20
217.8990682852964
 30
0.0
 10
378.4796505390291
 20
217.628986103975
 30
0.0
 10
378.3041498157551
 20
217.3565880693025
 30
0.0
 10
378.1305814008318
 20
217.0818840201019
 30
0.0
 10
377.9589529173501
 20
216.8048839488419
 30
0.0
 10
377.7892719137744
 20
216.5255980003946
 30
0.0
 10
377.6215458603672
 20
216.244036470593
 30
0.0
 10
377.4557821457128
 20
215.9602098045998
 30
0.0
 10
377.2919880733514
 20
215.6741285950971
 30
0.0
 10
377.1301708585285
 20
215.3858035803023
 30
0.0
 10
376.9703376250694
 20
215.0952456418301
 30
0.0
 10
376.8124954023854
 20
214.8024658024032
 30
0.0
 10
376.6566511226159
 20
214.5074752234298
 30
0.0
 10
376.502811617912
 20
214.2102852024557
 30
0.0
 10
376.3509836178662
 20
213.9109071705029
 30
0.0
 10
376.201173747091
 20
213.609352689309
 30
0.0
 10
376.0533885229489
 20
213.305633448475
 30
0.0
 10
375.9076343534356
 20
212.9997612625375
 30
0.0
 10
375.7639175352189
 20
212.6917480679735
 30
0.0
 10
375.6222442518322
 20
212.3816059201525
 30
0.0
 10
375.4826205720238
 20
212.0693469902445
 30
0.0
 10
375.3450524482573
 20
211.7549835620915
 30
0.0
 10
375.2095457153704
 20
211.4385280290635
 30
0.0
 10
375.0761060893769
 20
211.1199928908942
 30
0.0
 10
374.9447391664257
 20
210.7993907505235
 30
0.0
 10
374.8154504218961
 20
210.476734310936
 30
0.0
 10
374.6882452096428
 20
210.152036372024
 30
0.0
 10
374.5631287613722
 20
209.8253098274666
 30
0.0
 10
374.4401061861574
 20
209.4965676616443
 30
0.0
 10
374.3191824700804
 20
209.1658229465943
 30
0.0
 10
374.2003624759993
 20
208.8330888390039
 30
0.0
 10
374.0836509434332
 20
208.4983785772609
 30
0.0
 10
373.9690524885637
 20
208.1617054785569
 30
0.0
 10
373.856571604344
 20
207.8230829360572
 30
0.0
 10
373.7462126607118
 20
207.4825244161344
 30
0.0
 10
373.6379799048984
 20
207.1400434556722
 30
0.0
 10
373.5318774618318
 20
206.795653659445
 30
0.0
 10
373.4279093346237
 20
206.4493686975737
 30
0.0
 10
373.326079405139
 20
206.1012023030607
 30
0.0
 10
373.2263914346386
 20
205.7511682694096
 30
0.0
 10
373.1288490644925
 20
205.3992804483252
 30
0.0
 10
373.033455816955
 20
205.0455527475009
 30
0.0
 10
372.9402150959991
 20
204.6899991284886
 30
0.0
 10
372.8491301882033
 20
204.3326336046603
 30
0.0
 10
372.7602042636852
 20
203.9734702392488
 30
0.0
 10
372.673440377079
 20
203.6125231434832
 30
0.0
 10
372.5888414685492
 20
203.249806474802
 30
0.0
 10
372.5064103648367
 20
202.8853344351581
 30
0.0
 10
372.4261497803339
 20
202.5191212693992
 30
0.0
 10
372.3480623181835
 20
202.1511812637394
 30
0.0
 10
372.2721504713955
 20
201.7815287443052
 30
0.0
 10
372.1984166239826
 20
201.4101780757687
 30
0.0
 10
372.1268630521036
 20
201.0371436600471
 30
0.0
 10
372.0574919252185
 20
200.6624399350886
 30
0.0
 10
371.9903053072459
 20
200.2860813737247
 30
0.0
 10
371.9253051577227
 20
199.9080824825937
 30
0.0
 10
371.8624933329641
 20
199.5284578011401
 30
0.0
 10
371.8018715872167
 20
199.1472219006687
 30
0.0
 10
371.7434415738066
 20
198.7643893834712
 30
0.0
 10
371.6872048462789
 20
198.3799748820095
 30
0.0
 10
371.633162859524
 20
197.99399305816
 30
0.0
 10
371.5813169708934
 20
197.6064586025134
 30
0.0
 10
371.5316684412973
 20
197.2173862337241
 30
0.0
 10
371.4842184362888
 20
196.826790697916
 30
0.0
 10
371.4389680271269
 20
196.4346867681306
 30
0.0
 10
371.3959181918215
 20
196.0410892438237
 30
0.0
 10
371.3550698161582
 20
195.6460129504033
 30
0.0
 10
371.3164236946999
 20
195.2494727388106
 30
0.0
 10
371.2799805317673
 20
194.8514834851332
 30
0.0
 10
371.2457409423943
 20
194.452060090261
 30
0.0
 10
371.2137054532615
 20
194.0512174795655
 30
0.0
 10
371.1838745036036
 20
193.6489706026225
 30
0.0
 10
371.1562484460922
 20
193.245334432948
 30
0.0
 10
371.130827547694
 20
192.8403239677743
 30
0.0
 10
371.1076119905028
 20
192.4339542278373
 30
0.0
 10
371.0866018725466
 20
192.0262402571986
 30
0.0
 10
371.0677972096208
 20
191.6171971459675
 30
0.0
 10
371.0511979374908
 20
191.206840083096
 30
0.0
 10
371.0368039076045
 20
190.7951842778847
 30
0.0
 10
371.0246148874202
 20
190.3822449366301
 30
0.0
 10
371.0146305610265
 20
189.9680372088518
 30
0.0
 10
371.006850533007
 20
189.5525762667089
 30
0.0
 10
371.0012743290637
 20
189.1358773049247
 30
0.0
 10
370.9979013966184
 20
188.7179555407213
 30
0.0
 10
370.9967311053891
 20
188.2988262137612
 30
0.0
 10
370.9977627479431
 20
187.8785045860922
 30
0.0
 10
371.0009955402289
 20
187.4570059420923
 30
0.0
 10
371.0064286220848
 20
187.0343455884249
 30
0.0
 10
371.0140610577264
 20
186.6105388539891
 30
0.0
 10
371.0238918362141
 20
186.1856010898774
 30
0.0
 10
371.0359198718983
 20
185.7595476693238
 30
0.0
 10
371.0501440048474
 20
185.33239398766
 30
0.0
 10
371.0665630012546
 20
184.9041554622626
 30
0.0
 10
371.0851755538273
 20
184.474847532503
 30
0.0
 10
371.1059802821589
 20
184.044485659688
 30
0.0
 10
371.1289757330828
 20
183.6130853269997
 30
0.0
 10
371.1541603810096
 20
183.1806620394349
 30
0.0
 10
371.1815326282494
 20
182.747231323729
 30
0.0
 10
371.211090805318
 20
182.3128087282835
 30
0.0
 10
371.2428331712284
 20
181.8774098230797
 30
0.0
 10
371.2767579137692
 20
181.4410501995933
 30
0.0
 10
371.3128631497678
 20
181.0037454706949
 30
0.0
 10
371.351146925343
 20
180.5655112705482
 30
0.0
 10
371.3916072161427
 20
180.1263632544973
 30
0.0
 10
371.4342419275729
 20
179.6863170989473
 30
0.0
 10
371.4790488950127
 20
179.2453885012386
 30
0.0
 10
371.5260258840212
 20
178.8035931795073
 30
0.0
 10
371.5751705905322
 20
178.360946872545
 30
0.0
 10
371.6264806410423
 20
177.917465339638
 30
0.0
 10
371.679953592787
 20
177.4731643604125
 30
0.0
 10
371.7355869339104
 20
177.0280597346557
 30
0.0
 10
371.7933780836266
 20
176.5821672821429
 30
0.0
 10
371.8533243923729
 20
176.1355028424422
 30
0.0
 10
371.9154231419577
 20
175.6880822747157
 30
0.0
 10
371.9796715456995
 20
175.2399214575163
 30
0.0
 10
372.0460667485632
 20
174.7910362885629
 30
0.0
 10
372.114605827287
 20
174.3414426845211
 30
0.0
 10
372.1852857905076
 20
173.8911565807605
 30
0.0
 10
372.2581035788781
 20
173.4401939311159
 30
0.0
 10
372.3330560651829
 20
172.9885707076308
 30
0.0
 10
372.4101400544478
 20
172.5363029002934
 30
0.0
 10
372.4893522840479
 20
172.0834065167645
 30
0.0
 10
372.5706894238101
 20
171.6298975821006
 30
0.0
 10
372.6541480761146
 20
171.1757921384583
 30
0.0
 10
372.739724775992
 20
170.7211062448019
 30
0.0
 10
372.8274159912204
 20
170.2658559765924
 30
0.0
 10
372.9172181224181
 20
169.8100574254758
 30
0.0
 10
373.0091275031361
 20
169.3537266989559
 30
0.0
 10
373.1031403999485
 20
168.8968799200664
 30
0.0
 10
373.199253012543
 20
168.4395332270282
 30
0.0
 10
373.2974614738077
 20
167.9817027729048
 30
0.0
 10
373.3977618499215
 20
167.5234047252418
 30
0.0
 10
373.500150140439
 20
167.0646552657111
 30
0.0
 10
373.604622278381
 20
166.6054705897313
 30
0.0
 10
373.7111741303181
 20
166.1458669061014
 30
0.0
 10
373.8198014964622
 20
165.6858604366051
 30
0.0
 10
373.9305001107513
 20
165.2254674156269
 30
0.0
 10
374.0432656409409
 20
164.7647040897467
 30
0.0
 10
374.1580936886917
 20
164.3035867173383
 30
0.0
 10
374.2749797896608
 20
163.8421315681569
 30
0.0
 10
374.3939194135933
 20
163.3803549229196
 30
0.0
 10
374.5149079644148
 20
162.9182730728807
 30
0.0
 10
374.6379407803266
 20
162.4559023194007
 30
0.0
 10
374.7630131339005
 20
161.9932589735105
 30
0.0
 10
374.8901202321774
 20
161.53035935547
 30
0.0
 10
375.0192572167636
 20
161.0672197943172
 30
0.0
 10
375.1504191639451
 20
160.6038566274153
 30
0.0
 10
375.2836010847429
 20
160.140286199993
 30
0.0
 10
375.4187979252001
 20
159.6765248646848
 30
0.0
 10
375.5560045658063
 20
159.2125889810563
 30
0.0
 10
375.6952158241618
 20
158.7484949151412
 30
0.0
 10
375.8364264455603
 20
158.2842590389228
 30
0.0
 10
375.9796311386713
 20
157.8198977299897
 30
0.0
 10
376.1248244429187
 20
157.3554273705491
 30
0.0
 10
376.2720012239729
 20
156.8908643487875
 30
0.0
 10
376.4211548252001
 20
156.4262250514644
 30
0.0
 10
376.5722839668416
 20
155.9615258891931
 30
0.0
 10
376.7253669996092
 20
155.4967831997382
 30
0.0
 10
376.8804579881864
 20
155.0320136065008
 30
0.0
 10
377.0322967326409
 20
154.5821399202833
 30
0.0
 10
377.1334205467876
 20
154.2871948455077
 30
0.0
 10
377.1814262029103
 20
154.1471780556524
 30
0.0
  0
SPLINE
  5
12E
330
1F
100
AcDbEntity
  8
0
  6
Continuous
 62
     7
370
    30
100
AcDbSpline
210
0.0
220
0.0
230
1.0
 70
     8
 71
     3
 72
   212
 73
   208
 74
     0
 42
0.000000001
 43
0.00000001
 40
0.0
 40
0.0
 40
0.0
 40
0.0
 40
0.0044846818578659
 40
0.0094053343427836
 40
0.0143261194444472
 40
0.0192470393388289
 40
0.0241680961829008
 40
0.0290892921131088
 40
0.0340106292446283
 40
0.03893210967015
 40
0.0438537354585932
 40
0.0487755086540599
 40
0.0536974312745574
 40
0.0586195053105438
 40
0.0635417327236106
 40
0.068464115445225
 40
0.0733866553749063
 40
0.0783093543789366
 40
0.083232214288759
 40
0.0881552368991215
 40
0.0930784239663767
 40
0.0980017772069383
 40
0.1029252982950241
 40
0.1078489888608188
 40
0.1127728504887744
 40
0.1176968847149712
 40
0.1226210930253388
 40
0.1275454768531531
 40
0.1324700375769842
 40
0.1373947765178485
 40
0.1423196949370082
 40
0.1472447940332445
 40
0.1521700749401938
 40
0.1570955387235039
 40
0.1620211863778563
 40
0.166947018824093
 40
0.1718730369060564
 40
0.1767992413873573
 40
0.1817256329479962
 40
0.1866522121810875
 40
0.191578979589121
 40
0.1965059355802974
 40
0.2014330804649163
 40
0.2063604144512065
 40
0.2112879376414645
 40
0.216215650027759
 40
0.2211435514877065
 40
0.2260716417799963
 40
0.2309999205397408
 40
0.2359283872738529
 40
0.2408570413560483
 40
0.2457858820219448
 40
0.2507149083640143
 40
0.2556441193259338
 40
0.2605735136973255
 40
0.2655030901081745
 40
0.2704328470230187
 40
0.2753627827349702
 40
0.2802928953595989
 40
0.2852231828287801
 40
0.2901536428841749
 40
0.2950842730707532
 40
0.3000150707299049
 40
0.3049460329926331
 40
0.3098771567725929
 40
0.3148084387585158
 40
0.319739875407074
 40
0.3246714629353038
 40
0.3296031973127689
 40
0.3345350742537415
 40
0.3394670892091642
 40
0.3443992373584194
 40
0.3493315136009618
 40
0.3542639125479368
 40
0.3591964285134235
 40
0.3641290555057323
 40
0.3690617872184326
 40
0.3739946170215226
 40
0.3789275379520816
 40
0.3838605427050582
 40
0.3887936236240435
 40
0.3937267726919089
 40
0.3986599815208967
 40
0.403593241343702
 40
0.4085265430034145
 40
0.4134598769439207
 40
0.4183932332005265
 40
0.4233266013900542
 40
0.428259967798934
 40
0.433193320235113
 40
0.4381266468520845
 40
0.4430599353437781
 40
0.4479931729353839
 40
0.4529263463741832
 40
0.4578594419207744
 40
0.4627924453402447
 40
0.4677253418937743
 40
0.4726581163304873
 40
0.4775907528796503
 40
0.4825232352431232
 40
0.4874555465883412
 40
0.4923876695415758
 40
0.4973195861819687
 40
0.5022512780357828
 40
0.5071827260713542
 40
0.5121139106948157
 40
0.5170448117462784
 40
0.5219754084968794
 40
0.5269056796466934
 40
0.5318356033233215
 40
0.536765157081523
 40
0.541694317903791
 40
0.5466230622019564
 40
0.5515513658199321
 40
0.5564792040375713
 40
0.561406551575718
 40
0.5663333826026951
 40
0.5712596707420503
 40
0.5761853890818177
 40
0.5811105101849923
 40
0.5860350061021957
 40
0.59095884838507
 40
0.5958820081023177
 40
0.6008044558568335
 40
0.6057261618048019
 40
0.6106470956768594
 40
0.6155672268010481
 40
0.6204865241277924
 40
0.6254049562567587
 40
0.6303224914661131
 40
0.6352390977436553
 40
0.6401547428200538
 40
0.6450693942044977
 40
0.6499830192225894
 40
0.6548955850559789
 40
0.6598070587849515
 40
0.6647174074326032
 40
0.6696265980116775
 40
0.6745345975734452
 40
0.679441373258805
 40
0.6843468923515993
 40
0.6892511223339192
 40
0.6941540309435357
 40
0.6990555862334173
 40
0.703955756632984
 40
0.7088545110114863
 40
0.7137518187424733
 40
0.7186476497709163
 40
0.723541974680673
 40
0.7284347647642195
 40
0.7333259920930314
 40
0.7382156295892444
 40
0.743103651098174
 40
0.7479900314614557
 40
0.7528747465908324
 40
0.7577577735419209
 40
0.762639090588509
 40
0.7675186772962771
 40
0.7723965145964057
 40
0.7772725848584974
 40
0.7821468719627127
 40
0.7870193613705873
 40
0.7918900401947356
 40
0.7967588972667439
 40
0.8016259232033087
 40
0.8064911104700497
 40
0.811354453443264
 40
0.8162159484685327
 40
0.8210755939166979
 40
0.825933390236694
 40
0.8307893400046803
 40
0.8356434479697815
 40
0.8404957210957246
 40
0.8453461685983523
 40
0.8501948019790129
 40
0.8550416350529879
 40
0.859886683973597
 40
0.8647299672510358
 40
0.8695715057665321
 40
0.8744113227806561
 40
0.8792494439370664
 40
0.8840858972601822
 40
0.8889207131475438
 40
0.8937539243566327
 40
0.898585565985784
 40
0.9034156754495956
 40
0.9082442924485835
 40
0.913071458933136
 40
0.9178972190616439
 40
0.9227216191533056
 40
0.9275447076350176
 40
0.9323665349830687
 40
0.9371871536594412
 40
0.9420066180427988
 40
0.9468249843544879
 40
0.9516423105795402
 40
0.9564586563830321
 40
0.9612740830220305
 40
0.9660886532529518
 40
0.9709024312351098
 40
0.9757154824305173
 40
0.9805278734997082
 40
0.9853396721949118
 40
0.9901509472496172
 40
0.9949617682660084
 40
0.9997722055995754
 40
1.0
 40
1.0
 40
1.0
 40
1.0
 10
404.027437351389
 20
107.6435233438263
 30
0.0
 10
404.1255057460086
 20
107.5309926427669
 30
0.0
 10
404.3311760854197
 20
107.2949917622509
 30
0.0
 10
404.6456530976741
 20
106.9376066232469
 30
0.0
 10
404.9705786377874
 20
106.5708979221563
 30
0.0
 10
405.2964844658251
 20
106.2059409147798
 30
0.0
 10
405.6233296666887
 20
105.8426979740015
 30
0.0
 10
405.9511107850153
 20
105.4811957750429
 30
0.0
 10
406.279814290594
 20
105.1214436903674
 30
0.0
 10
406.6094293162305
 20
104.7634556561451
 30
0.0
 10
406.9399442449816
 20
104.4072443124461
 30
0.0
 10
407.2713476251186
 20
104.0528225729866
 30
0.0
 10
407.6036279254284
 20
103.7002032040512
 30
0.0
 10
407.9367736012527
 20
103.3493989368875
 30
0.0
 10
408.2707730772626
 20
103.0004224371521
 30
0.0
 10
408.6056147525375
 20
102.6532863126717
 30
0.0
 10
408.9412869996685
 20
102.3080031109387
 30
0.0
 10
409.2777781654562
 20
101.9645853193664
 30
0.0
 10
409.6150765711806
 20
101.6230453648079
 30
0.0
 10
409.9531705129774
 20
101.2833956132819
 30
0.0
 10
410.292048262186
 20
100.9456483696448
 30
0.0
 10
410.6316980656983
 20
100.6098158772859
 30
0.0
 10
410.9721081463024
 20
100.2759103178213
 30
0.0
 10
411.3132667030256
 20
99.94394381079192
 30
0.0
 10
411.6551619114683
 20
99.61392841337057
 30
0.0
 10
411.9977819241411
 20
99.28587612006523
 30
0.0
 10
412.3411148707838
 20
98.95979886244062
 30
0.0
 10
412.6851488586999
 20
98.63570850882532
 30
0.0
 10
413.029871973066
 20
98.31361686404152
 30
0.0
 10
413.3752722772497
 20
97.99353566912622
 30
0.0
 10
413.7213378131133
 20
97.67547660106604
 30
0.0
 10
414.0680566013212
 20
97.35945127252607
 30
0.0
 10
414.4154166416341
 20
97.04547123159047
 30
0.0
 10
414.7634059131977
 20
96.73354796150669
 30
0.0
 10
415.1120123748278
 20
96.42369288043109
 30
0.0
 10
415.4612239652868
 20
96.11591734117872
 30
0.0
 10
415.8110286035574
 20
95.81023263097624
 30
0.0
 10
416.1614141891026
 20
95.50664997122091
 30
0.0
 10
416.5123686021253
 20
95.20518051723997
 30
0.0
 10
416.8638797038148
 20
94.9058353580557
 30
0.0
 10
417.2159353365885
 20
94.60862551615296
 30
0.0
 10
417.5685233243245
 20
94.31356194724886
 30
0.0
 10
417.9216314725857
 20
94.02065554006705
 30
0.0
 10
418.2752475688379
 20
93.72991711611056
 30
0.0
 10
418.6293593826539
 20
93.44135742944357
 30
0.0
 10
418.9839546659139
 20
93.15498716646819
 30
0.0
 10
419.3390211529934
 20
92.87081694570779
 30
0.0
 10
419.6945465609421
 20
92.58885731759112
 30
0.0
 10
420.0505185896527
 20
92.30911876423694
 30
0.0
 10
420.4069249220173
 20
92.0316116992424
 30
0.0
 10
420.7637532240784
 20
91.75634646746839
 30
0.0
 10
421.1209911451679
 20
91.48333334482503
 30
0.0
 10
421.4786263180322
 20
91.21258253806225
 30
0.0
 10
421.8366463589458
 20
90.94410418455715
 30
0.0
 10
422.1950388678136
 20
90.67790835210288
 30
0.0
 10
422.5537914282683
 20
90.41400503869102
 30
0.0
 10
422.9128916077489
 20
90.152404172297
 30
0.0
 10
423.2723269575665
 20
89.8931156106648
 30
0.0
 10
423.632085012961
 20
89.63614914108689
 30
0.0
 10
423.9921532931433
 20
89.38151448018228
 30
0.0
 10
424.3525193013283
 20
89.12922127366949
 30
0.0
 10
424.7131705247482
 20
88.87927909613947
 30
0.0
 10
425.0740944346589
 20
88.63169745082111
 30
0.0
 10
425.4352784863318
 20
88.38648576934105
 30
0.0
 10
425.7967101190288
 20
88.14365341148222
 30
0.0
 10
426.1583767559669
 20
87.90320966493218
 30
0.0
 10
426.5202658042667
 20
87.66516374502758
 30
0.0
 10
426.8823646548921
 20
87.42952479448718
 30
0.0
 10
427.2446606825721
 20
87.19630188313957
 30
0.0
 10
427.6071412457092
 20
86.9655040076422
 30
0.0
 10
427.9697936862751
 20
86.73714009118879
 30
0.0
 10
428.3326053296919
 20
86.51121898320852
 30
0.0
 10
428.695563484701
 20
86.28774945905074
 30
0.0
 10
429.0586554432179
 20
86.06674021966052
 30
0.0
 10
429.4218684801747
 20
85.84819989123845
 30
0.0
 10
429.7851898533452
 20
85.63213702489
 30
0.0
 10
430.1486068031661
 20
85.41856009625481
 30
0.0
 10
430.5121065525369
 20
85.20747750512473
 30
0.0
 10
430.8756763066119
 20
84.99889757504297
 30
0.0
 10
431.2393032525784
 20
84.79282855288724
 30
0.0
 10
431.6029745594288
 20
84.58927860842913
 30
0.0
 10
431.9666773777134
 20
84.38825583388146
 30
0.0
 10
432.3303988392943
 20
84.18976824341543
 30
0.0
 10
432.6941260570778
 20
83.99382377266437
 30
0.0
 10
433.05784612475
 20
83.80043027819804
 30
0.0
 10
433.421546116494
 20
83.60959553697647
 30
0.0
 10
433.7852130867068
 20
83.42132724577792
 30
0.0
 10
434.1488339984018
 20
83.23563305701298
 30
0.0
 10
434.5123957710972
 20
83.05252055107856
 30
0.0
 10
434.8758853000445
 20
82.87199722510513
 30
0.0
 10
435.2392895271335
 20
82.69407045801508
 30
0.0
 10
435.6025953923704
 20
82.51874753517721
 30
0.0
 10
435.9657898140367
 20
82.34603565749332
 30
0.0
 10
436.3288596884003
 20
82.17594194060344
 30
0.0
 10
436.6917918894272
 20
82.00847341406065
 30
0.0
 10
437.0545732685021
 20
81.8436370204676
 30
0.0
 10
437.4171906541545
 20
81.68143961457974
 30
0.0
 10
437.7796308517997
 20
81.52188796236806
 30
0.0
 10
438.1418806434895
 20
81.36498874004627
 30
0.0
 10
438.5039267876785
 20
81.21074853305791
 30
0.0
 10
438.8657560190048
 20
81.05917383502585
 30
0.0
 10
439.2273550480965
 20
80.91027104665896
 30
0.0
 10
439.5887105613957
 20
80.76404647462013
 30
0.0
 10
439.9498092210094
 20
80.62050633035206
 30
0.0
 10
440.3106376645874
 20
80.47965672886279
 30
0.0
 10
440.6711825052316
 20
80.34150368746839
 30
0.0
 10
441.0314303314397
 20
80.20605312449439
 30
0.0
 10
441.3913677070859
 20
80.07331085793516
 30
0.0
 10
441.7509811714417
 20
79.94328260407177
 30
0.0
 10
442.1102572392417
 20
79.81597397604843
 30
0.0
 10
442.4691824007938
 20
79.691390482409
 30
0.0
 10
442.8277431221426
 20
79.56953752559242
 30
0.0
 10
443.1859258452876
 20
79.45042040038935
 30
0.0
 10
443.5437169884582
 20
79.33404429236052
 30
0.0
 10
443.9011029464494
 20
79.22041427621946
 30
0.0
 10
444.2580700910238
 20
79.10953531417859
 30
0.0
 10
444.6146047713829
 20
79.0014122542631
 30
0.0
 10
444.9706933147139
 20
78.89604982859183
 30
0.0
 10
445.3263220268055
 20
78.79345265163118
 30
0.0
 10
445.681477192755
 20
78.69362521842066
 30
0.0
 10
446.0361450777444
 20
78.5965719027766
 30
0.0
 10
446.3903119279217
 20
78.50229695547303
 30
0.0
 10
446.7439639713569
 20
78.41080450240744
 30
0.0
 10
447.0970874191045
 20
78.32209854275196
 30
0.0
 10
447.4496684663528
 20
78.23618294709586
 30
0.0
 10
447.8016932936808
 20
78.15306145558304
 30
0.0
 10
448.1531480684189
 20
78.07273767604752
 30
0.0
 10
448.5040189461088
 20
77.99521508215554
 30
0.0
 10
448.8542920720774
 20
77.92049701155626
 30
0.0
 10
449.2039535831186
 20
77.8485866640477
 30
0.0
 10
449.5529896092862
 20
77.77948709976421
 30
0.0
 10
449.9013862757995
 20
77.71320123739086
 30
0.0
 10
450.2491297050677
 20
77.64973185241134
 30
0.0
 10
450.5962060188235
 20
77.58908157539588
 30
0.0
 10
450.942601340377
 20
77.53125289033605
 30
0.0
 10
451.2883017969762
 20
77.47624813303514
 30
0.0
 10
451.6332935222911
 20
77.42406948955771
 30
0.0
 10
451.9775626590018
 20
77.37471899474954
 30
0.0
 10
452.3210953615038
 20
77.32819853083353
 30
0.0
 10
452.6638777987195
 20
77.28450982608942
 30
0.0
 10
453.0058961570135
 20
77.24365445362561
 30
0.0
 10
453.34713664321
 20
77.20563383025114
 30
0.0
 10
453.6875854877083
 20
77.17044921545451
 30
0.0
 10
454.0272289476902
 20
77.1381017104984
 30
0.0
 10
454.3660533104195
 20
77.10859225763664
 30
0.0
 10
454.7040448966104
 20
77.08192163946225
 30
0.0
 10
455.041190063886
 20
77.0580904783938
 30
0.0
 10
455.3774752102866
 20
77.03709923630548
 30
0.0
 10
455.712886777855
 20
77.01894821431088
 30
0.0
 10
456.0474112562532
 20
77.00363755270375
 30
0.0
 10
456.3810351864342
 20
76.99116723106434
 30
0.0
 10
456.7137451643359
 20
76.98153706853562
 30
0.0
 10
457.0455278445991
 20
76.9747467242754
 30
0.0
 10
457.3763699442964
 20
76.97079569808848
 30
0.0
 10
457.7062582466535
 20
76.96968333124296
 30
0.0
 10
458.0351796047631
 20
76.97140880747513
 30
0.0
 10
458.363120945266
 20
76.97597115418395
 30
0.0
 10
458.6900692719996
 20
76.98336924381852
 30
0.0
 10
459.0160116695884
 20
76.99360179545958
 30
0.0
 10
459.3409353069769
 20
77.00666737659486
 30
0.0
 10
459.6648274408785
 20
77.02256440508832
 30
0.0
 10
459.9876754191359
 20
77.04129115134195
 30
0.0
 10
460.3094666839739
 20
77.06284574064776
 30
0.0
 10
460.6301887751372
 20
77.08722615572682
 30
0.0
 10
460.9498293328934
 20
77.11443023945158
 30
0.0
 10
461.2683761008971
 20
77.14445569774578
 30
0.0
 10
461.5858169288911
 20
77.17730010265706
 30
0.0
 10
461.9021397752428
 20
77.21296089559365
 30
0.0
 10
462.2173327092956
 20
77.25143539071932
 30
0.0
 10
462.5313839135302
 20
77.29272077849575
 30
0.0
 10
462.8442816855246
 20
77.3368141293645
 30
0.0
 10
463.1560144396961
 20
77.38371239755631
 30
0.0
 10
463.4665707088244
 20
77.43341242501755
 30
0.0
 10
463.7759391453444
 20
77.48591094544133
 30
0.0
 10
464.0841085223967
 20
77.54120458838948
 30
0.0
 10
464.3910677346385
 20
77.59928988349363
 30
0.0
 10
464.6968057987963
 20
77.66016326471816
 30
0.0
 10
465.0013118539732
 20
77.72382107467446
 30
0.0
 10
465.3045751616847
 20
77.79025956896568
 30
0.0
 10
465.6065851056454
 20
77.8594749205517
 30
0.0
 10
465.9073311912832
 20
77.93146322411387
 30
0.0
 10
466.2068030449985
 20
78.00622050040654
 30
0.0
 10
466.5049904131558
 20
78.08374270057575
 30
0.0
 10
466.8018831608173
 20
78.16402571042994
 30
0.0
 10
467.0974712702208
 20
78.24706535464657
 30
0.0
 10
467.3917448390038
 20
78.3328574008957
 30
0.0
 10
467.6846940781861
 20
78.42139756386779
 30
0.0
 10
467.9763093099073
 20
78.51268150918416
 30
0.0
 10
468.2665809649376
 20
78.60670485718055
 30
0.0
 10
468.5554995799623
 20
78.70346318653934
 30
0.0
 10
468.8430557946525
 20
78.80295203777102
 30
0.0
 10
469.1292403485502
 20
78.90516691648963
 30
0.0
 10
469.4140440777038
 20
79.01010329660771
 30
0.0
 10
469.6974579113515
 20
79.11775662292497
 30
0.0
 10
469.9794728675997
 20
79.22812231500431
 30
0.0
 10
470.2600800520884
 20
79.3411957652129
 30
0.0
 10
470.5392706448272
 20
79.45697235745267
 30
0.0
 10
470.8170359305483
 20
79.57544740756339
 30
0.0
 10
471.0933671661521
 20
79.69661639478772
 30
0.0
 10
471.3682560555017
 20
79.82047410604432
 30
0.0
 10
471.6416929577294
 20
79.94701783540725
 30
0.0
 10
471.9136735519748
 20
80.07623545147166
 30
0.0
 10
472.184173948533
 20
80.20814992567338
 30
0.0
 10
472.4532435378144
 20
80.34265318280845
 30
0.0
 10
472.7206585070641
 20
80.48012608293101
 30
0.0
 10
472.9025763710464
 20
80.57498927084531
 30
0.0
 10
472.9949314799934
 20
80.62477761606957
 30
0.0
 10
472.9991071467311
 20
80.62702870471483
 30
0.0
  0
LINE
  5
12F
330
1F
100
AcDbEntity
  8
0
  6
Continuous
 62
     7
370
    30
100
AcDbLine
 10
395.0720506479
 20
231.6045859387
 30
0.0
 11
388.3236709405
 21
227.4147718851
 31
0.0
  0
LINE
  5
130
330
1F
100
AcDbEntity
  8
0
  6
Continuous
 62
     7
370
    30
100
AcDbLine
 10
473.0475422466
 20
80.6528202058
 30
0.0
 11
480.0505693104
 21
84.401524305
 31
0.0
  0
SPLINE
  5
131
330
1F
100
AcDbEntity
  8
0
  6
Continuous
 62
     7
370
    30
100
AcDbSpline
210
0.0
220
0.0
230
1.0
 70
     8
 71
     3
 72
   537
 73
   533
 74
     0
 42
0.000000001
 43
0.00000001
 40
0.0
 40
0.0
 40
0.0
 40
0.0
 40
0.0005100469541148
 40
0.0023919029136607
 40
0.004273742550915
 40
0.0061555738377467
 40
0.0080374037255823
 40
0.0099192385767308
 40
0.0118010863694336
 40
0.013682955054689
 40
0.0155648525402679
 40
0.017446786674895
 40
0.0193287652326677
 40
0.0212107958977261
 40
0.0230928862492501
 40
0.0249750437468956
 40
0.026857275716627
 40
0.0287395893370571
 40
0.0306219916262619
 40
0.0325044894293219
 40
0.0343870894062694
 40
0.0362697980208593
 40
0.0381526215300031
 40
0.040035565973772
 40
0.0419186371663297
 40
0.0438018406875751
 40
0.0456851818754064
 40
0.0475686658190178
 40
0.0494522973528284
 40
0.0513360810513261
 40
0.0532200212245505
 40
0.0551041219146147
 40
0.0569883868928355
 40
0.0588728196577697
 40
0.0607574234339337
 40
0.0626422011713972
 40
0.0645271555459831
 40
0.06641228896033
 40
0.0682976035455357
 40
0.0701831011635723
 40
0.0720687834102405
 40
0.0739546516187623
 40
0.0758407068640939
 40
0.0777269499674979
 40
0.0796133815019203
 40
0.0815000017976275
 40
0.0833868109484275
 40
0.0852738088181747
 40
0.0871609950477133
 40
0.089048369062129
 40
0.0909359300782389
 40
0.092823677112474
 40
0.0947116089887595
 40
0.0965997243468115
 40
0.0984880216503657
 40
0.1003764991957044
 40
0.1022651551201232
 40
0.1041539874105184
 40
0.106042993911977
 40
0.1079321723363607
 40
0.1098215202708302
 40
0.111711035186369
 40
0.1136007144461493
 40
0.1154905553138017
 40
0.1173805549616481
 40
0.1192707104786623
 40
0.1211610188783078
 40
0.1230514771062795
 40
0.1249420820478809
 40
0.1268328305354516
 40
0.1287237193552265
 40
0.1306147452543306
 40
0.1325059049472909
 40
0.1343971951223972
 40
0.1362886124478474
 40
0.1381801535775613
 40
0.1400718151568005
 40
0.1419635938275096
 40
0.1438554862334372
 40
0.1457474890249371
 40
0.147639598863554
 40
0.1495318124263912
 40
0.1514241264101342
 40
0.1533165375348823
 40
0.1552090425478177
 40
0.1571016382264987
 40
0.1589943213819545
 40
0.1608870888616394
 40
0.1627799375520878
 40
0.1646728643813141
 40
0.1665658663211597
 40
0.168458940389294
 40
0.170352083651047
 40
0.1722452932211321
 40
0.174138566265083
 40
0.1760319000006527
 40
0.1779252916988481
 40
0.1798187386850425
 40
0.1817122383397587
 40
0.1836057880994148
 40
0.1854993854568401
 40
0.1873930279617954
 40
0.1892867132212287
 40
0.1911804388995275
 40
0.1930742027185848
 40
0.1949680024578515
 40
0.1968618359541849
 40
0.198755701101711
 40
0.2006495958515501
 40
0.202543518211494
 40
0.2044374662455663
 40
0.2063314380735657
 40
0.2082254318705779
 40
0.2101194458662974
 40
0.2120134783444556
 40
0.2139075276421175
 40
0.2158015921489708
 40
0.217695670306576
 40
0.2195897606075149
 40
0.2214838615946366
 40
0.2233779718601629
 40
0.2252720900448138
 40
0.2271662148369968
 40
0.2290603449717557
 40
0.2309544792299967
 40
0.2328486164374617
 40
0.2347427554638153
 40
0.2366368951601906
 40
0.2385310342032573
 40
0.2404251716023474
 40
0.242319306406497
 40
0.2442134377036451
 40
0.2461075646196188
 40
0.2480016863172528
 40
0.2498958019953504
 40
0.2517899108878708
 40
0.2536840122629271
 40
0.25557810542198
 40
0.2574721896987531
 40
0.2593662644585622
 40
0.2612603290972662
 40
0.2631543830405166
 40
0.2650484257428808
 40
0.2669424566869645
 40
0.2688364753826041
 40
0.2707304813661366
 40
0.2726244741994994
 40
0.2745184534695085
 40
0.2764124187871046
 40
0.278306369786574
 40
0.2802003061248771
 40
0.2820942274808849
 40
0.2839881335546564
 40
0.2858820240668564
 40
0.287775898757969
 40
0.2896697573877632
 40
0.2915635997345787
 40
0.2934574255947051
 40
0.2953512347818665
 40
0.2972450271265284
 40
0.2991388024753832
 40
0.301032560690788
 40
0.3029263016502246
 40
0.3048200252457535
 40
0.3067137313835105
 40
0.3086074199832224
 40
0.3105010909777266
 40
0.3123947443124613
 40
0.314288379945035
 40
0.3161819978448278
 40
0.3180755979924434
 40
0.3199691803794447
 40
0.3218627450078261
 40
0.3237562918896877
 40
0.3256498210468221
 40
0.3275433325103582
 40
0.3294368263204312
 40
0.331330302525777
 40
0.3332237611834711
 40
0.3351172023585395
 40
0.33701062612369
 40
0.3389040325589865
 40
0.3407974217515724
 40
0.3426907937953731
 40
0.3445841487908394
 40
0.3464774868446558
 40
0.3483708080695315
 40
0.3502641125839018
 40
0.352157400511714
 40
0.3540506719822194
 40
0.3559439271297047
 40
0.3578371660933302
 40
0.3597303890168678
 40
0.3616235960485636
 40
0.3635167873408899
 40
0.3654099630503934
 40
0.3673031233375215
 40
0.3691962683664337
 40
0.3710893983048176
 40
0.3729825133237873
 40
0.374875613597677
 40
0.3767686993039108
 40
0.3786617706229028
 40
0.3805548277378341
 40
0.3824478708345767
 40
0.3843409001016067
 40
0.3862339157297949
 40
0.3881269179123346
 40
0.3900199068446719
 40
0.39191288272428
 40
0.393805845750721
 40
0.395698796125397
 40
0.3975917340515289
 40
0.3994846597341089
 40
0.4013775733796713
 40
0.4032704751963846
 40
0.4051633653938091
 40
0.4070562441829402
 40
0.4089491117760973
 40
0.4108419683868272
 40
0.4127348142298838
 40
0.4146276495211101
 40
0.4165204744774305
 40
0.4184132893167463
 40
0.4203060942579523
 40
0.4221988895207839
 40
0.4240916753258163
 40
0.425984451894467
 40
0.4278772194488614
 40
0.4297699782118409
 40
0.4316627284068871
 40
0.4335554702581694
 40
0.435448203990333
 40
0.4373409298287038
 40
0.4392336479990369
 40
0.4411263587275736
 40
0.4430190622410661
 40
0.4449117587665961
 40
0.4468044485317624
 40
0.4486971317644371
 40
0.4505898086929085
 40
0.4524824795457126
 40
0.454375144551765
 40
0.4562678039402441
 40
0.45816045794054
 40
0.4600531067823446
 40
0.4619457506955633
 40
0.4638383899103068
 40
0.4657310246568728
 40
0.4676236551657631
 40
0.46951628166761
 40
0.4714089043932368
 40
0.4733015235736022
 40
0.4751941394397823
 40
0.4770867522229846
 40
0.4789793621545495
 40
0.480871969465866
 40
0.4827645743884224
 40
0.4846571771538563
 40
0.4865497779938353
 40
0.4884423771400781
 40
0.4903349748243961
 40
0.4922275712786323
 40
0.4941201667346986
 40
0.4960127614245514
 40
0.4979053555801443
 40
0.4997979494334989
 40
0.501690543216645
 40
0.5035831371337072
 40
0.5054757313673274
 40
0.5073683261495385
 40
0.509260921712446
 40
0.5111535182880892
 40
0.5130461161085327
 40
0.514938715405824
 40
0.5168313164119489
 40
0.51872391935891
 40
0.5206165244786682
 40
0.5225091320030921
 40
0.5244017421640549
 40
0.5262943551933439
 40
0.528186971322711
 40
0.5300795907837662
 40
0.5319722138081014
 40
0.5338648406271698
 40
0.535757471472357
 40
0.5376501065748686
 40
0.5395427461658594
 40
0.5414353904762824
 40
0.5433280397369841
 40
0.545220694178609
 40
0.5471133540315909
 40
0.5490060195262438
 40
0.5508986908925885
 40
0.5527913683604518
 40
0.5546840521594064
 40
0.5565767425187056
 40
0.5584694396673824
 40
0.5603621438340693
 40
0.5622548552471234
 40
0.5641475741344917
 40
0.566040300723743
 40
0.567933035242009
 40
0.5698257779159792
 40
0.5717185289718789
 40
0.5736112886353931
 40
0.5755040571316095
 40
0.5773968346850972
 40
0.579289621519758
 40
0.5811824178588245
 40
0.5830752239248126
 40
0.5849680399395049
 40
0.5868608661238546
 40
0.5887537026979532
 40
0.5906465498809764
 40
0.592539407891188
 40
0.5944322769457449
 40
0.5963251572608249
 40
0.5982180490513576
 40
0.6001109525311317
 40
0.6020038679126188
 40
0.6038967954069808
 40
0.6057897352238834
 40
0.6076826875715696
 40
0.6095756526566172
 40
0.6114686306839865
 40
0.6133616218568407
 40
0.6152546263764773
 40
0.6171476444422905
 40
0.6190406762515162
 40
0.6209337219993537
 40
0.6228267818786322
 40
0.6247198560798246
 40
0.6266129447908941
 40
0.6285060481971797
 40
0.6303991664812459
 40
0.6322922998227511
 40
0.6341854483983106
 40
0.6360786123813663
 40
0.637971791942044
 40
0.639864987246937
 40
0.641758198458982
 40
0.6436514257373311
 40
0.6455446692370554
 40
0.6474379291091243
 40
0.6493312055000499
 40
0.6512244985518154
 40
0.6531178084016294
 40
0.6550111351816629
 40
0.6569044790188682
 40
0.6587978400348529
 40
0.6606912183454183
 40
0.6625846140605384
 40
0.6644780272839492
 40
0.6663714581129898
 40
0.6682649066382594
 40
0.6701583729433682
 40
0.6720518571046648
 40
0.673945359190918
 40
0.6758388792629444
 40
0.6777324173734208
 40
0.6796259735664062
 40
0.681519547877149
 40
0.6834131403315614
 40
0.6853067509460142
 40
0.687200379726828
 40
0.6890940266700163
 40
0.6909876917607332
 40
0.6928813749729937
 40
0.6947750762691779
 40
0.6966687955995517
 40
0.6985625329019084
 40
0.7004562881010765
 40
0.7023500611083304
 40
0.7042438518210505
 40
0.7061376601221299
 40
0.7080314858794302
 40
0.7099253289452955
 40
0.7118191891559588
 40
0.713713066330996
 40
0.7156069602727329
 40
0.7175008707656636
 40
0.7193947975757591
 40
0.7212887404499417
 40
0.7231826991153353
 40
0.7250766732787132
 40
0.7269706626257115
 40
0.7288646668201597
 40
0.7307586855034404
 40
0.7326527182936713
 40
0.7345467647849564
 40
0.7364408245467388
 40
0.7383348971229184
 40
0.7402289820310599
 40
0.74212307876167
 40
0.7440171867772767
 40
0.7459113055117121
 40
0.7478054343690975
 40
0.7496995727231558
 40
0.7515937199161956
 40
0.7534878752583146
 40
0.7553820380264498
 40
0.7572762074634679
 40
0.7591703827773056
 40
0.7610645631399018
 40
0.7629587476864049
 40
0.7648529355141598
 40
0.7667471256817724
 40
0.768641317208119
 40
0.7705355088792251
 40
0.7724296994603339
 40
0.7743238878310866
 40
0.7762180728272894
 40
0.7781122532399221
 40
0.7800064278142084
 40
0.7819005952487625
 40
0.7837947541945317
 40
0.7856889032539985
 40
0.7875830409802813
 40
0.7894771658761969
 40
0.7913712763935123
 40
0.7932653709321188
 40
0.7951594478391527
 40
0.7970535054084387
 40
0.7989475418795953
 40
0.8008415554374801
 40
0.8027355442115613
 40
0.8046295062753587
 40
0.8065234396459621
 40
0.808417342283527
 40
0.8103112120909768
 40
0.8122050469137138
 40
0.8140988445393472
 40
0.8159926026976154
 40
0.8178863190603203
 40
0.8197799912414423
 40
0.8216736167972546
 40
0.8235671932266214
 40
0.8254607179713986
 40
0.8273541884169865
 40
0.8292476018929306
 40
0.8311409556738057
 40
0.833034246980064
 40
0.8349274729791926
 40
0.836820630787021
 40
0.8387137174690541
 40
0.8406067300421406
 40
0.8424996654762762
 40
0.8443925206966186
 40
0.846285292585594
 40
0.8481779779853372
 40
0.8500705737003231
 40
0.8519630765001647
 40
0.8538554831226739
 40
0.8557477902771554
 40
0.8576399946479224
 40
0.8595320928980309
 40
0.8614240816733848
 40
0.86331595760685
 40
0.8652077173229329
 40
0.8670993574423932
 40
0.8689908745874065
 40
0.8708822653867323
 40
0.8727735264813766
 40
0.8746646545302518
 40
0.8765556462163333
 40
0.8784464982529109
 40
0.8803372073901216
 40
0.8822277704217696
 40
0.8841181841923208
 40
0.8860084456041085
 40
0.8878985516247676
 40
0.8897884992949633
 40
0.8916782857361456
 40
0.893567908158541
 40
0.895457363869351
 40
0.8973466502809706
 40
0.899235764919478
 40
0.9011247054330205
 40
0.9030134696004933
 40
0.9049020553400066
 40
0.9067904607176688
 40
0.9086786839560735
 40
0.910566723442936
 40
0.9124545777395734
 40
0.9143422455893477
 40
0.9162297259258383
 40
0.9181170178810565
 40
0.920004120793231
 40
0.9218910342145741
 40
0.9237777579184709
 40
0.9256642919067227
 40
0.9275506364161282
 40
0.9294367919248335
 40
0.9313227591581974
 40
0.9332085390942468
 40
0.9350941329685404
 40
0.9369795422785608
 40
0.9388647687875831
 40
0.9407498145277784
 40
0.9426346818028927
 40
0.9445193731900832
 40
0.9464038915411428
 40
0.9482882399830451
 40
0.9501724219176517
 40
0.9520564410207406
 40
0.9539403012402087
 40
0.9558240067935915
 40
0.9577075621645562
 40
0.9595909720988867
 40
0.9614742415993771
 40
0.9633573759201624
 40
0.9652403805599876
 40
0.967123261254967
 40
0.9690060239703083
 40
0.970888674891413
 40
0.9727712204141993
 40
0.9746536671346548
 40
0.9765360218377764
 40
0.9784182914857793
 40
0.9803004832057075
 40
0.982182604276472
 40
0.9840646621152656
 40
0.9859466642636012
 40
0.9878286183727905
 40
0.9897105321890357
 40
0.9915924135382668
 40
0.993474270310577
 40
0.9953561104443929
 40
0.9972379419106703
 40
0.9991197717663125
 40
1.0
 40
1.0
 40
1.0
 40
1.0
 10
480.2397523056513
 20
84.50405038540174
 30
0.0
 10
480.2632604210406
 20
84.51676061919785
 30
0.0
 10
480.3735034667853
 20
84.57636620061531
 30
0.0
 10
480.5689771978126
 20
84.6855244118897
 30
0.0
 10
480.8261143774488
 20
84.83159913055552
 30
0.0
 10
481.0816100040683
 20
84.9805216996978
 30
0.0
 10
481.335602735105
 20
85.13202556312133
 30
0.0
 10
481.588044152017
 20
85.28617542733855
 30
0.0
 10
481.838936067822
 20
85.44294716726917
 30
0.0
 10
482.088266976334
 20
85.60234041681922
 30
0.0
 10
482.3360290126818
 20
85.76434836093624
 30
0.0
 10
482.5822133879167
 20
85.92896581712716
 30
0.0
 10
482.8268116112288
 20
86.09618706885091
 30
0.0
 10
483.0698151614443
 20
86.2660064448481
 30
0.0
 10
483.3112155741451
 20
86.43841816260597
 30
0.0
 10
483.551004417523
 20
86.61341636893408
 30
0.0
 10
483.7891732981589
 20
86.79099512766348
 30
0.0
 10
484.0257138588922
 20
86.97114842145967
 30
0.0
 10
484.2606177789304
 20
87.15387014981287
 30
0.0
 10
484.4938767734731
 20
87.33915412801605
 30
0.0
 10
484.7254825935901
 20
87.52699408585497
 30
0.0
 10
484.9554270261532
 20
87.71738366635847
 30
0.0
 10
485.1837018938754
 20
87.91031642452535
 30
0.0
 10
485.4102990554452
 20
88.10578582606033
 30
0.0
 10
485.6352104057579
 20
88.3037852461186
 30
0.0
 10
485.8584278762403
 20
88.50430796806808
 30
0.0
 10
486.0799434352709
 20
88.70734718227563
 30
0.0
 10
486.2997490886863
 20
88.91289598492155
 30
0.0
 10
486.5178368803843
 20
89.12094737685658
 30
0.0
 10
486.734198893002
 20
89.3314942624939
 30
0.0
 10
486.948827248683
 20
89.54452944875452
 30
0.0
 10
487.1617141099165
 20
89.7600456440622
 30
0.0
 10
487.3728516804568
 20
89.97803545740155
 30
0.0
 10
487.5822322063037
 20
90.19849139743275
 30
0.0
 10
487.7898479767532
 20
90.42140587167741
 30
0.0
 10
487.9956913255015
 20
90.64677118576994
 30
0.0
 10
488.1997546318086
 20
90.87457954278614
 30
0.0
 10
488.4020303217044
 20
91.1048230426435
 30
0.0
 10
488.6025108692438
 20
91.33749368158378
 30
0.0
 10
488.8011887977937
 20
91.57258335173054
 30
0.0
 10
488.9980566813536
 20
91.8100838407285
 30
0.0
 10
489.1931071459045
 20
92.04998683146648
 30
0.0
 10
489.3863328707743
 20
92.29228390187811
 30
0.0
 10
489.5777265900238
 20
92.53696652482968
 30
0.0
 10
489.7672810938354
 20
92.78402606808123
 30
0.0
 10
489.9549892299147
 20
93.03345379433708
 30
0.0
 10
490.1408439048848
 20
93.28524086136797
 30
0.0
 10
490.3248380856793
 20
93.53937832221473
 30
0.0
 10
490.5069648009231
 20
93.79585712546546
 30
0.0
 10
490.6872171422993
 20
94.05466811560595
 30
0.0
 10
490.8655882659
 20
94.31580203344406
 30
0.0
 10
491.0420713935493
 20
94.57924951659722
 30
0.0
 10
491.2166598141065
 20
94.84500110005153
 30
0.0
 10
491.3893468847323
 20
95.1130472167746
 30
0.0
 10
491.5601260321296
 20
95.38337819839623
 30
0.0
 10
491.7289907537424
 20
95.65598427593724
 30
0.0
 10
491.8959346189208
 20
95.93085558059566
 30
0.0
 10
492.0609512700427
 20
96.20798214457699
 30
0.0
 10
492.2240344235946
 20
96.4873539019721
 30
0.0
 10
492.385177871208
 20
96.76896068967473
 30
0.0
 10
492.5443754806498
 20
97.05279224833785
 30
0.0
 10
492.7016211967664
 20
97.33883822336244
 30
0.0
 10
492.8569090423795
 20
97.62708816591636
 30
0.0
 10
493.0102331191345
 20
97.91753153398069
 30
0.0
 10
493.1615876083002
 20
98.21015769341878
 30
0.0
 10
493.3109667715184
 20
98.50495591906461
 30
0.0
 10
493.4583649515066
 20
98.80191539582755
 30
0.0
 10
493.6037765727092
 20
99.10102521980812
 30
0.0
 10
493.7471961419066
 20
99.40227439943193
 30
0.0
 10
493.8886182487684
 20
99.70565185657749
 30
0.0
 10
494.0280375663684
 20
100.0111464277218
 30
0.0
 10
494.1654488516463
 20
100.3187468650751
 30
0.0
 10
494.3008469458308
 20
100.6284418377254
 30
0.0
 10
494.4342267748156
 20
100.940219932773
 30
0.0
 10
494.5655833494948
 20
101.2540696564617
 30
0.0
 10
494.6949117660561
 20
101.5699794353026
 30
0.0
 10
494.8222072062357
 20
101.8879376171863
 30
0.0
 10
494.9474649375352
 20
102.2079324724879
 30
0.0
 10
495.070680313402
 20
102.5299521951559
 30
0.0
 10
495.1918487733748
 20
102.8539849037881
 30
0.0
 10
495.3109658431966
 20
103.1800186426919
 30
0.0
 10
495.4280271348955
 20
103.5080413829277
 30
0.0
 10
495.543028346836
 20
103.8380410233332
 30
0.0
 10
495.6559652637433
 20
104.1700053915329
 30
0.0
 10
495.7668337567007
 20
104.5039222449266
 30
0.0
 10
495.8756297831218
 20
104.8397792716588
 30
0.0
 10
495.9823493867005
 20
105.1775640915643
 30
0.0
 10
496.0869886973383
 20
105.5172642570981
 30
0.0
 10
496.1895439310534
 20
105.8588672542407
 30
0.0
 10
496.2900113898708
 20
106.2023605033855
 30
0.0
 10
496.3883874616954
 20
106.5477313602029
 30
0.0
 10
496.4846686201706
 20
106.8949671164853
 30
0.0
 10
496.5788514245221
 20
107.2440550009694
 30
0.0
 10
496.6709325193893
 20
107.5949821801365
 30
0.0
 10
496.760908634647
 20
107.9477357589992
 30
0.0
 10
496.8487765852144
 20
108.3023027818574
 30
0.0
 10
496.9345332708581
 20
108.6586702330444
 30
0.0
 10
497.0181756759853
 20
109.0168250376455
 30
0.0
 10
497.0997008694326
 20
109.3767540622066
 30
0.0
 10
497.179106004247
 20
109.7384441154147
 30
0.0
 10
497.2563883174645
 20
110.1018819487688
 30
0.0
 10
497.3315451298834
 20
110.4670542572275
 30
0.0
 10
497.4045738458358
 20
110.8339476798451
 30
0.0
 10
497.4754719529564
 20
111.202548800386
 30
0.0
 10
497.5442370219512
 20
111.5728441479292
 30
0.0
 10
497.6108667063638
 20
111.9448201974536
 30
0.0
 10
497.6753587423437
 20
112.3184633704122
 30
0.0
 10
497.737710948414
 20
112.6937600352905
 30
0.0
 10
497.7979212252407
 20
113.0706965081557
 30
0.0
 10
497.8559875554038
 20
113.4492590531895
 30
0.0
 10
497.9119080031699
 20
113.829433883211
 30
0.0
 10
497.9656807142682
 20
114.2112071601911
 30
0.0
 10
498.0173039156683
 20
114.5945649957524
 30
0.0
 10
498.0667759153623
 20
114.9794934516633
 30
0.0
 10
498.1140951021487
 20
115.3659785403182
 30
0.0
 10
498.1592599454221
 20
115.7540062252168
 30
0.0
 10
498.2022689949654
 20
116.1435624214322
 30
0.0
 10
498.2431208807459
 20
116.5346329960688
 30
0.0
 10
498.2818143127164
 20
116.927203768718
 30
0.0
 10
498.31834808062
 20
117.3212605119038
 30
0.0
 10
498.3527210537994
 20
117.7167889515267
 30
0.0
 10
498.3849321810111
 20
118.1137747673033
 30
0.0
 10
498.4149804902434
 20
118.512203593195
 30
0.0
 10
498.4428650885392
 20
118.912061017843
 30
0.0
 10
498.4685851618239
 20
119.313332584987
 30
0.0
 10
498.4921399747363
 20
119.7160037938941
 30
0.0
 10
498.513528870234
 20
120.1200600953998
 30
0.0
 10
498.5327512688307
 20
120.5254868768003
 30
0.0
 10
498.5498066698988
 20
120.9322694827795
 30
0.0
 10
498.5646946516163
 20
121.3403932202619
 30
0.0
 10
498.5774148710232
 20
121.7498433745857
 30
0.0
 10
498.587967062893
 20
122.1606051890856
 30
0.0
 10
498.5963510395965
 20
122.5726638655131
 30
0.0
 10
498.6025666909683
 20
122.9860045644391
 30
0.0
 10
498.6066139841769
 20
123.4006124056701
 30
0.0
 10
498.6084929635998
 20
123.8164724686539
 30
0.0
 10
498.6082037507
 20
124.2335697929015
 30
0.0
 10
498.6057465439074
 20
124.651889378388
 30
0.0
 10
498.6011216185022
 20
125.0714161859769
 30
0.0
 10
498.5943293265022
 20
125.4921351378247
 30
0.0
 10
498.5853700965523
 20
125.9140311178097
 30
0.0
 10
498.5742444338164
 20
126.3370889719447
 30
0.0
 10
498.5609529198728
 20
126.7612935088003
 30
0.0
 10
498.545496212611
 20
127.1866294999243
 30
0.0
 10
498.5278750461312
 20
127.6130816802701
 30
0.0
 10
498.5080902306453
 20
128.0406347486228
 30
0.0
 10
498.4861426523807
 20
128.4692733680306
 30
0.0
 10
498.4620332734846
 20
128.8989821662335
 30
0.0
 10
498.435763131931
 20
129.3297457361007
 30
0.0
 10
498.4073333414284
 20
129.7615486360704
 30
0.0
 10
498.3767450913286
 20
130.1943753905883
 30
0.0
 10
498.3439996465376
 20
130.6282104905494
 30
0.0
 10
498.3090983474265
 20
131.0630383937464
 30
0.0
 10
498.2720426097438
 20
131.4988435253149
 30
0.0
 10
498.2328339245276
 20
131.9356102781928
 30
0.0
 10
498.1914738580193
 20
132.3733230135689
 30
0.0
 10
498.1479640515774
 20
132.811966061343
 30
0.0
 10
498.1023062215911
 20
133.2515237205883
 30
0.0
 10
498.054502159395
 20
133.691980260013
 30
0.0
 10
498.0045537311825
 20
134.1333199184311
 30
0.0
 10
497.9524628779205
 20
134.5755269052286
 30
0.0
 10
497.8982316152629
 20
135.0185854008408
 30
0.0
 10
497.8418620334647
 20
135.4624795572268
 30
0.0
 10
497.783356297294
 20
135.9071934983493
 30
0.0
 10
497.7227166459462
 20
136.3527113206563
 30
0.0
 10
497.6599453929541
 20
136.7990170935695
 30
0.0
 10
497.5950449261003
 20
137.2460948599709
 30
0.0
 10
497.5280177073276
 20
137.6939286366936
 30
0.0
 10
497.458866272647
 20
138.1425024150186
 30
0.0
 10
497.3875932320485
 20
138.5918001611686
 30
0.0
 10
497.3142012694057
 20
139.0418058168145
 30
0.0
 10
497.2386931423837
 20
139.4925032995715
 30
0.0
 10
497.1610716823426
 20
139.9438765035126
 30
0.0
 10
497.0813397942423
 20
140.3959092996704
 30
0.0
 10
496.9995004565433
 20
140.848585536552
 30
0.0
 10
496.9155567211079
 20
141.3018890406537
 30
0.0
 10
496.8295117130986
 20
141.7558036169759
 30
0.0
 10
496.7413686308752
 20
142.2103130495458
 30
0.0
 10
496.6511307458916
 20
142.6654011019355
 30
0.0
 10
496.5588014025877
 20
143.1210515177897
 30
0.0
 10
496.4643840182834
 20
143.5772480213504
 30
0.0
 10
496.3678820830668
 20
144.0339743179881
 30
0.0
 10
496.2692991596838
 20
144.4912140947327
 30
0.0
 10
496.1686388834231
 20
144.9489510208084
 30
0.0
 10
496.0659049620015
 20
145.4071687481685
 30
0.0
 10
495.9611011754451
 20
145.8658509120362
 30
0.0
 10
495.8542313759694
 20
146.3249811314436
 30
0.0
 10
495.7452994878578
 20
146.7845430097747
 30
0.0
 10
495.634309507336
 20
147.2445201353107
 30
0.0
 10
495.5212655024469
 20
147.7048960817763
 30
0.0
 10
495.4061716129196
 20
148.165654408891
 30
0.0
 10
495.2890320500406
 20
148.6267786629151
 30
0.0
 10
495.1698510965184
 20
149.0882523772078
 30
0.0
 10
495.0486331063483
 20
149.5500590727764
 30
0.0
 10
494.9253825046743
 20
150.0121822588366
 30
0.0
 10
494.8001037876478
 20
150.4746054333678
 30
0.0
 10
494.6728015222847
 20
150.9373120836746
 30
0.0
 10
494.54348034632
 20
151.4002856869452
 30
0.0
 10
494.4121449680596
 20
151.8635097108154
 30
0.0
 10
494.27880016623
 20
152.3269676139317
 30
0.0
 10
494.1434507898243
 20
152.7906428465182
 30
0.0
 10
494.0061017579466
 20
153.2545188509439
 30
0.0
 10
493.866758059655
 20
153.7185790622887
 30
0.0
 10
493.7254247537995
 20
154.1828069089132
 30
0.0
 10
493.5821069688594
 20
154.6471858130305
 30
0.0
 10
493.4368099027766
 20
155.1116991912778
 30
0.0
 10
493.2895388227875
 20
155.5763304552895
 30
0.0
 10
493.1402990652517
 20
156.0410630122704
 30
0.0
 10
492.9890960354791
 20
156.5058802655685
 30
0.0
 10
492.8359352075511
 20
156.9707656152582
 30
0.0
 10
492.6808221241443
 20
157.4357024587083
 30
0.0
 10
492.5237623963466
 20
157.9006741911676
 30
0.0
 10
492.3647617034731
 20
158.3656642063402
 30
0.0
 10
492.2038257928808
 20
158.8306558969635
 30
0.0
 10
492.0409604797758
 20
159.2956326553945
 30
0.0
 10
491.8761716470252
 20
159.7605778741794
 30
0.0
 10
491.709465244958
 20
160.2254749466473
 30
0.0
 10
491.5408472911703
 20
160.6903072674848
 30
0.0
 10
491.3703238703224
 20
161.1550582333236
 30
0.0
 10
491.1979011339375
 20
161.6197112433224
 30
0.0
 10
491.0235853001959
 20
162.0842496997477
 30
0.0
 10
490.8473826537263
 20
162.5486570085621
 30
0.0
 10
490.669299545396
 20
163.0129165800048
 30
0.0
 10
490.4893423920943
 20
163.4770118291831
 30
0.0
 10
490.3075176765191
 20
163.940926176652
 30
0.0
 10
490.1238319469573
 20
164.4046430490011
 30
0.0
 10
489.9382918170628
 20
164.8681458794412
 30
0.0
 10
489.7509039656323
 20
165.3314181083906
 30
0.0
 10
489.5616751363779
 20
165.794443184063
 30
0.0
 10
489.3706121376999
 20
166.2572045630478
 30
0.0
 10
489.1777218424514
 20
166.7196857109049
 30
0.0
 10
488.9830111877076
 20
167.1818701027417
 30
0.0
 10
488.7864871745232
 20
167.6437412238116
 30
0.0
 10
488.588156867698
 20
168.1052825700885
 30
0.0
 10
488.3880273955302
 20
168.5664776488618
 30
0.0
 10
488.1861059495743
 20
169.0273099793171
 30
0.0
 10
487.9823997843934
 20
169.4877630931214
 30
0.0
 10
487.776916217305
 20
169.9478205350187
 30
0.0
 10
487.569662628134
 20
170.4074658634029
 30
0.0
 10
487.360646458951
 20
170.866682650917
 30
0.0
 10
487.149875213822
 20
171.3254544850217
 30
0.0
 10
486.9373564585417
 20
171.7837649685951
 30
0.0
 10
486.7230978203735
 20
172.2415977205097
 30
0.0
 10
486.5071069877835
 20
172.6989363762187
 30
0.0
 10
486.289391710173
 20
173.155764588338
 30
0.0
 10
486.0699597976087
 20
173.6120660272302
 30
0.0
 10
485.8488191205473
 20
174.0678243815902
 30
0.0
 10
485.6259776095634
 20
174.5230233590229
 30
0.0
 10
485.40144325507
 20
174.9776466866271
 30
0.0
 10
485.1752241070396
 20
175.4316781115745
 30
0.0
 10
484.9473282747207
 20
175.885101401693
 30
0.0
 10
484.7177639263527
 20
176.3379003460448
 30
0.0
 10
484.4865392888789
 20
176.7900587555062
 30
0.0
 10
484.2536626476569
 20
177.2415604633451
 30
0.0
 10
484.0191423461658
 20
177.6923893257995
 30
0.0
 10
483.7829867857134
 20
178.1425292226522
 30
0.0
 10
483.5452044251392
 20
178.5919640578062
 30
0.0
 10
483.3058037805139
 20
179.0406777598625
 30
0.0
 10
483.0647934248375
 20
179.4886542826958
 30
0.0
 10
482.8221819877368
 20
179.9358776060249
 30
0.0
 10
482.5779781551603
 20
180.3823317359832
 30
0.0
 10
482.33219066907
 20
180.828000705691
 30
0.0
 10
482.0848283271281
 20
181.2728685758294
 30
0.0
 10
481.8358999823863
 20
181.7169194352073
 30
0.0
 10
481.5854145429712
 20
182.1601374013282
 30
0.0
 10
481.3333809717666
 20
182.6025066209587
 30
0.0
 10
481.0798082860945
 20
183.0440112706932
 30
0.0
 10
480.824705558647
 20
183.4846355553548
 30
0.0
 10
480.5680819181768
 20
183.9243637069148
 30
0.0
 10
480.309946546997
 20
184.3631799889189
 30
0.0
 10
480.050308679361
 20
184.8010686992021
 30
0.0
 10
479.789177600096
 20
185.2380141720699
 30
0.0
 10
479.5265626465016
 20
185.6740007750347
 30
0.0
 10
479.2624732080187
 20
186.1090129093671
 30
0.0
 10
478.9969187258924
 20
186.5430350106541
 30
0.0
 10
478.7299086928331
 20
186.9760515493538
 30
0.0
 10
478.4614526526767
 20
187.4080470313487
 30
0.0
 10
478.1915602000419
 20
187.8390059984958
 30
0.0
 10
477.9202409799869
 20
188.268913029178
 30
0.0
 10
477.6475046876631
 20
188.6977527388504
 30
0.0
 10
477.3733610679632
 20
189.1255097805942
 30
0.0
 10
477.0978199151777
 20
189.5521688456522
 30
0.0
 10
476.8208910726373
 20
189.9777146639807
 30
0.0
 10
476.5425844323636
 20
190.4021320047849
 30
0.0
 10
476.2629099347076
 20
190.8254056770688
 30
0.0
 10
475.9818775679993
 20
191.2475205301627
 30
0.0
 10
475.6994973681814
 20
191.6684614542713
 30
0.0
 10
475.4157794184538
 20
192.0882133809999
 30
0.0
 10
475.1307338489045
 20
192.5067612838982
 30
0.0
 10
474.8443708361509
 20
192.9240901789828
 30
0.0
 10
474.5567006029714
 20
193.3401851252701
 30
0.0
 10
474.2677334179356
 20
193.7550312253074
 30
0.0
 10
473.9774795950369
 20
194.1686136256958
 30
0.0
 10
473.685949493317
 20
194.5809175176191
 30
0.0
 10
473.3931535164974
 20
194.9919281373619
 30
0.0
 10
473.0991021126025
 20
195.4016307668311
 30
0.0
 10
472.8038057735819
 20
195.8100107340781
 30
0.0
 10
472.5072750349365
 20
196.2170534138089
 30
0.0
 10
472.2095204753328
 20
196.6227442279067
 30
0.0
 10
471.9105527162285
 20
197.027068645937
 30
0.0
 10
471.6103824214847
 20
197.4300121856639
 30
0.0
 10
471.3090202969859
 20
197.8315604135535
 30
0.0
 10
471.0064770902518
 20
198.2316989452836
 30
0.0
 10
470.7027635900509
 20
198.6304134462479
 30
0.0
 10
470.3978906260114
 20
199.0276896320576
 30
0.0
 10
470.0918690682356
 20
199.4235132690366
 30
0.0
 10
469.7847098269058
 20
199.8178701747235
 30
0.0
 10
469.476423851893
 20
200.2107462183643
 30
0.0
 10
469.1670221323607
 20
200.6021273214094
 30
0.0
 10
468.8565156963745
 20
200.9919994579984
 30
0.0
 10
468.5449156105026
 20
201.3803486554526
 30
0.0
 10
468.2322329794196
 20
201.7671609947595
 30
0.0
 10
467.9184789455086
 20
202.1524226110551
 30
0.0
 10
467.6036646884637
 20
202.5361196941037
 30
0.0
 10
467.2878014248847
 20
202.918238488781
 30
0.0
 10
466.9709004078808
 20
203.2987652955444
 30
0.0
 10
466.652972926661
 20
203.6776864709143
 30
0.0
 10
466.3340303061399
 20
204.0549884279345
 30
0.0
 10
466.0140839065238
 20
204.4306576366512
 30
0.0
 10
465.6931451229137
 20
204.804680624569
 30
0.0
 10
465.3712253848899
 20
205.1770439771249
 30
0.0
 10
465.0483361561132
 20
205.5477343381388
 30
0.0
 10
464.7244889339103
 20
205.9167384102804
 30
0.0
 10
464.3996952488702
 20
206.2840429555161
 30
0.0
 10
464.0739666644294
 20
206.6496347955701
 30
0.0
 10
463.7473147764671
 20
207.0135008123675
 30
0.0
 10
463.419751212891
 20
207.3756279484849
 30
0.0
 10
463.0912876332252
 20
207.7360032075957
 30
0.0
 10
462.7619357282032
 20
208.0946136549069
 30
0.0
 10
462.4317072193466
 20
208.4514464176073
 30
0.0
 10
462.1006138585611
 20
208.8064886852935
 30
0.0
 10
461.7686674277151
 20
209.1597277104123
 30
0.0
 10
461.4358797382332
 20
209.5111508086832
 30
0.0
 10
461.1022626306757
 20
209.8607453595324
 30
0.0
 10
460.7678279743269
 20
210.2084988065156
 30
0.0
 10
460.4325876667805
 20
210.5543986577387
 30
0.0
 10
460.0965536335253
 20
210.8984324862766
 30
0.0
 10
459.7597378275289
 20
211.2405879305905
 30
0.0
 10
459.4221522288209
 20
211.5808526949432
 30
0.0
 10
459.0838088440795
 20
211.9192145498068
 30
0.0
 10
458.7447197062166
 20
212.2556613322698
 30
0.0
 10
458.4048968739619
 20
212.5901809464429
 30
0.0
 10
458.0643524314489
 20
212.9227613638581
 30
0.0
 10
457.7230984877964
 20
213.253390623872
 30
0.0
 10
457.3811471767
 20
213.5820568340544
 30
0.0
 10
457.0385106560105
 20
213.9087481705877
 30
0.0
 10
456.6952011073253
 20
214.2334528786522
 30
0.0
 10
456.3512307355722
 20
214.5561592728137
 30
0.0
 10
456.0066117685994
 20
214.8768557374047
 30
0.0
 10
455.661356456758
 20
215.19553072691
 30
0.0
 10
455.3154770724942
 20
215.5121727663392
 30
0.0
 10
454.9689859099324
 20
215.8267704516072
 30
0.0
 10
454.6218952844745
 20
216.1393124498962
 30
0.0
 10
454.2742175323789
 20
216.4497875000348
 30
0.0
 10
453.9259650103598
 20
216.7581844128557
 30
0.0
 10
453.5771500951752
 20
217.0644920715625
 30
0.0
 10
453.2277851832205
 20
217.3686994320881
 30
0.0
 10
452.8778826901215
 20
217.6707955234533
 30
0.0
 10
452.5274550503325
 20
217.970769448117
 30
0.0
 10
452.17651471673
 20
218.2686103823309
 30
0.0
 10
451.8250741602141
 20
218.564307576483
 30
0.0
 10
451.4731458692997
 20
218.8578503554511
 30
0.0
 10
451.1207423497269
 20
219.1492281189351
 30
0.0
 10
450.7678761240542
 20
219.4384303418059
 30
0.0
 10
450.4145597312713
 20
219.7254465744332
 30
0.0
 10
450.0608057263938
 20
220.0102664430296
 30
0.0
 10
449.7066266800794
 20
220.2928796499737
 30
0.0
 10
449.3520351782294
 20
220.5732759741458
 30
0.0
 10
448.9970438216045
 20
220.8514452712493
 30
0.0
 10
448.6416652254358
 20
221.1273774741368
 30
0.0
 10
448.2859120190396
 20
221.4010625931304
 30
0.0
 10
447.929796845433
 20
221.672490716343
 30
0.0
 10
447.5733323609542
 20
221.9416520099927
 30
0.0
 10
447.2165312348827
 20
222.2085367187184
 30
0.0
 10
446.8594061490651
 20
222.4731351658909
 30
0.0
 10
446.5019697975375
 20
222.7354377539247
 30
0.0
 10
446.1442348861571
 20
222.9954349645846
 30
0.0
 10
445.7862141322336
 20
223.2531173592911
 30
0.0
 10
445.4279202641606
 20
223.5084755794265
 30
0.0
 10
445.069366021053
 20
223.7615003466366
 30
0.0
 10
444.7105641523843
 20
224.0121824631327
 30
0.0
 10
444.3515274176324
 20
224.2605128119885
 30
0.0
 10
443.9922685859214
 20
224.5064823574396
 30
0.0
 10
443.6328004356734
 20
224.7500821451773
 30
0.0
 10
443.2731357542525
 20
224.9913033026492
 30
0.0
 10
442.9132873376244
 20
225.2301370393488
 30
0.0
 10
442.5532679900115
 20
225.4665746471107
 30
0.0
 10
442.1930905235533
 20
225.7006075004022
 30
0.0
 10
441.8327677579691
 20
225.9322270566164
 30
0.0
 10
441.4723125202264
 20
226.1614248563617
 30
0.0
 10
441.1117376442091
 20
226.3881925237545
 30
0.0
 10
440.7510559703906
 20
226.61252176671
 30
0.0
 10
440.3902803455096
 20
226.834404377233
 30
0.0
 10
440.0294236222516
 20
227.0538322317085
 30
0.0
 10
439.6684986589327
 20
227.2707972911926
 30
0.0
 10
439.3075183191793
 20
227.4852916017089
 30
0.0
 10
438.9464954716271
 20
227.6973072945349
 30
0.0
 10
438.5854429896049
 20
227.9068365865022
 30
0.0
 10
438.2243737508399
 20
228.113871780286
 30
0.0
 10
437.8633006371474
 20
228.3184052647069
 30
0.0
 10
437.5022365341401
 20
228.5204295150253
 30
0.0
 10
437.1411943309296
 20
228.7199370932438
 30
0.0
 10
436.7801869198344
 20
228.9169206484102
 30
0.0
 10
436.4192271960954
 20
229.1113729169182
 30
0.0
 10
436.0583280575846
 20
229.3032867228194
 30
0.0
 10
435.6975024045259
 20
229.49265497813
 30
0.0
 10
435.3367631392075
 20
229.6794706831483
 30
0.0
 10
434.976123165709
 20
229.8637269267675
 30
0.0
 10
434.615595401817
 20
230.0454168806531
 30
0.0
 10
434.2551927774069
 20
230.2245338007008
 30
0.0
 10
433.8949282241863
 20
230.4010710326751
 30
0.0
 10
433.5348146632599
 20
230.575022018325
 30
0.0
 10
433.1748650062199
 20
230.7463802946558
 30
0.0
 10
432.8150921648527
 20
230.9151394893166
 30
0.0
 10
432.4555090508655
 20
231.0812933209516
 30
0.0
 10
432.0961285756179
 20
231.2448355995567
 30
0.0
 10
431.7369636498497
 20
231.4057602268413
 30
0.0
 10
431.3780271834123
 20
231.5640611965969
 30
0.0
 10
431.0193320849948
 20
231.7197325950718
 30
0.0
 10
430.6608912618507
 20
231.8727686013526
 30
0.0
 10
430.3027176195212
 20
232.0231634877525
 30
0.0
 10
429.9448240615594
 20
232.1709116202063
 30
0.0
 10
429.587223489244
 20
232.3160074586742
 30
0.0
 10
429.229928801301
 20
232.4584455575495
 30
0.0
 10
428.8729528936091
 20
232.5982205660785
 30
0.0
 10
428.5163086589117
 20
232.7353272287832
 30
0.0
 10
428.160008986513
 20
232.8697603858971
 30
0.0
 10
427.8040667619729
 20
233.0015149738051
 30
0.0
 10
427.4484948667975
 20
233.1305860254926
 30
0.0
 10
427.0933061781195
 20
233.2569686710029
 30
0.0
 10
426.7385135683691
 20
233.3806581379023
 30
0.0
 10
426.3841299049368
 20
233.5016497517548
 30
0.0
 10
426.0301680498263
 20
233.6199389366022
 30
0.0
 10
425.6766408593001
 20
233.735521215454
 30
0.0
 10
425.3235611835051
 20
233.8483922107853
 30
0.0
 10
424.9709418660938
 20
233.9585476450411
 30
0.0
 10
424.6187957438267
 20
234.0659833411488
 30
0.0
 10
424.2671356461668
 20
234.1706952230371
 30
0.0
 10
423.9159743948496
 20
234.2726793161623
 30
0.0
 10
423.5653248034451
 20
234.3719317480404
 30
0.0
 10
423.2151996768943
 20
234.4684487487865
 30
0.0
 10
422.8656118110372
 20
234.5622266516566
 30
0.0
 10
422.5165739921136
 20
234.6532618935969
 30
0.0
 10
422.1680989962455
 20
234.741551015796
 30
0.0
 10
421.8201995889
 20
234.8270906642404
 30
0.0
 10
421.4728885243283
 20
234.9098775902728
 30
0.0
 10
421.1261785449843
 20
234.9899086511505
 30
0.0
 10
420.7800823809116
 20
235.0671808106079
 30
0.0
 10
420.434612749113
 20
235.1416911394147
 30
0.0
 10
420.089782352892
 20
235.2134368159342
 30
0.0
 10
419.7456038811677
 20
235.2824151266786
 30
0.0
 10
419.4020900077587
 20
235.3486234668605
 30
0.0
 10
419.0592533906412
 20
235.4120593409378
 30
0.0
 10
418.7171066711781
 20
235.4727203631534
 30
0.0
 10
418.375662473318
 20
235.5306042580631
 30
0.0
 10
418.0349334027657
 20
235.5857088610564
 30
0.0
 10
417.6949320461166
 20
235.6380321188638
 30
0.0
 10
417.3556709699693
 20
235.6875720900491
 30
0.0
 10
417.0171627199942
 20
235.7343269454887
 30
0.0
 10
416.6794198199867
 20
235.7782949688297
 30
0.0
 10
416.3424547708714
 20
235.8194745569319
 30
0.0
 10
416.0062800496918
 20
235.8578642202841
 30
0.0
 10
415.6709081085529
 20
235.8934625833994
 30
0.0
 10
415.3363513735488
 20
235.9262683851821
 30
0.0
 10
415.0026222436475
 20
235.9562804792676
 30
0.0
 10
414.6697330895563
 20
235.98349783433
 30
0.0
 10
414.337696252551
 20
236.0079195343576
 30
0.0
 10
414.0065240432831
 20
236.029544778893
 30
0.0
 10
413.6762287405577
 20
236.0483728832349
 30
0.0
 10
413.3468225900895
 20
236.0644032785995
 30
0.0
 10
413.0183178032377
 20
236.0776355122414
 30
0.0
 10
412.6907265557147
 20
236.0880692475276
 30
0.0
 10
412.3640609862787
 20
236.0957042639671
 30
0.0
 10
412.0383331954094
 20
236.1005404571899
 30
0.0
 10
411.7135552439725
 20
236.1025778388764
 30
0.0
 10
411.3897391518719
 20
236.1018165366342
 30
0.0
 10
411.066896896689
 20
236.0982567938195
 30
0.0
 10
410.745040412325
 20
236.0918989693046
 30
0.0
 10
410.4241815876314
 20
236.0827435371852
 30
0.0
 10
410.1043322650552
 20
236.0707910864322
 30
0.0
 10
409.7855042392737
 20
236.0560423204814
 30
0.0
 10
409.4677092558534
 20
236.0384980567641
 30
0.0
 10
409.15095900991
 20
236.0181592261762
 30
0.0
 10
408.8352651447954
 20
235.9950268724859
 30
0.0
 10
408.5206392507989
 20
235.9691021516801
 30
0.0
 10
408.2070928638799
 20
235.9403863312496
 30
0.0
 10
407.8946374644252
 20
235.9088807894136
 30
0.0
 10
407.5832844760483
 20
235.8745870142851
 30
0.0
 10
407.2730452644159
 20
235.8375066029751
 30
0.0
 10
406.9639311361345
 20
235.7976412606443
 30
0.0
 10
406.6559533376704
 20
235.7549927994944
 30
0.0
 10
406.3491230543332
 20
235.7095631377111
 30
0.0
 10
406.0434514093054
 20
235.6613542983523
 30
0.0
 10
405.7389494627444
 20
235.6103684081922
 30
0.0
 10
405.4356282109409
 20
235.5566076965191
 30
0.0
 10
405.1334985855513
 20
235.5000744938934
 30
0.0
 10
404.832571452901
 20
235.4407712308685
 30
0.0
 10
404.5328576133633
 20
235.3787004366787
 30
0.0
 10
404.2343678008208
 20
235.313864737901
 30
0.0
 10
403.9371126822016
 20
235.2462668570909
 30
0.0
 10
403.6411028571099
 20
235.1759096114035
 30
0.0
 10
403.3463488575354
 20
235.1027959111994
 30
0.0
 10
403.0528611476553
 20
235.0269287586459
 30
0.0
 10
402.7606501237252
 20
234.9483112463154
 30
0.0
 10
402.4697261140593
 20
234.8669465557899
 30
0.0
 10
402.180099379106
 20
234.7828379562764
 30
0.0
 10
401.8917801116066
 20
234.6959888032384
 30
0.0
 10
401.6047784368545
 20
234.6064025370528
 30
0.0
 10
401.3191044130335
 20
234.5140826816944
 30
0.0
 10
401.0347680316558
 20
234.4190328434602
 30
0.0
 10
400.7517792180728
 20
234.3212567097298
 30
0.0
 10
400.4701478320821
 20
234.2207580477823
 30
0.0
 10
400.1898836686036
 20
234.1175407036592
 30
0.0
 10
399.9109964584416
 20
234.0116086010946
 30
0.0
 10
399.6334958691102
 20
233.9029657405057
 30
0.0
 10
399.3573915057372
 20
233.7916161980549
 30
0.0
 10
399.0826929120184
 20
233.6775641247992
 30
0.0
 10
398.8094095712597
 20
233.5608137458688
 30
0.0
 10
398.5375509073608
 20
233.4413693599234
 30
0.0
 10
398.2671262862652
 20
233.3192353379746
 30
0.0
 10
397.9981450158681
 20
233.1944161249899
 30
0.0
 10
397.7306163518675
 20
233.0669162315585
 30
0.0
 10
397.4645494815852
 20
232.9367402630899
 30
0.0
 10
397.1999535901074
 20
232.8038928093968
 30
0.0
 10
396.9368376193081
 20
232.6683788557816
 30
0.0
 10
396.6752111730436
 20
232.5302022483843
 30
0.0
 10
396.4150811449232
 20
232.3893714213632
 30
0.0
 10
396.1564643092141
 20
232.2458780237157
 30
0.0
 10
395.8993403376091
 20
232.0997766845325
 30
0.0
 10
395.6438271888184
 20
231.950887354381
 30
0.0
 10
395.4346439384555
 20
231.826692882344
 30
0.0
 10
395.311211767659
 20
231.7511504785423
 30
0.0
 10
395.2718757080372
 20
231.7270761996834
 30
0.0
  0
LINE
  5
132
330
1F
100
AcDbEntity
  8
0
  6
Continuous
 62
     7
370
    30
100
AcDbLine
 10
388.5195081162
 20
161.2523909724
 30
0.0
 11
379.2952346614
 21
155.7950618096
 31
0.0
  0
LINE
  5
133
330
1F
100
AcDbEntity
  8
0
  6
Continuous
 62
     7
370
    30
100
AcDbLine
 10
406.5114701929
 20
108.6500680447
 30
0.0
 11
434.6952418787
 21
124.5210349103
 31
0.0
  0
SPLINE
  5
134
330
1F
100
AcDbEntity
  8
0
  6
Continuous
 62
     7
370
    30
100
AcDbSpline
210
0.0
220
0.0
230
1.0
 70
     8
 71
     3
 72
   301
 73
   297
 74
     0
 42
0.000000001
 43
0.00000001
 40
0.0
 40
0.0
 40
0.0
 40
0.0
 40
0.0013250581470699
 40
0.004556494738239
 40
0.0077881578202475
 40
0.0110203797225997
 40
0.0142534907688941
 40
0.0174878182264028
 40
0.0207236852640058
 40
0.0239614099217108
 40
0.0272013040946081
 40
0.0304436725340629
 40
0.0336888118694281
 40
0.0369370096536495
 40
0.0401885434362895
 40
0.043443679868084
 40
0.046702673840953
 40
0.0499657676679485
 40
0.0532331903077511
 40
0.0565051566383574
 40
0.059781866784894
 40
0.0630635055064325
 40
0.0663502416466985
 40
0.0696422276535058
 40
0.0729395991713528
 40
0.0762424747116969
 40
0.079550955404603
 40
0.0828651248352539
 40
0.0861850489681485
 40
0.0895107761609991
 40
0.0928423372696789
 40
0.0961797458446883
 40
0.0995229984186006
 40
0.1028720748830658
 40
0.1062269389528358
 40
0.1095875387134302
 40
0.1129538072479101
 40
0.1163256633373563
 40
0.1197030122287723
 40
0.1230857464633067
 40
0.1264737467570391
 40
0.1298668829259766
 40
0.1332650148465172
 40
0.1366679934422451
 40
0.1400756616881011
 40
0.1434878556225561
 40
0.1469044053589622
 40
0.1503251360874899
 40
0.1537498690593399
 40
0.1571784225457368
 40
0.1606106127646966
 40
0.1640462547694293
 40
0.1674851632929536
 40
0.1709271535443649
 40
0.1743720419530944
 40
0.1778196468583765
 40
0.1812697891418235
 40
0.1847222928020594
 40
0.188176985470927
 40
0.1916336988714805
 40
0.195092269218869
 40
0.1985525375652878
 40
0.2020143500912237
 40
0.2054775583451801
 40
0.2089420194345918
 40
0.212407596170915
 40
0.2158741571719744
 40
0.219341576924838
 40
0.222809735812513
 40
0.2262785201077982
 40
0.2297478219375669
 40
0.2332175392207305
 40
0.2366875755829768
 40
0.2401578402512368
 40
0.2436282479307345
 40
0.2470987162216481
 40
0.2505691490200501
 40
0.2540394782423633
 40
0.2575096406075828
 40
0.2609795774653277
 40
0.2644492346165713
 40
0.2679185621322783
 40
0.2713875141712767
 40
0.2748560487984915
 40
0.2783241278046489
 40
0.2817917165282466
 40
0.2852587836806698
 40
0.2887253011749844
 40
0.2921912439589828
 40
0.2956565898529389
 40
0.2991213193924109
 40
0.3025854156763123
 40
0.3060488642205305
 40
0.3095116528171376
 40
0.3129737713994108
 40
0.3164352119124724
 40
0.3198959681897842
 40
0.3233560358352953
 40
0.3268154121112274
 40
0.3302740958313626
 40
0.3337320872597825
 40
0.3371893880148202
 40
0.3406460009781716
 40
0.3441019302089366
 40
0.3475571808624521
 40
0.3510117591137221
 40
0.354465672085309
 40
0.357918927779413
 40
0.3613715350140936
 40
0.3648235033633022
 40
0.3682748431006709
 40
0.3717255651468109
 40
0.3751756810199661
 40
0.3786252027898644
 40
0.3820741430346037
 40
0.385522514800374
 40
0.3889703315639191
 40
0.3924176071975746
 40
0.3958643559366949
 40
0.3993105923493793
 40
0.4027563313083879
 40
0.4062015879650249
 40
0.4096463777249974
 40
0.4130907162260176
 40
0.41653461931714
 40
0.4199781030396177
 40
0.4234211836093051
 40
0.4268638774003972
 40
0.430306200930539
 40
0.4337481708470487
 40
0.4371898039143554
 40
0.4406311170024499
 40
0.4440721270763241
 40
0.4475128511863547
 40
0.450953306459454
 40
0.4543935100910738
 40
0.4578334793379262
 40
0.4612732315113032
 40
0.4647127839710549
 40
0.4681521541201517
 40
0.4715913593996798
 40
0.4750304172843197
 40
0.4784693452782364
 40
0.4819081609113925
 40
0.4853468817360539
 40
0.4887855253236538
 40
0.4922241092619383
 40
0.4956626511522089
 40
0.499101168606755
 40
0.5025396792464616
 40
0.5059781992950982
 40
0.5094167419110132
 40
0.5128553247275611
 40
0.5162939653780871
 40
0.5197326814934871
 40
0.523171490699719
 40
0.5266104106152032
 40
0.5300494588480147
 40
0.5334886529928496
 40
0.536928010627809
 40
0.5403675493108258
 40
0.5438072865757002
 40
0.5472472399279246
 40
0.5506874268398785
 40
0.5541278647456773
 40
0.5575685710354291
 40
0.5610095630489655
 40
0.5644508580688681
 40
0.5678924733128599
 40
0.5713344259254585
 40
0.5747767329687351
 40
0.5782194114122882
 40
0.5816624781222447
 40
0.5851059498491856
 40
0.5885498432150634
 40
0.591994174698926
 40
0.5954389606213163
 40
0.5988842171273898
 40
0.6023299601686352
 40
0.6057762054829278
 40
0.6092229685730648
 40
0.6126702646835225
 40
0.6161181087752992
 40
0.6195665154988859
 40
0.6230154991650582
 40
0.6264650737134211
 40
0.6299152526786727
 40
0.6333660491543214
 40
0.6368174757537105
 40
0.6402695445682814
 40
0.6437222671228934
 40
0.6471756543279386
 40
0.6506297164282306
 40
0.6540844629484445
 40
0.6575399026348081
 40
0.6609960433930233
 40
0.6644528922222722
 40
0.6679104551448195
 40
0.6713687371314205
 40
0.6748277420220644
 40
0.6782874724420105
 40
0.6817479297128181
 40
0.6852091137583806
 40
0.6886710230055947
 40
0.6921336542796845
 40
0.6955970026938587
 40
0.6990610615334172
 40
0.7025258221339632
 40
0.7059912737538063
 40
0.7094574034405144
 40
0.7129241958914727
 40
0.7163916333086446
 40
0.7198596952476431
 40
0.7233283584609789
 40
0.7267975967361311
 40
0.7302673807283855
 40
0.7337376777889125
 40
0.7372084517886774
 40
0.7406796629384818
 40
0.7441512676061104
 40
0.7476232181311468
 40
0.7510954626386036
 40
0.7545679448522089
 40
0.7580406039088115
 40
0.7615133741752818
 40
0.7649861754378078
 40
0.76845891522752
 40
0.7719315107590246
 40
0.7754038737590669
 40
0.7788759103253853
 40
0.7823475208039573
 40
0.7858185996846844
 40
0.7892890355185566
 40
0.7927587108592435
 40
0.7962275022325562
 40
0.7996952801369804
 40
0.8031619090787067
 40
0.8066272476447547
 40
0.8100911486174429
 40
0.8135534591336285
 40
0.8170140208920122
 40
0.8204726704114318
 40
0.8239292393428678
 40
0.8273835548376178
 40
0.8308354399735832
 40
0.8342847142409888
 40
0.8377311940884328
 40
0.8411746935294826
 40
0.8446150248090598
 40
0.8480519991283177
 40
0.851485427425731
 40
0.8549151212112696
 40
0.8583408934494728
 40
0.8617625594865651
 40
0.8651799380157191
 40
0.8685928520736889
 40
0.8720011300614746
 40
0.8754046067805976
 40
0.8788031244764362
 40
0.8821965338794295
 40
0.8855846952343212
 40
0.8889674793082153
 40
0.8923447683673869
 40
0.8957164571135603
 40
0.8990824535705817
 40
0.9024426799125255
 40
0.9057970732256648
 40
0.9091455861967636
 40
0.9124881877214809
 40
0.9158248634276319
 40
0.9191556161088408
 40
0.9224804660655493
 40
0.9257994513510708
 40
0.929112627921825
 40
0.9324200696916902
 40
0.9357218684914685
 40
0.939018133935361
 40
0.9423089931972454
 40
0.9455945907001024
 40
0.9488750877227776
 40
0.9521506619284757
 40
0.9554215068200845
 40
0.9586878311273251
 40
0.9619498581312721
 40
0.9652078249316162
 40
0.9684619816619165
 40
0.9717125906584007
 40
0.9749599255872639
 40
0.9782042705354712
 40
0.9814459190697058
 40
0.9846851732678817
 40
0.9879223427273851
 40
0.99115774355366
 40
0.9943916973330468
 40
0.9976245300927046
 40
1.0
 40
1.0
 40
1.0
 40
1.0
 10
379.295408635877
 20
155.7947360605118
 30
0.0
 10
379.2744027151341
 20
155.7824132771614
 30
0.0
 10
379.2021693814132
 20
155.74003876128
 30
0.0
 10
379.0803319069202
 20
155.6648511079763
 30
0.0
 10
378.9298900032225
 20
155.5692482338852
 30
0.0
 10
378.7811291474264
 20
155.4708802798725
 30
0.0
 10
378.6339425512432
 20
155.3699603030391
 30
0.0
 10
378.4883755928441
 20
155.2664416834019
 30
0.0
 10
378.3444330152864
 20
155.1603472627845
 30
0.0
 10
378.2021306325412
 20
155.0516811497453
 30
0.0
 10
378.0614814909379
 20
154.9404523975496
 30
0.0
 10
377.9224996004966
 20
154.8266686923858
 30
0.0
 10
377.7851989524493
 20
154.7103380860831
 30
0.0
 10
377.6495937981234
 20
154.5914685743853
 30
0.0
 10
377.5156985865934
 20
154.4700682557883
 30
0.0
 10
377.3835279908246
 20
154.3461453371092
 30
0.0
 10
377.2530969069008
 20
154.219708182374
 30
0.0
 10
377.124420457174
 20
154.0907653519741
 30
0.0
 10
376.9975139889481
 20
153.959325645985
 30
0.0
 10
376.8723930708439
 20
153.8253981475426
 30
0.0
 10
376.7490734861864
 20
153.6889922669656
 30
0.0
 10
376.6275712235243
 20
153.5501177859982
 30
0.0
 10
376.5079024642167
 20
153.4087849018651
 30
0.0
 10
376.390083567093
 20
153.265004270726
 30
0.0
 10
376.2741310502114
 20
153.1187870501204
 30
0.0
 10
376.16006156977
 20
152.9701449399827
 30
0.0
 10
376.0478918962581
 20
152.8190902218022
 30
0.0
 10
375.9376388879693
 20
152.6656357955056
 30
0.0
 10
375.8293194620331
 20
152.5097952136522
 30
0.0
 10
375.7229505631544
 20
152.3515827125457
 30
0.0
 10
375.6185491302904
 20
152.1910132398956
 30
0.0
 10
375.51613206152
 20
152.0281024786908
 30
0.0
 10
375.4157161773981
 20
151.8628668669878
 30
0.0
 10
375.3173181831101
 20
151.6953236133664
 30
0.0
 10
375.2209546297678
 20
151.5254907078537
 30
0.0
 10
375.1266418752037
 20
151.3533869281779
 30
0.0
 10
375.0343960446346
 20
151.1790318412726
 30
0.0
 10
374.9442329915715
 20
151.0024458000187
 30
0.0
 10
374.8561682593527
 20
150.8236499352747
 30
0.0
 10
374.7702170436692
 20
150.6426661433099
 30
0.0
 10
374.6863941564404
 20
150.4595170688202
 30
0.0
 10
374.6047139913741
 20
150.274226083761
 30
0.0
 10
374.5251904915258
 20
150.086817262292
 30
0.0
 10
374.4478371191335
 20
149.8973153521707
 30
0.0
 10
374.3726668279745
 20
149.7057457429764
 30
0.0
 10
374.2996920384491
 20
149.5121344315791
 30
0.0
 10
374.2289246155545
 20
149.3165079852895
 30
0.0
 10
374.1603758498682
 20
149.1188935031475
 30
0.0
 10
374.0940564416168
 20
148.919318575806
 30
0.0
 10
374.0299764878631
 20
148.7178112444738
 30
0.0
 10
373.9681454728001
 20
148.5143999593642
 30
0.0
 10
373.9085722611013
 20
148.3091135380822
 30
0.0
 10
373.8512650942413
 20
148.1019811243585
 30
0.0
 10
373.7962315896654
 20
147.8930321475109
 30
0.0
 10
373.7434787426587
 20
147.682296282974
 30
0.0
 10
373.6930129307403
 20
147.4698034142079
 30
0.0
 10
373.6448399203875
 20
147.2555835962502
 30
0.0
 10
373.5989648758834
 20
147.0396670211369
 30
0.0
 10
373.5553923700635
 20
146.8220839853778
 30
0.0
 10
373.5141263967384
 20
146.6028648596253
 30
0.0
 10
373.475170384563
 20
146.3820400606444
 30
0.0
 10
373.4385272121253
 20
146.1596400256437
 30
0.0
 10
373.4041992240342
 20
145.9356951890017
 30
0.0
 10
373.3721882477925
 20
145.7102359613844
 30
0.0
 10
373.3424956112511
 20
145.483292711225
 30
0.0
 10
373.3151221604564
 20
145.2548957485083
 30
0.0
 10
373.2900682777104
 20
145.025075310785
 30
0.0
 10
373.2673338996863
 20
144.7938615513185
 30
0.0
 10
373.2469185354483
 20
144.5612845292563
 30
0.0
 10
373.2288212842508
 20
144.3273742017042
 30
0.0
 10
373.2130408529977
 20
144.092160417574
 30
0.0
 10
373.1995755732673
 20
143.8556729130704
 30
0.0
 10
373.1884234178145
 20
143.6179413086786
 30
0.0
 10
373.1795820164864
 20
143.3789951075163
 30
0.0
 10
373.1730486730244
 20
143.1388637513208
 30
0.0
 10
373.1688203843402
 20
142.8975770604941
 30
0.0
 10
373.1668938241838
 20
142.6551647131156
 30
0.0
 10
373.1672653592649
 20
142.4116561894809
 30
0.0
 10
373.1699310776615
 20
142.1670803270524
 30
0.0
 10
373.174886809579
 20
141.9214658586198
 30
0.0
 10
373.1821281379988
 20
141.6748414167982
 30
0.0
 10
373.1916504085755
 20
141.4272355389737
 30
0.0
 10
373.2034487388076
 20
141.1786766725319
 30
0.0
 10
373.2175180264969
 20
140.9291931802862
 30
0.0
 10
373.2338529575267
 20
140.6788133460395
 30
0.0
 10
373.2524480129837
 20
140.4275653802102
 30
0.0
 10
373.2732974756542
 20
140.1754774254684
 30
0.0
 10
373.2963954359278
 20
139.9225775623321
 30
0.0
 10
373.3217357971363
 20
139.6688938146777
 30
0.0
 10
373.3493122803683
 20
139.414454155127
 30
0.0
 10
373.3791184287834
 20
139.159286510278
 30
0.0
 10
373.411147611467
 20
138.90341876575
 30
0.0
 10
373.4453930268523
 20
138.6468787710232
 30
0.0
 10
373.4818477057461
 20
138.3896943440465
 30
0.0
 10
373.5205045139834
 20
138.1318932756071
 30
0.0
 10
373.5613561547476
 20
137.8735033334414
 30
0.0
 10
373.6043951705789
 20
137.6145522660848
 30
0.0
 10
373.6496139451017
 20
137.3550678064483
 30
0.0
 10
373.6970047044966
 20
137.0950776751234
 30
0.0
 10
373.7465595187419
 20
136.8346095834084
 30
0.0
 10
373.7982703026477
 20
136.5736912360617
 30
0.0
 10
373.8521288167047
 20
136.3123503337779
 30
0.0
 10
373.9081266677704
 20
136.0506145753953
 30
0.0
 10
373.9662553096097
 20
135.7885116598353
 30
0.0
 10
374.0265060433099
 20
135.5260692877808
 30
0.0
 10
374.0888700175869
 20
135.2633151630995
 30
0.0
 10
374.1533382289978
 20
135.0002769940183
 30
0.0
 10
374.2199015220759
 20
134.7369824940576
 30
0.0
 10
374.2885505893998
 20
134.4734593827315
 30
0.0
 10
374.3592759716119
 20
134.2097353860238
 30
0.0
 10
374.4320680573943
 20
133.9458382366474
 30
0.0
 10
374.5069170834163
 20
133.681795674096
 30
0.0
 10
374.583813134261
 20
133.4176354444965
 30
0.0
 10
374.6627461423402
 20
133.1533853002706
 30
0.0
 10
374.743705887807
 20
132.8890729996162
 30
0.0
 10
374.826681998471
 20
132.6247263058139
 30
0.0
 10
374.9116639497264
 20
132.3603729863707
 30
0.0
 10
374.9986410644942
 20
132.0960408120069
 30
0.0
 10
375.0876025131893
 20
131.8317575554952
 30
0.0
 10
375.1785373137132
 20
131.5675509903615
 30
0.0
 10
375.2714343314785
 20
131.3034488894526
 30
0.0
 10
375.3662822794691
 20
131.0394790233804
 30
0.0
 10
375.4630697183395
 20
130.7756691588508
 30
0.0
 10
375.5617850565544
 20
130.5120470568812
 30
0.0
 10
375.662416550576
 20
130.2486404709185
 30
0.0
 10
375.7649523050944
 20
129.9854771448604
 30
0.0
 10
375.8693802733095
 20
129.7225848109894
 30
0.0
 10
375.9756882572631
 20
129.4599911878223
 30
0.0
 10
376.0838639082219
 20
129.1977239778862
 30
0.0
 10
376.1938947271149
 20
128.9358108654229
 30
0.0
 10
376.3057680650242
 20
128.6742795140301
 30
0.0
 10
376.4194711237304
 20
128.4131575642435
 30
0.0
 10
376.5349909563146
 20
128.1524726310646
 30
0.0
 10
376.6523144678149
 20
127.8922523014419
 30
0.0
 10
376.7714284159387
 20
127.6325241317076
 30
0.0
 10
376.8923194118327
 20
127.3733156449769
 30
0.0
 10
377.0149739209062
 20
127.1146543285123
 30
0.0
 10
377.1393782637128
 20
126.8565676310602
 30
0.0
 10
377.2655186168843
 20
126.5990829601609
 30
0.0
 10
377.3933810141219
 20
126.3422276794386
 30
0.0
 10
377.5229513472411
 20
126.0860291058744
 30
0.0
 10
377.6542153672679
 20
125.8305145070677
 30
0.0
 10
377.7871586855913
 20
125.5757110984865
 30
0.0
 10
377.9217667751649
 20
125.3216460407132
 30
0.0
 10
378.0580249717602
 20
125.0683464366896
 30
0.0
 10
378.19591847527
 20
124.8158393289629
 30
0.0
 10
378.3354323510603
 20
124.5641516969359
 30
0.0
 10
378.4765515313698
 20
124.313310454127
 30
0.0
 10
378.6192608167555
 20
124.0633424454415
 30
0.0
 10
378.7635448579542
 20
123.8142744783406
 30
0.0
 10
378.9093881128563
 20
123.5661333932838
 30
0.0
 10
379.0567749083445
 20
123.3189459515353
 30
0.0
 10
379.205689462617
 20
123.0727387989902
 30
0.0
 10
379.3561159335003
 20
122.8275383916464
 30
0.0
 10
379.5080383569097
 20
122.5833711006011
 30
0.0
 10
379.6614406485803
 20
122.3402632094904
 30
0.0
 10
379.8163066058318
 20
122.0982409119626
 30
0.0
 10
379.9726199093637
 20
121.8573303091892
 30
0.0
 10
380.1303641250821
 20
121.6175574074161
 30
0.0
 10
380.2895227059499
 20
121.3789481155571
 30
0.0
 10
380.4500789938648
 20
121.1415282428358
 30
0.0
 10
380.6120162215567
 20
120.9053234964721
 30
0.0
 10
380.7753175145055
 20
120.6703594794243
 30
0.0
 10
380.9399658928753
 20
120.4366616881808
 30
0.0
 10
381.1059442734615
 20
120.2042555106124
 30
0.0
 10
381.2732354716486
 20
119.97316622388
 30
0.0
 10
381.4418222033751
 20
119.7434189924069
 30
0.0
 10
381.6116870871013
 20
119.5150388659141
 30
0.0
 10
381.7828126457778
 20
119.2880507775223
 30
0.0
 10
381.9551813088098
 20
119.0624795419241
 30
0.0
 10
382.1287754140118
 20
118.8383498536272
 30
0.0
 10
382.3035772095524
 20
118.6156862852727
 30
0.0
 10
382.4795688558794
 20
118.3945132860298
 30
0.0
 10
382.6567324276252
 20
118.1748551800694
 30
0.0
 10
382.8350499154834
 20
117.9567361651193
 30
0.0
 10
383.0145032280538
 20
117.7401803111026
 30
0.0
 10
383.1950741936498
 20
117.5252115588628
 30
0.0
 10
383.3767445620597
 20
117.3118537189755
 30
0.0
 10
383.5594960062597
 20
117.1001304706506
 30
0.0
 10
383.743310124068
 20
116.8900653607248
 30
0.0
 10
383.9281684397345
 20
116.6816818027492
 30
0.0
 10
384.1140524054598
 20
116.4750030761696
 30
0.0
 10
384.3009434028332
 20
116.2700523256032
 30
0.0
 10
384.4888227441836
 20
116.0668525602118
 30
0.0
 10
384.677671673832
 20
115.8654266531733
 30
0.0
 10
384.86747136924
 20
115.6657973412511
 30
0.0
 10
385.0582029420406
 20
115.4679872244608
 30
0.0
 10
385.2498474389453
 20
115.2720187658353
 30
0.0
 10
385.442385842513
 20
115.0779142912877
 30
0.0
 10
385.6357990717726
 20
114.8856959895691
 30
0.0
 10
385.830067982686
 20
114.6953859123227
 30
0.0
 10
386.0251733684408
 20
114.5070059742284
 30
0.0
 10
386.221095959558
 20
114.3205779532367
 30
0.0
 10
386.417816423806
 20
114.1361234908896
 30
0.0
 10
386.6153153659016
 20
113.9536640927221
 30
0.0
 10
386.8135733269888
 20
113.7732211287389
 30
0.0
 10
387.0125707838798
 20
113.5948158339623
 30
0.0
 10
387.2122881480431
 20
113.4184693090406
 30
0.0
 10
387.4127057643233
 20
113.2442025209132
 30
0.0
 10
387.6138039093807
 20
113.072036303516
 30
0.0
 10
387.8155627898299
 20
112.9019913585237
 30
0.0
 10
388.0179625400676
 20
112.7340882561104
 30
0.0
 10
388.2209832197707
 20
112.5683474357177
 30
0.0
 10
388.4246048110521
 20
112.4047892068113
 30
0.0
 10
388.6288072152561
 20
112.2434337496132
 30
0.0
 10
388.8335702493833
 20
112.084301115784
 30
0.0
 10
389.0388736421269
 20
111.9274112290378
 30
0.0
 10
389.2446970295125
 20
111.7727838856644
 30
0.0
 10
389.4510199501251
 20
111.6204387549298
 30
0.0
 10
389.6578218399168
 20
111.4703953793311
 30
0.0
 10
389.8650820265842
 20
111.3226731746693
 30
0.0
 10
390.0727797235123
 20
111.1772914299084
 30
0.0
 10
390.2808940232773
 20
111.0342693067839
 30
0.0
 10
390.4894038907105
 20
110.8936258391191
 30
0.0
 10
390.6982881555251
 20
110.7553799318082
 30
0.0
 10
390.9075255045101
 20
110.6195503594201
 30
0.0
 10
391.1170944733066
 20
110.4861557643725
 30
0.0
 10
391.3269734377756
 20
110.3552146546297
 30
0.0
 10
391.5371406049857
 20
110.2267454008651
 30
0.0
 10
391.7475740038403
 20
110.100766233035
 30
0.0
 10
391.9582514753872
 20
109.9772952363045
 30
0.0
 10
392.1691506628419
 20
109.856350346265
 30
0.0
 10
392.3802490013834
 20
109.7379493433829
 30
0.0
 10
392.5915237077741
 20
109.6221098466137
 30
0.0
 10
392.802951574415
 20
109.5088494108285
 30
0.0
 10
393.0145088133398
 20
109.3981855811344
 30
0.0
 10
393.2261713492031
 20
109.2901357050432
 30
0.0
 10
393.4379150045058
 20
109.1847168258111
 30
0.0
 10
393.6497156345441
 20
109.0819456142624
 30
0.0
 10
393.8615488131144
 20
108.9818385153291
 30
0.0
 10
394.0733898237859
 20
108.8844117338204
 30
0.0
 10
394.2852136519522
 20
108.7896812189006
 30
0.0
 10
394.4969949777569
 20
108.6976626472832
 30
0.0
 10
394.7087081700618
 20
108.6083714051305
 30
0.0
 10
394.9203272816253
 20
108.5218225686608
 30
0.0
 10
395.131826045669
 20
108.4380308834826
 30
0.0
 10
395.3431778740154
 20
108.3570107426911
 30
0.0
 10
395.5543558569776
 20
108.2787761637806
 30
0.0
 10
395.7653327651853
 20
108.2033407644494
 30
0.0
 10
395.9760810535232
 20
108.1307177373937
 30
0.0
 10
396.1865728673555
 20
108.0609198242114
 30
0.0
 10
396.3967800511919
 20
107.9939592885602
 30
0.0
 10
396.6066741599439
 20
107.9298478887407
 30
0.0
 10
396.8162264728913
 20
107.8685968498987
 30
0.0
 10
397.0254080104647
 20
107.8102168360651
 30
0.0
 10
397.2341895539109
 20
107.7547179222769
 30
0.0
 10
397.4425416678861
 20
107.7021095670427
 30
0.0
 10
397.6504347259763
 20
107.6524005854361
 30
0.0
 10
397.8578389391102
 20
107.6055991231173
 30
0.0
 10
398.0647243867833
 20
107.5617126315941
 30
0.0
 10
398.2710610509677
 20
107.5207478450423
 30
0.0
 10
398.476818852537
 20
107.48271075901
 30
0.0
 10
398.681967689981
 20
107.4476066113238
 30
0.0
 10
398.8864774801489
 20
107.4154398655116
 30
0.0
 10
399.090318200704
 20
107.3862141970353
 30
0.0
 10
399.293459933941
 20
107.359932482613
 30
0.0
 10
399.4958729115688
 20
107.3365967928752
 30
0.0
 10
399.6975275600377
 20
107.3162083885722
 30
0.0
 10
399.8983945459621
 20
107.298767720507
 30
0.0
 10
400.0984448211674
 20
107.2842744333246
 30
0.0
 10
400.2976496668907
 20
107.2727273732419
 30
0.0
 10
400.4959807366468
 20
107.2641245997511
 30
0.0
 10
400.6934100972987
 20
107.2584634012734
 30
0.0
 10
400.8899102678761
 20
107.2557403146921
 30
0.0
 10
401.0854542557117
 20
107.2559511486337
 30
0.0
 10
401.2800155895123
 20
107.2590910103217
 30
0.0
 10
401.4735683490033
 20
107.2651543357735
 30
0.0
 10
401.6660871908571
 20
107.2741349230696
 30
0.0
 10
401.8575473706467
 20
107.2860259683858
 30
0.0
 10
402.0479247606427
 20
107.300820104444
 30
0.0
 10
402.2371958633195
 20
107.3185094410124
 30
0.0
 10
402.4253378205008
 20
107.3390856070647
 30
0.0
 10
402.6123284181361
 20
107.3625397941978
 30
0.0
 10
402.7981460867563
 20
107.3888628008999
 30
0.0
 10
402.9827698977107
 20
107.4180450772625
 30
0.0
 10
403.16617955534
 20
107.4500767697394
 30
0.0
 10
403.3483553852809
 20
107.4849477655676
 30
0.0
 10
403.5292783191396
 20
107.5226477364822
 30
0.0
 10
403.7089298758052
 20
107.5631661813847
 30
0.0
 10
403.8872921396899
 20
107.6064924676459
 30
0.0
 10
404.0643477362212
 20
107.652615870746
 30
0.0
 10
404.24007980488
 20
107.7015256120317
 30
0.0
 10
404.4144719702066
 20
107.7532108942079
 30
0.0
 10
404.5875083107735
 20
107.8076609349414
 30
0.0
 10
404.7591733276706
 20
107.8648649962544
 30
0.0
 10
404.9294519082664
 20
107.9248124175918
 30
0.0
 10
405.0983293024974
 20
107.9874926225382
 30
0.0
 10
405.2657910488009
 20
108.0528952105395
 30
0.0
 10
405.4318230853583
 20
108.1210097182656
 30
0.0
 10
405.5964111695744
 20
108.1918265982849
 30
0.0
 10
405.7595428760803
 20
108.2653336461605
 30
0.0
 10
405.9211999832087
 20
108.3415293812927
 30
0.0
 10
406.0813866978312
 20
108.4203732017222
 30
0.0
 10
406.2400242410909
 20
108.5019712956979
 30
0.0
 10
406.3834498602631
 20
108.5784724139586
 30
0.0
 10
406.4733131665707
 20
108.6289679675374
 30
0.0
 10
406.511375944666
 20
108.6503560193424
 30
0.0
  0
SPLINE
  5
135
330
1F
100
AcDbEntity
  8
0
  6
Continuous
 62
     7
370
    30
100
AcDbSpline
210
0.0
220
0.0
230
1.0
 70
     8
 71
     3
 72
   103
 73
    99
 74
     0
 42
0.000000001
 43
0.00000001
 40
0.0
 40
0.0
 40
0.0
 40
0.0
 40
0.0096086088877445
 40
0.0173724033166482
 40
0.0232888056931863
 40
0.0273560730055754
 40
0.0298136846889498
 40
0.0325286748670243
 40
0.0381150439402624
 40
0.0448918127567767
 40
0.0505272797595097
 40
0.0549612844059381
 40
0.0599557935396216
 40
0.0666527696892487
 40
0.0734732317762235
 40
0.0784700622465129
 40
0.0827782410699261
 40
0.087996831119135
 40
0.0942609880866768
 40
0.1017344373574069
 40
0.1104516028426059
 40
0.118336533961776
 40
0.1238467263734463
 40
0.1303577218932113
 40
0.1395075489845561
 40
0.1479448019717671
 40
0.155154922798175
 40
0.161199161027202
 40
0.166121050940899
 40
0.1699281744774666
 40
0.1751075451705457
 40
0.1812201380218472
 40
0.1862053909565769
 40
0.189800448778083
 40
0.1931624977693714
 40
0.199230808482943
 40
0.2069710106954865
 40
0.2143254155486424
 40
0.2205545635660105
 40
0.2261249068700216
 40
0.2327456132279855
 40
0.2401888233458372
 40
0.2461131086872093
 40
0.2560808885693636
 40
0.2695363209064762
 40
0.2836620806659564
 40
0.2953628572132413
 40
0.3095585833587434
 40
0.3221081175890049
 40
0.3316360060809413
 40
0.3535830477309008
 40
0.3759997928501432
 40
0.3951202007196508
 40
0.4159849912524005
 40
0.4356019327430161
 40
0.4567665435463917
 40
0.4764848034724645
 40
0.4976487800280788
 40
0.5083929058655885
 40
0.5202039489829444
 40
0.5314673181878922
 40
0.5423994008399806
 40
0.5511318464943445
 40
0.5607987547433955
 40
0.570319579436167
 40
0.5776120477068011
 40
0.5846766589218715
 40
0.593265767372568
 40
0.6021491422499077
 40
0.6092450808366159
 40
0.6161450124325841
 40
0.6249257288241077
 40
0.6340500451359365
 40
0.6481504177124128
 40
0.6636520931978092
 40
0.6778526217306009
 40
0.6910996426850028
 40
0.7057822248989364
 40
0.7223353644792966
 40
0.739842711013405
 40
0.7663283675106691
 40
0.7881108220018057
 40
0.8131438415312914
 40
0.8346772443718813
 40
0.8559219366440513
 40
0.8759296489427029
 40
0.8908178207993213
 40
0.9068270398276345
 40
0.9231147678029129
 40
0.9401187278060491
 40
0.9469568136753089
 40
0.9533197074371288
 40
0.9591266186350983
 40
0.9643785244626514
 40
0.9698870185319831
 40
0.9776195348662062
 40
0.9876593576303141
 40
1.0
 40
1.0
 40
1.0
 40
1.0
 10
390.4278267389188
 20
164.904335923073
 30
0.0
 10
390.416361943524
 20
164.8976652059179
 30
0.0
 10
390.3956335475752
 20
164.8856045226094
 30
0.0
 10
390.3680005082034
 20
164.8690044368987
 30
0.0
 10
390.3469635307987
 20
164.8561435772877
 30
0.0
 10
390.3322425684137
 20
164.8470144117461
 30
0.0
 10
390.3211571984864
 20
164.8400771443094
 30
0.0
 10
390.3083812438383
 20
164.8320231356395
 30
0.0
 10
390.2906665458588
 20
164.8207265779542
 30
0.0
 10
390.2697119187551
 20
164.8071366617967
 30
0.0
 10
390.2501810004052
 20
164.7942558919572
 30
0.0
 10
390.2327907512657
 20
164.7826306570966
 30
0.0
 10
390.2142828369211
 20
164.7701017696858
 30
0.0
 10
390.1931496697683
 20
164.7555728208114
 30
0.0
 10
390.1721260636194
 20
164.740860502721
 30
0.0
 10
390.1538854725306
 20
164.7278975199112
 30
0.0
 10
390.1375135612078
 20
164.7161210927376
 30
0.0
 10
390.1198296583255
 20
164.7032436213803
 30
0.0
 10
390.0987195829259
 20
164.6876435480629
 30
0.0
 10
390.073883231596
 20
164.6689663055775
 30
0.0
 10
390.0474498728059
 20
164.6486779086364
 30
0.0
 10
390.0233479107945
 20
164.6297902530262
 30
0.0
 10
390.0018037300495
 20
164.6126233046471
 30
0.0
 10
389.9790708014263
 20
164.594238207553
 30
0.0
 10
389.9533838653476
 20
164.5730612522004
 30
0.0
 10
389.9271745418119
 20
164.5509852468532
 30
0.0
 10
389.9044386235557
 20
164.5314684815289
 30
0.0
 10
389.8855190061435
 20
164.5149663120011
 30
0.0
 10
389.8702390350415
 20
164.501462274236
 30
0.0
 10
389.8559380770787
 20
164.4886910817609
 30
0.0
 10
389.8404839161914
 20
164.4747416885997
 30
0.0
 10
389.8239156856306
 20
164.4595849119344
 30
0.0
 10
389.8090462357716
 20
164.4458023584725
 30
0.0
 10
389.7970229691907
 20
164.4345445085915
 30
0.0
 10
389.7839831529688
 20
164.4222345207381
 30
0.0
 10
389.7668863778997
 20
164.4059152194776
 30
0.0
 10
389.7459666408495
 20
164.3856217777319
 30
0.0
 10
389.7250578211104
 20
164.3649788108024
 30
0.0
 10
389.7064219485777
 20
164.3462869850268
 30
0.0
 10
389.6886389368985
 20
164.3282049269518
 30
0.0
 10
389.6698393266934
 20
164.3088180066738
 30
0.0
 10
389.6508610904406
 20
164.2889273316995
 30
0.0
 10
389.6288655648272
 20
164.2655170481512
 30
0.0
 10
389.6015158719913
 20
164.2358721360479
 30
0.0
 10
389.5670404884729
 20
164.1974894606801
 30
0.0
 10
389.5315913902168
 20
164.1567614211949
 30
0.0
 10
389.4961100113269
 20
164.1147799875092
 30
0.0
 10
389.4626658003903
 20
164.0740295196178
 30
0.0
 10
389.4315984298408
 20
164.0350073474571
 30
0.0
 10
389.3946034202093
 20
163.9873611240101
 30
0.0
 10
389.3502288657564
 20
163.9281285419318
 30
0.0
 10
389.299767052321
 20
163.8572795060925
 30
0.0
 10
389.2516565801682
 20
163.7864491824852
 30
0.0
 10
389.2071966602524
 20
163.7179077963134
 30
0.0
 10
389.1627054058967
 20
163.6460226127932
 30
0.0
 10
389.1205357955293
 20
163.5745509424003
 30
0.0
 10
389.0788373065569
 20
163.5003687647232
 30
0.0
 10
389.0453862695514
 20
163.4378577667417
 30
0.0
 10
389.0179242298771
 20
163.3845037746563
 30
0.0
 10
388.9971225328592
 20
163.3429485889035
 30
0.0
 10
388.9766838148192
 20
163.3009252804419
 30
0.0
 10
388.9585037092769
 20
163.2624842754499
 30
0.0
 10
388.9416043870217
 20
163.2258433055677
 30
0.0
 10
388.9258334448539
 20
163.1908278164842
 30
0.0
 10
388.9111694093127
 20
163.1574455504947
 30
0.0
 10
388.8981767825966
 20
163.1272047362627
 30
0.0
 10
388.885901793323
 20
163.09808264175
 30
0.0
 10
388.8730027372902
 20
163.0668294009772
 30
0.0
 10
388.8603311776886
 20
163.0353890601051
 30
0.0
 10
388.8487417140991
 20
163.0059934960954
 30
0.0
 10
388.8374062410478
 20
162.9766763995193
 30
0.0
 10
388.8252901706387
 20
162.944641564619
 30
0.0
 10
388.8099815603063
 20
162.9031183097574
 30
0.0
 10
388.7919911892614
 20
162.8526466167991
 30
0.0
 10
388.7724056272588
 20
162.795230867615
 30
0.0
 10
388.7539344388895
 20
162.7385700162119
 30
0.0
 10
388.7364997605576
 20
162.6827326832233
 30
0.0
 10
388.7188179816414
 20
162.6234899131616
 30
0.0
 10
388.7003182814644
 20
162.5581874641184
 30
0.0
 10
388.6785168806991
 20
162.4765373902636
 30
0.0
 10
388.65650939818
 20
162.3872059573645
 30
0.0
 10
388.6340241513897
 20
162.2869241456735
 30
0.0
 10
388.6148794644982
 20
162.1926985955432
 30
0.0
 10
388.5976840083457
 20
162.0985501429647
 30
0.0
 10
388.5832958433719
 20
162.0108702275942
 30
0.0
 10
388.5717491893089
 20
161.9320514432381
 30
0.0
 10
388.5622880043837
 20
161.8602709426726
 30
0.0
 10
388.5543411133666
 20
161.7934560991326
 30
0.0
 10
388.5469362582572
 20
161.723339486123
 30
0.0
 10
388.541672687673
 20
161.6661291179221
 30
0.0
 10
388.5381204155197
 20
161.6230041741758
 30
0.0
 10
388.5360228733721
 20
161.5957842865968
 30
0.0
 10
388.5342177279472
 20
161.5707726823511
 30
0.0
 10
388.5326021923855
 20
161.5469196594143
 30
0.0
 10
388.5309102711662
 20
161.5202534876705
 30
0.0
 10
388.5289640551845
 20
161.486708972292
 30
0.0
 10
388.5267209021667
 20
161.4432379731426
 30
0.0
 10
388.5254192371202
 20
161.41081149993
 30
0.0
 10
388.5247014958789
 20
161.3929314645137
 30
0.0
  0
LINE
  5
136
330
1F
100
AcDbEntity
  8
0
  6
Continuous
 62
     7
370
    30
100
AcDbLine
 10
406.3196287722
 20
174.0784994964
 30
0.0
 11
390.4230692883
 21
164.9016110419
 31
0.0
  0
SPLINE
  5
137
330
1F
100
AcDbEntity
  8
0
  6
Continuous
 62
     7
370
    30
100
AcDbSpline
210
0.0
220
0.0
230
1.0
 70
     8
 71
     3
 72
    10
 73
     6
 74
     0
 42
0.000000001
 43
0.00000001
 40
0.0
 40
0.0
 40
0.0
 40
0.0
 40
0.2640435833311707
 40
0.7770408098643482
 40
0.9999999999999999
 40
0.9999999999999999
 40
0.9999999999999999
 40
0.9999999999999999
 10
388.5247082060658
 20
161.3929405639831
 30
0.0
 10
388.5159510134897
 20
161.1572154902413
 30
0.0
 10
388.4901799043205
 20
160.4635118224802
 30
0.0
 10
388.4582344179433
 20
159.5714105021289
 30
0.0
 10
388.4355383813544
 20
158.9152987681608
 30
0.0
 10
388.4286625802573
 20
158.7165286541558
 30
0.0
  0
SPLINE
  5
138
330
1F
100
AcDbEntity
  8
0
  6
Continuous
 62
     7
370
    30
100
AcDbSpline
210
0.0
220
0.0
230
1.0
 70
     8
 71
     3
 72
   112
 73
   108
 74
     0
 42
0.000000001
 43
0.00000001
 40
0.0
 40
0.0
 40
0.0
 40
0.0
 40
0.0145543594575474
 40
0.0271090171877121
 40
0.0377028164652278
 40
0.0475013064268306
 40
0.0571041027933465
 40
0.0693475176225957
 40
0.0802754534789971
 40
0.0896157806761937
 40
0.0996491473926046
 40
0.1105657117146056
 40
0.1229968943356442
 40
0.1360341455347633
 40
0.1473646095459581
 40
0.1554481649404542
 40
0.1642194972335294
 40
0.1748619088518456
 40
0.1865238035535792
 40
0.1969099998913185
 40
0.206060100583809
 40
0.2139404897424128
 40
0.2229428155828581
 40
0.2328954997866733
 40
0.2418867475764913
 40
0.2493813609104973
 40
0.2563583698033005
 40
0.2779658642044382
 40
0.2977308328037739
 40
0.3153479504171979
 40
0.33798677172064
 40
0.3520514479943121
 40
0.3739580928173287
 40
0.3939246460637518
 40
0.4031875092168117
 40
0.4139010671505048
 40
0.4239294873965699
 40
0.4321351270596536
 40
0.4401596822777025
 40
0.4484672333116812
 40
0.4539790749858293
 40
0.4604443347615056
 40
0.4678603761254098
 40
0.4761986611479066
 40
0.4838457623219019
 40
0.4898456021824157
 40
0.4943340447577845
 40
0.499274722499151
 40
0.5113373182722986
 40
0.5233822141546977
 40
0.5312454709743107
 40
0.5387986895299934
 40
0.547789665025501
 40
0.5596367016773524
 40
0.5748915532840355
 40
0.5836118842711233
 40
0.5902018845836827
 40
0.595477871474746
 40
0.6013459805001342
 40
0.6078778629613499
 40
0.617296508962197
 40
0.6275325528111894
 40
0.6364457425637002
 40
0.6434936736711622
 40
0.6523915879888821
 40
0.6633231597102682
 40
0.672783551958819
 40
0.6803962550046613
 40
0.6871369310481936
 40
0.6937871345881345
 40
0.7005892981345916
 40
0.7089293737394409
 40
0.7171130898201917
 40
0.723760586935601
 40
0.7289607413770007
 40
0.7339246164066964
 40
0.7390458275814796
 40
0.7447659265922328
 40
0.7523371052618834
 40
0.7614603020185863
 40
0.7694748455597895
 40
0.7757570603182339
 40
0.7809613151902516
 40
0.786952594515852
 40
0.7931877544056651
 40
0.8010730393101664
 40
0.8103728050919649
 40
0.8224627204237082
 40
0.8327371905530982
 40
0.8416225426116756
 40
0.8513204011551738
 40
0.8627337815587408
 40
0.8747787972529093
 40
0.8854202660913345
 40
0.8936771763218925
 40
0.9017071204008025
 40
0.9110324002927069
 40
0.9222845408653604
 40
0.9334862327217766
 40
0.9441515757177263
 40
0.9530690905756194
 40
0.960800694885341
 40
0.9644496650906602
 40
0.9700275844151586
 40
0.9778159782574103
 40
0.987809138294016
 40
1.0
 40
1.0
 40
1.0
 40
1.0
 10
388.4286626293326
 20
158.7165300815938
 30
0.0
 10
388.4281021995902
 20
158.7014611908685
 30
0.0
 10
388.4270583405623
 20
158.6733938053635
 30
0.0
 10
388.4251650483073
 20
158.634837605725
 30
0.0
 10
388.4232818515285
 20
158.6014532443755
 30
0.0
 10
388.4213646685731
 20
158.571336673133
 30
0.0
 10
388.4191457918973
 20
158.5398225455966
 30
0.0
 10
388.4166208033492
 20
158.5075079501036
 30
0.0
 10
388.4138790342483
 20
158.4757712443666
 30
0.0
 10
388.4111370464835
 20
158.4465017127697
 30
0.0
 10
388.4082215291092
 20
158.4175490353129
 30
0.0
 10
388.4048022624341
 20
158.3859915939663
 30
0.0
 10
388.4008277182035
 20
158.3520081837204
 30
0.0
 10
388.3965321210149
 20
158.3180377610962
 30
0.0
 10
388.3925163782945
 20
158.2884355903001
 30
0.0
 10
388.3888793273905
 20
158.2630137218475
 30
0.0
 10
388.3852146782222
 20
158.2385093902375
 30
0.0
 10
388.3809119139314
 20
158.2111158472595
 30
0.0
 10
388.3761864188351
 20
158.1826181444142
 30
0.0
 10
388.371497444565
 20
158.1557593906968
 30
0.0
 10
388.3672486600113
 20
158.1324683402836
 30
0.0
 10
388.3631145043379
 20
158.1106299178835
 30
0.0
 10
388.3587431218671
 20
158.088349006077
 30
0.0
 10
388.3540588784346
 20
158.065388967693
 30
0.0
 10
388.3495069849935
 20
158.0439109413804
 30
0.0
 10
388.3453844608021
 20
158.0250774865172
 30
0.0
 10
388.3389547975033
 20
157.9965071654119
 30
0.0
 10
388.3300513770086
 20
157.9589952588475
 30
0.0
 10
388.3186207910462
 20
157.9142784668179
 30
0.0
 10
388.3066862105302
 20
157.8704769599894
 30
0.0
 10
388.2954349829396
 20
157.8318190473798
 30
0.0
 10
388.2829673966413
 20
157.7914101780127
 30
0.0
 10
388.2708825446697
 20
157.7543414486635
 30
0.0
 10
388.2594218053808
 20
157.7213091820719
 30
0.0
 10
388.2504028069487
 20
157.696394306819
 30
0.0
 10
388.2435704746572
 20
157.6780481228913
 30
0.0
 10
388.2369002964109
 20
157.6606535494145
 30
0.0
 10
388.2308210546789
 20
157.6451977013434
 30
0.0
 10
388.2251209209765
 20
157.6310254319387
 30
0.0
 10
388.2200154509152
 20
157.6186113481339
 30
0.0
 10
388.2152691102281
 20
157.6072837630417
 30
0.0
 10
388.2107249948653
 20
157.5966113901574
 30
0.0
 10
388.2054933127122
 20
157.5845491178914
 30
0.0
 10
388.1999454652636
 20
157.5720223021997
 30
0.0
 10
388.194695418378
 20
157.5604156933638
 30
0.0
 10
388.1903462946152
 20
157.5509723328347
 30
0.0
 10
388.1866624228966
 20
157.5430825187291
 30
0.0
 10
388.1815632334618
 20
157.5322940141533
 30
0.0
 10
388.1746587226811
 20
157.5180018003475
 30
0.0
 10
388.1669808351163
 20
157.5025922289124
 30
0.0
 10
388.1603937421775
 20
157.489704299009
 30
0.0
 10
388.1546014758044
 20
157.4785892618913
 30
0.0
 10
388.1478405437651
 20
157.4658818848708
 30
0.0
 10
388.1393215934673
 20
157.4502817934089
 30
0.0
 10
388.1308437778414
 20
157.4352680011682
 30
0.0
 10
388.1235743705393
 20
157.4227708640774
 30
0.0
 10
388.1186852837419
 20
157.4145246171846
 30
0.0
 10
388.1145334437977
 20
157.4076235087959
 30
0.0
 10
388.1104155478253
 20
157.4008712699622
 30
0.0
 10
388.1053443483025
 20
157.3926809854698
 30
0.0
 10
388.099297717003
 20
157.3831039245099
 30
0.0
 10
388.0927349576188
 20
157.3729544458547
 30
0.0
 10
388.0867192397004
 20
157.3638656947948
 30
0.0
 10
388.0810796335466
 20
157.3555095768942
 30
0.0
 10
388.0750869036368
 20
157.346799396747
 30
0.0
 10
388.0685615864762
 20
157.3375383955499
 30
0.0
 10
388.0623395646028
 20
157.3289245130819
 30
0.0
 10
388.0571231253718
 20
157.3218508833398
 30
0.0
 10
388.0525577744123
 20
157.3157668644739
 30
0.0
 10
388.048236889888
 20
157.3101013146995
 30
0.0
 10
388.0436386154369
 20
157.3041683842229
 30
0.0
 10
388.0387312962528
 20
157.2979507941311
 30
0.0
 10
388.0338623585915
 20
157.2919043785554
 30
0.0
 10
388.0296702255005
 20
157.2867923570661
 30
0.0
 10
388.0262031884956
 20
157.2826255573659
 30
0.0
 10
388.0230935187872
 20
157.278934192851
 30
0.0
 10
388.0199008230855
 20
157.2751905984902
 30
0.0
 10
388.0162418297231
 20
157.2709565464701
 30
0.0
 10
388.0118446108755
 20
157.2659493145523
 30
0.0
 10
388.0070095838077
 20
157.260554216837
 30
0.0
 10
388.002440008902
 20
157.2555622571268
 30
0.0
 10
387.9986747909293
 20
157.2515218277014
 30
0.0
 10
387.9953659950093
 20
157.2480214194554
 30
0.0
 10
387.992091219777
 20
157.2446048353252
 30
0.0
 10
387.9883686870011
 20
157.2407799093696
 30
0.0
 10
387.9840877300915
 20
157.2364574881023
 30
0.0
 10
387.9787511165709
 20
157.2311830227279
 30
0.0
 10
387.9730093282634
 20
157.2256591276226
 30
0.0
 10
387.9674104014948
 20
157.2204226941265
 30
0.0
 10
387.9622967790067
 20
157.2157549427552
 30
0.0
 10
387.95706652127
 20
157.2110919810692
 30
0.0
 10
387.9513342153269
 20
157.2061167847036
 30
0.0
 10
387.9454897847603
 20
157.2011941614671
 30
0.0
 10
387.940173379104
 20
157.1968462931995
 30
0.0
 10
387.9355954931597
 20
157.1931945132142
 30
0.0
 10
387.9313098039068
 20
157.1898480585496
 30
0.0
 10
387.9265615948003
 20
157.1862239944582
 30
0.0
 10
387.9212879940886
 20
157.1823065047484
 30
0.0
 10
387.915553338863
 20
157.1781737552896
 30
0.0
 10
387.9100283446298
 20
157.1743214035813
 30
0.0
 10
387.9058609499768
 20
157.1714962534028
 30
0.0
 10
387.9029876774134
 20
157.1695859972976
 30
0.0
 10
387.9006500459911
 20
157.1680510428848
 30
0.0
 10
387.8979394674585
 20
157.1662918592923
 30
0.0
 10
387.8940819858785
 20
157.1638376032563
 30
0.0
 10
387.8889326182074
 20
157.16063726454
 30
0.0
 10
387.8849645524201
 20
157.1582792219129
 30
0.0
 10
387.8827839675913
 20
157.1569833986443
 30
0.0
  0
ARC
  5
139
330
1F
100
AcDbEntity
  8
0
  6
Continuous
 62
     7
370
    30
100
AcDbCircle
 10
409.3193849701
 20
168.882206322
 30
0.0
 40
5.999992498926406
100
AcDbArc
 50
359.7883053704
 51
119.9973199006
  0
LINE
  5
13A
330
1F
100
AcDbEntity
  8
0
  6
Continuous
 62
     7
370
    30
100
AcDbLine
 10
415.3102049673
 20
167.2424061356
 30
0.0
 11
415.3193115678
 21
168.8561294498
 31
0.0
  0
SPLINE
  5
13B
330
1F
100
AcDbEntity
  8
0
  6
Continuous
 62
     7
370
    30
100
AcDbSpline
210
0.0
220
0.0
230
1.0
 70
     8
 71
     3
 72
   273
 73
   269
 74
     0
 42
0.000000001
 43
0.00000001
 40
0.0
 40
0.0
 40
0.0
 40
0.0
 40
0.0023528895127354
 40
0.0060698515412999
 40
0.0097868426931654
 40
0.013503999597486
 40
0.0172214583997067
 40
0.0209393535204238
 40
0.0246578169284495
 40
0.0283769774373777
 40
0.0320969600317471
 40
0.0358178852289984
 40
0.0395398684827368
 40
0.0432630196321923
 40
0.046987442402366
 40
0.0507132339586228
 40
0.0544404845186793
 40
0.0581692770244884
 40
0.0618996868754629
 40
0.0656317817239463
 40
0.0693656213331042
 40
0.0731012574964804
 40
0.0768387340180351
 40
0.0805780867506101
 40
0.0843193436901964
 40
0.0880625251229611
 40
0.0918076438213293
 40
0.0955547052850538
 40
0.0993037080229182
 40
0.1030546438704752
 40
0.1068074983387811
 40
0.1105622509895427
 40
0.1143188758312987
 40
0.1180773417320881
 40
0.1218376128436447
 40
0.1255996490324919
 40
0.1293634063137086
 40
0.1331288372830904
 40
0.1368958915441122
 40
0.1406645161261649
 40
0.1444346558910614
 40
0.1482062539251152
 40
0.1519792519145652
 40
0.1557535905024005
 40
0.1595292096250909
 40
0.1633060488280165
 40
0.1670840475589447
 40
0.1708631454387715
 40
0.17464328250959
 40
0.1784243994599582
 40
0.1822064378277681
 40
0.1859893401811504
 40
0.1897730502780988
 40
0.1935575132055996
 40
0.1973426754992817
 40
0.201128485244512
 40
0.2049148921600771
 40
0.208701847665653
 40
0.2124893049340791
 40
0.2162772189298104
 40
0.2200655464345036
 40
0.223854246061132
 40
0.2276432782575374
 40
0.2314326053006059
 40
0.2352221912821522
 40
0.239012002087378
 40
0.2428020053669505
 40
0.2465921705035104
 40
0.2503824685734393
 40
0.2541728723046375
 40
0.2579633560310452
 40
0.2617538956444695
 40
0.2655444685443497
 40
0.2693350517463477
 40
0.2731256210653362
 40
0.2769161585485223
 40
0.2807066475206318
 40
0.2844970725303677
 40
0.2882874192970448
 40
0.2920776746580116
 40
0.2958678265167907
 40
0.2996578637923564
 40
0.3034477763695365
 40
0.3072375550507237
 40
0.3110271915089659
 40
0.3148166782424962
 40
0.3186060085308616
 40
0.3223951763925151
 40
0.3261841765440593
 40
0.3299730043610761
 40
0.3337616558405338
 40
0.3375501275648262
 40
0.3413384166673902
 40
0.3451265207998263
 40
0.3489144381005935
 40
0.352702167165242
 40
0.356489707017992
 40
0.3602770570848341
 40
0.3640642171679728
 40
0.3678511874215719
 40
0.371637968328811
 40
0.3754245606802105
 40
0.3792109655530914
 40
0.3829971842921914
 40
0.3867832184914151
 40
0.3905690699765906
 40
0.3943547407892545
 40
0.3981402331713713
 40
0.4019255495509814
 40
0.4057106925287292
 40
0.4094956648651831
 40
0.4132804694689795
 40
0.4170651093856761
 40
0.4208495877873547
 40
0.4246339079628567
 40
0.4284180733087013
 40
0.4322020873205324
 40
0.4359859535852181
 40
0.4397696757734308
 40
0.4435532576327419
 40
0.4473367029812311
 40
0.4511200157015148
 40
0.4549031997352125
 40
0.4586862590777878
 40
0.4624691977738325
 40
0.4662520199126432
 40
0.4700347296241378
 40
0.4738173310751217
 40
0.4775998284658261
 40
0.4813822260267024
 40
0.4851645280155127
 40
0.4889467387146553
 40
0.4927288624286442
 40
0.4965109034819272
 40
0.5002928662167918
 40
0.5040747549914877
 40
0.5078565741785571
 40
0.5116383281632303
 40
0.5154200213420861
 40
0.5192016581217282
 40
0.5229832429176569
 40
0.5267647801532476
 40
0.530546274258796
 40
0.5343277296706871
 40
0.5381091508306318
 40
0.5418905421850021
 40
0.5456719081841895
 40
0.5494532532820461
 40
0.5532345819353962
 40
0.5570158986035242
 40
0.5607972077477982
 40
0.5645785138311943
 40
0.5683598213179323
 40
0.5721411332274811
 40
0.5759224539829023
 40
0.5797037880500915
 40
0.5834851398947538
 40
0.5872665139820006
 40
0.5910479147759198
 40
0.5948293467391039
 40
0.5986108143321307
 40
0.602392322013019
 40
0.6061738742365961
 40
0.6099554754538256
 40
0.6137371301110588
 40
0.6175188426491718
 40
0.6213006175026798
 40
0.6250824590986517
 40
0.6288643718556014
 40
0.6326463601822083
 40
0.6364284284759201
 40
0.640210581121397
 40
0.6439928224888345
 40
0.6477751569320648
 40
0.6515575887865187
 40
0.6553401223669878
 40
0.6591227619651248
 40
0.6629055118468198
 40
0.666688376249225
 40
0.6704713593775841
 40
0.6742544654017905
 40
0.6780376984526072
 40
0.6818210626176218
 40
0.6856045619368243
 40
0.6893882003978671
 40
0.693171981930923
 40
0.6969559104031405
 40
0.7007399896126982
 40
0.704524223282349
 40
0.7083086150525592
 40
0.7120931684740957
 40
0.7158778870000492
 40
0.7196627739773375
 40
0.7234478326375842
 40
0.7272330660873363
 40
0.7310184772976605
 40
0.7348040690929704
 40
0.7385898441391431
 40
0.7423758049308294
 40
0.7461619537779303
 40
0.7499482927912395
 40
0.75373482386709
 40
0.757521548671119
 40
0.7613084686209918
 40
0.7650955848680406
 40
0.7688828982778714
 40
0.7726704094097332
 40
0.7764581184947797
 40
0.7802460254130132
 40
0.7840341296689646
 40
0.7878224303660132
 40
0.7916109261793636
 40
0.7953996153275217
 40
0.7991884955423578
 40
0.8029775640376261
 40
0.8067668174759635
 40
0.8105562519342618
 40
0.8143458628675128
 40
0.8181356450709791
 40
0.8219255926407454
 40
0.8257156989326891
 40
0.8295059565197683
 40
0.8332963571477905
 40
0.8370868916895504
 40
0.8408775500975401
 40
0.8446683213551877
 40
0.848459193426771
 40
0.8522501532061284
 40
0.8560411864642572
 40
0.8598322777960473
 40
0.8636234105662768
 40
0.8674145668551264
 40
0.8712057228950406
 40
0.8749968553488442
 40
0.878787941623042
 40
0.8825789576058792
 40
0.8863698776158508
 40
0.8901606743523761
 40
0.8939513188490087
 40
0.8977417804298582
 40
0.9015320266699389
 40
0.9053220233601517
 40
0.9091117344777414
 40
0.9129011221630912
 40
0.9166901467038536
 40
0.9204787665272905
 40
0.924266938202014
 40
0.9280546164500866
 40
0.9318417541707376
 40
0.9356283024768033
 40
0.9394142107450489
 40
0.9431994266816862
 40
0.9469838964041616
 40
0.9507675645404257
 40
0.9545503743468763
 40
0.9583322678459045
 40
0.9621131859841217
 40
0.9658930688120799
 40
0.9696718556861958
 40
0.9734494854934105
 40
0.9772258968988852
 40
0.9810010286169273
 40
0.9847748197048387
 40
0.9885472098793436
 40
0.9923181398546902
 40
0.9960875517014431
 40
0.999855389224304
 40
1.0
 40
1.0
 40
1.0
 40
1.0
 10
434.7935080949392
 20
124.5771373609784
 30
0.0
 10
434.8247104177268
 20
124.595018257202
 30
0.0
 10
434.9052044086428
 20
124.64114638388
 30
0.0
 10
435.0332591290763
 20
124.7185064378173
 30
0.0
 10
435.1778457753514
 20
124.808864816376
 30
0.0
 10
435.3208012647868
 20
124.9019486250125
 30
0.0
 10
435.4621915763622
 20
124.9976095410389
 30
0.0
 10
435.601981042187
 20
125.0958755638177
 30
0.0
 10
435.7401612838066
 20
125.1967272689512
 30
0.0
 10
435.8767166426159
 20
125.3001577466622
 30
0.0
 10
436.0116334308109
 20
125.4061565174956
 30
0.0
 10
436.1448974411007
 20
125.5147138203182
 30
0.0
 10
436.2764946057854
 20
125.6258194392094
 30
0.0
 10
436.4064108144166
 20
125.739462993257
 30
0.0
 10
436.5346319597247
 20
125.8556338337762
 30
0.0
 10
436.6611439251034
 20
125.9743210466356
 30
0.0
 10
436.7859325904781
 20
126.0955134266242
 30
0.0
 10
436.908983835895
 20
126.2191994598569
 30
0.0
 10
437.0302835482699
 20
126.3453673048874
 30
0.0
 10
437.1498176297026
 20
126.474004775325
 30
0.0
 10
437.267572007619
 20
126.6050993234811
 30
0.0
 10
437.3835326464798
 20
126.7386380254196
 30
0.0
 10
437.4976855609084
 20
126.8746075675282
 30
0.0
 10
437.6100168300455
 20
127.0129942347608
 30
0.0
 10
437.7205126129329
 20
127.1537839006602
 30
0.0
 10
437.8291591647217
 20
127.2969620192419
 30
0.0
 10
437.9359428534952
 20
127.4425136187925
 30
0.0
 10
438.040850177501
 20
127.5904232976037
 30
0.0
 10
438.1438677825843
 20
127.7406752216385
 30
0.0
 10
438.2449824796267
 20
127.8932531240949
 30
0.0
 10
438.3441812618026
 20
128.0481403068144
 30
0.0
 10
438.4414513214746
 20
128.2053196434483
 30
0.0
 10
438.536780066569
 20
128.36477358429
 30
0.0
 10
438.6301551362851
 20
128.5264841626481
 30
0.0
 10
438.7215644160095
 20
128.6904330026346
 30
0.0
 10
438.8109960513281
 20
128.8566013282224
 30
0.0
 10
438.8984384610434
 20
129.0249699734226
 30
0.0
 10
438.9838803491274
 20
129.195519393426
 30
0.0
 10
439.0673107155575
 20
129.3682296765504
 30
0.0
 10
439.1487188659999
 20
129.5430805568391
 30
0.0
 10
439.2280944203261
 20
129.7200514271555
 30
0.0
 10
439.3054273199589
 20
129.8991213526253
 30
0.0
 10
439.3807078340645
 20
130.0802690842886
 30
0.0
 10
439.4539265646154
 20
130.2634730728273
 30
0.0
 10
439.5250744503651
 20
130.4487114822478
 30
0.0
 10
439.594142769782
 20
130.63596220341
 30
0.0
 10
439.6611231429991
 20
130.825202867302
 30
0.0
 10
439.7260075328447
 20
131.016410857977
 30
0.0
 10
439.788788245019
 20
131.2095633250753
 30
0.0
 10
439.8494579274931
 20
131.4046371958729
 30
0.0
 10
439.9080095691997
 20
131.6016091868044
 30
0.0
 10
439.9644364980931
 20
131.8004558144228
 30
0.0
 10
440.01873237865
 20
132.0011534057665
 30
0.0
 10
440.0708912088876
 20
132.2036781081158
 30
0.0
 10
440.1209073169644
 20
132.40800589813
 30
0.0
 10
440.1687753574352
 20
132.6141125903609
 30
0.0
 10
440.2144903072231
 20
132.821973845152
 30
0.0
 10
440.2580474613671
 20
133.0315651759321
 30
0.0
 10
440.2994424286034
 20
133.242861955922
 30
0.0
 10
440.3386711268291
 20
133.4558394242749
 30
0.0
 10
440.3757297784965
 20
133.6704726916768
 30
0.0
 10
440.4106149059798
 20
133.8867367454338
 30
0.0
 10
440.4433233269511
 20
134.1046064540775
 30
0.0
 10
440.4738521497986
 20
134.3240565715193
 30
0.0
 10
440.5021987691159
 20
134.5450617407869
 30
0.0
 10
440.5283608612878
 20
134.7675964973758
 30
0.0
 10
440.5523363801908
 20
134.9916352722495
 30
0.0
 10
440.5741235530286
 20
135.2171523945194
 30
0.0
 10
440.593720876314
 20
135.4441220938384
 30
0.0
 10
440.6111271120082
 20
135.6725185025374
 30
0.0
 10
440.6263412838273
 20
135.9023156575358
 30
0.0
 10
440.6393626737186
 20
136.1334875020533
 30
0.0
 10
440.6501908167606
 20
136.3660078495356
 30
0.0
 10
440.6588254979644
 20
136.5998503303294
 30
0.0
 10
440.6652667567552
 20
136.8349884911871
 30
0.0
 10
440.6695148838277
 20
137.0713958350709
 30
0.0
 10
440.6715704158025
 20
137.3090458781882
 30
0.0
 10
440.6714341290653
 20
137.5479120501939
 30
0.0
 10
440.6691070374874
 20
137.7879676951357
 30
0.0
 10
440.6645903902996
 20
138.0291860723728
 30
0.0
 10
440.6578856701141
 20
138.2715403574886
 30
0.0
 10
440.6489945910851
 20
138.5150036432053
 30
0.0
 10
440.6379190972024
 20
138.7595489403139
 30
0.0
 10
440.6246613607084
 20
139.0051491786274
 30
0.0
 10
440.6092237806331
 20
139.2517772079661
 30
0.0
 10
440.5916089814365
 20
139.4994057991822
 30
0.0
 10
440.5718198117521
 20
139.7480076452298
 30
0.0
 10
440.5498593432244
 20
139.9975553622861
 30
0.0
 10
440.5257308694305
 20
140.2480214909269
 30
0.0
 10
440.4994379048817
 20
140.4993784973612
 30
0.0
 10
440.4709841840943
 20
140.7515987747273
 30
0.0
 10
440.4403736607266
 20
141.0046546444531
 30
0.0
 10
440.4076105067716
 20
141.2585183576812
 30
0.0
 10
440.3726991118025
 20
141.5131620967605
 30
0.0
 10
440.3356440822623
 20
141.7685579768061
 30
0.0
 10
440.2964502407936
 20
142.0246780473252
 30
0.0
 10
440.2551226256018
 20
142.2814942939122
 30
0.0
 10
440.2116664898472
 20
142.5389786400092
 30
0.0
 10
440.1660873010623
 20
142.7971029487336
 30
0.0
 10
440.118390740586
 20
143.0558390247704
 30
0.0
 10
440.0685827030153
 20
143.315158616329
 30
0.0
 10
440.0166692956667
 20
143.5750334171633
 30
0.0
 10
439.9626568380452
 20
143.8354350686516
 30
0.0
 10
439.9065518613176
 20
144.0963351619372
 30
0.0
 10
439.8483611077851
 20
144.3577052401268
 30
0.0
 10
439.788091530355
 20
144.6195168005441
 30
0.0
 10
439.7257502920061
 20
144.881741297039
 30
0.0
 10
439.6613447652463
 20
145.1443501423475
 30
0.0
 10
439.5948825315602
 20
145.4073147105023
 30
0.0
 10
439.5263713808448
 20
145.6706063392924
 30
0.0
 10
439.4558193108291
 20
145.9341963327681
 30
0.0
 10
439.3832345264796
 20
146.1980559637898
 30
0.0
 10
439.3086254393863
 20
146.4621564766203
 30
0.0
 10
439.2320006671297
 20
146.7264690895555
 30
0.0
 10
439.1533690326274
 20
146.990964997596
 30
0.0
 10
439.0727395634574
 20
147.2556153751518
 30
0.0
 10
438.9901214911597
 20
147.5203913787836
 30
0.0
 10
438.9055242505123
 20
147.7852641499753
 30
0.0
 10
438.8189574787838
 20
148.0502048179376
 30
0.0
 10
438.7304310149577
 20
148.3151845024402
 30
0.0
 10
438.6399548989322
 20
148.5801743166708
 30
0.0
 10
438.5475393706914
 20
148.8451453701198
 30
0.0
 10
438.45319486945
 20
149.1100687714878
 30
0.0
 10
438.3569320327679
 20
149.3749156316154
 30
0.0
 10
438.2587616956384
 20
149.6396570664331
 30
0.0
 10
438.158694889545
 20
149.90426419993
 30
0.0
 10
438.0567428414918
 20
150.1687081671388
 30
0.0
 10
437.9529169730017
 20
150.432960117137
 30
0.0
 10
437.8472288990866
 20
150.6969912160628
 30
0.0
 10
437.739690427188
 20
150.9607726501423
 30
0.0
 10
437.6303135560863
 20
151.2242756287295
 30
0.0
 10
437.5191104747827
 20
151.4874713873545
 30
0.0
 10
437.4060935613488
 20
151.7503311907824
 30
0.0
 10
437.2912753817486
 20
152.0128263360775
 30
0.0
 10
437.1746686886287
 20
152.2749281556752
 30
0.0
 10
437.0562864200813
 20
152.5366080204585
 30
0.0
 10
436.9361416983762
 20
152.7978373428371
 30
0.0
 10
436.8142478286631
 20
153.0585875798311
 30
0.0
 10
436.6906182976473
 20
153.3188302361538
 30
0.0
 10
436.5652667722337
 20
153.5785368672965
 30
0.0
 10
436.4382070981438
 20
153.8376790826126
 30
0.0
 10
436.3094532985043
 20
154.0962285483985
 30
0.0
 10
436.1790195724062
 20
154.3541569909735
 30
0.0
 10
436.0469202934389
 20
154.6114361997547
 30
0.0
 10
435.913170008193
 20
154.8680380303275
 30
0.0
 10
435.7777834347398
 20
155.1239344075106
 30
0.0
 10
435.640775461081
 20
155.3790973284138
 30
0.0
 10
435.5021611435737
 20
155.6334988654883
 30
0.0
 10
435.3619557053286
 20
155.8871111695687
 30
0.0
 10
435.220174534582
 20
156.1399064729058
 30
0.0
 10
435.0768331830442
 20
156.3918570921886
 30
0.0
 10
434.9319473642205
 20
156.6429354315549
 30
0.0
 10
434.7855329703684
 20
156.8931139537096
 30
0.0
 10
434.6376060535353
 20
157.1423652143877
 30
0.0
 10
434.488182823246
 20
157.3906618663338
 30
0.0
 10
434.3372796251937
 20
157.6379766936262
 30
0.0
 10
434.1849129575199
 20
157.8842825836585
 30
0.0
 10
434.0310994695519
 20
158.1295525291293
 30
0.0
 10
433.8758559599624
 20
158.3737596309514
 30
0.0
 10
433.719199374908
 20
158.6168771011435
 30
0.0
 10
433.5611468061479
 20
158.8588782657027
 30
0.0
 10
433.4017154891413
 20
159.0997365674581
 30
0.0
 10
433.2409228011275
 20
159.3394255689045
 30
0.0
 10
433.0787862591845
 20
159.5779189550151
 30
0.0
 10
432.9153235182725
 20
159.8151905360324
 30
0.0
 10
432.7505523692574
 20
160.0512142502373
 30
0.0
 10
432.5844907369191
 20
160.2859641666937
 30
0.0
 10
432.4171566779435
 20
160.5194144879712
 30
0.0
 10
432.248568378899
 20
160.7515395528408
 30
0.0
 10
432.0787441541989
 20
160.9823138389468
 30
0.0
 10
431.9077024440496
 20
161.2117119654517
 30
0.0
 10
431.7354618123869
 20
161.4397086956548
 30
0.0
 10
431.5620409447993
 20
161.6662789395819
 30
0.0
 10
431.3874586464411
 20
161.8913977565479
 30
0.0
 10
431.2117338399353
 20
162.1150403576897
 30
0.0
 10
431.0348855632676
 20
162.3371821084681
 30
0.0
 10
430.856932967672
 20
162.5577985311417
 30
0.0
 10
430.6778953155097
 20
162.7768653072069
 30
0.0
 10
430.4977919781429
 20
162.9943582798071
 30
0.0
 10
430.3166424338031
 20
163.2102534561094
 30
0.0
 10
430.1344662654573
 20
163.4245270096473
 30
0.0
 10
429.9512831586704
 20
163.6371552826301
 30
0.0
 10
429.7671128994696
 20
163.8481147882171
 30
0.0
 10
429.5819753722078
 20
164.0573822127575
 30
0.0
 10
429.3958905574293
 20
164.2649344179935
 30
0.0
 10
429.208878529741
 20
164.4707484432282
 30
0.0
 10
429.020959455687
 20
164.6748015074561
 30
0.0
 10
428.8321535916334
 20
164.8770710114559
 30
0.0
 10
428.6424812816591
 20
165.0775345398471
 30
0.0
 10
428.4519629554599
 20
165.2761698631076
 30
0.0
 10
428.2606191262643
 20
165.4729549395529
 30
0.0
 10
428.0684703887651
 20
165.6678679172775
 30
0.0
 10
427.875537417068
 20
165.8608871360566
 30
0.0
 10
427.6818409626586
 20
166.0519911292096
 30
0.0
 10
427.4874018523934
 20
166.2411586254252
 30
0.0
 10
427.292240986512
 20
166.4283685505467
 30
0.0
 10
427.0963793366785
 20
166.6136000293196
 30
0.0
 10
426.8998379440512
 20
166.7968323871006
 30
0.0
 10
426.702637917384
 20
166.9780451515282
 30
0.0
 10
426.5048004311632
 20
167.1572180541577
 30
0.0
 10
426.3063467237815
 20
167.3343310320578
 30
0.0
 10
426.1072980957534
 20
167.5093642293731
 30
0.0
 10
425.9076759079741
 20
167.6822979988505
 30
0.0
 10
425.7075015800251
 20
167.8531129033341
 30
0.0
 10
425.5067965885303
 20
168.0217897172269
 30
0.0
 10
425.3055824655668
 20
168.1883094279228
 30
0.0
 10
425.10388079713
 20
168.3526532372111
 30
0.0
 10
424.9017132216622
 20
168.5148025626544
 30
0.0
 10
424.6991014286432
 20
168.6747390389436
 30
0.0
 10
424.4960671572491
 20
168.8324445192328
 30
0.0
 10
424.2926321950816
 20
168.9879010764562
 30
0.0
 10
424.0888183769725
 20
169.1410910046318
 30
0.0
 10
423.8846475838656
 20
169.2919968201559
 30
0.0
 10
423.6801417417798
 20
169.4406012630917
 30
0.0
 10
423.475322820857
 20
169.5868872984576
 30
0.0
 10
423.2702128344978
 20
169.7308381175201
 30
0.0
 10
423.0648338385884
 20
169.8724371390983
 30
0.0
 10
422.8592079308191
 20
170.0116680108838
 30
0.0
 10
422.6533572501016
 20
170.1485146107852
 30
0.0
 10
422.4473039760815
 20
170.2829610483035
 30
0.0
 10
422.2410703287522
 20
170.4149916659467
 30
0.0
 10
422.0346785681695
 20
170.5445910406915
 30
0.0
 10
421.8281509942667
 20
170.671743985502
 30
0.0
 10
421.6215099467734
 20
170.7964355509151
 30
0.0
 10
421.4147778052332
 20
170.9186510267018
 30
0.0
 10
421.2079769891229
 20
171.0383759436176
 30
0.0
 10
421.0011299580664
 20
171.155596075251
 30
0.0
 10
420.7942592121449
 20
171.2702974399843
 30
0.0
 10
420.5873872922932
 20
171.3824663030788
 30
0.0
 10
420.3805367807809
 20
171.492089178896
 30
0.0
 10
420.1737303017689
 20
171.5991528332718
 30
0.0
 10
419.9669906038827
 20
171.7036442446332
 30
0.0
 10
419.7603405275563
 20
171.805550628695
 30
0.0
 10
419.5538029656881
 20
171.904859463945
 30
0.0
 10
419.3474007827724
 20
172.001558532104
 30
0.0
 10
419.1411568491905
 20
172.0956359018617
 30
0.0
 10
418.9350940820457
 20
172.1870799127436
 30
0.0
 10
418.7292354458194
 20
172.2758791790227
 30
0.0
 10
418.523603952963
 20
172.3620225938974
 30
0.0
 10
418.318222664398
 20
172.4454993339442
 30
0.0
 10
418.1131146898972
 20
172.5262988638551
 30
0.0
 10
417.9083031883114
 20
172.6044109414693
 30
0.0
 10
417.7038113676105
 20
172.6798256231026
 30
0.0
 10
417.4996624846974
 20
172.7525332691798
 30
0.0
 10
417.2958798449571
 20
172.8225245501706
 30
0.0
 10
417.0924868014977
 20
172.8897904528244
 30
0.0
 10
416.889506754039
 20
172.9543222867007
 30
0.0
 10
416.6869631474025
 20
173.0161116909804
 30
0.0
 10
416.4848794695538
 20
173.0751506415461
 30
0.0
 10
416.2832792491517
 20
173.1314314583084
 30
0.0
 10
416.0821860525509
 20
173.1849468127541
 30
0.0
 10
415.881623480215
 20
173.2356897356759
 30
0.0
 10
415.6816151624795
 20
173.2836536250816
 30
0.0
 10
415.4821847546619
 20
173.3288322540917
 30
0.0
 10
415.2833559313142
 20
173.3712197793252
 30
0.0
 10
415.085152380185
 20
173.4108107476507
 30
0.0
 10
414.88759779359
 20
173.4476001089339
 30
0.0
 10
414.6907158656188
 20
173.481583205994
 30
0.0
 10
414.4945302636096
 20
173.5127558488073
 30
0.0
 10
414.2990646915681
 20
173.5411140732695
 30
0.0
 10
414.1043426065017
 20
173.5666550750822
 30
0.0
 10
413.910388225355
 20
173.5893737581247
 30
0.0
 10
413.7172227137565
 20
173.6092756389706
 30
0.0
 10
413.5248783429474
 20
173.6263287390413
 30
0.0
 10
413.333345622147
 20
173.6406430476002
 30
0.0
 10
413.1427704210819
 20
173.6518011684354
 30
0.0
 10
413.013610755715
 20
173.6582938914267
 30
0.0
 10
412.9482186088864
 20
173.6602716788987
 30
0.0
 10
412.945801603381
 20
173.6603447813038
 30
0.0
  0
ARC
  5
13C
330
1F
100
AcDbEntity
  8
0
  6
Continuous
 62
     7
370
    30
100
AcDbCircle
 10
400.7390676628
 20
112.6832172623
 30
0.0
 40
5.99999249892636
100
AcDbArc
 50
235.7841709547
 51
239.6813997802
  0
ARC
  5
13D
330
1F
100
AcDbEntity
  8
0
  6
Continuous
 62
     7
370
    30
100
AcDbCircle
 10
400.7390676628
 20
112.6832172623
 30
0.0
 40
5.999992498926347
100
AcDbArc
 50
239.6813997802
 51
299.9950217071
  0
LINE
  5
13E
330
1F
100
AcDbEntity
  8
0
  6
Continuous
 62
     7
370
    30
100
AcDbLine
 10
403.7387906301
 20
107.479143011
 30
0.0
 11
404.0203286815
 21
107.6416714685
 31
0.0
  0
LINE
  5
13F
330
1F
100
AcDbEntity
  8
0
  6
Continuous
 62
     7
370
    30
100
AcDbLine
 10
388.0803814961
 20
138.0983425843
 30
0.0
 11
387.5854067493
 21
137.8125997451
 31
0.0
  0
LINE
  5
140
330
1F
100
AcDbEntity
  8
0
  6
Continuous
 62
     7
370
    30
100
AcDbLine
 10
395.084797244
 20
124.8218668094
 30
0.0
 11
395.5797719909
 21
125.1076096486
 31
0.0
  0
LINE
  5
141
330
1F
100
AcDbEntity
  8
0
  6
Continuous
 62
     7
370
    30
100
AcDbLine
 10
388.2777684691
 20
227.3862119542
 30
0.0
 11
388.3724346656
 21
227.4449789632
 31
0.0
  0
LINE
  5
142
330
1F
100
AcDbEntity
  8
0
  6
Continuous
 62
     7
370
    30
100
AcDbLine
 10
473.0964267829
 20
80.6790497058
 30
0.0
 11
473.0013189765
 21
80.6281320639
 31
0.0
  0
LINE
  5
143
330
1F
100
AcDbEntity
  8
0
  6
Continuous
 62
     7
370
    30
100
AcDbLine
 10
395.0720506479
 20
231.6045859387
 30
0.0
 11
395.2693644551
 21
231.7259769299
 31
0.0
  0
LINE
  5
144
330
1F
100
AcDbEntity
  8
0
  6
Continuous
 62
     7
370
    30
100
AcDbLine
 10
480.2377017092
 20
84.5026003876
 30
0.0
 11
480.0505693104
 21
84.401524305
 31
0.0
  0
LWPOLYLINE
  5
145
330
1F
100
AcDbEntity
  8
0
  6
Continuous
 62
     7
370
    30
100
AcDbPolyline
 90
       97
 70
   128
 43
0.0
 10
448.64956195
 20
141.6672008189
 10
448.6428136768
 20
142.2663776375
 10
448.6225734822
 20
142.8729352007
 10
448.5888552379
 20
143.486457804
 10
448.5416820526
 20
144.1065249699
 10
448.4810862564
 20
144.7327117352
 10
448.4071093788
 20
145.3645889428
 10
448.3198021197
 20
146.0017235356
 10
448.2192243152
 20
146.6436788534
 10
448.1054448962
 20
147.290014932
 10
447.9785418416
 20
147.9402888051
 10
447.8386021244
 20
148.5940548074
 10
447.6857216521
 20
149.2508648804
 10
447.5200052016
 20
149.9102688791
 10
447.3415663464
 20
150.5718148811
 10
447.1505273798
 20
151.2350494958
 10
446.9470192303
 20
151.8995181752
 10
446.7311813722
 20
152.5647655258
 10
446.50316173
 20
153.2303356203
 10
446.263116577
 20
153.8957723101
 10
446.0112104281
 20
154.5606195381
 10
445.7476159272
 20
155.2244216514
 10
445.4725137288
 20
155.8867237131
 10
445.1860923742
 20
156.5470718144
 10
444.8885481624
 20
157.2050133858
 10
444.5800850152
 20
157.8600975068
 10
444.2609143379
 20
158.5118752158
 10
443.9312548742
 20
159.1598998166
 10
443.5913325561
 20
159.8037271857
 10
443.2413803494
 20
160.4429160759
 10
442.8816380939
 20
161.077028419
 10
442.512352339
 20
161.7056296263
 10
442.1337761747
 20
162.3282888857
 10
441.7461690582
 20
162.9445794577
 10
441.3497966359
 20
163.5540789676
 10
440.9449305619
 20
164.1563696949
 10
440.531848311
 20
164.7510388595
 10
440.1108329893
 20
165.3376789049
 10
439.6821731395
 20
165.9158877774
 10
439.2461625438
 20
166.4852692014
 10
438.8031000219
 20
167.0454329514
 10
438.353289227
 20
167.5959951192
 10
437.8970384367
 20
168.1365783768
 10
437.4346603426
 20
168.6668122356
 10
436.9664718355
 20
169.1863332997
 10
436.4927937885
 20
169.6947855154
 10
436.0139508368
 20
170.1918204149
 10
435.5302711554
 20
170.6770973553
 10
435.0420862344
 20
171.150283752
 10
434.5497306511
 20
171.6110553068
 10
434.0535418416
 20
172.0590962298
 10
433.5538598689
 20
172.4940994561
 10
433.05102719
 20
172.9157668563
 10
432.5453884213
 20
173.3238094405
 10
432.0372901024
 20
173.7179475569
 10
431.5270804585
 20
174.0979110828
 10
431.0151091618
 20
174.4634396101
 10
430.5017270919
 20
174.814282624
 10
429.9872860952
 20
175.150199674
 10
429.4721387437
 20
175.4709605395
 10
428.9566380939
 20
175.776345387
 10
428.4411374441
 20
176.066144921
 10
427.9259900927
 20
176.3401605272
 10
427.4115490959
 20
176.5982044092
 10
426.898167026
 20
176.8400997165
 10
426.3861957293
 20
177.0656806662
 10
425.8759860854
 20
177.2747926563
 10
425.3678877665
 20
177.467292372
 10
424.8622489979
 20
177.6430478836
 10
424.359416319
 20
177.8019387369
 10
423.8597343462
 20
177.9438560362
 10
423.3635455367
 20
178.0687025184
 10
422.8711899535
 20
178.17639262
 10
422.3830050324
 20
178.2668525356
 10
421.8993253511
 20
178.3400202684
 10
421.4204823994
 20
178.395845673
 10
420.9468043524
 20
178.4342904894
 10
420.4786158453
 20
178.4553283694
 10
420.0162377512
 20
178.4589448948
 10
419.5599869609
 20
178.4451375869
 10
419.1101761659
 20
178.4139159086
 10
418.6671136441
 20
178.3653012576
 10
418.2311030483
 20
178.2993269521
 10
417.8024431986
 20
178.2160382075
 10
417.3814278768
 20
178.1154921058
 10
416.968345626
 20
177.9977575562
 10
416.5634795519
 20
177.8629152481
 10
416.1671071297
 20
177.7110575957
 10
415.7795000132
 20
177.5422886746
 10
415.4009238488
 20
177.3567241507
 10
415.0316380939
 20
177.1544912006
 10
414.6718958385
 20
176.9357284246
 10
414.3219436318
 20
176.7005857519
 10
413.9820213137
 20
176.4492243374
 10
413.6523618499
 20
176.1818164518
 10
413.3331911726
 20
175.898545363
 10
413.1442102004
 20
175.7185015981
  0
LWPOLYLINE
  5
146
330
1F
100
AcDbEntity
  8
0
  6
Continuous
 62
     7
370
    30
100
AcDbPolyline
 90
       37
 70
   128
 43
0.0
 10
440.6919712845
 20
127.9992092809
 10
440.9449305619
 20
128.0736099958
 10
441.3497966359
 20
128.2084523039
 10
441.7461690582
 20
128.3603099563
 10
442.1337761747
 20
128.5290788774
 10
442.512352339
 20
128.7146434013
 10
442.8816380939
 20
128.9168763514
 10
443.2413803494
 20
129.1356391274
 10
443.5913325561
 20
129.3707818001
 10
443.9312548742
 20
129.6221432146
 10
444.2609143379
 20
129.8895511002
 10
444.5800850152
 20
130.172822189
 10
444.8885481624
 20
130.4717623411
 10
445.1860923742
 20
130.7861666778
 10
445.4725137288
 20
131.1158197222
 10
445.7476159272
 20
131.4604955465
 10
446.0112104281
 20
131.8199579271
 10
446.263116577
 20
132.1939605065
 10
446.50316173
 20
132.5822469619
 10
446.7311813722
 20
132.9845511812
 10
446.9470192303
 20
133.4005974452
 10
447.1505273798
 20
133.8301006166
 10
447.3415663464
 20
134.2727663354
 10
447.5200052016
 20
134.7282912206
 10
447.6857216521
 20
135.1963630781
 10
447.8386021244
 20
135.6766611149
 10
447.9785418416
 20
136.1688561588
 10
448.1054448962
 20
136.6726108838
 10
448.2192243152
 20
137.1875800416
 10
448.3198021197
 20
137.7134106981
 10
448.4071093788
 20
138.2497424752
 10
448.4810862564
 20
138.7962077979
 10
448.5416820526
 20
139.3524321461
 10
448.5888552379
 20
139.9180343115
 10
448.6225734822
 20
140.4926266586
 10
448.6428136768
 20
141.0758153906
 10
448.64956195
 20
141.6672008189
  0
ARC
  5
147
330
1F
100
AcDbEntity
  8
0
  6
Continuous
 62
     7
370
    30
100
AcDbCircle
 10
421.6415642316
 20
169.8679061613
 30
0.0
 40
9.617607391805848
100
AcDbArc
 50
126.3220654425
 51
134.4025644056
  0
ARC
  5
148
330
1F
100
AcDbEntity
  8
0
  6
Continuous
 62
     7
370
    30
100
AcDbCircle
 10
439.873912529
 20
138.2861336508
 30
0.0
 40
9.620388007048687
100
AcDbArc
 50
285.5932281315
 51
293.671387597
  0
LWPOLYLINE
  5
149
330
1F
100
AcDbEntity
  8
0
  6
Continuous
 62
     7
370
    30
100
AcDbPolyline
 90
      220
 70
   128
 43
0.0
 10
392.7382925505
 20
124.4938870902
 10
392.8752251186
 20
124.4587963468
 10
393.0111103301
 20
124.4284492592
 10
393.1458543804
 20
124.4028667766
 10
393.279364253
 20
124.3820665591
 10
393.4115477832
 20
124.3660629654
 10
393.5423137219
 20
124.3548670433
 10
393.6715717988
 20
124.3484865215
 10
393.7992327843
 20
124.3469258046
 10
393.9252085513
 20
124.35018597
 10
394.0494121362
 20
124.3582647671
 10
394.1717577987
 20
124.371156619
 10
394.2921610809
 20
124.3888526262
 10
394.410538866
 20
124.4113405727
 10
394.5268094353
 20
124.4386049347
 10
394.6408925249
 20
124.4706268909
 10
394.7527093809
 20
124.507384336
 10
394.8621828136
 20
124.5488518956
 10
394.9692372514
 20
124.5950009437
 10
395.0737987923
 20
124.6457996226
 10
395.1757952553
 20
124.701212865
 10
395.2751562301
 20
124.761202418
 10
395.3718131259
 20
124.8257268696
 10
395.4656992182
 20
124.8947416771
 10
395.5567496957
 20
124.9681991982
 10
395.6449017042
 20
125.0460487236
 10
395.7300943906
 20
125.1282365123
 10
395.8122689447
 20
125.2147058282
 10
395.8913686395
 20
125.3053969798
 10
395.9673388709
 20
125.4002473612
 10
396.0401271952
 20
125.499191495
 10
396.109683365
 20
125.6021610782
 10
396.1759593643
 20
125.7090850286
 10
396.2389094412
 20
125.8198895345
 10
396.2984901402
 20
125.9344981051
 10
396.3546603314
 20
126.0528316239
 10
396.4073812393
 20
126.1748084027
 10
396.4566164696
 20
126.3003442384
 10
396.5023320342
 20
126.429352471
 10
396.5444963747
 20
126.5617440435
 10
396.5830803842
 20
126.6974275631
 10
396.6180574274
 20
126.8363093648
 10
396.6494033587
 20
126.9782935755
 10
396.6770965396
 20
127.1232821806
 10
396.7011178528
 20
127.2711750914
 10
396.7214507159
 20
127.4218702144
 10
396.7380810927
 20
127.5752635216
 10
396.750997503
 20
127.7312491224
 10
396.7601910302
 20
127.8897193367
 10
396.7656553278
 20
128.0505647692
 10
396.7673866238
 20
128.213674385
 10
396.765383723
 20
128.378935586
 10
396.7596480081
 20
128.5462342891
 10
396.7501834384
 20
128.7154550045
 10
396.7369965477
 20
128.8864809156
 10
396.7200964391
 20
129.0591939597
 10
396.6994947791
 20
129.2334749093
 10
396.6752057894
 20
129.4092034547
 10
396.6472462373
 20
129.5862582867
 10
396.6156354238
 20
129.7645171809
 10
396.5803951705
 20
129.9438570813
 10
396.5415498045
 20
130.1241541859
 10
396.4991261415
 20
130.3052840319
 10
396.4531534676
 20
130.4871215814
 10
396.4036635185
 20
130.6695413084
 10
396.3506904582
 20
130.8524172847
 10
396.2942708552
 20
131.0356232671
 10
396.2344436571
 20
131.2190327848
 10
396.1712501637
 20
131.4025192263
 10
396.104733999
 20
131.5859559272
 10
396.0349410803
 20
131.7692162573
 10
395.9619195873
 20
131.9521737082
 10
395.885719928
 20
132.1347019805
 10
395.8063947049
 20
132.3166750712
 10
395.7239986777
 20
132.4979673604
 10
395.6385887261
 20
132.6784536983
 10
395.5502238103
 20
132.8580094915
 10
395.4589649306
 20
133.0365107888
 10
395.3648750848
 20
133.2138343672
 10
395.2680192251
 20
133.3898578163
 10
395.1684642131
 20
133.5644596236
 10
395.0662787737
 20
133.7375192578
 10
394.9615334476
 20
133.9089172523
 10
394.8543005428
 20
134.0785352875
 10
394.7446540843
 20
134.2462562724
 10
394.6326697633
 20
134.4119644258
 10
394.518424885
 20
134.575545356
 10
394.401998315
 20
134.7368861395
 10
394.283470425
 20
134.8958753996
 10
394.1629230372
 20
135.0524033825
 10
394.040439368
 20
135.2063620339
 10
393.9161039704
 20
135.3576450727
 10
393.7900026758
 20
135.5061480653
 10
393.6622225344
 20
135.6517684968
 10
393.5328517557
 20
135.7944058425
 10
393.4019796468
 20
135.9339616369
 10
393.2696965516
 20
136.0703395416
 10
393.1360937879
 20
136.2034454122
 10
393.0012635843
 20
136.333187363
 10
392.865299017
 20
136.4594758302
 10
392.7282939452
 20
136.5822236345
 10
392.5903429463
 20
136.7013460404
 10
392.4515412508
 20
136.8167608152
 10
392.3119846763
 20
136.9283882858
 10
392.1717695617
 20
137.0361513934
 10
392.0309927004
 20
137.1399757468
 10
391.8897512735
 20
137.239789674
 10
391.7481427831
 20
137.3355242712
 10
391.6062649842
 20
137.427113451
 10
391.4642158183
 20
137.5144939874
 10
391.3220933446
 20
137.5976055599
 10
391.1799956735
 20
137.6763907946
 10
391.0380208977
 20
137.7507953047
 10
390.8962670255
 20
137.820767727
 10
390.7548319126
 20
137.8862597583
 10
390.6138131944
 20
137.9472261878
 10
390.4733082192
 20
138.0036249294
 10
390.3334139805
 20
138.0554170497
 10
390.1942270502
 20
138.1025667955
 10
390.0558435119
 20
138.1450416185
 10
389.9183588947
 20
138.1828121973
 10
389.781868107
 20
138.2158524582
 10
389.6464653713
 20
138.2441395928
 10
389.5122441589
 20
138.2676540738
 10
389.3792971255
 20
138.2863796687
 10
389.2477160472
 20
138.3003034509
 10
389.1175917571
 20
138.3094158085
 10
388.9890140828
 20
138.313710451
 10
388.8620717842
 20
138.3131844138
 10
388.736852492
 20
138.3078380599
 10
388.6134426478
 20
138.2976750802
 10
388.4919274441
 20
138.2827024902
 10
388.3723907651
 20
138.262930626
 10
388.2549151297
 20
138.2383731364
 10
388.1395816337
 20
138.2090469739
 10
388.0264698942
 20
138.1749723831
 10
387.9156579946
 20
138.1361728863
 10
387.8072224306
 20
138.0926752676
 10
387.7012380576
 20
138.0445095544
 10
387.5977780387
 20
137.9917089964
 10
387.4969137947
 20
137.934310043
 10
387.3987149542
 20
137.8723523178
 10
387.3032493058
 20
137.8058785916
 10
387.2105827516
 20
137.7349347526
 10
387.1207792611
 20
137.6595697747
 10
387.0339008276
 20
137.5798356839
 10
386.950007425
 20
137.4957875225
 10
386.8691569668
 20
137.4074833105
 10
386.7914052656
 20
137.3149840062
 10
386.7168059952
 20
137.2183534639
 10
386.6454106529
 20
137.1176583895
 10
386.5772685244
 20
137.0129682949
 10
386.5124266496
 20
136.9043554501
 10
386.4509297903
 20
136.7918948325
 10
386.392820399
 20
136.6756640762
 10
386.3381385899
 20
136.5557434176
 10
386.2869221108
 20
136.4322156405
 10
386.2392063176
 20
136.3051660187
 10
386.1950241496
 20
136.1746822572
 10
386.1544061066
 20
136.0408544315
 10
386.117380228
 20
135.903774926
 10
386.0839720737
 20
135.7635383693
 10
386.0542047059
 20
135.6202415697
 10
386.0280986737
 20
135.473983448
 10
386.0056719986
 20
135.3248649692
 10
385.9869401622
 20
135.1729890729
 10
385.9719160955
 20
135.0184606021
 10
385.9606101699
 20
134.8613862311
 10
385.9530301902
 20
134.7018743916
 10
385.949181389
 20
134.540035198
 10
385.9490664231
 20
134.3759803712
 10
385.9526853719
 20
134.2098231616
 10
385.9600357372
 20
134.041678271
 10
385.971112445
 20
133.8716617734
 10
385.9859078486
 20
133.6998910347
 10
386.0044117345
 20
133.5264846318
 10
386.0266113291
 20
133.3515622708
 10
386.0524913077
 20
133.1752447041
 10
386.0820338045
 20
132.9976536475
 10
386.115218426
 20
132.8189116958
 10
386.152022264
 20
132.6391422382
 10
386.1924199121
 20
132.4584693734
 10
386.236383483
 20
132.2770178236
 10
386.2838826276
 20
132.0949128486
 10
386.3348845564
 20
131.9122801593
 10
386.3893540616
 20
131.7292458307
 10
386.4472535418
 20
131.5459362152
 10
386.5085430278
 20
131.3624778554
 10
386.5731802102
 20
131.1789973964
 10
386.6411204686
 20
130.9956214985
 10
386.7123169024
 20
130.8124767499
 10
386.7867203633
 20
130.6296895793
 10
386.8642794889
 20
130.4473861684
 10
386.9449407387
 20
130.2656923651
 10
387.0286484304
 20
130.0847335964
 10
387.1153447789
 20
129.9046347818
 10
387.2049699359
 20
129.7255202475
 10
387.2974620314
 20
129.5475136397
 10
387.392757216
 20
129.3707378403
 10
387.4907897056
 20
129.1953148813
 10
387.5914918262
 20
129.0213658606
 10
387.6947940611
 20
128.849010859
 10
387.8006250986
 20
128.6783688568
 10
387.9089118814
 20
128.5095576515
 10
388.0195796568
 20
128.3426937773
 10
388.1325520286
 20
128.1778924235
 10
388.2477510096
 20
128.0152673561
 10
388.3650970755
 20
127.8549308384
 10
388.4845092199
 20
127.6969935542
 10
388.6059050101
 20
127.5415645309
 10
388.729200644
 20
127.3887510642
 10
388.8543110082
 20
127.2386586446
 10
388.9811497364
 20
127.0913908839
 10
389.1096292691
 20
126.9470494442
 10
389.2396609142
 20
126.8057339674
 10
389.3711549082
 20
126.6675420064
 10
389.504020478
 20
126.532568958
 10
389.6381659038
 20
126.400907997
 10
389.7734985822
 20
126.2726500117
 10
389.9099250903
 20
126.1478835412
  0
LWPOLYLINE
  5
14A
330
1F
100
AcDbEntity
  8
0
  6
Continuous
 62
     7
370
    30
100
AcDbPolyline
 90
        9
 70
   128
 43
0.0
 10
389.9113867799
 20
125.3952199991
 10
389.9111669947
 20
125.4892811631
 10
389.910957802
 20
125.5833485527
 10
389.910759202
 20
125.6774221664
 10
389.9105711945
 20
125.7715020027
 10
389.9103937795
 20
125.8655880598
 10
389.9102269572
 20
125.9596803363
 10
389.9100707274
 20
126.0537788306
 10
389.9099250903
 20
126.1478835412
  0
ARC
  5
14B
330
1F
100
AcDbEntity
  8
0
  6
Continuous
 62
     7
370
    30
100
AcDbCircle
 10
395.3414426315
 20
131.4354445089
 30
0.0
 40
8.122180660425517
100
AcDbArc
 50
228.045014359
 51
251.3177852013
  0
LWPOLYLINE
  5
14C
330
1F
100
AcDbEntity
  8
0
  6
Continuous
 62
     7
370
    30
100
AcDbPolyline
 90
        9
 70
   128
 43
0.0
 10
392.7382925505
 20
124.4938870902
 10
392.7384381876
 20
124.3997823796
 10
392.7385944174
 20
124.3056838853
 10
392.7387612397
 20
124.2115916088
 10
392.7389386547
 20
124.1175055516
 10
392.7391266622
 20
124.0234257154
 10
392.7393252622
 20
123.9293521017
 10
392.7395344549
 20
123.835284712
 10
392.7397542401
 20
123.741223548
  0
LWPOLYLINE
  5
14D
330
1F
100
AcDbEntity
  8
0
  6
Continuous
 62
     7
370
    30
100
AcDbPolyline
 90
        3
 70
   128
 43
0.0
 10
434.7043788614
 20
124.5262203965
 10
434.784120101
 20
124.5713584271
 10
434.7913339626
 20
124.5754938368
  0
LINE
  5
14E
330
1F
100
AcDbEntity
  8
0
  6
Continuous
 62
     7
370
    30
100
AcDbLine
 10
415.3189209881
 20
168.8561358163
 30
0.0
 11
415.319066253
 21
168.8600393133
 31
0.0
  0
ARC
  5
14F
330
1F
100
AcDbEntity
  8
0
  6
Continuous
 62
     7
370
    30
100
AcDbCircle
 10
389.3662394382
 20
135.9075753475
 30
0.0
 40
2.69137463262722
100
AcDbArc
 50
126.2013355863
 51
141.0508878403
  0
ARC
  5
150
330
1F
100
AcDbEntity
  8
0
  6
Continuous
 62
     7
370
    30
100
AcDbCircle
 10
394.3167148463
 20
127.3471111453
 30
0.0
 40
2.722811273633526
100
AcDbArc
 50
279.0299341336
 51
293.7070892998
  0
LINE
  5
151
330
1F
100
AcDbEntity
  8
0
  6
Continuous
 62
     7
370
    30
100
AcDbLine
 10
389.9099250903
 20
126.1478835412
 30
0.0
 11
389.973441125
 21
126.1845505676
 31
0.0
  0
LINE
  5
152
330
1F
100
AcDbEntity
  8
0
  6
Continuous
 62
     7
370
    30
100
AcDbLine
 10
392.8691076142
 20
124.569405019
 30
0.0
 11
392.7382925505
 21
124.4938870902
 31
0.0
  0
LINE
  5
153
330
1F
100
AcDbEntity
  8
0
  6
Continuous
 62
     7
370
    30
100
AcDbLine
 10
389.9113867799
 20
125.3952199991
 30
0.0
 11
390.5124546386
 21
125.742209088
 31
0.0
  0
LWPOLYLINE
  5
154
330
1F
100
AcDbEntity
  8
0
  6
Continuous
 62
     7
370
    30
100
AcDbPolyline
 90
      241
 70
   128
 43
0.0
 10
386.045951683
 20
133.9235225076
 10
386.0376296075
 20
134.0883612946
 10
386.0329381549
 20
134.2513008889
 10
386.0318805405
 20
134.4122296197
 10
386.0344574893
 20
134.5710371947
 10
386.040667235
 20
134.7276147751
 10
386.0505055218
 20
134.8818550502
 10
386.0639656071
 20
135.0336523117
 10
386.081038266
 20
135.1829025252
 10
386.1017117977
 20
135.3295034022
 10
386.1259720337
 20
135.4733544695
 10
386.1538023471
 20
135.6143571391
 10
386.1851836644
 20
135.7524147745
 10
386.2200944786
 20
135.8874327581
 10
386.2585108634
 20
136.0193185553
 10
386.3004064902
 20
136.1479817781
 10
386.3457526458
 20
136.2733342472
 10
386.3945182522
 20
136.3952900522
 10
386.446669888
 20
136.5137656108
 10
386.5021718109
 20
136.6286797257
 10
386.5609859828
 20
136.7399536405
 10
386.6230720953
 20
136.8475110937
 10
386.6883875977
 20
136.9512783706
 10
386.7568877261
 20
137.0511843545
 10
386.8285255338
 20
137.1471605748
 10
386.903251924
 20
137.2391412541
 10
386.9810156828
 20
137.3270633534
 10
387.0617635148
 20
137.4108666154
 10
387.1454400796
 20
137.4904936056
 10
387.2319880295
 20
137.5658897514
 10
387.3213480486
 20
137.6370033802
 10
387.4134588943
 20
137.7037857543
 10
387.5082574382
 20
137.7661911043
 10
387.6056787102
 20
137.8241766608
 10
387.7056559427
 20
137.8777026833
 10
387.8081206162
 20
137.9267324878
 10
387.9130025065
 20
137.9712324717
 10
388.0202297329
 20
138.0111721368
 10
388.1297288072
 20
138.0465241107
 10
388.2414246842
 20
138.0772641648
 10
388.355240813
 20
138.1033712313
 10
388.4710991899
 20
138.1248274179
 10
388.5889204112
 20
138.1416180195
 10
388.7086237282
 20
138.1537315287
 10
388.8301271022
 20
138.1611596435
 10
388.9533472609
 20
138.163897273
 10
389.0781997553
 20
138.161942541
 10
389.2045990177
 20
138.1552967872
 10
389.3324584205
 20
138.1439645662
 10
389.4616903352
 20
138.1279536446
 10
389.5922061926
 20
138.1072749955
 10
389.7239165438
 20
138.0819427909
 10
389.8567311209
 20
138.0519743924
 10
389.9905588997
 20
138.0173903387
 10
390.1253081611
 20
137.978214332
 10
390.2608865548
 20
137.9344732216
 10
390.397201162
 20
137.8861969855
 10
390.5341585597
 20
137.8334187098
 10
390.671664884
 20
137.7761745661
 10
390.8096258949
 20
137.7145037867
 10
390.947947041
 20
137.6484486376
 10
391.0865335237
 20
137.5780543898
 10
391.2252903628
 20
137.5033692879
 10
391.3641224613
 20
137.4244445174
 10
391.5029346706
 20
137.3413341694
 10
391.6416318558
 20
137.2540952035
 10
391.7801189607
 20
137.162787409
 10
391.9183010733
 20
137.0674733637
 10
392.0560834903
 20
136.9682183911
 10
392.1933717827
 20
136.8650905156
 10
392.3300718598
 20
136.7581604158
 10
392.4660900342
 20
136.6475013763
 10
392.6013330859
 20
136.5331892374
 10
392.7357083262
 20
136.4153023428
 10
392.8691236607
 20
136.2939214862
 10
393.0014876535
 20
136.1691298562
 10
393.1327095888
 20
136.0410129787
 10
393.2626995336
 20
135.9096586584
 10
393.3913683994
 20
135.7751569192
 10
393.5186280028
 20
135.6375999419
 10
393.6443911266
 20
135.497082001
 10
393.7685715791
 20
135.3536994006
 10
393.891084253
 20
135.207550408
 10
394.0118451843
 20
135.0587351863
 10
394.1307716096
 20
134.9073557261
 10
394.2477820225
 20
134.7535157752
 10
394.3627962301
 20
134.5973207681
 10
394.4757354073
 20
134.4388777528
 10
394.5865221512
 20
134.2782953183
 10
394.6950805341
 20
134.1156835198
 10
394.8013361556
 20
133.9511538032
 10
394.9052161934
 20
133.7848189291
 10
395.0066494532
 20
133.6167928951
 10
395.1055664177
 20
133.4471908578
 10
395.2018992943
 20
133.2761290539
 10
395.2955820612
 20
133.1037247208
 10
395.3865505129
 20
132.9300960156
 10
395.4747423041
 20
132.7553619349
 10
395.5600969927
 20
132.5796422326
 10
395.6425560807
 20
132.4030573383
 10
395.7220630549
 20
132.2257282744
 10
395.798563425
 20
132.0477765734
 10
395.8720047617
 20
131.8693241945
 10
395.9423367319
 20
131.6904934401
 10
396.0095111334
 20
131.5114068719
 10
396.0734819285
 20
131.3321872267
 10
396.1342052746
 20
131.1529573329
 10
396.1916395551
 20
130.9738400255
 10
396.2457454073
 20
130.7949580628
 10
396.2964857499
 20
130.6164340414
 10
396.3438258078
 20
130.4383903128
 10
396.3877331366
 20
130.2609488993
 10
396.4281776444
 20
130.0842314103
 10
396.4651316126
 20
129.9083589592
 10
396.4985697147
 20
129.7334520802
 10
396.528469034
 20
129.5596306457
 10
396.5548090789
 20
129.3870137843
 10
396.5775717973
 20
129.2157197989
 10
396.5967415888
 20
129.0458660858
 10
396.6123053153
 20
128.8775690544
 10
396.6242523103
 20
128.7109440469
 10
396.6325743859
 20
128.5461052599
 10
396.6372658384
 20
128.3831656657
 10
396.6383234528
 20
128.2222369348
 10
396.635746504
 20
128.0634293598
 10
396.6295367583
 20
127.9068517795
 10
396.6196984715
 20
127.7526115043
 10
396.6062383862
 20
127.6008142428
 10
396.5891657273
 20
127.4515640293
 10
396.5684921956
 20
127.3049631524
 10
396.5442319597
 20
127.161112085
 10
396.5164016463
 20
127.0201094155
 10
396.4850203289
 20
126.88205178
 10
396.4501095147
 20
126.7470337964
 10
396.4116931299
 20
126.6151479992
 10
396.3697975031
 20
126.4864847764
 10
396.3244513475
 20
126.3611323073
 10
396.2756857411
 20
126.2391765023
 10
396.2235341053
 20
126.1207009437
 10
396.1680321824
 20
126.0057868288
 10
396.1092180106
 20
125.894512914
 10
396.0471318981
 20
125.7869554609
 10
395.9818163956
 20
125.6831881839
 10
395.9133162673
 20
125.5832822
 10
395.8416784595
 20
125.4873059798
 10
395.7669520694
 20
125.3953253005
 10
395.6891883106
 20
125.3074032011
 10
395.6084404785
 20
125.2235999391
 10
395.5247639137
 20
125.143972949
 10
395.4382159639
 20
125.0685768031
 10
395.3488559447
 20
124.9974631743
 10
395.2567450991
 20
124.9306808002
 10
395.1619465551
 20
124.8682754502
 10
395.0645252831
 20
124.8102898937
 10
394.9645480506
 20
124.7567638712
 10
394.8620833771
 20
124.7077340667
 10
394.7572014868
 20
124.6632340829
 10
394.6499742604
 20
124.6232944177
 10
394.5404751861
 20
124.5879424438
 10
394.4287793092
 20
124.5572023898
 10
394.3149631803
 20
124.5310953232
 10
394.1991048035
 20
124.5096391366
 10
394.0812835821
 20
124.492848535
 10
393.9615802651
 20
124.4807350258
 10
393.8400768911
 20
124.473306911
 10
393.7168567325
 20
124.4705692815
 10
393.5920042381
 20
124.4725240135
 10
393.4656049756
 20
124.4791697673
 10
393.3377455728
 20
124.4905019883
 10
393.2085136582
 20
124.5065129099
 10
393.0779978007
 20
124.527191559
 10
392.9462874496
 20
124.5525237636
 10
392.8134728724
 20
124.5824921622
 10
392.6796450937
 20
124.6170762159
 10
392.5448958322
 20
124.6562522226
 10
392.4093174386
 20
124.6999933329
 10
392.2730028313
 20
124.748269569
 10
392.1360454336
 20
124.8010478447
 10
391.9985391093
 20
124.8582919884
 10
391.8605780984
 20
124.9199627678
 10
391.7222569524
 20
124.9860179169
 10
391.5836704697
 20
125.0564121647
 10
391.4449136306
 20
125.1310972666
 10
391.3060815321
 20
125.2100220371
 10
391.1672693227
 20
125.2931323852
 10
391.0285721375
 20
125.380371351
 10
390.8900850326
 20
125.4716791455
 10
390.75190292
 20
125.5669931908
 10
390.614120503
 20
125.6662481634
 10
390.4768322107
 20
125.769376039
 10
390.3401321336
 20
125.8763061387
 10
390.2041139591
 20
125.9869651782
 10
390.0688709074
 20
126.1012773172
 10
389.9344956672
 20
126.2191642118
 10
389.8010803326
 20
126.3405450683
 10
389.6687163398
 20
126.4653366983
 10
389.5374944045
 20
126.5934535759
 10
389.4075044597
 20
126.7248078961
 10
389.278835594
 20
126.8593096353
 10
389.1515759905
 20
126.9968666127
 10
389.0258128667
 20
127.1373845535
 10
388.9016324143
 20
127.2807671539
 10
388.7791197404
 20
127.4269161466
 10
388.658358809
 20
127.5757313683
 10
388.5394323838
 20
127.7271108285
 10
388.4224219708
 20
127.8809507793
 10
388.3074077632
 20
128.0371457865
 10
388.1944685861
 20
128.1955888018
 10
388.0836818422
 20
128.3561712363
 10
387.9751234592
 20
128.5187830348
 10
387.8688678377
 20
128.6833127513
 10
387.7649878
 20
128.8496476254
 10
387.6635545402
 20
129.0176736594
 10
387.5646375756
 20
129.1872756967
 10
387.468304699
 20
129.3583375006
 10
387.3746219321
 20
129.5307418338
 10
387.2836534804
 20
129.704370539
 10
387.1954616892
 20
129.8791046197
 10
387.1101070006
 20
130.054824322
 10
387.0276479126
 20
130.2314092163
 10
386.9481409385
 20
130.4087382802
 10
386.8716405683
 20
130.5866899811
 10
386.7981992316
 20
130.76514236
 10
386.7278672615
 20
130.9439731144
 10
386.6606928599
 20
131.1230596827
 10
386.5967220648
 20
131.3022793278
 10
386.5359987187
 20
131.4815092217
 10
386.4785644382
 20
131.660626529
 10
386.424458586
 20
131.8395084917
 10
386.3737182435
 20
132.0180325131
 10
386.3263781855
 20
132.1960762417
 10
386.2824708567
 20
132.3735176553
 10
386.2420263489
 20
132.5502351442
 10
386.2050723807
 20
132.7261075953
 10
386.1716342786
 20
132.9010144743
 10
386.1417349593
 20
133.0748359088
 10
386.1153949144
 20
133.2474527703
 10
386.092632196
 20
133.4187467557
 10
386.0734624045
 20
133.5886004687
 10
386.057898678
 20
133.7568975002
 10
386.045951683
 20
133.9235225076
  0
ARC
  5
155
330
1F
100
AcDbEntity
  8
0
  6
Continuous
 62
     7
370
    30
100
AcDbCircle
 10
389.3407684485
 20
135.9133079713
 30
0.0
 40
2.522489153496533
100
AcDbArc
 50
110.3371754448
 51
119.9775089039
  0
ARC
  5
156
330
1F
100
AcDbEntity
  8
0
  6
Continuous
 62
     7
370
    30
100
AcDbCircle
 10
394.3185935218
 20
127.2907400234
 30
0.0
 40
2.52123568203268
100
AcDbArc
 50
300.0147124687
 51
309.6598501628
  0
ENDSEC
  0
SECTION
  2
OBJECTS
  0
DICTIONARY
  5
C
330
0
100
AcDbDictionary
281
     1
  3
ACAD_GROUP
350
D
  3
ACAD_LAYOUT
350
1A
  3
ACAD_MLINESTYLE
350
17
  3
ACAD_PLOTSETTINGS
350
19
  3
ACAD_PLOTSTYLENAME
350
E
  3
ACAD_SCALELIST
350
47
  0
DICTIONARY
  5
D
102
{ACAD_REACTORS
330
C
102
}
330
C
100
AcDbDictionary
281
     1
  0
DICTIONARY
  5
1A
102
{ACAD_REACTORS
330
C
102
}
330
C
100
AcDbDictionary
281
     1
  3
Layout1
350
1E
  3
Layout2
350
26
  3
Model
350
22
  0
DICTIONARY
  5
17
102
{ACAD_REACTORS
330
C
102
}
330
C
100
AcDbDictionary
281
     1
  3
Standard
350
18
  0
DICTIONARY
  5
19
102
{ACAD_REACTORS
330
C
102
}
330
C
100
AcDbDictionary
281
     1
  0
ACDBDICTIONARYWDFLT
  5
E
102
{ACAD_REACTORS
330
C
102
}
330
C
100
AcDbDictionary
281
     1
  3
Normal
350
F
100
AcDbDictionaryWithDefault
340
F
  0
DICTIONARY
  5
47
102
{ACAD_REACTORS
330
C
102
}
330
C
100
AcDbDictionary
281
     1
  3
A0
350
48
  3
A1
350
49
  3
A2
350
4A
  3
A3
350
4B
  3
A4
350
4C
  3
A5
350
4D
  3
A6
350
4E
  3
A7
350
4F
  3
A8
350
50
  3
A9
350
51
  3
B0
350
52
  3
B1
350
53
  3
B2
350
54
  3
B3
350
55
  3
B4
350
56
  3
B5
350
57
  3
B6
350
58
  3
B7
350
59
  3
B8
350
5A
  3
B9
350
5B
  3
C0
350
5C
  3
C1
350
5D
  3
C2
350
5E
  3
C3
350
5F
  3
C4
350
60
  3
C5
350
61
  3
C6
350
62
  3
C7
350
63
  3
C8
350
64
  3
C9
350
65
  3
D0
350
66
  3
D1
350
67
  3
D2
350
68
  0
LAYOUT
  5
1E
102
{ACAD_REACTORS
330
1A
102
}
330
1A
100
AcDbPlotSettings
  1

  2
none_device
  4

  6

 40
0.0
 41
0.0
 42
0.0
 43
0.0
 44
0.0
 45
0.0
 46
0.0
 47
0.0
 48
0.0
 49
0.0
140
0.0
141
0.0
142
1.0
143
1.0
 70
   688
 72
     1
 73
     0
 74
     5
  7

 75
    16
147
1.0
148
0.0
149
0.0
100
AcDbLayout
  1
Layout1
 70
     1
 71
     1
 10
0.0
 20
0.0
 11
420.0
 21
297.0
 12
0.0
 22
0.0
 32
0.0
 14
1.0000000000E+20
 24
1.0000000000E+20
 34
1.0000000000E+20
 15
-1.0000000000E+20
 25
-1.0000000000E+20
 35
-1.0000000000E+20
146
0.0
 13
0.0
 23
0.0
 33
0.0
 16
1.0
 26
0.0
 36
0.0
 17
0.0
 27
1.0
 37
0.0
 76
     0
330
1B
  0
LAYOUT
  5
26
102
{ACAD_REACTORS
330
1A
102
}
330
1A
100
AcDbPlotSettings
  1

  2
none_device
  4

  6

 40
0.0
 41
0.0
 42
0.0
 43
0.0
 44
0.0
 45
0.0
 46
0.0
 47
0.0
 48
0.0
 49
0.0
140
0.0
141
0.0
142
1.0
143
1.0
 70
   688
 72
     1
 73
     0
 74
     5
  7

 75
    16
147
1.0
148
0.0
149
0.0
100
AcDbLayout
  1
Layout2
 70
     1
 71
     2
 10
0.0
 20
0.0
 11
0.0
 21
0.0
 12
0.0
 22
0.0
 32
0.0
 14
0.0
 24
0.0
 34
0.0
 15
0.0
 25
0.0
 35
0.0
146
0.0
 13
0.0
 23
0.0
 33
0.0
 16
1.0
 26
0.0
 36
0.0
 17
0.0
 27
1.0
 37
0.0
 76
     0
330
23
  0
LAYOUT
  5
22
102
{ACAD_REACTORS
330
1A
102
}
330
1A
100
AcDbPlotSettings
  1

  2
none_device
  4
Letter_(8.50_x_11.00_Inches)
  6

 40
6.35
 41
6.35
 42
6.35000508
 43
6.35000508
 44
215.9
 45
279.4
 46
0.0
 47
0.0
 48
0.0
 49
0.0
140
0.0
141
0.0
142
1.0
143
1.0
 70
  1712
 72
     1
 73
     0
 74
     0
  7

 75
     0
147
1.0
148
0.0
149
0.0
100
AcDbLayout
  1
Model
 70
     1
 71
     0
 10
0.0
 20
0.0
 11
526.0
 21
499.0
 12
0.0
 22
0.0
 32
0.0
 14
0.0
 24
0.0
 34
0.0
 15
526.0
 25
499.0
 35
0.0
146
0.0
 13
0.0
 23
0.0
 33
0.0
 16
1.0
 26
0.0
 36
0.0
 17
0.0
 27
1.0
 37
0.0
 76
     0
330
1F
331
29
  0
MLINESTYLE
  5
18
102
{ACAD_REACTORS
330
17
102
}
330
17
100
AcDbMlineStyle
  2
Standard
 70
     0
  3

 62
   256
 51
90.0
 52
90.0
 71
     2
 49
0.5
 62
   256
  6
BYLAYER
 49
-0.5
 62
   256
  6
BYLAYER
  0
ACDBPLACEHOLDER
  5
F
102
{ACAD_REACTORS
330
E
102
}
330
E
  0
SCALE
  5
48
102
{ACAD_REACTORS
330
47
102
}
330
47
100
AcDbScale
 70
     0
300
1:1
140
1.0
141
1.0
290
     1
  0
SCALE
  5
49
102
{ACAD_REACTORS
330
47
102
}
330
47
100
AcDbScale
 70
     0
300
1:2
140
1.0
141
2.0
290
     0
  0
SCALE
  5
4A
102
{ACAD_REACTORS
330
47
102
}
330
47
100
AcDbScale
 70
     0
300
1:4
140
1.0
141
4.0
290
     0
  0
SCALE
  5
4B
102
{ACAD_REACTORS
330
47
102
}
330
47
100
AcDbScale
 70
     0
300
1:5
140
1.0
141
5.0
290
     0
  0
SCALE
  5
4C
102
{ACAD_REACTORS
330
47
102
}
330
47
100
AcDbScale
 70
     0
300
1:8
140
1.0
141
8.0
290
     0
  0
SCALE
  5
4D
102
{ACAD_REACTORS
330
47
102
}
330
47
100
AcDbScale
 70
     0
300
1:10
140
1.0
141
10.0
290
     0
  0
SCALE
  5
4E
102
{ACAD_REACTORS
330
47
102
}
330
47
100
AcDbScale
 70
     0
300
1:16
140
1.0
141
16.0
290
     0
  0
SCALE
  5
4F
102
{ACAD_REACTORS
330
47
102
}
330
47
100
AcDbScale
 70
     0
300
1:20
140
1.0
141
20.0
290
     0
  0
SCALE
  5
50
102
{ACAD_REACTORS
330
47
102
}
330
47
100
AcDbScale
 70
     0
300
1:30
140
1.0
141
30.0
290
     0
  0
SCALE
  5
51
102
{ACAD_REACTORS
330
47
102
}
330
47
100
AcDbScale
 70
     0
300
1:40
140
1.0
141
40.0
290
     0
  0
SCALE
  5
52
102
{ACAD_REACTORS
330
47
102
}
330
47
100
AcDbScale
 70
     0
300
1:50
140
1.0
141
50.0
290
     0
  0
SCALE
  5
53
102
{ACAD_REACTORS
330
47
102
}
330
47
100
AcDbScale
 70
     0
300
1:100
140
1.0
141
100.0
290
     0
  0
SCALE
  5
54
102
{ACAD_REACTORS
330
47
102
}
330
47
100
AcDbScale
 70
     0
300
2:1
140
2.0
141
1.0
290
     0
  0
SCALE
  5
55
102
{ACAD_REACTORS
330
47
102
}
330
47
100
AcDbScale
 70
     0
300
4:1
140
4.0
141
1.0
290
     0
  0
SCALE
  5
56
102
{ACAD_REACTORS
330
47
102
}
330
47
100
AcDbScale
 70
     0
300
8:1
140
8.0
141
1.0
290
     0
  0
SCALE
  5
57
102
{ACAD_REACTORS
330
47
102
}
330
47
100
AcDbScale
 70
     0
300
10:1
140
10.0
141
1.0
290
     0
  0
SCALE
  5
58
102
{ACAD_REACTORS
330
47
102
}
330
47
100
AcDbScale
 70
     0
300
100:1
140
100.0
141
1.0
290
     0
  0
SCALE
  5
59
102
{ACAD_REACTORS
330
47
102
}
330
47
100
AcDbScale
 70
     0
300
1/128" = 1'-0"
140
0.0078125
141
12.0
290
     0
  0
SCALE
  5
5A
102
{ACAD_REACTORS
330
47
102
}
330
47
100
AcDbScale
 70
     0
300
1/64" = 1'-0"
140
0.015625
141
12.0
290
     0
  0
SCALE
  5
5B
102
{ACAD_REACTORS
330
47
102
}
330
47
100
AcDbScale
 70
     0
300
1/32" = 1'-0"
140
0.03125
141
12.0
290
     0
  0
SCALE
  5
5C
102
{ACAD_REACTORS
330
47
102
}
330
47
100
AcDbScale
 70
     0
300
1/16" = 1'-0"
140
0.0625
141
12.0
290
     0
  0
SCALE
  5
5D
102
{ACAD_REACTORS
330
47
102
}
330
47
100
AcDbScale
 70
     0
300
3/32" = 1'-0"
140
0.09375
141
12.0
290
     0
  0
SCALE
  5
5E
102
{ACAD_REACTORS
330
47
102
}
330
47
100
AcDbScale
 70
     0
300
1/8" = 1'-0"
140
0.125
141
12.0
290
     0
  0
SCALE
  5
5F
102
{ACAD_REACTORS
330
47
102
}
330
47
100
AcDbScale
 70
     0
300
3/16" = 1'-0"
140
0.1875
141
12.0
290
     0
  0
SCALE
  5
60
102
{ACAD_REACTORS
330
47
102
}
330
47
100
AcDbScale
 70
     0
300
1/4" = 1'-0"
140
0.25
141
12.0
290
     0
  0
SCALE
  5
61
102
{ACAD_REACTORS
330
47
102
}
330
47
100
AcDbScale
 70
     0
300
3/8" = 1'-0"
140
0.375
141
12.0
290
     0
  0
SCALE
  5
62
102
{ACAD_REACTORS
330
47
102
}
330
47
100
AcDbScale
 70
     0
300
1/2" = 1'-0"
140
0.5
141
12.0
290
     0
  0
SCALE
  5
63
102
{ACAD_REACTORS
330
47
102
}
330
47
100
AcDbScale
 70
     0
300
3/4" = 1'-0"
140
0.75
141
12.0
290
     0
  0
SCALE
  5
64
102
{ACAD_REACTORS
330
47
102
}
330
47
100
AcDbScale
 70
     0
300
1" = 1'-0"
140
1.0
141
12.0
290
     0
  0
SCALE
  5
65
102
{ACAD_REACTORS
330
47
102
}
330
47
100
AcDbScale
 70
     0
300
1-1/2" = 1'-0"
140
1.5
141
12.0
290
     0
  0
SCALE
  5
66
102
{ACAD_REACTORS
330
47
102
}
330
47
100
AcDbScale
 70
     0
300
3" = 1'-0"
140
3.0
141
12.0
290
     0
  0
SCALE
  5
67
102
{ACAD_REACTORS
330
47
102
}
330
47
100
AcDbScale
 70
     0
300
6" = 1'-0"
140
6.0
141
12.0
290
     0
  0
SCALE
  5
68
102
{ACAD_REACTORS
330
47
102
}
330
47
100
AcDbScale
 70
     0
300
1'-0" = 1'-0"
140
12.0
141
12.0
290
     0
  0
ENDSEC
  0
EOF
