  0
SECTION
  2
HEADER
  9
$ACADVER
  1
AC1015
  9
$ACADMAINTVER
 70
     6
  9
$DWGCODEPAGE
  3
ANSI_1252
  9
$INSBASE
 10
0.0
 20
0.0
 30
0.0
  9
$EXTMIN
 10
0.0
 20
0.0
 30
0.0
  9
$EXTMAX
 10
467.0
 20
539.0
 30
0.0
  9
$LIMMIN
 10
0.0
 20
0.0
  9
$LIMMAX
 10
467.0
 20
539.0
  9
$ORTHOMODE
 70
     0
  9
$REGENMODE
 70
     1
  9
$FILLMODE
 70
     1
  9
$QTEXTMODE
 70
     0
  9
$MIRRTEXT
 70
     1
  9
$LTSCALE
 40
1.0
  9
$ATTMODE
 70
     1
  9
$TEXTSIZE
 40
3.5
  9
$TRACEWID
 40
1.0
  9
$TEXTSTYLE
  7
Standard
  9
$CLAYER
  8
0
  9
$CELTYPE
  6
ByLayer
  9
$CECOLOR
 62
   256
  9
$CELTSCALE
 40
1.0
  9
$DISPSILH
 70
     0
  9
$DIMSCALE
 40
1.0
  9
$DIMASZ
 40
3.302
  9
$DIMEXO
 40
1.0
  9
$DIMDLI
 40
3.75
  9
$DIMRND
 40
0.0
  9
$DIMDLE
 40
0.0
  9
$DIMEXE
 40
1.0
  9
$DIMTP
 40
0.0
  9
$DIMTM
 40
0.0
  9
$DIMTXT
 40
2.8
  9
$DIMCEN
 40
2.5
  9
$DIMTSZ
 40
0.0
  9
$DIMTOL
 70
     0
  9
$DIMLIM
 70
     0
  9
$DIMTIH
 70
     1
  9
$DIMTOH
 70
     1
  9
$DIMSE1
 70
     0
  9
$DIMSE2
 70
     0
  9
$DIMTAD
 70
     1
  9
$DIMZIN
 70
     0
  9
$DIMBLK
  1

  9
$DIMASO
 70
     1
  9
$DIMSHO
 70
     1
  9
$DIMPOST
  1

  9
$DIMAPOST
  1

  9
$DIMALT
 70
     0
  9
$DIMALTD
 70
     3
  9
$DIMALTF
 40
0.0393700787
  9
$DIMLFAC
 40
1.0
  9
$DIMTOFL
 70
     1
  9
$DIMTVP
 40
0.0
  9
$DIMTIX
 70
     0
  9
$DIMSOXD
 70
     0
  9
$DIMSAH
 70
     0
  9
$DIMBLK1
  1

  9
$DIMBLK2
  1

  9
$DIMSTYLE
  2
ISO-25
  9
$DIMCLRD
 70
     0
  9
$DIMCLRE
 70
     0
  9
$DIMCLRT
 70
     0
  9
$DIMTFAC
 40
1.0
  9
$DIMGAP
 40
1.524
  9
$DIMJUST
 70
     0
  9
$DIMSD1
 70
     0
  9
$DIMSD2
 70
     0
  9
$DIMTOLJ
 70
     0
  9
$DIMTZIN
 70
     0
  9
$DIMALTZ
 70
     0
  9
$DIMALTTZ
 70
     0
  9
$DIMUPT
 70
     0
  9
$DIMDEC
 70
     2
  9
$DIMTDEC
 70
     2
  9
$DIMALTU
 70
     2
  9
$DIMALTTD
 70
     3
  9
$DIMTXSTY
  7
Standard
  9
$DIMAUNIT
 70
     0
  9
$DIMADEC
 70
     2
  9
$DIMALTRND
 40
0.0
  9
$DIMAZIN
 70
     0
  9
$DIMDSEP
 70
    44
  9
$DIMATFIT
 70
     3
  9
$DIMFRAC
 70
     0
  9
$DIMLDRBLK
  1

  9
$DIMLUNIT
 70
     2
  9
$DIMLWD
 70
    -2
  9
$DIMLWE
 70
    -2
  9
$DIMTMOVE
 70
     0
  9
$LUNITS
 70
     2
  9
$LUPREC
 70
     2
  9
$SKETCHINC
 40
1.0
  9
$FILLETRAD
 40
10.0
  9
$AUNITS
 70
     0
  9
$AUPREC
 70
     2
  9
$MENU
  1
.
  9
$ELEVATION
 40
0.0
  9
$PELEVATION
 40
0.0
  9
$THICKNESS
 40
0.0
  9
$LIMCHECK
 70
     0
  9
$CHAMFERA
 40
0.0
  9
$CHAMFERB
 40
0.0
  9
$CHAMFERC
 40
0.0
  9
$CHAMFERD
 40
0.0
  9
$SKPOLY
 70
     0
  9
$TDCREATE
 40
2458351.318945243
  9
$TDUCREATE
 40
2458351.193945243
  9
$TDUPDATE
 40
2458351.318945972
  9
$TDUUPDATE
 40
2458351.193945972
  9
$TDINDWG
 40
0.0000000116
  9
$TDUSRTIMER
 40
0.0000000116
  9
$USRTIMER
 70
     1
  9
$ANGBASE
 50
0.0
  9
$ANGDIR
 70
     0
  9
$PDMODE
 70
     0
  9
$PDSIZE
 40
-1.0
  9
$PLINEWID
 40
0.0
  9
$SPLFRAME
 70
     0
  9
$SPLINETYPE
 70
     6
  9
$SPLINESEGS
 70
     8
  9
$HANDSEED
  5
191
  9
$SURFTAB1
 70
     6
  9
$SURFTAB2
 70
     6
  9
$SURFTYPE
 70
     6
  9
$SURFU
 70
     6
  9
$SURFV
 70
     6
  9
$UCSBASE
  2

  9
$UCSNAME
  2

  9
$UCSORG
 10
0.0
 20
0.0
 30
0.0
  9
$UCSXDIR
 10
1.0
 20
0.0
 30
0.0
  9
$UCSYDIR
 10
0.0
 20
1.0
 30
0.0
  9
$UCSORTHOREF
  2

  9
$UCSORTHOVIEW
 70
     0
  9
$UCSORGTOP
 10
0.0
 20
0.0
 30
0.0
  9
$UCSORGBOTTOM
 10
0.0
 20
0.0
 30
0.0
  9
$UCSORGLEFT
 10
0.0
 20
0.0
 30
0.0
  9
$UCSORGRIGHT
 10
0.0
 20
0.0
 30
0.0
  9
$UCSORGFRONT
 10
0.0
 20
0.0
 30
0.0
  9
$UCSORGBACK
 10
0.0
 20
0.0
 30
0.0
  9
$PUCSBASE
  2

  9
$PUCSNAME
  2

  9
$PUCSORG
 10
0.0
 20
0.0
 30
0.0
  9
$PUCSXDIR
 10
1.0
 20
0.0
 30
0.0
  9
$PUCSYDIR
 10
0.0
 20
1.0
 30
0.0
  9
$PUCSORTHOREF
  2

  9
$PUCSORTHOVIEW
 70
     0
  9
$PUCSORGTOP
 10
0.0
 20
0.0
 30
0.0
  9
$PUCSORGBOTTOM
 10
0.0
 20
0.0
 30
0.0
  9
$PUCSORGLEFT
 10
0.0
 20
0.0
 30
0.0
  9
$PUCSORGRIGHT
 10
0.0
 20
0.0
 30
0.0
  9
$PUCSORGFRONT
 10
0.0
 20
0.0
 30
0.0
  9
$PUCSORGBACK
 10
0.0
 20
0.0
 30
0.0
  9
$USERI1
 70
     0
  9
$USERI2
 70
     0
  9
$USERI3
 70
     0
  9
$USERI4
 70
     0
  9
$USERI5
 70
     0
  9
$USERR1
 40
0.0
  9
$USERR2
 40
0.0
  9
$USERR3
 40
0.0
  9
$USERR4
 40
0.0
  9
$USERR5
 40
0.0
  9
$WORLDVIEW
 70
     1
  9
$SHADEDGE
 70
     3
  9
$SHADEDIF
 70
    70
  9
$TILEMODE
 70
     1
  9
$MAXACTVP
 70
    64
  9
$PINSBASE
 10
0.0
 20
0.0
 30
0.0
  9
$PLIMCHECK
 70
     0
  9
$PEXTMIN
 10
1.0000000000E+20
 20
1.0000000000E+20
 30
1.0000000000E+20
  9
$PEXTMAX
 10
-1.0000000000E+20
 20
-1.0000000000E+20
 30
-1.0000000000E+20
  9
$PLIMMIN
 10
0.0
 20
0.0
  9
$PLIMMAX
 10
420.0
 20
297.0
  9
$UNITMODE
 70
     0
  9
$VISRETAIN
 70
     1
  9
$PLINEGEN
 70
     0
  9
$PSLTSCALE
 70
     1
  9
$TREEDEPTH
 70
  3020
  9
$CMLSTYLE
  2
Standard
  9
$CMLJUST
 70
     0
  9
$CMLSCALE
 40
20.0
  9
$PROXYGRAPHICS
 70
     1
  9
$MEASUREMENT
 70
     1
  9
$CELWEIGHT
370
    -1
  9
$ENDCAPS
280
     0
  9
$JOINSTYLE
280
     0
  9
$LWDISPLAY
290
     1
  9
$INSUNITS
 70
     4
  9
$HYPERLINKBASE
  1

  9
$STYLESHEET
  1

  9
$XEDIT
290
     1
  9
$CEPSNTYPE
380
     0
  9
$PSTYLEMODE
290
     1
  9
$FINGERPRINTGUID
  2
{AEBC855C-F4B8-4731-B141-4B8A1C451E94}
  9
$VERSIONGUID
  2
{FAEB1C32-E019-11D5-929B-00C0DF256EC4}
  9
$EXTNAMES
290
     1
  9
$PSVPSCALE
 40
0.0
  9
$OLESTARTUP
290
     0
  0
ENDSEC
  0
SECTION
  2
CLASSES
  0
CLASS
  1
ACDBDICTIONARYWDFLT
  2
AcDbDictionaryWithDefault
  3
ObjectDBX Classes
 90
        0
280
     0
281
     0
  0
CLASS
  1
VISUALSTYLE
  2
AcDbVisualStyle
  3
ObjectDBX Classes
 90
     4095
280
     0
281
     0
  0
CLASS
  1
MATERIAL
  2
AcDbMaterial
  3
ObjectDBX Classes
 90
     1153
280
     0
281
     0
  0
CLASS
  1
SCALE
  2
AcDbScale
  3
ObjectDBX Classes
 90
     1153
280
     0
281
     0
  0
CLASS
  1
TABLESTYLE
  2
AcDbTableStyle
  3
ObjectDBX Classes
 90
     4095
280
     0
281
     0
  0
CLASS
  1
MLEADERSTYLE
  2
AcDbMLeaderStyle
  3
ACDB_MLEADERSTYLE_CLASS
 90
     4095
280
     0
281
     0
  0
CLASS
  1
SUN
  2
AcDbSun
  3
SCENEOE
 90
     1153
280
     0
281
     0
  0
CLASS
  1
ACDBPLACEHOLDER
  2
AcDbPlaceHolder
  3
ObjectDBX Classes
 90
        0
280
     0
281
     0
  0
CLASS
  1
LAYOUT
  2
AcDbLayout
  3
ObjectDBX Classes
 90
        0
280
     0
281
     0
  0
ENDSEC
  0
SECTION
  2
TABLES
  0
TABLE
  2
VPORT
  5
8
330
0
100
AcDbSymbolTable
 70
     1
  0
VPORT
  5
29
330
8
100
AcDbSymbolTableRecord
100
AcDbViewportTableRecord
  2
*Active
 70
     0
 10
0.0
 20
0.0
 11
1.0
 21
1.0
 12
233.5
 22
269.5
 13
0.0
 23
0.0
 14
10.0
 24
10.0
 15
10.0
 25
10.0
 16
0.0
 26
0.0
 36
1.0
 17
0.0
 27
0.0
 37
0.0
 40
539.0
 41
0.866419295
 42
50.0
 43
0.0
 44
0.0
 50
0.0
 51
0.0
 71
     0
 72
  2000
 73
     1
 74
     3
 75
     0
 76
     0
 77
     0
 78
     0
281
     0
 65
     1
110
0.0
120
0.0
130
0.0
111
1.0
121
0.0
131
0.0
112
0.0
122
1.0
132
0.0
 79
     0
146
0.0
  0
ENDTAB
  0
TABLE
  2
LTYPE
  5
5
330
0
100
AcDbSymbolTable
 70
     6
  0
LTYPE
  5
14
330
5
100
AcDbSymbolTableRecord
100
AcDbLinetypeTableRecord
  2
ByBlock
 70
     0
  3

 72
    65
 73
     0
 40
0.0
  0
LTYPE
  5
15
330
5
100
AcDbSymbolTableRecord
100
AcDbLinetypeTableRecord
  2
ByLayer
 70
     0
  3

 72
    65
 73
     0
 40
0.0
  0
LTYPE
  5
16
330
5
100
AcDbSymbolTableRecord
100
AcDbLinetypeTableRecord
  2
Continuous
 70
     0
  3
Solid line
 72
    65
 73
     0
 40
0.0
  0
LTYPE
  5
6E
330
5
100
AcDbSymbolTableRecord
100
AcDbLinetypeTableRecord
  2
HIDDEN
 70
     0
  3
Hidden __ __ __ __ __ __ __ __ __ __ __ __ __ __
 72
    65
 73
     2
 40
1.905
 49
1.27
 74
     0
 49
-0.635
 74
     0
  0
LTYPE
  5
6F
330
5
100
AcDbSymbolTableRecord
100
AcDbLinetypeTableRecord
  2
PHANTOM
 70
     0
  3
Phantom ______  __  __  ______  __  __  ______
 72
    65
 73
     6
 40
12.7
 49
6.35
 74
     0
 49
-1.27
 74
     0
 49
1.27
 74
     0
 49
-1.27
 74
     0
 49
1.27
 74
     0
 49
-1.27
 74
     0
  0
LTYPE
  5
70
330
5
100
AcDbSymbolTableRecord
100
AcDbLinetypeTableRecord
  2
CENTER
 70
     0
  3
Center ____ _ ____ _ ____ _ ____ _ ____ _ ____
 72
    65
 73
     4
 40
10.16
 49
6.35
 74
     0
 49
-1.27
 74
     0
 49
1.27
 74
     0
 49
-1.27
 74
     0
  0
LTYPE
  5
71
330
5
100
AcDbSymbolTableRecord
100
AcDbLinetypeTableRecord
  2
CENTERX2
 70
     0
  3
Center (2x) ________  __  ________  __  _____
 72
    65
 73
     4
 40
20.32
 49
12.7
 74
     0
 49
-2.54
 74
     0
 49
2.54
 74
     0
 49
-2.54
 74
     0
  0
LTYPE
  5
72
330
5
100
AcDbSymbolTableRecord
100
AcDbLinetypeTableRecord
  2
DOT2
 70
     0
  3
Dot (.5x) ........................................
 72
    65
 73
     2
 40
0.635
 49
0.0
 74
     0
 49
-0.635
 74
     0
  0
ENDTAB
  0
TABLE
  2
LAYER
  5
2
330
0
100
AcDbSymbolTable
 70
     2
  0
LAYER
  5
10
330
2
100
AcDbSymbolTableRecord
100
AcDbLayerTableRecord
  2
0
 70
     0
 62
     7
  6
Continuous
370
    -3
390
F
  0
LAYER
  5
73
330
2
100
AcDbSymbolTableRecord
100
AcDbLayerTableRecord
  2
FORMAT
 70
     0
 62
     7
  6
Continuous
370
    -3
390
F
  0
ENDTAB
  0
TABLE
  2
STYLE
  5
3
330
0
100
AcDbSymbolTable
 70
     2
  0
STYLE
  5
11
330
3
100
AcDbSymbolTableRecord
100
AcDbTextStyleTableRecord
  2
Standard
 70
     0
 40
0.0
 41
1.0
 50
0.0
 71
     0
 42
3.5
  3
txt
  4

  0
STYLE
  5
74
330
3
100
AcDbSymbolTableRecord
100
AcDbTextStyleTableRecord
  2
SLDTEXTSTYLE0
 70
     0
 40
0.0
 41
0.605
 50
0.0
 71
     0
 42
3.5
  3
TXT
  4

  0
ENDTAB
  0
TABLE
  2
VIEW
  5
6
330
0
100
AcDbSymbolTable
 70
     0
  0
ENDTAB
  0
TABLE
  2
UCS
  5
7
330
0
100
AcDbSymbolTable
 70
     0
  0
ENDTAB
  0
TABLE
  2
APPID
  5
9
330
0
100
AcDbSymbolTable
 70
     1
  0
APPID
  5
12
330
9
100
AcDbSymbolTableRecord
100
AcDbRegAppTableRecord
  2
ACAD
 70
     0
  0
ENDTAB
  0
TABLE
  2
DIMSTYLE
  5
A
330
0
100
AcDbSymbolTable
 70
     1
100
AcDbDimStyleTable
  0
DIMSTYLE
105
27
330
A
100
AcDbSymbolTableRecord
100
AcDbDimStyleTableRecord
  2
ISO-25
 70
     0
 41
2.5
 42
0.625
 43
3.75
 44
1.25
 73
     0
 74
     0
 77
     1
 78
     8
140
2.5
141
2.5
143
0.0393700787
147
0.625
171
     3
172
     1
178
     0
271
     2
272
     2
274
     3
278
    44
283
     0
284
     8
340
11
  0
ENDTAB
  0
TABLE
  2
BLOCK_RECORD
  5
1
330
0
100
AcDbSymbolTable
 70
     1
  0
BLOCK_RECORD
  5
1F
330
1
100
AcDbSymbolTableRecord
100
AcDbBlockTableRecord
  2
*Model_Space
340
22
  0
BLOCK_RECORD
  5
1B
330
1
100
AcDbSymbolTableRecord
100
AcDbBlockTableRecord
  2
*Paper_Space
340
1E
  0
BLOCK_RECORD
  5
23
330
1
100
AcDbSymbolTableRecord
100
AcDbBlockTableRecord
  2
*Paper_Space0
340
26
  0
ENDTAB
  0
ENDSEC
  0
SECTION
  2
BLOCKS
  0
BLOCK
  5
20
330
1F
100
AcDbEntity
  8
0
100
AcDbBlockBegin
  2
*Model_Space
 70
     0
 10
0.0
 20
0.0
 30
0.0
  3
*Model_Space
  1

  0
ENDBLK
  5
21
330
1F
100
AcDbEntity
  8
0
100
AcDbBlockEnd
  0
BLOCK
  5
1C
330
1B
100
AcDbEntity
 67
     1
  8
0
100
AcDbBlockBegin
  2
*Paper_Space
 70
     0
 10
0.0
 20
0.0
 30
0.0
  3
*Paper_Space
  1

  0
ENDBLK
  5
1D
330
1B
100
AcDbEntity
 67
     1
  8
0
100
AcDbBlockEnd
  0
BLOCK
  5
24
330
23
100
AcDbEntity
  8
0
100
AcDbBlockBegin
  2
*Paper_Space0
 70
     0
 10
0.0
 20
0.0
 30
0.0
  3
*Paper_Space0
  1

  0
ENDBLK
  5
25
330
23
100
AcDbEntity
  8
0
100
AcDbBlockEnd
  0
ENDSEC
  0
SECTION
  2
ENTITIES
  0
MTEXT
  5
75
330
1F
100
AcDbEntity
  8
0
  6
Continuous
 62
     7
370
     0
100
AcDbMText
 10
7.2782978723
 20
22.1884790273
 30
0.0
 40
10.0
 41
0.0
 71
     1
 72
     1
  1
1:1
  7
SLDTEXTSTYLE0
 73
     1
 44
1.0
  0
CIRCLE
  5
76
330
1F
100
AcDbEntity
  8
0
  6
Continuous
 62
     7
370
    30
100
AcDbCircle
 10
203.499394648
 20
401.499524308
 30
0.0
 40
2.300000000000013
  0
CIRCLE
  5
77
330
1F
100
AcDbEntity
  8
0
  6
Continuous
 62
     7
370
    30
100
AcDbCircle
 10
263.499394648
 20
401.499524308
 30
0.0
 40
2.299999999999983
  0
SPLINE
  5
78
330
1F
100
AcDbEntity
  8
0
  6
Continuous
 62
     7
370
    30
100
AcDbSpline
210
0.0
220
0.0
230
1.0
 70
     8
 71
     3
 72
    16
 73
    12
 74
     0
 42
0.000000001
 43
0.00000001
 40
0.0
 40
0.0
 40
0.0
 40
0.0
 40
0.0267627406438605
 40
0.2717199075374256
 40
0.4165528542604695
 40
0.5137838791087493
 40
0.5927200042948486
 40
0.6689628176216652
 40
0.7682382390928183
 40
0.9047105751711277
 40
1.0
 40
1.0
 40
1.0
 40
1.0
 10
229.4146727839777
 20
396.0512931238452
 30
0.0
 10
229.4142402451211
 20
396.0511918479357
 30
0.0
 10
229.409848713638
 20
396.0501636019461
 30
0.0
 10
229.4030975572352
 20
396.0487444258328
 30
0.0
 10
229.3952999057417
 20
396.0471211504563
 30
0.0
 10
229.3904299442978
 20
396.04614502166
 30
0.0
 10
229.3872547185231
 20
396.0455201087818
 30
0.0
 10
229.3850713429179
 20
396.0450964373563
 30
0.0
 10
229.3835213953366
 20
396.0447986046165
 30
0.0
 10
229.3825906222222
 20
396.0446210969279
 30
0.0
 10
229.3823199905186
 20
396.0445697840277
 30
0.0
 10
229.3822087196201
 20
396.0445486866011
 30
0.0
  0
LINE
  5
79
330
1F
100
AcDbEntity
  8
0
  6
Continuous
 62
     7
370
    30
100
AcDbLine
 10
153.999394648
 20
312.999524308
 30
0.0
 11
153.9994035294
 21
312.9994789147
 31
0.0
  0
SPLINE
  5
7A
330
1F
100
AcDbEntity
  8
0
  6
Continuous
 62
     7
370
    30
100
AcDbSpline
210
0.0
220
0.0
230
1.0
 70
    24
 71
     3
 72
    39
 73
    35
 74
     0
 42
0.000000001
 43
0.00000001
 40
0.0
 40
0.0
 40
0.0
 40
0.0
 40
0.0312407485567988
 40
0.0624815851257698
 40
0.0937224815087576
 40
0.124963408895464
 40
0.1562043378662
 40
0.187445238394631
 40
0.2186860798505159
 40
0.2499268310024417
 40
0.2811712969180804
 40
0.3124158449624564
 40
0.3436604490002406
 40
0.3749050822290781
 40
0.406149717182808
 40
0.4373943257346761
 40
0.4686388791005426
 40
0.4998833478420838
 40
0.5311387109180414
 40
0.5623941589125807
 40
0.5936496622390092
 40
0.6249051919914659
 40
0.6561607199483357
 40
0.687416218575671
 40
0.7186716610306191
 40
0.7499270211648549
 40
0.781186040407222
 40
0.8124451502343699
 40
0.8437043193474474
 40
0.8749635170348916
 40
0.906222713175065
 40
0.9374818782388982
 40
0.9687409832925378
 40
1.0
 40
1.0
 40
1.0
 40
1.0
 10
153.9993946480378
 20
312.9995243079663
 30
0.0
 10
153.9993946480378
 20
315.0611127281499
 30
0.0
 10
153.9993946480378
 20
319.1842953764724
 30
0.0
 10
153.9993946480378
 20
325.3692997608347
 30
0.0
 10
153.9993946480378
 20
331.554463677911
 30
0.0
 10
153.9993946480378
 20
337.7397859710517
 30
0.0
 10
153.9993946480378
 20
343.9252439778435
 30
0.0
 10
153.9993946480377
 20
350.1108208039834
 30
0.0
 10
153.9993946480378
 20
356.2964979885336
 30
0.0
 10
153.9993946480378
 20
362.4825108080236
 30
0.0
 10
153.9993946480378
 20
368.6688565073915
 30
0.0
 10
153.9993946480378
 20
374.8555328928173
 30
0.0
 10
153.9993946480377
 20
381.0422852669612
 30
0.0
 10
153.9993946480378
 20
387.2290969359318
 30
0.0
 10
153.9993946480378
 20
393.4159512265172
 30
0.0
 10
153.9993946480378
 20
399.6028314595246
 30
0.0
 10
153.9993946480378
 20
405.7897209590059
 30
0.0
 10
153.9993946480378
 20
411.9773296954742
 30
0.0
 10
153.9993946480378
 20
418.1656562157438
 30
0.0
 10
153.9993946480378
 20
424.3546990228452
 30
0.0
 10
153.9993946480378
 20
430.5437298895638
 30
0.0
 10
153.9993946480378
 20
436.7327320737576
 30
0.0
 10
153.9993946480377
 20
442.9216888303375
 30
0.0
 10
153.9993946480378
 20
449.1105834199062
 30
0.0
 10
153.9993946480378
 20
455.2993990832471
 30
0.0
 10
153.9993946480378
 20
461.4883677552007
 30
0.0
 10
153.9993946480378
 20
467.6774871878628
 30
0.0
 10
153.9993946480377
 20
473.8667545885758
 30
0.0
 10
153.9993946480378
 20
480.0559185139055
 30
0.0
 10
153.9993946480378
 20
486.2449604385114
 30
0.0
 10
153.9993946480378
 20
492.4338634308125
 30
0.0
 10
153.9993946480378
 20
498.6226046869392
 30
0.0
 10
153.9993946480378
 20
504.8111832983702
 30
0.0
 10
153.9993946480378
 20
508.9367459147518
 30
0.0
 10
153.9993946480378
 20
510.9995243079663
 30
0.0
  0
LINE
  5
7B
330
1F
100
AcDbEntity
  8
0
  6
Continuous
 62
     7
370
    30
100
AcDbLine
 10
312.999394648
 20
510.999524308
 30
0.0
 11
312.9993842481
 21
510.9995742361
 31
0.0
  0
SPLINE
  5
7C
330
1F
100
AcDbEntity
  8
0
  6
Continuous
 62
     7
370
    30
100
AcDbSpline
210
0.0
220
0.0
230
1.0
 70
    24
 71
     3
 72
    39
 73
    35
 74
     0
 42
0.000000001
 43
0.00000001
 40
0.0
 40
0.0
 40
0.0
 40
0.0
 40
0.031240742701389
 40
0.0624815735966188
 40
0.093722464397606
 40
0.1249633862199462
 40
0.1562043095855588
 40
0.1874452044253269
 40
0.2186860400817302
 40
0.2499267853114737
 40
0.2811712525947043
 40
0.3124158021155277
 40
0.343660407752765
 40
0.3749050426910099
 40
0.4061496794240607
 40
0.4373942897583475
 40
0.4686388448163529
 40
0.4998833150400261
 40
0.5311386838929396
 40
0.5623941374543165
 40
0.5936496462574098
 40
0.6249051814898579
 40
0.656160714996887
 40
0.6874162192845178
 40
0.7186716675227793
 40
0.7499270335489274
 40
0.7811860514545961
 40
0.8124451598220465
 40
0.843704327364344
 40
0.8749635233972739
 40
0.9062227178420849
 40
0.9374818812282373
 40
0.968740984696158
 40
1.0
 40
1.0
 40
1.0
 40
1.0
 10
312.9993946480379
 20
510.9995243079663
 30
0.0
 10
312.9993946480379
 20
508.9379518249044
 30
0.0
 10
312.9993946480378
 20
504.8148010388805
 30
0.0
 10
312.9993946480379
 20
498.6298404441334
 30
0.0
 10
312.9993946480378
 20
492.4447173869378
 30
0.0
 10
312.9993946480379
 20
486.2594327644641
 30
0.0
 10
312.9993946480378
 20
480.0740093435836
 30
0.0
 10
312.9993946480379
 20
473.8884640257802
 30
0.0
 10
312.9993946480379
 20
467.7028153043414
 30
0.0
 10
312.9993946480378
 20
461.5168274436808
 30
0.0
 10
312.9993946480379
 20
455.3305032019949
 30
0.0
 10
312.9993946480379
 20
449.143844805022
 30
0.0
 10
312.9993946480379
 20
442.9571074781806
 30
0.0
 10
312.9993946480379
 20
436.7703079643623
 30
0.0
 10
312.9993946480378
 20
430.5834629866442
 30
0.0
 10
312.9993946480379
 20
424.396589273823
 30
0.0
 10
312.9993946480378
 20
418.2097035516331
 30
0.0
 10
312.9993946480379
 20
412.0220955920688
 30
0.0
 10
312.9993946480379
 20
405.8337668772507
 30
0.0
 10
312.9993946480379
 20
399.6447188731413
 30
0.0
 10
312.9993946480379
 20
393.4556800647729
 30
0.0
 10
312.9993946480379
 20
387.2666671445077
 30
0.0
 10
312.9993946480379
 20
381.0776968078309
 30
0.0
 10
312.9993946480379
 20
374.8887857442759
 30
0.0
 10
312.9993946480379
 20
368.6999506640598
 30
0.0
 10
312.9993946480378
 20
362.5109600607943
 30
0.0
 10
312.9993946480379
 20
356.3218161495231
 30
0.0
 10
312.9993946480379
 20
350.1325217188059
 30
0.0
 10
312.9993946480379
 20
343.9433277147673
 30
0.0
 10
312.9993946480379
 20
337.7542526303178
 30
0.0
 10
312.9993946480379
 20
331.5653133898085
 30
0.0
 10
312.9993946480379
 20
325.3765326924855
 30
0.0
 10
312.9993946480379
 20
319.1879117066206
 30
0.0
 10
312.9993946480379
 20
315.0623181681912
 30
0.0
 10
312.9993946480379
 20
312.9995243079663
 30
0.0
  0
SPLINE
  5
7D
330
1F
100
AcDbEntity
  8
0
  6
Continuous
 62
     7
370
    30
100
AcDbSpline
210
0.0
220
0.0
230
1.0
 70
     8
 71
     3
 72
   137
 73
   133
 74
     0
 42
0.000000001
 43
0.00000001
 40
0.0
 40
0.0
 40
0.0
 40
0.0
 40
0.0088184961937492
 40
0.0176437800035516
 40
0.0264622790355184
 40
0.0332673952824382
 40
0.0400787448640602
 40
0.0468900944695753
 40
0.0536952107491061
 40
0.0625137050071877
 40
0.0713389853548593
 40
0.0801574796264554
 40
0.0869625928888516
 40
0.0937739394398131
 40
0.1005852859807915
 40
0.1073903992295623
 40
0.1162089247227243
 40
0.125034236393341
 40
0.1338527618387423
 40
0.1406579028237533
 40
0.1474692772809277
 40
0.1542806516977553
 40
0.1610857926276969
 40
0.1699042639363628
 40
0.178729521462919
 40
0.1875479926826409
 40
0.1943530953654743
 40
0.2011644316226827
 40
0.2079757678268634
 40
0.2147808704373204
 40
0.2235992075375208
 40
0.2324243307892776
 40
0.2412426677991158
 40
0.2480476679215532
 40
0.2548589015513973
 40
0.261670135139522
 40
0.2684751352050158
 40
0.2772933175014886
 40
0.2861182858039271
 40
0.2949364680498028
 40
0.3017413466936756
 40
0.3085524586355911
 40
0.3153635705662001
 40
0.3221684491946408
 40
0.3309865263176445
 40
0.3398113892870941
 40
0.3486294664225033
 40
0.3554342597553383
 40
0.3622452861287218
 40
0.3690563125264102
 40
0.3758611058924188
 40
0.3846791756582764
 40
0.393504031170102
 40
0.4023221010056555
 40
0.409126884280181
 40
0.4159379004076464
 40
0.4227489165838562
 40
0.4295536999249119
 40
0.4383718635280526
 40
0.4471968128819034
 40
0.4560149765800849
 40
0.4628198296655513
 40
0.469630915572207
 40
0.4764420015298009
 40
0.4832468546847934
 40
0.4920651702936393
 40
0.5008902717606643
 40
0.5097085874468171
 40
0.5165135581780368
 40
0.5233247618678591
 40
0.5301359655879678
 40
0.5369409363605246
 40
0.5457593930597043
 40
0.5545846357774189
 40
0.5634030925020844
 40
0.5702081751893228
 40
0.5770194910767275
 40
0.5838308069608453
 40
0.5906358896435981
 40
0.5994544137429225
 40
0.6082797240007483
 40
0.617098248063962
 40
0.6239033871141235
 40
0.6307147595988838
 40
0.637526132049268
 40
0.6443312710525098
 40
0.6531497609807455
 40
0.6619750371250951
 40
0.670793526973365
 40
0.6775986433051782
 40
0.6844099931950485
 40
0.6912213430353221
 40
0.6980264592994422
 40
0.7068448315483052
 40
0.715669989966148
 40
0.7244883621267638
 40
0.7312933890564095
 40
0.7381046495078225
 40
0.7449159099158046
 40
0.7517209367861717
 40
0.7605391610187545
 40
0.7693641712932862
 40
0.7781823954663082
 40
0.7849873068736439
 40
0.7917984516301669
 40
0.798609596367147
 40
0.8054145077478092
 40
0.8142326166048247
 40
0.8230575113537112
 40
0.8318756202036268
 40
0.8386804392250194
 40
0.8454914913639642
 40
0.8523025435149342
 40
0.8591073625527399
 40
0.8679254354622522
 40
0.8767502941524701
 40
0.885568367110111
 40
0.8923731543678964
 40
0.8991841745468423
 40
0.9059951947646734
 40
0.9127999820755325
 40
0.9216181126441122
 40
0.930443028964909
 40
0.9392611596177955
 40
0.9460659882646215
 40
0.952877049749205
 40
0.9596881112838461
 40
0.9664929399989958
 40
0.9748638968191792
 40
0.9832464698725393
 40
0.9916290430332401
 40
1.0
 40
1.0
 40
1.0
 40
1.0
 10
261.3414608547185
 20
399.3441048352971
 30
0.0
 10
261.3819124732863
 20
399.30488932604
 30
0.0
 10
261.462846846122
 20
399.2264281232614
 30
0.0
 10
261.5922539327718
 20
399.1174997282022
 30
0.0
 10
261.7167680810589
 20
399.0231475350941
 30
0.0
 10
261.835236440144
 20
398.9424472327153
 30
0.0
 10
261.9461250444886
 20
398.8736159005482
 30
0.0
 10
262.0598515115923
 20
398.8095779497169
 30
0.0
 10
262.1876381470215
 20
398.744645382354
 30
0.0
 10
262.3302557168297
 20
398.6808315336811
 30
0.0
 10
262.4881901409414
 20
398.6203958755889
 30
0.0
 10
262.6369756355613
 20
398.5727008343988
 30
0.0
 10
262.775465633982
 20
398.5357387423717
 30
0.0
 10
262.9028898080317
 20
398.5074991084197
 30
0.0
 10
263.0314014655568
 20
398.4847141185824
 30
0.0
 10
263.1734781182784
 20
398.4657410813235
 30
0.0
 10
263.3291793430065
 20
398.452732247906
 30
0.0
 10
263.4982161912371
 20
398.4479814641396
 30
0.0
 10
263.6544026192116
 20
398.4522247116914
 30
0.0
 10
263.7973212543214
 20
398.46318804493
 30
0.0
 10
263.9269106508243
 20
398.4787192894394
 30
0.0
 10
264.0557207234367
 20
398.4997577377269
 30
0.0
 10
264.1960688578196
 20
398.5288834129914
 30
0.0
 10
264.3472988756956
 20
398.5681469030615
 30
0.0
 10
264.5083788598502
 20
398.6196170270143
 30
0.0
 10
264.654355823662
 20
398.6753205310873
 30
0.0
 10
264.7855885968634
 20
398.7329735159569
 30
0.0
 10
264.9027315728268
 20
398.7905247950396
 30
0.0
 10
265.0173162314052
 20
398.8530148629077
 30
0.0
 10
265.1401111009939
 20
398.9269552179753
 30
0.0
 10
265.2698182727835
 20
399.0140635700158
 30
0.0
 10
265.4047792666819
 20
399.1159504442658
 30
0.0
 10
265.5240875478468
 20
399.2168327359171
 30
0.0
 10
265.6288376870415
 20
399.3146741079783
 30
0.0
 10
265.7203261295307
 20
399.4077556468375
 30
0.0
 10
265.8077657501753
 20
399.5046506475094
 30
0.0
 10
265.8991625012515
 20
399.6150678126289
 30
0.0
 10
265.992723110381
 20
399.7401983491317
 30
0.0
 10
266.0863495566539
 20
399.8810129668054
 30
0.0
 10
266.165538429852
 20
400.015698415514
 30
0.0
 10
266.2319966142056
 20
400.1426955097618
 30
0.0
 10
266.2875164126118
 20
400.2608114111309
 30
0.0
 10
266.3379534756334
 20
400.3811855045697
 30
0.0
 10
266.3876488867613
 20
400.5156293436555
 30
0.0
 10
266.4345161773295
 20
400.664673383946
 30
0.0
 10
266.4762542960726
 20
400.8285391435682
 30
0.0
 10
266.5063976611283
 20
400.981842318755
 30
0.0
 10
266.5270730138895
 20
401.1236766457636
 30
0.0
 10
266.5403664245229
 20
401.2535098230257
 30
0.0
 10
266.5481162891065
 20
401.3837914271824
 30
0.0
 10
266.550509372521
 20
401.5271045915558
 30
0.0
 10
266.5454011936765
 20
401.6832592340162
 30
0.0
 10
266.5305470283122
 20
401.8517027191555
 30
0.0
 10
266.5082479898559
 20
402.0063410965075
 30
0.0
 10
266.4808109076675
 20
402.1470231738974
 30
0.0
 10
266.4503804384312
 20
402.2739371689981
 30
0.0
 10
266.414570551925
 20
402.3994393751485
 30
0.0
 10
266.3693922947012
 20
402.5354660291724
 30
0.0
 10
266.3128849059863
 20
402.6811279097261
 30
0.0
 10
266.2431130181557
 20
402.8351604823032
 30
0.0
 10
266.1708853707614
 20
402.9737017319085
 30
0.0
 10
266.0984288272003
 20
403.0973725742358
 30
0.0
 10
266.0277048673706
 20
403.2070605163034
 30
0.0
 10
265.9523719882259
 20
403.3136356326536
 30
0.0
 10
265.8647149174253
 20
403.4270413352745
 30
0.0
 10
265.763177682149
 20
403.5457894657031
 30
0.0
 10
265.6463524902619
 20
403.6680460924262
 30
0.0
 10
265.532337554046
 20
403.7748715515384
 30
0.0
 10
265.4230287290439
 20
403.8675888776338
 30
0.0
 10
265.3199832004112
 20
403.947684827769
 30
0.0
 10
265.2136188003364
 20
404.0233177680979
 30
0.0
 10
265.0933637849231
 20
404.1013168523677
 30
0.0
 10
264.9582424411926
 20
404.1797627432489
 30
0.0
 10
264.8075333373153
 20
404.2564588588492
 30
0.0
 10
264.664583822604
 20
404.3195236576555
 30
0.0
 10
264.5307449988674
 20
404.3708331553676
 30
0.0
 10
264.4069941903734
 20
404.4123057691135
 30
0.0
 10
264.2815887806627
 20
404.4484682516855
 30
0.0
 10
264.1422927664274
 20
404.4822653669617
 30
0.0
 10
263.9888207414462
 20
404.5115630187484
 30
0.0
 10
263.8212190186175
 20
404.5340496707762
 30
0.0
 10
263.6654515092529
 20
404.5462417883624
 30
0.0
 10
263.5221722123416
 20
404.5503568723906
 30
0.0
 10
263.3916683761056
 20
404.5485287243832
 30
0.0
 10
263.2613608680953
 20
404.5411419835687
 30
0.0
 10
263.1187292670858
 20
404.5269251982554
 30
0.0
 10
262.9642106488236
 20
404.5037701660837
 30
0.0
 10
262.798613834694
 20
404.4695110682958
 30
0.0
 10
262.6475916211764
 20
404.4294550078469
 30
0.0
 10
262.5110271498213
 20
404.3859109515011
 30
0.0
 10
262.3884851825979
 20
404.3409874968875
 30
0.0
 10
262.2679684140874
 20
404.2908837642962
 30
0.0
 10
262.1380836017035
 20
404.2302557967522
 30
0.0
 10
261.9999409835128
 20
404.1572589916745
 30
0.0
 10
261.8550206400402
 20
404.0701174458889
 30
0.0
 10
261.725771968221
 20
403.9823301362184
 30
0.0
 10
261.611320426795
 20
403.8960371533132
 30
0.0
 10
261.5105573633772
 20
403.813084132794
 30
0.0
 10
261.4134200108771
 20
403.7259132925486
 30
0.0
 10
261.3109265103811
 20
403.6257108688875
 30
0.0
 10
261.2047350498156
 20
403.5111037991668
 30
0.0
 10
261.0968300529688
 20
403.3809062734333
 30
0.0
 10
261.0039268112188
 20
403.2552869001987
 30
0.0
 10
260.9244917183177
 20
403.1359756033794
 30
0.0
 10
260.8568677256762
 20
403.0243469622562
 30
0.0
 10
260.7940610798711
 20
402.9099385135837
 30
0.0
 10
260.7305136190544
 20
402.7814602477652
 30
0.0
 10
260.6682445297017
 20
402.6381653976109
 30
0.0
 10
260.6095188571401
 20
402.479591876297
 30
0.0
 10
260.5634336930694
 20
402.3303041193712
 30
0.0
 10
260.5279692897474
 20
402.1914268588631
 30
0.0
 10
260.5011070470588
 20
402.063708659298
 30
0.0
 10
260.4797105887396
 20
401.9349619933352
 30
0.0
 10
260.4622720276485
 20
401.7926931426763
 30
0.0
 10
260.4509439362034
 20
401.6368658015512
 30
0.0
 10
260.4480166665585
 20
401.4677936775108
 30
0.0
 10
260.4539436614342
 20
401.3116679520068
 30
0.0
 10
260.4664467461195
 20
401.16888138262
 30
0.0
 10
260.4833733527209
 20
401.039472152344
 30
0.0
 10
260.5057979707914
 20
400.9109016441847
 30
0.0
 10
260.5364332345855
 20
400.7708807673912
 30
0.0
 10
260.5773224596664
 20
400.6200877895096
 30
0.0
 10
260.6305231260714
 20
400.4595768661554
 30
0.0
 10
260.6877937155099
 20
400.3142134561492
 30
0.0
 10
260.7468543554496
 20
400.1836139715774
 30
0.0
 10
260.8056615068377
 20
400.0671022678739
 30
0.0
 10
260.8693781847741
 20
399.9532008971385
 30
0.0
 10
260.943136268172
 20
399.8336480468313
 30
0.0
 10
261.0282201874957
 20
399.7094453156523
 30
0.0
 10
261.1259504783923
 20
399.5819977545606
 30
0.0
 10
261.2297852010792
 20
399.4593984041709
 30
0.0
 10
261.3042539179247
 20
399.3825189421547
 30
0.0
 10
261.3414624596077
 20
399.3441058636411
 30
0.0
  0
SPLINE
  5
7E
330
1F
100
AcDbEntity
  8
0
  6
Continuous
 62
     7
370
    30
100
AcDbSpline
210
0.0
220
0.0
230
1.0
 70
    11
 71
     3
 72
   137
 73
   133
 74
     0
 42
0.000000001
 43
0.00000001
 40
0.0
 40
0.0
 40
0.0
 40
0.0
 40
0.0088180878111036
 40
0.0176429613467547
 40
0.0264610490897422
 40
0.033265849178902
 40
0.0400768823216688
 40
0.0468879154412724
 40
0.053692715498817
 40
0.062510803928268
 40
0.0713356782196597
 40
0.0801537666389819
 40
0.0869585695408081
 40
0.0937696055344582
 40
0.1005806415406586
 40
0.1073854444596148
 40
0.1162035047109746
 40
0.1250283507325741
 40
0.133846411036454
 40
0.1406511883645334
 40
0.1474621985956686
 40
0.1542732088692934
 40
0.1610779862553663
 40
0.1698961083436062
 40
0.1787210161683055
 40
0.1875391383475925
 40
0.1943439599903979
 40
0.2011550144453167
 40
0.2079660689532107
 40
0.2147708906683206
 40
0.2235891518861609
 40
0.2324141989161989
 40
0.2412324602221395
 40
0.2480373885126924
 40
0.2548485496984053
 40
0.2616597109236346
 40
0.268464639268123
 40
0.277283053425214
 40
0.2861082535444697
 40
0.2949266677473725
 40
0.3017317163114811
 40
0.3085429979877834
 40
0.3153542796728557
 40
0.3221593282489345
 40
0.3309778404562022
 40
0.3398031387808892
 40
0.3486216509724918
 40
0.3554267793313023
 40
0.3622381410524533
 40
0.369049502748665
 40
0.3758546310734359
 40
0.3846731442425386
 40
0.3934984436198715
 40
0.402316956720639
 40
0.4091220899270207
 40
0.4159334566663101
 40
0.4227448233588951
 40
0.42954995650153
 40
0.4383683759967602
 40
0.447193581688512
 40
0.4560120010938846
 40
0.4628170643065256
 40
0.4696283610715579
 40
0.4764396577886871
 40
0.4832447209359458
 40
0.4920629956283962
 40
0.5008880564124536
 40
0.5097063310319113
 40
0.5165112821095281
 40
0.5233224666070553
 40
0.530133651075378
 40
0.5369386021131342
 40
0.5457567436701359
 40
0.554581671169277
 40
0.5633998126997147
 40
0.5702046582607332
 40
0.5770157370197354
 40
0.5838268157798231
 40
0.5906316613423243
 40
0.5994497362318667
 40
0.6082745969327953
 40
0.6170926718526073
 40
0.6238974619953029
 40
0.6307084851173022
 40
0.6375195082702511
 40
0.644324298455189
 40
0.6531423996084271
 40
0.6619672865130344
 40
0.6707853877414975
 40
0.6775901945590033
 40
0.6844012342269771
 40
0.6912122739434478
 40
0.6980170808271464
 40
0.7068352908261835
 40
0.7156602866112445
 40
0.7244784966998996
 40
0.7312833857559712
 40
0.7380945076765939
 40
0.7449056296430467
 40
0.7517105187616715
 40
0.7605288762286911
 40
0.7693540195990741
 40
0.7781723771316732
 40
0.7849773808952344
 40
0.791788617680089
 40
0.7985998544878404
 40
0.8054048582826528
 40
0.8142233394453483
 40
0.8230486066648657
 40
0.8318670878390495
 40
0.8386721903837164
 40
0.8454835261883679
 40
0.8522948619819037
 40
0.8590999645113985
 40
0.8679184901063083
 40
0.8767438018817723
 40
0.8855623274271182
 40
0.892367468629475
 40
0.899178843309832
 40
0.9059902179490877
 40
0.9127953590953461
 40
0.9216138273021557
 40
0.9304390817265553
 40
0.9392575498436843
 40
0.9460626502117016
 40
0.9528739841548316
 40
0.9596853180449209
 40
0.9664904183405427
 40
0.9748620041756832
 40
0.9832452093029386
 40
0.9916284143180268
 40
1.0
 40
1.0
 40
1.0
 40
1.0
 10
201.3434249197537
 20
399.3421429020194
 30
0.0
 10
201.3042210547226
 20
399.382602984652
 30
0.0
 10
201.2257831563705
 20
399.463554284896
 30
0.0
 10
201.1168903116471
 20
399.5929837165015
 30
0.0
 10
201.0225721043481
 20
399.7175171678016
 30
0.0
 10
200.9419039837747
 20
399.8360019160039
 30
0.0
 10
200.8731022634323
 20
399.9469041304787
 30
0.0
 10
200.8090943088692
 20
400.0606429409974
 30
0.0
 10
200.7441950138137
 20
400.1884417202641
 30
0.0
 10
200.6804178000332
 20
400.3310707240958
 30
0.0
 10
200.6200221340312
 20
400.489015293952
 30
0.0
 10
200.5723642582471
 20
400.6378080705105
 30
0.0
 10
200.5354363588446
 20
400.7763030169367
 30
0.0
 10
200.507227870706
 20
400.9037303251814
 30
0.0
 10
200.4844739825756
 20
401.0322437174638
 30
0.0
 10
200.4655350402307
 20
401.1743203269903
 30
0.0
 10
200.4525631118053
 20
401.3300191742654
 30
0.0
 10
200.4478517323593
 20
401.4990507402701
 30
0.0
 10
200.452130726079
 20
401.6552300850374
 30
0.0
 10
200.4631261960669
 20
401.7981404325595
 30
0.0
 10
200.4786861033199
 20
401.9277208864858
 30
0.0
 10
200.4997525491405
 20
402.0565206877255
 30
0.0
 10
200.5289083224594
 20
402.1968568783736
 30
0.0
 10
200.5682037782493
 20
402.3480727954799
 30
0.0
 10
200.6197074137932
 20
402.5091360482138
 30
0.0
 10
200.6754405667895
 20
402.6550956241463
 30
0.0
 10
200.7331195507904
 20
402.7863109270808
 30
0.0
 10
200.7906934738227
 20
402.9034368359983
 30
0.0
 10
200.8532051411133
 20
403.0180034131768
 30
0.0
 10
200.9271689611792
 20
403.1407789589562
 30
0.0
 10
201.0143024356135
 20
403.2704651130035
 30
0.0
 10
201.1162158338535
 20
403.4054029403719
 30
0.0
 10
201.2171210716209
 20
403.5246882990747
 30
0.0
 10
201.3149821171456
 20
403.6294162595117
 30
0.0
 10
201.408080418203
 20
403.7208836543109
 30
0.0
 10
201.504991075678
 20
403.8083015185156
 30
0.0
 10
201.615425791723
 20
403.8996749982995
 30
0.0
 10
201.7405755416523
 20
403.9932103808709
 30
0.0
 10
201.881410764066
 20
404.0868091823301
 30
0.0
 10
202.0161136850784
 20
404.1659713188067
 30
0.0
 10
202.1431254685251
 20
404.2324040900625
 30
0.0
 10
202.2612536498984
 20
404.2879001049225
 30
0.0
 10
202.3816389812158
 20
404.3383128272114
 30
0.0
 10
202.5160952932749
 20
404.3879814301533
 30
0.0
 10
202.6651527113575
 20
404.4348190893245
 30
0.0
 10
202.8290323714037
 20
404.476524389129
 30
0.0
 10
202.9823468063882
 20
404.5066365073163
 30
0.0
 10
203.1241901402181
 20
404.5272825054383
 30
0.0
 10
203.2540304609528
 20
404.5405486860265
 30
0.0
 10
203.3843181461642
 20
404.5482708589177
 30
0.0
 10
203.5276368658253
 20
404.5506330655115
 30
0.0
 10
203.6837961122562
 20
404.5454906914459
 30
0.0
 10
203.8522427790116
 20
404.5305989225522
 30
0.0
 10
204.0068824102266
 20
404.5082646563435
 30
0.0
 10
204.1475642450275
 20
404.4807949008978
 30
0.0
 10
204.2744769231396
 20
404.4503344287305
 30
0.0
 10
204.3999766420159
 20
404.4144943356719
 30
0.0
 10
204.5359980579907
 20
404.3692831185145
 30
0.0
 10
204.681651540991
 20
404.3127401979116
 30
0.0
 10
204.835672151439
 20
404.2429304857589
 30
0.0
 10
204.9742006652069
 20
404.1706681553063
 30
0.0
 10
205.097858442378
 20
404.0981800411117
 30
0.0
 10
205.2075334150398
 20
404.0274275497256
 30
0.0
 10
205.3140943992367
 20
403.9520664483558
 30
0.0
 10
205.4274817078725
 20
403.8643799967062
 30
0.0
 10
205.5462069348438
 20
403.7628126814419
 30
0.0
 10
205.6684359790336
 20
403.6459572834738
 30
0.0
 10
205.7752346294939
 20
403.53191562148
 30
0.0
 10
205.8679262991183
 20
403.4225832799152
 30
0.0
 10
205.9479980848125
 20
403.3195171444096
 30
0.0
 10
206.023606021184
 20
403.2131330571904
 30
0.0
 10
206.1015757357889
 20
403.0928590346944
 30
0.0
 10
206.1799878715384
 20
402.9577199578534
 30
0.0
 10
206.256645960307
 20
402.8069950685981
 30
0.0
 10
206.3196750646744
 20
402.6640328961902
 30
0.0
 10
206.3709514223367
 20
402.5301840653957
 30
0.0
 10
206.4123936075806
 20
402.4064254197572
 30
0.0
 10
206.4485254467683
 20
402.2810135115372
 30
0.0
 10
206.4822885167856
 20
402.141712738341
 30
0.0
 10
206.5115488778953
 20
401.9882382750526
 30
0.0
 10
206.5339952893299
 20
401.8206370421074
 30
0.0
 10
206.5461505980234
 20
401.6648722023258
 30
0.0
 10
206.5502323242692
 20
401.52159716867
 30
0.0
 10
206.5483742038437
 20
401.3910986373704
 30
0.0
 10
206.5409579618147
 20
401.2607978206486
 30
0.0
 10
206.5267093321785
 20
401.1181746699518
 30
0.0
 10
206.503520334197
 20
400.9636667675342
 30
0.0
 10
206.4692254728659
 20
400.7980834347169
 30
0.0
 10
206.4291374915763
 20
400.6470757227721
 30
0.0
 10
206.3855651953603
 20
400.5105261843445
 30
0.0
 10
206.3406169340523
 20
400.3879990683852
 30
0.0
 10
206.2904893379725
 20
400.2674982805345
 30
0.0
 10
206.2298356205461
 20
400.1376308168516
 30
0.0
 10
206.1568113945678
 20
399.9995073718804
 30
0.0
 10
206.0696410312484
 20
399.8546084788662
 30
0.0
 10
205.9818285974716
 20
399.7253812746912
 30
0.0
 10
205.895513904504
 20
399.610950693204
 30
0.0
 10
205.8125422431287
 20
399.5102076628202
 30
0.0
 10
205.7253538632903
 20
399.4130911443369
 30
0.0
 10
205.6251320327219
 20
399.310619902863
 30
0.0
 10
205.5105039159017
 20
399.2044525658284
 30
0.0
 10
205.3802839711835
 20
399.0965740110055
 30
0.0
 10
205.254645468396
 20
399.003696478535
 30
0.0
 10
205.1353179905749
 20
398.9242859217456
 30
0.0
 10
205.0236757419621
 20
398.8566849636985
 30
0.0
 10
204.9092547568928
 20
398.7939019406846
 30
0.0
 10
204.7807624688922
 20
398.7303802870657
 30
0.0
 10
204.6374524161929
 20
398.668139573452
 30
0.0
 10
204.4788628656624
 20
398.6094452421602
 30
0.0
 10
204.3295618948008
 20
398.5633900247134
 30
0.0
 10
204.1906738531524
 20
398.5279538247827
 30
0.0
 10
204.0629469156883
 20
398.5011177904483
 30
0.0
 10
203.9341925697928
 20
398.4797480171197
 30
0.0
 10
203.7919159175417
 20
398.4623391722893
 30
0.0
 10
203.6360810601325
 20
398.451044041772
 30
0.0
 10
203.4670021623445
 20
398.4481531661701
 30
0.0
 10
203.3108718503427
 20
398.4541144082605
 30
0.0
 10
203.1680824562731
 20
398.4666493685691
 30
0.0
 10
203.0386717462681
 20
398.4836053266289
 30
0.0
 10
202.9101008983286
 20
398.5060595836071
 30
0.0
 10
202.7700816746391
 20
398.536727509432
 30
0.0
 10
202.6192927742964
 20
398.5776523484093
 30
0.0
 10
202.458788801433
 20
398.6308914297725
 30
0.0
 10
202.3134335284242
 20
398.6881975055451
 30
0.0
 10
202.1828429178229
 20
398.7472906619496
 30
0.0
 10
202.0663403934109
 20
398.8061273688418
 30
0.0
 10
201.9524493887821
 20
398.8698734735714
 30
0.0
 10
201.8329073896877
 20
398.9436640333445
 30
0.0
 10
201.7087165270437
 20
399.028783685643
 30
0.0
 10
201.5812825356643
 20
399.126553088434
 30
0.0
 10
201.4586988398086
 20
399.230426879752
 30
0.0
 10
201.3818317908474
 20
399.3049214484223
 30
0.0
 10
201.343424919754
 20
399.3421429020198
 30
0.0
  0
SPLINE
  5
7F
330
1F
100
AcDbEntity
  8
0
  6
Continuous
 62
     7
370
    30
100
AcDbSpline
210
0.0
220
0.0
230
1.0
 70
     8
 71
     3
 72
   139
 73
   135
 74
     0
 42
0.000000001
 43
0.00000001
 40
0.0
 40
0.0
 40
0.0
 40
0.0
 40
0.007455931664386
 40
0.0149133986400033
 40
0.0223713779569343
 40
0.0298288449504032
 40
0.0372847766297647
 40
0.0447407081702958
 40
0.0521981749965485
 40
0.0596561541552293
 40
0.0671136209986432
 40
0.0745695525535702
 40
0.0820254839766023
 40
0.089482950661266
 40
0.0969409296696788
 40
0.1043983963703059
 40
0.1118543278067296
 40
0.1198486825915985
 40
0.1278449299021755
 40
0.135841808860158
 40
0.1438380561895329
 40
0.1518324109901713
 40
0.1592883422046369
 40
0.1667458086383383
 40
0.174203787379554
 40
0.1816612538252867
 40
0.1891171850498453
 40
0.1965731161867561
 40
0.2040305825273447
 40
0.2114885611689417
 40
0.2189460275190777
 40
0.2264019586639976
 40
0.2338578897417142
 40
0.2413153560114116
 40
0.2487733345767491
 40
0.2562308008532218
 40
0.2636867319366223
 40
0.2716810563265448
 40
0.2796772731535493
 40
0.2876741215910082
 40
0.2956703384228843
 40
0.3036646628168935
 40
0.3111207229936316
 40
0.3185783184315881
 40
0.3260364261849842
 40
0.3334940216234142
 40
0.3409500818005496
 40
0.3484061419831067
 40
0.3558637374287191
 40
0.36332184518874
 40
0.370779440631704
 40
0.378235500812039
 40
0.3856915610222108
 40
0.3931491565017737
 40
0.4006072642962564
 40
0.4080648597701242
 40
0.415520919975518
 40
0.4235153947750683
 40
0.4315117621387846
 40
0.4395087611468032
 40
0.4475051284990599
 40
0.4554996032889965
 40
0.4629556924667223
 40
0.4704133169581489
 40
0.4778714537763082
 40
0.4853290782563704
 40
0.4927851674245627
 40
0.5002412566890053
 40
0.5076988812855607
 40
0.5151570182138197
 40
0.522614642796772
 40
0.5300707320498033
 40
0.5375268214154811
 40
0.544984446134602
 40
0.5524425831916014
 40
0.5599002078953152
 40
0.5673562972480685
 40
0.5753508260917637
 40
0.5833472476358451
 40
0.5913443008641269
 40
0.5993407223860874
 40
0.607335251211225
 40
0.6147912020903454
 40
0.6222486882875687
 40
0.6297066868097965
 40
0.6371641729895654
 40
0.6446201238540438
 40
0.6520760748564493
 40
0.6595335612024982
 40
0.6669915598820588
 40
0.6744490462106059
 40
0.6819049971983293
 40
0.6893609483223809
 40
0.6968184348151396
 40
0.7042764336501167
 40
0.7117339201260072
 40
0.7191898712359085
 40
0.7271842659688911
 40
0.7351805534309808
 40
0.7431774725877799
 40
0.7511737600294527
 40
0.7591681547453073
 40
0.7666238706016427
 40
0.7740811217271033
 40
0.7815388851634506
 40
0.7889961362756808
 40
0.7964518521209174
 40
0.8039075680622334
 40
0.8113648192896897
 40
0.8188225828352402
 40
0.8262798340523556
 40
0.833735549984997
 40
0.8411912659890138
 40
0.8486485172914447
 40
0.8561062809179292
 40
0.863563532213544
 40
0.871019248211843
 40
0.8790133869059806
 40
0.8870094182182557
 40
0.8950060811969943
 40
0.9030021125055594
 40
0.9109962511965847
 40
0.9184517735917148
 40
0.9259088311736375
 40
0.9333664010464021
 40
0.9408234586292056
 40
0.9482789810250745
 40
0.9557345034065412
 40
0.9631915609715164
 40
0.9706491308274282
 40
0.978106188395543
 40
0.9855617107796433
 40
0.993017233137543
 40
1.0
 40
1.0
 40
1.0
 40
1.0
 10
215.5741849757063
 20
353.5744201742951
 30
0.0
 10
215.4756687405585
 20
353.6738854507074
 30
0.0
 10
215.2786159839875
 20
353.872836485232
 30
0.0
 10
214.989343317647
 20
354.1774397489576
 30
0.0
 10
214.7047757006708
 20
354.4864624968075
 30
0.0
 10
214.4254789451864
 20
354.8002263377481
 30
0.0
 10
214.1514185065238
 20
355.1185202317604
 30
0.0
 10
213.8826845599661
 20
355.4413245521568
 30
0.0
 10
213.619310028494
 20
355.7685649406644
 30
0.0
 10
213.3613726113706
 20
356.100144186433
 30
0.0
 10
213.1089777797807
 20
356.4359252711324
 30
0.0
 10
212.8622036057328
 20
356.7758107922434
 30
0.0
 10
212.6211035109044
 20
357.119744242381
 30
0.0
 10
212.3857134815457
 20
357.4676567046864
 30
0.0
 10
212.1561004015028
 20
357.8194427208496
 30
0.0
 10
211.9323587259491
 20
358.1749577214949
 30
0.0
 10
211.7093155570645
 20
358.5427419119751
 30
0.0
 10
211.4875313682212
 20
358.9230489205716
 30
0.0
 10
211.267578594458
 20
359.316099184044
 30
0.0
 10
211.054620626122
 20
359.7130230530741
 30
0.0
 10
210.8487582583498
 20
360.1136326357415
 30
0.0
 10
210.6545264650206
 20
360.5087211413968
 30
0.0
 10
210.4714250061568
 20
360.8979335318857
 30
0.0
 10
210.2989326045559
 20
361.2809430935998
 30
0.0
 10
210.1327940019834
 20
361.6667823438326
 30
0.0
 10
209.9730774053034
 20
362.0552926382186
 30
0.0
 10
209.8198336765229
 20
362.4463599262757
 30
0.0
 10
209.6731003359312
 20
362.8399161139271
 30
0.0
 10
209.5328948454807
 20
363.2358854297798
 30
0.0
 10
209.3992554000756
 20
363.6341490156442
 30
0.0
 10
209.2722369621125
 20
364.0345430568451
 30
0.0
 10
209.1518807510834
 20
364.4369497074507
 30
0.0
 10
209.0382185320538
 20
364.8412979958428
 30
0.0
 10
208.93126144056
 20
365.2475109769904
 30
0.0
 10
208.8310376907996
 20
365.6554670073491
 30
0.0
 10
208.7375885617741
 20
366.0649984116882
 30
0.0
 10
208.6488597914125
 20
366.4858756289717
 30
0.0
 10
208.5654641718693
 20
366.9181524746597
 30
0.0
 10
208.4880147971654
 20
367.3618474874897
 30
0.0
 10
208.4184479329086
 20
367.806882520328
 30
0.0
 10
208.3567965047089
 20
368.2530469217941
 30
0.0
 10
208.30429195301
 20
368.690154824898
 30
0.0
 10
208.260344911948
 20
369.1180368066256
 30
0.0
 10
208.2243555300353
 20
369.5365571219393
 30
0.0
 10
208.1952985899672
 20
369.9556446053675
 30
0.0
 10
208.173185948568
 20
370.3751269753126
 30
0.0
 10
208.1580278563805
 20
370.7948797741326
 30
0.0
 10
208.1498371868665
 20
371.2148263255763
 30
0.0
 10
208.1486053441403
 20
371.6348893469939
 30
0.0
 10
208.1543290343024
 20
372.0549440316722
 30
0.0
 10
208.1670059047536
 20
372.4748176003116
 30
0.0
 10
208.1866358509498
 20
372.8943852032953
 30
0.0
 10
208.2132253633604
 20
373.3135693523301
 30
0.0
 10
208.2467594874507
 20
373.7322937496884
 30
0.0
 10
208.2872245885556
 20
374.1504342616249
 30
0.0
 10
208.3346041233526
 20
374.5678189922716
 30
0.0
 10
208.3901938302211
 20
374.9943479655635
 30
0.0
 10
208.4545898148448
 20
375.4298691262422
 30
0.0
 10
208.5283767914323
 20
375.8741970269238
 30
0.0
 10
208.6100458258808
 20
376.3171803190192
 30
0.0
 10
208.699558266236
 20
376.7586093114931
 30
0.0
 10
208.7947039779843
 20
377.1884624708879
 30
0.0
 10
208.8948705965946
 20
377.6067750233933
 30
0.0
 10
208.9994470170292
 20
378.0136174523577
 30
0.0
 10
209.1107529458898
 20
378.4187004616219
 30
0.0
 10
209.2287425495032
 20
378.8218575488266
 30
0.0
 10
209.3533843098044
 20
379.2229678743062
 30
0.0
 10
209.4846650006349
 20
379.6219548178865
 30
0.0
 10
209.6225509340806
 20
380.0187482930772
 30
0.0
 10
209.7669976928609
 20
380.4132316096855
 30
0.0
 10
209.9179458680861
 20
380.805242496895
 30
0.0
 10
210.0753540389745
 20
381.1946631708837
 30
0.0
 10
210.2392026861115
 20
381.5814183567092
 30
0.0
 10
210.4094524456344
 20
381.9654410012009
 30
0.0
 10
210.586049363003
 20
382.3466184709931
 30
0.0
 10
210.7689209284654
 20
382.7247940245132
 30
0.0
 10
210.962567147906
 20
383.1088811374945
 30
0.0
 10
211.1675002336485
 20
383.4985389900701
 30
0.0
 10
211.3842105932125
 20
383.8933990191248
 30
0.0
 10
211.6079138411194
 20
384.2843811429305
 30
0.0
 10
211.8385040901226
 20
384.6713002679386
 30
0.0
 10
212.0705765499508
 20
385.0454282614882
 30
0.0
 10
212.3035648387167
 20
385.4070011705747
 30
0.0
 10
212.5369154490608
 20
385.7562879011053
 30
0.0
 10
212.7760337337936
 20
386.1016869582068
 30
0.0
 10
213.0208213299403
 20
386.4430563935732
 30
0.0
 10
213.2712084989262
 20
386.78029260959
 30
0.0
 10
213.5271574002712
 20
387.113327680076
 30
0.0
 10
213.7886130464623
 20
387.4421066176921
 30
0.0
 10
214.0554948978599
 20
387.7665340091332
 30
0.0
 10
214.3276931803627
 20
388.0864763924266
 30
0.0
 10
214.6051298205948
 20
388.4018363312105
 30
0.0
 10
214.8877614833313
 20
388.7125492520565
 30
0.0
 10
215.1755288276238
 20
389.0185649093916
 30
0.0
 10
215.4683436556752
 20
389.3197948757945
 30
0.0
 10
215.7660856596403
 20
389.6161152438685
 30
0.0
 10
216.0759517927211
 20
389.9144475497407
 30
0.0
 10
216.3983125803681
 20
390.2143006302069
 30
0.0
 10
216.7335087866247
 20
390.5151643600609
 30
0.0
 10
217.0740199545635
 20
390.8100541184794
 30
0.0
 10
217.4196848925279
 20
391.0988302926033
 30
0.0
 10
217.7625127935783
 20
391.3750445999814
 30
0.0
 10
218.1020472651528
 20
391.6391073506372
 30
0.0
 10
218.4378549498762
 20
391.8914555995688
 30
0.0
 10
218.777818090496
 20
392.1382263713286
 30
0.0
 10
219.1217968836159
 20
392.3793182822832
 30
0.0
 10
219.4696912297715
 20
392.6146566614304
 30
0.0
 10
219.8214429367013
 20
392.8441899396781
 30
0.0
 10
220.1769819147137
 20
393.0678844338178
 30
0.0
 10
220.5362005826396
 20
393.2856767729471
 30
0.0
 10
220.898951178824
 20
393.4974773598317
 30
0.0
 10
221.2651277781397
 20
393.7032200974487
 30
0.0
 10
221.6346681130005
 20
393.9028584006762
 30
0.0
 10
222.0074995555672
 20
394.0963645030536
 30
0.0
 10
222.3835096118515
 20
394.2836841620965
 30
0.0
 10
222.7625437442732
 20
394.4647402846592
 30
0.0
 10
223.1536840198165
 20
394.6436818350519
 30
0.0
 10
223.5571174753925
 20
394.8199227211884
 30
0.0
 10
223.972996789092
 20
394.9928688117929
 30
0.0
 10
224.3919137562892
 20
395.1584187028276
 30
0.0
 10
224.813670065493
 20
395.3164940171195
 30
0.0
 10
225.2285919712251
 20
395.4636553735509
 30
0.0
 10
225.6363846623252
 20
395.6004409582095
 30
0.0
 10
226.0367839143558
 20
395.7274065635694
 30
0.0
 10
226.4392579942872
 20
395.8477338495862
 30
0.0
 10
226.8436414362324
 20
395.9613733588117
 30
0.0
 10
227.2498150316919
 20
396.068288040765
 30
0.0
 10
227.6577069375577
 20
396.168447491661
 30
0.0
 10
228.0672393565218
 20
396.2618469074987
 30
0.0
 10
228.4782917165493
 20
396.3484480214118
 30
0.0
 10
228.8906877988882
 20
396.4282677723327
 30
0.0
 10
229.3043324120994
 20
396.5010827073706
 30
0.0
 10
229.7102583137135
 20
396.5661910303938
 30
0.0
 10
229.9787851502231
 20
396.6034809608057
 30
0.0
 10
230.1086523572752
 20
396.6215154305693
 30
0.0
  0
SPLINE
  5
80
330
1F
100
AcDbEntity
  8
0
  6
Continuous
 62
     7
370
    30
100
AcDbSpline
210
0.0
220
0.0
230
1.0
 70
     8
 71
     3
 72
    52
 73
    48
 74
     0
 42
0.000000001
 43
0.00000001
 40
0.0
 40
0.0
 40
0.0
 40
0.0
 40
0.0158148889175562
 40
0.0380447964484608
 40
0.0602762311270482
 40
0.0825061386488311
 40
0.104731469735654
 40
0.1285617441794526
 40
0.1523976600880842
 40
0.1762354588554704
 40
0.2000713747618223
 40
0.2239016492037084
 40
0.2461269786045882
 40
0.2683568844424882
 40
0.2905883174380429
 40
0.3128182232854049
 40
0.3350435526942221
 40
0.3572688819946629
 40
0.379498787708977
 40
0.4017302205792715
 40
0.4239601263145615
 40
0.4461854556325981
 40
0.4684107847542051
 40
0.4906406902505334
 40
0.5128721228952434
 40
0.5351020284229584
 40
0.5573273575708949
 40
0.5811576249327242
 40
0.6049935336019477
 40
0.6288313251064253
 40
0.6526672338286897
 40
0.6764975012350152
 40
0.6987229223887139
 40
0.7209529198532061
 40
0.7431844444526953
 40
0.7654144419637224
 40
0.7876398631564581
 40
0.8098652839701991
 40
0.8320952810235395
 40
0.8543268051901522
 40
0.8765568022939354
 40
0.8987822231499919
 40
0.9210076436025888
 40
0.9432376402196383
 40
0.9654691639257863
 40
0.9876991605950441
 40
1.0
 40
1.0
 40
1.0
 40
1.0
 10
237.935344220359
 20
396.4576612273979
 30
0.0
 10
238.0334094487393
 20
396.4401742110774
 30
0.0
 10
238.2693182604831
 20
396.3981068921179
 30
0.0
 10
238.6416008646292
 20
396.3235181585686
 30
0.0
 10
239.0522579382549
 20
396.2350990276059
 30
0.0
 10
239.4613195177648
 20
396.1396541259758
 30
0.0
 10
239.8785244990428
 20
396.0350621591263
 30
0.0
 10
240.3036377269019
 20
395.9206644239081
 30
0.0
 10
240.7364114705571
 20
395.7959250174803
 30
0.0
 10
241.1669366174872
 20
395.663511661575
 30
0.0
 10
241.5950096928772
 20
395.5234888255915
 30
0.0
 10
242.0109322963371
 20
395.3792118866416
 30
0.0
 10
242.4148103712683
 20
395.2312851234429
 30
0.0
 10
242.8067847081146
 20
395.0803073180476
 30
0.0
 10
243.1962322109609
 20
394.9228498111189
 30
0.0
 10
243.5829928190107
 20
394.7589774152497
 30
0.0
 10
243.9669501646632
 20
394.5887354409749
 30
0.0
 10
244.3480296834524
 20
394.4121459100447
 30
0.0
 10
244.7261656726204
 20
394.2292504110252
 30
0.0
 10
245.1012473877413
 20
394.0401065835661
 30
0.0
 10
245.4731205484318
 20
393.8447922354341
 30
0.0
 10
245.8416729727297
 20
393.6433621592749
 30
0.0
 10
246.206832165159
 20
393.4358444731159
 30
0.0
 10
246.5685360970477
 20
393.2222860516327
 30
0.0
 10
246.9266791632545
 20
393.0027535357008
 30
0.0
 10
247.2811140981173
 20
392.7773371028754
 30
0.0
 10
247.6401725531804
 20
392.540535494637
 30
0.0
 10
248.0034567354737
 20
392.2918795225339
 30
0.0
 10
248.3705438306423
 20
392.0309248683046
 30
0.0
 10
248.7329696755442
 20
391.7634745347171
 30
0.0
 10
249.0905627226414
 20
391.4896551296503
 30
0.0
 10
249.4352826772332
 20
391.2158430354939
 30
0.0
 10
249.7674294490234
 20
390.942573249208
 30
0.0
 10
250.0873340891743
 20
390.6703641894286
 30
0.0
 10
250.4027095187259
 20
390.3928771661318
 30
0.0
 10
250.7134261641845
 20
390.110226321278
 30
0.0
 10
251.0193892121216
 20
389.8224929227045
 30
0.0
 10
251.3205356303889
 20
389.5297224585985
 30
0.0
 10
251.6168170668168
 20
389.2319758254171
 30
0.0
 10
251.908148571623
 20
388.9293444200767
 30
0.0
 10
252.1944085891658
 20
388.6219514081309
 30
0.0
 10
252.4755158788887
 20
388.3098905460703
 30
0.0
 10
252.7513871829277
 20
387.9931939953543
 30
0.0
 10
253.0220696778819
 20
387.6719950737346
 30
0.0
 10
253.2871491464544
 20
387.3461357260261
 30
0.0
 10
253.5089858505801
 20
387.0657317991394
 30
0.0
 10
253.6402375435253
 20
386.8923073786614
 30
0.0
 10
253.6869930287698
 20
386.8305288007952
 30
0.0
  0
SPLINE
  5
81
330
1F
100
AcDbEntity
  8
0
  6
Continuous
 62
     7
370
    30
100
AcDbSpline
210
0.0
220
0.0
230
1.0
 70
     8
 71
     3
 72
   100
 73
    96
 74
     0
 42
0.000000001
 43
0.00000001
 40
0.0
 40
0.0
 40
0.0
 40
0.0
 40
0.008202090806795
 40
0.0187352509275975
 40
0.0292705800285628
 40
0.0398066329027661
 40
0.0503419619783045
 40
0.0608751220777766
 40
0.0714082823760818
 40
0.0819436116911852
 40
0.0924796647920873
 40
0.1030149940823754
 40
0.1135481543598634
 40
0.1240813148292224
 40
0.1346166443505321
 40
0.1451526976700895
 40
0.1556880271679233
 40
0.1662211876175888
 40
0.1775150203159965
 40
0.1888115269191809
 40
0.2001089259332825
 40
0.2114054325082346
 40
0.2226992651829579
 40
0.2332320740746396
 40
0.2437670518645958
 40
0.2543027534040687
 40
0.2648377311754463
 40
0.2753705400515427
 40
0.2859033490647276
 40
0.2964383270006932
 40
0.3069740286960688
 40
0.3175090066166946
 40
0.3280418156170113
 40
0.3385746247275471
 40
0.3491096027802775
 40
0.3596453046008457
 40
0.3701802826419229
 40
0.3807130917426831
 40
0.3920065393073616
 40
0.4033026606113126
 40
0.4145996742805822
 40
0.4258957955746535
 40
0.4371892431310438
 40
0.4477217750188515
 40
0.4582564756992532
 40
0.4687919001020627
 40
0.4793266007793997
 40
0.4898591326646364
 40
0.5003916645612956
 40
0.510926365251501
 40
0.5214617896667241
 40
0.5319964903582141
 40
0.5425290222559508
 40
0.5530615541309034
 40
0.5635962547940337
 40
0.5741316791826602
 40
0.5846663798513868
 40
0.595198911731034
 40
0.606492035549007
 40
0.6177878328652423
 40
0.6290845224783812
 40
0.6403803198076861
 40
0.6516734436366233
 40
0.6622059020942873
 40
0.6727405292644926
 40
0.6832758801392935
 40
0.6938105073233725
 40
0.704342965792675
 40
0.7148754241424342
 40
0.7254100511816931
 40
0.7359454019196601
 40
0.746480028976227
 40
0.7570124873405057
 40
0.7675449455596266
 40
0.7780795724405997
 40
0.7886149230125882
 40
0.7991495499137983
 40
0.8096820081498954
 40
0.8209750208033555
 40
0.8322707067511207
 40
0.8435672849365266
 40
0.8548629709142189
 40
0.8661559835927852
 40
0.8772355803100734
 40
0.8883168600662792
 40
0.8993981398330202
 40
0.9104777365646772
 40
0.9215573331707237
 40
0.9326386127922502
 40
0.9437198924246889
 40
0.9547994890456174
 40
0.9660987242246292
 40
0.9773997445086667
 40
0.9887007648046697
 40
1.0
 40
1.0
 40
1.0
 40
1.0
 10
251.4612705110438
 20
353.6122938872381
 30
0.0
 10
251.3842882859874
 20
353.5351091188255
 30
0.0
 10
251.2084451580129
 20
353.3588033404498
 30
0.0
 10
250.9276578989481
 20
353.0895052344797
 30
0.0
 10
250.6203624735066
 20
352.8031227338971
 30
0.0
 10
250.3081698845307
 20
352.5220285340134
 30
0.0
 10
249.9914348077789
 20
352.246112156121
 30
0.0
 10
249.6701883023964
 20
351.9755189352527
 30
0.0
 10
249.3444990646684
 20
351.7102900475941
 30
0.0
 10
249.0144289033436
 20
351.4504707037647
 30
0.0
 10
248.6800793118933
 20
351.1961340671875
 30
0.0
 10
248.3415875074554
 20
350.9473850817848
 30
0.0
 10
247.9990519661436
 20
350.7043005281531
 30
0.0
 10
247.6525296920968
 20
350.4669333019132
 30
0.0
 10
247.3020899986057
 20
350.2353186446278
 30
0.0
 10
246.9478390570376
 20
350.0095223255649
 30
0.0
 10
246.5899224509922
 20
349.7896372543402
 30
0.0
 10
246.21974411554
 20
349.5705829851894
 30
0.0
 10
245.8370564444625
 20
349.3529227355781
 30
0.0
 10
245.4416451564798
 20
349.1372313301133
 30
0.0
 10
245.0424356545818
 20
348.9285761926837
 30
0.0
 10
244.6396169219177
 20
348.7270561127833
 30
0.0
 10
244.2424489536023
 20
348.5371084811474
 30
0.0
 10
243.8512815249983
 20
348.3582289981081
 30
0.0
 10
243.4664358405558
 20
348.1898926353676
 30
0.0
 10
243.0788291528117
 20
348.0279399403611
 30
0.0
 10
242.6886208353161
 20
347.872437417893
 30
0.0
 10
242.2959254782142
 20
347.7234347094198
 30
0.0
 10
241.9008115747142
 20
347.580968613668
 30
0.0
 10
241.5033550817854
 20
347.4450557864122
 30
0.0
 10
241.103675271027
 20
347.3157331509542
 30
0.0
 10
240.7019365493352
 20
347.1930539110779
 30
0.0
 10
240.2982572036645
 20
347.0770580239454
 30
0.0
 10
239.8927085465288
 20
346.9677765003215
 30
0.0
 10
239.4853676436894
 20
346.8652196539196
 30
0.0
 10
239.0763564478956
 20
346.7694143942877
 30
0.0
 10
238.665843083778
 20
346.6804001978047
 30
0.0
 10
238.2440347580878
 20
346.5962284414295
 30
0.0
 10
237.8108842676152
 20
346.5175125106886
 30
0.0
 10
237.3663796950717
 20
346.444865710686
 30
0.0
 10
236.920620280405
 20
346.3801153583854
 30
0.0
 10
236.473817043162
 20
346.3232921103965
 30
0.0
 10
236.036175406903
 20
346.2755179510627
 30
0.0
 10
235.6078584767285
 20
346.2362013203092
 30
0.0
 10
235.1889955408656
 20
346.2047405531102
 30
0.0
 10
234.7696404249428
 20
346.1802172218813
 30
0.0
 10
234.3499655249487
 20
346.1626413216903
 30
0.0
 10
233.9300953995952
 20
346.152021758463
 30
0.0
 10
233.5101068586649
 20
346.1483705770231
 30
0.0
 10
233.0900770862525
 20
346.1516783451817
 30
0.0
 10
232.670130843795
 20
346.161940418434
 30
0.0
 10
232.2504408713848
 20
346.1791525750058
 30
0.0
 10
231.8311320084878
 20
346.203313358829
 30
0.0
 10
231.412281807724
 20
346.234428419644
 30
0.0
 10
230.9939663986216
 20
346.2724819741479
 30
0.0
 10
230.5763097557202
 20
346.3174590419995
 30
0.0
 10
230.1594835806091
 20
346.3693412183777
 30
0.0
 10
229.733602694076
 20
346.4295310427666
 30
0.0
 10
229.2988255845005
 20
346.4986228865891
 30
0.0
 10
228.8553440052427
 20
346.5771993651099
 30
0.0
 10
228.4132921294664
 20
346.663642039178
 30
0.0
 10
227.9728792083668
 20
346.7579099843075
 30
0.0
 10
227.5441035071348
 20
346.8576847212924
 30
0.0
 10
227.1269231562827
 20
346.9623542562916
 30
0.0
 10
226.7212610406256
 20
347.0713082430033
 30
0.0
 10
226.3174308745367
 20
347.1869713589191
 30
0.0
 10
225.9155986361343
 20
347.3092959676127
 30
0.0
 10
225.515884805414
 20
347.4382492378955
 30
0.0
 10
225.1183658439278
 20
347.5738171047277
 30
0.0
 10
224.7231114568569
 20
347.7159651147319
 30
0.0
 10
224.330237825736
 20
347.8646475857763
 30
0.0
 10
223.9399065452765
 20
348.0198033541126
 30
0.0
 10
223.5522349286527
 20
348.1813897192768
 30
0.0
 10
223.1672980202208
 20
348.3493863369496
 30
0.0
 10
222.7851624269288
 20
348.5237531114026
 30
0.0
 10
222.405940165347
 20
348.7044348698701
 30
0.0
 10
222.0297871541002
 20
348.8913574114314
 30
0.0
 10
221.6478401395908
 20
349.0891158964055
 30
0.0
 10
221.2604453962642
 20
349.2982186884798
 30
0.0
 10
220.8679766769914
 20
349.5191520399219
 30
0.0
 10
220.4794607570658
 20
349.7470346830901
 30
0.0
 10
220.0950813524225
 20
349.9817586369088
 30
0.0
 10
219.7173668916014
 20
350.2217276734326
 30
0.0
 10
219.34631859038
 20
350.466743940028
 30
0.0
 10
218.981916355422
 20
350.7165957209742
 30
0.0
 10
218.6219213093893
 20
350.9727562858353
 30
0.0
 10
218.2664622240489
 20
351.2351368536636
 30
0.0
 10
217.9156347258827
 20
351.5036784557433
 30
0.0
 10
217.5695226179436
 20
351.7783060977994
 30
0.0
 10
217.2282442376987
 20
352.0589180289126
 30
0.0
 10
216.8897094809875
 20
352.3473194922866
 30
0.0
 10
216.5540893549292
 20
352.643545333289
 30
0.0
 10
216.2217240714582
 20
352.9477827375044
 30
0.0
 10
215.8944064675837
 20
353.2574697370105
 30
0.0
 10
215.6809198521907
 20
353.4687755919252
 30
0.0
 10
215.5741849757063
 20
353.5744201742951
 30
0.0
  0
SPLINE
  5
82
330
1F
100
AcDbEntity
  8
0
  6
Continuous
 62
     7
370
    30
100
AcDbSpline
210
0.0
220
0.0
230
1.0
 70
     8
 71
     3
 72
   100
 73
    96
 74
     0
 42
0.000000001
 43
0.00000001
 40
0.0
 40
0.0
 40
0.0
 40
0.0
 40
0.0105781894044574
 40
0.0211651510653923
 40
0.031755049684374
 40
0.0423420113268047
 40
0.0529202007157303
 40
0.0638054438151283
 40
0.0747002462560415
 40
0.0855982499844671
 40
0.0964930523827963
 40
0.1073782954464482
 40
0.1179575337544592
 40
0.128545547043098
 40
0.1391364981868783
 40
0.1497245114234869
 40
0.1603037496878257
 40
0.1711901407974969
 40
0.1820860944418016
 40
0.192985250433842
 40
0.2038812040118438
 40
0.2147675950658585
 40
0.2253467744921143
 40
0.2359347289239092
 40
0.2465256212155917
 40
0.25711357558833
 40
0.2676927549650142
 40
0.2785790882014645
 40
0.289474984005868
 40
0.3003740821731459
 40
0.3112699779185494
 40
0.3221563111054733
 40
0.3327353874605554
 40
0.3433232387161916
 40
0.3539140278057759
 40
0.3645018790198816
 40
0.3750809553401036
 40
0.3859671814438999
 40
0.3968629699630739
 40
0.4077619608086716
 40
0.4186577492968077
 40
0.4295439753745498
 40
0.4401229688193667
 40
0.4507107370371733
 40
0.4613014430613671
 40
0.4718892112665529
 40
0.4824682047007761
 40
0.4933543428354464
 40
0.5042500431912337
 40
0.5151489458262118
 40
0.5260446461851257
 40
0.5369307843224208
 40
0.5475097417553524
 40
0.5580974738609322
 40
0.5686881437554099
 40
0.5792758758791233
 40
0.5898548333272758
 40
0.6007409313104607
 40
0.6116365913480821
 40
0.6225354536266609
 40
0.6334311137011591
 40
0.6443172117152994
 40
0.654896187305504
 40
0.6654839375150087
 40
0.6760746255101133
 40
0.68666237576557
 40
0.6972413513943463
 40
0.7081274651240265
 40
0.7190231408015996
 40
0.7299220186976704
 40
0.7408176944375571
 40
0.751703808219545
 40
0.7622828528940974
 40
0.7728706721974054
 40
0.7834614292967498
 40
0.7940492486599418
 40
0.8046282933847595
 40
0.815514476307957
 40
0.8264102211724341
 40
0.8373091682541668
 40
0.8482049131830057
 40
0.8590910961602284
 40
0.8696702416192191
 40
0.8802581617930682
 40
0.8908490197853667
 40
0.9014369400069222
 40
0.9120160855059569
 40
0.922902372543171
 40
0.9337982216487176
 40
0.9446972729988046
 40
0.9555931221396438
 40
0.9664794092064829
 40
0.9776517913169633
 40
0.9888276178854121
 40
1.0
 40
1.0
 40
1.0
 40
1.0
 10
239.2993946525331
 20
436.8995243142525
 30
0.0
 10
239.2987741192683
 20
436.8352757698341
 30
0.0
 10
239.2975325381445
 20
436.706725401113
 30
0.0
 10
239.2875315836249
 20
436.5140696194187
 30
0.0
 10
239.2716088610878
 20
436.3217860469018
 30
0.0
 10
239.2492029468636
 20
436.1301920135302
 30
0.0
 10
239.2202072123352
 20
435.9376733942645
 30
0.0
 10
239.1843438349423
 20
435.7444088357055
 30
0.0
 10
239.1414734934578
 20
435.5505879068187
 30
0.0
 10
239.0920026793359
 20
435.3582855423256
 30
0.0
 10
239.0360187228965
 20
435.1678379374185
 30
0.0
 10
238.9741619124666
 20
434.9812540700545
 30
0.0
 10
238.9066551460786
 20
434.798627438345
 30
0.0
 10
238.8337902030628
 20
434.6200011704757
 30
0.0
 10
238.7550217950831
 20
434.4438400915911
 30
0.0
 10
238.6704799033632
 20
434.2704349149562
 30
0.0
 10
238.5793807121081
 20
434.0983494954384
 30
0.0
 10
238.4815610482635
 20
433.9278304427161
 30
0.0
 10
238.3769413039672
 20
433.7591066466314
 30
0.0
 10
238.2665951632642
 20
433.594001093355
 30
0.0
 10
238.1507155778681
 20
433.4328024999753
 30
0.0
 10
238.0305764648537
 20
433.277200462056
 30
0.0
 10
237.9064197838017
 20
433.1272089572886
 30
0.0
 10
237.7785358295618
 20
432.9827715291373
 30
0.0
 10
237.6458972136417
 20
432.8426143926278
 30
0.0
 10
237.5087228205078
 20
432.706968849273
 30
0.0
 10
237.3657976342783
 20
432.5747391560134
 30
0.0
 10
237.2170493095111
 20
432.4462120345358
 30
0.0
 10
237.0624784911579
 20
432.3216298237506
 30
0.0
 10
236.9037017725846
 20
432.2023573544425
 30
0.0
 10
236.7409967984636
 20
432.0886032005504
 30
0.0
 10
236.576125179719
 20
431.9815401881436
 30
0.0
 10
236.4093198821897
 20
431.8811013888428
 30
0.0
 10
236.2408361641876
 20
431.7871374088483
 30
0.0
 10
236.0692826784305
 20
431.6987861961388
 30
0.0
 10
235.8949425312962
 20
431.6161935579867
 30
0.0
 10
235.716306517094
 20
431.5387277045548
 30
0.0
 10
235.5334012777085
 20
431.4666831353842
 30
0.0
 10
235.3463076384879
 20
431.4002883085635
 30
0.0
 10
235.1570028108044
 20
431.3402960024805
 30
0.0
 10
234.9658178237515
 20
431.2868111269208
 30
0.0
 10
234.7748030551496
 20
431.2403572521569
 30
0.0
 10
234.5841561776937
 20
431.2007941230609
 30
0.0
 10
234.3940686040685
 20
431.1678962898642
 30
0.0
 10
234.2029422123496
 20
431.1413108653957
 30
0.0
 10
234.011092409196
 20
431.1210817238577
 30
0.0
 10
233.8168859641441
 20
431.1071122431471
 30
0.0
 10
233.6204454981709
 20
431.0996714936874
 30
0.0
 10
233.4219228994104
 20
431.0989482933525
 30
0.0
 10
233.2234330618176
 20
431.1049985142676
 30
0.0
 10
233.0253230727796
 20
431.1178115763739
 30
0.0
 10
232.829700714446
 20
431.1372028794383
 30
0.0
 10
232.6367060901971
 20
431.1629746784685
 30
0.0
 10
232.4464451998859
 20
431.1948509091168
 30
0.0
 10
232.2572935108383
 20
431.2330275164166
 30
0.0
 10
232.0695631683517
 20
431.277441497557
 30
0.0
 10
231.8816810476168
 20
431.3285422717926
 30
0.0
 10
231.6938519182597
 20
431.3865431455201
 30
0.0
 10
231.5062816020599
 20
431.4515720107523
 30
0.0
 10
231.3209842386581
 20
431.5229815592696
 30
0.0
 10
231.1382838408183
 20
431.6006469189667
 30
0.0
 10
230.9601079422016
 20
431.6836963625819
 30
0.0
 10
230.7865233069821
 20
431.7718969544014
 30
0.0
 10
230.6175385982112
 20
431.8649531418629
 30
0.0
 10
230.4516860323331
 20
431.9635873852729
 30
0.0
 10
230.2892393013132
 20
432.0676369108263
 30
0.0
 10
230.1288627292446
 20
432.1780464995456
 30
0.0
 10
229.9708201444515
 20
432.2949496491593
 30
0.0
 10
229.8153480952944
 20
432.418398911683
 30
0.0
 10
229.6641329038947
 20
432.5471167943015
 30
0.0
 10
229.5174389802449
 20
432.680878215938
 30
0.0
 10
229.3767964189498
 20
432.8182228008865
 30
0.0
 10
229.24219114169
 20
432.9589086731751
 30
0.0
 10
229.1135335211875
 20
433.1026540992928
 30
0.0
 10
228.9896778756746
 20
433.2506264153835
 30
0.0
 10
228.8708285891506
 20
433.402581430137
 30
0.0
 10
228.756038005325
 20
433.5598527744608
 30
0.0
 10
228.6455992674122
 20
433.722479092114
 30
0.0
 10
228.539752983918
 20
433.890431675123
 30
0.0
 10
228.439667561038
 20
434.0619468716909
 30
0.0
 10
228.3455180006982
 20
434.2367247695203
 30
0.0
 10
228.2582646678362
 20
434.4128810272944
 30
0.0
 10
228.1778142366366
 20
434.5901920747555
 30
0.0
 10
228.1039888984032
 20
434.7684217353995
 30
0.0
 10
228.036094033471
 20
434.9490505855432
 30
0.0
 10
227.9742416642385
 20
435.131780546013
 30
0.0
 10
227.9179790431021
 20
435.3181837615867
 30
0.0
 10
227.8675953813156
 20
435.5081996673284
 30
0.0
 10
227.8233089978239
 20
435.7017215339991
 30
0.0
 10
227.7856357799017
 20
435.8966983578331
 30
0.0
 10
227.754652364934
 20
436.092789229899
 30
0.0
 10
227.730160514084
 20
436.2914740843579
 30
0.0
 10
227.712586091467
 20
436.4925865195592
 30
0.0
 10
227.7014626485113
 20
436.6959298546486
 30
0.0
 10
227.7000839136926
 20
436.8316664679263
 30
0.0
 10
227.699394652533
 20
436.8995243142525
 30
0.0
  0
SPLINE
  5
83
330
1F
100
AcDbEntity
  8
0
  6
Continuous
 62
     7
370
    30
100
AcDbSpline
210
0.0
220
0.0
230
1.0
 70
    24
 71
     3
 72
    14
 73
    10
 74
     0
 42
0.000000001
 43
0.00000001
 40
0.0
 40
0.0
 40
0.0
 40
0.0
 40
0.0399811332136336
 40
0.1999189220089065
 40
0.359856710824193
 40
0.5198923120791991
 40
0.6799279133750171
 40
0.8399639566393506
 40
1.0
 40
1.0
 40
1.0
 40
1.0
 10
239.2993946525331
 20
459.6359293685833
 30
0.0
 10
239.2993946525331
 20
459.3329274889859
 30
0.0
 10
239.2993946525331
 20
457.8178176292403
 30
0.0
 10
239.2993946525331
 20
455.0905702849695
 30
0.0
 10
239.2993946525331
 20
451.4534481250163
 30
0.0
 10
239.2993946525331
 20
447.8155582104053
 30
0.0
 10
239.2993946525331
 20
444.1769024577438
 30
0.0
 10
239.2993946525331
 20
440.5382251487233
 30
0.0
 10
239.2993946525331
 20
438.1124245926527
 30
0.0
 10
239.2993946525331
 20
436.8995243142525
 30
0.0
  0
SPLINE
  5
84
330
1F
100
AcDbEntity
  8
0
  6
Continuous
 62
     7
370
    30
100
AcDbSpline
210
0.0
220
0.0
230
1.0
 70
     8
 71
     3
 72
    72
 73
    68
 74
     0
 42
0.000000001
 43
0.00000001
 40
0.0
 40
0.0
 40
0.0
 40
0.0
 40
0.0152433896660678
 40
0.0304994200669388
 40
0.0457596825674138
 40
0.0610157128894406
 40
0.0762591024893215
 40
0.0919449550779872
 40
0.1076445827830442
 40
0.1233488234589377
 40
0.1390484508757023
 40
0.1547343032223623
 40
0.1699792070153318
 40
0.1852367560852543
 40
0.2004985386070868
 40
0.2157560872694672
 40
0.231000990720338
 40
0.2466885271339543
 40
0.2623898444134741
 40
0.2780957764453345
 40
0.2937970931508831
 40
0.3094846290826802
 40
0.3247290903680999
 40
0.3399861973227136
 40
0.3552475377823672
 40
0.3705046441789597
 40
0.3857491049959705
 40
0.4014362155021651
 40
0.417137107513533
 40
0.4328426144763301
 40
0.4485435058822941
 40
0.4642306158802828
 40
0.4794741451333525
 40
0.4947303192894635
 40
0.509990726745988
 40
0.5252469004425113
 40
0.5404904293097991
 40
0.5561765784213807
 40
0.5718765079325847
 40
0.5875810521509868
 40
0.6032809812966508
 40
0.618967130101379
 40
0.6342097859496802
 40
0.6494650854451621
 40
0.6647246179805018
 40
0.6799799173213052
 40
0.6952225730397674
 40
0.7109077983354012
 40
0.7266068020495766
 40
0.7423104200187778
 40
0.7580094237717377
 40
0.7736946490999288
 40
0.7889368817836586
 40
0.8041917569308286
 40
0.8194508649176802
 40
0.834705740284675
 40
0.8499479731529275
 40
0.8656327263881207
 40
0.881331256072851
 40
0.8970343995545892
 40
0.9127329296647902
 40
0.928417683257144
 40
0.9436601333914827
 40
0.9589152254103792
 40
0.9741745502191892
 40
0.989429642733346
 40
1.0
 40
1.0
 40
1.0
 40
1.0
 10
227.699394652533
 20
465.9995243142525
 30
0.0
 10
227.7000152367572
 20
466.0637755228212
 30
0.0
 10
227.7012569198313
 20
466.1923312209223
 30
0.0
 10
227.7112587002326
 20
466.3849949710869
 30
0.0
 10
227.7271827439258
 20
466.5772864885838
 30
0.0
 10
227.7495905251041
 20
466.7688884352384
 30
0.0
 10
227.7785886806114
 20
466.9614149753064
 30
0.0
 10
227.8144550569368
 20
467.1546874584706
 30
0.0
 10
227.8573290004769
 20
467.3485163084025
 30
0.0
 10
227.9068040077865
 20
467.5408265361277
 30
0.0
 10
227.9627927577289
 20
467.7312819314825
 30
0.0
 10
228.0246549357522
 20
467.9178734731159
 30
0.0
 10
228.0921676448936
 20
468.1005076536475
 30
0.0
 10
228.1650391051969
 20
468.2791413306986
 30
0.0
 10
228.2438146570591
 20
468.4553096878306
 30
0.0
 10
228.3283643268817
 20
468.6287219828841
 30
0.0
 10
228.4194720606359
 20
468.8008144751037
 30
0.0
 10
228.5173010837303
 20
468.9713405217106
 30
0.0
 10
228.621931047307
 20
469.1400711912474
 30
0.0
 10
228.7322881427999
 20
469.3051833235892
 30
0.0
 10
228.8481794141285
 20
469.4663881509146
 30
0.0
 10
228.9683298633514
 20
469.6219947253329
 30
0.0
 10
229.0924973735056
 20
469.7719891568705
 30
0.0
 10
229.2203914950412
 20
469.9164280067286
 30
0.0
 10
229.3530407505086
 20
470.0565862969474
 30
0.0
 10
229.4902262469423
 20
470.1922326833715
 30
0.0
 10
229.6331632499385
 20
470.3244630038406
 30
0.0
 10
229.781924151012
 20
470.4529904678211
 30
0.0
 10
229.9365083294328
 20
470.5775726683129
 30
0.0
 10
230.095298909763
 20
470.6968446050544
 30
0.0
 10
230.2580182076512
 20
470.8105976476119
 30
0.0
 10
230.4229015282712
 20
470.9176570380006
 30
0.0
 10
230.5897156569784
 20
471.0180900219245
 30
0.0
 10
230.7582051172629
 20
471.1120463420392
 30
0.0
 10
230.9297643743542
 20
471.2003898028685
 30
0.0
 10
231.1041103036999
 20
471.2829745730415
 30
0.0
 10
231.2827523258823
 20
471.3604324138444
 30
0.0
 10
231.4656638068691
 20
471.4324687685407
 30
0.0
 10
231.6527639125058
 20
471.4988551342093
 30
0.0
 10
231.8420751725805
 20
471.5588387263768
 30
0.0
 10
232.0332665123106
 20
471.6123146161354
 30
0.0
 10
232.2242842017056
 20
471.6587585060245
 30
0.0
 10
232.4149304540266
 20
471.6983110238561
 30
0.0
 10
232.6050137856243
 20
471.7311980095226
 30
0.0
 10
232.7961356590845
 20
471.7577729444226
 30
0.0
 10
232.987980662385
 20
471.7779919601437
 30
0.0
 10
233.1821820674978
 20
471.7919515928021
 30
0.0
 10
233.3786172400755
 20
471.7993827697234
 30
0.0
 10
233.5771342785302
 20
471.8000966831223
 30
0.0
 10
233.7756182395732
 20
471.7940375623184
 30
0.0
 10
233.9737220272079
 20
471.7812160060187
 30
0.0
 10
234.1693362649758
 20
471.7618168673472
 30
0.0
 10
234.3623208722913
 20
471.7360380857764
 30
0.0
 10
234.552569900658
 20
471.7041559174979
 30
0.0
 10
234.7417094795025
 20
471.6659741443611
 30
0.0
 10
234.9294274908353
 20
471.6215557926727
 30
0.0
 10
235.117296914061
 20
471.5704514321079
 30
0.0
 10
235.3051130049654
 20
471.5124478374883
 30
0.0
 10
235.4926698953794
 20
471.4474170742129
 30
0.0
 10
235.6779538920292
 20
471.3760068437811
 30
0.0
 10
235.8606400986472
 20
471.2983406989934
 30
0.0
 10
236.0388053633748
 20
471.215294989761
 30
0.0
 10
236.2123702971789
 20
471.1270843924061
 30
0.0
 10
236.3813726953369
 20
471.0340712770323
 30
0.0
 10
236.5471065060356
 20
470.9352845021183
 30
0.0
 10
236.6933167117941
 20
470.8423810290791
 30
0.0
 10
236.7826195766042
 20
470.7801232821994
 30
0.0
 10
236.8191712414925
 20
470.7546411847831
 30
0.0
  0
SPLINE
  5
85
330
1F
100
AcDbEntity
  8
0
  6
Continuous
 62
     7
370
    30
100
AcDbSpline
210
0.0
220
0.0
230
1.0
 70
    24
 71
     3
 72
    15
 73
    11
 74
     0
 42
0.000000001
 43
0.00000001
 40
0.0
 40
0.0
 40
0.0
 40
0.0
 40
0.1250382119516597
 40
0.250076423828068
 40
0.3751149804586204
 40
0.5001535370572838
 40
0.6251149793817341
 40
0.7500764216905512
 40
0.8750382108495458
 40
1.0
 40
1.0
 40
1.0
 40
1.0
 10
227.699394652533
 20
436.8995243142525
 30
0.0
 10
227.699394652533
 20
438.1124212483247
 30
0.0
 10
227.699394652533
 20
440.5382151157392
 30
0.0
 10
227.699394652533
 20
444.1768890391733
 30
0.0
 10
227.699394652533
 20
447.8155482861009
 30
0.0
 10
227.699394652533
 20
451.4534409790531
 30
0.0
 10
227.699394652533
 20
455.0905618085312
 30
0.0
 10
227.699394652533
 20
458.7269106976339
 30
0.0
 10
227.699394652533
 20
462.3632362557274
 30
0.0
 10
227.699394652533
 20
464.7874282947717
 30
0.0
 10
227.699394652533
 20
465.9995243142525
 30
0.0
  0
SPLINE
  5
86
330
1F
100
AcDbEntity
  8
0
  6
Continuous
 62
     7
370
    30
100
AcDbSpline
210
0.0
220
0.0
230
1.0
 70
    24
 71
     3
 72
    31
 73
    27
 74
     0
 42
0.000000001
 43
0.00000001
 40
0.0
 40
0.0
 40
0.0
 40
0.0
 40
0.0416588033066527
 40
0.0833176945374703
 40
0.1249766307980219
 40
0.1666355683179839
 40
0.2082944624551361
 40
0.2499532676993494
 40
0.2916120543594348
 40
0.3332709259966403
 40
0.3749298407902071
 40
0.416588756371687
 40
0.4582476298271553
 40
0.4999064176994184
 40
0.5415652022918828
 40
0.5832240724655803
 40
0.6248829847651243
 40
0.666541896277727
 40
0.7082007646354042
 40
0.7498595480171858
 40
0.7915495504803883
 40
0.8332396420354374
 40
0.8749297770695192
 40
0.9166199108403635
 40
0.9583099994802461
 40
1.0
 40
1.0
 40
1.0
 40
1.0
 10
312.4993946480379
 20
312.4995243079663
 30
0.0
 10
310.3055687830035
 20
312.4995243079663
 30
0.0
 10
305.9179124226937
 20
312.4995243079663
 30
0.0
 10
299.3362251810764
 20
312.4995243079662
 30
0.0
 10
292.7544044433458
 20
312.4995243079663
 30
0.0
 10
286.1724562934863
 20
312.4995243079662
 30
0.0
 10
279.5904061902096
 20
312.4995243079663
 30
0.0
 10
273.0082682271213
 20
312.4995243079663
 30
0.0
 10
266.4260500597795
 20
312.4995243079663
 30
0.0
 10
259.8437585136402
 20
312.4995243079662
 30
0.0
 10
253.2614062580266
 20
312.4995243079662
 30
0.0
 10
246.6790135913572
 20
312.4995243079663
 30
0.0
 10
240.0966008107387
 20
312.4995243079663
 30
0.0
 10
233.514181565181
 20
312.4995243079663
 30
0.0
 10
226.9317624625366
 20
312.4995243079662
 30
0.0
 10
220.3493501103375
 20
312.4995243079662
 30
0.0
 10
213.7669578117186
 20
312.4995243079663
 30
0.0
 10
207.1846058632103
 20
312.4995243079662
 30
0.0
 10
200.6023145624831
 20
312.4995243079663
 30
0.0
 10
194.0184533214365
 20
312.4995243079662
 30
0.0
 10
187.4330290235549
 20
312.4995243079662
 30
0.0
 10
180.8460494239131
 20
312.4995243079662
 30
0.0
 10
174.2591718825649
 20
312.4995243079663
 30
0.0
 10
167.6724219121216
 20
312.4995243079662
 30
0.0
 10
161.0858056212643
 20
312.4995243079662
 30
0.0
 10
156.694863425593
 20
312.4995243079663
 30
0.0
 10
154.4993946480378
 20
312.4995243079662
 30
0.0
  0
SPLINE
  5
87
330
1F
100
AcDbEntity
  8
0
  6
Continuous
 62
     7
370
    30
100
AcDbSpline
210
0.0
220
0.0
230
1.0
 70
    24
 71
     3
 72
    31
 73
    27
 74
     0
 42
0.000000001
 43
0.00000001
 40
0.0
 40
0.0
 40
0.0
 40
0.0
 40
0.0416587951306543
 40
0.0833176782244122
 40
0.1249766063392619
 40
0.166635535680387
 40
0.2082944216040143
 40
0.2499532186212522
 40
0.2916119976487225
 40
0.3332708617980619
 40
0.3749297691483632
 40
0.4165886772538089
 40
0.4582475431457911
 40
0.4999063233350258
 40
0.5415651003808589
 40
0.5832239631275442
 40
0.6248828680875377
 40
0.6665417722933243
 40
0.708200633299531
 40
0.7498594091850425
 40
0.7915494347393143
 40
0.833239549399139
 40
0.874929707572902
 40
0.9166198645166685
 40
0.9583099763380367
 40
1.0
 40
1.0
 40
1.0
 40
1.0
 10
154.4993946480378
 20
511.4995243079663
 30
0.0
 10
156.6932199182244
 20
511.4995243079663
 30
0.0
 10
161.080875090889
 20
511.4995243079663
 30
0.0
 10
167.6625606416759
 20
511.4995243079664
 30
0.0
 10
174.2443797703985
 20
511.4995243079663
 30
0.0
 10
180.826326402667
 20
511.4995243079663
 30
0.0
 10
187.4083750829989
 20
511.4995243079663
 30
0.0
 10
193.9905117509669
 20
511.4995243079663
 30
0.0
 10
200.5727287623879
 20
511.4995243079663
 30
0.0
 10
207.1550192907637
 20
511.4995243079664
 30
0.0
 10
213.7373706206764
 20
511.4995243079663
 30
0.0
 10
220.3197624262589
 20
511.4995243079663
 30
0.0
 10
226.9021743825268
 20
511.4995243079663
 30
0.0
 10
233.4845928268495
 20
511.4995243079663
 30
0.0
 10
240.0670111355382
 20
511.4995243079663
 30
0.0
 10
246.6494226852107
 20
511.4995243079663
 30
0.0
 10
253.2318141447287
 20
511.4995243079663
 30
0.0
 10
259.8141651896601
 20
511.4995243079663
 30
0.0
 10
266.3964554948623
 20
511.4995243079663
 30
0.0
 10
272.980317244602
 20
511.4995243079663
 30
0.0
 10
279.5657435541901
 20
511.4995243079663
 30
0.0
 10
286.1527266797346
 20
511.4995243079663
 30
0.0
 10
292.7396076520853
 20
511.4995243079663
 30
0.0
 10
299.3263609618058
 20
511.4995243079663
 30
0.0
 10
305.912980509793
 20
511.4995243079663
 30
0.0
 10
310.3039248161659
 20
511.4995243079663
 30
0.0
 10
312.4993946480379
 20
511.4995243079663
 30
0.0
  0
ARC
  5
88
330
1F
100
AcDbEntity
  8
0
  6
Continuous
 62
     7
370
    30
100
AcDbCircle
 10
312.4993879884
 20
312.9995220881
 30
0.0
 40
0.4999977801711549
100
AcDbArc
 50
270.000763144
 51
359.9950526708
  0
ARC
  5
89
330
1F
100
AcDbEntity
  8
0
  6
Continuous
 62
     7
370
    30
100
AcDbCircle
 10
154.4994013073
 20
312.9995220877
 30
0.0
 40
0.4999977797935541
100
AcDbArc
 50
180.004947286
 51
269.9992368993
  0
ARC
  5
8A
330
1F
100
AcDbEntity
  8
0
  6
Continuous
 62
     7
370
    30
100
AcDbCircle
 10
312.4993868495
 20
510.9995269072
 30
0.0
 40
0.4999974007968093
100
AcDbArc
 50
0.0054235122
 51
89.9991063538
  0
ARC
  5
8B
330
1F
100
AcDbEntity
  8
0
  6
Continuous
 62
     7
370
    30
100
AcDbCircle
 10
154.499394648
 20
510.999524308
 30
0.0
 40
0.4999999999999432
100
AcDbArc
 50
90.0
 51
180.0
  0
ARC
  5
8C
330
1F
100
AcDbEntity
  8
0
  6
Continuous
 62
     7
370
    30
100
AcDbCircle
 10
233.9654365116
 20
465.8218049904
 30
0.0
 40
5.699999999999989
100
AcDbArc
 50
0.0
 51
180.0
  0
LINE
  5
8D
330
1F
100
AcDbEntity
  8
0
  6
Continuous
 62
     7
370
    30
100
AcDbLine
 10
228.2654365116
 20
436.8218049904
 30
0.0
 11
228.2654365116
 21
465.8218049904
 31
0.0
  0
LINE
  5
8E
330
1F
100
AcDbEntity
  8
0
  6
Continuous
 62
     7
370
    30
100
AcDbLine
 10
239.6654365116
 20
465.8218049904
 30
0.0
 11
239.6654365116
 21
459.5906817212
 31
0.0
  0
ARC
  5
8F
330
1F
100
AcDbEntity
  8
0
  6
Continuous
 62
     7
370
    30
100
AcDbCircle
 10
233.9654365116
 20
436.8218049904
 30
0.0
 40
5.700000000000061
100
AcDbArc
 50
180.0
 51
270.5468965567
  0
ARC
  5
90
330
1F
100
AcDbEntity
  8
0
  6
Continuous
 62
     7
370
    30
100
AcDbCircle
 10
233.9654365071
 20
371.4683486178
 30
0.0
 40
25.00000000000007
100
AcDbArc
 50
100.5403350911
 51
225.0
  0
ARC
  5
91
330
1F
100
AcDbEntity
  8
0
  6
Continuous
 62
     7
370
    30
100
AcDbCircle
 10
233.9654365071
 20
371.4683486178
 30
0.0
 40
25.00000000000006
100
AcDbArc
 50
225.0
 51
79.4038678761
  0
ARC
  5
92
330
1F
100
AcDbEntity
  8
0
  6
Continuous
 62
     7
370
    30
100
AcDbCircle
 10
233.9654365071
 20
371.4683486178
 30
0.0
 40
24.99990328147737
100
AcDbArc
 50
100.5715905652
 51
79.372612402
  0
LINE
  5
93
330
1F
100
AcDbEntity
  8
0
  6
Continuous
 62
     7
370
    30
100
AcDbLine
 10
237.7603692558
 20
398.1063810371
 30
0.0
 11
237.7603692558
 21
397.0222835512
 31
0.0
  0
LINE
  5
94
330
1F
100
AcDbEntity
  8
0
  6
Continuous
 62
     7
370
    30
100
AcDbLine
 10
231.1953915216
 20
399.1063810371
 30
0.0
 11
236.7603692558
 21
399.1063810371
 31
0.0
  0
ARC
  5
95
330
1F
100
AcDbEntity
  8
0
  6
Continuous
 62
     7
370
    30
100
AcDbCircle
 10
238.7603692558
 20
397.0222835512
 30
0.0
 40
1.000000000000013
100
AcDbArc
 50
180.0
 51
259.372612402
  0
ARC
  5
96
330
1F
100
AcDbEntity
  8
0
  6
Continuous
 62
     7
370
    30
100
AcDbCircle
 10
229.1953915216
 20
397.0269409398
 30
0.0
 40
1.000000000000007
100
AcDbArc
 50
280.5715905652
 51
0.0
  0
LINE
  5
97
330
1F
100
AcDbEntity
  8
0
  6
Continuous
 62
     7
370
    30
100
AcDbLine
 10
230.1953915216
 20
397.0269409398
 30
0.0
 11
230.1953915216
 21
398.1063810371
 31
0.0
  0
ARC
  5
98
330
1F
100
AcDbEntity
  8
0
  6
Continuous
 62
     7
370
    30
100
AcDbCircle
 10
231.1953915216
 20
398.1063810371
 30
0.0
 40
1.0
100
AcDbArc
 50
90.0
 51
180.0
  0
ARC
  5
99
330
1F
100
AcDbEntity
  8
0
  6
Continuous
 62
     7
370
    30
100
AcDbCircle
 10
236.7603692558
 20
398.1063810371
 30
0.0
 40
1.0
100
AcDbArc
 50
0.0
 51
90.0
  0
LWPOLYLINE
  5
9A
330
1F
100
AcDbEntity
  8
0
  6
Continuous
 62
     7
370
    30
100
AcDbPolyline
 90
        4
 70
   128
 43
0.0
 10
407.608761994
 20
396.848877798
 10
407.6108191671
 20
397.9421089083
 10
407.6126020508
 20
399.0353405005
 10
407.6128602224
 20
399.209141342
  0
LWPOLYLINE
  5
9B
330
1F
100
AcDbEntity
  8
0
  6
Continuous
 62
     7
370
    30
100
AcDbPolyline
 90
        3
 70
   128
 43
0.0
 10
407.6171645816
 20
403.78774101
 10
407.6174021235
 20
404.5015032783
 10
407.6175392684
 20
405.5947363156
  0
ARC
  5
9C
330
1F
100
AcDbEntity
  8
0
  6
Continuous
 62
     7
370
    30
100
AcDbCircle
 10
-3949.664367625
 20
405.5947363156
 30
0.0
 40
4357.281906893375
100
AcDbArc
 50
358.7886319249
 51
359.2183068025
  0
ARC
  5
9D
330
1F
100
AcDbEntity
  8
0
  6
Continuous
 62
     7
370
    30
100
AcDbCircle
 10
-3949.664367625
 20
416.8357698054
 30
0.0
 40
4357.281906893377
100
AcDbArc
 50
0.7227594404
 51
1.2320029447
  0
ARC
  5
9E
330
1F
100
AcDbEntity
  8
0
  6
Continuous
 62
     7
370
    30
100
AcDbCircle
 10
-3949.664367625
 20
416.8357698054
 30
0.0
 40
4357.281906893376
100
AcDbArc
 50
0.0
 51
0.1875623973
  0
LINE
  5
9F
330
1F
100
AcDbEntity
  8
0
  6
Continuous
 62
     7
370
    30
100
AcDbLine
 10
407.6175392684
 20
405.5947363156
 30
0.0
 11
407.6175392684
 21
416.8357698054
 31
0.0
  0
ARC
  5
A0
330
1F
100
AcDbEntity
  8
0
  6
Continuous
 62
     7
370
    30
100
AcDbCircle
 10
405.6439480115
 20
313.499524308
 30
0.0
 40
1.000000000000002
100
AcDbArc
 50
270.0
 51
358.7869214703
  0
ARC
  5
A1
330
1F
100
AcDbEntity
  8
0
  6
Continuous
 62
     7
370
    30
100
AcDbCircle
 10
405.6104978019
 20
510.499524308
 30
0.0
 40
1.00000000000002
100
AcDbArc
 50
1.2329652453
 51
90.0
  0
ARC
  5
A2
330
1F
100
AcDbEntity
  8
0
  6
Continuous
 62
     7
370
    30
100
AcDbCircle
 10
407.5700709546
 20
399.299524308
 30
0.0
 40
0.0999999999999929
100
AcDbArc
 50
255.0
 51
353.6528190481
  0
ARC
  5
A3
330
1F
100
AcDbEntity
  8
0
  6
Continuous
 62
     7
370
    30
100
AcDbCircle
 10
407.5700709546
 20
403.699524308
 30
0.0
 40
0.1000000000000478
100
AcDbArc
 50
6.3471809519
 51
105.0
  0
LINE
  5
A4
330
1F
100
AcDbEntity
  8
0
  6
Continuous
 62
     7
370
    30
100
AcDbLine
 10
407.5441890501
 20
403.7961168906
 30
0.0
 11
407.5323982105
 21
403.7929575446
 31
0.0
  0
LINE
  5
A5
330
1F
100
AcDbEntity
  8
0
  6
Continuous
 62
     7
370
    30
100
AcDbLine
 10
407.5238784493
 20
399.2083739344
 30
0.0
 11
407.5441890501
 21
399.2029317253
 31
0.0
  0
ARC
  5
A6
330
1F
100
AcDbEntity
  8
0
  6
Continuous
 62
     7
370
    30
100
AcDbCircle
 10
387.7920528537
 20
401.499524308
 30
0.0
 40
19.99999999999993
100
AcDbArc
 50
353.6528190481
 51
6.3471809519
  0
ARC
  5
A7
330
1F
100
AcDbEntity
  8
0
  6
Continuous
 62
     7
370
    30
100
AcDbCircle
 10
407.635495886
 20
399.299524308
 30
0.0
 40
0.1000000000000121
100
AcDbArc
 50
256.9112797902
 51
353.652819048
  0
ARC
  5
A8
330
1F
100
AcDbEntity
  8
0
  6
Continuous
 62
     7
370
    30
100
AcDbCircle
 10
407.635495886
 20
403.699524308
 30
0.0
 40
0.1000000000000058
100
AcDbArc
 50
6.3471809519
 51
100.5603631519
  0
ARC
  5
A9
330
1F
100
AcDbEntity
  8
0
  6
Continuous
 62
     7
370
    30
100
AcDbCircle
 10
387.857477785
 20
401.499524308
 30
0.0
 40
19.99999999999999
100
AcDbArc
 50
353.6528190481
 51
6.3471809519
  0
LINE
  5
AA
330
1F
100
AcDbEntity
  8
0
  6
Continuous
 62
     7
370
    30
100
AcDbLine
 10
407.4039142767
 20
471.5218049904
 30
0.0
 11
407.2740301808
 21
471.5218049904
 31
0.0
  0
LINE
  5
AB
330
1F
100
AcDbEntity
  8
0
  6
Continuous
 62
     7
370
    30
100
AcDbLine
 10
415.4685152525
 20
396.4683486178
 30
0.0
 11
407.6066016071
 21
396.4683486178
 31
0.0
  0
LINE
  5
AC
330
1F
100
AcDbEntity
  8
0
  6
Continuous
 62
     7
370
    30
100
AcDbLine
 10
407.2146778254
 20
346.4683486178
 30
0.0
 11
415.4685152525
 21
346.4683486178
 31
0.0
  0
LWPOLYLINE
  5
AD
330
1F
100
AcDbEntity
  8
0
  6
Continuous
 62
     7
370
    30
100
AcDbPolyline
 90
        3
 70
   128
 43
0.0
 10
415.4685152525
 20
346.4683486178
 10
415.5041848441
 20
346.4696225605
 10
415.5392954823
 20
346.4733838119
  0
LWPOLYLINE
  5
AE
330
1F
100
AcDbEntity
  8
0
  6
Continuous
 62
     7
370
    30
100
AcDbPolyline
 90
        3
 70
   128
 43
0.0
 10
415.5392954823
 20
396.4633134237
 10
415.5041848441
 20
396.4670746751
 10
415.4685152525
 20
396.4683486178
  0
LINE
  5
AF
330
1F
100
AcDbEntity
  8
0
  6
Continuous
 62
     7
370
    30
100
AcDbLine
 10
415.5392954823
 20
346.4684453363
 30
0.0
 11
439.0392954823
 21
346.4684453363
 31
0.0
  0
LINE
  5
B0
330
1F
100
AcDbEntity
  8
0
  6
Continuous
 62
     7
370
    30
100
AcDbLine
 10
418.8361834854
 20
396.4682518993
 30
0.0
 11
415.5392954823
 21
396.4682518993
 31
0.0
  0
ARC
  5
B1
330
1F
100
AcDbEntity
  8
0
  6
Continuous
 62
     7
370
    30
100
AcDbCircle
 10
439.0392954823
 20
347.4684453363
 30
0.0
 40
1.0
100
AcDbArc
 50
270.0
 51
0.0
  0
ARC
  5
B2
330
1F
100
AcDbEntity
  8
0
  6
Continuous
 62
     7
370
    30
100
AcDbCircle
 10
430.5392954823
 20
397.4682518993
 30
0.0
 40
1.0
100
AcDbArc
 50
322.8339477443
 51
0.0
  0
SPLINE
  5
B3
330
1F
100
AcDbEntity
  8
0
  6
Continuous
 62
     7
370
    30
100
AcDbSpline
210
0.0
220
0.0
230
1.0
 70
     8
 71
     3
 72
    71
 73
    67
 74
     0
 42
0.000000001
 43
0.00000001
 40
0.0
 40
0.0
 40
0.0
 40
0.0
 40
0.0180249453396725
 40
0.0360637612958186
 40
0.0540887064962556
 40
0.0679983150510783
 40
0.081920664514471
 40
0.0958430139305162
 40
0.1097526224207145
 40
0.1277775690243431
 40
0.1458163865252894
 40
0.163841333108214
 40
0.1777509474123736
 40
0.1916733027032221
 40
0.2055956580197243
 40
0.2195052723588992
 40
0.2375301613640366
 40
0.2555689210790467
 40
0.2735938101915399
 40
0.2875033722207167
 40
0.3014256748507237
 40
0.3153479775675833
 40
0.3292575397153039
 40
0.3472825551204511
 40
0.3653214411664208
 40
0.3833464567576762
 40
0.3972561093700418
 40
0.4111785023973437
 40
0.4251008955329313
 40
0.4390105482930938
 40
0.4570358480913536
 40
0.4750750186852519
 40
0.4931003186635968
 40
0.5070101892733175
 40
0.5209328004677288
 40
0.5348554117429152
 40
0.5487652824628847
 40
0.5667908948823949
 40
0.5848303784040889
 40
0.6028559909172421
 40
0.6167661073766656
 40
0.6306889648644157
 40
0.6446118223700923
 40
0.6585219388539839
 40
0.6765477516966598
 40
0.6945874359588737
 40
0.7126132487695286
 40
0.7265235283363254
 40
0.7404465494427707
 40
0.754369570498238
 40
0.7682798499954547
 40
0.7863056648042057
 40
0.8043453512181202
 40
0.822371165887188
 40
0.8362814553628457
 40
0.8502044867268063
 40
0.864127517995299
 40
0.8780378073406526
 40
0.8960634306717875
 40
0.9141029255841526
 40
0.9321285487316109
 40
0.9460386951339201
 40
0.9599615834643583
 40
0.9738844716968786
 40
0.9877946179655407
 40
1.0
 40
1.0
 40
1.0
 40
1.0
 10
407.5232996970934
 20
399.3421429020194
 30
0.0
 10
407.5231494387676
 20
399.382602984652
 30
0.0
 10
407.5228488064886
 20
399.463554284896
 30
0.0
 10
407.5224630444488
 20
399.5929837165015
 30
0.0
 10
407.5221520096226
 20
399.7175171678016
 30
0.0
 10
407.521908274703
 20
399.8360019160039
 30
0.0
 10
407.5217187374443
 20
399.9469041304787
 30
0.0
 10
407.5215620992841
 20
400.0606429409974
 30
0.0
 10
407.5214265543052
 20
400.1884417202641
 30
0.0
 10
407.5213251610161
 20
400.3310707240958
 30
0.0
 10
407.5212718576702
 20
400.489015293952
 30
0.0
 10
407.5212749101495
 20
400.6378080705105
 30
0.0
 10
407.5213206073524
 20
400.7763030169367
 30
0.0
 10
407.5213959095818
 20
400.9037303251814
 30
0.0
 10
407.5215046797812
 20
401.0322437174638
 30
0.0
 10
407.5216607523133
 20
401.1743203269903
 30
0.0
 10
407.5218766275088
 20
401.3300191742654
 30
0.0
 10
407.5221649377232
 20
401.4990507402701
 30
0.0
 10
407.5224809834651
 20
401.6552300850374
 30
0.0
 10
407.5228108753827
 20
401.7981404325595
 30
0.0
 10
407.5231421014156
 20
401.9277208864858
 30
0.0
 10
407.5235034678818
 20
402.0565206877255
 30
0.0
 10
407.5239327624364
 20
402.1968568783736
 30
0.0
 10
407.5244404745372
 20
402.3480727954799
 30
0.0
 10
407.5250364476947
 20
402.5091360482138
 30
0.0
 10
407.5256282883326
 20
402.6550956241463
 30
0.0
 10
407.526203565483
 20
402.7863109270808
 30
0.0
 10
407.5267517677432
 20
402.9034368359983
 30
0.0
 10
407.5273232618472
 20
403.0180034131768
 30
0.0
 10
407.5279753581744
 20
403.1407789589562
 30
0.0
 10
407.5287153209986
 20
403.2704651130035
 30
0.0
 10
407.5295490781767
 20
403.4054029403719
 30
0.0
 10
407.5303473898236
 20
403.5246882990747
 30
0.0
 10
407.5311007353547
 20
403.6294162595117
 30
0.0
 10
407.5318018245933
 20
403.7208836543109
 30
0.0
 10
407.5325167001631
 20
403.8083015185156
 30
0.0
 10
407.5333155175209
 20
403.8996749982995
 30
0.0
 10
407.534201508285
 20
403.9932103808709
 30
0.0
 10
407.535176048158
 20
404.0868091823301
 30
0.0
 10
407.5360881093425
 20
404.1659713188067
 30
0.0
 10
407.5369321658765
 20
404.2324040900625
 30
0.0
 10
407.5377049639914
 20
404.2879001049224
 30
0.0
 10
407.5384805743684
 20
404.3383128272114
 30
0.0
 10
407.5393339090423
 20
404.3879814301533
 30
0.0
 10
407.540263861317
 20
404.4348190893245
 30
0.0
 10
407.5412671776496
 20
404.4765243891289
 30
0.0
 10
407.5421884233572
 20
404.5066365073163
 30
0.0
 10
407.5430266509983
 20
404.5272825054383
 30
0.0
 10
407.5437829558015
 20
404.5405486860267
 30
0.0
 10
407.5445309722079
 20
404.5482708589166
 30
0.0
 10
407.5453418649113
 20
404.5506330655161
 30
0.0
 10
407.5462104050321
 20
404.5454906914229
 30
0.0
 10
407.5471291762636
 20
404.5305989226371
 30
0.0
 10
407.5479559042317
 20
404.5082646560577
 30
0.0
 10
407.5486942432839
 20
404.4807949016977
 30
0.0
 10
407.5493494245178
 20
404.4503344257168
 30
0.0
 10
407.5499863827185
 20
404.4144943469216
 30
0.0
 10
407.5506646194363
 20
404.3692830713268
 30
0.0
 10
407.5513754629304
 20
404.3127404330033
 30
0.0
 10
407.552108233794
 20
404.2429296153905
 30
0.0
 10
407.5527495565885
 20
404.1706710857092
 30
0.0
 10
407.5533070435813
 20
404.0981718401834
 30
0.0
 10
407.5537898155959
 20
404.0274584529201
 30
0.0
 10
407.5542454125075
 20
403.951951093071
 30
0.0
 10
407.5546609951434
 20
403.8759162157633
 30
0.0
 10
407.5549057187863
 20
403.8222372671828
 30
0.0
 10
407.5550200930972
 20
403.7971498147282
 30
0.0
  0
SPLINE
  5
B4
330
1F
100
AcDbEntity
  8
0
  6
Continuous
 62
     7
370
    30
100
AcDbSpline
210
0.0
220
0.0
230
1.0
 70
     8
 71
     3
 72
    38
 73
    34
 74
     0
 42
0.000000001
 43
0.00000001
 40
0.0
 40
0.0
 40
0.0
 40
0.0
 40
0.0360628502448501
 40
0.0729173508553503
 40
0.1013574559918797
 40
0.1298236107511668
 40
0.1582897656061456
 40
0.186729870873283
 40
0.2235848881701899
 40
0.2604682663874106
 40
0.2973232837323302
 40
0.3257638017040517
 40
0.3542303702960903
 40
0.3826969388416739
 40
0.4111374567499856
 40
0.4479926597421385
 40
0.4848762241717191
 40
0.5217314269567298
 40
0.5501721064902673
 40
0.5786388375552727
 40
0.6071055684485035
 40
0.6355462477475888
 40
0.6724012108980512
 40
0.709284535640725
 40
0.7461394984163855
 40
0.7745800072912501
 40
0.8030465681034453
 40
0.831513128693967
 40
0.8599536372662699
 40
0.8949409480133669
 40
0.9299768191875903
 40
0.9650126898930346
 40
1.0
 40
1.0
 40
1.0
 40
1.0
 10
407.5467308474702
 20
399.2032548419001
 30
0.0
 10
407.5464298521685
 20
399.1675962702846
 30
0.0
 10
407.5458212541271
 20
399.0954963513976
 30
0.0
 10
407.5449511422846
 20
399.0037638228659
 30
0.0
 10
407.5441347047748
 20
398.9242698666804
 30
0.0
 10
407.5433820456102
 20
398.8566892647825
 30
0.0
 10
407.5426219063449
 20
398.793900799286
 30
0.0
 10
407.5417802465142
 20
398.730380694924
 30
0.0
 10
407.5408562920553
 20
398.668139452312
 30
0.0
 10
407.5398512969273
 20
398.6094452748808
 30
0.0
 10
407.5389209633731
 20
398.5633900181458
 30
0.0
 10
407.5380682412012
 20
398.5279538263485
 30
0.0
 10
407.5372939461855
 20
398.5011177900288
 30
0.0
 10
407.5365232220221
 20
398.479748017231
 30
0.0
 10
407.5356822744448
 20
398.4623391722495
 30
0.0
 10
407.5347746450401
 20
398.4510440417838
 30
0.0
 10
407.5338061536002
 20
398.4481531661669
 30
0.0
 10
407.5329268900527
 20
398.4541144082611
 30
0.0
 10
407.5321351634542
 20
398.4666493685689
 30
0.0
 10
407.5314274551736
 20
398.4836053266289
 30
0.0
 10
407.5307342354373
 20
398.506059583607
 30
0.0
 10
407.5299902929673
 20
398.536727509432
 30
0.0
 10
407.5292031661893
 20
398.5776523484093
 30
0.0
 10
407.528382611172
 20
398.6308914297725
 30
0.0
 10
407.5276558180356
 20
398.6881975055451
 30
0.0
 10
407.527016568396
 20
398.7472906619496
 30
0.0
 10
407.5264573526169
 20
398.8061273688418
 30
0.0
 10
407.5259219803655
 20
398.8698734735714
 30
0.0
 10
407.5253725794217
 20
398.9436640333445
 30
0.0
 10
407.5248172723634
 20
399.028783685643
 30
0.0
 10
407.5242665886103
 20
399.126553088434
 30
0.0
 10
407.5237549302931
 20
399.230426879752
 30
0.0
 10
407.5234513713208
 20
399.3049214484223
 30
0.0
 10
407.5232996970927
 20
399.3421429020198
 30
0.0
  0
SPLINE
  5
B5
330
1F
100
AcDbEntity
  8
0
  6
Continuous
 62
     7
370
    30
100
AcDbSpline
210
0.0
220
0.0
230
1.0
 70
     8
 71
     3
 72
   167
 73
   163
 74
     0
 42
0.000000001
 43
0.00000001
 40
0.0
 40
0.0
 40
0.0
 40
0.0
 40
0.0058551891872058
 40
0.0117106570210692
 40
0.0175658462101136
 40
0.0234310950015806
 40
0.029296623876171
 40
0.035161872669467
 40
0.0410170618309497
 40
0.046872529634387
 40
0.0527277187976509
 40
0.0585929673953137
 40
0.0644584960714266
 40
0.070323744670834
 40
0.0761789338077573
 40
0.0820344015821218
 40
0.0878895907207162
 40
0.0937548391344389
 40
0.0996203676221979
 40
0.105485616037529
 40
0.1117629425539335
 40
0.1180406124273103
 40
0.1243179389457074
 40
0.1306076664728267
 40
0.1368977393935905
 40
0.1431874669225788
 40
0.1501946864102369
 40
0.1572033388220894
 40
0.164212469401666
 40
0.1712211218247136
 40
0.1782283413217628
 40
0.1852838874125375
 40
0.192340896271528
 40
0.1993983932633452
 40
0.2064554021314681
 40
0.2135109482299038
 40
0.2193661372930137
 40
0.2252216049797619
 40
0.2310767940436395
 40
0.2369420419159247
 40
0.2428075698494849
 40
0.248672817722394
 40
0.2549501206039664
 40
0.2612277668246591
 40
0.2675050697068408
 40
0.2737947730014003
 40
0.280084821673359
 40
0.2863745249683091
 40
0.2922298152960255
 40
0.2980853842591011
 40
0.3039406745869461
 40
0.3098060241701056
 40
0.315671653827189
 40
0.3215370034103167
 40
0.3273922937383312
 40
0.3332478627016259
 40
0.3391031530294487
 40
0.3449685026212358
 40
0.3508341322872827
 40
0.3566994818787169
 40
0.3625547722115427
 40
0.3684103411803931
 40
0.3742656315127122
 40
0.3801309811472257
 40
0.3859966108571591
 40
0.3918619604910087
 40
0.3981393812256436
 40
0.4044171453202549
 40
0.4106945660538171
 40
0.4169843880150856
 40
0.4232745553770042
 40
0.4295643773369904
 40
0.4354196903124402
 40
0.4412752819311863
 40
0.4471305949055349
 40
0.4529959674664068
 40
0.4588616201108082
 40
0.464726992670446
 40
0.4705823056631198
 40
0.4764378973021234
 40
0.4822932102934567
 40
0.4881585829896101
 40
0.4940242357726661
 40
0.4998896084673649
 40
0.5057449214803797
 40
0.5116005131433429
 40
0.5174558261548206
 40
0.5233211990090276
 40
0.5291868519540452
 40
0.535052224806624
 40
0.5413296876351723
 40
0.5476074938469148
 40
0.5538849566732361
 40
0.5601748216089474
 40
0.5664650319702724
 40
0.5727548969036659
 40
0.5797621332786126
 40
0.5867708026689796
 40
0.5937799502430913
 40
0.6007886196172234
 40
0.6077958559785509
 40
0.6148514224610805
 40
0.6219084518461209
 40
0.6289659693952211
 40
0.6360229987635279
 40
0.6430785652320199
 40
0.6489337695609826
 40
0.6547892525424203
 40
0.6606444568696311
 40
0.6665097211383844
 40
0.6723752655007881
 40
0.6782405297678283
 40
0.6845178871201555
 40
0.6907955878610321
 40
0.697072945211207
 40
0.7033627048614246
 40
0.7096528099425842
 40
0.7159425695907607
 40
0.7229495851168188
 40
0.7299580336126139
 40
0.7369669602789773
 40
0.7439754087624617
 40
0.7509824242781927
 40
0.7580377682928227
 40
0.7650945751551689
 40
0.7721518701668934
 40
0.7792086770193477
 40
0.7862640210256794
 40
0.7921190407718619
 40
0.7979743391590597
 40
0.8038293589044477
 40
0.8096944381419213
 40
0.8155597974602484
 40
0.8214248766971166
 40
0.8277020331390014
 40
0.8339795329514893
 40
0.8402566893928529
 40
0.8465462474253311
 40
0.8528361508685108
 40
0.8591257089007466
 40
0.8661325433290468
 40
0.8731408106507165
 40
0.8801495561243813
 40
0.8871578234468653
 40
0.8941646578758488
 40
0.9012198180046642
 40
0.9082764408829879
 40
0.9153335518846974
 40
0.9223901747660201
 40
0.9294453348973516
 40
0.935300202793134
 40
0.9411553493096113
 40
0.947010217205753
 40
0.9528751438191047
 40
0.9587403504913482
 40
0.9646052771050102
 40
0.970882253268039
 40
0.9771595727705601
 40
0.9834365489338573
 40
0.9897259255370888
 40
0.9960156475186387
 40
1.0
 40
1.0
 40
1.0
 40
1.0
 10
407.2736394826082
 20
353.5744201742951
 30
0.0
 10
407.2743235866765
 20
353.65718035283
 30
0.0
 10
407.2756918273692
 20
353.8227046484313
 30
0.0
 10
407.2777787920178
 20
354.0752672972928
 30
0.0
 10
407.2798917675241
 20
354.3310469825808
 30
0.0
 10
407.2820329081623
 20
354.5903141772351
 30
0.0
 10
407.2842011376362
 20
354.8529407226329
 30
0.0
 10
407.2863937142371
 20
355.1185985952337
 30
0.0
 10
407.2886101034298
 20
355.3872264469225
 30
0.0
 10
407.2908498016837
 20
355.6587668521821
 30
0.0
 10
407.2931149131979
 20
355.9334787034722
 30
0.0
 10
407.2954050374906
 20
356.2113174601045
 30
0.0
 10
407.2977197381321
 20
356.4922342686913
 30
0.0
 10
407.3000558945592
 20
356.77585436819
 30
0.0
 10
407.3024129948685
 20
357.0621194259496
 30
0.0
 10
407.3047905004998
 20
357.3509678666184
 30
0.0
 10
407.3071906483138
 20
357.6426755419121
 30
0.0
 10
407.3096130013259
 20
357.9371937195914
 30
0.0
 10
407.3120570920204
 20
358.234469975974
 30
0.0
 10
407.3145787340983
 20
358.5413000595429
 30
0.0
 10
407.3171790671088
 20
358.857837143878
 30
0.0
 10
407.3198591027077
 20
359.1842200919877
 30
0.0
 10
407.3225618191494
 20
359.5135132345209
 30
0.0
 10
407.3252866402282
 20
359.8456522179272
 30
0.0
 10
407.3280329566086
 20
360.1805686396669
 30
0.0
 10
407.3309034699709
 20
360.5307989282243
 30
0.0
 10
407.3339002601051
 20
360.8966255237493
 30
0.0
 10
407.3370251578351
 20
361.2783035966793
 30
0.0
 10
407.3401712726743
 20
361.6627926114331
 30
0.0
 10
407.3433372533012
 20
362.0499355306838
 30
0.0
 10
407.3465294303957
 20
362.4405152279502
 30
0.0
 10
407.3497473369292
 20
362.8344849814368
 30
0.0
 10
407.3529904214025
 20
363.2317875508705
 30
0.0
 10
407.3562502716481
 20
363.6314014843112
 30
0.0
 10
407.3595254638632
 20
364.0331609202561
 30
0.0
 10
407.3626284316942
 20
364.4140509920678
 30
0.0
 10
407.3655557226919
 20
364.7736039565625
 30
0.0
 10
407.3683045896619
 20
365.111438611938
 30
0.0
 10
407.3710632846691
 20
365.4506829017557
 30
0.0
 10
407.3738312618644
 20
365.7912753513475
 30
0.0
 10
407.3766079607601
 20
366.1331525454948
 30
0.0
 10
407.3794564009095
 20
366.4840841085389
 30
0.0
 10
407.3823765301242
 20
366.8440874851281
 30
0.0
 10
407.3853681368296
 20
367.2131619791937
 30
0.0
 10
407.3883671669607
 20
367.5834176158414
 30
0.0
 10
407.3913729258756
 20
367.9547759894302
 30
0.0
 10
407.3943847057809
 20
368.3271567939082
 30
0.0
 10
407.397330403476
 20
368.6916453991014
 30
0.0
 10
407.4002090790777
 20
369.0481093599245
 30
0.0
 10
407.4030199705234
 20
369.3964373222938
 30
0.0
 10
407.4058335794223
 20
369.7453651501343
 30
0.0
 10
407.4086493286953
 20
370.094827434133
 30
0.0
 10
407.4114666358043
 20
370.444757811712
 30
0.0
 10
407.4142816978057
 20
370.794689468937
 30
0.0
 10
407.4170939334146
 20
371.1445552865349
 30
0.0
 10
407.4199027665398
 20
371.4942884205515
 30
0.0
 10
407.4227108349215
 20
371.8442228571307
 30
0.0
 10
407.4255175526189
 20
372.1942919140819
 30
0.0
 10
407.4283223336115
 20
372.5444285468936
 30
0.0
 10
407.4311213913597
 20
372.8941656615796
 30
0.0
 10
407.4339141524404
 20
373.2434367597557
 30
0.0
 10
407.4367000533372
 20
373.5921761292407
 30
0.0
 10
407.4394817099521
 20
373.9407168120501
 30
0.0
 10
407.4422585324134
 20
374.2889913551871
 30
0.0
 10
407.445029936182
 20
374.6369325358137
 30
0.0
 10
407.4478584810277
 20
374.9924085858169
 30
0.0
 10
407.4507429246766
 20
375.3552992634143
 30
0.0
 10
407.4536818539665
 20
375.7254643858502
 30
0.0
 10
407.4566119771866
 20
376.0949485056639
 30
0.0
 10
407.459532566135
 20
376.46366790566
 30
0.0
 10
407.4624429052859
 20
376.8315397423997
 30
0.0
 10
407.4652736646156
 20
377.1897971578308
 30
0.0
 10
407.4680251997556
 20
377.5384555346001
 30
0.0
 10
407.4706980209786
 20
377.8775489138895
 30
0.0
 10
407.4733595167489
 20
378.2156221022807
 30
0.0
 10
407.4760091052456
 20
378.5526076369075
 30
0.0
 10
407.4786462188802
 20
378.88843918733
 30
0.0
 10
407.4812672985259
 20
379.2226687339866
 30
0.0
 10
407.4838718236068
 20
379.5552344949722
 30
0.0
 10
407.4864592980285
 20
379.8860770077533
 30
0.0
 10
407.4890321535173
 20
380.2155122270834
 30
0.0
 10
407.491589819145
 20
380.5434732935873
 30
0.0
 10
407.4941317438782
 20
380.8698950638814
 30
0.0
 10
407.4966544990577
 20
381.1943420612236
 30
0.0
 10
407.4991575910616
 20
381.5167549216939
 30
0.0
 10
407.5016405554784
 20
381.8370770684379
 30
0.0
 10
407.5041057286551
 20
382.1556144159371
 30
0.0
 10
407.5065525564894
 20
382.4723012182348
 30
0.0
 10
407.508980510332
 20
382.7870739980183
 30
0.0
 10
407.5114440675244
 20
383.1070125342936
 30
0.0
 10
407.5139409594152
 20
383.4318724295889
 30
0.0
 10
407.5164687604879
 20
383.7613897947438
 30
0.0
 10
407.5189726748511
 20
384.0884406074906
 30
0.0
 10
407.5214520433565
 20
384.4129452771541
 30
0.0
 10
407.5239062461878
 20
384.7348277470796
 30
0.0
 10
407.5264253490728
 20
385.0659306205083
 30
0.0
 10
407.5290050539987
 20
385.4057899212919
 30
0.0
 10
407.5316406926765
 20
385.753895367043
 30
0.0
 10
407.534240354143
 20
386.0981407375474
 30
0.0
 10
407.5368029466882
 20
386.4383850754748
 30
0.0
 10
407.5393334735841
 20
386.7752987017475
 30
0.0
 10
407.5418310851779
 20
387.1087812663494
 30
0.0
 10
407.5442950573893
 20
387.4387428518071
 30
0.0
 10
407.5467189581458
 20
387.7643239488722
 30
0.0
 10
407.549101783238
 20
388.085389742871
 30
0.0
 10
407.5513100430226
 20
388.3838968470108
 30
0.0
 10
407.5533511166533
 20
388.6606467330292
 30
0.0
 10
407.5552322197948
 20
388.9164299972007
 30
0.0
 10
407.5570846122043
 20
389.1690432950222
 30
0.0
 10
407.5589078817908
 20
389.4184303416375
 30
0.0
 10
407.5607016615077
 20
389.6645384742081
 30
0.0
 10
407.5625058793696
 20
389.9128604866153
 30
0.0
 10
407.5643176099273
 20
390.1630553716332
 30
0.0
 10
407.5661338246622
 20
390.4147652903351
 30
0.0
 10
407.5679148201623
 20
390.662501186041
 30
0.0
 10
407.5696601502357
 20
390.9061966050156
 30
0.0
 10
407.5713694408564
 20
391.145790741161
 30
0.0
 10
407.5731048009212
 20
391.3900146727737
 30
0.0
 10
407.5748607744454
 20
391.6382244180446
 30
0.0
 10
407.5766316600414
 20
391.8897333758389
 30
0.0
 10
407.5783551082247
 20
392.1357039273763
 30
0.0
 10
407.5800305703539
 20
392.3760352017247
 30
0.0
 10
407.581661430262
 20
392.6111927859496
 30
0.0
 10
407.5832470861306
 20
392.8410794630261
 30
0.0
 10
407.5847871769553
 20
393.0656141274959
 30
0.0
 10
407.5862779030685
 20
393.2842066649471
 30
0.0
 10
407.5877189123524
 20
393.496766720971
 30
0.0
 10
407.5890311147805
 20
393.6915192188765
 30
0.0
 10
407.5902238445838
 20
393.8695688628072
 30
0.0
 10
407.5913059535825
 20
394.0319740601421
 30
0.0
 10
407.5923543163668
 20
394.1901818760451
 30
0.0
 10
407.5933688531601
 20
394.3441515553034
 30
0.0
 10
407.594349564303
 20
394.4938472680465
 30
0.0
 10
407.5953180920835
 20
394.642555310759
 30
0.0
 10
407.5962716176608
 20
394.7898765445753
 30
0.0
 10
407.5972073489517
 20
394.9353995520066
 30
0.0
 10
407.5981046992302
 20
395.0758893155472
 30
0.0
 10
407.5989637170636
 20
395.2113000184806
 30
0.0
 10
407.5997845655777
 20
395.341592968392
 30
0.0
 10
407.6005966717441
 20
395.4714054036688
 30
0.0
 10
407.6013949963849
 20
395.5999858767248
 30
0.0
 10
407.6021745283887
 20
395.7265488001749
 30
0.0
 10
407.6029075602158
 20
395.8465195253812
 30
0.0
 10
407.6035944753949
 20
395.9598486440985
 30
0.0
 10
407.6042371989627
 20
396.0667445311786
 30
0.0
 10
407.6048359007494
 20
396.1671240709667
 30
0.0
 10
407.6053909558667
 20
396.2609241205412
 30
0.0
 10
407.6059015979733
 20
396.3478904847282
 30
0.0
 10
407.6063683748827
 20
396.4279874589288
 30
0.0
 10
407.6067678553944
 20
396.4970354153518
 30
0.0
 10
407.6071087129565
 20
396.5563177179354
 30
0.0
 10
407.6073987797376
 20
396.6070412231097
 30
0.0
 10
407.6076603323839
 20
396.6530132904401
 30
0.0
 10
407.6078936438335
 20
396.6942131934217
 30
0.0
 10
407.6080989512026
 20
396.7306263397294
 30
0.0
 10
407.6082805430622
 20
396.7629608087489
 30
0.0
 10
407.6084364170986
 20
396.7908097617844
 30
0.0
 10
407.6085643223124
 20
396.8137337914583
 30
0.0
 10
407.6086614883037
 20
396.8311947552767
 30
0.0
 10
407.6087264327588
 20
396.8428799735796
 30
0.0
 10
407.6087604868378
 20
396.8490164794152
 30
0.0
 10
407.6087599256677
 20
396.8489165601167
 30
0.0
 10
407.6087597080423
 20
396.8488778107669
 30
0.0
  0
SPLINE
  5
B6
330
1F
100
AcDbEntity
  8
0
  6
Continuous
 62
     7
370
    30
100
AcDbSpline
210
0.0
220
0.0
230
1.0
 70
     8
 71
     3
 72
    57
 73
    53
 74
     0
 42
0.000000001
 43
0.00000001
 40
0.0
 40
0.0
 40
0.0
 40
0.0
 40
0.0203401895382048
 40
0.041511445137411
 40
0.0626812363669296
 40
0.0838466393309689
 40
0.101411178361441
 40
0.118976553257808
 40
0.1365410922892653
 40
0.1541358076102528
 40
0.1717313631118268
 40
0.1893260784342718
 40
0.2081569463956138
 40
0.2269888443806695
 40
0.2458197123445416
 40
0.264687781748201
 40
0.2835568872897264
 40
0.3024249566965596
 40
0.3234452380137778
 40
0.3444698178585749
 40
0.3654958321215378
 40
0.3865204119937269
 40
0.4075406933339237
 40
0.4287059462058995
 40
0.4498755871310571
 40
0.4710466923748674
 40
0.4922163333351545
 40
0.5133815862365998
 40
0.5309460030874066
 40
0.5485112557596608
 40
0.5660756726147231
 40
0.5836702640343925
 40
0.6012656955855495
 40
0.6188602870097936
 40
0.6376909706546633
 40
0.6565226842496446
 40
0.6753533679008632
 40
0.6942212501908384
 40
0.7130901685393382
 40
0.7319580508360218
 40
0.7541465414370309
 40
0.7763384025662415
 40
0.7985302637165507
 40
0.8207187543463351
 40
0.8429072447245662
 40
0.8650991055840624
 40
0.8872909664654116
 40
0.9094794568734463
 40
0.932107805175771
 40
0.954739728408402
 40
0.9773716516649954
 40
1.0
 40
1.0
 40
1.0
 40
1.0
 10
407.212024101749
 20
346.1496603031432
 30
0.0
 10
407.2120288546112
 20
346.150230954583
 30
0.0
 10
407.2120385545297
 20
346.1513955733245
 30
0.0
 10
407.2121262932502
 20
346.1619307341487
 30
0.0
 10
407.212268849889
 20
346.1790484671205
 30
0.0
 10
407.2124594659797
 20
346.2019373627791
 30
0.0
 10
407.2126855849197
 20
346.2290898520894
 30
0.0
 10
407.2129373363143
 20
346.259321098154
 30
0.0
 10
407.2132292242786
 20
346.2943731274474
 30
0.0
 10
407.2135613121912
 20
346.3342539502144
 30
0.0
 10
407.2139335847082
 20
346.3789623014269
 30
0.0
 10
407.2143554297052
 20
346.4296262547945
 30
0.0
 10
407.2148301221761
 20
346.4866399224335
 30
0.0
 10
407.2153609495702
 20
346.5503992819025
 30
0.0
 10
407.2159375481874
 20
346.619660535368
 30
0.0
 10
407.2165599164043
 20
346.6944244490711
 30
0.0
 10
407.2172279861015
 20
346.7746840380238
 30
0.0
 10
407.2179682972391
 20
346.8636291920389
 30
0.0
 10
407.2187869830962
 20
346.961998895935
 30
0.0
 10
407.2196902673113
 20
347.0705439466129
 30
0.0
 10
407.2206489003036
 20
347.1857519981334
 30
0.0
 10
407.2216624753701
 20
347.3075763047141
 30
0.0
 10
407.2227331588589
 20
347.4362794247057
 30
0.0
 10
407.2238612594293
 20
347.5719007584454
 30
0.0
 10
407.2250469034961
 20
347.7144584318282
 30
0.0
 10
407.2262871034747
 20
347.8635960751446
 30
0.0
 10
407.2275813184631
 20
348.0192514729667
 30
0.0
 10
407.2288527486297
 20
348.1721893364916
 30
0.0
 10
407.2300909855434
 20
348.3211556715174
 30
0.0
 10
407.2312865121
 20
348.4650030759404
 30
0.0
 10
407.2325189997607
 20
348.6133183219108
 30
0.0
 10
407.233788288589
 20
348.7660841108935
 30
0.0
 10
407.2350941718927
 20
348.9232776706684
 30
0.0
 10
407.2364670702025
 20
349.0885634930779
 30
0.0
 10
407.2379096948205
 20
349.2622722820539
 30
0.0
 10
407.2394247103071
 20
349.4447298333939
 30
0.0
 10
407.2409805156418
 20
349.6321338231247
 30
0.0
 10
407.2425768629108
 20
349.8244572666588
 30
0.0
 10
407.2442134442027
 20
350.0216661455223
 30
0.0
 10
407.2459870998313
 20
350.2354351816502
 30
0.0
 10
407.2479058554433
 20
350.4667438144462
 30
0.0
 10
407.2499779139901
 20
350.716595754626
 30
0.0
 10
407.252101741295
 20
350.9727562768198
 30
0.0
 10
407.2542765585236
 20
351.2351368560792
 30
0.0
 10
407.2565018307865
 20
351.503678455096
 30
0.0
 10
407.2587768878527
 20
351.7783060979729
 30
0.0
 10
407.2611008379881
 20
352.0589180288662
 30
0.0
 10
407.2634885755469
 20
352.3473194922993
 30
0.0
 10
407.2659403275446
 20
352.6435453332855
 30
0.0
 10
407.2684575451785
 20
352.9477827375053
 30
0.0
 10
407.2710190578613
 20
353.2574697370102
 30
0.0
 10
407.2727660536895
 20
353.4687755919252
 30
0.0
 10
407.2736394826097
 20
353.5744201742951
 30
0.0
  0
SPLINE
  5
B7
330
1F
100
AcDbEntity
  8
0
  6
Continuous
 62
     7
370
    30
100
AcDbSpline
210
0.0
220
0.0
230
1.0
 70
     8
 71
     3
 72
    66
 73
    62
 74
     0
 42
0.000000001
 43
0.00000001
 40
0.0
 40
0.0
 40
0.0
 40
0.0
 40
0.0112476298569114
 40
0.028524827549223
 40
0.0458055140005768
 40
0.0630827116926255
 40
0.0804870310372719
 40
0.0978949167573787
 40
0.1152992361036123
 40
0.132091854275084
 40
0.1488876756745679
 40
0.165680293848996
 40
0.1825895508018064
 40
0.1995020782230955
 40
0.2164113351805277
 40
0.233688469876648
 40
0.2509690932804526
 40
0.2682462279833171
 40
0.2856504821939869
 40
0.3030583027173641
 40
0.3204625569366839
 40
0.3372552043032111
 40
0.3540510548859702
 40
0.3708437022613462
 40
0.3877529877652421
 40
0.4046655437173816
 40
0.4215748292315936
 40
0.4388519895883823
 40
0.4561326386213614
 40
0.4734097989905166
 40
0.4908140775027517
 40
0.5082219222872366
 40
0.5256262008130826
 40
0.5424189581055084
 40
0.5592149186217417
 40
0.5760076759264128
 40
0.5929170715129307
 40
0.6098297375507469
 40
0.6267391331499684
 40
0.6440164037046782
 40
0.6612971629343481
 40
0.678574433502624
 40
0.6959788221257873
 40
0.7133867770180271
 40
0.7307911656544257
 40
0.7475840829210898
 40
0.764380203440123
 40
0.7811731207172548
 40
0.7980826773910203
 40
0.8149955045477997
 40
0.8319050612309525
 40
0.8491824968378044
 40
0.8664634211585256
 40
0.8837408567737312
 40
0.901145412066378
 40
0.9185535336752279
 40
0.9359580889741925
 40
0.9519463592340737
 40
0.9679346294948282
 40
0.9839673147471428
 40
1.0
 40
1.0
 40
1.0
 40
1.0
 10
407.59412421748
 20
431.1157144433971
 30
0.0
 10
407.5941353609269
 20
431.1130800375084
 30
0.0
 10
407.5941636215387
 20
431.106398987845
 30
0.0
 10
407.5941867864677
 20
431.1009210220848
 30
0.0
 10
407.5941960719823
 20
431.0987251406307
 30
0.0
 10
407.5941847801311
 20
431.1013950709205
 30
0.0
 10
407.5941536763071
 20
431.108750797789
 30
0.0
 10
407.594102382812
 20
431.1208771885055
 30
0.0
 10
407.5940319044424
 20
431.1375324439832
 30
0.0
 10
407.5939430308106
 20
431.1585258337429
 30
0.0
 10
407.5938366411348
 20
431.1836416670515
 30
0.0
 10
407.5937114250431
 20
431.2131812560332
 30
0.0
 10
407.5935672517224
 20
431.2471669125293
 30
0.0
 10
407.5934040718881
 20
431.2855979275213
 30
0.0
 10
407.5932209747683
 20
431.3286763807512
 30
0.0
 10
407.5930175318363
 20
431.3764894858352
 30
0.0
 10
407.5927934066298
 20
431.4290990145097
 30
0.0
 10
407.5925495692179
 20
431.4862606478404
 30
0.0
 10
407.5922859379695
 20
431.5479763669769
 30
0.0
 10
407.5920025304245
 20
431.614222672012
 30
0.0
 10
407.5917036827943
 20
431.6839684271022
 30
0.0
 10
407.5913902883433
 20
431.7569910236126
 30
0.0
 10
407.591063295568
 20
431.833056287507
 30
0.0
 10
407.5907183212385
 20
431.913167202038
 30
0.0
 10
407.5903553738909
 20
431.9973022892008
 30
0.0
 10
407.5899745549339
 20
432.0854186688503
 30
0.0
 10
407.5895740323639
 20
432.1779203467141
 30
0.0
 10
407.5891535683566
 20
432.2748386598516
 30
0.0
 10
407.5887130359866
 20
432.3761796993585
 30
0.0
 10
407.5882545920981
 20
432.4814266092382
 30
0.0
 10
407.5877783413573
 20
432.5905339535552
 30
0.0
 10
407.5872844947249
 20
432.7034341368354
 30
0.0
 10
407.5867805114534
 20
432.8184065133419
 30
0.0
 10
407.586267343174
 20
432.9352261217513
 30
0.0
 10
407.5857459731035
 20
433.0536655268134
 30
0.0
 10
407.5852093428857
 20
433.1753164512227
 30
0.0
 10
407.5846576558993
 20
433.3001159689456
 30
0.0
 10
407.5840912058288
 20
433.427983886496
 30
0.0
 10
407.5835074449428
 20
433.5594805837562
 30
0.0
 10
407.5829064087555
 20
433.6945779925913
 30
0.0
 10
407.58228824566
 20
433.8332258389436
 30
0.0
 10
407.5816561567663
 20
433.974693001563
 30
0.0
 10
407.5810104727031
 20
434.1188917519422
 30
0.0
 10
407.5803516159226
 20
434.2657180214488
 30
0.0
 10
407.5796895092404
 20
434.4129556698605
 30
0.0
 10
407.5790250811414
 20
434.560402728079
 30
0.0
 10
407.5783592498735
 20
434.707864123179
 30
0.0
 10
407.5776829726433
 20
434.8573408453921
 30
0.0
 10
407.576996655047
 20
435.0087356155302
 30
0.0
 10
407.576300770298
 20
435.1619399679077
 30
0.0
 10
407.5755923261157
 20
435.3176074875323
 30
0.0
 10
407.5748716577112
 20
435.4756538655583
 30
0.0
 10
407.5741391931029
 20
435.6359781325846
 30
0.0
 10
407.5733988608407
 20
435.7977173144731
 30
0.0
 10
407.572651194606
 20
435.9607513076089
 30
0.0
 10
407.5718967869269
 20
436.1249511981906
 30
0.0
 10
407.5711586601894
 20
436.285314904037
 30
0.0
 10
407.5704378483412
 20
436.4416486792608
 30
0.0
 10
407.5697344443838
 20
436.593956156449
 30
0.0
 10
407.5690283642163
 20
436.7466165778368
 30
0.0
 10
407.5685559482328
 20
436.8485550687799
 30
0.0
 10
407.568319740241
 20
436.8995243142525
 30
0.0
  0
SPLINE
  5
B8
330
1F
100
AcDbEntity
  8
0
  6
Continuous
 62
     7
370
    30
100
AcDbSpline
210
0.0
220
0.0
230
1.0
 70
     8
 71
     3
 72
    63
 73
    59
 74
     0
 42
0.000000001
 43
0.00000001
 40
0.0
 40
0.0
 40
0.0
 40
0.0
 40
0.0175790785602738
 40
0.0351615096050697
 40
0.0527405881604364
 40
0.0704417404380805
 40
0.0881463155705453
 40
0.10584746782908
 40
0.1239336384508484
 40
0.1420234603175407
 40
0.1601096309034609
 40
0.1783288447576354
 40
0.1965517911185602
 40
0.2147710049211549
 40
0.2323518161822161
 40
0.249935981059867
 40
0.2675167922649117
 40
0.2852197205951843
 40
0.3029260730210802
 40
0.3206290012839139
 40
0.3387170958831818
 40
0.3568088431830663
 40
0.374896937700019
 40
0.3931181306530304
 40
0.4113430576863004
 40
0.4295642505478178
 40
0.4471445484241476
 40
0.4647281999880808
 40
0.4823084977816675
 40
0.5000109162764158
 40
0.5177167589774138
 40
0.535419177386002
 40
0.5535067767310917
 40
0.5715980289347723
 40
0.5896856281874476
 40
0.6079063320405799
 40
0.6261307701532358
 40
0.6443514739155829
 40
0.6619306968769291
 40
0.6795132733393094
 40
0.6970924962280376
 40
0.7147938325956484
 40
0.7324985929644807
 40
0.7501999292656942
 40
0.7682864210764432
 40
0.7863765654973012
 40
0.8044630572469107
 40
0.8226826433186322
 40
0.8409059633519526
 40
0.8591255493743187
 40
0.8767037671689405
 40
0.894285338190141
 40
0.9118635559548789
 40
0.9295638755630254
 40
0.947267618832333
 40
0.9649679384236913
 40
0.9830533697130539
 40
1.0
 40
1.0
 40
1.0
 40
1.0
 10
407.3367045593799
 20
465.9995243142525
 30
0.0
 10
407.3361017459755
 20
466.0529079719304
 30
0.0
 10
407.3348960042048
 20
466.1596854680183
 30
0.0
 10
407.3330880802878
 20
466.3197244771257
 30
0.0
 10
407.3312781926217
 20
466.4798895030052
 30
0.0
 10
407.3294677037599
 20
466.6400552569557
 30
0.0
 10
407.3276580671896
 20
466.8000951022027
 30
0.0
 10
407.3258417836594
 20
466.9606723761786
 30
0.0
 10
407.3240204644378
 20
467.1216443058436
 30
0.0
 10
407.3221958019362
 20
467.2828614499319
 30
0.0
 10
407.3203778472268
 20
467.4434365924038
 30
0.0
 10
407.3185682133956
 20
467.6032280473665
 30
0.0
 10
407.3167684893322
 20
467.7620968301264
 30
0.0
 10
407.3150054100335
 20
467.9176849652039
 30
0.0
 10
407.3132798147702
 20
468.0699217402838
 30
0.0
 10
407.3115922740897
 20
468.2187603860741
 30
0.0
 10
407.3099195933317
 20
468.366248674139
 30
0.0
 10
407.3082632668073
 20
468.5122560891688
 30
0.0
 10
407.3066247215897
 20
468.6566584209897
 30
0.0
 10
407.3049973423994
 20
468.8000401184239
 30
0.0
 10
407.3033830610887
 20
468.9422318160763
 30
0.0
 10
407.3017837922987
 20
469.0830660716244
 30
0.0
 10
407.3002085302037
 20
469.2217525342423
 30
0.0
 10
407.2986588829841
 20
469.3581513070791
 30
0.0
 10
407.2971363353392
 20
469.4921336389627
 30
0.0
 10
407.2956634080106
 20
469.6217201227765
 30
0.0
 10
407.2942400810806
 20
469.7469157289634
 30
0.0
 10
407.2928660217866
 20
469.8677528600276
 30
0.0
 10
407.2915221080043
 20
469.9859153048703
 30
0.0
 10
407.2902097356597
 20
470.1012820127883
 30
0.0
 10
407.288930150345
 20
470.2137452602627
 30
0.0
 10
407.2876783719528
 20
470.3237444507834
 30
0.0
 10
407.2864564284642
 20
470.4311027653725
 30
0.0
 10
407.2852662320568
 20
470.5356536903153
 30
0.0
 10
407.2841146791689
 20
470.6367931692441
 30
0.0
 10
407.2830031821915
 20
470.7343989213826
 30
0.0
 10
407.28193294456
 20
470.828367003794
 30
0.0
 10
407.2809196057463
 20
470.9173261963925
 30
0.0
 10
407.279962279974
 20
471.0013565554336
 30
0.0
 10
407.2790597617764
 20
471.0805659084407
 30
0.0
 10
407.2781992651566
 20
471.1560780018128
 30
0.0
 10
407.2773819219441
 20
471.2277949139429
 30
0.0
 10
407.2766086478333
 20
471.2956375710963
 30
0.0
 10
407.2758766670969
 20
471.3598507482702
 30
0.0
 10
407.2751878660139
 20
471.420270137092
 30
0.0
 10
407.2745439297158
 20
471.4767489557793
 30
0.0
 10
407.2739488566931
 20
471.528937616703
 30
0.0
 10
407.273403695843
 20
471.5767452640471
 30
0.0
 10
407.272909225805
 20
471.6201045198379
 30
0.0
 10
407.2724723789217
 20
471.6584084423164
 30
0.0
 10
407.2720914995474
 20
471.6918031985743
 30
0.0
 10
407.2717646529949
 20
471.7204590820349
 30
0.0
 10
407.2714868498973
 20
471.7448141203756
 30
0.0
 10
407.2712589288848
 20
471.7647953621686
 30
0.0
 10
407.2710809735601
 20
471.7803957931026
 30
0.0
 10
407.2709542056713
 20
471.7915086273655
 30
0.0
 10
407.2708762443684
 20
471.7983428939313
 30
0.0
 10
407.2708682407998
 20
471.7990444926485
 30
0.0
 10
407.270864369103
 20
471.7993838884345
 30
0.0
  0
SPLINE
  5
B9
330
1F
100
AcDbEntity
  8
0
  6
Continuous
 62
     7
370
    30
100
AcDbSpline
210
0.0
220
0.0
230
1.0
 70
     8
 71
     3
 72
    15
 73
    11
 74
     0
 42
0.000000001
 43
0.00000001
 40
0.0
 40
0.0
 40
0.0
 40
0.0
 40
0.1250382119516597
 40
0.250076423828068
 40
0.3751149804586204
 40
0.5001535370572838
 40
0.6251149793817341
 40
0.7500764216905512
 40
0.8750382108495458
 40
1.0
 40
1.0
 40
1.0
 40
1.0
 10
407.568319740241
 20
436.8995243142525
 30
0.0
 10
407.5624067960841
 20
438.1124212483247
 30
0.0
 10
407.5505809077737
 20
440.5382151157392
 30
0.0
 10
407.5290190410159
 20
444.1768890391733
 30
0.0
 10
407.5046501807821
 20
447.8155482861009
 30
0.0
 10
407.4771978156814
 20
451.4534409790531
 30
0.0
 10
407.4467540384532
 20
455.0905618085312
 30
0.0
 10
407.4132259216095
 20
458.7269106976339
 30
0.0
 10
407.376886800338
 20
462.3632362557274
 30
0.0
 10
407.350098639699
 20
464.7874282947717
 30
0.0
 10
407.3367045593799
 20
465.9995243142525
 30
0.0
  0
SPLINE
  5
BA
330
1F
100
AcDbEntity
  8
0
  6
Continuous
 62
     7
370
    30
100
AcDbSpline
210
0.0
220
0.0
230
1.0
 70
     8
 71
     3
 72
    11
 73
     7
 74
     0
 42
0.000000001
 43
0.00000001
 40
0.0
 40
0.0
 40
0.0
 40
0.0
 40
0.2635918539548083
 40
0.5281723785140536
 40
0.7927879384085297
 40
1.0
 40
1.0
 40
1.0
 40
1.0
 10
404.9634694541053
 20
312.4995243079662
 30
0.0
 10
404.989461710051
 20
312.5001196703479
 30
0.0
 10
405.0415437127376
 20
312.5013126281744
 30
0.0
 10
405.1190796253703
 20
312.5109818290866
 30
0.0
 10
405.1902741242845
 20
312.5243577975201
 30
0.0
 10
405.2345196424059
 20
312.5373547387877
 30
0.0
 10
405.2539509020622
 20
312.5430625924016
 30
0.0
  0
SPLINE
  5
BB
330
1F
100
AcDbEntity
  8
0
  6
Continuous
 62
     7
370
    30
100
AcDbSpline
210
0.0
220
0.0
230
1.0
 70
     8
 71
     3
 72
    11
 73
     7
 74
     0
 42
0.000000001
 43
0.00000001
 40
0.0
 40
0.0
 40
0.0
 40
0.0
 40
0.2024720048420105
 40
0.4686697577448834
 40
0.734832194618742
 40
1.0
 40
1.0
 40
1.0
 40
1.0
 10
405.2183851870048
 20
511.4564485870292
 30
0.0
 10
405.1995092674788
 20
511.4619889662874
 30
0.0
 10
405.1558164486203
 20
511.4748134958158
 30
0.0
 10
405.0851863225363
 20
511.4880604119703
 30
0.0
 10
405.0076483019403
 20
511.4977370473732
 30
0.0
 10
404.9555628098216
 20
511.4989292983859
 30
0.0
 10
404.9295688148654
 20
511.4995243079663
 30
0.0
  0
LINE
  5
BC
330
1F
100
AcDbEntity
  8
0
  6
Continuous
 62
     7
370
    30
100
AcDbLine
 10
404.9295687247
 20
511.499524308
 30
0.0
 11
404.92728793
 21
511.499524308
 31
0.0
  0
LINE
  5
BD
330
1F
100
AcDbEntity
  8
0
  6
Continuous
 62
     7
370
    30
100
AcDbLine
 10
404.9634693771
 20
312.499524308
 30
0.0
 11
404.9613616787
 21
312.499524308
 31
0.0
  0
LINE
  5
BE
330
1F
100
AcDbEntity
  8
0
  6
Continuous
 62
     7
370
    30
100
AcDbLine
 10
398.1139142767
 20
312.999524308
 30
0.0
 11
398.1139142767
 21
510.999524308
 31
0.0
  0
LINE
  5
BF
330
1F
100
AcDbEntity
  8
0
  6
Continuous
 62
     7
370
    30
100
AcDbLine
 10
404.92728793
 20
511.499524308
 30
0.0
 11
398.1139142767
 21
511.499524308
 31
0.0
  0
LINE
  5
C0
330
1F
100
AcDbEntity
  8
0
  6
Continuous
 62
     7
370
    30
100
AcDbLine
 10
398.1139142767
 20
510.999524308
 30
0.0
 11
398.1139142767
 21
511.499524308
 31
0.0
  0
LINE
  5
C1
330
1F
100
AcDbEntity
  8
0
  6
Continuous
 62
     7
370
    30
100
AcDbLine
 10
404.9613616787
 20
312.499524308
 30
0.0
 11
398.1139142767
 21
312.499524308
 31
0.0
  0
LINE
  5
C2
330
1F
100
AcDbEntity
  8
0
  6
Continuous
 62
     7
370
    30
100
AcDbLine
 10
398.1139142767
 20
312.499524308
 30
0.0
 11
398.1139142767
 21
312.999524308
 31
0.0
  0
SPLINE
  5
C3
330
1F
100
AcDbEntity
  8
0
  6
Continuous
 62
     7
370
    30
100
AcDbSpline
210
0.0
220
0.0
230
1.0
 70
    24
 71
     3
 72
    19
 73
    15
 74
     0
 42
0.000000001
 43
0.00000001
 40
0.0
 40
0.0
 40
0.0
 40
0.0
 40
0.0831357032427511
 40
0.1664486898050274
 40
0.2497616338939757
 40
0.3330761097110439
 40
0.4163906281406942
 40
0.4997051033680614
 40
0.5830867763737132
 40
0.666468492891643
 40
0.7498501651910218
 40
0.8332334288667255
 40
0.916616736966362
 40
1.0
 40
1.0
 40
1.0
 40
1.0
 10
405.6439380622169
 20
312.4995243079662
 30
0.0
 10
405.6430433761367
 20
312.4995243079662
 30
0.0
 10
405.6412520960968
 20
312.4995243079662
 30
0.0
 10
405.6266809592245
 20
312.4995243079662
 30
0.0
 10
405.6033844953597
 20
312.4995243079663
 30
0.0
 10
405.5705026797559
 20
312.4995243079662
 30
0.0
 10
405.5282362571144
 20
312.4995243079662
 30
0.0
 10
405.4764817339737
 20
312.4995243079663
 30
0.0
 10
405.4152219672215
 20
312.4995243079662
 30
0.0
 10
405.3443924144326
 20
312.4995243079663
 30
0.0
 10
405.2640413079362
 20
312.4995243079662
 30
0.0
 10
405.1738980042625
 20
312.4995243079662
 30
0.0
 10
405.0748147913182
 20
312.4995243079662
 30
0.0
 10
405.0005845085177
 20
312.4995243079663
 30
0.0
 10
404.9634693771473
 20
312.4995243079662
 30
0.0
  0
SPLINE
  5
C4
330
1F
100
AcDbEntity
  8
0
  6
Continuous
 62
     7
370
    30
100
AcDbSpline
210
0.0
220
0.0
230
1.0
 70
    24
 71
     3
 72
    21
 73
    17
 74
     0
 42
0.000000001
 43
0.00000001
 40
0.0
 40
0.0
 40
0.0
 40
0.0
 40
0.0833175902541416
 40
0.1666353564344905
 40
0.2499532126570229
 40
0.3332710713321061
 40
0.4165888431721937
 40
0.4999064371995025
 40
0.5832239952472762
 40
0.6665417235387879
 40
0.7498595382322236
 40
0.8331773544359481
 40
0.9164950862127454
 40
0.9998126465840479
 40
0.9998505640031081
 40
1.0
 40
1.0
 40
1.0
 40
1.0
 10
404.9295687247078
 20
511.4995243079663
 30
0.0
 10
404.966673659718
 20
511.4995243079663
 30
0.0
 10
405.0408836080859
 20
511.4995243079663
 30
0.0
 10
405.139953830983
 20
511.4995243079663
 30
0.0
 10
405.2300991479751
 20
511.4995243079663
 30
0.0
 10
405.3104684384094
 20
511.4995243079663
 30
0.0
 10
405.381329031612
 20
511.4995243079663
 30
0.0
 10
405.4426452833763
 20
511.4995243079663
 30
0.0
 10
405.4944752450259
 20
511.4995243079663
 30
0.0
 10
405.5368406399505
 20
511.4995243079663
 30
0.0
 10
405.569769973649
 20
511.4995243079664
 30
0.0
 10
405.5932427634696
 20
511.4995243079659
 30
0.0
 10
405.6074273532077
 20
511.4995243079674
 30
0.0
 10
405.6103335899916
 20
511.4995243079638
 30
0.0
 10
405.6104982225828
 20
511.4995243079663
 30
0.0
 10
405.6104933208567
 20
511.4995243079663
 30
0.0
 10
405.6104894111638
 20
511.4995243079663
 30
0.0
  0
LINE
  5
C5
330
1F
100
AcDbEntity
  8
0
  6
Continuous
 62
     7
370
    30
100
AcDbLine
 10
407.4039142767
 20
465.8218049904
 30
0.0
 11
407.4039142767
 21
471.5218049904
 31
0.0
  0
LINE
  5
C6
330
1F
100
AcDbEntity
  8
0
  6
Continuous
 62
     7
370
    30
100
AcDbLine
 10
407.4039142767
 20
459.6076392259
 30
0.0
 11
407.4039142767
 21
465.8218049904
 31
0.0
  0
LINE
  5
C7
330
1F
100
AcDbEntity
  8
0
  6
Continuous
 62
     7
370
    30
100
AcDbLine
 10
418.8361834854
 20
396.3143143841
 30
0.0
 11
418.8361834854
 21
398.1063810371
 31
0.0
  0
LINE
  5
C8
330
1F
100
AcDbEntity
  8
0
  6
Continuous
 62
     7
370
    30
100
AcDbLine
 10
431.3361834854
 20
398.1063810371
 30
0.0
 11
431.3361834854
 21
396.7101782108
 31
0.0
  0
ARC
  5
C9
330
1F
100
AcDbEntity
  8
0
  6
Continuous
 62
     7
370
    30
100
AcDbCircle
 10
419.8361834854
 20
398.1063810371
 30
0.0
 40
1.0
100
AcDbArc
 50
90.0
 51
180.0
  0
LINE
  5
CA
330
1F
100
AcDbEntity
  8
0
  6
Continuous
 62
     7
370
    30
100
AcDbLine
 10
419.8361834854
 20
399.1063810371
 30
0.0
 11
430.3361834854
 21
399.1063810371
 31
0.0
  0
ARC
  5
CB
330
1F
100
AcDbEntity
  8
0
  6
Continuous
 62
     7
370
    30
100
AcDbCircle
 10
430.3361834854
 20
398.1063810371
 30
0.0
 40
1.0
100
AcDbArc
 50
0.0
 51
90.0
  0
LINE
  5
CC
330
1F
100
AcDbEntity
  8
0
  6
Continuous
 62
     7
370
    30
100
AcDbLine
 10
415.5392954823
 20
353.7907474785
 30
0.0
 11
415.5392954823
 21
396.4682518993
 31
0.0
  0
LINE
  5
CD
330
1F
100
AcDbEntity
  8
0
  6
Continuous
 62
     7
370
    30
100
AcDbLine
 10
415.5392954823
 20
346.4684453363
 30
0.0
 11
415.5392954823
 21
353.7907474785
 31
0.0
  0
LINE
  5
CE
330
1F
100
AcDbEntity
  8
0
  6
Continuous
 62
     7
370
    30
100
AcDbLine
 10
440.0392954823
 20
395.060888063
 30
0.0
 11
440.0392954823
 21
347.4684453363
 31
0.0
  0
LINE
  5
CF
330
1F
100
AcDbEntity
  8
0
  6
Continuous
 62
     7
370
    30
100
AcDbLine
 10
440.0392954823
 20
395.060888063
 30
0.0
 11
440.0392954823
 21
397.0269409398
 31
0.0
  0
LINE
  5
D0
330
1F
100
AcDbEntity
  8
0
  6
Continuous
 62
     7
370
    30
100
AcDbLine
 10
431.5392954823
 20
397.3202696572
 30
0.0
 11
431.5392954823
 21
398.1063810371
 31
0.0
  0
LINE
  5
D1
330
1F
100
AcDbEntity
  8
0
  6
Continuous
 62
     7
370
    30
100
AcDbLine
 10
440.0392954823
 20
398.1063810371
 30
0.0
 11
440.0392954823
 21
397.0269409398
 31
0.0
  0
ARC
  5
D2
330
1F
100
AcDbEntity
  8
0
  6
Continuous
 62
     7
370
    30
100
AcDbCircle
 10
432.5392954823
 20
398.1063810371
 30
0.0
 40
1.0
100
AcDbArc
 50
90.0
 51
180.0
  0
LINE
  5
D3
330
1F
100
AcDbEntity
  8
0
  6
Continuous
 62
     7
370
    30
100
AcDbLine
 10
432.5392954823
 20
399.1063810371
 30
0.0
 11
439.0392954823
 21
399.1063810371
 31
0.0
  0
ARC
  5
D4
330
1F
100
AcDbEntity
  8
0
  6
Continuous
 62
     7
370
    30
100
AcDbCircle
 10
439.0392954823
 20
398.1063810371
 30
0.0
 40
1.0
100
AcDbArc
 50
0.0
 51
90.0
  0
ARC
  5
D5
330
1F
100
AcDbEntity
  8
0
  6
Continuous
 62
     7
370
    30
100
AcDbCircle
 10
4416.664367625
 20
416.8357698054
 30
0.0
 40
4357.281906893376
100
AcDbArc
 50
179.8124374272
 51
180.0
  0
ARC
  5
D6
330
1F
100
AcDbEntity
  8
0
  6
Continuous
 62
     7
370
    30
100
AcDbCircle
 10
4416.664367625
 20
416.8357698054
 30
0.0
 40
4357.281906893377
100
AcDbArc
 50
178.7679971717
 51
179.2772407322
  0
ARC
  5
D7
330
1F
100
AcDbEntity
  8
0
  6
Continuous
 62
     7
370
    30
100
AcDbCircle
 10
4416.664367625
 20
405.5947363156
 30
0.0
 40
4357.281906893376
100
AcDbArc
 50
180.781690958
 51
181.2113679601
  0
LWPOLYLINE
  5
D8
330
1F
100
AcDbEntity
  8
0
  6
Continuous
 62
     7
370
    30
100
AcDbPolyline
 90
        3
 70
   128
 43
0.0
 10
59.3824607316
 20
405.5947363156
 10
59.3825978798
 20
404.5014903247
 10
59.3828312459
 20
403.7978305653
  0
LWPOLYLINE
  5
D9
330
1F
100
AcDbEntity
  8
0
  6
Continuous
 62
     7
370
    30
100
AcDbPolyline
 90
        4
 70
   128
 43
0.0
 10
59.3871500698
 20
399.2021222284
 10
59.3873980662
 20
399.0352627793
 10
59.3891809921
 20
397.9420182337
 10
59.391238214
 20
396.8487741698
  0
LINE
  5
DA
330
1F
100
AcDbEntity
  8
0
  6
Continuous
 62
     7
370
    30
100
AcDbLine
 10
59.3824607316
 20
416.8357698054
 30
0.0
 11
59.3824607316
 21
405.5947363156
 31
0.0
  0
ARC
  5
DB
330
1F
100
AcDbEntity
  8
0
  6
Continuous
 62
     7
370
    30
100
AcDbCircle
 10
61.3560519885
 20
313.499524308
 30
0.0
 40
1.000000000000004
100
AcDbArc
 50
181.2114332797
 51
270.0
  0
ARC
  5
DC
330
1F
100
AcDbEntity
  8
0
  6
Continuous
 62
     7
370
    30
100
AcDbCircle
 10
61.3895021981
 20
510.499524308
 30
0.0
 40
1.000000000000002
100
AcDbArc
 50
90.0000000001
 51
178.7676861048
  0
ARC
  5
DD
330
1F
100
AcDbEntity
  8
0
  6
Continuous
 62
     7
370
    30
100
AcDbCircle
 10
59.364504114
 20
403.699524308
 30
0.0
 40
0.1000000000000367
100
AcDbArc
 50
75.0
 51
173.6528190481
  0
ARC
  5
DE
330
1F
100
AcDbEntity
  8
0
  6
Continuous
 62
     7
370
    30
100
AcDbCircle
 10
59.364504114
 20
399.299524308
 30
0.0
 40
0.100000000000005
100
AcDbArc
 50
186.347180952
 51
285.0
  0
LINE
  5
DF
330
1F
100
AcDbEntity
  8
0
  6
Continuous
 62
     7
370
    30
100
AcDbLine
 10
59.3903860186
 20
399.2029317253
 30
0.0
 11
59.4762093156
 21
399.2259280085
 31
0.0
  0
LINE
  5
E0
330
1F
100
AcDbEntity
  8
0
  6
Continuous
 62
     7
370
    30
100
AcDbLine
 10
59.4677479684
 20
403.7753878186
 30
0.0
 11
59.3903860186
 21
403.7961168906
 31
0.0
  0
ARC
  5
E1
330
1F
100
AcDbEntity
  8
0
  6
Continuous
 62
     7
370
    30
100
AcDbCircle
 10
79.142522215
 20
401.499524308
 30
0.0
 40
19.99999999999991
100
AcDbArc
 50
173.6528190481
 51
186.3471809519
  0
LINE
  5
E2
330
1F
100
AcDbEntity
  8
0
  6
Continuous
 62
     7
370
    30
100
AcDbLine
 10
59.7259698195
 20
471.5218049904
 30
0.0
 11
59.5960857233
 21
471.5218049904
 31
0.0
  0
LINE
  5
E3
330
1F
100
AcDbEntity
  8
0
  6
Continuous
 62
     7
370
    30
100
AcDbLine
 10
51.5314847475
 20
346.4683486178
 30
0.0
 11
59.7853221739
 21
346.4683486178
 31
0.0
  0
LINE
  5
E4
330
1F
100
AcDbEntity
  8
0
  6
Continuous
 62
     7
370
    30
100
AcDbLine
 10
59.3933985573
 20
396.4683486178
 30
0.0
 11
51.5314847475
 21
396.4683486178
 31
0.0
  0
LWPOLYLINE
  5
E5
330
1F
100
AcDbEntity
  8
0
  6
Continuous
 62
     7
370
    30
100
AcDbPolyline
 90
        3
 70
   128
 43
0.0
 10
51.5314847475
 20
396.4683486178
 10
51.4958151559
 20
396.4670746751
 10
51.4607045177
 20
396.4633134237
  0
LWPOLYLINE
  5
E6
330
1F
100
AcDbEntity
  8
0
  6
Continuous
 62
     7
370
    30
100
AcDbPolyline
 90
        3
 70
   128
 43
0.0
 10
51.4607045177
 20
346.4733838119
 10
51.4958151559
 20
346.4696225605
 10
51.5314847475
 20
346.4683486178
  0
LINE
  5
E7
330
1F
100
AcDbEntity
  8
0
  6
Continuous
 62
     7
370
    30
100
AcDbLine
 10
51.4607045177
 20
396.4682518993
 30
0.0
 11
48.1638165146
 21
396.4682518993
 31
0.0
  0
LINE
  5
E8
330
1F
100
AcDbEntity
  8
0
  6
Continuous
 62
     7
370
    30
100
AcDbLine
 10
27.9607045177
 20
346.4684453363
 30
0.0
 11
51.4607045177
 21
346.4684453363
 31
0.0
  0
ARC
  5
E9
330
1F
100
AcDbEntity
  8
0
  6
Continuous
 62
     7
370
    30
100
AcDbCircle
 10
27.9607045177
 20
347.4684453363
 30
0.0
 40
1.0
100
AcDbArc
 50
180.0
 51
270.0
  0
ARC
  5
EA
330
1F
100
AcDbEntity
  8
0
  6
Continuous
 62
     7
370
    30
100
AcDbCircle
 10
36.4607045177
 20
397.4682518993
 30
0.0
 40
1.000000000000007
100
AcDbArc
 50
180.0
 51
217.1660522557
  0
SPLINE
  5
EB
330
1F
100
AcDbEntity
  8
0
  6
Continuous
 62
     7
370
    30
100
AcDbSpline
210
0.0
220
0.0
230
1.0
 70
     8
 71
     3
 72
   103
 73
    99
 74
     0
 42
0.000000001
 43
0.00000001
 40
0.0
 40
0.0
 40
0.0
 40
0.0
 40
0.0111699881851446
 40
0.0232329579365938
 40
0.0325417882878948
 40
0.0418591453201751
 40
0.0511765023851391
 40
0.0604853327810491
 40
0.0725482960022224
 40
0.0846205420268702
 40
0.0966835052665302
 40
0.1059923315352521
 40
0.1153096844218422
 40
0.1246270372947762
 40
0.1339358635448597
 40
0.1459988694930128
 40
0.1580711583648321
 40
0.1701341642476526
 40
0.1794430284385949
 40
0.1887604194985521
 40
0.1980778105033183
 40
0.2073866746189304
 40
0.2194496064472208
 40
0.2315218212544898
 40
0.2435847529611122
 40
0.2528935647578764
 40
0.2622109035634723
 40
0.2715282422965309
 40
0.2808370539942901
 40
0.2928998022366149
 40
0.3049718333671793
 40
0.3170345814858961
 40
0.326343252988609
 40
0.3356604514085468
 40
0.3449776497714158
 40
0.3542863211962347
 40
0.3663488576799964
 40
0.3784206768528418
 40
0.3904832132673909
 40
0.3997917185975789
 40
0.4091087505585992
 40
0.4184257825041532
 40
0.4277342878132315
 40
0.4397966804284764
 40
0.4518683555145952
 40
0.4639307481468096
 40
0.4732391367786272
 40
0.4825560516890462
 40
0.4918729666327125
 40
0.5011813553099086
 40
0.5132437378611925
 40
0.5253154027459047
 40
0.5373777853925268
 40
0.5466861602654172
 40
0.5560030611602768
 40
0.5653199621218143
 40
0.5746283370857126
 40
0.5866908479985582
 40
0.598762641251319
 40
0.6108251522941723
 40
0.6201336226625962
 40
0.6294506190095568
 40
0.6387676154261965
 40
0.6480760858897263
 40
0.6601388047336743
 40
0.6722108060645458
 40
0.6842735250142431
 40
0.6935821563122262
 40
0.7028993137767161
 40
0.7122164712826353
 40
0.7215251026371642
 40
0.7335880144808984
 40
0.7456602090309096
 40
0.7577231209095062
 40
0.7670319053539673
 40
0.776349216295374
 40
0.7856665272322846
 40
0.7949753116706099
 40
0.8070383157121095
 40
0.8191106026513488
 40
0.8311736066434521
 40
0.840482468187682
 40
0.8497998565495416
 40
0.8591172448643777
 40
0.8684261063444253
 40
0.8804890636427313
 40
0.8925613039175859
 40
0.9046242611065054
 40
0.9139330915739332
 40
0.9232504490278713
 40
0.9325678064139656
 40
0.9418766367887949
 40
0.953939433111553
 40
0.9660115123463842
 40
0.9780743085484274
 40
0.9873830167211612
 40
0.9967002518307638
 40
1.0
 40
1.0
 40
1.0
 40
1.0
 10
59.45313732797448
 20
399.2197458880205
 30
0.0
 10
59.45342052820306
 20
399.1855780103036
 30
0.0
 10
59.45400956902291
 20
399.1145107134882
 30
0.0
 10
59.4548593849092
 20
399.0232395451946
 30
0.0
 10
59.45567312727933
 20
398.9424252972599
 30
0.0
 10
59.45642360960674
 20
398.8736217769641
 30
0.0
 10
59.45718194271107
 20
398.8095763902643
 30
0.0
 10
59.45802200034581
 20
398.7446459395869
 30
0.0
 10
59.45894470456184
 20
398.6808313681755
 30
0.0
 10
59.45994895198702
 20
398.620395920293
 30
0.0
 10
59.46087916260759
 20
398.5727008254259
 30
0.0
 10
59.46173223954401
 20
398.5357387445109
 30
0.0
 10
59.46250722601616
 20
398.5074991078466
 30
0.0
 10
59.4632790086839
 20
398.4847141187345
 30
0.0
 10
59.46412152105146
 20
398.4657410812691
 30
0.0
 10
59.46503136060087
 20
398.4527322479221
 30
0.0
 10
59.46600284931778
 20
398.4479814641353
 30
0.0
 10
59.46688543452213
 20
398.4522247116922
 30
0.0
 10
59.46768065451948
 20
398.4631880449297
 30
0.0
 10
59.46839188911842
 20
398.4787192894394
 30
0.0
 10
59.46908897369141
 20
398.4997577377269
 30
0.0
 10
59.4698375260678
 20
398.5288834129914
 30
0.0
 10
59.47063012732262
 20
398.5681469030615
 30
0.0
 10
59.47145713448389
 20
398.6196170270143
 30
0.0
 10
59.47219035824285
 20
398.6753205310873
 30
0.0
 10
59.47283587627954
 20
398.7329735159569
 30
0.0
 10
59.47340108128971
 20
398.7905247950396
 30
0.0
 10
59.47394270335121
 20
398.8530148629077
 30
0.0
 10
59.47451044285278
 20
398.9269552179753
 30
0.0
 10
59.47509369608872
 20
399.0140635700158
 30
0.0
 10
59.47567995520449
 20
399.1159504442658
 30
0.0
 10
59.47617833606119
 20
399.2168327359171
 30
0.0
 10
59.47659880088573
 20
399.3146741079783
 30
0.0
 10
59.47695193183522
 20
399.4077556468375
 30
0.0
 10
59.47727474141725
 20
399.5046506475094
 30
0.0
 10
59.47759520591065
 20
399.6150678126289
 30
0.0
 10
59.47790076935395
 20
399.7401983491317
 30
0.0
 10
59.47817752102709
 20
399.8810129668054
 30
0.0
 10
59.47838255482403
 20
400.015698415514
 30
0.0
 10
59.47852857564332
 20
400.1426955097618
 30
0.0
 10
59.47862812882396
 20
400.2608114111309
 30
0.0
 10
59.47869416742006
 20
400.3811855045697
 30
0.0
 10
59.47872965886422
 20
400.5156293436555
 30
0.0
 10
59.47872157337278
 20
400.664673383946
 30
0.0
 10
59.47865623699455
 20
400.8285391435682
 30
0.0
 10
59.47854377965919
 20
400.981842318755
 30
0.0
 10
59.47839816098319
 20
401.1236766457636
 30
0.0
 10
59.47823241385111
 20
401.2535098230257
 30
0.0
 10
59.47803390777369
 20
401.3837914271824
 30
0.0
 10
59.47778025201129
 20
401.5271045915558
 30
0.0
 10
59.47745948021607
 20
401.6832592340162
 30
0.0
 10
59.47705976510302
 20
401.8517027191555
 30
0.0
 10
59.47664307729274
 20
402.0063410965075
 30
0.0
 10
59.47622298484954
 20
402.1470231738974
 30
0.0
 10
59.475811469939
 20
402.2739371689981
 30
0.0
 10
59.47537180420968
 20
402.3994393751485
 30
0.0
 10
59.47485886981764
 20
402.5354660291724
 30
0.0
 10
59.47426316551066
 20
402.6811279097261
 30
0.0
 10
59.47357608751167
 20
402.8351604823032
 30
0.0
 10
59.47290414947487
 20
402.9737017319085
 30
0.0
 10
59.47225893172929
 20
403.0973725742358
 30
0.0
 10
59.47164995964272
 20
403.2070605163034
 30
0.0
 10
59.47102071430428
 20
403.3136356326536
 30
0.0
 10
59.47030863177986
 20
403.4270413352745
 30
0.0
 10
59.46950776527557
 20
403.5457894657031
 30
0.0
 10
59.46861370560791
 20
403.6680460924262
 30
0.0
 10
59.46776503080243
 20
403.7748715515384
 30
0.0
 10
59.46696998912945
 20
403.8675888776338
 30
0.0
 10
59.46623455288548
 20
403.947684827769
 30
0.0
 10
59.46548899880772
 20
404.0233177680979
 30
0.0
 10
59.46466058408108
 20
404.1013168523677
 30
0.0
 10
59.46374755878154
 20
404.1797627432489
 30
0.0
 10
59.46275015646133
 20
404.2564588588492
 30
0.0
 10
59.46182293193662
 20
404.3195236576555
 30
0.0
 10
59.46096987725068
 20
404.3708331553676
 30
0.0
 10
59.46019276146416
 20
404.4123057691135
 30
0.0
 10
59.4594166985373
 20
404.4484682516855
 30
0.0
 10
59.45856711386792
 20
404.4822653669617
 30
0.0
 10
59.45764657902986
 20
404.5115630187485
 30
0.0
 10
59.45665985453697
 20
404.534049670776
 30
0.0
 10
59.45575978309655
 20
404.546241788363
 30
0.0
 10
59.45494570648479
 20
404.5503568723889
 30
0.0
 10
59.45421505993691
 20
404.5485287243894
 30
0.0
 10
59.45349630370162
 20
404.5411419835456
 30
0.0
 10
59.45272144213376
 20
404.5269251983522
 30
0.0
 10
59.45189698327989
 20
404.5037701656017
 30
0.0
 10
59.45103158066764
 20
404.4695110700801
 30
0.0
 10
59.45025922217047
 20
404.4294550018394
 30
0.0
 10
59.44957476679431
 20
404.3859109683136
 30
0.0
 10
59.44897170084985
 20
404.3409874335339
 30
0.0
 10
59.44838979811323
 20
404.290884000782
 30
0.0
 10
59.44777515815042
 20
404.2302548047999
 30
0.0
 10
59.44713735859325
 20
404.1572639336194
 30
0.0
 10
59.44648816336839
 20
404.0700991495664
 30
0.0
 10
59.44592716076087
 20
403.9823917372561
 30
0.0
 10
59.4454482400972
 20
403.8958647586861
 30
0.0
 10
59.44512197120823
 20
403.8314204453631
 30
0.0
 10
59.44495087253225
 20
403.79185572339
 30
0.0
 10
59.44490612470859
 20
403.7815082721798
 30
0.0
  0
SPLINE
  5
EC
330
1F
100
AcDbEntity
  8
0
  6
Continuous
 62
     7
370
    30
100
AcDbSpline
210
0.0
220
0.0
230
1.0
 70
     8
 71
     3
 72
    69
 73
    65
 74
     0
 42
0.000000001
 43
0.00000001
 40
0.0
 40
0.0
 40
0.0
 40
0.0
 40
0.0059036414083209
 40
0.0208476234268284
 40
0.0357923117161941
 40
0.0507362937344724
 40
0.0657057729710697
 40
0.080675962100565
 40
0.0956454413366006
 40
0.1125300579737335
 40
0.1294167122674658
 40
0.1463033665590572
 40
0.1631879831932705
 40
0.1801382294200384
 40
0.1970905371665206
 40
0.2140428449106741
 40
0.2309930911342664
 40
0.2486568481314964
 40
0.2663229381625424
 40
0.2839890281917133
 40
0.3016527851863859
 40
0.3193917316818434
 40
0.3371330411405453
 40
0.3548743505991457
 40
0.3726132970944649
 40
0.3875572777450218
 40
0.4025019646718635
 40
0.4174459453229902
 40
0.4324154233541082
 40
0.4473856112824441
 40
0.4623550893146403
 40
0.479239704903444
 40
0.4961263581502949
 40
0.5130130114014892
 40
0.5298976269962169
 40
0.5468478719981194
 40
0.5638001785048224
 40
0.5807524850177728
 40
0.5977027300281955
 40
0.6153664836855212
 40
0.63303257033625
 40
0.6506986569962908
 40
0.6683624106663163
 40
0.6861013521624951
 40
0.7038426565555009
 40
0.7215839609596553
 40
0.7393229024710388
 40
0.7542669468671468
 40
0.7692116975245763
 40
0.7841557419246111
 40
0.7991252830441457
 40
0.8140955340414445
 40
0.8290650751651508
 40
0.8459497605383915
 40
0.862836483496861
 40
0.8797232064664603
 40
0.8966078918548803
 40
0.9135582040821397
 40
0.9305105777257809
 40
0.9474629513811156
 40
0.9644132636243221
 40
0.9820770570562881
 40
0.9997431833575054
 40
0.9999999999999999
 40
0.9999999999999999
 40
0.9999999999999999
 40
0.9999999999999999
 10
59.39124086005306
 20
396.8487740883464
 30
0.0
 10
59.39123968444434
 20
396.8489867653477
 30
0.0
 10
59.39123553299839
 20
396.849737795047
 30
0.0
 10
59.39125944425135
 20
396.8454245692026
 30
0.0
 10
59.39130821326376
 20
396.8366435344982
 30
0.0
 10
59.39138583405283
 20
396.8226882472659
 30
0.0
 10
59.39148979476289
 20
396.8040288582206
 30
0.0
 10
59.39162104790152
 20
396.7805332455161
 30
0.0
 10
59.39178629589123
 20
396.7510453679361
 30
0.0
 10
59.39199005031633
 20
396.7148142796253
 30
0.0
 10
59.39223717858633
 20
396.6710745931496
 30
0.0
 10
59.39252009434447
 20
396.6212634833483
 30
0.0
 10
59.39283962559745
 20
396.5653210885613
 30
0.0
 10
59.39319642325863
 20
396.5032251186527
 30
0.0
 10
59.39359117475066
 20
396.4349667312386
 30
0.0
 10
59.39402390347571
 20
396.3606470915057
 30
0.0
 10
59.39450171455774
 20
396.2791582597706
 30
0.0
 10
59.39502712413312
 20
396.190209835573
 30
0.0
 10
59.39560265967847
 20
396.0935238770382
 30
0.0
 10
59.39622165604285
 20
395.9903460091724
 30
0.0
 10
59.39688557360056
 20
395.8805505808139
 30
0.0
 10
59.39759524643432
 20
395.7641226511562
 30
0.0
 10
59.39835133532968
 20
395.6410630617481
 30
0.0
 10
59.39915321691416
 20
395.5115768564461
 30
0.0
 10
59.39995676000211
 20
395.3828373803669
 30
0.0
 10
59.40075420720953
 20
395.2559926005054
 30
0.0
 10
59.40153812009151
 20
395.1321024236406
 30
0.0
 10
59.40235594307167
 20
395.0036731976566
 30
0.0
 10
59.40320793082248
 20
394.8707180320004
 30
0.0
 10
59.40409425480976
 20
394.7332555689087
 30
0.0
 10
59.40505378376069
 20
394.5853380895751
 30
0.0
 10
59.40609197483092
 20
394.4263054971143
 30
0.0
 10
59.4072144435108
 20
394.2554858245427
 30
0.0
 10
59.4083803924357
 20
394.0791775850484
 30
0.0
 10
59.40959140130452
 20
393.8971934246559
 30
0.0
 10
59.41084779419916
 20
393.7095399095622
 30
0.0
 10
59.41214971614253
 20
393.5162360584199
 30
0.0
 10
59.41349541143732
 20
393.3175805402299
 30
0.0
 10
59.41490425044734
 20
393.1107668278436
 30
0.0
 10
59.41637842406008
 20
392.8955678117999
 30
0.0
 10
59.41791995184369
 20
392.6717727769469
 30
0.0
 10
59.4195084268068
 20
392.4423891881637
 30
0.0
 10
59.42114589372438
 20
392.207152816686
 30
0.0
 10
59.42283247310349
 20
391.966082093675
 30
0.0
 10
59.42456810417362
 20
391.7192094540296
 30
0.0
 10
59.42634998253739
 20
391.4669544549921
 30
0.0
 10
59.42808172797104
 20
391.2229191170644
 30
0.0
 10
59.42975502016989
 20
390.9880888183603
 30
0.0
 10
59.43136220826221
 20
390.7633561624816
 30
0.0
 10
59.43300217141057
 20
390.5348533185402
 30
0.0
 10
59.43467473406458
 20
390.3026143622571
 30
0.0
 10
59.43637966465388
 20
390.066678026132
 30
0.0
 10
59.4381897569
 20
389.8170100345807
 30
0.0
 10
59.44010958775133
 20
389.5531061644314
 30
0.0
 10
59.44214373118812
 20
389.274466345045
 30
0.0
 10
59.44421620197403
 20
388.9915392769894
 30
0.0
 10
59.44632918523509
 20
388.7040322589407
 30
0.0
 10
59.44848252221536
 20
388.4119769224079
 30
0.0
 10
59.45067581072701
 20
388.11542918771
 30
0.0
 10
59.4529060291642
 20
387.8148097989582
 30
0.0
 10
59.45520290666536
 20
387.5060873187514
 30
0.0
 10
59.45757337507299
 20
387.1885196250493
 30
0.0
 10
59.45920115609985
 20
386.9707963301263
 30
0.0
 10
59.46003810597773
 20
386.859280727401
 30
0.0
 10
59.46005009857618
 20
386.8576828278391
 30
0.0
  0
SPLINE
  5
ED
330
1F
100
AcDbEntity
  8
0
  6
Continuous
 62
     7
370
    30
100
AcDbSpline
210
0.0
220
0.0
230
1.0
 70
     8
 71
     3
 72
    60
 73
    56
 74
     0
 42
0.000000001
 43
0.00000001
 40
0.0
 40
0.0
 40
0.0
 40
0.0
 40
0.0150033447163685
 40
0.0324868944014729
 40
0.0499712704119978
 40
0.067454820091644
 40
0.0849682012890319
 40
0.1024824130564043
 40
0.1199957942483222
 40
0.1397497721981861
 40
0.1595061342196725
 40
0.1792624962274759
 40
0.1990164741586789
 40
0.2188472395319925
 40
0.2386804169226863
 40
0.2585135942999688
 40
0.2783443596549918
 40
0.2990099418458501
 40
0.3196782537783751
 40
0.3403465656959411
 40
0.3610121478663979
 40
0.3817657052021104
 40
0.4025220273302649
 40
0.4232783494443681
 40
0.4440319067609167
 40
0.4615148738249354
 40
0.4789986671850505
 40
0.4964816342449297
 40
0.5139944317142707
 40
0.5315080597223572
 40
0.5490208571878508
 40
0.5687741765354605
 40
0.5885298798551604
 40
0.6082855831661995
 40
0.6280389025019977
 40
0.6478690058956448
 40
0.6677015211936257
 40
0.6875340364843123
 40
0.7073641398680108
 40
0.7280290231355644
 40
0.748696635996864
 40
0.7693642488515194
 40
0.7900291321100118
 40
0.8107819854718052
 40
0.8315376034560414
 40
0.852293221435677
 40
0.8730460747911963
 40
0.8905285837969522
 40
0.9080119190630466
 40
0.9254944280679135
 40
0.9430067660720608
 40
0.9605199345746979
 40
0.9780322725784152
 40
0.9977850725683827
 40
1.0
 40
1.0
 40
1.0
 40
1.0
 10
59.72621184739757
 20
353.5924139679342
 30
0.0
 10
59.7267948249194
 20
353.5218928280068
 30
0.0
 10
59.728057152057
 20
353.3691926888577
 30
0.0
 10
59.72996124811822
 20
353.1389496714899
 30
0.0
 10
59.73193562084125
 20
352.9002623440109
 30
0.0
 10
59.73388147283878
 20
352.665086687348
 30
0.0
 10
59.73579967614745
 20
352.4333107697394
 30
0.0
 10
59.73768943950111
 20
352.2050281358033
 30
0.0
 10
59.73962870354054
 20
351.9708226113164
 30
0.0
 10
59.74161242055875
 20
351.73130889864
 30
0.0
 10
59.74363518365396
 20
351.4871442660796
 30
0.0
 10
59.74561845884399
 20
351.2478067477701
 30
0.0
 10
59.7475641602343
 20
351.0130613196063
 30
0.0
 10
59.74947163980436
 20
350.7829823401002
 30
0.0
 10
59.75134033318275
 20
350.5576342756732
 30
0.0
 10
59.75316722511501
 20
350.3373769967599
 30
0.0
 10
59.75497679484128
 20
350.1192560695648
 30
0.0
 10
59.75676648952326
 20
349.9035776609062
 30
0.0
 10
59.75853374690764
 20
349.6906489396516
 30
0.0
 10
59.76025357896442
 20
349.483477359469
 30
0.0
 10
59.76192778227146
 20
349.2818427141673
 30
0.0
 10
59.76355566445503
 20
349.0858247541959
 30
0.0
 10
59.76513664460317
 20
348.895490123179
 30
0.0
 10
59.76666791478262
 20
348.7111734664682
 30
0.0
 10
59.76807115781526
 20
348.5422966238212
 30
0.0
 10
59.76935481450526
 20
348.3878353526507
 30
0.0
 10
59.77052699214971
 20
348.2468074630898
 30
0.0
 10
59.77166343978064
 20
348.1100963152581
 30
0.0
 10
59.77276383658016
 20
347.9777387132082
 30
0.0
 10
59.77382790553612
 20
347.8497663328146
 30
0.0
 10
59.77489860062388
 20
347.7210122030169
 30
0.0
 10
59.77596992570894
 20
347.5921977527143
 30
0.0
 10
59.77703554173149
 20
347.4640853266762
 30
0.0
 10
59.77805305503099
 20
347.3417702102948
 30
0.0
 10
59.779023403659
 20
347.225137595439
 30
0.0
 10
59.77994610721804
 20
347.114243221759
 30
0.0
 10
59.78082079057653
 20
347.0091305233718
 30
0.0
 10
59.78164601228731
 20
346.9099710440595
 30
0.0
 10
59.78243239305748
 20
346.8154870183093
 30
0.0
 10
59.78317723216732
 20
346.7260015951821
 30
0.0
 10
59.78387787453562
 20
346.6418326695776
 30
0.0
 10
59.78452394316481
 20
346.5642254898731
 30
0.0
 10
59.78511605008043
 20
346.4931050976246
 30
0.0
 10
59.7856537205403
 20
346.42852708813
 30
0.0
 10
59.78613661164026
 20
346.3705316737462
 30
0.0
 10
59.7865638226703
 20
346.3192260539524
 30
0.0
 10
59.7869156826595
 20
346.2769714996101
 30
0.0
 10
59.78720188442379
 20
346.2426028531689
 30
0.0
 10
59.78743153029915
 20
346.2150265041557
 30
0.0
 10
59.7876215803245
 20
346.1922054365545
 30
0.0
 10
59.78777150187891
 20
346.1742032574105
 30
0.0
 10
59.78788267942155
 20
346.1608535554527
 30
0.0
 10
59.78795235918633
 20
346.1524868314502
 30
0.0
 10
59.7879834926101
 20
346.1487484810461
 30
0.0
 10
59.78797530565127
 20
346.1497315106682
 30
0.0
 10
59.78797448018948
 20
346.1498306260311
 30
0.0
  0
SPLINE
  5
EE
330
1F
100
AcDbEntity
  8
0
  6
Continuous
 62
     7
370
    30
100
AcDbSpline
210
0.0
220
0.0
230
1.0
 70
     8
 71
     3
 72
    80
 73
    76
 74
     0
 42
0.000000001
 43
0.00000001
 40
0.0
 40
0.0
 40
0.0
 40
0.0
 40
0.0127885716593759
 40
0.0255771433185545
 40
0.038387681501089
 40
0.0511982196833213
 40
0.0640754602331298
 40
0.0769527007825293
 40
0.0898523689147398
 40
0.1027520370464387
 40
0.1159089174213344
 40
0.1290657977955713
 40
0.1422466020745879
 40
0.1554274063528424
 40
0.1686809086960836
 40
0.1819344110384509
 40
0.1952123694732068
 40
0.2084903279069951
 40
0.221280157555533
 40
0.2340699872031707
 40
0.2468817901102324
 40
0.2596935930163293
 40
0.272572118993448
 40
0.2854506449695333
 40
0.2983516055672539
 40
0.3112525661638887
 40
0.3244108222250037
 40
0.3375690782849065
 40
0.3507512661563233
 40
0.3639334540264901
 40
0.3771883642581732
 40
0.3904432744885585
 40
0.4037226490619912
 40
0.4170020236341072
 40
0.4297917817009476
 40
0.4425815397666573
 40
0.4553932711436144
 40
0.4682050025194423
 40
0.4810834571491152
 40
0.4939619117776494
 40
0.506862801098439
 40
0.5197636904181081
 40
0.5329218760621756
 40
0.5460800617050637
 40
0.5592621792493566
 40
0.5724442967925049
 40
0.585699136964733
 40
0.5989539771358402
 40
0.6122332817338583
 40
0.625512586330804
 40
0.6383022198790268
 40
0.6510918534263805
 40
0.6639034600437265
 40
0.6767150666602534
 40
0.694024847488606
 40
0.7113380252489527
 40
0.7286478060688247
 40
0.7460813204141207
 40
0.7635183051066441
 40
0.7809518194447986
 40
0.7942065289537288
 40
0.8074612384620965
 40
0.8207404119883974
 40
0.8340195855142153
 40
0.8468091191214754
 40
0.859598652728391
 40
0.8724101591223956
 40
0.8852216655161245
 40
0.9025313092239524
 40
0.9198443498136041
 40
0.9371539935194799
 40
0.9545873686726477
 40
0.9720242141125045
 40
0.9894575892654188
 40
1.0
 40
1.0
 40
1.0
 40
1.0
 10
59.43168025976806
 20
436.8995243142525
 30
0.0
 10
59.43149484923048
 20
436.8595200364243
 30
0.0
 10
59.43112402815533
 20
436.7795114807687
 30
0.0
 10
59.43056857645504
 20
436.6594813269618
 30
0.0
 10
59.43001392523695
 20
436.5394854491145
 30
0.0
 10
59.42945942191671
 20
436.4193674625816
 30
0.0
 10
59.4289056227678
 20
436.2992488226543
 30
0.0
 10
59.42835246668078
 20
436.1791132211163
 30
0.0
 10
59.4278011612322
 20
436.0592213143396
 30
0.0
 10
59.42724830367175
 20
435.9388309532544
 30
0.0
 10
59.42669451960482
 20
435.8180736025173
 30
0.0
 10
59.42613978939307
 20
435.6969407245181
 30
0.0
 10
59.42558800740407
 20
435.5762806923556
 30
0.0
 10
59.42503842092587
 20
435.4559283689916
 30
0.0
 10
59.42449164001864
 20
435.3360160352681
 30
0.0
 10
59.42394760180003
 20
435.2165293051323
 30
0.0
 10
59.42340756765341
 20
435.0977449106491
 30
0.0
 10
59.42287835365981
 20
434.9811650571422
 30
0.0
 10
59.42236033372355
 20
434.8668804964682
 30
0.0
 10
59.42185322381
 20
434.7548375069686
 30
0.0
 10
59.42135074046278
 20
434.6436508930265
 30
0.0
 10
59.42085223381088
 20
434.5331782492876
 30
0.0
 10
59.42035823214729
 20
434.4235373509763
 30
0.0
 10
59.4198686844065
 20
434.3147183052458
 30
0.0
 10
59.41938466191473
 20
434.2069609680888
 30
0.0
 10
59.41890319080469
 20
434.0996049253243
 30
0.0
 10
59.41842489537907
 20
433.9927883075383
 30
0.0
 10
59.41794983226557
 20
433.8865235660106
 30
0.0
 10
59.41748135674202
 20
433.7815633757962
 30
0.0
 10
59.4170188237229
 20
433.6777669852372
 30
0.0
 10
59.41656275909803
 20
433.5752554638855
 30
0.0
 10
59.41611311645835
 20
433.4740222914576
 30
0.0
 10
59.41567093774245
 20
433.3743062755692
 30
0.0
 10
59.41524175382529
 20
433.2773619996908
 30
0.0
 10
59.41482567380162
 20
433.1832262268068
 30
0.0
 10
59.4144222726688
 20
433.0918150386136
 30
0.0
 10
59.41402647732102
 20
433.0019858355117
 30
0.0
 10
59.41363776870272
 20
432.9136263208777
 30
0.0
 10
59.4132565683071
 20
432.8268372678758
 30
0.0
 10
59.41288284108096
 20
432.7416163217941
 30
0.0
 10
59.41251740291536
 20
432.6581554143344
 30
0.0
 10
59.41215802150279
 20
432.5759505656489
 30
0.0
 10
59.41180524474245
 20
432.4951309576888
 30
0.0
 10
59.41145919204696
 20
432.4157286300758
 30
0.0
 10
59.41112232731079
 20
432.3383154239336
 30
0.0
 10
59.41079418046602
 20
432.262790897163
 30
0.0
 10
59.41047513837095
 20
432.1892512137338
 30
0.0
 10
59.41016517712205
 20
432.1176984586189
 30
0.0
 10
59.40986501593276
 20
432.0483064976318
 30
0.0
 10
59.40957833873517
 20
431.9819365070744
 30
0.0
 10
59.40930500052685
 20
431.9185671812855
 30
0.0
 10
59.40904450034331
 20
431.8580939590154
 30
0.0
 10
59.40879349831121
 20
431.799749989033
 30
0.0
 10
59.40852382832153
 20
431.736987356595
 30
0.0
 10
59.4082401145583
 20
431.6708599184002
 30
0.0
 10
59.40794755456051
 20
431.6025616676462
 30
0.0
 10
59.40767254475048
 20
431.5382624884293
 30
0.0
 10
59.40741541941328
 20
431.4780577487782
 30
0.0
 10
59.40717642442002
 20
431.4220210483917
 30
0.0
 10
59.40697387791567
 20
431.3744690207607
 30
0.0
 10
59.40680298615975
 20
431.3343070619104
 30
0.0
 10
59.40665926467336
 20
431.3005015601036
 30
0.0
 10
59.40652653646068
 20
431.2692570329913
 30
0.0
 10
59.40640634960296
 20
431.240943752732
 30
0.0
 10
59.40629835072922
 20
431.2154848329839
 30
0.0
 10
59.40620203699334
 20
431.1927668318946
 30
0.0
 10
59.40611609886476
 20
431.1724853492221
 30
0.0
 10
59.40603173081888
 20
431.1525646554332
 30
0.0
 10
59.40595373807115
 20
431.1341404383908
 30
0.0
 10
59.40588750614302
 20
431.1184870545763
 30
0.0
 10
59.40584039004712
 20
431.1073472023209
 30
0.0
 10
59.40581243691
 20
431.1007374852904
 30
0.0
 10
59.40580442800711
 20
431.0988432887629
 30
0.0
 10
59.4058127588789
 20
431.1008133003149
 30
0.0
 10
59.40582932018161
 20
431.1047294586706
 30
0.0
 10
59.40583556115216
 20
431.1062052259665
 30
0.0
  0
SPLINE
  5
EF
330
1F
100
AcDbEntity
  8
0
  6
Continuous
 62
     7
370
    30
100
AcDbSpline
210
0.0
220
0.0
230
1.0
 70
     8
 71
     3
 72
    14
 73
    10
 74
     0
 42
0.000000001
 43
0.00000001
 40
0.0
 40
0.0
 40
0.0
 40
0.0
 40
0.038785098341953
 40
0.1989221448594611
 40
0.3590591913970076
 40
0.5192941722334298
 40
0.6795291531107147
 40
0.8397645765071394
 40
1.0
 40
1.0
 40
1.0
 40
1.0
 10
59.59608572329683
 20
459.6076392258819
 30
0.0
 10
59.59311698537368
 20
459.3140673819019
 30
0.0
 10
59.57789083562945
 20
457.8083875365137
 30
0.0
 10
59.55340931469994
 20
455.0905702652366
 30
0.0
 10
59.52275846170877
 20
451.4534481303072
 30
0.0
 10
59.49536162234182
 20
447.8155582089877
 30
0.0
 10
59.47097791556485
 20
444.1769024581218
 30
0.0
 10
59.44941992547883
 20
440.5382251486287
 30
0.0
 10
59.43759348167283
 20
438.1124245926212
 30
0.0
 10
59.43168025976806
 20
436.8995243142525
 30
0.0
  0
SPLINE
  5
F0
330
1F
100
AcDbEntity
  8
0
  6
Continuous
 62
     7
370
    30
100
AcDbSpline
210
0.0
220
0.0
230
1.0
 70
     8
 71
     3
 72
    34
 73
    30
 74
     0
 42
0.000000001
 43
0.00000001
 40
0.0
 40
0.0
 40
0.0
 40
0.0
 40
0.00328184679502
 40
0.0496366110188788
 40
0.0848801814285231
 40
0.1201237518405201
 40
0.1554323734720295
 40
0.1907409951078594
 40
0.2247469662141843
 40
0.258752937325847
 40
0.2928173310789147
 40
0.3268817248389241
 40
0.3729061587011961
 40
0.4189396243250833
 40
0.4649640582947578
 40
0.5113174698425496
 40
0.5576801081646044
 40
0.6040335198566557
 40
0.6392760174931517
 40
0.674518515145607
 40
0.7098260541940279
 40
0.7451335932598525
 40
0.7791400566831805
 40
0.8131465201224937
 40
0.8472114041828471
 40
0.8812762882601862
 40
0.9273013453044117
 40
0.9733354336727815
 40
1.0
 40
1.0
 40
1.0
 40
1.0
 10
59.72913548002194
 20
471.7993706620069
 30
0.0
 10
59.72913605074416
 20
471.7994206924437
 30
0.0
 10
59.72914468268794
 20
471.8001773826515
 30
0.0
 10
59.72911554262833
 20
471.7976229006093
 30
0.0
 10
59.72905469834219
 20
471.7922891792756
 30
0.0
 10
59.72896539636426
 20
471.7844607097541
 30
0.0
 10
59.72884663875348
 20
471.7740499393281
 30
0.0
 10
59.72869897946062
 20
471.7611052893154
 30
0.0
 10
59.72852418065193
 20
471.7457811098315
 30
0.0
 10
59.7283234026096
 20
471.7281789460902
 30
0.0
 10
59.7280944765491
 20
471.7081084806491
 30
0.0
 10
59.72780738983307
 20
471.6829381031733
 30
0.0
 10
59.7274497410116
 20
471.6515798892374
 30
0.0
 10
59.7270076716127
 20
471.6128175747183
 30
0.0
 10
59.7265142862289
 20
471.5695529194667
 30
0.0
 10
59.72596944658945
 20
471.52177296878
 30
0.0
 10
59.72537330247499
 20
471.4694897634078
 30
0.0
 10
59.72477920237881
 20
471.4173813994218
 30
0.0
 10
59.72420044694667
 20
471.3666148113351
 30
0.0
 10
59.7236483063489
 20
471.3181792181481
 30
0.0
 10
59.72306791975954
 20
471.2672618445383
 30
0.0
 10
59.72246699722105
 20
471.2145385349702
 30
0.0
 10
59.72184732278554
 20
471.1601654054668
 30
0.0
 10
59.72120999238537
 20
471.1042382370463
 30
0.0
 10
59.72054730246949
 20
471.0460804456114
 30
0.0
 10
59.71977949274004
 20
470.9786911228913
 30
0.0
 10
59.71889403689934
 20
470.9009667252157
 30
0.0
 10
59.7180293186067
 20
470.8250542892737
 30
0.0
 10
59.71747078137871
 20
470.7760116121527
 30
0.0
 10
59.71726591991292
 20
470.7580236353128
 30
0.0
  0
SPLINE
  5
F1
330
1F
100
AcDbEntity
  8
0
  6
Continuous
 62
     7
370
    30
100
AcDbSpline
210
0.0
220
0.0
230
1.0
 70
     8
 71
     3
 72
    11
 73
     7
 74
     0
 42
0.000000001
 43
0.00000001
 40
0.0
 40
0.0
 40
0.0
 40
0.0
 40
0.2651178370730019
 40
0.5312300683516724
 40
0.7973775377917095
 40
1.0
 40
1.0
 40
1.0
 40
1.0
 10
62.03653054589434
 20
312.4995243079663
 30
0.0
 10
62.01053816274363
 20
312.5001192592777
 30
0.0
 10
61.95845590517008
 20
312.5013113934219
 30
0.0
 10
61.88092190977274
 20
312.510986789991
 30
0.0
 10
61.81027716498644
 20
312.5242365202099
 30
0.0
 10
61.76656847272363
 20
312.5370654448142
 30
0.0
 10
61.74767570198841
 20
312.5426106560476
 30
0.0
  0
SPLINE
  5
F2
330
1F
100
AcDbEntity
  8
0
  6
Continuous
 62
     7
370
    30
100
AcDbSpline
210
0.0
220
0.0
230
1.0
 70
     8
 71
     3
 72
    11
 73
     7
 74
     0
 42
0.000000001
 43
0.00000001
 40
0.0
 40
0.0
 40
0.0
 40
0.0
 40
0.2070062391003752
 40
0.4716905617813222
 40
0.7363397692176034
 40
1.0
 40
1.0
 40
1.0
 40
1.0
 10
61.78000848949487
 20
511.4560022643775
 30
0.0
 10
61.79941618434371
 20
511.4617032606782
 30
0.0
 10
61.84363913397996
 20
511.4746937200939
 30
0.0
 10
61.91481215941371
 20
511.488065316161
 30
0.0
 10
61.99235207589698
 20
511.4977358267369
 30
0.0
 10
62.04443731596672
 20
511.4989288920152
 30
0.0
 10
62.07043118513447
 20
511.4995243079663
 30
0.0
  0
LINE
  5
F3
330
1F
100
AcDbEntity
  8
0
  6
Continuous
 62
     7
370
    30
100
AcDbLine
 10
62.0704311851
 20
511.499524308
 30
0.0
 11
62.07271207
 21
511.499524308
 31
0.0
  0
LINE
  5
F4
330
1F
100
AcDbEntity
  8
0
  6
Continuous
 62
     7
370
    30
100
AcDbLine
 10
62.0365305459
 20
312.499524308
 30
0.0
 11
62.0386383213
 21
312.499524308
 31
0.0
  0
LINE
  5
F5
330
1F
100
AcDbEntity
  8
0
  6
Continuous
 62
     7
370
    30
100
AcDbLine
 10
68.8860857233
 20
510.999524308
 30
0.0
 11
68.8860857233
 21
312.999524308
 31
0.0
  0
LINE
  5
F6
330
1F
100
AcDbEntity
  8
0
  6
Continuous
 62
     7
370
    30
100
AcDbLine
 10
68.8860857233
 20
312.999524308
 30
0.0
 11
68.8860857233
 21
312.499524308
 31
0.0
  0
LINE
  5
F7
330
1F
100
AcDbEntity
  8
0
  6
Continuous
 62
     7
370
    30
100
AcDbLine
 10
62.0386383213
 20
312.499524308
 30
0.0
 11
68.8860857233
 21
312.499524308
 31
0.0
  0
LINE
  5
F8
330
1F
100
AcDbEntity
  8
0
  6
Continuous
 62
     7
370
    30
100
AcDbLine
 10
62.07271207
 20
511.499524308
 30
0.0
 11
68.8860857233
 21
511.499524308
 31
0.0
  0
LINE
  5
F9
330
1F
100
AcDbEntity
  8
0
  6
Continuous
 62
     7
370
    30
100
AcDbLine
 10
68.8860857233
 20
511.499524308
 30
0.0
 11
68.8860857233
 21
510.999524308
 31
0.0
  0
SPLINE
  5
FA
330
1F
100
AcDbEntity
  8
0
  6
Continuous
 62
     7
370
    30
100
AcDbSpline
210
0.0
220
0.0
230
1.0
 70
    24
 71
     3
 72
    21
 73
    17
 74
     0
 42
0.000000001
 43
0.00000001
 40
0.0
 40
0.0
 40
0.0
 40
0.0
 40
0.0624895019045287
 40
0.1249790038642514
 40
0.1874688074873223
 40
0.2499586111707786
 40
0.3332781407378312
 40
0.4165977144251551
 40
0.4999172446963848
 40
0.5832383386546897
 40
0.6665594758266324
 40
0.7498805703751681
 40
0.8332032422480858
 40
0.9165259566097083
 40
0.9998486287195045
 40
1.0
 40
1.0
 40
1.0
 40
1.0
 10
62.03653062285132
 20
312.4995243079663
 30
0.0
 10
62.00854046819911
 20
312.4995243079663
 30
0.0
 10
61.95256015886995
 20
312.4995243079663
 30
0.0
 10
61.87548038341395
 20
312.4995243079662
 30
0.0
 10
61.80343030621714
 20
312.4995243079663
 30
0.0
 10
61.72949804271995
 20
312.4995243079662
 30
0.0
 10
61.65583025689993
 20
312.4995243079663
 30
0.0
 10
61.58503453751729
 20
312.4995243079662
 30
0.0
 10
61.52375857465699
 20
312.4995243079663
 30
0.0
 10
61.47197997977247
 20
312.4995243079662
 30
0.0
 10
61.4296402819549
 20
312.4995243079663
 30
0.0
 10
61.39681864001763
 20
312.4995243079661
 30
0.0
 10
61.37309122623267
 20
312.4995243079669
 30
0.0
 10
61.35991903776402
 20
312.4995243079644
 30
0.0
 10
61.35449656433681
 20
312.4995243079703
 30
0.0
 10
61.35605765866557
 20
312.4995243079663
 30
0.0
 10
61.35606048954375
 20
312.4995243079663
 30
0.0
  0
SPLINE
  5
FB
330
1F
100
AcDbEntity
  8
0
  6
Continuous
 62
     7
370
    30
100
AcDbSpline
210
0.0
220
0.0
230
1.0
 70
    24
 71
     3
 72
    19
 73
    15
 74
     0
 42
0.000000001
 43
0.00000001
 40
0.0
 40
0.0
 40
0.0
 40
0.0
 40
0.0831617986334046
 40
0.166473204551777
 40
0.249784694877616
 40
0.3330961836953928
 40
0.4164075861336186
 40
0.4997188183690766
 40
0.5830988694777882
 40
0.6664790987976059
 40
0.7498594151452999
 40
0.8332397290330011
 40
0.9166199526759053
 40
1.0
 40
1.0
 40
1.0
 40
1.0
 10
61.38951058883195
 20
511.4995243079663
 30
0.0
 10
61.39040518904235
 20
511.4995243079663
 30
0.0
 10
61.39219599884042
 20
511.4995243079663
 30
0.0
 10
61.40677166859895
 20
511.4995243079663
 30
0.0
 10
61.43008498985553
 20
511.4995243079663
 30
0.0
 10
61.46300280142545
 20
511.4995243079663
 30
0.0
 10
61.50531508966209
 20
511.4995243079663
 30
0.0
 10
61.55711536041181
 20
511.4995243079663
 30
0.0
 10
61.61842084895056
 20
511.4995243079663
 30
0.0
 10
61.68930250975529
 20
511.4995243079663
 30
0.0
 10
61.7697068280538
 20
511.4995243079663
 30
0.0
 10
61.85990182061744
 20
511.4995243079663
 30
0.0
 10
61.95903504396073
 20
511.4995243079663
 30
0.0
 10
62.03329922435538
 20
511.4995243079663
 30
0.0
 10
62.07043127529224
 20
511.4995243079663
 30
0.0
  0
LINE
  5
FC
330
1F
100
AcDbEntity
  8
0
  6
Continuous
 62
     7
370
    30
100
AcDbLine
 10
59.5960857233
 20
465.8218049904
 30
0.0
 11
59.5960857233
 21
459.5906817212
 31
0.0
  0
LINE
  5
FD
330
1F
100
AcDbEntity
  8
0
  6
Continuous
 62
     7
370
    30
100
AcDbLine
 10
59.5960857233
 20
471.5218049904
 30
0.0
 11
59.5960857233
 21
465.8218049904
 31
0.0
  0
LINE
  5
FE
330
1F
100
AcDbEntity
  8
0
  6
Continuous
 62
     7
370
    30
100
AcDbLine
 10
48.1638165146
 20
398.1063810371
 30
0.0
 11
48.1638165146
 21
396.3115270581
 31
0.0
  0
LINE
  5
FF
330
1F
100
AcDbEntity
  8
0
  6
Continuous
 62
     7
370
    30
100
AcDbLine
 10
35.6638165146
 20
396.7073910363
 30
0.0
 11
35.6638165146
 21
398.1063810371
 31
0.0
  0
ARC
  5
100
330
1F
100
AcDbEntity
  8
0
  6
Continuous
 62
     7
370
    30
100
AcDbCircle
 10
47.1638165146
 20
398.1063810371
 30
0.0
 40
1.000000000000057
100
AcDbArc
 50
0.0
 51
90.0
  0
LINE
  5
101
330
1F
100
AcDbEntity
  8
0
  6
Continuous
 62
     7
370
    30
100
AcDbLine
 10
36.6638165146
 20
399.1063810371
 30
0.0
 11
47.1638165146
 21
399.1063810371
 31
0.0
  0
ARC
  5
102
330
1F
100
AcDbEntity
  8
0
  6
Continuous
 62
     7
370
    30
100
AcDbCircle
 10
36.6638165146
 20
398.1063810371
 30
0.0
 40
1.0
100
AcDbArc
 50
90.0
 51
180.0
  0
LINE
  5
103
330
1F
100
AcDbEntity
  8
0
  6
Continuous
 62
     7
370
    30
100
AcDbLine
 10
51.4607045177
 20
396.4682518993
 30
0.0
 11
51.4607045177
 21
346.4684453363
 31
0.0
  0
LINE
  5
104
330
1F
100
AcDbEntity
  8
0
  6
Continuous
 62
     7
370
    30
100
AcDbLine
 10
26.9607045177
 20
347.4684453363
 30
0.0
 11
26.9607045177
 21
395.0565889364
 31
0.0
  0
LINE
  5
105
330
1F
100
AcDbEntity
  8
0
  6
Continuous
 62
     7
370
    30
100
AcDbLine
 10
26.9607045177
 20
397.0222835512
 30
0.0
 11
26.9607045177
 21
395.0565889364
 31
0.0
  0
LINE
  5
106
330
1F
100
AcDbEntity
  8
0
  6
Continuous
 62
     7
370
    30
100
AcDbLine
 10
35.4607045177
 20
398.1063810371
 30
0.0
 11
35.4607045177
 21
397.3175908035
 31
0.0
  0
LINE
  5
107
330
1F
100
AcDbEntity
  8
0
  6
Continuous
 62
     7
370
    30
100
AcDbLine
 10
26.9607045177
 20
397.0222835512
 30
0.0
 11
26.9607045177
 21
398.1063810371
 31
0.0
  0
ARC
  5
108
330
1F
100
AcDbEntity
  8
0
  6
Continuous
 62
     7
370
    30
100
AcDbCircle
 10
34.4607045177
 20
398.1063810371
 30
0.0
 40
1.000000000000007
100
AcDbArc
 50
0.0
 51
90.0
  0
LINE
  5
109
330
1F
100
AcDbEntity
  8
0
  6
Continuous
 62
     7
370
    30
100
AcDbLine
 10
27.9607045177
 20
399.1063810371
 30
0.0
 11
34.4607045177
 21
399.1063810371
 31
0.0
  0
ARC
  5
10A
330
1F
100
AcDbEntity
  8
0
  6
Continuous
 62
     7
370
    30
100
AcDbCircle
 10
27.9607045177
 20
398.1063810371
 30
0.0
 40
1.0
100
AcDbArc
 50
90.0
 51
180.0
  0
ARC
  5
10B
330
1F
100
AcDbEntity
  8
0
  6
Continuous
 62
     7
370
    30
100
AcDbCircle
 10
227.8788779031
 20
4605.664367625
 30
0.0
 40
4357.281906893376
100
AcDbArc
 50
269.0414114413
 51
270.0
  0
ARC
  5
10C
330
1F
100
AcDbEntity
  8
0
  6
Continuous
 62
     7
370
    30
100
AcDbCircle
 10
239.119911393
 20
4605.664367625
 30
0.0
 40
4357.281906893377
100
AcDbArc
 50
270.0
 51
270.9585884942
  0
LINE
  5
10D
330
1F
100
AcDbEntity
  8
0
  6
Continuous
 62
     7
370
    30
100
AcDbLine
 10
227.8788779031
 20
248.3824607316
 30
0.0
 11
239.119911393
 21
248.3824607316
 31
0.0
  0
ARC
  5
10E
330
1F
100
AcDbEntity
  8
0
  6
Continuous
 62
     7
370
    30
100
AcDbCircle
 10
154.999394648
 20
249.9921309625
 30
0.0
 40
1.000000000000005
100
AcDbArc
 50
180.0000188676
 51
269.0403098523
  0
ARC
  5
10F
330
1F
100
AcDbEntity
  8
0
  6
Continuous
 62
     7
370
    30
100
AcDbCircle
 10
311.999394648
 20
249.9921309629
 30
0.0
 40
1.000000000000024
100
AcDbArc
 50
270.9584151389
 51
359.9999769326
  0
ARC
  5
110
330
1F
100
AcDbEntity
  8
0
  6
Continuous
 62
     7
370
    30
100
AcDbCircle
 10
201.299394648
 20
248.4299290454
 30
0.0
 40
0.1000000000000089
100
AcDbArc
 50
165.0
 51
263.652819048
  0
ARC
  5
111
330
1F
100
AcDbEntity
  8
0
  6
Continuous
 62
     7
370
    30
100
AcDbCircle
 10
205.699394648
 20
248.4299290454
 30
0.0
 40
0.1000000000000089
100
AcDbArc
 50
276.347180952
 51
4.8617163888
  0
LINE
  5
112
330
1F
100
AcDbEntity
  8
0
  6
Continuous
 62
     7
370
    30
100
AcDbLine
 10
201.2050246624
 20
248.4641057947
 30
0.0
 11
201.2028020654
 21
248.4558109499
 31
0.0
  0
ARC
  5
113
330
1F
100
AcDbEntity
  8
0
  6
Continuous
 62
     7
370
    30
100
AcDbCircle
 10
203.499394648
 20
268.2079471463
 30
0.0
 40
19.99999999999991
100
AcDbArc
 50
263.6528190481
 51
276.3471809519
  0
ARC
  5
114
330
1F
100
AcDbEntity
  8
0
  6
Continuous
 62
     7
370
    30
100
AcDbCircle
 10
261.299394648
 20
248.364504114
 30
0.0
 40
0.1000000000000404
100
AcDbArc
 50
165.0
 51
263.6528190481
  0
ARC
  5
115
330
1F
100
AcDbEntity
  8
0
  6
Continuous
 62
     7
370
    30
100
AcDbCircle
 10
265.699394648
 20
248.364504114
 30
0.0
 40
0.1000000000000403
100
AcDbArc
 50
276.347180952
 51
15.0
  0
LINE
  5
116
330
1F
100
AcDbEntity
  8
0
  6
Continuous
 62
     7
370
    30
100
AcDbLine
 10
265.7959872307
 20
248.3903860186
 30
0.0
 11
265.7762627756
 21
248.4639986872
 31
0.0
  0
LINE
  5
117
330
1F
100
AcDbEntity
  8
0
  6
Continuous
 62
     7
370
    30
100
AcDbLine
 10
261.2156901337
 20
248.4384849443
 30
0.0
 11
261.2028020654
 21
248.3903860186
 31
0.0
  0
ARC
  5
118
330
1F
100
AcDbEntity
  8
0
  6
Continuous
 62
     7
370
    30
100
AcDbCircle
 10
263.499394648
 20
268.142522215
 30
0.0
 40
19.99999999999989
100
AcDbArc
 50
263.6528190481
 51
276.3471809519
  0
LINE
  5
119
330
1F
100
AcDbEntity
  8
0
  6
Continuous
 62
     7
370
    30
100
AcDbLine
 10
258.9654365071
 20
240.5314847475
 30
0.0
 11
258.9654365071
 21
248.4276548363
 31
0.0
  0
LINE
  5
11A
330
1F
100
AcDbEntity
  8
0
  6
Continuous
 62
     7
370
    30
100
AcDbLine
 10
208.9654365071
 20
248.423509252
 30
0.0
 11
208.9654365071
 21
240.5314847475
 31
0.0
  0
LWPOLYLINE
  5
11B
330
1F
100
AcDbEntity
  8
0
  6
Continuous
 62
     7
370
    30
100
AcDbPolyline
 90
        3
 70
   128
 43
0.0
 10
208.9654365071
 20
240.5314847475
 10
208.9667104498
 20
240.4958151559
 10
208.9704717013
 20
240.4607045177
  0
LWPOLYLINE
  5
11C
330
1F
100
AcDbEntity
  8
0
  6
Continuous
 62
     7
370
    30
100
AcDbPolyline
 90
        3
 70
   128
 43
0.0
 10
258.960401313
 20
240.4607045177
 10
258.9641625644
 20
240.4958151559
 10
258.9654365071
 20
240.5314847475
  0
LINE
  5
11D
330
1F
100
AcDbEntity
  8
0
  6
Continuous
 62
     7
370
    30
100
AcDbLine
 10
208.9655332257
 20
240.4607045177
 30
0.0
 11
208.9655332257
 21
216.9607045177
 31
0.0
  0
LINE
  5
11E
330
1F
100
AcDbEntity
  8
0
  6
Continuous
 62
     7
370
    30
100
AcDbLine
 10
258.9653397886
 20
216.9607045177
 30
0.0
 11
258.9653397886
 21
240.4607045177
 31
0.0
  0
ARC
  5
11F
330
1F
100
AcDbEntity
  8
0
  6
Continuous
 62
     7
370
    30
100
AcDbCircle
 10
257.9653397886
 20
216.9607045177
 30
0.0
 40
1.0
100
AcDbArc
 50
270.0
 51
0.0
  0
ARC
  5
120
330
1F
100
AcDbEntity
  8
0
  6
Continuous
 62
     7
370
    30
100
AcDbCircle
 10
209.9655332257
 20
216.9607045177
 30
0.0
 40
1.0
100
AcDbArc
 50
180.0
 51
270.0
  0
SPLINE
  5
121
330
1F
100
AcDbEntity
  8
0
  6
Continuous
 62
     7
370
    30
100
AcDbSpline
210
0.0
220
0.0
230
1.0
 70
     8
 71
     3
 72
   127
 73
   123
 74
     0
 42
0.000000001
 43
0.00000001
 40
0.0
 40
0.0
 40
0.0
 40
0.0
 40
0.0065851402498381
 40
0.013173100694934
 40
0.0197824257143598
 40
0.0263917507336301
 40
0.0330125072714052
 40
0.0396332638089706
 40
0.0463373035633257
 40
0.0530413433174063
 40
0.0597573141907999
 40
0.0664732850638665
 40
0.0732743405998932
 40
0.0800753961355236
 40
0.086888909464556
 40
0.0937024227931423
 40
0.1005394457444047
 40
0.1073796252566104
 40
0.1172694764451093
 40
0.1271593276312163
 40
0.1370876240741277
 40
0.147015920514394
 40
0.1537206454409458
 40
0.1604253703669171
 40
0.1671420302572504
 40
0.173858690146981
 40
0.1806604624565956
 40
0.187462234765561
 40
0.1942764690287848
 40
0.2010907032913456
 40
0.2079284550682769
 40
0.2147693644741085
 40
0.2246591603859873
 40
0.2345489562949099
 40
0.2444771975597374
 40
0.2544054388216119
 40
0.2611101272385227
 40
0.2678148156548348
 40
0.2745314390775829
 40
0.2812480624997448
 40
0.288049798634583
 40
0.294851534768827
 40
0.3016657329029545
 40
0.3084799310365089
 40
0.3153176467686812
 40
0.322158520139955
 40
0.3309800506492743
 40
0.3398032761354478
 40
0.34862480663989
 40
0.357508061553348
 40
0.366393047296371
 40
0.3752763022055245
 40
0.3854034156291022
 40
0.3955305290509306
 40
0.4056989370972597
 40
0.4158673451421132
 40
0.4227049933953975
 40
0.429545799233056
 40
0.4383672605049379
 40
0.4471904167330012
 40
0.4560118780030923
 40
0.4648950628121471
 40
0.4737799784253451
 40
0.4826631632334102
 40
0.4927901955703449
 40
0.5029172279071672
 40
0.5130855540838111
 40
0.5232538802606623
 40
0.530091472867216
 40
0.5369322229885481
 40
0.5457536541187955
 40
0.5545767801901011
 40
0.56339821132192
 40
0.5722813653148453
 40
0.581166250091773
 40
0.5900494040871577
 40
0.6001763999335513
 40
0.610303395781484
 40
0.620471684803939
 40
0.6306399738282573
 40
0.6374775407705906
 40
0.64431826516723
 40
0.6531397113359404
 40
0.6619628524393025
 40
0.6707842986127139
 40
0.6796674672965294
 40
0.6885523667534418
 40
0.6974355354427402
 40
0.7075625467450627
 40
0.7176895580502662
 40
0.7278578621119237
 40
0.7380261661766754
 40
0.744863742597547
 40
0.7517044764334186
 40
0.7605259801546578
 40
0.7693491788144443
 40
0.7781706825421866
 40
0.7870539088571334
 40
0.7959388659466685
 40
0.8048220922683624
 40
0.8149491684361176
 40
0.8250762446070778
 40
0.8352446135121707
 40
0.8454129824204136
 40
0.8522506020621876
 40
0.8590913791163298
 40
0.8679129669137174
 40
0.8767362496647879
 40
0.8855578374677332
 40
0.8944411484488527
 40
0.9033261902213772
 40
0.9122095012074782
 40
0.922336674073239
 40
0.9324638469410236
 40
0.9426323130488108
 40
0.9528007791582718
 40
0.9596384643001618
 40
0.9664793069008576
 40
0.9748478563707766
 40
0.9832164058411528
 40
0.9916082029204345
 40
1.0
 40
1.0
 40
1.0
 40
1.0
 10
239.2993946525331
 20
248.431680259768
 30
0.0
 10
239.2991557747401
 20
248.4314948888724
 30
0.0
 10
239.2986779168508
 20
248.4311240676928
 30
0.0
 10
239.2948087135081
 20
248.4305682940324
 30
0.0
 10
239.2886213868928
 20
248.4300129615038
 30
0.0
 10
239.2798792756901
 20
248.4294581415295
 30
0.0
 10
239.2686471998673
 20
248.4289046667379
 30
0.0
 10
239.2548526480925
 20
248.4283504748842
 30
0.0
 10
239.2384740979127
 20
248.4277961601738
 30
0.0
 10
239.2194712075681
 20
248.4272416759111
 30
0.0
 10
239.1979138557925
 20
248.4266895836213
 30
0.0
 10
239.1737061890741
 20
248.4261378148316
 30
0.0
 10
239.1468325206072
 20
248.4255869923768
 30
0.0
 10
239.1172512004969
 20
248.4250370794137
 30
0.0
 10
239.0850810299926
 20
248.4244906435607
 30
0.0
 10
239.0502929795115
 20
248.4239473150044
 30
0.0
 10
239.0129051466782
 20
248.4234076078408
 30
0.0
 10
238.9669818900059
 20
248.422792147396
 30
0.0
 10
238.9110964687938
 20
248.4221046078095
 30
0.0
 10
238.843501290763
 20
248.4213481450677
 30
0.0
 10
238.7706330699467
 20
248.4206022902803
 30
0.0
 10
238.7009966650574
 20
248.4199472602807
 30
0.0
 10
238.6364964404623
 20
248.4193802770181
 30
0.0
 10
238.5785925480328
 20
248.4188974415691
 30
0.0
 10
238.5183955719002
 20
248.4184206614908
 30
0.0
 10
238.4556652227689
 20
248.417948152937
 30
0.0
 10
238.3904306924465
 20
248.4174804960274
 30
0.0
 10
238.3226491721297
 20
248.417017699506
 30
0.0
 10
238.2526185837078
 20
248.4165619340609
 30
0.0
 10
238.1802846841403
 20
248.4161128819968
 30
0.0
 10
238.1057018141902
 20
248.4156709701304
 30
0.0
 10
238.0174841133798
 20
248.4151718467864
 30
0.0
 10
237.914519032877
 20
248.4146209366432
 30
0.0
 10
237.7953490627408
 20
248.4140236113705
 30
0.0
 10
237.6718562541546
 20
248.4134435575498
 30
0.0
 10
237.5579680023365
 20
248.4129421502171
 30
0.0
 10
237.4553215498003
 20
248.4125140986963
 30
0.0
 10
237.3650447848589
 20
248.4121537558353
 30
0.0
 10
237.2729954856864
 20
248.4118021542224
 30
0.0
 10
237.1788159312906
 20
248.4114579817669
 30
0.0
 10
237.0825769436946
 20
248.4111217097692
 30
0.0
 10
236.9842393909839
 20
248.4107933884306
 30
0.0
 10
236.8842467042124
 20
248.4104745682109
 30
0.0
 10
236.782525540405
 20
248.4101650183382
 30
0.0
 10
236.6791603978001
 20
248.4098650376959
 30
0.0
 10
236.5640616360693
 20
248.4095467521903
 30
0.0
 10
236.4368619147758
 20
248.4092143249749
 30
0.0
 10
236.297118861293
 20
248.4088721732819
 30
0.0
 10
236.1548972903741
 20
248.4085466068368
 30
0.0
 10
236.0102848434141
 20
248.408237980332
 30
0.0
 10
235.8633824394153
 20
248.4079465618609
 30
0.0
 10
235.7076984174112
 20
248.4076604651217
 30
0.0
 10
235.5430587104599
 20
248.407382968955
 30
0.0
 10
235.3690884241935
 20
248.4071171229256
 30
0.0
 10
235.1929790854441
 20
248.4068750908996
 30
0.0
 10
235.034345531765
 20
248.4066809060708
 30
0.0
 10
234.8941311431373
 20
248.4065265457815
 30
0.0
 10
234.76113024253
 20
248.4063931059498
 30
0.0
 10
234.6155857731432
 20
248.4062631556383
 30
0.0
 10
234.4574121914075
 20
248.4061413247889
 30
0.0
 10
234.2981323786978
 20
248.4060379336943
 30
0.0
 10
234.1378619839282
 20
248.4059532180408
 30
0.0
 10
233.9767225973748
 20
248.4058873320749
 30
0.0
 10
233.8076743175956
 20
248.4058383182004
 30
0.0
 10
233.6308076533618
 20
248.4058094712958
 30
0.0
 10
233.4460077095078
 20
248.4058041903749
 30
0.0
 10
233.2610112571565
 20
248.4058238619093
 30
0.0
 10
233.0962051501499
 20
248.4058636823137
 30
0.0
 10
232.9518682192274
 20
248.4059149685271
 30
0.0
 10
232.8159602267179
 20
248.4059757388252
 30
0.0
 10
232.6684798455401
 20
248.4060572984721
 30
0.0
 10
232.5097083066352
 20
248.4061641762002
 30
0.0
 10
232.3513274870814
 20
248.4062900171959
 30
0.0
 10
232.1934680301871
 20
248.4064349556509
 30
0.0
 10
232.0362584803287
 20
248.4065990408964
 30
0.0
 10
231.8729043720084
 20
248.4067903946244
 30
0.0
 10
231.7037505765788
 20
248.4070121244563
 30
0.0
 10
231.5289551422222
 20
248.4072677559342
 30
0.0
 10
231.3559278421246
 20
248.4075478126808
 30
0.0
 10
231.2035291625299
 20
248.4078189644906
 30
0.0
 10
231.0713419681017
 20
248.4080724426903
 30
0.0
 10
230.9478488508644
 20
248.4083233149908
 30
0.0
 10
230.8150591306232
 20
248.4086108451913
 30
0.0
 10
230.6735891141718
 20
248.4089391186376
 30
0.0
 10
230.5339626982014
 20
248.4092855059572
 30
0.0
 10
230.3963107905504
 20
248.4096499994812
 30
0.0
 10
230.2607543967733
 20
248.4100324965383
 30
0.0
 10
230.1215104709679
 20
248.4104505763874
 30
0.0
 10
229.9791393616909
 20
248.4109068630286
 30
0.0
 10
229.8340542357703
 20
248.4114046494986
 30
0.0
 10
229.6925025165697
 20
248.4119242054265
 30
0.0
 10
229.569692066554
 20
248.4124061209959
 30
0.0
 10
229.4645568239012
 20
248.4128422780254
 30
0.0
 10
229.3674007379227
 20
248.4132637098008
 30
0.0
 10
229.2642719764541
 20
248.413734504712
 30
0.0
 10
229.1560524519844
 20
248.4142578433693
 30
0.0
 10
229.0509215650372
 20
248.4147965555569
 30
0.0
 10
228.948995729624
 20
248.4153504358706
 30
0.0
 10
228.8503747709238
 20
248.415919187605
 30
0.0
 10
228.7509390256878
 20
248.4165282967485
 30
0.0
 10
228.6514011480405
 20
248.4171795383529
 30
0.0
 10
228.5523828436789
 20
248.4178755326841
 30
0.0
 10
228.4582648738419
 20
248.4185879426792
 30
0.0
 10
228.3788879819719
 20
248.4192366455708
 30
0.0
 10
228.3126573658312
 20
248.4198151454536
 30
0.0
 10
228.2527916115989
 20
248.4203677553105
 30
0.0
 10
228.1909506377613
 20
248.4209773060938
 30
0.0
 10
228.1281825450817
 20
248.4216456019466
 30
0.0
 10
228.0693999387485
 20
248.4223244227157
 30
0.0
 10
228.0146916163839
 20
248.4230133576396
 30
0.0
 10
227.9641249696199
 20
248.4237119289815
 30
0.0
 10
227.9157081878152
 20
248.4244509564582
 30
0.0
 10
227.8702258810553
 20
248.4252310665843
 30
0.0
 10
227.8284382622571
 20
248.426053821736
 30
0.0
 10
227.792365338161
 20
248.4268851409643
 30
0.0
 10
227.765371898474
 20
248.4276325892359
 30
0.0
 10
227.7455122157281
 20
248.4282922420639
 30
0.0
 10
227.7300091769675
 20
248.4289046154484
 30
0.0
 10
227.7168135807809
 20
248.4295621522305
 30
0.0
 10
227.7068263858557
 20
248.4302655554633
 30
0.0
 10
227.7005589978907
 20
248.430971635822
 30
0.0
 10
227.6997827676523
 20
248.43144405178
 30
0.0
 10
227.699394652533
 20
248.431680259759
 30
0.0
  0
SPLINE
  5
122
330
1F
100
AcDbEntity
  8
0
  6
Continuous
 62
     7
370
    30
100
AcDbSpline
210
0.0
220
0.0
230
1.0
 70
    24
 71
     3
 72
    14
 73
    10
 74
     0
 42
0.000000001
 43
0.00000001
 40
0.0
 40
0.0
 40
0.0
 40
0.0
 40
0.0387850983418026
 40
0.1989221448593358
 40
0.3590591913969073
 40
0.5192941722333545
 40
0.6795291531106645
 40
0.8397645765071143
 40
1.0
 40
1.0
 40
1.0
 40
1.0
 10
239.2993946525331
 20
248.5960857232968
 30
0.0
 10
239.2993946525331
 20
248.5931169853737
 30
0.0
 10
239.2993946525331
 20
248.5778908356294
 30
0.0
 10
239.2993946525331
 20
248.5534093146999
 30
0.0
 10
239.2993946525331
 20
248.5227584617088
 30
0.0
 10
239.2993946525331
 20
248.4953616223418
 30
0.0
 10
239.2993946525331
 20
248.4709779155648
 30
0.0
 10
239.2993946525331
 20
248.4494199254788
 30
0.0
 10
239.2993946525331
 20
248.4375934816728
 30
0.0
 10
239.2993946525331
 20
248.431680259768
 30
0.0
  0
SPLINE
  5
123
330
1F
100
AcDbEntity
  8
0
  6
Continuous
 62
     7
370
    30
100
AcDbSpline
210
0.0
220
0.0
230
1.0
 70
     8
 71
     3
 72
    93
 73
    89
 74
     0
 42
0.000000001
 43
0.00000001
 40
0.0
 40
0.0
 40
0.0
 40
0.0
 40
0.0094936095888193
 40
0.0189912848792603
 40
0.0285197601721031
 40
0.0380482354643961
 40
0.0475931908824824
 40
0.0571381462995604
 40
0.0668031664659574
 40
0.07646818663082
 40
0.0861504072373267
 40
0.0958326278418165
 40
0.105637510554615
 40
0.1154423932648093
 40
0.1252652358522336
 40
0.13508807843656
 40
0.1449448139280086
 40
0.1548061001465855
 40
0.1690640178742056
 40
0.1833219355837633
 40
0.1976352797625594
 40
0.2119486239205002
 40
0.2216146408927098
 40
0.231280657860194
 40
0.2409638819190672
 40
0.2506471059729038
 40
0.2604530401256953
 40
0.2702589742729335
 40
0.2800828757584288
 40
0.2899067772381129
 40
0.2997645858379098
 40
0.3096269471242191
 40
0.3238844486427634
 40
0.3381419501340845
 40
0.352454879596682
 40
0.3667678090312175
 40
0.3764335539641779
 40
0.386099298891298
 40
0.3957822515983221
 40
0.4054652042995127
 40
0.4152708719839676
 40
0.4250765396623807
 40
0.4349001755178109
 40
0.4447238113672961
 40
0.4545813559311453
 40
0.4644434534004362
 40
0.4771602538431223
 40
0.4898794978463595
 40
0.5025962982359503
 40
0.5154020852321265
 40
0.5282103675399137
 40
0.5410161544875614
 40
0.5556150633117557
 40
0.5702139721156682
 40
0.5848724169483307
 40
0.5995308617635202
 40
0.6093878014430422
 40
0.6192492936259192
 40
0.6319653644034777
 40
0.6446838785401292
 40
0.6573999492958513
 40
0.6702049981201816
 40
0.6830125420065917
 40
0.6958175908186993
 40
0.7104156470849108
 40
0.7250137033497284
 40
0.739671287713758
 40
0.7543288720803644
 40
0.7641852273594676
 40
0.7740461344236184
 40
0.7867618508433979
 40
0.799480010445492
 40
0.8121957268845215
 40
0.8250004134044772
 40
0.8378075947486741
 40
0.8506122812982082
 40
0.865209908417355
 40
0.8798075355546174
 40
0.8944646829089402
 40
0.9091218302847203
 40
0.9189778836504645
 40
0.9288384880886992
 40
0.9415543848782444
 40
0.9542727247775477
 40
0.9669886216187518
 40
0.9797934846982176
 40
0.9926008424828203
 40
1.0
 40
1.0
 40
1.0
 40
1.0
 10
227.699394652533
 20
248.6632954406201
 30
0.0
 10
227.6996335501881
 20
248.6637470839746
 30
0.0
 10
227.7001114478078
 20
248.6646505641031
 30
0.0
 10
227.7039809725138
 20
248.6660071870544
 30
0.0
 10
227.7101688127075
 20
248.6673646095535
 30
0.0
 10
227.7189116496809
 20
248.668722859265
 30
0.0
 10
227.7301446587863
 20
248.6700798704564
 30
0.0
 10
227.7439403575995
 20
248.6714407328896
 30
0.0
 10
227.7603202712278
 20
248.6728040264793
 30
0.0
 10
227.7793247461374
 20
248.6741699023919
 30
0.0
 10
227.8008839011361
 20
248.6755320698896
 30
0.0
 10
227.825093598974
 20
248.676895643753
 30
0.0
 10
227.8519695304056
 20
248.6782591192774
 30
0.0
 10
227.8815533519012
 20
248.6796226136798
 30
0.0
 10
227.9137262576299
 20
248.6809797696123
 30
0.0
 10
227.9485172836697
 20
248.682331498507
 30
0.0
 10
227.985908335337
 20
248.6836765199129
 30
0.0
 10
228.0318355860832
 20
248.6852129799711
 30
0.0
 10
228.0877259252534
 20
248.6869330467752
 30
0.0
 10
228.1553271377793
 20
248.6888303458321
 30
0.0
 10
228.2282019492791
 20
248.69070584537
 30
0.0
 10
228.2978447476782
 20
248.692357218069
 30
0.0
 10
228.362350974195
 20
248.6937897315322
 30
0.0
 10
228.4202603203288
 20
248.6950117903035
 30
0.0
 10
228.480463023086
 20
248.6962206601578
 30
0.0
 10
228.5431994128945
 20
248.6974208253406
 30
0.0
 10
228.6084403010585
 20
248.6986107953167
 30
0.0
 10
228.6762285109292
 20
248.6997905199721
 30
0.0
 10
228.7462660839666
 20
248.700954420982
 30
0.0
 10
228.8186072799497
 20
248.7021032489126
 30
0.0
 10
228.8931977561073
 20
248.7032358556404
 30
0.0
 10
228.9814236167674
 20
248.7045173938581
 30
0.0
 10
229.0843974578578
 20
248.7059350267719
 30
0.0
 10
229.2035768719972
 20
248.7074760787615
 30
0.0
 10
229.3270795583844
 20
248.7089764494763
 30
0.0
 10
229.4409770449538
 20
248.7102767218326
 30
0.0
 10
229.5436319256988
 20
248.7113891179081
 30
0.0
 10
229.6339162030286
 20
248.7123271483819
 30
0.0
 10
229.7259732171435
 20
248.7132439679286
 30
0.0
 10
229.8201607632733
 20
248.7141429127734
 30
0.0
 10
229.916408012148
 20
248.7150226809706
 30
0.0
 10
230.0147541105679
 20
248.7158830625265
 30
0.0
 10
230.1147555470732
 20
248.7167199031292
 30
0.0
 10
230.2164856868321
 20
248.7175337090016
 30
0.0
 10
230.3198600179731
 20
248.7183235975557
 30
0.0
 10
230.4349666074129
 20
248.7191629607468
 30
0.0
 10
230.5621726876066
 20
248.7200411272283
 30
0.0
 10
230.7019205289864
 20
248.7209466776134
 30
0.0
 10
230.844146944401
 20
248.7218099071926
 30
0.0
 10
230.9887642911177
 20
248.722629664072
 30
0.0
 10
231.1356716448093
 20
248.7234050261006
 30
0.0
 10
231.291360927528
 20
248.7241674597313
 30
0.0
 10
231.4560061995452
 20
248.7249081871483
 30
0.0
 10
231.629982377514
 20
248.7256189745376
 30
0.0
 10
231.8060976097546
 20
248.7262670621138
 30
0.0
 10
231.9647364336597
 20
248.7267877486902
 30
0.0
 10
232.1049554392732
 20
248.7272020677066
 30
0.0
 10
232.2379579479239
 20
248.7275605021894
 30
0.0
 10
232.3835015293105
 20
248.7279098361983
 30
0.0
 10
232.5416716363543
 20
248.7282375995113
 30
0.0
 10
232.7009477908288
 20
248.728515944038
 30
0.0
 10
232.8612143407115
 20
248.7287441217538
 30
0.0
 10
233.0223496920821
 20
248.7289216531589
 30
0.0
 10
233.1913935797366
 20
248.7290537494671
 30
0.0
 10
233.3682554570003
 20
248.7291314659051
 30
0.0
 10
233.5530501848527
 20
248.7291456188445
 30
0.0
 10
233.7380411515531
 20
248.7290924488826
 30
0.0
 10
233.9028421451898
 20
248.7289849631453
 30
0.0
 10
234.0471744234003
 20
248.7288466049126
 30
0.0
 10
234.1830765173567
 20
248.7286827352504
 30
0.0
 10
234.330549044108
 20
248.7284629170545
 30
0.0
 10
234.4893107457346
 20
248.7281750666345
 30
0.0
 10
234.6476815270907
 20
248.7278364125055
 30
0.0
 10
234.8055307529599
 20
248.7274466979227
 30
0.0
 10
234.9627298897734
 20
248.7270059421975
 30
0.0
 10
235.1260729322819
 20
248.7264925028181
 30
0.0
 10
235.2952150026229
 20
248.7258983031631
 30
0.0
 10
235.4699980224346
 20
248.725214272165
 30
0.0
 10
235.6430127766705
 20
248.7244660820077
 30
0.0
 10
235.7954001183423
 20
248.7237429327805
 30
0.0
 10
235.9275774380467
 20
248.7230679686453
 30
0.0
 10
236.0510614038195
 20
248.7224007886338
 30
0.0
 10
236.1838437924515
 20
248.7216373032452
 30
0.0
 10
236.3252978949633
 20
248.7207670408682
 30
0.0
 10
236.4649397609046
 20
248.719850973228
 30
0.0
 10
236.6024891716598
 20
248.718886924971
 30
0.0
 10
236.7192623110338
 20
248.7180255855019
 30
0.0
 10
236.7890104164646
 20
248.7174695568624
 30
0.0
 10
236.8145505559146
 20
248.7172659520634
 30
0.0
  0
SPLINE
  5
124
330
1F
100
AcDbEntity
  8
0
  6
Continuous
 62
     7
370
    30
100
AcDbSpline
210
0.0
220
0.0
230
1.0
 70
    24
 71
     3
 72
    15
 73
    11
 74
     0
 42
0.000000001
 43
0.00000001
 40
0.0
 40
0.0
 40
0.0
 40
0.0
 40
0.1250382119516597
 40
0.250076423828068
 40
0.3751149804586204
 40
0.5001535370572838
 40
0.6251149793817341
 40
0.7500764216905512
 40
0.8750382108495458
 40
1.0
 40
1.0
 40
1.0
 40
1.0
 10
227.699394652533
 20
248.431680259759
 30
0.0
 10
227.699394652533
 20
248.4375932039159
 30
0.0
 10
227.699394652533
 20
248.4494190922263
 30
0.0
 10
227.699394652533
 20
248.4709809589841
 30
0.0
 10
227.699394652533
 20
248.4953498192178
 30
0.0
 10
227.699394652533
 20
248.5228021843186
 30
0.0
 10
227.699394652533
 20
248.5532459615468
 30
0.0
 10
227.699394652533
 20
248.5867740783904
 30
0.0
 10
227.699394652533
 20
248.6231131996619
 30
0.0
 10
227.699394652533
 20
248.649901360301
 30
0.0
 10
227.699394652533
 20
248.6632954406201
 30
0.0
  0
LINE
  5
125
330
1F
100
AcDbEntity
  8
0
  6
Continuous
 62
     7
370
    30
100
AcDbLine
 10
153.999394648
 20
251.07271207
 30
0.0
 11
153.999394648
 21
257.8860857233
 31
0.0
  0
LINE
  5
126
330
1F
100
AcDbEntity
  8
0
  6
Continuous
 62
     7
370
    30
100
AcDbLine
 10
153.999394648
 20
257.8860857233
 30
0.0
 11
154.499394648
 21
257.8860857233
 31
0.0
  0
LINE
  5
127
330
1F
100
AcDbEntity
  8
0
  6
Continuous
 62
     7
370
    30
100
AcDbLine
 10
154.499394648
 20
257.8860857233
 30
0.0
 11
312.499394648
 21
257.8860857233
 31
0.0
  0
LINE
  5
128
330
1F
100
AcDbEntity
  8
0
  6
Continuous
 62
     7
370
    30
100
AcDbLine
 10
153.999405048
 20
251.0681513938
 30
0.0
 11
153.999394648
 21
251.07271207
 31
0.0
  0
LINE
  5
129
330
1F
100
AcDbEntity
  8
0
  6
Continuous
 62
     7
370
    30
100
AcDbLine
 10
312.999394648
 20
251.07271207
 30
0.0
 11
312.999394648
 21
257.8860857233
 31
0.0
  0
LINE
  5
12A
330
1F
100
AcDbEntity
  8
0
  6
Continuous
 62
     7
370
    30
100
AcDbLine
 10
312.499394648
 20
257.8860857233
 30
0.0
 11
312.999394648
 21
257.8860857233
 31
0.0
  0
LINE
  5
12B
330
1F
100
AcDbEntity
  8
0
  6
Continuous
 62
     7
370
    30
100
AcDbLine
 10
312.999394648
 20
251.07271207
 30
0.0
 11
312.9993842481
 21
251.0681513938
 31
0.0
  0
SPLINE
  5
12C
330
1F
100
AcDbEntity
  8
0
  6
Continuous
 62
     7
370
    30
100
AcDbSpline
210
0.0
220
0.0
230
1.0
 70
    24
 71
     3
 72
    24
 73
    20
 74
     0
 42
0.000000001
 43
0.00000001
 40
0.0
 40
0.0
 40
0.0
 40
0.0
 40
0.0077086662391936
 40
0.0697164030954128
 40
0.1317240855224965
 40
0.1937316592738743
 40
0.2557390701555143
 40
0.317754714644008
 40
0.379770415174968
 40
0.4417861146700339
 40
0.5038017577459434
 40
0.5658263334372258
 40
0.6278510888628647
 40
0.6898759619210949
 40
0.7519008916754001
 40
0.8139258183597426
 40
0.8759506833838083
 40
0.9379754293382593
 40
0.9999999999999999
 40
0.9999999999999999
 40
0.9999999999999999
 40
0.9999999999999999
 10
153.9993946480378
 20
249.9924636893312
 30
0.0
 10
153.9993946480378
 20
249.9923191453112
 30
0.0
 10
153.9993946480378
 20
249.9910119037148
 30
0.0
 10
153.9993946480378
 20
249.996331433217
 30
0.0
 10
153.9993946480378
 20
250.0089867872293
 30
0.0
 10
153.9993946480377
 20
250.030654163567
 30
0.0
 10
153.9993946480378
 20
250.060291609121
 30
0.0
 10
153.9993946480377
 20
250.0982122648047
 30
0.0
 10
153.9993946480378
 20
250.1444175456245
 30
0.0
 10
153.9993946480378
 20
250.1989593705676
 30
0.0
 10
153.9993946480377
 20
250.2618768146173
 30
0.0
 10
153.9993946480378
 20
250.3332242086101
 30
0.0
 10
153.9993946480377
 20
250.4130424769159
 30
0.0
 10
153.9993946480378
 20
250.5013494803442
 30
0.0
 10
153.9993946480378
 20
250.598189148895
 30
0.0
 10
153.9993946480377
 20
250.7035326951101
 30
0.0
 10
153.9993946480378
 20
250.8176194640432
 30
0.0
 10
153.9993946480378
 20
250.9396889902518
 30
0.0
 10
153.9993946480378
 20
251.0283710851574
 30
0.0
 10
153.9993946480378
 20
251.0727120699524
 30
0.0
  0
SPLINE
  5
12D
330
1F
100
AcDbEntity
  8
0
  6
Continuous
 62
     7
370
    30
100
AcDbSpline
210
0.0
220
0.0
230
1.0
 70
    24
 71
     3
 72
    24
 73
    20
 74
     0
 42
0.000000001
 43
0.00000001
 40
0.0
 40
0.0
 40
0.0
 40
0.0
 40
0.0619892078804574
 40
0.1239784757186839
 40
0.1859677441226601
 40
0.2479569527745939
 40
0.3099519955642862
 40
0.3719472070672812
 40
0.4339425340335807
 40
0.4959379216061849
 40
0.5579333133297426
 40
0.6199286511591857
 40
0.6819238754683493
 40
0.7439189250585772
 40
0.8059261802605113
 40
0.8679335983278759
 40
0.9299411250722283
 40
0.9919487062503658
 40
1.0
 40
1.0
 40
1.0
 40
1.0
 10
312.9993946480379
 20
251.0727120699526
 30
0.0
 10
312.9993946480379
 20
251.0283945813819
 30
0.0
 10
312.9993946480378
 20
250.9397595613753
 30
0.0
 10
312.9993946480379
 20
250.8177386430343
 30
0.0
 10
312.9993946480379
 20
250.7036927847165
 30
0.0
 10
312.9993946480378
 20
250.5983817262055
 30
0.0
 10
312.9993946480379
 20
250.5015793530308
 30
0.0
 10
312.9993946480378
 20
250.4133097701174
 30
0.0
 10
312.9993946480379
 20
250.3335205391319
 30
0.0
 10
312.9993946480379
 20
250.2621773421543
 30
0.0
 10
312.9993946480379
 20
250.1992404449473
 30
0.0
 10
312.9993946480379
 20
250.1446707361143
 30
0.0
 10
312.9993946480379
 20
250.0984320292504
 30
0.0
 10
312.9993946480379
 20
250.0604732758021
 30
0.0
 10
312.9993946480379
 20
250.0307941972907
 30
0.0
 10
312.9993946480379
 20
250.0090833321104
 30
0.0
 10
312.9993946480379
 20
249.9963770436826
 30
0.0
 10
312.9993946480378
 20
249.991028173519
 30
0.0
 10
312.9993946480379
 20
249.9923308809669
 30
0.0
 10
312.9993946480379
 20
249.992480590484
 30
0.0
  0
LINE
  5
12E
330
1F
100
AcDbEntity
  8
0
  6
Continuous
 62
     7
370
    30
100
AcDbLine
 10
228.2654365116
 20
248.5960857233
 30
0.0
 11
239.6654365116
 21
248.5960857233
 31
0.0
  0
LINE
  5
12F
330
1F
100
AcDbEntity
  8
0
  6
Continuous
 62
     7
370
    30
100
AcDbLine
 10
228.2654365116
 20
248.5960857233
 30
0.0
 11
228.2654365116
 21
248.6915641238
 31
0.0
  0
LINE
  5
130
330
1F
100
AcDbEntity
  8
0
  6
Continuous
 62
     7
370
    30
100
AcDbLine
 10
239.6654365116
 20
248.5960857233
 30
0.0
 11
239.6654365116
 21
248.6617436481
 31
0.0
  0
LINE
  5
131
330
1F
100
AcDbEntity
  8
0
  6
Continuous
 62
     7
370
    30
100
AcDbLine
 10
231.1953915216
 20
237.1638165146
 30
0.0
 11
236.7603692558
 21
237.1638165146
 31
0.0
  0
LINE
  5
132
330
1F
100
AcDbEntity
  8
0
  6
Continuous
 62
     7
370
    30
100
AcDbLine
 10
236.7603692558
 20
224.6638165146
 30
0.0
 11
231.1953915216
 21
224.6638165146
 31
0.0
  0
LINE
  5
133
330
1F
100
AcDbEntity
  8
0
  6
Continuous
 62
     7
370
    30
100
AcDbLine
 10
230.1953915216
 20
225.6638165146
 30
0.0
 11
230.1953915216
 21
236.1638165146
 31
0.0
  0
ARC
  5
134
330
1F
100
AcDbEntity
  8
0
  6
Continuous
 62
     7
370
    30
100
AcDbCircle
 10
231.1953915216
 20
236.1638165146
 30
0.0
 40
1.0
100
AcDbArc
 50
90.0
 51
180.0
  0
LINE
  5
135
330
1F
100
AcDbEntity
  8
0
  6
Continuous
 62
     7
370
    30
100
AcDbLine
 10
237.7603692558
 20
236.1638165146
 30
0.0
 11
237.7603692558
 21
225.6638165146
 31
0.0
  0
ARC
  5
136
330
1F
100
AcDbEntity
  8
0
  6
Continuous
 62
     7
370
    30
100
AcDbCircle
 10
236.7603692558
 20
236.1638165146
 30
0.0
 40
1.0
100
AcDbArc
 50
0.0
 51
90.0
  0
ARC
  5
137
330
1F
100
AcDbEntity
  8
0
  6
Continuous
 62
     7
370
    30
100
AcDbCircle
 10
231.1953915216
 20
225.6638165146
 30
0.0
 40
1.0
100
AcDbArc
 50
180.0
 51
270.0
  0
ARC
  5
138
330
1F
100
AcDbEntity
  8
0
  6
Continuous
 62
     7
370
    30
100
AcDbCircle
 10
236.7603692558
 20
225.6638165146
 30
0.0
 40
1.0
100
AcDbArc
 50
270.0
 51
0.0
  0
LINE
  5
139
330
1F
100
AcDbEntity
  8
0
  6
Continuous
 62
     7
370
    30
100
AcDbLine
 10
208.9655332257
 20
240.4607045177
 30
0.0
 11
258.9653397886
 21
240.4607045177
 31
0.0
  0
LINE
  5
13A
330
1F
100
AcDbEntity
  8
0
  6
Continuous
 62
     7
370
    30
100
AcDbLine
 10
229.5623194239
 20
215.9607045177
 30
0.0
 11
209.9655332257
 21
215.9607045177
 31
0.0
  0
LINE
  5
13B
330
1F
100
AcDbEntity
  8
0
  6
Continuous
 62
     7
370
    30
100
AcDbLine
 10
257.9653397886
 20
215.9607045177
 30
0.0
 11
238.3915269031
 21
215.9607045177
 31
0.0
  0
LINE
  5
13C
330
1F
100
AcDbEntity
  8
0
  6
Continuous
 62
     7
370
    30
100
AcDbLine
 10
231.1953915216
 20
224.4607045177
 30
0.0
 11
236.7603692558
 21
224.4607045177
 31
0.0
  0
LINE
  5
13D
330
1F
100
AcDbEntity
  8
0
  6
Continuous
 62
     7
370
    30
100
AcDbLine
 10
236.7603692558
 20
215.9607045177
 30
0.0
 11
231.1953915216
 21
215.9607045177
 31
0.0
  0
LINE
  5
13E
330
1F
100
AcDbEntity
  8
0
  6
Continuous
 62
     7
370
    30
100
AcDbLine
 10
230.1953915216
 20
216.9607045177
 30
0.0
 11
230.1953915216
 21
223.4607045177
 31
0.0
  0
ARC
  5
13F
330
1F
100
AcDbEntity
  8
0
  6
Continuous
 62
     7
370
    30
100
AcDbCircle
 10
231.1953915216
 20
223.4607045177
 30
0.0
 40
1.0
100
AcDbArc
 50
90.0
 51
180.0
  0
ARC
  5
140
330
1F
100
AcDbEntity
  8
0
  6
Continuous
 62
     7
370
    30
100
AcDbCircle
 10
236.7603692558
 20
223.4607045177
 30
0.0
 40
1.0
100
AcDbArc
 50
0.0
 51
90.0
  0
LINE
  5
141
330
1F
100
AcDbEntity
  8
0
  6
Continuous
 62
     7
370
    30
100
AcDbLine
 10
237.7603692558
 20
223.4607045177
 30
0.0
 11
237.7603692558
 21
216.9607045177
 31
0.0
  0
ARC
  5
142
330
1F
100
AcDbEntity
  8
0
  6
Continuous
 62
     7
370
    30
100
AcDbCircle
 10
231.1953915216
 20
216.9607045177
 30
0.0
 40
1.0
100
AcDbArc
 50
180.0
 51
270.0
  0
ARC
  5
143
330
1F
100
AcDbEntity
  8
0
  6
Continuous
 62
     7
370
    30
100
AcDbCircle
 10
236.7603692558
 20
216.9607045177
 30
0.0
 40
1.0
100
AcDbArc
 50
270.0
 51
0.0
  0
LINE
  5
144
330
1F
100
AcDbEntity
  8
0
  6
Continuous
 62
     7
370
    30
100
AcDbLine
 10
229.5623194239
 20
215.9607045177
 30
0.0
 11
231.1953915216
 21
215.9607045177
 31
0.0
  0
LINE
  5
145
330
1F
100
AcDbEntity
  8
0
  6
Continuous
 62
     7
370
    30
100
AcDbLine
 10
236.7603692558
 20
215.9607045177
 30
0.0
 11
238.3915269031
 21
215.9607045177
 31
0.0
  0
SPLINE
  5
146
330
1F
100
AcDbEntity
  8
0
  6
Continuous
 62
     7
370
    30
100
AcDbSpline
210
0.0
220
0.0
230
1.0
 70
     8
 71
     3
 72
    61
 73
    57
 74
     0
 42
0.000000001
 43
0.00000001
 40
0.0
 40
0.0
 40
0.0
 40
0.0
 40
0.0063531700543833
 40
0.0251368855332573
 40
0.0439274540795266
 40
0.0627249040544824
 40
0.0815291912573768
 40
0.1003422106392639
 40
0.1191808551575928
 40
0.1380431882507163
 40
0.1569293293034044
 40
0.175839396830443
 40
0.1947735102072122
 40
0.2137317896788228
 40
0.2327143563712246
 40
0.2517213323021915
 40
0.270752840392731
 40
0.2898090044785561
 40
0.3088899493216826
 40
0.3279958006224017
 40
0.3471266850312749
 40
0.3662827301613943
 40
0.3854640646009235
 40
0.4046708179256158
 40
0.4239031207119214
 40
0.4431611045498498
 40
0.4624449020564256
 40
0.4817546468892466
 40
0.5010904730089569
 40
0.5204521427312528
 40
0.5398239060041211
 40
0.5591693608142744
 40
0.5784886428978576
 40
0.5977819028496562
 40
0.617049290067689
 40
0.6362909527622906
 40
0.655507037971377
 40
0.6746976915759709
 40
0.6938630583151666
 40
0.7130032818009325
 40
0.732118504532678
 40
0.7512088679116523
 40
0.7702745122548572
 40
0.7893155768090957
 40
0.8083321997644529
 40
0.8273245182677369
 40
0.8462926684357189
 40
0.8652367853680191
 40
0.8841570031599851
 40
0.9030534549151384
 40
0.921926272757595
 40
0.9407755910038258
 40
0.9595952338546775
 40
0.9784041411484987
 40
0.9972059347212877
 40
1.0
 40
1.0
 40
1.0
 40
1.0
 10
321.9406154413804
 20
268.5150072256142
 30
0.0
 10
321.9340735957704
 20
268.169369352646
 30
0.0
 10
321.9081901985267
 20
266.8018221951813
 30
0.0
 10
321.8652133564989
 20
264.413237604753
 30
0.0
 10
321.8116930098786
 20
261.3488901670162
 30
0.0
 10
321.7605060572838
 20
258.2847277465329
 30
0.0
 10
321.7114588096447
 20
255.2205446058073
 30
0.0
 10
321.6645843533632
 20
252.1553524526592
 30
0.0
 10
321.6198551055337
 20
249.0882308162939
 30
0.0
 10
321.5772653487276
 20
246.0183671126126
 30
0.0
 10
321.5368182022838
 20
242.9458566308542
 30
0.0
 10
321.4985164574718
 20
239.8706838135525
 30
0.0
 10
321.4623625847938
 20
236.7928328757944
 30
0.0
 10
321.4283591675708
 20
233.7122879556566
 30
0.0
 10
321.3965087854788
 20
230.6290330468295
 30
0.0
 10
321.3668140461024
 20
227.543052014639
 30
0.0
 10
321.3392775767554
 20
224.4543285896308
 30
0.0
 10
321.3139020269734
 20
221.3628463671419
 30
0.0
 10
321.2906900681468
 20
218.2685888052305
 30
0.0
 10
321.2696443939241
 20
215.1715392230099
 30
0.0
 10
321.2507677204253
 20
212.0716807988485
 30
0.0
 10
321.234062786466
 20
208.9689965685139
 30
0.0
 10
321.2195323539553
 20
205.8634694235074
 30
0.0
 10
321.2071792076129
 20
202.7550821085175
 30
0.0
 10
321.197006157265
 20
199.6438172220034
 30
0.0
 10
321.1890160305179
 20
196.5296572049691
 30
0.0
 10
321.1832117014347
 20
193.4125843737036
 30
0.0
 10
321.1795959846457
 20
190.2925808284436
 30
0.0
 10
321.1781720418267
 20
187.1696490023411
 30
0.0
 10
321.1789416031557
 20
184.0446446965596
 30
0.0
 10
321.181914073496
 20
180.9203940776458
 30
0.0
 10
321.1870907837828
 20
177.7996999414328
 30
0.0
 10
321.1944668417231
 20
174.6845053047772
 30
0.0
 10
321.2040393102633
 20
171.5747871137084
 30
0.0
 10
321.2158052666637
 20
168.4705216247766
 30
0.0
 10
321.2297618204981
 20
165.3716853117299
 30
0.0
 10
321.2459061080465
 20
162.2782548512208
 30
0.0
 10
321.2642352933921
 20
159.1902071233908
 30
0.0
 10
321.2847465677306
 20
156.1075192084214
 30
0.0
 10
321.3074371491709
 20
153.0301683842271
 30
0.0
 10
321.3323042823894
 20
149.9581321238805
 30
0.0
 10
321.3593452384046
 20
146.8913880932091
 30
0.0
 10
321.3885573140549
 20
143.8299141482343
 30
0.0
 10
321.4199378325658
 20
140.7736883332959
 30
0.0
 10
321.4534841400962
 20
137.7226888768605
 30
0.0
 10
321.4891936172797
 20
134.6768941961031
 30
0.0
 10
321.5270636349327
 20
131.6362828690144
 30
0.0
 10
321.5670917177634
 20
128.6008337276342
 30
0.0
 10
321.6092749333005
 20
125.5705255002585
 30
0.0
 10
321.6536121668993
 20
122.5453381339147
 30
0.0
 10
321.7000956486542
 20
119.525247689402
 30
0.0
 10
321.7487370976944
 20
116.5105811088751
 30
0.0
 10
321.7994737562693
 20
113.5006090392271
 30
0.0
 10
321.852581911179
 20
110.4946178923984
 30
0.0
 10
321.891622716775
 20
108.342902842662
 30
0.0
 10
321.9136196913478
 20
107.1935172449411
 30
0.0
 10
321.9164656528497
 20
107.0448101056453
 30
0.0
  0
SPLINE
  5
147
330
1F
100
AcDbEntity
  8
0
  6
Continuous
 62
     7
370
    30
100
AcDbSpline
210
0.0
220
0.0
230
1.0
 70
     8
 71
     3
 72
    26
 73
    22
 74
     0
 42
0.000000001
 43
0.00000001
 40
0.0
 40
0.0
 40
0.0
 40
0.0
 40
0.0017586272826521
 40
0.0564839924372238
 40
0.111206087773118
 40
0.1659585279401518
 40
0.2207742086104484
 40
0.2756854382806522
 40
0.3307240817378924
 40
0.3857797864199864
 40
0.4369027646648376
 40
0.4923708602892948
 40
0.5482258017574664
 40
0.6046841298990494
 40
0.6618864582759225
 40
0.7199768430652705
 40
0.7790953885252504
 40
0.8393697093777824
 40
0.9009029750614169
 40
0.9637586860482567
 40
0.9999999999999999
 40
0.9999999999999999
 40
0.9999999999999999
 40
0.9999999999999999
 10
322.3359817837332
 20
269.260734678768
 30
0.0
 10
322.3355298133546
 20
269.2604898427595
 30
0.0
 10
322.3210133255802
 20
269.2526261439577
 30
0.0
 10
322.2938472594713
 20
269.2346623269826
 30
0.0
 10
322.2548067249539
 20
269.2067603155638
 30
0.0
 10
322.2178103345083
 20
269.1760807588046
 30
0.0
 10
322.1827571308608
 20
269.1431364689017
 30
0.0
 10
322.1498237135156
 20
269.1079280791715
 30
0.0
 10
322.1191371282686
 20
269.0706530920597
 30
0.0
 10
322.0914844449227
 20
269.0323436986704
 30
0.0
 10
322.066189386998
 20
268.9925307983291
 30
0.0
 10
322.0430755581118
 20
268.9510853689059
 30
0.0
 10
322.0217686042837
 20
268.9069649259524
 30
0.0
 10
322.0028435500229
 20
268.8612184629483
 30
0.0
 10
321.9863203003313
 20
268.8138541696417
 30
0.0
 10
321.9722254288685
 20
268.76488698669
 30
0.0
 10
321.9606061464458
 20
268.7143284763792
 30
0.0
 10
321.9514707058922
 20
268.6621945598084
 30
0.0
 10
321.9450180799823
 20
268.608515306717
 30
0.0
 10
321.9413861409994
 20
268.5615316789833
 30
0.0
 10
321.9409449568255
 20
268.5324477043279
 30
0.0
 10
321.9407836089529
 20
268.52181124519
 30
0.0
  0
LINE
  5
148
330
1F
100
AcDbEntity
  8
0
  6
Continuous
 62
     7
370
    30
100
AcDbLine
 10
327.156849402
 20
272.0443288144
 30
0.0
 11
322.339066689
 21
269.2630820547
 31
0.0
  0
SPLINE
  5
149
330
1F
100
AcDbEntity
  8
0
  6
Continuous
 62
     7
370
    30
100
AcDbSpline
210
0.0
220
0.0
230
1.0
 70
     8
 71
     3
 72
    50
 73
    46
 74
     0
 42
0.000000001
 43
0.00000001
 40
0.0
 40
0.0
 40
0.0
 40
0.0
 40
0.0107758027420528
 40
0.0344581955415706
 40
0.058159920508163
 40
0.0818810664186447
 40
0.1056217224277901
 40
0.1293819780716708
 40
0.1531619232709326
 40
0.1769616483342279
 40
0.2007812439614944
 40
0.2246208012473744
 40
0.2484804116848279
 40
0.2723601671684339
 40
0.2962601599980309
 40
0.3201804828822996
 40
0.3441212289422991
 40
0.3680824917151981
 40
0.3920643651579204
 40
0.4160669436509179
 40
0.4400903220018862
 40
0.4641345954496746
 40
0.4881998596681241
 40
0.5122861574871949
 40
0.5363882121848405
 40
0.5604697702000677
 40
0.5845302564152519
 40
0.6085697671218805
 40
0.6325883983631577
 40
0.6565862457440872
 40
0.6805634044354144
 40
0.7045199691772407
 40
0.728456034283177
 40
0.7523716936437994
 40
0.776267040730603
 40
0.8001421685996043
 40
0.823997169895033
 40
0.8478321368528838
 40
0.8716471613046001
 40
0.8954423346804438
 40
0.9192177480131581
 40
0.942973491941346
 40
0.9667096567128609
 40
0.9904263321883143
 40
1.0
 40
1.0
 40
1.0
 40
1.0
 10
322.1600858228999
 20
106.6248934049737
 30
0.0
 10
322.5536689761762
 20
106.3896138453764
 30
0.0
 10
323.8122448412053
 20
105.6372514213781
 30
0.0
 10
325.9389048359709
 20
104.3687159718167
 30
0.0
 10
328.5406800084846
 20
102.8188125252876
 30
0.0
 10
331.1469461324894
 20
101.2689609418843
 30
0.0
 10
333.7575517198078
 20
99.71906745414447
 30
0.0
 10
336.3725499137926
 20
98.16915245981478
 30
0.0
 10
338.9919390303921
 20
96.61920570645965
 30
0.0
 10
341.6157321662221
 20
95.06922514225487
 30
0.0
 10
344.2439385246261
 20
93.51920649285903
 30
0.0
 10
346.8765684261305
 20
91.9691460575384
 30
0.0
 10
349.5136319648026
 20
90.41903995880028
 30
0.0
 10
352.1551393693135
 20
88.86888434348603
 30
0.0
 10
354.801100906669
 20
87.31867532860726
 30
0.0
 10
357.4515269086027
 20
85.7684090156402
 30
0.0
 10
360.1064277652278
 20
84.21808148652626
 30
0.0
 10
362.7658139268775
 20
82.66768880429547
 30
0.0
 10
365.4296959059998
 20
81.11722701350936
 30
0.0
 10
368.0980842706688
 20
79.56669213677354
 30
0.0
 10
370.770989671642
 20
78.01608018716817
 30
0.0
 10
373.4484227435072
 20
76.46538712084366
 30
0.0
 10
376.1303924971548
 20
74.91461015782029
 30
0.0
 10
378.8167071318086
 20
73.363861297995
 30
0.0
 10
381.505827273392
 20
71.8140338441572
 30
0.0
 10
384.1961884326691
 20
70.26603422851827
 30
0.0
 10
386.8864199649689
 20
68.72065001218236
 30
0.0
 10
389.5765039251412
 20
67.17788936285272
 30
0.0
 10
392.2664472984998
 20
65.63774603968795
 30
0.0
 10
394.956257059448
 20
64.1002138462306
 30
0.0
 10
397.6459401437218
 20
62.56528661899551
 30
0.0
 10
400.3355034541688
 20
61.03295823117839
 30
0.0
 10
403.0249538600972
 20
59.50322259159046
 30
0.0
 10
405.7142981960277
 20
57.97607364347626
 30
0.0
 10
408.4035432692617
 20
56.4515053685576
 30
0.0
 10
411.0926958327699
 20
54.92951177035331
 30
0.0
 10
413.7817626878377
 20
53.41008693508117
 30
0.0
 10
416.4707503028902
 20
51.89322480332743
 30
0.0
 10
419.1596662357225
 20
50.37892001981249
 30
0.0
 10
421.8485138337311
 20
48.86716476471504
 30
0.0
 10
424.5373119896441
 20
47.35796056328288
 30
0.0
 10
427.2260215052456
 20
45.85127426534299
 30
0.0
 10
429.9148195664737
 20
44.34720212713336
 30
0.0
 10
432.0694459160625
 20
43.14348076319581
 30
0.0
 10
433.3285780703858
 20
42.44157759568398
 30
0.0
 10
433.6906804636394
 20
42.23972363149477
 30
0.0
  0
SPLINE
  5
14A
330
1F
100
AcDbEntity
  8
0
  6
Continuous
 62
     7
370
    30
100
AcDbSpline
210
0.0
220
0.0
230
1.0
 70
     8
 71
     3
 72
    26
 73
    22
 74
     0
 42
0.000000001
 43
0.00000001
 40
0.0
 40
0.0
 40
0.0
 40
0.0
 40
0.0128704985415955
 40
0.0756232019209686
 40
0.1369634732940746
 40
0.1971111399061853
 40
0.2560634258345481
 40
0.3138870742472312
 40
0.3706760979349368
 40
0.4265395506933776
 40
0.4877468825129147
 40
0.5479974069389791
 40
0.6072576486260655
 40
0.6592263821111635
 40
0.7151058160097793
 40
0.7704617595431285
 40
0.8256135491675959
 40
0.8805864452154573
 40
0.9354049055435848
 40
0.9900940167280854
 40
1.0
 40
1.0
 40
1.0
 40
1.0
 10
433.6896251566499
 20
42.24027693826085
 30
0.0
 10
433.6929197856962
 20
42.23835024467956
 30
0.0
 10
433.7122780410754
 20
42.22702956916211
 30
0.0
 10
433.7485784625767
 20
42.20892272765138
 30
0.0
 10
433.7981061361402
 20
42.18621825350055
 30
0.0
 10
433.8477162538761
 20
42.1667180810102
 30
0.0
 10
433.8972196652521
 20
42.15011687118227
 30
0.0
 10
433.9465582378348
 20
42.13646574519726
 30
0.0
 10
433.9956561401532
 20
42.12571545806595
 30
0.0
 10
434.04625006565
 20
42.11754934687649
 30
0.0
 10
434.0982563346584
 20
42.11230748350314
 30
0.0
 10
434.1515042132306
 20
42.11035890682288
 30
0.0
 10
434.2020038344074
 20
42.1117628539448
 30
0.0
 10
434.2511808511811
 20
42.11617366066726
 30
0.0
 10
434.2988386604242
 20
42.12347423141684
 30
0.0
 10
434.3468249860204
 20
42.13402334273147
 30
0.0
 10
434.3937499330268
 20
42.14758999515604
 30
0.0
 10
434.4395808714825
 20
42.1640418683298
 30
0.0
 10
434.4839732711181
 20
42.18361642756269
 30
0.0
 10
434.5156122752013
 20
42.19922879182031
 30
0.0
 10
434.5319072396119
 20
42.2091054732935
 30
0.0
 10
434.5344061545252
 20
42.21062011217249
 30
0.0
  0
LINE
  5
14B
330
1F
100
AcDbEntity
  8
0
  6
Continuous
 62
     7
370
    30
100
AcDbLine
 10
434.537803704
 20
42.2118025625
 30
0.0
 11
439.3796801958
 21
45.0069583647
 31
0.0
  0
SPLINE
  5
14C
330
1F
100
AcDbEntity
  8
0
  6
Continuous
 62
     7
370
    30
100
AcDbSpline
210
0.0
220
0.0
230
1.0
 70
     8
 71
     3
 72
    21
 73
    17
 74
     0
 42
0.000000001
 43
0.00000001
 40
0.0
 40
0.0
 40
0.0
 40
0.0
 40
0.0617613001330377
 40
0.1352925683141894
 40
0.2089192941820148
 40
0.2906467477218
 40
0.3714185464928297
 40
0.4510532225769658
 40
0.5296307832748245
 40
0.6072145629444051
 40
0.6838495079865682
 40
0.7595655237480146
 40
0.8343797019599507
 40
0.9082976807765513
 40
0.9813143464768557
 40
1.0
 40
1.0
 40
1.0
 40
1.0
 10
321.9164634257201
 20
107.0444102148763
 30
0.0
 10
321.9167770684213
 20
107.0339888194915
 30
0.0
 10
321.9174641253078
 20
107.0111600036476
 30
0.0
 10
321.9218643309468
 20
106.9761281142231
 30
0.0
 10
321.9292337037742
 20
106.9381895428097
 30
0.0
 10
321.939972999588
 20
106.8997665321067
 30
0.0
 10
321.9541624225268
 20
106.8614043300626
 30
0.0
 10
321.971198917832
 20
106.8248037923199
 30
0.0
 10
321.9908418350433
 20
106.7901531522101
 30
0.0
 10
322.0128769904397
 20
106.7575840462547
 30
0.0
 10
322.0370815724498
 20
106.7272080541191
 30
0.0
 10
322.0632436274142
 20
106.6991449298177
 30
0.0
 10
322.0910992856189
 20
106.6734150486731
 30
0.0
 10
322.1205607418199
 20
106.6503278489078
 30
0.0
 10
322.1434890880703
 20
106.6342417018436
 30
0.0
 10
322.1569601301514
 20
106.6266221721988
 30
0.0
 10
322.1597050468237
 20
106.6250695845199
 30
0.0
  0
SPLINE
  5
14D
330
1F
100
AcDbEntity
  8
0
  6
Continuous
 62
     7
370
    30
100
AcDbSpline
210
0.0
220
0.0
230
1.0
 70
     8
 71
     3
 72
    40
 73
    36
 74
     0
 42
0.000000001
 43
0.00000001
 40
0.0
 40
0.0
 40
0.0
 40
0.0
 40
0.0091721807597639
 40
0.0403741868204023
 40
0.0714612926016676
 40
0.1024481577989597
 40
0.133354266019426
 40
0.1642030515633497
 40
0.1950207388144505
 40
0.2258316964509391
 40
0.2566577895803423
 40
0.2875258976072679
 40
0.3184605523724452
 40
0.3494827634692899
 40
0.3806091083338749
 40
0.4118511497882787
 40
0.4432152180463431
 40
0.4747025606467742
 40
0.5063098260043486
 40
0.5380298106463776
 40
0.5698523742714666
 40
0.6017654164050438
 40
0.6337558154391474
 40
0.6658102522815741
 40
0.6979158703106414
 40
0.7300607535230357
 40
0.7622342298355784
 40
0.7944270233812064
 40
0.8266312879995463
 40
0.8588405555160782
 40
0.8910482162999998
 40
0.9232504990509625
 40
0.9554446268538953
 40
0.9876286145608726
 40
1.0
 40
1.0
 40
1.0
 40
1.0
 10
354.481087184556
 20
160.4276462913281
 30
0.0
 10
354.4759710110366
 20
160.4267212027742
 30
0.0
 10
354.4534505929499
 20
160.4226491397524
 30
0.0
 10
354.4146768862198
 20
160.4125094686941
 30
0.0
 10
354.3649588536722
 20
160.3972022979861
 30
0.0
 10
354.3167541077962
 20
160.3788799895778
 30
0.0
 10
354.2700195246719
 20
160.3578552006898
 30
0.0
 10
354.2248335446081
 20
160.3340930063557
 30
0.0
 10
354.181238760783
 20
160.3076509981583
 30
0.0
 10
354.1392868529179
 20
160.2785628484319
 30
0.0
 10
354.0990250532483
 20
160.2468685133397
 30
0.0
 10
354.0604988843198
 20
160.2126048323016
 30
0.0
 10
354.0237515842321
 20
160.1758069474127
 30
0.0
 10
353.9888277403248
 20
160.1365109155212
 30
0.0
 10
353.9557734930123
 20
160.094755399206
 30
0.0
 10
353.9246363684161
 20
160.0505831729326
 30
0.0
 10
353.8954646802511
 20
160.004042517434
 30
0.0
 10
353.8683066111861
 20
159.9551882677729
 30
0.0
 10
353.8432090908678
 20
159.9040824187564
 30
0.0
 10
353.8202166163862
 20
159.8507942358629
 30
0.0
 10
353.799370154505
 20
159.7953999000492
 30
0.0
 10
353.7807062385267
 20
159.7379817764838
 30
0.0
 10
353.7642563298694
 20
159.678627437893
 30
0.0
 10
353.7500464658893
 20
159.6174285847005
 30
0.0
 10
353.7380971757913
 20
159.5544799884097
 30
0.0
 10
353.7284236069135
 20
159.489878555164
 30
0.0
 10
353.7210358269793
 20
159.4237225553689
 30
0.0
 10
353.7159391272936
 20
159.3561110721196
 30
0.0
 10
353.7131346843906
 20
159.2871435302528
 30
0.0
 10
353.7126190037091
 20
159.2169207852342
 30
0.0
 10
353.7143877080713
 20
159.1455427270741
 30
0.0
 10
353.718422520923
 20
159.0731123647982
 30
0.0
 10
353.7247415660204
 20
158.9997192388275
 30
0.0
 10
353.7314760553542
 20
158.9407202215299
 30
0.0
 10
353.7362067542158
 20
158.9061856268336
 30
0.0
 10
353.7375202949828
 20
158.8965966423452
 30
0.0
  0
SPLINE
  5
14E
330
1F
100
AcDbEntity
  8
0
  6
Continuous
 62
     7
370
    30
100
AcDbSpline
210
0.0
220
0.0
230
1.0
 70
     8
 71
     3
 72
    72
 73
    68
 74
     0
 42
0.000000001
 43
0.00000001
 40
0.0
 40
0.0
 40
0.0
 40
0.0
 40
0.0083036292062113
 40
0.0240206648379559
 40
0.0397315452371882
 40
0.0554362595440922
 40
0.0711349316986791
 40
0.0868277937008321
 40
0.1025151613339137
 40
0.1181974146464508
 40
0.133874982433088
 40
0.1495483300331722
 40
0.1652179498510166
 40
0.1808843540862682
 40
0.1965480692405085
 40
0.2122096320345213
 40
0.2278695864289176
 40
0.2435284814884444
 40
0.2591868698682215
 40
0.2748453067289428
 40
0.2905042135570037
 40
0.3061640981336196
 40
0.3218255188028572
 40
0.3374890333977069
 40
0.3531551979748825
 40
0.3688245650374274
 40
0.384497681031473
 40
0.4001750828749484
 40
0.4158572932321131
 40
0.431544814193391
 40
0.4472381189544649
 40
0.4629376410123939
 40
0.4786437603106402
 40
0.4943567856730403
 40
0.5100769327752256
 40
0.5258042968224224
 40
0.5415388190542285
 40
0.5572802462086511
 40
0.5730280821935695
 40
0.5887815314945323
 40
0.6045394343757888
 40
0.6203001948075162
 40
0.6360611964891814
 40
0.6518192082266595
 40
0.6675706358201454
 40
0.6833111544806948
 40
0.6990356950584112
 40
0.7147384816819303
 40
0.730413138933429
 40
0.7460528850181394
 40
0.761650821262312
 40
0.7772003171322538
 40
0.7926954743913294
 40
0.8081316363630691
 40
0.8235058925424062
 40
0.8388175195917195
 40
0.854068300572897
 40
0.869262675909626
 40
0.8844076996074497
 40
0.8995127979069156
 40
0.9145893496152553
 40
0.9296501241387587
 40
0.94470721206411
 40
0.959771106692665
 40
0.974854979193453
 40
0.9899708810294934
 40
1.0
 40
1.0
 40
1.0
 40
1.0
 10
353.7375202949828
 20
158.8965966423452
 30
0.0
 10
353.7394329914451
 20
158.8833901260011
 30
0.0
 10
353.7449660227879
 20
158.8451864327847
 30
0.0
 10
353.7558128888193
 20
158.7814539383342
 30
0.0
 10
353.7707565980577
 20
158.7052943925902
 30
0.0
 10
353.7878895255765
 20
158.6286592320696
 30
0.0
 10
353.8071457161718
 20
158.5516624575815
 30
0.0
 10
353.8285055101587
 20
158.474401321637
 30
0.0
 10
353.8519339410105
 20
158.3969778459672
 30
0.0
 10
353.8773972571057
 20
158.3194929820918
 30
0.0
 10
353.904858522179
 20
158.2420480801034
 30
0.0
 10
353.9342788214166
 20
158.1647443839459
 30
0.0
 10
353.9656169710609
 20
158.087683041638
 30
0.0
 10
353.9988296348249
 20
158.0109649666144
 30
0.0
 10
354.0338713381939
 20
157.9346907303618
 30
0.0
 10
354.0706945173833
 20
157.8589604402598
 30
0.0
 10
354.1092495665234
 20
157.7838736169201
 30
0.0
 10
354.1494848928295
 20
157.7095290689426
 30
0.0
 10
354.1913469769682
 20
157.6360247672456
 30
0.0
 10
354.2347803139819
 20
157.5634579288466
 30
0.0
 10
354.2797275420548
 20
157.4919247469068
 30
0.0
 10
354.3261295622846
 20
157.4215201832382
 30
0.0
 10
354.373925765897
 20
157.352337651817
 30
0.0
 10
354.4230540489674
 20
157.284469042623
 30
0.0
 10
354.4734508522259
 20
157.2180046891697
 30
0.0
 10
354.5250512513055
 20
157.1530332654584
 30
0.0
 10
354.5777890485522
 20
157.0896416895372
 30
0.0
 10
354.6315968653015
 20
157.027915034488
 30
0.0
 10
354.6864062333087
 20
156.9679364476239
 30
0.0
 10
354.7421476837545
 20
156.9097870786183
 30
0.0
 10
354.7987508319187
 20
156.8535460171933
 30
0.0
 10
354.8561444552395
 20
156.7992902408258
 30
0.0
 10
354.9142565620305
 20
156.7470945726827
 30
0.0
 10
354.9730144476388
 20
156.6970316496102
 30
0.0
 10
355.032344734306
 20
156.6491718994476
 30
0.0
 10
355.0921733904734
 20
156.603583526151
 30
0.0
 10
355.1524257248329
 20
156.5603325001312
 30
0.0
 10
355.2130263501597
 20
156.5194825497684
 30
0.0
 10
355.2738991120377
 20
156.481095148209
 30
0.0
 10
355.3349669782526
 20
156.4452294872292
 30
0.0
 10
355.396151886092
 20
156.4119424272483
 30
0.0
 10
355.457373891446
 20
156.3812887381009
 30
0.0
 10
355.5185509083847
 20
156.3533208122924
 30
0.0
 10
355.5795988565835
 20
156.3280881130376
 30
0.0
 10
355.6404320559885
 20
156.3056365878014
 30
0.0
 10
355.7009630291344
 20
156.2860083153176
 30
0.0
 10
355.7611019789931
 20
156.2692411223678
 30
0.0
 10
355.8207568219599
 20
156.2553678994966
 30
0.0
 10
355.8798334200784
 20
156.2444158325818
 30
0.0
 10
355.9382360630667
 20
156.2364056038196
 30
0.0
 10
355.9958682305368
 20
156.2313506424711
 30
0.0
 10
356.0526336295979
 20
156.2292565273977
 30
0.0
 10
356.1084374560515
 20
156.2301206519303
 30
0.0
 10
356.1631877771614
 20
156.2339322494032
 30
0.0
 10
356.2167968918939
 20
156.2406728427004
 30
0.0
 10
356.2691825072263
 20
156.2503171222526
 30
0.0
 10
356.3202685711972
 20
156.262834201254
 30
0.0
 10
356.3699856767042
 20
156.2781890967291
 30
0.0
 10
356.4182708938022
 20
156.2963443856407
 30
0.0
 10
356.4650674003846
 20
156.3172614364294
 30
0.0
 10
356.5103226990654
 20
156.3409026085878
 30
0.0
 10
356.553989003881
 20
156.3672276574166
 30
0.0
 10
356.5960094830519
 20
156.3962060360375
 30
0.0
 10
356.6363622381534
 20
156.4277679575868
 30
0.0
 10
356.6749048463151
 20
156.4619927376891
 30
0.0
 10
356.707766671467
 20
156.4942906916082
 30
0.0
 10
356.7269314701148
 20
156.5161732046249
 30
0.0
 10
356.7345753709556
 20
156.5249010688056
 30
0.0
  0
LINE
  5
14F
330
1F
100
AcDbEntity
  8
0
  6
Continuous
 62
     7
370
    30
100
AcDbLine
 10
356.7318535666
 20
156.5213000806
 30
0.0
 11
357.1027411211
 21
156.9401976763
 31
0.0
  0
LINE
  5
150
330
1F
100
AcDbEntity
  8
0
  6
Continuous
 62
     7
370
    30
100
AcDbLine
 10
355.0252800108
 20
160.5388557922
 30
0.0
 11
354.4770497901
 21
160.4271579904
 31
0.0
  0
SPLINE
  5
151
330
1F
100
AcDbEntity
  8
0
  6
Continuous
 62
     7
370
    30
100
AcDbSpline
210
0.0
220
0.0
230
1.0
 70
     8
 71
     3
 72
   103
 73
    99
 74
     0
 42
0.000000001
 43
0.00000001
 40
0.0
 40
0.0
 40
0.0
 40
0.0
 40
0.0083247701041438
 40
0.0185690696531677
 40
0.0287783495157234
 40
0.0389584462753398
 40
0.0491166184804551
 40
0.0592611972076436
 40
0.0694011609484598
 40
0.0795427131240482
 40
0.0896947995025523
 40
0.0998658361882909
 40
0.1100632180233292
 40
0.1202929832957037
 40
0.1305595791679724
 40
0.1408657435970189
 40
0.1512125093274638
 40
0.161599323437487
 40
0.1720242636332148
 40
0.182484322464032
 40
0.1929757251202093
 40
0.2034942466426805
 40
0.2140354998287491
 40
0.2245951740987006
 40
0.2351692157003995
 40
0.2457539486925975
 40
0.2563461427842558
 40
0.2669430378884985
 40
0.2775423364954055
 40
0.2881418789269209
 40
0.2987400767219313
 40
0.309335904757664
 40
0.3199286161691435
 40
0.3305176969062047
 40
0.3411028247433787
 40
0.3516838334162442
 40
0.3622606819504186
 40
0.3728334289064612
 40
0.3834022110788221
 40
0.3939672261082949
 40
0.4045287184559868
 40
0.4150869682150176
 40
0.4256422822846865
 40
0.436194987488825
 40
0.4467454252775436
 40
0.4572939477054652
 40
0.4678409144275925
 40
0.4783866904950596
 40
0.4889316447672167
 40
0.4994761487839791
 40
0.5100205759633599
 40
0.5205652463891455
 40
0.5311104652950207
 40
0.5416566086455329
 40
0.5522040522656545
 40
0.5627531710626292
 40
0.5733043379446592
 40
0.5838579222939101
 40
0.5944142878380739
 40
0.6049737897372061
 40
0.615536770667954
 40
0.6261035556454678
 40
0.6366744452739649
 40
0.6472497070608387
 40
0.657829564368225
 40
0.6684141825135625
 40
0.679003651473712
 40
0.6895979646067781
 40
0.7001969927993092
 40
0.7108004535003005
 40
0.7214078742550417
 40
0.7320185506520825
 40
0.7426314991103381
 40
0.7532452412213971
 40
0.763857589051729
 40
0.7744662607964781
 40
0.7850684902267654
 40
0.7956610095092692
 40
0.8062400631888892
 40
0.8168014654155847
 40
0.8273407121216405
 40
0.8378531566554583
 40
0.8483342508700449
 40
0.8587798439409332
 40
0.8691865194745808
 40
0.8795519401778943
 40
0.889875161575822
 40
0.900156874686539
 40
0.9103995433468398
 40
0.9206074140021271
 40
0.9307863913646596
 40
0.9409437888391542
 40
0.9510879751214808
 40
0.9612278903937232
 40
0.971369717270839
 40
0.9815224622596505
 40
0.9916945049496012
 40
1.0
 40
1.0
 40
1.0
 40
1.0
 10
396.8558267582514
 20
135.9076863341657
 30
0.0
 10
396.8418683101925
 20
135.9047183647044
 30
0.0
 10
396.8107328684912
 20
135.8980980699735
 30
0.0
 10
396.7638345898785
 20
135.884374932803
 30
0.0
 10
396.7150361570572
 20
135.8672241308758
 30
0.0
 10
396.6677398789236
 20
135.8472132938059
 30
0.0
 10
396.6219589066943
 20
135.8244887696432
 30
0.0
 10
396.5777534024232
 20
135.7990593578337
 30
0.0
 10
396.5351711903149
 20
135.770971730497
 30
0.0
 10
396.49426144271
 20
135.7402625010975
 30
0.0
 10
396.4550709198561
 20
135.7069707185276
 30
0.0
 10
396.4176427219222
 20
135.6711313238702
 30
0.0
 10
396.3820208614949
 20
135.6327798717538
 30
0.0
 10
396.3482508885951
 20
135.5919538444261
 30
0.0
 10
396.3163798515101
 20
135.5486942798349
 30
0.0
 10
396.2864558579776
 20
135.503047221793
 30
0.0
 10
396.2585272646408
 20
135.4550649184957
 30
0.0
 10
396.23264161616
 20
135.4048066050021
 30
0.0
 10
396.2088444702479
 20
135.3523388029054
 30
0.0
 10
396.1871782536607
 20
135.2977351345489
 30
0.0
 10
396.1676812743469
 20
135.241075720804
 30
0.0
 10
396.1503869772458
 20
135.1824462808917
 30
0.0
 10
396.1353234838763
 20
135.1219370753942
 30
0.0
 10
396.1225134103258
 20
135.0596418278614
 30
0.0
 10
396.1119739232773
 20
134.9956567332766
 30
0.0
 10
396.1037169736965
 20
134.930079623563
 30
0.0
 10
396.097749642514
 20
134.8630093216439
 30
0.0
 10
396.0940745385983
 20
134.7945451838339
 30
0.0
 10
396.0926902146597
 20
134.7247874566969
 30
0.0
 10
396.0935914310386
 20
134.6538367789504
 30
0.0
 10
396.0967694622665
 20
134.5817936323413
 30
0.0
 10
396.1022124940143
 20
134.5087576570119
 30
0.0
 10
396.1099059276846
 20
134.4348280858856
 30
0.0
 10
396.1198325274866
 20
134.3601043324935
 30
0.0
 10
396.1319725335925
 20
134.2846860443908
 30
0.0
 10
396.1463037431479
 20
134.2086731419455
 30
0.0
 10
396.162801567134
 20
134.1321658380602
 30
0.0
 10
396.1814390701139
 20
134.055264637125
 30
0.0
 10
396.2021869987522
 20
133.9780703133144
 30
0.0
 10
396.2250138038686
 20
133.9006838694735
 30
0.0
 10
396.2498856597524
 20
133.823206478474
 30
0.0
 10
396.2767664835708
 20
133.7457394092278
 30
0.0
 10
396.3056179569686
 20
133.668383939621
 30
0.0
 10
396.3363995513538
 20
133.5912412585755
 30
0.0
 10
396.3690685579015
 20
133.5144123593099
 30
0.0
 10
396.4035801229351
 20
133.4379979257014
 30
0.0
 10
396.4398872890701
 20
133.3620982134727
 30
0.0
 10
396.477941042288
 20
133.2868129277503
 30
0.0
 10
396.5176903649485
 20
133.2122410983869
 30
0.0
 10
396.5590822946155
 20
133.1384809543105
 30
0.0
 10
396.6020619142894
 20
133.0656299237837
 30
0.0
 10
396.6465723855559
 20
132.9937845361225
 30
0.0
 10
396.6925551090906
 20
132.923040126214
 30
0.0
 10
396.7399498926822
 20
132.8534905934276
 30
0.0
 10
396.7886950747904
 20
132.7852282626629
 30
0.0
 10
396.838727512571
 20
132.7183439336102
 30
0.0
 10
396.8899826714792
 20
132.6529267759439
 30
0.0
 10
396.9423947167293
 20
132.5890642308598
 30
0.0
 10
396.99589660556
 20
132.526841919807
 30
0.0
 10
397.0504201790628
 20
132.4663435612057
 30
0.0
 10
397.1058962520779
 20
132.4076508958946
 30
0.0
 10
397.1622546993539
 20
132.3508436219659
 30
0.0
 10
397.2194245358021
 20
132.295999339507
 30
0.0
 10
397.2773339882572
 20
132.2431935055419
 30
0.0
 10
397.3359105556713
 20
132.1924993991261
 30
0.0
 10
397.3950810541599
 20
132.1439880960508
 30
0.0
 10
397.454771642788
 20
132.0977284518954
 30
0.0
 10
397.5149078255148
 20
132.0537870911872
 30
0.0
 10
397.5754144243815
 20
132.0122283990896
 30
0.0
 10
397.6362155189873
 20
131.9731145103175
 30
0.0
 10
397.697234347752
 20
131.936505287787
 30
0.0
 10
397.7583931676869
 20
131.9024582809058
 30
0.0
 10
397.8196127554746
 20
131.8710288128323
 30
0.0
 10
397.8808115585092
 20
131.8422700748774
 30
0.0
 10
397.9419061066751
 20
131.8162324225771
 30
0.0
 10
398.0028110664179
 20
131.7929629189633
 30
0.0
 10
398.0634396230406
 20
131.772504772899
 30
0.0
 10
398.1237026619868
 20
131.7548971209181
 30
0.0
 10
398.1835087543561
 20
131.7401743738806
 30
0.0
 10
398.2427643251351
 20
131.7283654688017
 30
0.0
 10
398.3013740578189
 20
131.7194930716363
 30
0.0
 10
398.3592415733378
 20
131.7135728037007
 30
0.0
 10
398.4162703902199
 20
131.7106125884193
 30
0.0
 10
398.4723651287605
 20
131.7106122282963
 30
0.0
 10
398.5274328715649
 20
131.7135633164169
 30
0.0
 10
398.5813845468893
 20
131.7194495585265
 30
0.0
 10
398.6341361757504
 20
131.728247528705
 30
0.0
 10
398.68560981877
 20
131.7399278248787
 30
0.0
 10
398.7357341153725
 20
131.7544564970753
 30
0.0
 10
398.7844442775532
 20
131.7717966791668
 30
0.0
 10
398.8316817976795
 20
131.7919099318829
 30
0.0
 10
398.8773929772208
 20
131.8147582903204
 30
0.0
 10
398.9215298816708
 20
131.8403024811221
 30
0.0
 10
398.9640366740998
 20
131.8685097422574
 30
0.0
 10
399.0048842119551
 20
131.8993180981633
 30
0.0
 10
399.0439539829172
 20
131.9327762430396
 30
0.0
 10
399.079144119154
 20
131.9663060542798
 30
0.0
 10
399.1003780197705
 20
131.9897979640191
 30
0.0
 10
399.1099224763399
 20
132.000357376361
 30
0.0
  0
LINE
  5
152
330
1F
100
AcDbEntity
  8
0
  6
Continuous
 62
     7
370
    30
100
AcDbLine
 10
399.1119980252
 20
132.0023500036
 30
0.0
 11
399.4828855797
 21
132.4212475993
 31
0.0
  0
LINE
  5
153
330
1F
100
AcDbEntity
  8
0
  6
Continuous
 62
     7
370
    30
100
AcDbLine
 10
397.4054244694
 20
136.0199057152
 30
0.0
 11
396.8571942487
 21
135.9082079134
 31
0.0
  0
LINE
  5
154
330
1F
100
AcDbEntity
  8
0
  6
Continuous
 62
     7
370
    30
100
AcDbLine
 10
375.0911835235
 20
203.9543382448
 30
0.0
 11
374.1790157757
 21
203.4277550127
 31
0.0
  0
LINE
  5
155
330
1F
100
AcDbEntity
  8
0
  6
Continuous
 62
     7
370
    30
100
AcDbLine
 10
383.825234281
 20
96.5046042412
 30
0.0
 11
389.6186437004
 21
99.8490683101
 31
0.0
  0
LINE
  5
156
330
1F
100
AcDbEntity
  8
0
  6
Continuous
 62
     7
370
    30
100
AcDbLine
 10
365.4419677504
 20
143.6256334199
 30
0.0
 11
358.8272659651
 21
139.8070473602
 31
0.0
  0
ARC
  5
157
330
1F
100
AcDbEntity
  8
0
  6
Continuous
 62
     7
370
    30
100
AcDbCircle
 10
358.8545035017
 20
134.9685675429
 30
0.0
 40
1.000000000000007
100
AcDbArc
 50
119.9973117336
 51
180.0
  0
LINE
  5
158
330
1F
100
AcDbEntity
  8
0
  6
Continuous
 62
     7
370
    30
100
AcDbLine
 10
357.8545035017
 20
134.9685675429
 30
0.0
 11
357.8545035017
 21
134.9018860106
 31
0.0
  0
LINE
  5
159
330
1F
100
AcDbEntity
  8
0
  6
Continuous
 62
     7
370
    30
100
AcDbLine
 10
365.7791653378
 20
140.1207589924
 30
0.0
 11
358.3545441354
 21
135.8346164053
 31
0.0
  0
ARC
  5
15A
330
1F
100
AcDbEntity
  8
0
  6
Continuous
 62
     7
370
    30
100
AcDbCircle
 10
370.2141581972
 20
136.9830636478
 30
0.0
 40
1.000000000000016
100
AcDbArc
 50
0.0
 51
30.0000000728
  0
ARC
  5
15B
330
1F
100
AcDbEntity
  8
0
  6
Continuous
 62
     7
370
    30
100
AcDbCircle
 10
370.2141581972
 20
136.9830636478
 30
0.0
 40
1.000000000000016
100
AcDbArc
 50
30.0000000728
 51
60.0026882663
  0
LINE
  5
15C
330
1F
100
AcDbEntity
  8
0
  6
Continuous
 62
     7
370
    30
100
AcDbLine
 10
371.2141581972
 20
135.4441855439
 30
0.0
 11
371.2141581972
 21
136.9830636478
 31
0.0
  0
LINE
  5
15D
330
1F
100
AcDbEntity
  8
0
  6
Continuous
 62
     7
370
    30
100
AcDbLine
 10
370.7141175635
 20
137.8491125102
 30
0.0
 11
366.7790840705
 21
140.1207589924
 31
0.0
  0
ARC
  5
15E
330
1F
100
AcDbEntity
  8
0
  6
Continuous
 62
     7
370
    30
100
AcDbCircle
 10
366.2791247041
 20
139.25471013
 30
0.0
 40
0.9999999999999825
100
AcDbArc
 50
60.0026882663
 51
119.9973117337
  0
SPLINE
  5
15F
330
1F
100
AcDbEntity
  8
0
  6
Continuous
 62
     7
370
    30
100
AcDbSpline
210
0.0
220
0.0
230
1.0
 70
     8
 71
     3
 72
   288
 73
   284
 74
     0
 42
0.000000001
 43
0.00000001
 40
0.0
 40
0.0
 40
0.0
 40
0.0
 40
0.003417140997127
 40
0.0068746958891238
 40
0.0103324384482409
 40
0.0137906393055606
 40
0.0172495666305404
 40
0.0207094848077485
 40
0.0241706531414621
 40
0.0276333245973294
 40
0.0310977445899376
 40
0.0345641498248045
 40
0.038032767203035
 40
0.041503812796528
 40
0.044977490900997
 40
0.0484539931737567
 40
0.05193349786239
 40
0.055416169129859
 40
0.0589021564807473
 40
0.0623915942925071
 40
0.0658846014545611
 40
0.0693812811171656
 40
0.0728817205508585
 40
0.0763859911160344
 40
0.079894148341365
 40
0.0834062321082498
 40
0.086922266937617
 40
0.0904422623742173
 40
0.0939662134623657
 40
0.0974941013063995
 40
0.1010258937080436
 40
0.1045615458721961
 40
0.1081010011721487
 40
0.1116441919647123
 40
0.1151910404454681
 40
0.1187414595343289
 40
0.1222953537814871
 40
0.1258526202842301
 40
0.1294131496052521
 40
0.1329768266837586
 40
0.1365435317311356
 40
0.1401131411037448
 40
0.1436855281460871
 40
0.1472605639985773
 40
0.1508381183647975
 40
0.1544180602342658
 40
0.1580002585573424
 40
0.1615845828700434
 40
0.165170903867091
 40
0.1687590939224273
 40
0.1723490275571637
 40
0.1759405818553936
 40
0.1795336368291
 40
0.1831280757336216
 40
0.1867237853357457
 40
0.1903206561367212
 40
0.1939185825528017
 40
0.1975174630560251
 40
0.2011172002782172
 40
0.2047177010810952
 40
0.2083188765955742
 40
0.2119206422331069
 40
0.2155229176721129
 40
0.2191256268221702
 40
0.2227286977687848
 40
0.2263320627012289
 40
0.2299356578258776
 40
0.2335394232673371
 40
0.2371433029593699
 40
0.2407472445276148
 40
0.2443511895833528
 40
0.2479550879591379
 40
0.2515588986724681
 40
0.2551625838683159
 40
0.2587661086839143
 40
0.2623694411133402
 40
0.2659725518731145
 40
0.269575414269589
 40
0.273178004068665
 40
0.2767802993683755
 40
0.2803822804747224
 40
0.283983929781134
 40
0.2875852316517736
 40
0.2911861723089196
 40
0.2947867397245815
 40
0.298386923516347
 40
0.3019867148477109
 40
0.3055861063326581
 40
0.3091850919447172
 40
0.3127836669302433
 40
0.3163818277260296
 40
0.3199795718810456
 40
0.323576897982287
 40
0.3271738055845267
 40
0.3307702951439787
 40
0.3343663679556336
 40
0.3379620260941761
 40
0.3415572723583412
 40
0.3451521102185434
 40
0.3487465437677446
 40
0.3523405776752362
 40
0.3559342171433898
 40
0.3595274678670398
 40
0.3631203359956129
 40
0.3667128280975943
 40
0.370304951127416
 40
0.3738967123945529
 40
0.377488119534723
 40
0.3810791804830387
 40
0.3846699034490599
 40
0.3882602968936439
 40
0.3918503695073774
 40
0.3954401301906713
 40
0.3990295880352486
 40
0.4026187523070529
 40
0.4062076324304846
 40
0.4097962379737758
 40
0.4133845786355791
 40
0.4169726642326158
 40
0.4205605046882712
 40
0.4241481100221969
 40
0.427735490340726
 40
0.4313226558281286
 40
0.4349096167386292
 40
0.4384963833890921
 40
0.4420829661524311
 40
0.4456693754515201
 40
0.4492556217537655
 40
0.4528417155661526
 40
0.4564276674307435
 40
0.4600134879206502
 40
0.4635991876363947
 40
0.4671847772026461
 40
0.4707702672652538
 40
0.4743556684886193
 40
0.4779409915533074
 40
0.4815262471539271
 40
0.4851114459971576
 40
0.488696598800042
 40
0.4922817162883502
 40
0.4958668091951356
 40
0.4994518882593356
 40
0.5030369642244938
 40
0.5066220465597948
 40
0.5102071437096796
 40
0.5137922664245447
 40
0.5173774254548589
 40
0.520962631549851
 40
0.5245478954561531
 40
0.528133227916374
 40
0.5317186396675244
 40
0.5353041414393177
 40
0.5388897439522962
 40
0.5424754579157478
 40
0.5460612940253957
 40
0.5496472629608361
 40
0.5532333753826867
 40
0.5568196419293852
 40
0.5604060732136871
 40
0.5639926798187185
 40
0.5675794722936265
 40
0.571166461148772
 40
0.5747536568503756
 40
0.5783410698146836
 40
0.5819287104014593
 40
0.5855165889068987
 40
0.5891047155558089
 40
0.5926931004930772
 40
0.5962817537743109
 40
0.5998706853556399
 40
0.6034599050825873
 40
0.6070494226779736
 40
0.6106392477287144
 40
0.6142293896715858
 40
0.6178198577776902
 40
0.6214106611357069
 40
0.6250018086337165
 40
0.6285933089396396
 40
0.6321851704800685
 40
0.6357774014174826
 40
0.6393700096257016
 40
0.6429630026634846
 40
0.6465563877461827
 40
0.6501501717152653
 40
0.653744361005708
 40
0.6573389616109753
 40
0.660933979045616
 40
0.6645294183052454
 40
0.6681252838237703
 40
0.6717215794278059
 40
0.6753183082880485
 40
0.6789154728675095
 40
0.6825130748664795
 40
0.6861111151639885
 40
0.6897095937557853
 40
0.6933085096885071
 40
0.6969078609900585
 40
0.7005076445959725
 40
0.7041078562716934
 40
0.707708490530634
 40
0.7113095405479252
 40
0.7149109980698132
 40
0.7185128533186043
 40
0.7221150948931064
 40
0.7257177096646901
 40
0.7293206826688303
 40
0.7329239969923426
 40
0.736527633656365
 40
0.7401315714953037
 40
0.7437357870319025
 40
0.747340254348865
 40
0.7509449449572585
 40
0.7545498276623122
 40
0.7581548684270593
 40
0.7617600302345479
 40
0.7653652729493617
 40
0.7689705517930271
 40
0.7725758050097778
 40
0.7761809810839634
 40
0.7797860248009985
 40
0.7833908771227784
 40
0.7869954750719262
 40
0.7905997516255105
 40
0.7942036356201716
 40
0.7978070516709039
 40
0.8014099201059548
 40
0.8050121569203114
 40
0.8086136737505131
 40
0.8122143778736587
 40
0.8158141722335116
 40
0.8194129554967611
 40
0.8230106221424777
 40
0.8266070625878962
 40
0.8302021633535049
 40
0.8337958072703919
 40
0.837387873732636
 40
0.840978238997226
 40
0.8445667765338256
 40
0.8481533574261352
 40
0.8517378508263154
 40
0.8553201244632658
 40
0.8589000452050058
 40
0.862477479674666
 40
0.866052294918847
 40
0.8696243591262202
 40
0.873193542393559
 40
0.8767597175351052
 40
0.880322760930675
 40
0.8838825534067225
 40
0.887438981143698
 40
0.8909919366023307
 40
0.8945413194605164
 40
0.8980870375519566
 40
0.9016290077970037
 40
0.9051671571158431
 40
0.9087014233138079
 40
0.9122317559284641
 40
0.9157581170282852
 40
0.9192804819528579
 40
0.9227988399850244
 40
0.9263131949459306
 40
0.9298235657046848
 40
0.9333299865952329
 40
0.9368325077340199
 40
0.9403311952331269
 40
0.9438261313047347
 40
0.9473174142540196
 40
0.9508051583587691
 40
0.9542894936352828
 40
0.9577705654913743
 40
0.9612485342683849
 40
0.9647235746752418
 40
0.9681958751187014
 40
0.9716656369347351
 40
0.9751330735269242
 40
0.9785984094184634
 40
0.9820618792250572
 40
0.9855237265563804
 40
0.9889842028544886
 40
0.992443566177668
 40
0.9959020799387336
 40
0.999360011606743
 40
1.0
 40
1.0
 40
1.0
 40
1.0
 10
342.1589101929143
 20
130.1844777687493
 30
0.0
 10
342.1112908467923
 20
130.1566471539338
 30
0.0
 10
342.0154889693445
 20
130.1006567767664
 30
0.0
 10
341.873495179484
 20
130.0131126261325
 30
0.0
 10
341.7324306009687
 20
129.9227545266424
 30
0.0
 10
341.593012209374
 20
129.8296820708141
 30
0.0
 10
341.4552153037646
 20
129.7339722958931
 30
0.0
 10
341.3190648638096
 20
129.6356163216083
 30
0.0
 10
341.1845726535661
 20
129.5346283222216
 30
0.0
 10
341.0517541077775
 20
129.4310163577561
 30
0.0
 10
340.920623829834
 20
129.3247902349215
 30
0.0
 10
340.7911968188453
 20
129.2159594448184
 30
0.0
 10
340.6634881562723
 20
129.1045337635565
 30
0.0
 10
340.5375131009192
 20
128.9905231409278
 30
0.0
 10
340.4132870696455
 20
128.8739377814712
 30
0.0
 10
340.2908256438865
 20
128.7547881748428
 30
0.0
 10
340.1701445643988
 20
128.6330851400847
 30
0.0
 10
340.0512597243551
 20
128.5088398658567
 30
0.0
 10
339.934187158165
 20
128.3820639508294
 30
0.0
 10
339.8189430268754
 20
128.2527694425075
 30
0.0
 10
339.7055436001247
 20
128.120968874355
 30
0.0
 10
339.5940052349112
 20
127.9866753006903
 30
0.0
 10
339.4843443514134
 20
127.8499023289612
 30
0.0
 10
339.3765774061496
 20
127.7106641490141
 30
0.0
 10
339.2707208627942
 20
127.5689755590214
 30
0.0
 10
339.1667911610002
 20
127.4248519877774
 30
0.0
 10
339.0648046835952
 20
127.2783095131276
 30
0.0
 10
338.9647777225415
 20
127.1293648763508
 30
0.0
 10
338.8667264440599
 20
126.9780354923792
 30
0.0
 10
338.7706668533195
 20
126.8243394557973
 30
0.0
 10
338.6766147590981
 20
126.668295542628
 30
0.0
 10
338.584585738806
 20
126.5099232079745
 30
0.0
 10
338.4945951042509
 20
126.3492425796454
 30
0.0
 10
338.4066578685014
 20
126.1862744479449
 30
0.0
 10
338.3207887141755
 20
126.0210402518616
 30
0.0
 10
338.2370019634546
 20
125.8535620619352
 30
0.0
 10
338.1553115500799
 20
125.6838625601122
 30
0.0
 10
338.0757309935527
 20
125.5119650169398
 30
0.0
 10
337.9982733757183
 20
125.3378932664624
 30
0.0
 10
337.9229513198684
 20
125.1616716792022
 30
0.0
 10
337.8497769724551
 20
124.9833251336129
 30
0.0
 10
337.7787619874683
 20
124.8028789863909
 30
0.0
 10
337.7099175134853
 20
124.6203590420225
 30
0.0
 10
337.6432541833674
 20
124.4357915219312
 30
0.0
 10
337.57878210654
 20
124.2492030335654
 30
0.0
 10
337.5165108637643
 20
124.0606205397488
 30
0.0
 10
337.4564495042808
 20
123.870071328578
 30
0.0
 10
337.398606545183
 20
123.6775829841298
 30
0.0
 10
337.3429899728603
 20
123.4831833582004
 30
0.0
 10
337.2896072463364
 20
123.286900543269
 30
0.0
 10
337.2384653023215
 20
123.088762846844
 30
0.0
 10
337.1895705617863
 20
122.8887987673129
 30
0.0
 10
337.1429289378701
 20
122.6870369713912
 30
0.0
 10
337.0985458449317
 20
122.4835062732297
 30
0.0
 10
337.0564262085592
 20
122.2782356152157
 30
0.0
 10
337.0165744763598
 20
122.0712540504764
 30
0.0
 10
336.9789946293619
 20
121.8625907270697
 30
0.0
 10
336.9436901938675
 20
121.6522748738303
 30
0.0
 10
336.9106642536117
 20
121.4403357878193
 30
0.0
 10
336.8799194620919
 20
121.2268028233137
 30
0.0
 10
336.8514580549451
 20
121.0117053822587
 30
0.0
 10
336.825281862266
 20
120.795072906099
 30
0.0
 10
336.8013923207693
 20
120.5769348688982
 30
0.0
 10
336.7797904857142
 20
120.3573207716492
 30
0.0
 10
336.7604770425195
 20
120.1362601376798
 30
0.0
 10
336.7434523180123
 20
119.9137825090532
 30
0.0
 10
336.7287162912596
 20
119.6899174438664
 30
0.0
 10
336.7162686039487
 20
119.4646945143501
 30
0.0
 10
336.7061085702843
 20
119.238143305679
 30
0.0
 10
336.6982351933635
 20
119.0102936173394
 30
0.0
 10
336.6926471604451
 20
118.7811753679542
 30
0.0
 10
336.6893428439583
 20
118.5508184731643
 30
0.0
 10
336.6883203127578
 20
118.3192526394625
 30
0.0
 10
336.6895773497092
 20
118.0865074633667
 30
0.0
 10
336.6931114614285
 20
117.852612558434
 30
0.0
 10
336.6989198844662
 20
117.6175975569351
 30
0.0
 10
336.7069995910139
 20
117.3814921116496
 30
0.0
 10
336.7173472941539
 20
117.14432589773
 30
0.0
 10
336.7299594526714
 20
116.9061286145905
 30
0.0
 10
336.7448322754516
 20
116.6669299877867
 30
0.0
 10
336.7619617254859
 20
116.4267597708522
 30
0.0
 10
336.7813435235082
 20
116.1856477470661
 30
0.0
 10
336.8029731512887
 20
115.943623731126
 30
0.0
 10
336.8268458546048
 20
115.7007175707061
 30
0.0
 10
336.8529566459151
 20
115.4569591478857
 30
0.0
 10
336.8813003067585
 20
115.2123783804299
 30
0.0
 10
336.9118713898997
 20
114.9670052229147
 30
0.0
 10
336.9446642212448
 20
114.7208696676839
 30
0.0
 10
336.9796729015454
 20
114.4740017456356
 30
0.0
 10
337.0168913079123
 20
114.2264315268273
 30
0.0
 10
337.0563130951572
 20
113.9781891209025
 30
0.0
 10
337.0979316969813
 20
113.7293046773319
 30
0.0
 10
337.1417403270261
 20
113.4798083854725
 30
0.0
 10
337.1877319798035
 20
113.2297304744435
 30
0.0
 10
337.2358994315206
 20
112.9791012128209
 30
0.0
 10
337.2862352408127
 20
112.7279509081539
 30
0.0
 10
337.3387317493967
 20
112.4763099063058
 30
0.0
 10
337.3933810826596
 20
112.2242085906253
 30
0.0
 10
337.4501751501912
 20
111.9716773809498
 30
0.0
 10
337.5091056462725
 20
111.7187467324469
 30
0.0
 10
337.5701640503302
 20
111.4654471342993
 30
0.0
 10
337.6333416273646
 20
111.21180910824
 30
0.0
 10
337.6986294283606
 20
110.9578632069403
 30
0.0
 10
337.7660182906889
 20
110.7036400122591
 30
0.0
 10
337.8354988385049
 20
110.4491701333577
 30
0.0
 10
337.9070614831498
 20
110.1944842046874
 30
0.0
 10
337.9806964235627
 20
109.9396128838542
 30
0.0
 10
338.0563936467057
 20
109.6845868493678
 30
0.0
 10
338.134142928009
 20
109.4294367982806
 30
0.0
 10
338.2139338318399
 20
109.1741934437216
 30
0.0
 10
338.295755711998
 20
108.9188875123313
 30
0.0
 10
338.3795977122425
 20
108.6635497416031
 30
0.0
 10
338.4654487668522
 20
108.4082108771378
 30
0.0
 10
338.5532976012234
 20
108.1529016698138
 30
0.0
 10
338.6431327325058
 20
107.897652872881
 30
0.0
 10
338.7349424702796
 20
107.6424952389817
 30
0.0
 10
338.8287149172763
 20
107.3874595171037
 30
0.0
 10
338.9244379701438
 20
107.1325764494711
 30
0.0
 10
339.0220993202564
 20
106.877876768376
 30
0.0
 10
339.1216864545737
 20
106.6233911929564
 30
0.0
 10
339.2231866565465
 20
106.3691504259255
 30
0.0
 10
339.3265870070713
 20
106.1151851502537
 30
0.0
 10
339.4318743854952
 20
105.8615260258107
 30
0.0
 10
339.5390354706695
 20
105.6082036859697
 30
0.0
 10
339.6480567420554
 20
105.3552487341763
 30
0.0
 10
339.7589244808778
 20
105.1026917404892
 30
0.0
 10
339.8716247713321
 20
104.8505632380931
 30
0.0
 10
339.9861435018394
 20
104.5988937197874
 30
0.0
 10
340.102466366354
 20
104.3477136344563
 30
0.0
 10
340.2205788657195
 20
104.0970533835209
 30
0.0
 10
340.3404663090761
 20
103.846943317378
 30
0.0
 10
340.4621138153165
 20
103.5974137318269
 30
0.0
 10
340.5855063145915
 20
103.348494864489
 30
0.0
 10
340.7106285498646
 20
103.1002168912218
 30
0.0
 10
340.837465078513
 20
102.8526099225302
 30
0.0
 10
340.9660002739783
 20
102.6057039999774
 30
0.0
 10
341.0962183274614
 20
102.3595290925991
 30
0.0
 10
341.228103249666
 20
102.1141150933218
 30
0.0
 10
341.3616388725845
 20
101.8694918153901
 30
0.0
 10
341.4968088513306
 20
101.6256889888011
 30
0.0
 10
341.6335966660136
 20
101.3827362567542
 30
0.0
 10
341.7719856236561
 20
101.1406631721124
 30
0.0
 10
341.9119588435239
 20
100.8994992225321
 30
0.0
 10
342.0534992445874
 20
100.6592738492836
 30
0.0
 10
342.1965895764282
 20
100.4200163913043
 30
0.0
 10
342.3412124388524
 20
100.1817560534763
 30
0.0
 10
342.4873502992206
 20
99.94452188127171
 30
0.0
 10
342.6349854642704
 20
99.7083428088225
 30
0.0
 10
342.7841000823025
 20
99.47324765554552
 30
0.0
 10
342.9346761454011
 20
99.2392651227968
 30
0.0
 10
343.0866954916847
 20
99.00642379055893
 30
0.0
 10
343.2401398075884
 20
98.77475211416342
 30
0.0
 10
343.3949906301742
 20
98.54427842104928
 30
0.0
 10
343.5512293494682
 20
98.31503090756132
 30
0.0
 10
343.7088372108233
 20
98.08703763578825
 30
0.0
 10
343.8677953173053
 20
97.86032653044371
 30
0.0
 10
344.0280846321
 20
97.63492537579235
 30
0.0
 10
344.1896859809403
 20
97.41086181262142
 30
0.0
 10
344.3525800545503
 20
97.18816333526125
 30
0.0
 10
344.5167474111047
 20
96.96685728865599
 30
0.0
 10
344.682168478701
 20
96.74697086548602
 30
0.0
 10
344.8488235578408
 20
96.52853110334483
 30
0.0
 10
345.016692823921
 20
96.31156488197111
 30
0.0
 10
345.1857563297275
 20
96.09609892053872
 30
0.0
 10
345.3559940079325
 20
95.88215977500552
 30
0.0
 10
345.5273856735898
 20
95.6697738355243
 30
0.0
 10
345.6999110266264
 20
95.45896732391506
 30
0.0
 10
345.8735496543252
 20
95.24976629120299
 30
0.0
 10
346.0482810337982
 20
95.04219661522188
 30
0.0
 10
346.2240845344423
 20
94.83628399828537
 30
0.0
 10
346.4009394203782
 20
94.63205396492704
 30
0.0
 10
346.5788248528631
 20
94.42953185971174
 30
0.0
 10
346.7577198926785
 20
94.22874284511786
 30
0.0
 10
346.9376035024832
 20
94.02971189949356
 30
0.0
 10
347.1184545491292
 20
93.83246381508589
 30
0.0
 10
347.3002518059355
 20
93.63702319614735
 30
0.0
 10
347.4829739549119
 20
93.44341445711572
 30
0.0
 10
347.6665995889297
 20
93.25166182087285
 30
0.0
 10
347.8511072138326
 20
93.0617893170785
 30
0.0
 10
348.0364752504793
 20
92.87382078058246
 30
0.0
 10
348.2226820367134
 20
92.68777984991405
 30
0.0
 10
348.4097058292531
 20
92.50368996584736
 30
0.0
 10
348.5975248054917
 20
92.32157437004378
 30
0.0
 10
348.7861170652041
 20
92.14145610376845
 30
0.0
 10
348.9754606321476
 20
91.96335800668173
 30
0.0
 10
349.1655334555522
 20
91.78730271570106
 30
0.0
 10
349.3563134114886
 20
91.61331266393344
 30
0.0
 10
349.5477783041074
 20
91.4414100796733
 30
0.0
 10
349.739905866738
 20
91.27161698546448
 30
0.0
 10
349.9326737628389
 20
91.10395519722013
 30
0.0
 10
350.1260595867895
 20
90.93844632339702
 30
0.0
 10
350.320040864512
 20
90.77511176421739
 30
0.0
 10
350.5145950539145
 20
90.61397271093361
 30
0.0
 10
350.7096995451439
 20
90.4550501451255
 30
0.0
 10
350.9053316606378
 20
90.29836483802463
 30
0.0
 10
351.101468654967
 20
90.14393734985343
 30
0.0
 10
351.2980877144531
 20
89.99178802917008
 30
0.0
 10
351.4951659565576
 20
89.84193701220609
 30
0.0
 10
351.6926804290252
 20
89.69440422218362
 30
0.0
 10
351.8906081087777
 20
89.5492093685971
 30
0.0
 10
352.0889259005439
 20
89.40637194644312
 30
0.0
 10
352.2876106352217
 20
89.26591123537987
 30
0.0
 10
352.4866390679603
 20
89.12784629879694
 30
0.0
 10
352.6859878759598
 20
88.99219598277284
 30
0.0
 10
352.8856336559791
 20
88.8589789148978
 30
0.0
 10
353.0855529215514
 20
88.72821350293506
 30
0.0
 10
353.2857220999031
 20
88.5999179332939
 30
0.0
 10
353.4861175285782
 20
88.4741101692845
 30
0.0
 10
353.6867154517689
 20
88.35080794912331
 30
0.0
 10
353.8874920163594
 20
88.23002878365436
 30
0.0
 10
354.0884232676906
 20
88.11178995375217
 30
0.0
 10
354.2894851450596
 20
87.99610850736767
 30
0.0
 10
354.4906534769681
 20
87.88300125617792
 30
0.0
 10
354.6919039761438
 20
87.77248477179903
 30
0.0
 10
354.8932122343584
 20
87.66457538151988
 30
0.0
 10
355.0945536912657
 20
87.55928917700903
 30
0.0
 10
355.2959033760382
 20
87.45664213601113
 30
0.0
 10
355.4972361582257
 20
87.35664996887026
 30
0.0
 10
355.6985267676933
 20
87.25932809837931
 30
0.0
 10
355.8997500412676
 20
87.16469153897701
 30
0.0
 10
356.1008806603239
 20
87.07275501951815
 30
0.0
 10
356.3018931456566
 20
86.98353297419821
 30
0.0
 10
356.5027618526585
 20
86.8970395326462
 30
0.0
 10
356.7034609668773
 20
86.81328850917177
 30
0.0
 10
356.9039645000504
 20
86.73229339114359
 30
0.0
 10
357.1042462867262
 20
86.65406732648383
 30
0.0
 10
357.3042799815909
 20
86.57862311027114
 30
0.0
 10
357.5040390576235
 20
86.50597317045697
 30
0.0
 10
357.7034968052078
 20
86.43612955270848
 30
0.0
 10
357.9026263323378
 20
86.36910390440693
 30
0.0
 10
358.1014005660514
 20
86.30490745784354
 30
0.0
 10
358.299792255233
 20
86.24355101267099
 30
0.0
 10
358.4977739749207
 20
86.18504491768623
 30
0.0
 10
358.6953181322546
 20
86.1293990520382
 30
0.0
 10
358.8923969741932
 20
86.07662280597383
 30
0.0
 10
359.0889825971174
 20
86.02672506125546
 30
0.0
 10
359.2850469584297
 20
85.97971417140312
 30
0.0
 10
359.4805618902382
 20
85.93559794193557
 30
0.0
 10
359.6754991151991
 20
85.89438361080396
 30
0.0
 10
359.869830264563
 20
85.85607782922979
 30
0.0
 10
360.0635268984492
 20
85.82068664317761
 30
0.0
 10
360.2565605283374
 20
85.78821547570625
 30
0.0
 10
360.448902641736
 20
85.75866911045485
 30
0.0
 10
360.6405247289463
 20
85.73205167652978
 30
0.0
 10
360.8313983118101
 20
85.70836663506105
 30
0.0
 10
361.0214949742788
 20
85.68761676769833
 30
0.0
 10
361.2107863946118
 20
85.66980416731109
 30
0.0
 10
361.3992443789638
 20
85.65493023114605
 30
0.0
 10
361.5868408960854
 20
85.64299565667973
 30
0.0
 10
361.7735481128261
 20
85.63400044038066
 30
0.0
 10
361.9593384300906
 20
85.6279438795673
 30
0.0
 10
362.1441845188756
 20
85.62482457751578
 30
0.0
 10
362.3280593559901
 20
85.62464045192971
 30
0.0
 10
362.510936259042
 20
85.62738874684315
 30
0.0
 10
362.6927889202705
 20
85.63306604797867
 30
0.0
 10
362.873591438798
 20
85.64166830153268
 30
0.0
 10
363.0533183508823
 20
85.65319083630865
 30
0.0
 10
363.2319446577663
 20
85.66762838906351
 30
0.0
 10
363.4094458507478
 20
85.68497513288366
 30
0.0
 10
363.5857979331163
 20
85.70522470835247
 30
0.0
 10
363.7609774386517
 20
85.72837025722683
 30
0.0
 10
363.9349614464163
 20
85.75440445829368
 30
0.0
 10
364.1077275916276
 20
85.78331956504096
 30
0.0
 10
364.2792540724521
 20
85.8151074447434
 30
0.0
 10
364.4495196526154
 20
85.84975961853814
 30
0.0
 10
364.6185036597882
 20
85.88726730204331
 30
0.0
 10
364.786185979759
 20
85.92762144607143
 30
0.0
 10
364.9525470464837
 20
85.97081277694568
 30
0.0
 10
365.1175678280792
 20
86.01683183607224
 30
0.0
 10
365.2812298091791
 20
86.06566901790742
 30
0.0
 10
365.4435149689978
 20
86.11731460741673
 30
0.0
 10
365.6044057586777
 20
86.17175881091565
 30
0.0
 10
365.7638850659185
 20
86.22899180114311
 30
0.0
 10
365.9219362131342
 20
86.28900369706062
 30
0.0
 10
366.0785428183759
 20
86.3517847731344
 30
0.0
 10
366.2336891574345
 20
86.41732479770403
 30
0.0
 10
366.3873586485795
 20
86.48561560210119
 30
0.0
 10
366.539539331387
 20
86.55664158439691
 30
0.0
 10
366.6902032566899
 20
86.63041519177587
 30
0.0
 10
366.8393831814986
 20
86.70684461978598
 30
0.0
 10
366.9868862890474
 20
86.78622736856781
 30
0.0
 10
367.0935787420098
 20
86.84535971731212
 30
0.0
 10
367.1506180222926
 20
86.87884864826529
 30
0.0
 10
367.1595260724242
 20
86.88407874714278
 30
0.0
  0
LINE
  5
160
330
1F
100
AcDbEntity
  8
0
  6
Continuous
 62
     7
370
    30
100
AcDbLine
 10
358.77726514
 20
139.7780708203
 30
0.0
 11
342.1602557821
 21
130.1852755064
 31
0.0
  0
LINE
  5
161
330
1F
100
AcDbEntity
  8
0
  6
Continuous
 62
     7
370
    30
100
AcDbLine
 10
367.1581273873
 20
86.8829999133
 30
0.0
 11
383.7751367452
 21
96.4757952272
 31
0.0
  0
ARC
  5
162
330
1F
100
AcDbEntity
  8
0
  6
Continuous
 62
     7
370
    30
100
AcDbCircle
 10
352.7004739913
 20
131.4159219267
 30
0.0
 40
1.000000000000007
100
AcDbArc
 50
119.9973117336
 51
180.0
  0
LINE
  5
163
330
1F
100
AcDbEntity
  8
0
  6
Continuous
 62
     7
370
    30
100
AcDbLine
 10
351.7004739913
 20
131.4159219267
 30
0.0
 11
351.7004739913
 21
130.5345150333
 31
0.0
  0
LINE
  5
164
330
1F
100
AcDbEntity
  8
0
  6
Continuous
 62
     7
370
    30
100
AcDbLine
 10
356.7967087027
 20
134.9352971525
 30
0.0
 11
352.2005146249
 21
132.2819707891
 31
0.0
  0
ARC
  5
165
330
1F
100
AcDbEntity
  8
0
  6
Continuous
 62
     7
370
    30
100
AcDbCircle
 10
361.231701562
 20
131.797601808
 30
0.0
 40
1.000000000000016
100
AcDbArc
 50
0.0
 51
30.0000000728
  0
ARC
  5
166
330
1F
100
AcDbEntity
  8
0
  6
Continuous
 62
     7
370
    30
100
AcDbCircle
 10
361.231701562
 20
131.797601808
 30
0.0
 40
1.000000000000016
100
AcDbArc
 50
30.0000000728
 51
60.0026882663
  0
LINE
  5
167
330
1F
100
AcDbEntity
  8
0
  6
Continuous
 62
     7
370
    30
100
AcDbLine
 10
362.231701562
 20
130.9965834736
 30
0.0
 11
362.231701562
 21
131.797601808
 31
0.0
  0
LINE
  5
168
330
1F
100
AcDbEntity
  8
0
  6
Continuous
 62
     7
370
    30
100
AcDbLine
 10
361.7316609283
 20
132.6636506704
 30
0.0
 11
357.7966274353
 21
134.9352971525
 31
0.0
  0
SPLINE
  5
169
330
1F
100
AcDbEntity
  8
0
  6
Continuous
 62
     7
370
    30
100
AcDbSpline
210
0.0
220
0.0
230
1.0
 70
     8
 71
     3
 72
    18
 73
    14
 74
     0
 42
0.000000001
 43
0.00000001
 40
0.0
 40
0.0
 40
0.0
 40
0.0
 40
0.0531399734750798
 40
0.1505093658603885
 40
0.2475803399424247
 40
0.3443954440918626
 40
0.4411579848944205
 40
0.5380698916494724
 40
0.6353678737847585
 40
0.7333761393017806
 40
0.8324727416239677
 40
0.9330958291654423
 40
1.0
 40
1.0
 40
1.0
 40
1.0
 10
351.7004739912568
 20
130.5345150332812
 30
0.0
 10
351.7004452296734
 20
130.5292779088178
 30
0.0
 10
351.7003637676895
 20
130.5144447007756
 30
0.0
 10
351.69952393769
 20
130.492024933613
 30
0.0
 10
351.6978466986878
 20
130.4682215897723
 30
0.0
 10
351.6955941385477
 20
130.4473175890817
 30
0.0
 10
351.6929715503716
 20
130.4293317785467
 30
0.0
 10
351.6901741634484
 20
130.414307970676
 30
0.0
 10
351.6874206366362
 20
130.4022673940803
 30
0.0
 10
351.6849211328944
 20
130.3931694077323
 30
0.0
 10
351.6829707824213
 20
130.3871221600383
 30
0.0
 10
351.6817666804856
 20
130.3839938385686
 30
0.0
 10
351.6817772147924
 20
130.384027004125
 30
0.0
 10
351.6817814218036
 20
130.3840402492177
 30
0.0
  0
SPLINE
  5
16A
330
1F
100
AcDbEntity
  8
0
  6
Continuous
 62
     7
370
    30
100
AcDbSpline
210
0.0
220
0.0
230
1.0
 70
     8
 71
     3
 72
    11
 73
     7
 74
     0
 42
0.000000001
 43
0.00000001
 40
0.0
 40
0.0
 40
0.0
 40
0.0
 40
0.2106516462661063
 40
0.5223853279254237
 40
0.8441473709896903
 40
1.0
 40
1.0
 40
1.0
 40
1.0
 10
362.2328020805624
 20
130.979552389491
 30
0.0
 10
362.2327949859941
 20
130.979562889454
 30
0.0
 10
362.2327773925007
 20
130.9795889278294
 30
0.0
 10
362.2321785779957
 20
130.9832169481057
 30
0.0
 10
362.2316177701219
 20
130.9882425938039
 30
0.0
 10
362.2316814960589
 20
130.9930271129997
 30
0.0
 10
362.231702290761
 20
130.9945883713505
 30
0.0
  0
ARC
  5
16B
330
1F
100
AcDbEntity
  8
0
  6
Continuous
 62
     7
370
    30
100
AcDbCircle
 10
357.296668069
 20
134.0692482902
 30
0.0
 40
0.9999999999999825
100
AcDbArc
 50
60.0026882663
 51
119.9973117337
  0
SPLINE
  5
16C
330
1F
100
AcDbEntity
  8
0
  6
Continuous
 62
     7
370
    30
100
AcDbSpline
210
0.0
220
0.0
230
1.0
 70
    11
 71
     3
 72
   119
 73
   115
 74
     0
 42
0.000000001
 43
0.00000001
 40
0.0
 40
0.0
 40
0.0
 40
0.0
 40
0.0088187523958483
 40
0.0176442926049492
 40
0.0264630478390976
 40
0.0355379520024412
 40
0.0446202524627658
 40
0.0536951566742032
 40
0.0625139071343277
 40
0.0713394438811972
 40
0.0801581943548366
 40
0.0892330945345953
 40
0.0983153909297792
 40
0.1073902910894439
 40
0.1162090727855563
 40
0.1250346408562809
 40
0.1338534225046312
 40
0.1429283596867862
 40
0.152010693278452
 40
0.1610856303793936
 40
0.1699043578894356
 40
0.1787298718145267
 40
0.1875485992356221
 40
0.1966234853672213
 40
0.2057057680197816
 40
0.2147806540446426
 40
0.22359924734232
 40
0.2324246269887107
 40
0.2412432201960233
 40
0.2503179695625951
 40
0.2594001153796315
 40
0.2684748646622254
 40
0.2772933031516778
 40
0.2861185278442483
 40
0.2949369662831022
 40
0.3040115536309227
 40
0.3130935372046695
 40
0.3221681245297317
 40
0.3309864578426593
 40
0.3398115771991809
 40
0.3486299105245143
 40
0.3577043840688084
 40
0.3667862535613765
 40
0.3758607271545931
 40
0.3846790531101609
 40
0.3935041650088417
 40
0.4023224910341075
 40
0.4113969511291332
 40
0.4204788069688831
 40
0.4295532671620242
 40
0.4383716869576014
 40
0.4471968927010338
 40
0.4560153125916546
 40
0.4650898657645171
 40
0.4741718146460335
 40
0.4832463679214291
 40
0.4920649397271277
 40
0.5008902975881535
 40
0.5097088694711613
 40
0.5187835795376635
 40
0.5278656854596016
 40
0.536940395587066
 40
0.5457591084871974
 40
0.5545846076030165
 40
0.5634033205286345
 40
0.5724781799231404
 40
0.5815604354333871
 40
0.5906352948212776
 40
0.5994540751235119
 40
0.6082796417814045
 40
0.617098422047527
 40
0.6261733566420993
 40
0.6352556876062762
 40
0.6443306221316533
 40
0.6531493682618061
 40
0.6619749008052315
 40
0.6707936468554162
 40
0.6798685511827298
 40
0.6889508520143147
 40
0.6980257562417977
 40
0.706844384689159
 40
0.7156697995026572
 40
0.7244884278617686
 40
0.7335632129752033
 40
0.7426453945547787
 40
0.7517201795807923
 40
0.760538660007573
 40
0.7693639266734561
 40
0.7781824070406743
 40
0.7872570380848999
 40
0.796339065409263
 40
0.8054136964141515
 40
0.814232061462013
 40
0.8230572125988945
 40
0.8318755776396559
 40
0.8409500854521688
 40
0.8500319892947011
 40
0.8591064971314197
 40
0.8679248262307335
 40
0.876749941307899
 40
0.8855682704553428
 40
0.8946427358754074
 40
0.9037245971134461
 40
0.9127990626117815
 40
0.9216174493718379
 40
0.9304426220812566
 40
0.9392610089256224
 40
0.9483355295158478
 40
0.9574174458337444
 40
0.9664919665247299
 40
0.9748631665447359
 40
0.9832459831354027
 40
0.9916287998334133
 40
1.0
 40
1.0
 40
1.0
 40
1.0
 10
396.2847924589162
 20
132.9757698696653
 30
0.0
 10
396.3136067883608
 20
132.9273580141232
 30
0.0
 10
396.3712576257034
 20
132.8304970403265
 30
0.0
 10
396.4634154153694
 20
132.6891039320126
 30
0.0
 10
396.5603071222141
 20
132.5497581873403
 30
0.0
 10
396.6622417546871
 20
132.4133022646603
 30
0.0
 10
396.7688598217179
 20
132.2802236438613
 30
0.0
 10
396.8778491808574
 20
132.1534667697685
 30
0.0
 10
396.988766030178
 20
132.0333164421807
 30
0.0
 10
397.1011541861602
 20
131.9199073669823
 30
0.0
 10
397.2168433672973
 20
131.8113922374033
 30
0.0
 10
397.3355662735825
 20
131.7083702460079
 30
0.0
 10
397.4569743136973
 20
131.6113423857629
 30
0.0
 10
397.5783982320378
 20
131.5224418848488
 30
0.0
 10
397.6994156545526
 20
131.4417837951507
 30
0.0
 10
397.8196312195951
 20
131.3692987101718
 30
0.0
 10
397.9410025402247
 20
131.3038062394979
 30
0.0
 10
398.0631484069553
 20
131.2458439834834
 30
0.0
 10
398.1856528251073
 20
131.1958023386909
 30
0.0
 10
398.3058219545147
 20
131.1547816528334
 30
0.0
 10
398.4232938314664
 20
131.1227091826435
 30
0.0
 10
398.5377808077686
 20
131.0993204290973
 30
0.0
 10
398.6511476064175
 20
131.0842344047003
 30
0.0
 10
398.7629422538021
 20
131.077866599627
 30
0.0
 10
398.872728227442
 20
131.0804527707623
 30
0.0
 10
398.9780909917383
 20
131.091935987992
 30
0.0
 10
399.0787698806042
 20
131.1120639005818
 30
0.0
 10
399.1746174719834
 20
131.140406737546
 30
0.0
 10
399.2671952232677
 20
131.1774261962086
 30
0.0
 10
399.3560313864348
 20
131.2233688036798
 30
0.0
 10
399.4407181648322
 20
131.2782890900212
 30
0.0
 10
399.5193929751861
 20
131.340979114224
 30
0.0
 10
399.5919258723152
 20
131.4110354435227
 30
0.0
 10
399.6583262983341
 20
131.4879115719937
 30
0.0
 10
399.7196760639972
 20
131.5728599365177
 30
0.0
 10
399.7755368745783
 20
131.6659303095466
 30
0.0
 10
399.8255756713639
 20
131.7669898559755
 30
0.0
 10
399.868692040082
 20
131.8738161057796
 30
0.0
 10
399.9049013705641
 20
131.9859001123111
 30
0.0
 10
399.9343688494496
 20
132.1026403260266
 30
0.0
 10
399.9575745405647
 20
132.2259384312605
 30
0.0
 10
399.9741630433616
 20
132.3556418562676
 30
0.0
 10
399.9839135988346
 20
132.4914454023943
 30
0.0
 10
399.9866118548363
 20
132.6303631195111
 30
0.0
 10
399.9824167360631
 20
132.7718379439075
 30
0.0
 10
399.9716304776394
 20
132.9152810994356
 30
0.0
 10
399.9540774715802
 20
133.0630287007076
 30
0.0
 10
399.9295252777457
 20
133.2147430602571
 30
0.0
 10
399.8978903084635
 20
133.3699810452858
 30
0.0
 10
399.8598680476858
 20
133.5253300748409
 30
0.0
 10
399.8157430055929
 20
133.6802477054825
 30
0.0
 10
399.7659203643506
 20
133.8342242300273
 30
0.0
 10
399.7095889831663
 20
133.9897666746257
 30
0.0
 10
399.6466655626735
 20
134.1463903157739
 30
0.0
 10
399.5772130779625
 20
134.303564040354
 30
0.0
 10
399.5027581901596
 20
134.4578330973414
 30
0.0
 10
399.4236789411748
 20
134.6087307282996
 30
0.0
 10
399.3404378096911
 20
134.7558836689115
 30
0.0
 10
399.251679729108
 20
134.9016874875525
 30
0.0
 10
399.1574799019006
 20
135.0455650508544
 30
0.0
 10
399.0580407380081
 20
135.1869571107922
 30
0.0
 10
398.9555480577785
 20
135.3227557254045
 30
0.0
 10
398.850430853212
 20
135.4526224087887
 30
0.0
 10
398.7431568001886
 20
135.5763624026299
 30
0.0
 10
398.6319795103414
 20
135.695990168819
 30
0.0
 10
398.5171241884563
 20
135.8109011916409
 30
0.0
 10
398.3989098454017
 20
135.9205711008724
 30
0.0
 10
398.2799353350068
 20
136.0225888815154
 30
0.0
 10
398.1606322370873
 20
136.1167825262756
 30
0.0
 10
398.0414206983259
 20
136.2031578035072
 30
0.0
 10
397.9203595787519
 20
136.283121129705
 30
0.0
 10
397.7977986853398
 20
136.3561087324985
 30
0.0
 10
397.6741376620099
 20
136.4216902233308
 30
0.0
 10
397.5520955832147
 20
136.4784235404779
 30
0.0
 10
397.432057915796
 20
136.5263226227121
 30
0.0
 10
397.314349868039
 20
136.5655931970905
 30
0.0
 10
397.1970542363903
 20
136.5968748323743
 30
0.0
 10
397.0806059898782
 20
136.6197080628459
 30
0.0
 10
396.9654403556382
 20
136.6338050239289
 30
0.0
 10
396.8540899663374
 20
136.6388556650259
 30
0.0
 10
396.7468506743859
 20
136.6350583349673
 30
0.0
 10
396.6439160555296
 20
136.6227955549473
 30
0.0
 10
396.5436091383565
 20
136.6018675232354
 30
0.0
 10
396.4464010236857
 20
136.5719709129673
 30
0.0
 10
396.3527134722493
 20
136.5329928778325
 30
0.0
 10
396.2646068782926
 20
136.4857906476707
 30
0.0
 10
396.1822541382355
 20
136.43072459291
 30
0.0
 10
396.1056953997143
 20
136.368310865365
 30
0.0
 10
396.0336832877331
 20
136.2975326158906
 30
0.0
 10
395.9666719482166
 20
136.2182768925806
 30
0.0
 10
395.9050221557587
 20
136.1306186230638
 30
0.0
 10
395.8500896436319
 20
136.036485572891
 30
0.0
 10
395.801904931515
 20
135.9363594551128
 30
0.0
 10
395.7603502834518
 20
135.8308318020113
 30
0.0
 10
395.7247487170706
 20
135.718183534576
 30
0.0
 10
395.6954862575566
 20
135.5985048310285
 30
0.0
 10
395.6728220458126
 20
135.4720499503058
 30
0.0
 10
395.6572544449576
 20
135.3415994730241
 30
0.0
 10
395.6486682275782
 20
135.2077021225307
 30
0.0
 10
395.6468010965472
 20
135.0709580959249
 30
0.0
 10
395.65162267071
 20
134.9291402669674
 30
0.0
 10
395.6634073553914
 20
134.7825317681493
 30
0.0
 10
395.6822834455041
 20
134.6315374997041
 30
0.0
 10
395.7078360320226
 20
134.4794770571897
 30
0.0
 10
395.7398171306094
 20
134.3269043282082
 30
0.0
 10
395.7778494588361
 20
134.1743605471024
 30
0.0
 10
395.8225522861881
 20
134.0193618078114
 30
0.0
 10
395.8740578018111
 20
133.8623524568689
 30
0.0
 10
395.9323476552472
 20
133.7038415639011
 30
0.0
 10
395.9950875715122
 20
133.5499120404431
 30
0.0
 10
396.0615881222362
 20
133.4009652685841
 30
0.0
 10
396.1312437291828
 20
133.2573215353131
 30
0.0
 10
396.2052339496191
 20
133.1151565926992
 30
0.0
 10
396.2582850985066
 20
133.0222102468896
 30
0.0
 10
396.2847922812315
 20
132.9757692965304
 30
0.0
  0
SPLINE
  5
16D
330
1F
100
AcDbEntity
  8
0
  6
Continuous
 62
     7
370
    30
100
AcDbSpline
210
0.0
220
0.0
230
1.0
 70
    11
 71
     3
 72
   119
 73
   115
 74
     0
 42
0.000000001
 43
0.00000001
 40
0.0
 40
0.0
 40
0.0
 40
0.0
 40
0.0088183439987447
 40
0.0176434739191793
 40
0.0264618178498059
 40
0.0355363004087157
 40
0.0446181788939146
 40
0.0536926614061995
 40
0.0625110060233095
 40
0.0713361366995067
 40
0.0801544813064876
 40
0.0892289676181323
 40
0.0983108499296646
 40
0.1073853362665716
 40
0.1162036527047718
 40
0.1250287551103554
 40
0.1338470716010773
 40
0.1429215237746682
 40
0.1520033717475822
 40
0.161077824006699
 40
0.1698962022835759
 40
0.1787213664940548
 40
0.1875397448619814
 40
0.1966142561054593
 40
0.2056961630484555
 40
0.2147706743985652
 40
0.2235891918090844
 40
0.2324144952289463
 40
0.2412330127275685
 40
0.2503076661892819
 40
0.2593897154384062
 40
0.2684643689796612
 40
0.2772830393338746
 40
0.2861084958474019
 40
0.2949271662474282
 40
0.3040019801226252
 40
0.3130841900186214
 40
0.3221590039114715
 40
0.3309777723187101
 40
0.3398033270405218
 40
0.3486220954320948
 40
0.3576970157538852
 40
0.3667793323669077
 40
0.3758542526384985
 40
0.3846730220076
 40
0.3934985777820881
 40
0.4023173470828525
 40
0.4113922739025642
 40
0.4204745971989327
 40
0.4295495239246344
 40
0.4383681996171419
 40
0.4471936617033272
 40
0.4560123373059746
 40
0.4650871708017166
 40
0.4741694007963996
 40
0.4832442341957192
 40
0.49206276508124
 40
0.5008880822555211
 40
0.5097066130680471
 40
0.5187812970191669
 40
0.5278633773267574
 40
0.536938061219093
 40
0.5457564589652975
 40
0.5545816428507897
 40
0.5634000405704293
 40
0.5724745837837417
 40
0.581556523113945
 40
0.5906310663294442
 40
0.5994493974062522
 40
0.6082745144915914
 40
0.61709284559867
 40
0.6261673148744862
 40
0.635249180031073
 40
0.6443236493691866
 40
0.6531420067104534
 40
0.6619671500002325
 40
0.6707855074167266
 40
0.6798599989002192
 40
0.6889418861252736
 40
0.6980163777063841
 40
0.7068348438966121
 40
0.7156600960700082
 40
0.724478562349857
 40
0.7335531634909274
 40
0.7426351603880823
 40
0.7517097616214027
 40
0.7605283752838976
 40
0.7693537750469036
 40
0.7781723887749797
 40
0.7872471428957537
 40
0.7963292929405563
 40
0.8054040471074184
 40
0.8142227844691828
 40
0.823048308084921
 40
0.8318670454581741
 40
0.840941931339414
 40
0.8500242134012445
 40
0.859099099260109
 40
0.8679178810553786
 40
0.876743449228358
 40
0.8855622309740623
 40
0.8946371684445268
 40
0.9037195023308366
 40
0.9127944397185698
 40
0.9216131641240719
 40
0.9304386749443208
 40
0.9392573992601396
 40
0.948332282302696
 40
0.9574145618670801
 40
0.9664894448028706
 40
0.9748612738536462
 40
0.9832447225341063
 40
0.9916281711023962
 40
1.0
 40
1.0
 40
1.0
 40
1.0
 10
353.8771203108544
 20
157.4756230725812
 30
0.0
 10
353.8495053172981
 20
157.524724858775
 30
0.0
 10
353.7942540798027
 20
157.6229662161342
 30
0.0
 10
353.7175268363847
 20
157.7732591296713
 30
0.0
 10
353.6448876178867
 20
157.9265968123777
 30
0.0
 10
353.577214575388
 20
158.0828219755878
 30
0.0
 10
353.5147518170739
 20
158.2413807188735
 30
0.0
 10
353.4589042962314
 20
158.3988050740993
 30
0.0
 10
353.4096998898654
 20
158.5545701780884
 30
0.0
 10
353.3670309814415
 20
158.7082158905329
 30
0.0
 10
353.3302020813913
 20
158.8622440953431
 30
0.0
 10
353.2995988163242
 20
159.0161239091659
 30
0.0
 10
353.2754822708215
 20
159.1693038487686
 30
0.0
 10
353.2583827368916
 20
159.3184157822689
 30
0.0
 10
353.248192201855
 20
159.4630385838762
 30
0.0
 10
353.2446568428096
 20
159.602867035436
 30
0.0
 10
353.2477190892096
 20
159.7401785219564
 30
0.0
 10
353.2576556067003
 20
159.8743751767198
 30
0.0
 10
353.2745990678534
 20
160.0049031554988
 30
0.0
 10
353.298177024705
 20
160.1288929004303
 30
0.0
 10
353.3281493367461
 20
160.2460695276371
 30
0.0
 10
353.3641469443085
 20
160.3563183665036
 30
0.0
 10
353.4067560453211
 20
160.461434631775
 30
0.0
 10
353.4561133224922
 20
160.5608209697619
 30
0.0
 10
353.512208042135
 20
160.6539835780687
 30
0.0
 10
353.5738072501391
 20
160.7388746504273
 30
0.0
 10
353.6405657207344
 20
160.8153964653907
 30
0.0
 10
353.7120407223504
 20
160.8836377641077
 30
0.0
 10
353.7893959264185
 20
160.9447095152993
 30
0.0
 10
353.8726126226167
 20
160.9980821953436
 30
0.0
 10
353.9615378692318
 20
161.0433776792279
 30
0.0
 10
354.0542171065712
 20
161.0796003478168
 30
0.0
 10
354.1502388579155
 20
161.1068406713315
 30
0.0
 10
354.2491365430124
 20
161.1253808265074
 30
0.0
 10
354.3525202073729
 20
161.135522619945
 30
0.0
 10
354.4602178298707
 20
161.1368640222566
 30
0.0
 10
354.5719514674383
 20
161.1291851865809
 30
0.0
 10
354.6852649245517
 20
161.1126549041063
 30
0.0
 10
354.7997268008732
 20
161.0875417043753
 30
0.0
 10
354.9148992214581
 20
161.0542894643886
 30
0.0
 10
355.0326574025527
 20
161.0123567457824
 30
0.0
 10
355.1526953607892
 20
160.9615143219214
 30
0.0
 10
355.2746414455808
 20
160.9017254060487
 30
0.0
 10
355.3958144129332
 20
160.8343045509963
 30
0.0
 10
355.5158115843755
 20
160.759668121614
 30
0.0
 10
355.6342731903134
 20
160.6783716998564
 30
0.0
 10
355.7531284348008
 20
160.5890912629657
 30
0.0
 10
355.8719718342995
 20
160.4917962388545
 30
0.0
 10
355.9903799149471
 20
160.3866370680195
 30
0.0
 10
356.1057487100984
 20
160.2759262634517
 30
0.0
 10
356.2177497314249
 20
160.1601810690819
 30
0.0
 10
356.3261419649702
 20
160.0400061124731
 30
0.0
 10
356.4326910266713
 20
159.9134437267167
 30
0.0
 10
356.5369376521605
 20
159.7806654640289
 30
0.0
 10
356.6384543164601
 20
159.6419920583118
 30
0.0
 10
356.7350082843318
 20
159.5004733230248
 30
0.0
 10
356.8263823677507
 20
159.3566690097667
 30
0.0
 10
356.9124815586176
 20
159.2111645663987
 30
0.0
 10
356.9947085189511
 20
159.0615894183335
 30
0.0
 10
357.0726020308647
 20
158.9082979232561
 30
0.0
 10
357.1457787798935
 20
158.7517449670706
 30
0.0
 10
357.2126293812711
 20
158.59537352243
 30
0.0
 10
357.2730724648771
 20
158.4397227071921
 30
0.0
 10
357.3271697534406
 20
158.2852927551512
 30
0.0
 10
357.3758025603519
 20
158.1295677838283
 30
0.0
 10
357.4185597772902
 20
157.9730450171845
 30
0.0
 10
357.4551455687529
 20
157.8162622114559
 30
0.0
 10
357.4847554393703
 20
157.6626669864444
 30
0.0
 10
357.5074529850613
 20
157.5127170692362
 30
0.0
 10
357.5234496480398
 20
157.3667711086545
 30
0.0
 10
357.5330060453761
 20
157.2224518810839
 30
0.0
 10
357.5358075619573
 20
157.0803434169232
 30
0.0
 10
357.5316791994661
 20
156.9410057041513
 30
0.0
 10
357.5207117906585
 20
156.8075022429227
 30
0.0
 10
357.5031066715784
 20
156.6801578228309
 30
0.0
 10
357.4792010926043
 20
156.5591491268773
 30
0.0
 10
357.4486058467177
 20
156.4425056236544
 30
0.0
 10
357.411138262884
 20
156.3308322942218
 30
0.0
 10
357.3667638657093
 20
156.2246482097684
 30
0.0
 10
357.3164581913007
 20
156.1262876164781
 30
0.0
 10
357.2605375760332
 20
156.0359057878111
 30
0.0
 10
357.1994270199315
 20
155.9534775516611
 30
0.0
 10
357.1321316458102
 20
155.8776609419776
 30
0.0
 10
357.0586212670545
 20
155.8090136739636
 30
0.0
 10
356.9790057611689
 20
155.747955374322
 30
0.0
 10
356.8950351953422
 20
155.6958282171064
 30
0.0
 10
356.807105244891
 20
155.6526004350918
 30
0.0
 10
356.715680765322
 20
155.6180478128943
 30
0.0
 10
356.6192734360964
 20
155.5916079044041
 30
0.0
 10
356.5180089110394
 20
155.5737282778441
 30
0.0
 10
356.4121290020751
 20
155.5646818063009
 30
0.0
 10
356.3039611517644
 20
155.5646673866984
 30
0.0
 10
356.1939357958449
 20
155.5734697227701
 30
0.0
 10
356.0825052815424
 20
155.5906907638055
 30
0.0
 10
355.9678554358758
 20
155.6166109132257
 30
0.0
 10
355.8502535736955
 20
155.6515171289404
 30
0.0
 10
355.7300461859647
 20
155.6955047623697
 30
0.0
 10
355.6098760174823
 20
155.7476067409496
 30
0.0
 10
355.4901597506207
 20
155.8074484445945
 30
0.0
 10
355.3712862421243
 20
155.8745028068874
 30
0.0
 10
355.2513197098936
 20
155.9498617428694
 30
0.0
 10
355.1306390094378
 20
156.0336192363824
 30
0.0
 10
355.0096562734533
 20
156.125682354634
 30
0.0
 10
354.8910317822587
 20
156.2240266541278
 30
0.0
 10
354.7751214581256
 20
156.3281604195325
 30
0.0
 10
354.6622068248657
 20
156.4374870192151
 30
0.0
 10
354.5504485431009
 20
156.5537871178901
 30
0.0
 10
354.4402946712461
 20
156.6769513099614
 30
0.0
 10
354.3321752142942
 20
156.8067081144283
 30
0.0
 10
354.2301903322868
 20
156.9379955689641
 30
0.0
 10
354.1343479379672
 20
157.070018914731
 30
0.0
 10
354.0446272037816
 20
157.2020962114307
 30
0.0
 10
353.9583094190512
 20
157.3371612331614
 30
0.0
 10
353.9041708320069
 20
157.4294904693402
 30
0.0
 10
353.8771203108552
 20
157.4756230725817
 30
0.0
  0
SPLINE
  5
16E
330
1F
100
AcDbEntity
  8
0
  6
Continuous
 62
     7
370
    30
100
AcDbSpline
210
0.0
220
0.0
230
1.0
 70
     8
 71
     3
 72
   100
 73
    96
 74
     0
 42
0.000000001
 43
0.00000001
 40
0.0
 40
0.0
 40
0.0
 40
0.0
 40
0.0073256487567856
 40
0.0166201333103609
 40
0.0259161306640772
 40
0.0352121280078399
 40
0.04450661254784
 40
0.0561894930161512
 40
0.0678783823093366
 40
0.0795702852255986
 40
0.0912621880832408
 40
0.102951077241115
 40
0.1146339576191724
 40
0.125716676400121
 40
0.1368045246486643
 40
0.1478949447089772
 40
0.1589853647261181
 40
0.17007321287501
 40
0.1811559315894939
 40
0.1904501232456543
 40
0.1997458276549127
 40
0.209041532056522
 40
0.2183357237022502
 40
0.2300182351646505
 40
0.241706755208753
 40
0.2533982887759714
 40
0.2650898223105936
 40
0.2767783422794542
 40
0.2884608536916675
 40
0.2995432198876444
 40
0.3106307152587081
 40
0.3217207823226856
 40
0.3328108493764355
 40
0.3438983447238906
 40
0.3549807109041215
 40
0.3642746627048599
 40
0.3735701271821047
 40
0.3828655916597413
 40
0.392159543461014
 40
0.4038417469242601
 40
0.4155299585342417
 40
0.4272211834858078
 40
0.438912408448306
 40
0.4506006200835224
 40
0.4622828235636003
 40
0.4733648846398014
 40
0.48445207443488
 40
0.4955418357065958
 40
0.5066315969833504
 40
0.5177187867900599
 40
0.5288008478740184
 40
0.5380947655323892
 40
0.5473901958388424
 40
0.5566856261445099
 40
0.5659795438018091
 40
0.5776617022818897
 40
0.5893498688375027
 40
0.6010410486800336
 40
0.6127322285112587
 40
0.624420395040775
 40
0.6361025535034486
 40
0.6471845691239619
 40
0.6582717134380348
 40
0.669361429208936
 40
0.680451144976364
 40
0.6915382892824206
 40
0.702620304897587
 40
0.7119142217375458
 40
0.7212096512356316
 40
0.7305050807353866
 40
0.7397989975776218
 40
0.7514811550557007
 40
0.7631693205742079
 40
0.7748604993935017
 40
0.786551678238818
 40
0.7982398438173928
 40
0.8099220013355373
 40
0.8210040145866745
 40
0.8320911563955738
 40
0.8431808696254732
 40
0.8542705828903373
 40
0.865357724779943
 40
0.8764397380849095
 40
0.8857336947390922
 40
0.895029164013794
 40
0.9043246332973485
 40
0.9136185899636049
 40
0.9253007906185786
 40
0.9369889990592951
 40
0.9486802206992325
 40
0.9603714423966263
 40
0.9720596509699679
 40
0.9837418517134041
 40
0.9948238927867499
 40
0.9999999999999999
 40
0.9999999999999999
 40
0.9999999999999999
 40
0.9999999999999999
 10
361.3325409385644
 20
141.2533118177624
 30
0.0
 10
361.3763445346049
 20
141.3110559628265
 30
0.0
 10
361.4757243478936
 20
141.4420635255312
 30
0.0
 10
361.6373997752964
 20
141.6376931745864
 30
0.0
 10
361.8154354446623
 20
141.8427629734005
 30
0.0
 10
361.9985372947382
 20
142.0409843015744
 30
0.0
 10
362.2024379161326
 20
142.2490602067075
 30
0.0
 10
362.4287414866652
 20
142.4646872674691
 30
0.0
 10
362.6789978992761
 20
142.6854343177075
 30
0.0
 10
362.9365272545308
 20
142.8954343249958
 30
0.0
 10
363.2011272554781
 20
143.0945306269479
 30
0.0
 10
363.472597070562
 20
143.2825656445661
 30
0.0
 10
363.746044599239
 20
143.4563985623117
 30
0.0
 10
364.0210146886818
 20
143.6166088018367
 30
0.0
 10
364.297046590237
 20
143.7638478131544
 30
0.0
 10
364.5788800402109
 20
143.9008997369228
 30
0.0
 10
364.8663179010136
 20
144.0276730565778
 30
0.0
 10
365.1591619447738
 20
144.1440773279518
 30
0.0
 10
365.4412523273899
 20
144.2443419875639
 30
0.0
 10
365.711553082662
 20
144.3302982175076
 30
0.0
 10
365.9691496843677
 20
144.4037066139232
 30
0.0
 10
366.2302375361815
 20
144.4697175738874
 30
0.0
 10
366.5173681639588
 20
144.5333273339384
 30
0.0
 10
366.8316022482168
 20
144.5920999210684
 30
0.0
 10
367.1739781332193
 20
144.6433775564915
 30
0.0
 10
367.5213362608879
 20
144.6828593153409
 30
0.0
 10
367.8734071895749
 20
144.710517329338
 30
0.0
 10
368.2299209140856
 20
144.7263261123758
 30
0.0
 10
368.5845240690307
 20
144.7301920940244
 30
0.0
 10
368.936877398873
 20
144.7227813479845
 30
0.0
 10
369.2866561767846
 20
144.7048181688039
 30
0.0
 10
369.6399399356912
 20
144.6761918342624
 30
0.0
 10
369.9964821839044
 20
144.6369252887766
 30
0.0
 10
370.3560355227068
 20
144.5870428251973
 30
0.0
 10
370.6989481003446
 20
144.5298022350919
 30
0.0
 10
371.0245973353937
 20
144.4671167559347
 30
0.0
 10
371.3324755043097
 20
144.4007869811655
 30
0.0
 10
371.642093223453
 20
144.3270569881215
 30
0.0
 10
371.9799887415252
 20
144.2390114585197
 30
0.0
 10
372.3466350006011
 20
144.1342554450175
 30
0.0
 10
372.7424155115525
 20
144.0102324237234
 30
0.0
 10
373.1403162080424
 20
143.8746860970216
 30
0.0
 10
373.5400285839793
 20
143.7277229731012
 30
0.0
 10
373.9412441882407
 20
143.5694516654596
 30
0.0
 10
374.3368669182531
 20
143.4028378617309
 30
0.0
 10
374.7267118572303
 20
143.2285592390123
 30
0.0
 10
375.1106283290754
 20
143.0473321119636
 30
0.0
 10
375.4953484547792
 20
142.8561624042097
 30
0.0
 10
375.8806051595937
 20
142.6551854714835
 30
0.0
 10
376.266130801902
 20
142.444538171561
 30
0.0
 10
376.6310111693639
 20
142.2361438847153
 30
0.0
 10
376.9751094918212
 20
142.0317833571213
 30
0.0
 10
377.2983845589864
 20
141.8330955062756
 30
0.0
 10
377.6214503246862
 20
141.6278380847832
 30
0.0
 10
377.9718261944582
 20
141.397956169109
 30
0.0
 10
378.3493459604596
 20
141.1413668357204
 30
0.0
 10
378.7536990230258
 20
140.8559052006619
 30
0.0
 10
379.1570804255979
 20
140.5604968106313
 30
0.0
 10
379.5591806980192
 20
140.2553724491533
 30
0.0
 10
379.9596910896745
 20
139.940764521107
 30
0.0
 10
380.3515786341603
 20
139.6223669631734
 30
0.0
 10
380.7348362223433
 20
139.3007941704968
 30
0.0
 10
381.1095047699276
 20
138.9766740575656
 30
0.0
 10
381.4822087329214
 20
138.6444660414793
 30
0.0
 10
381.8526919236515
 20
138.3044034214098
 30
0.0
 10
382.2206978807414
 20
137.9567209192863
 30
0.0
 10
382.5664073582771
 20
137.6206642853024
 30
0.0
 10
382.8901803987108
 20
137.297678791584
 30
0.0
 10
383.1924410863577
 20
136.9890538052086
 30
0.0
 10
383.4925856975932
 20
136.6754412599907
 30
0.0
 10
383.8160177193002
 20
136.3296853513028
 30
0.0
 10
384.1619558234075
 20
135.9502530766564
 30
0.0
 10
384.5294336954371
 20
135.5356172259036
 30
0.0
 10
384.8929793233647
 20
135.1137451718316
 30
0.0
 10
385.2523141329572
 20
134.684964202867
 30
0.0
 10
385.6071607677064
 20
134.2496025128169
 30
0.0
 10
385.9513359405121
 20
133.8154366507742
 30
0.0
 10
386.2850069619287
 20
133.3829460347116
 30
0.0
 10
386.6083981847672
 20
132.9525973264327
 30
0.0
 10
386.9272810444666
 20
132.5169289557071
 30
0.0
 10
387.241436638132
 20
132.0762444089893
 30
0.0
 10
387.5506461968743
 20
131.6308484039013
 30
0.0
 10
387.8384061769971
 20
131.2051310135755
 30
0.0
 10
388.1055318643668
 20
130.8000385506669
 30
0.0
 10
388.3528654486174
 20
130.4163658529727
 30
0.0
 10
388.5964089906493
 20
130.0298465524913
 30
0.0
 10
388.8565982689951
 20
129.6072927246336
 30
0.0
 10
389.13212234977
 20
129.1478924387682
 30
0.0
 10
389.4214628098239
 20
128.650925912534
 30
0.0
 10
389.704349694434
 20
128.1502449543643
 30
0.0
 10
389.9805306944929
 20
127.646225608141
 30
0.0
 10
390.2499251375801
 20
127.1392949231858
 30
0.0
 10
390.5073994426595
 20
126.6382861028737
 30
0.0
 10
390.711811252235
 20
126.2303298965685
 30
0.0
 10
390.8266056173387
 20
125.9916578993295
 30
0.0
 10
390.8631527031925
 20
125.9156718875936
 30
0.0
  0
SPLINE
  5
16F
330
1F
100
AcDbEntity
  8
0
  6
Continuous
 62
     7
370
    30
100
AcDbSpline
210
0.0
220
0.0
230
1.0
 70
     8
 71
     3
 72
    91
 73
    87
 74
     0
 42
0.000000001
 43
0.00000001
 40
0.0
 40
0.0
 40
0.0
 40
0.0
 40
0.0131955611763404
 40
0.0263911223506253
 40
0.0397155873422343
 40
0.05304005232998
 40
0.066556721005287
 40
0.0800733896748168
 40
0.093725127246376
 40
0.1073768648103745
 40
0.1172670134171913
 40
0.1271571620216161
 40
0.1382448394430599
 40
0.149335883483868
 40
0.160423560890595
 40
0.173941635149117
 40
0.1874597093976308
 40
0.2011128970422469
 40
0.2147660846761359
 40
0.2246561780046703
 40
0.2345462713302484
 40
0.2456338876208136
 40
0.25672487054081
 40
0.2678124868154609
 40
0.2813304884263474
 40
0.2948484900277945
 40
0.3085016054979705
 40
0.3221547209591481
 40
0.3353877328543341
 40
0.3486207447424654
 40
0.3603432923721532
 40
0.3720738021404209
 40
0.3838043118895818
 40
0.3955268594931976
 40
0.4068641948795656
 40
0.4182051298020589
 40
0.4295424651810124
 40
0.4427753732128289
 40
0.456008281242055
 40
0.4677307358023201
 40
0.479461152370764
 40
0.4911915689360508
 40
0.5029140234920079
 40
0.5142512672010388
 40
0.5255921103750869
 40
0.5369293540858243
 40
0.5501622169007622
 40
0.5633950797179732
 40
0.5751174929632127
 40
0.5868478681099074
 40
0.5985782432698156
 40
0.6103006565330859
 40
0.621637858363982
 40
0.6329786595990792
 40
0.6443158614405766
 40
0.6575487468124727
 40
0.670781632191168
 40
0.6825040642067967
 40
0.6942344580614215
 40
0.7059648519431724
 40
0.7176872839958157
 40
0.7290245021733829
 40
0.7403653197162955
 40
0.7517025379108297
 40
0.7649355096147235
 40
0.7781684813280235
 40
0.7898909889993684
 40
0.8016214585114718
 40
0.8133519280555194
 40
0.8250744357704538
 40
0.8364117259935309
 40
0.8477526155791305
 40
0.8590899058189575
 40
0.8723230036437705
 40
0.8855561014766232
 40
0.8972787209645223
 40
0.9090093023777012
 40
0.9207398838130043
 40
0.9324625033310928
 40
0.9437999020253107
 40
0.9551409001277494
 40
0.9664782988302641
 40
0.9748470999682679
 40
0.9832159011067289
 40
0.9916079505532225
 40
1.0
 40
1.0
 40
1.0
 40
1.0
 10
380.6842099176215
 20
172.6305996280531
 30
0.0
 10
380.6832681354314
 20
172.5653969851496
 30
0.0
 10
380.6813845710514
 20
172.4349916993527
 30
0.0
 10
380.6696002049428
 20
172.244255980648
 30
0.0
 10
380.651177755029
 20
172.0573987052933
 30
0.0
 10
380.6253181858862
 20
171.8742871905207
 30
0.0
 10
380.5921623557518
 20
171.6958499561855
 30
0.0
 10
380.5514870008234
 20
171.5219386041695
 30
0.0
 10
380.5034330788971
 20
171.3537980507508
 30
0.0
 10
380.4531090636243
 20
171.2066733273097
 30
0.0
 10
380.4028704925042
 20
171.0793694578298
 30
0.0
 10
380.3526538185953
 20
170.9657596678838
 30
0.0
 10
380.2963038383012
 20
170.852193507556
 30
0.0
 10
380.2333497054924
 20
170.7394135120851
 30
0.0
 10
380.1610502303562
 20
170.6239348351356
 30
0.0
 10
380.0782948269201
 20
170.5073501658087
 30
0.0
 10
379.9836583223635
 20
170.39103604148
 30
0.0
 10
379.8824958732049
 20
170.2827526110102
 30
0.0
 10
379.7848183494064
 20
170.1919585096435
 30
0.0
 10
379.6928922492675
 20
170.1165961426409
 30
0.0
 10
379.604900554606
 20
170.0519133551176
 30
0.0
 10
379.5101320234216
 20
169.9901929846544
 30
0.0
 10
379.4082772043114
 20
169.9322392348639
 30
0.0
 10
379.2953077219202
 20
169.876641320607
 30
0.0
 10
379.170448343747
 20
169.8251723103052
 30
0.0
 10
379.0325142363496
 20
169.7795866692848
 30
0.0
 10
378.8896457016271
 20
169.7433835301277
 30
0.0
 10
378.7435806368105
 20
169.7169871891156
 30
0.0
 10
378.59519467026
 20
169.7002479777398
 30
0.0
 10
378.4506084072411
 20
169.693105441518
 30
0.0
 10
378.3089020211887
 20
169.6942569189286
 30
0.0
 10
378.170657232123
 20
169.7025560386816
 30
0.0
 10
378.0302637782572
 20
169.7180208573656
 30
0.0
 10
377.8894965058564
 20
169.7403941594846
 30
0.0
 10
377.7485965704578
 20
169.7694022868484
 30
0.0
 10
377.6077969372742
 20
169.8047084284059
 30
0.0
 10
377.4577796163313
 20
169.8489305987319
 30
0.0
 10
377.2985014255042
 20
169.90336936929
 30
0.0
 10
377.1364122418217
 20
169.9668151266818
 30
0.0
 10
376.9798765056262
 20
170.0353579623232
 30
0.0
 10
376.8292119171218
 20
170.1078251625045
 30
0.0
 10
376.6782132179609
 20
170.186909023097
 30
0.0
 10
376.5287718902077
 20
170.271561561242
 30
0.0
 10
376.3810769178769
 20
170.3614541337736
 30
0.0
 10
376.2352902148421
 20
170.4562127498681
 30
0.0
 10
376.081843937002
 20
170.5623282681078
 30
0.0
 10
375.9210616046065
 20
170.6808361053766
 30
0.0
 10
375.7597381533336
 20
170.8077136498542
 30
0.0
 10
375.6060174223772
 20
170.935917258019
 30
0.0
 10
375.4599164788149
 20
171.064380306026
 30
0.0
 10
375.3153346816395
 20
171.1981656235523
 30
0.0
 10
375.1740668894486
 20
171.3355526527313
 30
0.0
 10
375.036228597418
 20
171.4761948023931
 30
0.0
 10
374.9018923412497
 20
171.6197230298959
 30
0.0
 10
374.76231920547
 20
171.775769534833
 30
0.0
 10
374.6181631263773
 20
171.944987947857
 30
0.0
 10
374.475797981893
 20
172.1209961157928
 30
0.0
 10
374.3422284805298
 20
172.2944103244371
 30
0.0
 10
374.2171689154223
 20
172.4643901632983
 30
0.0
 10
374.0953112024751
 20
172.6377983155136
 30
0.0
 10
373.9781510581701
 20
172.8124355253638
 30
0.0
 10
373.8657173628321
 20
172.987976270766
 30
0.0
 10
373.7579849843383
 20
173.1640980000713
 30
0.0
 10
373.6480297540276
 20
173.3524887848488
 30
0.0
 10
373.5367622880318
 20
173.553346747496
 30
0.0
 10
373.4294163381504
 20
173.7586493786764
 30
0.0
 10
373.3310670122488
 20
173.9577302732735
 30
0.0
 10
373.2411579403449
 20
174.1500699235293
 30
0.0
 10
373.1557723745252
 20
174.343557400549
 30
0.0
 10
373.075938067548
 20
174.5357625772323
 30
0.0
 10
373.0015939584953
 20
174.7264176601091
 30
0.0
 10
372.9326200394852
 20
174.9152829279553
 30
0.0
 10
372.8646882293989
 20
175.1147849131906
 30
0.0
 10
372.7988630357402
 20
175.3246437881814
 30
0.0
 10
372.7386475339747
 20
175.5361008081805
 30
0.0
 10
372.6866144488091
 20
175.7384091760131
 30
0.0
 10
372.6419995145887
 20
175.9314288898245
 30
0.0
 10
372.6027192570534
 20
176.1231861853879
 30
0.0
 10
372.569217338446
 20
176.3112939886159
 30
0.0
 10
372.5413502379396
 20
176.4955724061731
 30
0.0
 10
372.5189144511068
 20
176.6758916563114
 30
0.0
 10
372.5031454128042
 20
176.8385330622644
 30
0.0
 10
372.4925909344356
 20
176.9839170890639
 30
0.0
 10
372.4860258403781
 20
177.1126467462197
 30
0.0
 10
372.4820935239613
 20
177.2401466924516
 30
0.0
 10
372.4818786785546
 20
177.3238933485642
 30
0.0
 10
372.4817712558511
 20
177.3657666766211
 30
0.0
  0
SPLINE
  5
170
330
1F
100
AcDbEntity
  8
0
  6
Continuous
 62
     7
370
    30
100
AcDbSpline
210
0.0
220
0.0
230
1.0
 70
     8
 71
     3
 72
    11
 73
     7
 74
     0
 42
0.000000001
 43
0.00000001
 40
0.0
 40
0.0
 40
0.0
 40
0.0
 40
0.0399811281979
 40
0.3598567073792643
 40
0.6799279115555743
 40
1.0
 40
1.0
 40
1.0
 40
1.0
 10
380.8009308328426
 20
191.2631804894949
 30
0.0
 10
380.7986722886031
 20
191.0144643966439
 30
0.0
 10
380.7783438904279
 20
188.7758543753713
 30
0.0
 10
380.7482000917401
 20
184.5508105341538
 30
0.0
 10
380.7103914018089
 20
178.5879988806037
 30
0.0
 10
380.6929370870542
 20
174.6164012076382
 30
0.0
 10
380.6842099176215
 20
172.6305996280531
 30
0.0
  0
SPLINE
  5
171
330
1F
100
AcDbEntity
  8
0
  6
Continuous
 62
     7
370
    30
100
AcDbSpline
210
0.0
220
0.0
230
1.0
 70
     8
 71
     3
 72
    64
 73
    60
 74
     0
 42
0.000000001
 43
0.00000001
 40
0.0
 40
0.0
 40
0.0
 40
0.0
 40
0.0190237338612761
 40
0.0380474677174141
 40
0.0572570354419115
 40
0.0764666031461526
 40
0.0959532615022987
 40
0.1154399198215547
 40
0.1351213012430388
 40
0.1548026826109354
 40
0.1690610808815804
 40
0.1833194791341625
 40
0.1993043312041626
 40
0.2152940369635674
 40
0.2312788889158988
 40
0.2507676018102659
 40
0.2702563146199941
 40
0.2899398286336926
 40
0.3096233425523478
 40
0.3238813245998894
 40
0.3381393066202067
 40
0.3541237007843679
 40
0.3701129487881062
 40
0.3860973427994266
 40
0.4055855178109861
 40
0.4250736927275541
 40
0.44475667711159
 40
0.4644396614013247
 40
0.4835159636985894
 40
0.5025922659190544
 40
0.5194911476863252
 40
0.5364015085655222
 40
0.5533118692267976
 40
0.5702107506967
 40
0.5865543485276427
 40
0.6029031359984754
 40
0.6192467337410977
 40
0.6383219414638497
 40
0.6573971491550168
 40
0.6742950515167407
 40
0.6912044316954452
 40
0.7081138118351049
 40
0.72501171414355
 40
0.741354348718566
 40
0.757702172212153
 40
0.7740448068083268
 40
0.7931194829405256
 40
0.8121941591005685
 40
0.8290915756594944
 40
0.8460004687717582
 40
0.8629093620413868
 40
0.8798067788150462
 40
0.89614892078547
 40
0.9124962509537704
 40
0.9288383930452516
 40
0.9479133397253965
 40
0.9669882864802621
 40
0.9838859293978197
 40
0.9999999999999999
 40
0.9999999999999999
 40
0.9999999999999999
 40
0.9999999999999999
 10
372.6455479208638
 20
201.2216505587346
 30
0.0
 10
372.6468671953619
 20
201.2870737744744
 30
0.0
 10
372.6495057443577
 20
201.4179202059362
 30
0.0
 10
372.6624287256971
 20
201.6093203066451
 30
0.0
 10
372.6819928340037
 20
201.7968430638243
 30
0.0
 10
372.7090009103603
 20
201.9806232856186
 30
0.0
 10
372.7433062467305
 20
202.1597290551093
 30
0.0
 10
372.7851337933045
 20
202.3343097103009
 30
0.0
 10
372.834334906466
 20
202.5031158495796
 30
0.0
 10
372.8856942115178
 20
202.6508404760501
 30
0.0
 10
372.9368540432991
 20
202.778677556663
 30
0.0
 10
372.9879133232844
 20
202.8927745416749
 30
0.0
 10
373.0451289191909
 20
203.0068406003532
 30
0.0
 10
373.1089691525859
 20
203.1201316231319
 30
0.0
 10
373.1822055655386
 20
203.2361498572789
 30
0.0
 10
373.2659437229345
 20
203.3532994559847
 30
0.0
 10
373.3616061485833
 20
203.4702020446101
 30
0.0
 10
373.4637727036397
 20
203.5790600005034
 30
0.0
 10
373.5623395967968
 20
203.6703613264213
 30
0.0
 10
373.6550434969625
 20
203.7461660405002
 30
0.0
 10
373.743735501594
 20
203.8112462310071
 30
0.0
 10
373.8392120615983
 20
203.8733675897139
 30
0.0
 10
373.9417789738558
 20
203.9317236832277
 30
0.0
 10
374.055487556806
 20
203.9877380963107
 30
0.0
 10
374.1811053685237
 20
204.0396330615717
 30
0.0
 10
374.3198111094854
 20
204.0856502130483
 30
0.0
 10
374.4634138841361
 20
204.1222618897673
 30
0.0
 10
374.6101640875267
 20
204.1490381767519
 30
0.0
 10
374.7591832351649
 20
204.1661279033867
 30
0.0
 10
374.9043287970973
 20
204.173580090338
 30
0.0
 10
375.0465342715681
 20
204.1727038353748
 30
0.0
 10
375.1852226190201
 20
204.1646482115631
 30
0.0
 10
375.3260238204052
 20
204.1494060449746
 30
0.0
 10
375.4671581699795
 20
204.1272318278209
 30
0.0
 10
375.6083851724406
 20
204.0983995830592
 30
0.0
 10
375.7494729743142
 20
204.0632467695862
 30
0.0
 10
375.8997538119963
 20
204.0191653086584
 30
0.0
 10
376.0592627891996
 20
203.9648505119229
 30
0.0
 10
376.2215344901758
 20
203.9015038371231
 30
0.0
 10
376.3782013797176
 20
203.833031349347
 30
0.0
 10
376.5289518607988
 20
203.7606091903359
 30
0.0
 10
376.679996475446
 20
203.6815479407907
 30
0.0
 10
376.8294435194889
 20
203.5968954605089
 30
0.0
 10
376.9771053504052
 20
203.5069811490712
 30
0.0
 10
377.1228218297807
 20
203.4121800093887
 30
0.0
 10
377.2761530120292
 20
203.3059985033321
 30
0.0
 10
377.4367678217325
 20
203.1873972174387
 30
0.0
 10
377.5978724406577
 20
203.0603995542565
 30
0.0
 10
377.7513393665643
 20
202.9320565448895
 30
0.0
 10
377.8971582014983
 20
202.8034385071087
 30
0.0
 10
378.0414197675624
 20
202.6694771991796
 30
0.0
 10
378.1823337671319
 20
202.5318957875881
 30
0.0
 10
378.3197861202165
 20
202.3910414218241
 30
0.0
 10
378.4537080638231
 20
202.2472860765412
 30
0.0
 10
378.5928043421222
 20
202.0909743596333
 30
0.0
 10
378.7364408947108
 20
201.9214771809465
 30
0.0
 10
378.8781597754599
 20
201.7450772525802
 30
0.0
 10
379.0093399479261
 20
201.5741666046012
 30
0.0
 10
379.089914919692
 20
201.462843736495
 30
0.0
 10
379.129246134142
 20
201.4085034928348
 30
0.0
  0
SPLINE
  5
172
330
1F
100
AcDbEntity
  8
0
  6
Continuous
 62
     7
370
    30
100
AcDbSpline
210
0.0
220
0.0
230
1.0
 70
     8
 71
     3
 72
    11
 73
     7
 74
     0
 42
0.000000001
 43
0.00000001
 40
0.0
 40
0.0
 40
0.0
 40
0.0
 40
0.2500764239715818
 40
0.5001535371925355
 40
0.7500764217758388
 40
1.0
 40
1.0
 40
1.0
 40
1.0
 10
372.4817712558511
 20
177.3657666766211
 30
0.0
 10
372.4905344381033
 20
179.3515831680948
 30
0.0
 10
372.5080608267604
 20
183.32322162426
 30
0.0
 10
372.5453289988494
 20
189.285721928317
 30
0.0
 10
372.589934157993
 20
195.2511797010776
 30
0.0
 10
372.6270099827567
 20
199.2314917650122
 30
0.0
 10
372.6455479208638
 20
201.2216505587346
 30
0.0
  0
LINE
  5
173
330
1F
100
AcDbEntity
  8
0
  6
Continuous
 62
     7
370
    30
100
AcDbLine
 10
439.4832539032
 20
206.9109615213
 30
0.0
 11
439.4832539032
 21
45.2358807679
 31
0.0
  0
LINE
  5
174
330
1F
100
AcDbEntity
  8
0
  6
Continuous
 62
     7
370
    30
100
AcDbLine
 10
327.4068290852
 20
272.0195747892
 30
0.0
 11
439.1297005126
 21
207.5233339552
 31
0.0
  0
ARC
  5
175
330
1F
100
AcDbEntity
  8
0
  6
Continuous
 62
     7
370
    30
100
AcDbCircle
 10
438.7185741595
 20
206.8777217539
 30
0.0
 40
0.7654018504442376
100
AcDbArc
 50
2.4890161016
 51
57.510984044
  0
ARC
  5
176
330
1F
100
AcDbEntity
  8
0
  6
Continuous
 62
     7
370
    30
100
AcDbCircle
 10
376.1187728825
 20
202.3035492871
 30
0.0
 40
2.526985149080005
100
AcDbArc
 50
135.0995485747
 51
163.0999792588
  0
ARC
  5
177
330
1F
100
AcDbEntity
  8
0
  6
Continuous
 62
     7
370
    30
100
AcDbCircle
 10
398.5570922529
 20
135.7778350467
 30
0.0
 40
1.885673338876971
100
AcDbArc
 50
152.882324454
 51
177.8430899857
  0
ARC
  5
178
330
1F
100
AcDbEntity
  8
0
  6
Continuous
 62
     7
370
    30
100
AcDbCircle
 10
399.8475144967
 20
133.5367976188
 30
0.0
 40
1.88239045486157
100
AcDbArc
 50
242.1633632769
 51
267.6122079758
  0
ARC
  5
179
330
1F
100
AcDbEntity
  8
0
  6
Continuous
 62
     7
370
    30
100
AcDbCircle
 10
327.2601333908
 20
271.8127542309
 30
0.0
 40
0.2535633452810544
100
AcDbArc
 50
54.6523142461
 51
114.0372273248
  0
ARC
  5
17A
330
1F
100
AcDbEntity
  8
0
  6
Continuous
 62
     7
370
    30
100
AcDbCircle
 10
369.5046780388
 20
136.3836369559
 30
0.0
 40
9.008682161127497
100
AcDbArc
 50
124.2443740987
 51
142.8245289387
  0
ARC
  5
17B
330
1F
100
AcDbEntity
  8
0
  6
Continuous
 62
     7
370
    30
100
AcDbCircle
 10
434.3925364227
 20
42.4123582635
 30
0.0
 40
0.2472907331785
100
AcDbArc
 50
305.09594093
 51
6.1780037491
  0
ARC
  5
17C
330
1F
100
AcDbEntity
  8
0
  6
Continuous
 62
     7
370
    30
100
AcDbCircle
 10
439.2368155764
 20
45.2094877258
 30
0.0
 40
0.2478476177435331
100
AcDbArc
 50
305.1992200619
 51
6.1129603315
  0
ARC
  5
17D
330
1F
100
AcDbEntity
  8
0
  6
Continuous
 62
     7
370
    30
100
AcDbCircle
 10
357.4240448239
 20
158.0351253769
 30
0.0
 40
1.889027925347414
100
AcDbArc
 50
242.3310908324
 51
267.0370923684
  0
ARC
  5
17E
330
1F
100
AcDbEntity
  8
0
  6
Continuous
 62
     7
370
    30
100
AcDbCircle
 10
356.1118371525
 20
160.2748814147
 30
0.0
 40
1.866535010084178
100
AcDbArc
 50
152.5141910507
 51
177.8064296392
  0
LINE
  5
17F
330
1F
100
AcDbEntity
  8
0
  6
Continuous
 62
     7
370
    30
100
AcDbLine
 10
354.4770497901
 20
160.4271579904
 30
0.0
 11
354.4806953999
 21
160.4278924569
 31
0.0
  0
LINE
  5
180
330
1F
100
AcDbEntity
  8
0
  6
Continuous
 62
     7
370
    30
100
AcDbLine
 10
356.7345868133
 20
156.5244022977
 30
0.0
 11
356.7318535666
 21
156.5213000806
 31
0.0
  0
ARC
  5
181
330
1F
100
AcDbEntity
  8
0
  6
Continuous
 62
     7
370
    30
100
AcDbCircle
 10
355.0760344539
 20
158.7524771745
 30
0.0
 40
1.787099487772621
100
AcDbArc
 50
34.3703526279
 51
91.6274451819
  0
ARC
  5
182
330
1F
100
AcDbEntity
  8
0
  6
Continuous
 62
     7
370
    30
100
AcDbCircle
 10
355.6406327421
 20
157.8689846297
 30
0.0
 40
1.732168039395529
100
AcDbArc
 50
327.574731606
 51
25.2540663241
  0
LINE
  5
183
330
1F
100
AcDbEntity
  8
0
  6
Continuous
 62
     7
370
    30
100
AcDbLine
 10
399.1119980252
 20
132.0023500036
 30
0.0
 11
399.1102026413
 21
132.0003287077
 31
0.0
  0
LINE
  5
184
330
1F
100
AcDbEntity
  8
0
  6
Continuous
 62
     7
370
    30
100
AcDbLine
 10
396.8558446518
 20
135.9079318029
 30
0.0
 11
396.8571942487
 21
135.9082079134
 31
0.0
  0
ARC
  5
185
330
1F
100
AcDbEntity
  8
0
  6
Continuous
 62
     7
370
    30
100
AcDbCircle
 10
396.9974870269
 20
133.4477991886
 30
0.0
 40
2.689054505213437
100
AcDbArc
 50
337.5577601134
 51
61.5855911915
  0
ARC
  5
186
330
1F
100
AcDbEntity
  8
0
  6
Continuous
 62
     7
370
    30
100
AcDbCircle
 10
397.5744714647
 20
134.7931091687
 30
0.0
 40
1.238388732688624
100
AcDbArc
 50
55.4349251747
 51
97.8456903814
  0
LWPOLYLINE
  5
187
330
1F
100
AcDbEntity
  8
0
  6
Continuous
 62
     7
370
    30
100
AcDbPolyline
 90
      121
 70
   128
 43
0.0
 10
372.998275511
 20
200.8180396158
 10
372.9996566656
 20
200.939077208
 10
373.003799183
 20
201.0584371998
 10
373.0107002241
 20
201.1760377879
 10
373.0203550591
 20
201.2917983747
 10
373.0327570713
 20
201.4056396237
 10
373.0478977608
 20
201.5174835138
 10
373.0657667509
 20
201.6272533928
 10
373.0863517953
 20
201.7348740299
 10
373.1096387859
 20
201.8402716672
 10
373.135611763
 20
201.9433740705
 10
373.1642529259
 20
202.0441105786
 10
373.1955426456
 20
202.1424121517
 10
373.2294594775
 20
202.2382114187
 10
373.2659801767
 20
202.3314427238
 10
373.3050797139
 20
202.4220421707
 10
373.346731292
 20
202.5099476672
 10
373.3909063653
 20
202.5950989672
 10
373.4375746583
 20
202.6774377122
 10
373.486704187
 20
202.7569074715
 10
373.5382612803
 20
202.8334537804
 10
373.5922106036
 20
202.9070241779
 10
373.6485151828
 20
202.9775682424
 10
373.7071364295
 20
203.0450376268
 10
373.7680341677
 20
203.1093860906
 10
373.831166661
 20
203.1705695329
 10
373.8964906416
 20
203.2285460215
 10
373.9639613398
 20
203.2832758221
 10
374.0335325144
 20
203.3347214258
 10
374.1051564849
 20
203.3828475742
 10
374.1787841638
 20
203.4276212842
 10
374.2543650903
 20
203.4690118701
 10
374.331847465
 20
203.5069909647
 10
374.4111781854
 20
203.5415325392
 10
374.4923028823
 20
203.5726129205
 10
374.5751659567
 20
203.6002108076
 10
374.6597106184
 20
203.6243072864
 10
374.7458789249
 20
203.6448858422
 10
374.8336118205
 20
203.6619323716
 10
374.9228491776
 20
203.6754351918
 10
375.0135298374
 20
203.6853850485
 10
375.1055916518
 20
203.6917751227
 10
375.1989715263
 20
203.6946010349
 10
375.293605463
 20
203.6938608484
 10
375.3894286044
 20
203.6895550704
 10
375.4863752783
 20
203.681686652
 10
375.5843790422
 20
203.6702609857
 10
375.6833727293
 20
203.6552859022
 10
375.7832884941
 20
203.6367716645
 10
375.8840578594
 20
203.6147309615
 10
375.985611763
 20
203.5891788987
 10
376.0878806048
 20
203.5601329883
 10
376.1907942949
 20
203.5276131368
 10
376.2942823014
 20
203.4916416317
 10
376.3982736988
 20
203.4522431262
 10
376.5026972166
 20
203.4094446219
 10
376.6074812881
 20
203.3632754509
 10
376.7125540995
 20
203.3137672551
 10
376.8178436393
 20
203.2609539651
 10
376.9232777471
 20
203.2048717764
 10
377.0287841638
 20
203.1455591249
 10
377.1342905804
 20
203.0830566606
 10
377.2397246882
 20
203.0174072195
 10
377.345014228
 20
202.9486557946
 10
377.4500870394
 20
202.8768495045
 10
377.5548711109
 20
202.8020375617
 10
377.6592946287
 20
202.7242712387
 10
377.7632860261
 20
202.6436038324
 10
377.8667740326
 20
202.5600906285
 10
377.9696877227
 20
202.4737888626
 10
378.0719565645
 20
202.3847576816
 10
378.1735104681
 20
202.2930581031
 10
378.2742798334
 20
202.1987529734
 10
378.3741955982
 20
202.1019069245
 10
378.4731892853
 20
202.0025863299
 10
378.5711930492
 20
201.9008592589
 10
378.6681397231
 20
201.7967954302
 10
378.7639628646
 20
201.6904661639
 10
378.8585968012
 20
201.5819443329
 10
378.9519766757
 20
201.4713043124
 10
379.0440384901
 20
201.3586219298
 10
379.1347191499
 20
201.2439744119
 10
379.223956507
 20
201.1274403323
 10
379.3116894027
 20
201.0090995576
 10
379.3978577091
 20
200.8890331929
 10
379.4824023708
 20
200.7673235254
 10
379.5652654452
 20
200.644053969
 10
379.6463901421
 20
200.5193090065
 10
379.7257208625
 20
200.3931741318
 10
379.8032032373
 20
200.2657357915
 10
379.8787841638
 20
200.1370813253
 10
379.9524118426
 20
200.0072989068
 10
380.0240358131
 20
199.8764774823
 10
380.0936069877
 20
199.7447067101
 10
380.1610776859
 20
199.6120768995
 10
380.2264016665
 20
199.4786789483
 10
380.2895341598
 20
199.3446042808
 10
380.350431898
 20
199.2099447851
 10
380.4090531447
 20
199.07479275
 10
380.4653577239
 20
198.939240802
 10
380.5193070472
 20
198.8033818416
 10
380.5708641405
 20
198.6673089799
 10
380.6199936692
 20
198.5311154743
 10
380.6666619622
 20
198.394894665
 10
380.7108370355
 20
198.258739911
 10
380.7524886137
 20
198.122744526
 10
380.7915881508
 20
197.9870017144
 10
380.8281088501
 20
197.8516045075
 10
380.862025682
 20
197.7166456998
 10
380.8933154016
 20
197.5822177855
 10
380.9219565645
 20
197.4484128945
 10
380.9479295416
 20
197.3153227302
 10
380.9712165322
 20
197.1830385058
 10
380.9918015766
 20
197.0516508824
 10
381.0096705668
 20
196.9212499065
 10
381.0248112563
 20
196.7919249484
 10
381.0372132684
 20
196.663764641
 10
381.0468681035
 20
196.5368568189
 10
381.0537691445
 20
196.4112884584
 10
381.0579116619
 20
196.2871456178
 10
381.0592928165
 20
196.1645133785
  0
LINE
  5
188
330
1F
100
AcDbEntity
  8
0
  6
Continuous
 62
     7
370
    30
100
AcDbLine
 10
372.998275511
 20
177.1383560712
 30
0.0
 11
372.998275511
 21
200.8180396158
 31
0.0
  0
LINE
  5
189
330
1F
100
AcDbEntity
  8
0
  6
Continuous
 62
     7
370
    30
100
AcDbLine
 10
381.0592928165
 20
196.1645133785
 30
0.0
 11
381.0592928165
 21
191.0765469253
 31
0.0
  0
ARC
  5
18A
330
1F
100
AcDbEntity
  8
0
  6
Continuous
 62
     7
370
    30
100
AcDbCircle
 10
381.7304110036
 20
177.5278601845
 30
0.0
 40
8.740818252089607
100
AcDbArc
 50
182.5540325468
 51
237.6999599945
  0
LWPOLYLINE
  5
18B
330
1F
100
AcDbEntity
  8
0
  6
Continuous
 62
     7
370
    30
100
AcDbPolyline
 90
        3
 70
   128
 43
0.0
 10
358.7902165412
 20
139.7855320289
 10
358.8262501231
 20
139.8064608317
 10
358.888542997
 20
139.8420767303
  0
LWPOLYLINE
  5
18C
330
1F
100
AcDbEntity
  8
0
  6
Continuous
 62
     7
370
    30
100
AcDbPolyline
 90
        3
 70
   128
 43
0.0
 10
383.8818502003
 20
96.5375853079
 10
383.8262501231
 20
96.5051907696
 10
383.7880746057
 20
96.4832795724
  0
LINE
  5
18D
330
1F
100
AcDbEntity
  8
0
  6
Continuous
 62
     7
370
    30
100
AcDbLine
 10
367.1595317589
 20
86.883810822
 30
0.0
 11
367.1581273873
 21
86.8829999133
 31
0.0
  0
LINE
  5
18E
330
1F
100
AcDbEntity
  8
0
  6
Continuous
 62
     7
370
    30
100
AcDbLine
 10
342.1590007164
 20
130.184550827
 30
0.0
 11
342.1602557821
 21
130.1852755064
 31
0.0
  0
LWPOLYLINE
  5
18F
330
1F
100
AcDbEntity
  8
0
  6
Continuous
 62
     7
370
    30
100
AcDbPolyline
 90
      122
 70
   128
 43
0.0
 10
358.77726514
 20
139.7780708203
 10
359.107743311
 20
139.959021249
 10
359.4475769733
 20
140.1255955812
 10
359.7955173835
 20
140.2770931289
 10
360.1513260808
 20
140.4134100633
 10
360.5147592116
 20
140.5344529595
 10
360.885567697
 20
140.6401388609
 10
361.2634974034
 20
140.7303953355
 10
361.6482893167
 20
140.8051605262
 10
362.0396797197
 20
140.8643831925
 10
362.4374003729
 20
140.9080227462
 10
362.8411786986
 20
140.936049279
 10
363.2507379671
 20
140.9484435828
 10
363.6657974872
 20
140.9451971633
 10
364.0860727975
 20
140.9263122453
 10
364.5112758626
 20
140.8918017716
 10
364.9411152694
 20
140.8416893941
 10
365.3752964275
 20
140.7760094571
 10
365.8135217708
 20
140.6948069746
 10
366.2554909615
 20
140.5981375984
 10
366.700901096
 20
140.4860675812
 10
367.1494469125
 20
140.35867373
 10
367.6008210001
 20
140.2160433542
 10
368.0547140095
 20
140.0582742055
 10
368.5108148652
 20
139.8854744111
 10
368.9688109783
 20
139.6977623993
 10
369.4283884612
 20
139.4952668186
 10
369.8892323426
 20
139.2781264492
 10
370.3510267829
 20
139.0464901084
 10
370.8134552914
 20
138.8005165481
 10
371.2762009426
 20
138.5403743463
 10
371.7389465938
 20
138.2662417915
 10
372.2013751023
 20
137.9783067605
 10
372.6631695426
 20
137.6767665895
 10
373.1240134239
 20
137.3618279391
 10
373.5835909069
 20
137.0337066526
 10
374.04158702
 20
136.6926276078
 10
374.4976878757
 20
136.3388245633
 10
374.9515808851
 20
135.9725399981
 10
375.4029549727
 20
135.5940249453
 10
375.8515007892
 20
135.2035388201
 10
376.2969109237
 20
134.8013492423
 10
376.7388801144
 20
134.3877318526
 10
377.1771054577
 20
133.9629701236
 10
377.6112866158
 20
133.5273551658
 10
378.0411260226
 20
133.0811855279
 10
378.4663290876
 20
132.6247669924
 10
378.886604398
 20
132.1584123656
 10
379.301663918
 20
131.6824412638
 10
379.7112231866
 20
131.1971798937
 10
380.1150015123
 20
130.7029608293
 10
380.5127221655
 20
130.2001227836
 10
380.9041125685
 20
129.6890103768
 10
381.2889044818
 20
129.1699738996
 10
381.6668341882
 20
128.6433690739
 10
382.0376426736
 20
128.1095568082
 10
382.4010758044
 20
127.5689029508
 10
382.7568845017
 20
127.0217780388
 10
383.1048249119
 20
126.4685570444
 10
383.4446585741
 20
125.9096191176
 10
383.7761525833
 20
125.3453473264
 10
384.09907975
 20
124.7761283947
 10
384.4132187561
 20
124.2023524366
 10
384.7183543064
 20
123.6244126895
 10
385.0142772763
 20
123.0427052444
 10
385.3007848548
 20
122.4576287746
 10
385.5776806841
 20
121.8695842623
 10
385.8447749935
 20
121.2789747237
 10
386.10188473
 20
120.6862049333
 10
386.3488336834
 20
120.0916811457
 10
386.5854526072
 20
119.4958108178
 10
386.8115793347
 20
118.8990023295
 10
387.0270588897
 20
118.3016647035
 10
387.2317435936
 20
117.7042073251
 10
387.4254931655
 20
117.1070396618
 10
387.6081748191
 20
116.5105709824
 10
387.7796633537
 20
115.9152100769
 10
387.9398412395
 20
115.3213649758
 10
388.0885986986
 20
114.7294426709
 10
388.2258337801
 20
114.1398488361
 10
388.3514524299
 20
113.5529875497
 10
388.4653685553
 20
112.9692610171
 10
388.5675040838
 20
112.3890692952
 10
388.6577890168
 20
111.8128100185
 10
388.7361614776
 20
111.2408781263
 10
388.8025677536
 20
110.6736655922
 10
388.8569623333
 20
110.1115611553
 10
388.8993079372
 20
109.5549500539
 10
388.9295755439
 20
109.0042137614
 10
388.9477444095
 20
108.459729725
 10
388.9538020819
 20
107.9218711069
 10
388.9477444095
 20
107.3910065285
 10
388.9295755439
 20
106.8674998178
 10
388.8993079372
 20
106.3517097602
 10
388.8569623333
 20
105.8439898524
 10
388.8025677536
 20
105.3446880603
 10
388.7361614776
 20
104.8541465805
 10
388.6577890168
 20
104.3727016055
 10
388.5675040838
 20
103.9006830937
 10
388.4653685553
 20
103.4384145429
 10
388.3514524299
 20
102.986212769
 10
388.2258337801
 20
102.5443876885
 10
388.0885986986
 20
102.1132421062
 10
387.9398412395
 20
101.6930715077
 10
387.7796633537
 20
101.2841638571
 10
387.6081748191
 20
100.8867993991
 10
387.4254931655
 20
100.5012504675
 10
387.2317435936
 20
100.1277812983
 10
387.0270588897
 20
99.7666478487
 10
386.8115793347
 20
99.4180976214
 10
386.5854526072
 20
99.0823694953
 10
386.3488336834
 20
98.7596935618
 10
386.10188473
 20
98.4502909668
 10
385.8447749935
 20
98.1543737594
 10
385.5776806841
 20
97.8721447465
 10
385.3007848548
 20
97.6037973537
 10
385.0142772763
 20
97.3495154929
 10
384.7183543064
 20
97.1094734363
 10
384.4132187561
 20
96.8838356966
 10
384.09907975
 20
96.6727569147
 10
383.7761525833
 20
96.4763817534
 10
383.7751367452
 20
96.4757952272
  0
LINE
  5
190
330
1F
100
AcDbEntity
  8
0
  6
Continuous
 62
     7
370
    30
100
AcDbLine
 10
362.2309958095
 20
130.9965911584
 30
0.0
 11
362.2309468075
 21
130.9946055577
 31
0.0
  0
ENDSEC
  0
SECTION
  2
OBJECTS
  0
DICTIONARY
  5
C
330
0
100
AcDbDictionary
281
     1
  3
ACAD_GROUP
350
D
  3
ACAD_LAYOUT
350
1A
  3
ACAD_MLINESTYLE
350
17
  3
ACAD_PLOTSETTINGS
350
19
  3
ACAD_PLOTSTYLENAME
350
E
  3
ACAD_SCALELIST
350
47
  0
DICTIONARY
  5
D
102
{ACAD_REACTORS
330
C
102
}
330
C
100
AcDbDictionary
281
     1
  0
DICTIONARY
  5
1A
102
{ACAD_REACTORS
330
C
102
}
330
C
100
AcDbDictionary
281
     1
  3
Layout1
350
1E
  3
Layout2
350
26
  3
Model
350
22
  0
DICTIONARY
  5
17
102
{ACAD_REACTORS
330
C
102
}
330
C
100
AcDbDictionary
281
     1
  3
Standard
350
18
  0
DICTIONARY
  5
19
102
{ACAD_REACTORS
330
C
102
}
330
C
100
AcDbDictionary
281
     1
  0
ACDBDICTIONARYWDFLT
  5
E
102
{ACAD_REACTORS
330
C
102
}
330
C
100
AcDbDictionary
281
     1
  3
Normal
350
F
100
AcDbDictionaryWithDefault
340
F
  0
DICTIONARY
  5
47
102
{ACAD_REACTORS
330
C
102
}
330
C
100
AcDbDictionary
281
     1
  3
A0
350
48
  3
A1
350
49
  3
A2
350
4A
  3
A3
350
4B
  3
A4
350
4C
  3
A5
350
4D
  3
A6
350
4E
  3
A7
350
4F
  3
A8
350
50
  3
A9
350
51
  3
B0
350
52
  3
B1
350
53
  3
B2
350
54
  3
B3
350
55
  3
B4
350
56
  3
B5
350
57
  3
B6
350
58
  3
B7
350
59
  3
B8
350
5A
  3
B9
350
5B
  3
C0
350
5C
  3
C1
350
5D
  3
C2
350
5E
  3
C3
350
5F
  3
C4
350
60
  3
C5
350
61
  3
C6
350
62
  3
C7
350
63
  3
C8
350
64
  3
C9
350
65
  3
D0
350
66
  3
D1
350
67
  3
D2
350
68
  0
LAYOUT
  5
1E
102
{ACAD_REACTORS
330
1A
102
}
330
1A
100
AcDbPlotSettings
  1

  2
none_device
  4

  6

 40
0.0
 41
0.0
 42
0.0
 43
0.0
 44
0.0
 45
0.0
 46
0.0
 47
0.0
 48
0.0
 49
0.0
140
0.0
141
0.0
142
1.0
143
1.0
 70
   688
 72
     1
 73
     0
 74
     5
  7

 75
    16
147
1.0
148
0.0
149
0.0
100
AcDbLayout
  1
Layout1
 70
     1
 71
     1
 10
0.0
 20
0.0
 11
420.0
 21
297.0
 12
0.0
 22
0.0
 32
0.0
 14
1.0000000000E+20
 24
1.0000000000E+20
 34
1.0000000000E+20
 15
-1.0000000000E+20
 25
-1.0000000000E+20
 35
-1.0000000000E+20
146
0.0
 13
0.0
 23
0.0
 33
0.0
 16
1.0
 26
0.0
 36
0.0
 17
0.0
 27
1.0
 37
0.0
 76
     0
330
1B
  0
LAYOUT
  5
26
102
{ACAD_REACTORS
330
1A
102
}
330
1A
100
AcDbPlotSettings
  1

  2
none_device
  4

  6

 40
0.0
 41
0.0
 42
0.0
 43
0.0
 44
0.0
 45
0.0
 46
0.0
 47
0.0
 48
0.0
 49
0.0
140
0.0
141
0.0
142
1.0
143
1.0
 70
   688
 72
     1
 73
     0
 74
     5
  7

 75
    16
147
1.0
148
0.0
149
0.0
100
AcDbLayout
  1
Layout2
 70
     1
 71
     2
 10
0.0
 20
0.0
 11
0.0
 21
0.0
 12
0.0
 22
0.0
 32
0.0
 14
0.0
 24
0.0
 34
0.0
 15
0.0
 25
0.0
 35
0.0
146
0.0
 13
0.0
 23
0.0
 33
0.0
 16
1.0
 26
0.0
 36
0.0
 17
0.0
 27
1.0
 37
0.0
 76
     0
330
23
  0
LAYOUT
  5
22
102
{ACAD_REACTORS
330
1A
102
}
330
1A
100
AcDbPlotSettings
  1

  2
none_device
  4
Letter_(8.50_x_11.00_Inches)
  6

 40
6.35
 41
6.35
 42
6.35000508
 43
6.35000508
 44
215.9
 45
279.4
 46
0.0
 47
0.0
 48
0.0
 49
0.0
140
0.0
141
0.0
142
1.0
143
1.0
 70
  1712
 72
     1
 73
     0
 74
     0
  7

 75
     0
147
1.0
148
0.0
149
0.0
100
AcDbLayout
  1
Model
 70
     1
 71
     0
 10
0.0
 20
0.0
 11
467.0
 21
539.0
 12
0.0
 22
0.0
 32
0.0
 14
0.0
 24
0.0
 34
0.0
 15
467.0
 25
539.0
 35
0.0
146
0.0
 13
0.0
 23
0.0
 33
0.0
 16
1.0
 26
0.0
 36
0.0
 17
0.0
 27
1.0
 37
0.0
 76
     0
330
1F
331
29
  0
MLINESTYLE
  5
18
102
{ACAD_REACTORS
330
17
102
}
330
17
100
AcDbMlineStyle
  2
Standard
 70
     0
  3

 62
   256
 51
90.0
 52
90.0
 71
     2
 49
0.5
 62
   256
  6
BYLAYER
 49
-0.5
 62
   256
  6
BYLAYER
  0
ACDBPLACEHOLDER
  5
F
102
{ACAD_REACTORS
330
E
102
}
330
E
  0
SCALE
  5
48
102
{ACAD_REACTORS
330
47
102
}
330
47
100
AcDbScale
 70
     0
300
1:1
140
1.0
141
1.0
290
     1
  0
SCALE
  5
49
102
{ACAD_REACTORS
330
47
102
}
330
47
100
AcDbScale
 70
     0
300
1:2
140
1.0
141
2.0
290
     0
  0
SCALE
  5
4A
102
{ACAD_REACTORS
330
47
102
}
330
47
100
AcDbScale
 70
     0
300
1:4
140
1.0
141
4.0
290
     0
  0
SCALE
  5
4B
102
{ACAD_REACTORS
330
47
102
}
330
47
100
AcDbScale
 70
     0
300
1:5
140
1.0
141
5.0
290
     0
  0
SCALE
  5
4C
102
{ACAD_REACTORS
330
47
102
}
330
47
100
AcDbScale
 70
     0
300
1:8
140
1.0
141
8.0
290
     0
  0
SCALE
  5
4D
102
{ACAD_REACTORS
330
47
102
}
330
47
100
AcDbScale
 70
     0
300
1:10
140
1.0
141
10.0
290
     0
  0
SCALE
  5
4E
102
{ACAD_REACTORS
330
47
102
}
330
47
100
AcDbScale
 70
     0
300
1:16
140
1.0
141
16.0
290
     0
  0
SCALE
  5
4F
102
{ACAD_REACTORS
330
47
102
}
330
47
100
AcDbScale
 70
     0
300
1:20
140
1.0
141
20.0
290
     0
  0
SCALE
  5
50
102
{ACAD_REACTORS
330
47
102
}
330
47
100
AcDbScale
 70
     0
300
1:30
140
1.0
141
30.0
290
     0
  0
SCALE
  5
51
102
{ACAD_REACTORS
330
47
102
}
330
47
100
AcDbScale
 70
     0
300
1:40
140
1.0
141
40.0
290
     0
  0
SCALE
  5
52
102
{ACAD_REACTORS
330
47
102
}
330
47
100
AcDbScale
 70
     0
300
1:50
140
1.0
141
50.0
290
     0
  0
SCALE
  5
53
102
{ACAD_REACTORS
330
47
102
}
330
47
100
AcDbScale
 70
     0
300
1:100
140
1.0
141
100.0
290
     0
  0
SCALE
  5
54
102
{ACAD_REACTORS
330
47
102
}
330
47
100
AcDbScale
 70
     0
300
2:1
140
2.0
141
1.0
290
     0
  0
SCALE
  5
55
102
{ACAD_REACTORS
330
47
102
}
330
47
100
AcDbScale
 70
     0
300
4:1
140
4.0
141
1.0
290
     0
  0
SCALE
  5
56
102
{ACAD_REACTORS
330
47
102
}
330
47
100
AcDbScale
 70
     0
300
8:1
140
8.0
141
1.0
290
     0
  0
SCALE
  5
57
102
{ACAD_REACTORS
330
47
102
}
330
47
100
AcDbScale
 70
     0
300
10:1
140
10.0
141
1.0
290
     0
  0
SCALE
  5
58
102
{ACAD_REACTORS
330
47
102
}
330
47
100
AcDbScale
 70
     0
300
100:1
140
100.0
141
1.0
290
     0
  0
SCALE
  5
59
102
{ACAD_REACTORS
330
47
102
}
330
47
100
AcDbScale
 70
     0
300
1/128" = 1'-0"
140
0.0078125
141
12.0
290
     0
  0
SCALE
  5
5A
102
{ACAD_REACTORS
330
47
102
}
330
47
100
AcDbScale
 70
     0
300
1/64" = 1'-0"
140
0.015625
141
12.0
290
     0
  0
SCALE
  5
5B
102
{ACAD_REACTORS
330
47
102
}
330
47
100
AcDbScale
 70
     0
300
1/32" = 1'-0"
140
0.03125
141
12.0
290
     0
  0
SCALE
  5
5C
102
{ACAD_REACTORS
330
47
102
}
330
47
100
AcDbScale
 70
     0
300
1/16" = 1'-0"
140
0.0625
141
12.0
290
     0
  0
SCALE
  5
5D
102
{ACAD_REACTORS
330
47
102
}
330
47
100
AcDbScale
 70
     0
300
3/32" = 1'-0"
140
0.09375
141
12.0
290
     0
  0
SCALE
  5
5E
102
{ACAD_REACTORS
330
47
102
}
330
47
100
AcDbScale
 70
     0
300
1/8" = 1'-0"
140
0.125
141
12.0
290
     0
  0
SCALE
  5
5F
102
{ACAD_REACTORS
330
47
102
}
330
47
100
AcDbScale
 70
     0
300
3/16" = 1'-0"
140
0.1875
141
12.0
290
     0
  0
SCALE
  5
60
102
{ACAD_REACTORS
330
47
102
}
330
47
100
AcDbScale
 70
     0
300
1/4" = 1'-0"
140
0.25
141
12.0
290
     0
  0
SCALE
  5
61
102
{ACAD_REACTORS
330
47
102
}
330
47
100
AcDbScale
 70
     0
300
3/8" = 1'-0"
140
0.375
141
12.0
290
     0
  0
SCALE
  5
62
102
{ACAD_REACTORS
330
47
102
}
330
47
100
AcDbScale
 70
     0
300
1/2" = 1'-0"
140
0.5
141
12.0
290
     0
  0
SCALE
  5
63
102
{ACAD_REACTORS
330
47
102
}
330
47
100
AcDbScale
 70
     0
300
3/4" = 1'-0"
140
0.75
141
12.0
290
     0
  0
SCALE
  5
64
102
{ACAD_REACTORS
330
47
102
}
330
47
100
AcDbScale
 70
     0
300
1" = 1'-0"
140
1.0
141
12.0
290
     0
  0
SCALE
  5
65
102
{ACAD_REACTORS
330
47
102
}
330
47
100
AcDbScale
 70
     0
300
1-1/2" = 1'-0"
140
1.5
141
12.0
290
     0
  0
SCALE
  5
66
102
{ACAD_REACTORS
330
47
102
}
330
47
100
AcDbScale
 70
     0
300
3" = 1'-0"
140
3.0
141
12.0
290
     0
  0
SCALE
  5
67
102
{ACAD_REACTORS
330
47
102
}
330
47
100
AcDbScale
 70
     0
300
6" = 1'-0"
140
6.0
141
12.0
290
     0
  0
SCALE
  5
68
102
{ACAD_REACTORS
330
47
102
}
330
47
100
AcDbScale
 70
     0
300
1'-0" = 1'-0"
140
12.0
141
12.0
290
     0
  0
ENDSEC
  0
EOF
