  0
SECTION
  2
HEADER
  9
$ACADVER
  1
AC1015
  9
$ACADMAINTVER
 70
     6
  9
$DWGCODEPAGE
  3
ANSI_1252
  9
$INSBASE
 10
0.0
 20
0.0
 30
0.0
  9
$EXTMIN
 10
0.0
 20
0.0
 30
0.0
  9
$EXTMAX
 10
323.0
 20
265.0
 30
0.0
  9
$LIMMIN
 10
0.0
 20
0.0
  9
$LIMMAX
 10
323.0
 20
265.0
  9
$ORTHOMODE
 70
     0
  9
$REGENMODE
 70
     1
  9
$FILLMODE
 70
     1
  9
$QTEXTMODE
 70
     0
  9
$MIRRTEXT
 70
     1
  9
$LTSCALE
 40
1.0
  9
$ATTMODE
 70
     1
  9
$TEXTSIZE
 40
3.5
  9
$TRACEWID
 40
1.0
  9
$TEXTSTYLE
  7
Standard
  9
$CLAYER
  8
0
  9
$CELTYPE
  6
ByLayer
  9
$CECOLOR
 62
   256
  9
$CELTSCALE
 40
1.0
  9
$DISPSILH
 70
     0
  9
$DIMSCALE
 40
1.0
  9
$DIMASZ
 40
3.302
  9
$DIMEXO
 40
1.0
  9
$DIMDLI
 40
3.75
  9
$DIMRND
 40
0.0
  9
$DIMDLE
 40
0.0
  9
$DIMEXE
 40
1.0
  9
$DIMTP
 40
0.0
  9
$DIMTM
 40
0.0
  9
$DIMTXT
 40
2.8
  9
$DIMCEN
 40
2.5
  9
$DIMTSZ
 40
0.0
  9
$DIMTOL
 70
     0
  9
$DIMLIM
 70
     0
  9
$DIMTIH
 70
     1
  9
$DIMTOH
 70
     1
  9
$DIMSE1
 70
     0
  9
$DIMSE2
 70
     0
  9
$DIMTAD
 70
     1
  9
$DIMZIN
 70
     0
  9
$DIMBLK
  1

  9
$DIMASO
 70
     1
  9
$DIMSHO
 70
     1
  9
$DIMPOST
  1

  9
$DIMAPOST
  1

  9
$DIMALT
 70
     0
  9
$DIMALTD
 70
     3
  9
$DIMALTF
 40
0.0393700787
  9
$DIMLFAC
 40
1.0
  9
$DIMTOFL
 70
     1
  9
$DIMTVP
 40
0.0
  9
$DIMTIX
 70
     0
  9
$DIMSOXD
 70
     0
  9
$DIMSAH
 70
     0
  9
$DIMBLK1
  1

  9
$DIMBLK2
  1

  9
$DIMSTYLE
  2
ISO-25
  9
$DIMCLRD
 70
     0
  9
$DIMCLRE
 70
     0
  9
$DIMCLRT
 70
     0
  9
$DIMTFAC
 40
1.0
  9
$DIMGAP
 40
1.524
  9
$DIMJUST
 70
     0
  9
$DIMSD1
 70
     0
  9
$DIMSD2
 70
     0
  9
$DIMTOLJ
 70
     0
  9
$DIMTZIN
 70
     0
  9
$DIMALTZ
 70
     0
  9
$DIMALTTZ
 70
     0
  9
$DIMUPT
 70
     0
  9
$DIMDEC
 70
     2
  9
$DIMTDEC
 70
     2
  9
$DIMALTU
 70
     2
  9
$DIMALTTD
 70
     3
  9
$DIMTXSTY
  7
Standard
  9
$DIMAUNIT
 70
     0
  9
$DIMADEC
 70
     2
  9
$DIMALTRND
 40
0.0
  9
$DIMAZIN
 70
     0
  9
$DIMDSEP
 70
    44
  9
$DIMATFIT
 70
     3
  9
$DIMFRAC
 70
     0
  9
$DIMLDRBLK
  1

  9
$DIMLUNIT
 70
     2
  9
$DIMLWD
 70
    -2
  9
$DIMLWE
 70
    -2
  9
$DIMTMOVE
 70
     0
  9
$LUNITS
 70
     2
  9
$LUPREC
 70
     2
  9
$SKETCHINC
 40
1.0
  9
$FILLETRAD
 40
10.0
  9
$AUNITS
 70
     0
  9
$AUPREC
 70
     2
  9
$MENU
  1
.
  9
$ELEVATION
 40
0.0
  9
$PELEVATION
 40
0.0
  9
$THICKNESS
 40
0.0
  9
$LIMCHECK
 70
     0
  9
$CHAMFERA
 40
0.0
  9
$CHAMFERB
 40
0.0
  9
$CHAMFERC
 40
0.0
  9
$CHAMFERD
 40
0.0
  9
$SKPOLY
 70
     0
  9
$TDCREATE
 40
2458498.380880602
  9
$TDUCREATE
 40
2458498.297547269
  9
$TDUPDATE
 40
2458498.380881215
  9
$TDUUPDATE
 40
2458498.297547882
  9
$TDINDWG
 40
0.0000000116
  9
$TDUSRTIMER
 40
0.0000000116
  9
$USRTIMER
 70
     1
  9
$ANGBASE
 50
0.0
  9
$ANGDIR
 70
     0
  9
$PDMODE
 70
     0
  9
$PDSIZE
 40
-1.0
  9
$PLINEWID
 40
0.0
  9
$SPLFRAME
 70
     0
  9
$SPLINETYPE
 70
     6
  9
$SPLINESEGS
 70
     8
  9
$HANDSEED
  5
F4
  9
$SURFTAB1
 70
     6
  9
$SURFTAB2
 70
     6
  9
$SURFTYPE
 70
     6
  9
$SURFU
 70
     6
  9
$SURFV
 70
     6
  9
$UCSBASE
  2

  9
$UCSNAME
  2

  9
$UCSORG
 10
0.0
 20
0.0
 30
0.0
  9
$UCSXDIR
 10
1.0
 20
0.0
 30
0.0
  9
$UCSYDIR
 10
0.0
 20
1.0
 30
0.0
  9
$UCSORTHOREF
  2

  9
$UCSORTHOVIEW
 70
     0
  9
$UCSORGTOP
 10
0.0
 20
0.0
 30
0.0
  9
$UCSORGBOTTOM
 10
0.0
 20
0.0
 30
0.0
  9
$UCSORGLEFT
 10
0.0
 20
0.0
 30
0.0
  9
$UCSORGRIGHT
 10
0.0
 20
0.0
 30
0.0
  9
$UCSORGFRONT
 10
0.0
 20
0.0
 30
0.0
  9
$UCSORGBACK
 10
0.0
 20
0.0
 30
0.0
  9
$PUCSBASE
  2

  9
$PUCSNAME
  2

  9
$PUCSORG
 10
0.0
 20
0.0
 30
0.0
  9
$PUCSXDIR
 10
1.0
 20
0.0
 30
0.0
  9
$PUCSYDIR
 10
0.0
 20
1.0
 30
0.0
  9
$PUCSORTHOREF
  2

  9
$PUCSORTHOVIEW
 70
     0
  9
$PUCSORGTOP
 10
0.0
 20
0.0
 30
0.0
  9
$PUCSORGBOTTOM
 10
0.0
 20
0.0
 30
0.0
  9
$PUCSORGLEFT
 10
0.0
 20
0.0
 30
0.0
  9
$PUCSORGRIGHT
 10
0.0
 20
0.0
 30
0.0
  9
$PUCSORGFRONT
 10
0.0
 20
0.0
 30
0.0
  9
$PUCSORGBACK
 10
0.0
 20
0.0
 30
0.0
  9
$USERI1
 70
     0
  9
$USERI2
 70
     0
  9
$USERI3
 70
     0
  9
$USERI4
 70
     0
  9
$USERI5
 70
     0
  9
$USERR1
 40
0.0
  9
$USERR2
 40
0.0
  9
$USERR3
 40
0.0
  9
$USERR4
 40
0.0
  9
$USERR5
 40
0.0
  9
$WORLDVIEW
 70
     1
  9
$SHADEDGE
 70
     3
  9
$SHADEDIF
 70
    70
  9
$TILEMODE
 70
     1
  9
$MAXACTVP
 70
    64
  9
$PINSBASE
 10
0.0
 20
0.0
 30
0.0
  9
$PLIMCHECK
 70
     0
  9
$PEXTMIN
 10
1.0000000000E+20
 20
1.0000000000E+20
 30
1.0000000000E+20
  9
$PEXTMAX
 10
-1.0000000000E+20
 20
-1.0000000000E+20
 30
-1.0000000000E+20
  9
$PLIMMIN
 10
0.0
 20
0.0
  9
$PLIMMAX
 10
420.0
 20
297.0
  9
$UNITMODE
 70
     0
  9
$VISRETAIN
 70
     1
  9
$PLINEGEN
 70
     0
  9
$PSLTSCALE
 70
     1
  9
$TREEDEPTH
 70
  3020
  9
$CMLSTYLE
  2
Standard
  9
$CMLJUST
 70
     0
  9
$CMLSCALE
 40
20.0
  9
$PROXYGRAPHICS
 70
     1
  9
$MEASUREMENT
 70
     1
  9
$CELWEIGHT
370
    -1
  9
$ENDCAPS
280
     0
  9
$JOINSTYLE
280
     0
  9
$LWDISPLAY
290
     1
  9
$INSUNITS
 70
     4
  9
$HYPERLINKBASE
  1

  9
$STYLESHEET
  1

  9
$XEDIT
290
     1
  9
$CEPSNTYPE
380
     0
  9
$PSTYLEMODE
290
     1
  9
$FINGERPRINTGUID
  2
{9082BA84-0D44-4271-8D71-AA27D5D3284F}
  9
$VERSIONGUID
  2
{FAEB1C32-E019-11D5-929B-00C0DF256EC4}
  9
$EXTNAMES
290
     1
  9
$PSVPSCALE
 40
0.0
  9
$OLESTARTUP
290
     0
  0
ENDSEC
  0
SECTION
  2
CLASSES
  0
CLASS
  1
ACDBDICTIONARYWDFLT
  2
AcDbDictionaryWithDefault
  3
ObjectDBX Classes
 90
        0
280
     0
281
     0
  0
CLASS
  1
VISUALSTYLE
  2
AcDbVisualStyle
  3
ObjectDBX Classes
 90
     4095
280
     0
281
     0
  0
CLASS
  1
MATERIAL
  2
AcDbMaterial
  3
ObjectDBX Classes
 90
     1153
280
     0
281
     0
  0
CLASS
  1
SCALE
  2
AcDbScale
  3
ObjectDBX Classes
 90
     1153
280
     0
281
     0
  0
CLASS
  1
TABLESTYLE
  2
AcDbTableStyle
  3
ObjectDBX Classes
 90
     4095
280
     0
281
     0
  0
CLASS
  1
MLEADERSTYLE
  2
AcDbMLeaderStyle
  3
ACDB_MLEADERSTYLE_CLASS
 90
     4095
280
     0
281
     0
  0
CLASS
  1
SUN
  2
AcDbSun
  3
SCENEOE
 90
     1153
280
     0
281
     0
  0
CLASS
  1
ACDBPLACEHOLDER
  2
AcDbPlaceHolder
  3
ObjectDBX Classes
 90
        0
280
     0
281
     0
  0
CLASS
  1
LAYOUT
  2
AcDbLayout
  3
ObjectDBX Classes
 90
        0
280
     0
281
     0
  0
ENDSEC
  0
SECTION
  2
TABLES
  0
TABLE
  2
VPORT
  5
8
330
0
100
AcDbSymbolTable
 70
     1
  0
VPORT
  5
29
330
8
100
AcDbSymbolTableRecord
100
AcDbViewportTableRecord
  2
*Active
 70
     0
 10
0.0
 20
0.0
 11
1.0
 21
1.0
 12
161.5
 22
132.5
 13
0.0
 23
0.0
 14
10.0
 24
10.0
 15
10.0
 25
10.0
 16
0.0
 26
0.0
 36
1.0
 17
0.0
 27
0.0
 37
0.0
 40
265.0
 41
1.2188679245
 42
50.0
 43
0.0
 44
0.0
 50
0.0
 51
0.0
 71
     0
 72
  2000
 73
     1
 74
     3
 75
     0
 76
     0
 77
     0
 78
     0
281
     0
 65
     1
110
0.0
120
0.0
130
0.0
111
1.0
121
0.0
131
0.0
112
0.0
122
1.0
132
0.0
 79
     0
146
0.0
  0
ENDTAB
  0
TABLE
  2
LTYPE
  5
5
330
0
100
AcDbSymbolTable
 70
     6
  0
LTYPE
  5
14
330
5
100
AcDbSymbolTableRecord
100
AcDbLinetypeTableRecord
  2
ByBlock
 70
     0
  3

 72
    65
 73
     0
 40
0.0
  0
LTYPE
  5
15
330
5
100
AcDbSymbolTableRecord
100
AcDbLinetypeTableRecord
  2
ByLayer
 70
     0
  3

 72
    65
 73
     0
 40
0.0
  0
LTYPE
  5
16
330
5
100
AcDbSymbolTableRecord
100
AcDbLinetypeTableRecord
  2
Continuous
 70
     0
  3
Solid line
 72
    65
 73
     0
 40
0.0
  0
LTYPE
  5
6E
330
5
100
AcDbSymbolTableRecord
100
AcDbLinetypeTableRecord
  2
HIDDEN
 70
     0
  3
Hidden __ __ __ __ __ __ __ __ __ __ __ __ __ __
 72
    65
 73
     2
 40
1.905
 49
1.27
 74
     0
 49
-0.635
 74
     0
  0
LTYPE
  5
6F
330
5
100
AcDbSymbolTableRecord
100
AcDbLinetypeTableRecord
  2
PHANTOM
 70
     0
  3
Phantom ______  __  __  ______  __  __  ______
 72
    65
 73
     6
 40
12.7
 49
6.35
 74
     0
 49
-1.27
 74
     0
 49
1.27
 74
     0
 49
-1.27
 74
     0
 49
1.27
 74
     0
 49
-1.27
 74
     0
  0
LTYPE
  5
70
330
5
100
AcDbSymbolTableRecord
100
AcDbLinetypeTableRecord
  2
CENTER
 70
     0
  3
Center ____ _ ____ _ ____ _ ____ _ ____ _ ____
 72
    65
 73
     4
 40
10.16
 49
6.35
 74
     0
 49
-1.27
 74
     0
 49
1.27
 74
     0
 49
-1.27
 74
     0
  0
LTYPE
  5
71
330
5
100
AcDbSymbolTableRecord
100
AcDbLinetypeTableRecord
  2
CENTERX2
 70
     0
  3
Center (2x) ________  __  ________  __  _____
 72
    65
 73
     4
 40
20.32
 49
12.7
 74
     0
 49
-2.54
 74
     0
 49
2.54
 74
     0
 49
-2.54
 74
     0
  0
LTYPE
  5
72
330
5
100
AcDbSymbolTableRecord
100
AcDbLinetypeTableRecord
  2
DOT2
 70
     0
  3
Dot (.5x) ........................................
 72
    65
 73
     2
 40
0.635
 49
0.0
 74
     0
 49
-0.635
 74
     0
  0
ENDTAB
  0
TABLE
  2
LAYER
  5
2
330
0
100
AcDbSymbolTable
 70
     2
  0
LAYER
  5
10
330
2
100
AcDbSymbolTableRecord
100
AcDbLayerTableRecord
  2
0
 70
     0
 62
     7
  6
Continuous
370
    -3
390
F
  0
LAYER
  5
73
330
2
100
AcDbSymbolTableRecord
100
AcDbLayerTableRecord
  2
FORMAT
 70
     0
 62
     7
  6
Continuous
370
    -3
390
F
  0
ENDTAB
  0
TABLE
  2
STYLE
  5
3
330
0
100
AcDbSymbolTable
 70
     2
  0
STYLE
  5
11
330
3
100
AcDbSymbolTableRecord
100
AcDbTextStyleTableRecord
  2
Standard
 70
     0
 40
0.0
 41
1.0
 50
0.0
 71
     0
 42
3.5
  3
txt
  4

  0
STYLE
  5
74
330
3
100
AcDbSymbolTableRecord
100
AcDbTextStyleTableRecord
  2
SLDTEXTSTYLE0
 70
     0
 40
0.0
 41
0.605
 50
0.0
 71
     0
 42
3.5
  3
TXT
  4

  0
ENDTAB
  0
TABLE
  2
VIEW
  5
6
330
0
100
AcDbSymbolTable
 70
     0
  0
ENDTAB
  0
TABLE
  2
UCS
  5
7
330
0
100
AcDbSymbolTable
 70
     0
  0
ENDTAB
  0
TABLE
  2
APPID
  5
9
330
0
100
AcDbSymbolTable
 70
     1
  0
APPID
  5
12
330
9
100
AcDbSymbolTableRecord
100
AcDbRegAppTableRecord
  2
ACAD
 70
     0
  0
ENDTAB
  0
TABLE
  2
DIMSTYLE
  5
A
330
0
100
AcDbSymbolTable
 70
     1
100
AcDbDimStyleTable
  0
DIMSTYLE
105
27
330
A
100
AcDbSymbolTableRecord
100
AcDbDimStyleTableRecord
  2
ISO-25
 70
     0
 41
2.5
 42
0.625
 43
3.75
 44
1.25
 73
     0
 74
     0
 77
     1
 78
     8
140
2.5
141
2.5
143
0.0393700787
147
0.625
171
     3
172
     1
178
     0
271
     2
272
     2
274
     3
278
    44
283
     0
284
     8
340
11
  0
ENDTAB
  0
TABLE
  2
BLOCK_RECORD
  5
1
330
0
100
AcDbSymbolTable
 70
     1
  0
BLOCK_RECORD
  5
1F
330
1
100
AcDbSymbolTableRecord
100
AcDbBlockTableRecord
  2
*Model_Space
340
22
  0
BLOCK_RECORD
  5
1B
330
1
100
AcDbSymbolTableRecord
100
AcDbBlockTableRecord
  2
*Paper_Space
340
1E
  0
BLOCK_RECORD
  5
23
330
1
100
AcDbSymbolTableRecord
100
AcDbBlockTableRecord
  2
*Paper_Space0
340
26
  0
ENDTAB
  0
ENDSEC
  0
SECTION
  2
BLOCKS
  0
BLOCK
  5
20
330
1F
100
AcDbEntity
  8
0
100
AcDbBlockBegin
  2
*Model_Space
 70
     0
 10
0.0
 20
0.0
 30
0.0
  3
*Model_Space
  1

  0
ENDBLK
  5
21
330
1F
100
AcDbEntity
  8
0
100
AcDbBlockEnd
  0
BLOCK
  5
1C
330
1B
100
AcDbEntity
 67
     1
  8
0
100
AcDbBlockBegin
  2
*Paper_Space
 70
     0
 10
0.0
 20
0.0
 30
0.0
  3
*Paper_Space
  1

  0
ENDBLK
  5
1D
330
1B
100
AcDbEntity
 67
     1
  8
0
100
AcDbBlockEnd
  0
BLOCK
  5
24
330
23
100
AcDbEntity
  8
0
100
AcDbBlockBegin
  2
*Paper_Space0
 70
     0
 10
0.0
 20
0.0
 30
0.0
  3
*Paper_Space0
  1

  0
ENDBLK
  5
25
330
23
100
AcDbEntity
  8
0
100
AcDbBlockEnd
  0
ENDSEC
  0
SECTION
  2
ENTITIES
  0
MTEXT
  5
75
330
1F
100
AcDbEntity
  8
0
  6
Continuous
 62
     7
370
     0
100
AcDbMText
 10
7.2782978723
 20
22.1884790273
 30
0.0
 40
10.0
 41
0.0
 71
     1
 72
     1
  1
1:1
  7
SLDTEXTSTYLE0
 73
     1
 44
1.0
  0
SPLINE
  5
76
330
1F
100
AcDbEntity
  8
0
  6
Continuous
 62
     7
370
    30
100
AcDbSpline
210
0.0
220
0.0
230
1.0
 70
     8
 71
     3
 72
    25
 73
    21
 74
     0
 42
0.000000001
 43
0.00000001
 40
0.0
 40
0.0
 40
0.0
 40
0.0
 40
0.0437724118545054
 40
0.0871641502092992
 40
0.130175288905266
 40
0.1728059038978734
 40
0.2150560733317243
 40
0.2569258776184727
 40
0.2984153995182766
 40
0.3395247242249429
 40
0.3802539394550305
 40
0.4206031355410687
 40
0.4605724055291798
 40
0.500161845281287
 40
0.579673345104912
 40
0.6607019678080723
 40
0.743248360748734
 40
0.8273131278293072
 40
0.9128968324148938
 40
1.0
 40
1.0
 40
1.0
 40
1.0
 10
197.0003046135898
 20
163.0000000207315
 30
0.0
 10
197.0461251474582
 20
163.0009087711508
 30
0.0
 10
197.1373677298877
 20
163.0027183689019
 30
0.0
 10
197.2729928327696
 20
163.0172369563909
 30
0.0
 10
197.4061774853793
 20
163.0400443006479
 30
0.0
 10
197.5363556981546
 20
163.0716427254617
 30
0.0
 10
197.6630010551011
 20
163.1114345376731
 30
0.0
 10
197.7856277132849
 20
163.1590771951463
 30
0.0
 10
197.9037911911333
 20
163.214129954536
 30
0.0
 10
198.0170886344837
 20
163.2761519494633
 30
0.0
 10
198.1251594348857
 20
163.3446815300358
 30
0.0
 10
198.2276831706801
 20
163.4192441259503
 30
0.0
 10
198.3243860925934
 20
163.4993623575575
 30
0.0
 10
198.4457681464802
 20
163.6134282581462
 30
0.0
 10
198.5847376008204
 20
163.7709376806785
 30
0.0
 10
198.7280428789092
 20
163.9819365245769
 30
0.0
 10
198.8454844697049
 20
164.2138685729487
 30
0.0
 10
198.9325566943404
 20
164.4636599086523
 30
0.0
 10
198.9892495208256
 20
164.727590180478
 30
0.0
 10
198.9963955499115
 20
164.9084631701228
 30
0.0
 10
199.0000000032275
 20
164.9996954110605
 30
0.0
  0
SPLINE
  5
77
330
1F
100
AcDbEntity
  8
0
  6
Continuous
 62
     7
370
    30
100
AcDbSpline
210
0.0
220
0.0
230
1.0
 70
     8
 71
     3
 72
    25
 73
    21
 74
     0
 42
0.000000001
 43
0.00000001
 40
0.0
 40
0.0
 40
0.0
 40
0.0
 40
0.0437724109811291
 40
0.087164148457889
 40
0.1301752862711632
 40
0.1728059003764066
 40
0.2150560689182145
 40
0.2569258723082393
 40
0.2984153933066274
 40
0.3395247171071836
 40
0.3802539314264529
 40
0.4206031265969684
 40
0.4605723956648289
 40
0.5001618344919623
 40
0.579673335195418
 40
0.6607019591457552
 40
0.7432483537009611
 40
0.8273131227634424
 40
0.9128968296982978
 40
1.0
 40
1.0
 40
1.0
 40
1.0
 10
199.0000000032477
 20
236.0003046004235
 30
0.0
 10
198.99909125288
 20
236.0461251333845
 30
0.0
 10
198.9972816552317
 20
236.1373677139944
 30
0.0
 10
198.9827630683686
 20
236.2729928141818
 30
0.0
 10
198.9599557250745
 20
236.4061774641603
 30
0.0
 10
198.9283573015842
 20
236.5363556744038
 30
0.0
 10
198.8885654910344
 20
236.6630010289513
 30
0.0
 10
198.8409228355472
 20
236.785627684901
 30
0.0
 10
198.7858700784488
 20
236.9037911607097
 30
0.0
 10
198.7238480860973
 20
237.0170886022424
 30
0.0
 10
198.6553185083624
 20
237.1251594010734
 30
0.0
 10
198.5807559155229
 20
237.2276831355664
 30
0.0
 10
198.5006376872021
 20
237.3243860564676
 30
0.0
 10
198.3865717892892
 20
237.4457681115088
 30
0.0
 10
198.229062368065
 20
237.5847375693092
 30
0.0
 10
198.0180635229879
 20
237.7280428527536
 30
0.0
 10
197.7861314714854
 20
237.8454844487808
 30
0.0
 10
197.5363401306662
 20
237.9325566778905
 30
0.0
 10
197.2724098518521
 20
237.989249507655
 30
0.0
 10
197.0915368568654
 20
237.9963955371881
 30
0.0
 10
197.0003046130643
 20
237.9999999907363
 30
0.0
  0
SPLINE
  5
78
330
1F
100
AcDbEntity
  8
0
  6
Continuous
 62
     7
370
    30
100
AcDbSpline
210
0.0
220
0.0
230
1.0
 70
     8
 71
     3
 72
    25
 73
    21
 74
     0
 42
0.000000001
 43
0.00000001
 40
0.0
 40
0.0
 40
0.0
 40
0.0
 40
0.0437724158160992
 40
0.087164158158282
 40
0.130175300867463
 40
0.1728059198991335
 40
0.2150560933979352
 40
0.2569259017755507
 40
0.2984154277921706
 40
0.3395247566416364
 40
0.3802539760405387
 40
0.4206031763214429
 40
0.4605724505304986
 40
0.5001618945296664
 40
0.5796733901384432
 40
0.6607020070295132
 40
0.7432483925607652
 40
0.8273131506345921
 40
0.9128968446161367
 40
1.0
 40
1.0
 40
1.0
 40
1.0
 10
124.0000000033113
 20
164.999695387086
 30
0.0
 10
124.0009087538808
 20
164.9538748490461
 30
0.0
 10
124.0027183519321
 20
164.8626322582469
 30
0.0
 10
124.017236942043
 20
164.7270071429425
 30
0.0
 10
124.0400442904791
 20
164.5938224781744
 30
0.0
 10
124.0716427211413
 20
164.463644253669
 30
0.0
 10
124.1114345407704
 20
164.3369988855778
 30
0.0
 10
124.1590772071707
 20
164.2143722169829
 30
0.0
 10
124.2141299769109
 20
164.096208729596
 30
0.0
 10
124.2761519835202
 20
163.9829112777081
 30
0.0
 10
124.344681577003
 20
163.8748404698876
 30
0.0
 10
124.419244186946
 20
163.7723167279
 30
0.0
 10
124.4993624335826
 20
163.6756138011138
 30
0.0
 10
124.6134283462877
 20
163.5542317523549
 30
0.0
 10
124.770937774602
 20
163.4152623136866
 30
0.0
 10
124.9819366128957
 20
163.2719570598463
 30
0.0
 10
125.2138686470113
 20
163.1545154925909
 30
0.0
 10
125.463659959697
 20
163.0674432879965
 30
0.0
 10
125.7275902002714
 20
163.0107504761503
 30
0.0
 10
125.9084631660807
 20
163.0036044490559
 30
0.0
 10
125.9996953942643
 20
162.9999999967732
 30
0.0
  0
SPLINE
  5
79
330
1F
100
AcDbEntity
  8
0
  6
Continuous
 62
     7
370
    30
100
AcDbSpline
210
0.0
220
0.0
230
1.0
 70
     8
 71
     3
 72
    25
 73
    21
 74
     0
 42
0.000000001
 43
0.00000001
 40
0.0
 40
0.0
 40
0.0
 40
0.0
 40
0.0437651042559967
 40
0.087150029024314
 40
0.1301548481300988
 40
0.1727796375098241
 40
0.2150244752856472
 40
0.2568894418431165
 40
0.2983746199123784
 40
0.3394800946531025
 40
0.3802059537433131
 40
0.420552287472337
 40
0.4605191888381279
 40
0.5001067536491703
 40
0.5796225015124068
 40
0.6606573457133968
 40
0.7432119337445355
 40
0.8272868695614706
 40
0.9128827165099413
 40
1.0
 40
1.0
 40
1.0
 40
1.0
 10
125.9996953937001
 20
237.9999999960966
 30
0.0
 10
125.9538825165545
 20
237.9990915487723
 30
0.0
 10
125.8626547303809
 20
237.9972825456402
 30
0.0
 10
125.7270507337561
 20
237.98276861196
 30
0.0
 10
125.5938850686994
 20
237.9599682199645
 30
0.0
 10
125.4637235255162
 20
237.9283789050842
 30
0.0
 10
125.3370923757755
 20
237.8885978818053
 30
0.0
 10
125.2144773710143
 20
237.8409672974463
 30
0.0
 10
125.0963229522498
 20
237.7859274854635
 30
0.0
 10
124.9830319812549
 20
237.7239189184442
 30
0.0
 10
124.8749651191851
 20
237.6554028666735
 30
0.0
 10
124.772442882221
 20
237.5808535405856
 30
0.0
 10
124.6757391518656
 20
237.5007479831004
 30
0.0
 10
124.5543473979157
 20
237.3866924382469
 30
0.0
 10
124.4153588186529
 20
237.2291877958864
 30
0.0
 10
124.2720266562851
 20
237.01818344669
 30
0.0
 10
124.1545585492879
 20
236.786235740584
 30
0.0
 10
124.0674635037036
 20
236.5364183551194
 30
0.0
 10
124.0107538911699
 20
236.2724521706151
 30
0.0
 10
124.003605622338
 20
236.0915516472446
 30
0.0
 10
124.0000000032359
 20
236.0003046057605
 30
0.0
  0
LINE
  5
7A
330
1F
100
AcDbEntity
  8
0
  6
Continuous
 62
     7
370
    30
100
AcDbLine
 10
181.3229587213
 20
163.088493686
 30
0.0
 11
181.5000000033
 21
163.0000000155
 31
0.0
  0
SPLINE
  5
7B
330
1F
100
AcDbEntity
  8
0
  6
Continuous
 62
     7
370
    30
100
AcDbSpline
210
0.0
220
0.0
230
1.0
 70
     8
 71
     3
 72
    20
 73
    16
 74
     0
 42
0.000000001
 43
0.00000001
 40
0.0
 40
0.0
 40
0.0
 40
0.0
 40
0.041976895119001
 40
0.0836134135562976
 40
0.1250809408435847
 40
0.1665529576628705
 40
0.2082028885966785
 40
0.2502019543305421
 40
0.3750095768969903
 40
0.5000339698232542
 40
0.6248892084223966
 40
0.7498870071301934
 40
0.8334226654102589
 40
0.9163307392192436
 40
1.0
 40
1.0
 40
1.0
 40
1.0
 10
179.3241770671643
 20
163.122185469275
 30
0.0
 10
179.3671308386455
 20
163.1221720180554
 30
0.0
 10
179.4526900837607
 20
163.1221452246876
 30
0.0
 10
179.5801714463098
 20
163.1219255685205
 30
0.0
 10
179.7060941232866
 20
163.1215739990837
 30
0.0
 10
179.8304490223015
 20
163.1210780367535
 30
0.0
 10
179.9532406210527
 20
163.1204407775414
 30
0.0
 10
180.153464621981
 20
163.1191548516567
 30
0.0
 10
180.4205138613094
 20
163.1167439129142
 30
0.0
 10
180.7216539468774
 20
163.1125396358481
 30
0.0
 10
180.9730292427782
 20
163.1074311405176
 30
0.0
 10
181.1414894712534
 20
163.1022080135111
 30
0.0
 10
181.2453716689656
 20
163.0973201844651
 30
0.0
 10
181.3048565004237
 20
163.0929568629408
 30
0.0
 10
181.316906293522
 20
163.0899859369695
 30
0.0
 10
181.3229587212643
 20
163.0884936860551
 30
0.0
  0
LINE
  5
7C
330
1F
100
AcDbEntity
  8
0
  6
Continuous
 62
     7
370
    30
100
AcDbLine
 10
143.6758229394
 20
163.1221854572
 30
0.0
 11
179.3241770672
 21
163.1221854693
 31
0.0
  0
SPLINE
  5
7D
330
1F
100
AcDbEntity
  8
0
  6
Continuous
 62
     7
370
    30
100
AcDbSpline
210
0.0
220
0.0
230
1.0
 70
     8
 71
     3
 72
    24
 73
    20
 74
     0
 42
0.000000001
 43
0.00000001
 40
0.0
 40
0.0
 40
0.0
 40
0.0
 40
0.0476486643669146
 40
0.0958207117325874
 40
0.1445162161283904
 40
0.1937352488907945
 40
0.2434778787709431
 40
0.2937441720385772
 40
0.3445341925806171
 40
0.3958480019947591
 40
0.4476856596783618
 40
0.5000472229129204
 40
0.5537074145323793
 40
0.6132903307894922
 40
0.6787947986915865
 40
0.7502195077273995
 40
0.8275630144871241
 40
0.9108237456513527
 40
1.0
 40
1.0
 40
1.0
 40
1.0
 10
143.6758229393643
 20
163.1221854572605
 30
0.0
 10
143.6270390094511
 20
163.1221663784279
 30
0.0
 10
143.5289352966293
 20
163.1221280111969
 30
0.0
 10
143.3817714955157
 20
163.1218216263991
 30
0.0
 10
143.2346403608698
 20
163.121333789405
 30
0.0
 10
143.088430549219
 20
163.1206460646918
 30
0.0
 10
142.944070763084
 20
163.1197634610932
 30
0.0
 10
142.802524498113
 20
163.1186846537997
 30
0.0
 10
142.6647842187936
 20
163.1174098521238
 30
0.0
 10
142.531864642
 20
163.1159395689547
 30
0.0
 10
142.4047957273391
 20
163.1142715016501
 30
0.0
 10
142.2840206303834
 20
163.1124053112225
 30
0.0
 10
142.1669165732079
 20
163.1102332437602
 30
0.0
 10
142.0524694185187
 20
163.1076808908672
 30
0.0
 10
141.9423152035123
 20
163.1046963948812
 30
0.0
 10
141.8420031703351
 20
163.101276948175
 30
0.0
 10
141.7587851407825
 20
163.0974211026589
 30
0.0
 10
141.6969459905505
 20
163.0931371566758
 30
0.0
 10
141.6838262135537
 20
163.0900764997064
 30
0.0
 10
141.6770412853262
 20
163.0884936726605
 30
0.0
  0
LINE
  5
7E
330
1F
100
AcDbEntity
  8
0
  6
Continuous
 62
     7
370
    30
100
AcDbLine
 10
141.6770412853
 20
163.0884936727
 30
0.0
 11
141.5000000033
 21
163.0000000021
 31
0.0
  0
LINE
  5
7F
330
1F
100
AcDbEntity
  8
0
  6
Continuous
 62
     7
370
    30
100
AcDbLine
 10
141.5000000033
 20
163.000000002
 30
0.0
 11
125.9996953943
 21
162.9999999968
 31
0.0
  0
LINE
  5
80
330
1F
100
AcDbEntity
  8
0
  6
Continuous
 62
     7
370
    30
100
AcDbLine
 10
197.0003046143
 20
163.0000000207
 30
0.0
 11
181.5000000033
 21
163.0000000155
 31
0.0
  0
LINE
  5
81
330
1F
100
AcDbEntity
  8
0
  6
Continuous
 62
     7
370
    30
100
AcDbLine
 10
125.9996953938
 20
237.9999999961
 30
0.0
 11
197.0003046132
 21
237.9999999908
 31
0.0
  0
LINE
  5
82
330
1F
100
AcDbEntity
  8
0
  6
Continuous
 62
     7
370
    30
100
AcDbLine
 10
199.0000000033
 20
236.0003046005
 30
0.0
 11
199.0000000033
 21
164.9996954111
 31
0.0
  0
LINE
  5
83
330
1F
100
AcDbEntity
  8
0
  6
Continuous
 62
     7
370
    30
100
AcDbLine
 10
124.0000000033
 20
164.9996953871
 30
0.0
 11
124.0000000033
 21
236.0003046058
 31
0.0
  0
LINE
  5
84
330
1F
100
AcDbEntity
  8
0
  6
Continuous
 62
     7
370
    30
100
AcDbLine
 10
294.5825994923
 20
237.8124828031
 30
0.0
 11
294.5821714004
 21
237.8121993665
 31
0.0
  0
SPLINE
  5
85
330
1F
100
AcDbEntity
  8
0
  6
Continuous
 62
     7
370
    30
100
AcDbSpline
210
0.0
220
0.0
230
1.0
 70
     8
 71
     3
 72
     9
 73
     5
 74
     0
 42
0.000000001
 43
0.00000001
 40
0.0
 40
0.0
 40
0.0
 40
0.0
 40
0.6568172201306848
 40
1.0
 40
1.0
 40
1.0
 40
1.0
 10
294.5874649763316
 20
237.8144982189299
 30
0.0
 10
294.5865848909948
 20
237.8144495349946
 30
0.0
 10
294.5852449667209
 20
237.8143754140158
 30
0.0
 10
294.5838990615007
 20
237.8133792797244
 30
0.0
 10
294.5834371700058
 20
237.8130374235892
 30
0.0
  0
LINE
  5
86
330
1F
100
AcDbEntity
  8
0
  6
Continuous
 62
     7
370
    30
100
AcDbLine
 10
282.9611306923
 20
221.4999999963
 30
0.0
 11
283.9611306923
 21
221.4999999963
 31
0.0
  0
LINE
  5
87
330
1F
100
AcDbEntity
  8
0
  6
Continuous
 62
     7
370
    30
100
AcDbLine
 10
283.9611306923
 20
223.4999999963
 30
0.0
 11
282.9611306923
 21
223.4999999963
 31
0.0
  0
LINE
  5
88
330
1F
100
AcDbEntity
  8
0
  6
Continuous
 62
     7
370
    30
100
AcDbLine
 10
282.9611306923
 20
177.4999999963
 30
0.0
 11
283.9611306923
 21
177.4999999963
 31
0.0
  0
LINE
  5
89
330
1F
100
AcDbEntity
  8
0
  6
Continuous
 62
     7
370
    30
100
AcDbLine
 10
283.9611306923
 20
179.4999999963
 30
0.0
 11
282.9611306923
 21
179.4999999963
 31
0.0
  0
LINE
  5
8A
330
1F
100
AcDbEntity
  8
0
  6
Continuous
 62
     7
370
    30
100
AcDbLine
 10
282.9611306923
 20
234.9999999963
 30
0.0
 11
283.9611306923
 21
234.9999999963
 31
0.0
  0
SPLINE
  5
8B
330
1F
100
AcDbEntity
  8
0
  6
Continuous
 62
     7
370
    30
100
AcDbSpline
210
0.0
220
0.0
230
1.0
 70
     8
 71
     3
 72
    98
 73
    94
 74
     0
 42
0.000000001
 43
0.00000001
 40
0.0
 40
0.0
 40
0.0
 40
0.0
 40
0.0312893442848603
 40
0.0619469115688889
 40
0.0919717344233494
 40
0.1213626117904686
 40
0.1501181486691898
 40
0.1777402677876799
 40
0.2047464464114855
 40
0.231135003083386
 40
0.2569041885154053
 40
0.2825589506475402
 40
0.3075649935189858
 40
0.331920364915112
 40
0.3556231151947634
 40
0.3786713109265699
 40
0.4010630466653624
 40
0.4227964550464947
 40
0.4438697153655314
 40
0.4642810608010431
 40
0.4840287844295948
 40
0.5031112441743048
 40
0.521526866821852
 40
0.5392741512375101
 40
0.5563516709042576
 40
0.5714165402510631
 40
0.5859165039158618
 40
0.5998506358105653
 40
0.6132180665917006
 40
0.6260179843670102
 40
0.6382496354804472
 40
0.6495535421791607
 40
0.660323199863126
 40
0.6705580865579043
 40
0.6802577372143549
 40
0.6894217467185652
 40
0.6980497741233472
 40
0.7061415486152942
 40
0.7136968779773434
 40
0.7207156607036896
 40
0.7271979035827711
 40
0.7331437476962797
 40
0.7385535078045972
 40
0.7434277338699394
 40
0.7477673109244866
 40
0.7515736291565112
 40
0.7548488916217418
 40
0.7575967155222239
 40
0.7598234310170972
 40
0.7615412870819973
 40
0.7627779075610005
 40
0.7632381367435881
 40
0.7636174973633849
 40
0.7637885407339196
 40
0.7639602049068189
 40
0.7643011923236602
 40
0.7648886968856818
 40
0.7660555015341962
 40
0.7676605426685124
 40
0.7697038062611351
 40
0.7721852752868332
 40
0.7751049306965289
 40
0.7784627528841517
 40
0.7822752555599298
 40
0.7865754785286331
 40
0.7913643317159571
 40
0.7966418147539646
 40
0.8024079401766808
 40
0.8086627347564703
 40
0.8144130539113948
 40
0.8205224747846117
 40
0.8269910328878796
 40
0.8338187612899863
 40
0.8410056848260536
 40
0.8485518135672906
 40
0.856457136300933
 40
0.8636690752453594
 40
0.8711559682689815
 40
0.878917755480489
 40
0.8869543624566774
 40
0.8952657058087445
 40
0.9038517019829058
 40
0.9127122792625196
 40
0.92184739237714
 40
0.9312570383148239
 40
0.9409412708348267
 40
0.9509002097511382
 40
0.9611340392795856
 40
0.9695196418335112
 40
0.9780814683328639
 40
0.986819608455991
 40
0.995734080272049
 40
1.0
 40
1.0
 40
1.0
 40
1.0
 10
294.6151246477104
 20
163.1860365442787
 30
0.0
 10
294.6154668157693
 20
163.1860466755185
 30
0.0
 10
294.6161442430205
 20
163.1860667334337
 30
0.0
 10
294.6172623490831
 20
163.1861013353457
 30
0.0
 10
294.6184429184186
 20
163.1861391826354
 30
0.0
 10
294.6196935769345
 20
163.1861808342007
 30
0.0
 10
294.6210048064038
 20
163.1862262091059
 30
0.0
 10
294.6223755359198
 20
163.1862755108819
 30
0.0
 10
294.6238039275484
 20
163.1863289092131
 30
0.0
 10
294.6252985837937
 20
163.1863870018009
 30
0.0
 10
294.6268697638778
 20
163.1864505048717
 30
0.0
 10
294.6285193903491
 20
163.1865198719704
 30
0.0
 10
294.6302495960526
 20
163.1865956046084
 30
0.0
 10
294.6320489205785
 20
163.1866775846893
 30
0.0
 10
294.6339173892944
 20
163.1867661916683
 30
0.0
 10
294.6358550239405
 20
163.1868618194803
 30
0.0
 10
294.637861841935
 20
163.1869648764752
 30
0.0
 10
294.6399378560232
 20
163.1870757853871
 30
0.0
 10
294.6420830737985
 20
163.1871949832857
 30
0.0
 10
294.6442974972534
 20
163.187322921528
 30
0.0
 10
294.6465811221411
 20
163.1874600656809
 30
0.0
 10
294.6489339377749
 20
163.1876068955038
 30
0.0
 10
294.6513559250107
 20
163.1877639046635
 30
0.0
 10
294.6538470603082
 20
163.1879316013311
 30
0.0
 10
294.6563402557308
 20
163.1881058208133
 30
0.0
 10
294.6588255491866
 20
163.1882857832938
 30
0.0
 10
294.6612916879993
 20
163.1884704540725
 30
0.0
 10
294.6638158118309
 20
163.1886658542524
 30
0.0
 10
294.6663978658866
 20
163.1888724258403
 30
0.0
 10
294.6690377848811
 20
163.1890906199923
 30
0.0
 10
294.6717091068385
 20
163.1893186440633
 30
0.0
 10
294.6744080906288
 20
163.1895563954654
 30
0.0
 10
294.6771301182367
 20
163.1898036258459
 30
0.0
 10
294.6799060771922
 20
163.190063505908
 30
0.0
 10
294.6827358369578
 20
163.190336482423
 30
0.0
 10
294.6856192408414
 20
163.1906230074987
 30
0.0
 10
294.6885561014694
 20
163.1909235378312
 30
0.0
 10
294.6915461915683
 20
163.1912385332296
 30
0.0
 10
294.6945892316635
 20
163.1915684546373
 30
0.0
 10
294.6976848722502
 20
163.1919137612715
 30
0.0
 10
294.700832667186
 20
163.1922749063328
 30
0.0
 10
294.7040320345439
 20
163.1926523307493
 30
0.0
 10
294.7072821919617
 20
163.1930464526121
 30
0.0
 10
294.7105820654176
 20
163.1934576528977
 30
0.0
 10
294.7139300987405
 20
163.1938862431071
 30
0.0
 10
294.7173240569979
 20
163.1943324377014
 30
0.0
 10
294.7207602940707
 20
163.1947962200583
 30
0.0
 10
294.7242336942284
 20
163.1952773699679
 30
0.0
 10
294.7277344854905
 20
163.1957748090014
 30
0.0
 10
294.7312552989425
 20
163.1962879900578
 30
0.0
 10
294.7344554432601
 20
163.1967657306619
 30
0.0
 10
294.737211758675
 20
163.1971865902633
 30
0.0
 10
294.7388867148366
 20
163.1974456858555
 30
0.0
 10
294.740224085888
 20
163.1976547106303
 30
0.0
 10
294.7415319986948
 20
163.1978604596402
 30
0.0
 10
294.7436246741657
 20
163.198192862369
 30
0.0
 10
294.7476162353916
 20
163.1988378828619
 30
0.0
 10
294.7540063149591
 20
163.1999038982313
 30
0.0
 10
294.7631551447361
 20
163.2015057830581
 30
0.0
 10
294.7747789013148
 20
163.2036679882799
 30
0.0
 10
294.7888603339736
 20
163.2064789619274
 30
0.0
 10
294.8053746058258
 20
163.2100453923248
 30
0.0
 10
294.8243208288673
 20
163.2144994378307
 30
0.0
 10
294.8457498424862
 20
163.2200096830106
 30
0.0
 10
294.8697003957034
 20
163.2267726847335
 30
0.0
 10
294.8961635380188
 20
163.2350038689067
 30
0.0
 10
294.9250506473259
 20
163.2449221073022
 30
0.0
 10
294.9562504512616
 20
163.2567632733833
 30
0.0
 10
294.9878614326283
 20
163.2700371255545
 30
0.0
 10
295.0195919555558
 20
163.2846783122039
 30
0.0
 10
295.0511706188467
 20
163.3005857310583
 30
0.0
 10
295.0839715611078
 20
163.3186337704875
 30
0.0
 10
295.1178369321567
 20
163.3390010581141
 30
0.0
 10
295.1525875864016
 20
163.3618662101885
 30
0.0
 10
295.1880215826739
 20
163.3874053857224
 30
0.0
 10
295.2223205621852
 20
163.4145305295119
 30
0.0
 10
295.2553147946121
 20
163.4430491190932
 30
0.0
 10
295.2868694014167
 20
163.4727522639141
 30
0.0
 10
295.3181970448836
 20
163.5049558041962
 30
0.0
 10
295.3490813723341
 20
163.5397440323744
 30
0.0
 10
295.3792897715347
 20
163.5771889222313
 30
0.0
 10
295.4085736626714
 20
163.6173480992349
 30
0.0
 10
295.4366687674163
 20
163.6602625077263
 30
0.0
 10
295.4632957474411
 20
163.7059540289411
 30
0.0
 10
295.4881609611898
 20
163.7544229181352
 30
0.0
 10
295.510958202701
 20
163.8056453901692
 30
0.0
 10
295.5313683574473
 20
163.8595701950606
 30
0.0
 10
295.5478449251831
 20
163.9122078237542
 30
0.0
 10
295.5607780005103
 20
163.963033418445
 30
0.0
 10
295.5706630781456
 20
164.0116051276931
 30
0.0
 10
295.5781083941491
 20
164.0616263795391
 30
0.0
 10
295.582643571674
 20
164.1036979521773
 30
0.0
 10
295.5836441392763
 20
164.1291040785059
 30
0.0
 10
295.5839679795096
 20
164.1373269370722
 30
0.0
  0
LINE
  5
8C
330
1F
100
AcDbEntity
  8
0
  6
Continuous
 62
     7
370
    30
100
AcDbLine
 10
294.5813949924
 20
237.8146225932
 30
0.0
 11
294.5820988384
 21
237.8101845413
 31
0.0
  0
LINE
  5
8D
330
1F
100
AcDbEntity
  8
0
  6
Continuous
 62
     7
370
    30
100
AcDbLine
 10
294.5813950126
 20
237.8146225929
 30
0.0
 11
283.9611306923
 21
237.9999999961
 31
0.0
  0
SPLINE
  5
8E
330
1F
100
AcDbEntity
  8
0
  6
Continuous
 62
     7
370
    30
100
AcDbSpline
210
0.0
220
0.0
230
1.0
 70
     8
 71
     3
 72
    25
 73
    21
 74
     0
 42
0.000000001
 43
0.00000001
 40
0.0
 40
0.0
 40
0.0
 40
0.0
 40
0.0437651042559967
 40
0.087150029024314
 40
0.1301548481300988
 40
0.1727796375098241
 40
0.2150244752856472
 40
0.2568894418431165
 40
0.2983746199123784
 40
0.3394800946531025
 40
0.3802059537433131
 40
0.420552287472337
 40
0.4605191888381279
 40
0.5001067536491703
 40
0.5796225015124068
 40
0.6606573457133968
 40
0.7432119337445355
 40
0.8272868695614706
 40
0.9128827165099413
 40
1.0
 40
1.0
 40
1.0
 40
1.0
 10
283.9611306923168
 20
237.9999999960966
 30
0.0
 10
283.9611319844912
 20
237.9990915487723
 30
0.0
 10
283.9611345576151
 20
237.9972825456402
 30
0.0
 10
283.9611490885321
 20
237.98276861196
 30
0.0
 10
283.9611645509982
 20
237.9599682199645
 30
0.0
 10
283.9611782489829
 20
237.9283789050842
 30
0.0
 10
283.9611872026821
 20
237.8885978818053
 30
0.0
 10
283.9611900202245
 20
237.8409672974463
 30
0.0
 10
283.9611863347586
 20
237.7859274854635
 30
0.0
 10
283.9611768801523
 20
237.7239189184442
 30
0.0
 10
283.961163392075
 20
237.6554028666735
 30
0.0
 10
283.9611485562633
 20
237.5808535405856
 30
0.0
 10
283.9611359244338
 20
237.5007479831004
 30
0.0
 10
283.9611278549978
 20
237.3866924382469
 30
0.0
 10
283.9611473772961
 20
237.2291877958864
 30
0.0
 10
283.9611787657814
 20
237.01818344669
 30
0.0
 10
283.9611929051484
 20
236.786235740584
 30
0.0
 10
283.9611809907606
 20
236.5364183551194
 30
0.0
 10
283.9611456381181
 20
236.2724521706151
 30
0.0
 10
283.9611357034214
 20
236.0915516472446
 30
0.0
 10
283.9611306923155
 20
236.0003046057605
 30
0.0
  0
LINE
  5
8F
330
1F
100
AcDbEntity
  8
0
  6
Continuous
 62
     7
370
    30
100
AcDbLine
 10
283.9611306923
 20
162.9999999968
 30
0.0
 11
294.581395004
 21
163.1853774
 31
0.0
  0
SPLINE
  5
90
330
1F
100
AcDbEntity
  8
0
  6
Continuous
 62
     7
370
    30
100
AcDbSpline
210
0.0
220
0.0
230
1.0
 70
     8
 71
     3
 72
    25
 73
    21
 74
     0
 42
0.000000001
 43
0.00000001
 40
0.0
 40
0.0
 40
0.0
 40
0.0
 40
0.0437724158160992
 40
0.087164158158282
 40
0.130175300867463
 40
0.1728059198991335
 40
0.2150560933979352
 40
0.2569259017755507
 40
0.2984154277921706
 40
0.3395247566416364
 40
0.3802539760405387
 40
0.4206031763214429
 40
0.4605724505304986
 40
0.5001618945296664
 40
0.5796733901384432
 40
0.6607020070295132
 40
0.7432483925607652
 40
0.8273131506345921
 40
0.9128968446161367
 40
1.0
 40
1.0
 40
1.0
 40
1.0
 10
283.9611306923138
 20
164.999695387086
 30
0.0
 10
283.961131983017
 20
164.9538748490461
 30
0.0
 10
283.9611345531987
 20
164.8626322582469
 30
0.0
 10
283.9611490614344
 20
164.7270071429425
 30
0.0
 10
283.9611644905718
 20
164.5938224781744
 30
0.0
 10
283.9611781468006
 20
164.463644253669
 30
0.0
 10
283.961187055352
 20
164.3369988855778
 30
0.0
 10
283.9611898298504
 20
164.2143722169829
 30
0.0
 10
283.9611861098042
 20
164.096208729596
 30
0.0
 10
283.9611766362375
 20
163.9829112777081
 30
0.0
 10
283.9611631518421
 20
163.8748404698876
 30
0.0
 10
283.9611483521956
 20
163.7723167279
 30
0.0
 10
283.9611357901664
 20
163.6756138011138
 30
0.0
 10
283.9611279055039
 20
163.5542317523549
 30
0.0
 10
283.9611476107929
 20
163.4152623136866
 30
0.0
 10
283.9611790202152
 20
163.2719570598463
 30
0.0
 10
283.9611931002097
 20
163.1545154925909
 30
0.0
 10
283.9611810916099
 20
163.0674432879965
 30
0.0
 10
283.9611456561722
 20
163.0107504761503
 30
0.0
 10
283.9611357094408
 20
163.0036044490559
 30
0.0
 10
283.9611306923148
 20
162.9999999967732
 30
0.0
  0
LINE
  5
91
330
1F
100
AcDbEntity
  8
0
  6
Continuous
 62
     7
370
    30
100
AcDbLine
 10
283.9611306923
 20
164.9996953871
 30
0.0
 11
283.9611306923
 21
236.0003046058
 31
0.0
  0
LINE
  5
92
330
1F
100
AcDbEntity
  8
0
  6
Continuous
 62
     7
370
    30
100
AcDbLine
 10
294.5874526091
 20
237.8142815084
 30
0.0
 11
294.5813949863
 21
237.814622605
 31
0.0
  0
SPLINE
  5
93
330
1F
100
AcDbEntity
  8
0
  6
Continuous
 62
     7
370
    30
100
AcDbSpline
210
0.0
220
0.0
230
1.0
 70
     8
 71
     3
 72
     8
 73
     4
 74
     0
 42
0.000000001
 43
0.00000001
 40
0.0
 40
0.0
 40
0.0
 40
0.0
 40
1.0
 40
1.0
 40
1.0
 40
1.0
 10
295.5855993894151
 20
164.1649459538605
 30
0.0
 10
296.086289916915
 20
188.3848655061938
 30
0.0
 10
296.0862899449484
 20
212.6151344915605
 30
0.0
 10
295.585599465615
 20
236.8350540450605
 30
0.0
  0
LINE
  5
94
330
1F
100
AcDbEntity
  8
0
  6
Continuous
 62
     7
370
    30
100
AcDbLine
 10
282.9611306923
 20
223.3660254001
 30
0.0
 11
283.9611306923
 21
223.3660254001
 31
0.0
  0
LINE
  5
95
330
1F
100
AcDbEntity
  8
0
  6
Continuous
 62
     7
370
    30
100
AcDbLine
 10
282.9611306923
 20
223.3660254001
 30
0.0
 11
282.9611306923
 21
223.4999999963
 31
0.0
  0
LINE
  5
96
330
1F
100
AcDbEntity
  8
0
  6
Continuous
 62
     7
370
    30
100
AcDbLine
 10
282.9611306923
 20
221.4999999963
 30
0.0
 11
282.9611306923
 21
221.6339745925
 31
0.0
  0
LINE
  5
97
330
1F
100
AcDbEntity
  8
0
  6
Continuous
 62
     7
370
    30
100
AcDbLine
 10
283.9611306923
 20
221.6339745925
 30
0.0
 11
282.9611306923
 21
221.6339745925
 31
0.0
  0
LINE
  5
98
330
1F
100
AcDbEntity
  8
0
  6
Continuous
 62
     7
370
    30
100
AcDbLine
 10
283.9611306923
 20
179.3660254001
 30
0.0
 11
282.9611306923
 21
179.3660254001
 31
0.0
  0
LINE
  5
99
330
1F
100
AcDbEntity
  8
0
  6
Continuous
 62
     7
370
    30
100
AcDbLine
 10
282.9611306923
 20
179.3660254001
 30
0.0
 11
282.9611306923
 21
179.4999999963
 31
0.0
  0
LINE
  5
9A
330
1F
100
AcDbEntity
  8
0
  6
Continuous
 62
     7
370
    30
100
AcDbLine
 10
282.9611306923
 20
177.4999999963
 30
0.0
 11
282.9611306923
 21
177.6339745925
 31
0.0
  0
LINE
  5
9B
330
1F
100
AcDbEntity
  8
0
  6
Continuous
 62
     7
370
    30
100
AcDbLine
 10
282.9611306923
 20
177.6339745925
 30
0.0
 11
283.9611306923
 21
177.6339745925
 31
0.0
  0
LINE
  5
9C
330
1F
100
AcDbEntity
  8
0
  6
Continuous
 62
     7
370
    30
100
AcDbLine
 10
282.9611306923
 20
179.3660254001
 30
0.0
 11
282.9611306923
 21
177.6339745925
 31
0.0
  0
LINE
  5
9D
330
1F
100
AcDbEntity
  8
0
  6
Continuous
 62
     7
370
    30
100
AcDbLine
 10
282.9611306923
 20
223.3660254001
 30
0.0
 11
282.9611306923
 21
221.6339745925
 31
0.0
  0
SPLINE
  5
9E
330
1F
100
AcDbEntity
  8
0
  6
Continuous
 62
     7
370
    30
100
AcDbSpline
210
0.0
220
0.0
230
1.0
 70
     8
 71
     3
 72
    10
 73
     6
 74
     0
 42
0.000000001
 43
0.00000001
 40
0.0
 40
0.0
 40
0.0
 40
0.0
 40
0.5
 40
0.5
 40
1.0
 40
1.0
 40
1.0
 40
1.0
 10
295.585599135315
 20
164.1649386777605
 30
0.0
 10
295.5803195418983
 20
163.9095476785938
 30
0.0
 10
295.4724994738108
 20
163.6578863870542
 30
0.0
 10
295.1106785865504
 20
163.2972273765542
 30
0.0
 10
294.858671809515
 20
163.1902172964938
 30
0.0
 10
294.603265150015
 20
163.1857591566605
 30
0.0
  0
SPLINE
  5
9F
330
1F
100
AcDbEntity
  8
0
  6
Continuous
 62
     7
370
    30
100
AcDbSpline
210
0.0
220
0.0
230
1.0
 70
     8
 71
     3
 72
    24
 73
    20
 74
     0
 42
0.000000001
 43
0.00000001
 40
0.0
 40
0.0
 40
0.0
 40
0.0
 40
0.1250000000000001
 40
0.1250000000000001
 40
0.2500000000000003
 40
0.2500000000000003
 40
0.3125000000000003
 40
0.3125000000000003
 40
0.3750000000000004
 40
0.3750000000000004
 40
0.5000000000000006
 40
0.5000000000000006
 40
0.6250000000000003
 40
0.6250000000000003
 40
0.7500000000000001
 40
0.7500000000000001
 40
0.8750000000000001
 40
0.8750000000000001
 40
1.0
 40
1.0
 40
1.0
 40
1.0
 10
294.581395076115
 20
163.1853774012605
 30
0.0
 10
294.5831091920439
 20
163.1854073216626
 30
0.0
 10
294.5847185347158
 20
163.1854354133132
 30
0.0
 10
294.587776396453
 20
163.1854887894349
 30
0.0
 10
294.5892281527679
 20
163.1855141304166
 30
0.0
 10
294.5912759997551
 20
163.1855498764455
 30
0.0
 10
294.5919354194573
 20
163.1855613869029
 30
0.0
 10
294.5931964635667
 20
163.1855833990012
 30
0.0
 10
294.5937995637489
 20
163.1855939264017
 30
0.0
 10
294.5955306736092
 20
163.185624143785
 30
0.0
 10
294.5965812634623
 20
163.1856424824052
 30
0.0
 10
294.598472261162
 20
163.1856754909138
 30
0.0
 10
294.5993120322158
 20
163.1856901496867
 30
0.0
 10
294.6007598774527
 20
163.1857154229494
 30
0.0
 10
294.6013673148429
 20
163.1857260263236
 30
0.0
 10
294.6023310556274
 20
163.185742849507
 30
0.0
 10
294.6026867222288
 20
163.1857490582007
 30
0.0
 10
294.6031486658349
 20
163.1857571224722
 30
0.0
 10
294.6032543060468
 20
163.1857589669346
 30
0.0
 10
294.603256266315
 20
163.1857590016605
 30
0.0
  0
SPLINE
  5
A0
330
1F
100
AcDbEntity
  8
0
  6
Continuous
 62
     7
370
    30
100
AcDbSpline
210
0.0
220
0.0
230
1.0
 70
     8
 71
     3
 72
    10
 73
     6
 74
     0
 42
0.000000001
 43
0.00000001
 40
0.0
 40
0.0
 40
0.0
 40
0.0
 40
0.5
 40
0.5
 40
1.0
 40
1.0
 40
1.0
 40
1.0
 10
295.585599313415
 20
236.8350614085605
 30
0.0
 10
295.5803196979983
 20
237.0904523926438
 30
0.0
 10
295.4724996205338
 20
237.3421136609917
 30
0.0
 10
295.1106787385963
 20
237.7027726351793
 30
0.0
 10
294.8586719757984
 20
237.8097827027771
 30
0.0
 10
294.603265331215
 20
237.8142408423605
 30
0.0
  0
SPLINE
  5
A1
330
1F
100
AcDbEntity
  8
0
  6
Continuous
 62
     7
370
    30
100
AcDbSpline
210
0.0
220
0.0
230
1.0
 70
     8
 71
     3
 72
     8
 73
     4
 74
     0
 42
0.000000001
 43
0.00000001
 40
0.0
 40
0.0
 40
0.0
 40
0.0
 40
1.0
 40
1.0
 40
1.0
 40
1.0
 10
294.603265331215
 20
237.8142408423605
 30
0.0
 10
294.603265331415
 20
237.8142408432605
 30
0.0
 10
294.596080262215
 20
237.8143662599605
 30
0.0
 10
294.581395012615
 20
237.8146225928605
 30
0.0
  0
SPLINE
  5
A2
330
1F
100
AcDbEntity
  8
0
  6
Continuous
 62
     7
370
    30
100
AcDbSpline
210
0.0
220
0.0
230
1.0
 70
    24
 71
     3
 72
    27
 73
    23
 74
     0
 42
0.000000001
 43
0.00000001
 40
0.0
 40
0.0
 40
0.0
 40
0.0
 40
0.00197428660538
 40
0.0549193625685917
 40
0.1075432512643138
 40
0.1598895276403469
 40
0.2121171118733205
 40
0.2643860067783174
 40
0.3168558372503886
 40
0.3696844067970429
 40
0.4222427037146569
 40
0.4745554281810394
 40
0.5267821500709349
 40
0.5790832264430843
 40
0.6316183334864715
 40
0.6845450292692885
 40
0.7374099252433556
 40
0.789945041190124
 40
0.8423102682768712
 40
0.8946670541528907
 40
0.947176924327964
 40
1.0
 40
1.0
 40
1.0
 40
1.0
 10
283.961130692315
 20
236.000816927342
 30
0.0
 10
283.961130692315
 20
236.0014212014643
 30
0.0
 10
283.961130692315
 20
236.0182304881822
 30
0.0
 10
283.961130692315
 20
236.0497760861408
 30
0.0
 10
283.961130692315
 20
236.0951096547017
 30
0.0
 10
283.961130692315
 20
236.1382754480339
 30
0.0
 10
283.961130692315
 20
236.1794591621215
 30
0.0
 10
283.961130692315
 20
236.2186016682212
 30
0.0
 10
283.961130692315
 20
236.2557156519009
 30
0.0
 10
283.961130692315
 20
236.2906304514903
 30
0.0
 10
283.961130692315
 20
236.3231717346795
 30
0.0
 10
283.961130692315
 20
236.3531000822778
 30
0.0
 10
283.961130692315
 20
236.3803946176774
 30
0.0
 10
283.961130692315
 20
236.405052910965
 30
0.0
 10
283.961130692315
 20
236.4270735960125
 30
0.0
 10
283.961130692315
 20
236.4463877462436
 30
0.0
 10
283.961130692315
 20
236.4629057560115
 30
0.0
 10
283.961130692315
 20
236.4764472893524
 30
0.0
 10
283.961130692315
 20
236.4869923767417
 30
0.0
 10
283.961130692315
 20
236.4944671671871
 30
0.0
 10
283.961130692315
 20
236.4991409432077
 30
0.0
 10
283.961130692315
 20
236.4997130780988
 30
0.0
 10
283.961130692315
 20
236.4999999961605
 30
0.0
  0
LINE
  5
A3
330
1F
100
AcDbEntity
  8
0
  6
Continuous
 62
     7
370
    30
100
AcDbLine
 10
282.9611306923
 20
234.9999999963
 30
0.0
 11
282.9611306923
 21
236.4999999963
 31
0.0
  0
LINE
  5
A4
330
1F
100
AcDbEntity
  8
0
  6
Continuous
 62
     7
370
    30
100
AcDbLine
 10
283.9611306923
 20
236.4999999963
 30
0.0
 11
282.9611306923
 21
236.4999999963
 31
0.0
  0
LINE
  5
A5
330
1F
100
AcDbEntity
  8
0
  6
Continuous
 62
     7
370
    30
100
AcDbLine
 10
289.0309296857
 20
163.088493686
 30
0.0
 11
283.9611306923
 21
163.0000000155
 31
0.0
  0
LINE
  5
A6
330
1F
100
AcDbEntity
  8
0
  6
Continuous
 62
     7
370
    30
100
AcDbLine
 10
283.9611306923
 20
164.4999999968
 30
0.0
 11
283.9611306923
 21
163.0000000156
 31
0.0
  0
SPLINE
  5
A7
330
1F
100
AcDbEntity
  8
0
  6
Continuous
 62
     7
370
    30
100
AcDbSpline
210
0.0
220
0.0
230
1.0
 70
    24
 71
     3
 72
    20
 73
    16
 74
     0
 42
0.000000001
 43
0.00000001
 40
0.0
 40
0.0
 40
0.0
 40
0.0
 40
0.0783039312280793
 40
0.1559897028739084
 40
0.2333012404642136
 40
0.3104860176607396
 40
0.3877927254881295
 40
0.4654688838462317
 40
0.543758508557102
 40
0.6219312769194976
 40
0.6995232991487086
 40
0.7767797273109265
 40
0.8539489118973689
 40
0.9312800439573365
 40
1.0
 40
1.0
 40
1.0
 40
1.0
 10
283.961130692315
 20
164.4999999967605
 30
0.0
 10
283.961130692315
 20
164.5005914469654
 30
0.0
 10
283.961130692315
 20
164.5017696782531
 30
0.0
 10
283.961130692315
 20
164.5114177038473
 30
0.0
 10
283.961130692315
 20
164.5268555956717
 30
0.0
 10
283.961130692315
 20
164.5486359095246
 30
0.0
 10
283.961130692315
 20
164.5766104360507
 30
0.0
 10
283.961130692315
 20
164.6108185745937
 30
0.0
 10
283.961130692315
 20
164.6510758065106
 30
0.0
 10
283.961130692315
 20
164.6969937120417
 30
0.0
 10
283.961130692315
 20
164.7483783806067
 30
0.0
 10
283.961130692315
 20
164.8050454448567
 30
0.0
 10
283.961130692315
 20
164.8671441976394
 30
0.0
 10
283.961130692315
 20
164.9315136508383
 30
0.0
 10
283.961130692315
 20
164.9775241880966
 30
0.0
 10
283.961130692315
 20
164.999173065479
 30
0.0
  0
LINE
  5
A8
330
1F
100
AcDbEntity
  8
0
  6
Continuous
 62
     7
370
    30
100
AcDbLine
 10
28.4167294593
 20
237.8141396145
 30
0.0
 11
28.4125429629
 21
237.8144983932
 31
0.0
  0
LINE
  5
A9
330
1F
100
AcDbEntity
  8
0
  6
Continuous
 62
     7
370
    30
100
AcDbLine
 10
28.4182118408
 20
237.8140125758
 30
0.0
 11
28.4177304335
 21
237.814053832
 31
0.0
  0
LINE
  5
AA
330
1F
100
AcDbEntity
  8
0
  6
Continuous
 62
     7
370
    30
100
AcDbLine
 10
40.0388693077
 20
223.4999999963
 30
0.0
 11
39.0388693077
 21
223.4999999963
 31
0.0
  0
LINE
  5
AB
330
1F
100
AcDbEntity
  8
0
  6
Continuous
 62
     7
370
    30
100
AcDbLine
 10
39.0388693077
 20
221.4999999963
 30
0.0
 11
40.0388693077
 21
221.4999999963
 31
0.0
  0
LINE
  5
AC
330
1F
100
AcDbEntity
  8
0
  6
Continuous
 62
     7
370
    30
100
AcDbLine
 10
40.0388693077
 20
179.4999999963
 30
0.0
 11
39.0388693077
 21
179.4999999963
 31
0.0
  0
LINE
  5
AD
330
1F
100
AcDbEntity
  8
0
  6
Continuous
 62
     7
370
    30
100
AcDbLine
 10
39.0388693077
 20
177.4999999963
 30
0.0
 11
40.0388693077
 21
177.4999999963
 31
0.0
  0
SPLINE
  5
AE
330
1F
100
AcDbEntity
  8
0
  6
Continuous
 62
     7
370
    30
100
AcDbSpline
210
0.0
220
0.0
230
1.0
 70
     8
 71
     3
 72
    92
 73
    88
 74
     0
 42
0.000000001
 43
0.00000001
 40
0.0
 40
0.0
 40
0.0
 40
0.0
 40
0.0105019877745155
 40
0.0207414374419229
 40
0.0307182273965429
 40
0.0404324291430709
 40
0.0498842006284154
 40
0.0590737182925735
 40
0.0680011376993035
 40
0.0766665744088905
 40
0.0862489443436838
 40
0.0954892892041721
 40
0.104387586565503
 40
0.1129437752229379
 40
0.1211577732751583
 40
0.1290294933174315
 40
0.1365588537253333
 40
0.1445850628471602
 40
0.1521816804928472
 40
0.1593486602216103
 40
0.1660859802696213
 40
0.1723936385713659
 40
0.178271646922074
 40
0.1837200253025522
 40
0.1892170078030296
 40
0.194194206585698
 40
0.1986671521600948
 40
0.202722454164514
 40
0.206373533283407
 40
0.2100318179804626
 40
0.2131681396614027
 40
0.2157824953024105
 40
0.2178748786380152
 40
0.2194452821359749
 40
0.2203552124101062
 40
0.2209107863971939
 40
0.2213547536090911
 40
0.2227597108813412
 40
0.2244267893746012
 40
0.2264738911204238
 40
0.2289654865355064
 40
0.231937189173499
 40
0.2354097977960896
 40
0.2393961977923204
 40
0.2439047860051991
 40
0.2489412586470442
 40
0.2545095990699235
 40
0.2606126529527003
 40
0.2672524790869539
 40
0.2744305720178711
 40
0.2821480082763411
 40
0.2904055452887157
 40
0.2992036899870921
 40
0.3085427474453648
 40
0.3184228560066004
 40
0.3288440130680227
 40
0.3398060942785666
 40
0.3513088680145141
 40
0.3648822761290962
 40
0.3791376990386487
 40
0.394074411316546
 40
0.409691568445308
 40
0.4259882140567833
 40
0.4426542172777434
 40
0.4599735326587531
 40
0.4779449694367236
 40
0.4965672511804958
 40
0.5162390737076294
 40
0.5365856370348032
 40
0.557605336336713
 40
0.5792964937105198
 40
0.6016573647275087
 40
0.6246861459666769
 40
0.6483809837056478
 40
0.6727399839472747
 40
0.6977612239651573
 40
0.7234427655580548
 40
0.7497826702114863
 40
0.7767790163745731
 40
0.8044299190708314
 40
0.8327335520737371
 40
0.8592504646050542
 40
0.8863131258757408
 40
0.913920374374428
 40
0.9420711700217755
 40
0.9707646188238807
 40
1.0
 40
1.0
 40
1.0
 40
1.0
 10
27.41472866598184
 20
164.1652145051894
 30
0.0
 10
27.4154796199841
 20
164.1452721170262
 30
0.0
 10
27.41696275496713
 20
164.1058858784008
 30
0.0
 10
27.42353953211823
 20
164.0478512035518
 30
0.0
 10
27.43295818887356
 20
163.9917543789811
 30
0.0
 10
27.44524645742252
 20
163.9377412683071
 30
0.0
 10
27.46004385554252
 20
163.885920555174
 30
0.0
 10
27.47709428357745
 20
163.8363760788979
 30
0.0
 10
27.49612222247439
 20
163.7891661170995
 30
0.0
 10
27.5178069690066
 20
163.7422941191935
 30
0.0
 10
27.5421793007477
 20
163.6960816687547
 30
0.0
 10
27.56921884555363
 20
163.6508641072035
 30
0.0
 10
27.59746895472894
 20
163.6087234279749
 30
0.0
 10
27.62660959688449
 20
163.5696024086324
 30
0.0
 10
27.65634223953545
 20
163.5334232894024
 30
0.0
 10
27.68639010422895
 20
163.5000913259333
 30
0.0
 10
27.71761622743855
 20
163.4683615810366
 30
0.0
 10
27.7498331150256
 20
163.4383972397401
 30
0.0
 10
27.78282231899455
 20
163.4103400011831
 30
0.0
 10
27.81502804950965
 20
163.3851995776973
 30
0.0
 10
27.84621263759559
 20
163.3627822965176
 30
0.0
 10
27.87616618030783
 20
163.3428929075894
 30
0.0
 10
27.90470452244379
 20
163.325337750239
 30
0.0
 10
27.9324559037546
 20
163.3094766493257
 30
0.0
 10
27.95917671715152
 20
163.2952907116085
 30
0.0
 10
27.98464595543488
 20
163.2827287117141
 30
0.0
 10
28.00795538798367
 20
163.2720025735222
 30
0.0
 10
28.02920462654564
 20
163.2628438049165
 30
0.0
 10
28.04921519325895
 20
163.2547356630077
 30
0.0
 10
28.06775912407526
 20
163.2476682732224
 30
0.0
 10
28.08458248528682
 20
163.241627491325
 30
0.0
 10
28.09868659832986
 20
163.236822942941
 30
0.0
 10
28.1100250303094
 20
163.2331297588028
 30
0.0
 10
28.11831280904793
 20
163.2305257843874
 30
0.0
 10
28.12382636887936
 20
163.2288362401454
 30
0.0
 10
28.12730028539801
 20
163.2277876125848
 30
0.0
 10
28.13167132431875
 20
163.2264817162468
 30
0.0
 10
28.13776740266497
 20
163.2246970468675
 30
0.0
 10
28.14494362624966
 20
163.2226566452734
 30
0.0
 10
28.15191857454343
 20
163.2207279785023
 30
0.0
 10
28.1587769431445
 20
163.2188844896227
 30
0.0
 10
28.16555661730058
 20
163.2171132473053
 30
0.0
 10
28.17226176356582
 20
163.2154113139599
 30
0.0
 10
28.17889239544154
 20
163.2137767439825
 30
0.0
 10
28.18544581153098
 20
163.21220833664
 30
0.0
 10
28.19191955948341
 20
163.2107047753689
 30
0.0
 10
28.19831137174109
 20
163.2092646859076
 30
0.0
 10
28.20461935807988
 20
163.2078865910923
 30
0.0
 10
28.21084191486879
 20
163.2065689475037
 30
0.0
 10
28.21697768205282
 20
163.2053101628933
 30
0.0
 10
28.22302548829224
 20
163.2041086155953
 30
0.0
 10
28.22898431266098
 20
163.2029626677701
 30
0.0
 10
28.23485325422855
 20
163.2018706756962
 30
0.0
 10
28.24063150942301
 20
163.2008309973396
 30
0.0
 10
28.24631835594018
 20
163.1998419977483
 30
0.0
 10
28.25191313638408
 20
163.1989020543073
 30
0.0
 10
28.2574152628332
 20
163.1980095558945
 30
0.0
 10
28.26306401056959
 20
163.1971253775455
 30
0.0
 10
28.26882587586573
 20
163.1962578120819
 30
0.0
 10
28.27467228677341
 20
163.1954132987481
 30
0.0
 10
28.28039922903132
 20
163.1946203127601
 30
0.0
 10
28.28600614876549
 20
163.1938767289396
 30
0.0
 10
28.29145784263765
 20
163.1931848659796
 30
0.0
 10
28.29675874638387
 20
163.192541407111
 30
0.0
 10
28.30191243419192
 20
163.1919433766381
 30
0.0
 10
28.30694859102046
 20
163.1913852643083
 30
0.0
 10
28.31190209351157
 20
163.1908615257569
 30
0.0
 10
28.31676774849742
 20
163.1903714895847
 30
0.0
 10
28.32154104076868
 20
163.1899142925146
 30
0.0
 10
28.32619072525259
 20
163.1894912498971
 30
0.0
 10
28.33071656034618
 20
163.1891006014546
 30
0.0
 10
28.33511832864407
 20
163.1887406324851
 30
0.0
 10
28.33939583681684
 20
163.1884096738174
 30
0.0
 10
28.34354891362393
 20
163.1881061022553
 30
0.0
 10
28.34757740854857
 20
163.1878283408355
 30
0.0
 10
28.35148119037703
 20
163.1875748590922
 30
0.0
 10
28.35526014575507
 20
163.1873441732843
 30
0.0
 10
28.35891417825823
 20
163.1871348465862
 30
0.0
 10
28.3624432056574
 20
163.1869454893057
 30
0.0
 10
28.36584716438497
 20
163.1867747588822
 30
0.0
 10
28.36903185263103
 20
163.1866257646364
 30
0.0
 10
28.37201282474066
 20
163.1864955334718
 30
0.0
 10
28.37480344093125
 20
163.1863816194251
 30
0.0
 10
28.37748950759495
 20
163.1862793610913
 30
0.0
 10
28.38006770295739
 20
163.186188117666
 30
0.0
 10
28.38255073570418
 20
163.186106228365
 30
0.0
 10
28.38409566242701
 20
163.1860599167247
 30
0.0
 10
28.3848753522921
 20
163.1860365442786
 30
0.0
  0
LINE
  5
AF
330
1F
100
AcDbEntity
  8
0
  6
Continuous
 62
     7
370
    30
100
AcDbLine
 10
39.0388693077
 20
234.9999999963
 30
0.0
 11
40.0388693077
 21
234.9999999963
 31
0.0
  0
SPLINE
  5
B0
330
1F
100
AcDbEntity
  8
0
  6
Continuous
 62
     7
370
    30
100
AcDbSpline
210
0.0
220
0.0
230
1.0
 70
     8
 71
     3
 72
     9
 73
     5
 74
     0
 42
0.000000001
 43
0.00000001
 40
0.0
 40
0.0
 40
0.0
 40
0.0
 40
0.4560829831230447
 40
1.0
 40
1.0
 40
1.0
 40
1.0
 10
28.41740050774732
 20
237.8124828031182
 30
0.0
 10
28.41665912435404
 20
237.8130505359063
 30
0.0
 10
28.41503357939682
 20
237.8142953374206
 30
0.0
 10
28.41341525684382
 20
237.8144267444244
 30
0.0
 10
28.41253502366844
 20
237.8144982189299
 30
0.0
  0
LINE
  5
B1
330
1F
100
AcDbEntity
  8
0
  6
Continuous
 62
     7
370
    30
100
AcDbLine
 10
39.0388693077
 20
163.0000000208
 30
0.0
 11
28.4185991551
 21
163.1853775258
 31
0.0
  0
SPLINE
  5
B2
330
1F
100
AcDbEntity
  8
0
  6
Continuous
 62
     7
370
    30
100
AcDbSpline
210
0.0
220
0.0
230
1.0
 70
     8
 71
     3
 72
    25
 73
    21
 74
     0
 42
0.000000001
 43
0.00000001
 40
0.0
 40
0.0
 40
0.0
 40
0.0
 40
0.0437724118545054
 40
0.0871641502092992
 40
0.130175288905266
 40
0.1728059038978734
 40
0.2150560733317243
 40
0.2569258776184727
 40
0.2984153995182766
 40
0.3395247242249429
 40
0.3802539394550305
 40
0.4206031355410687
 40
0.4605724055291798
 40
0.500161845281287
 40
0.579673345104912
 40
0.6607019678080723
 40
0.743248360748734
 40
0.8273131278293072
 40
0.9128968324148938
 40
1.0
 40
1.0
 40
1.0
 40
1.0
 10
39.03886930768577
 20
163.0000000207315
 30
0.0
 10
39.03886801698383
 20
163.0009087711508
 30
0.0
 10
39.03886544680472
 20
163.0027183689019
 30
0.0
 10
39.03885093858717
 20
163.0172369563909
 30
0.0
 10
39.03883550947513
 20
163.0400443006479
 30
0.0
 10
39.03882185327789
 20
163.0716427254617
 30
0.0
 10
39.03881294476254
 20
163.1114345376731
 30
0.0
 10
39.03881017030311
 20
163.1590771951463
 30
0.0
 10
39.03881389039028
 20
163.214129954536
 30
0.0
 10
39.03882336399942
 20
163.2761519494633
 30
0.0
 10
39.03883684843825
 20
163.3446815300358
 30
0.0
 10
39.03885164812991
 20
163.4192441259503
 30
0.0
 10
39.03886421020385
 20
163.4993623575575
 30
0.0
 10
39.03887209493982
 20
163.6134282581462
 30
0.0
 10
39.03885238967766
 20
163.7709376806785
 30
0.0
 10
39.03882098017039
 20
163.9819365245769
 30
0.0
 10
39.03880690004513
 20
164.2138685729487
 30
0.0
 10
39.0388189085123
 20
164.4636599086523
 30
0.0
 10
39.03885434384876
 20
164.727590180478
 30
0.0
 10
39.03886429056644
 20
164.9084631701228
 30
0.0
 10
39.03886930768561
 20
164.9996954110605
 30
0.0
  0
LINE
  5
B3
330
1F
100
AcDbEntity
  8
0
  6
Continuous
 62
     7
370
    30
100
AcDbLine
 10
39.0388693078
 20
237.9999999907
 30
0.0
 11
28.4186049989
 21
237.8146225877
 31
0.0
  0
SPLINE
  5
B4
330
1F
100
AcDbEntity
  8
0
  6
Continuous
 62
     7
370
    30
100
AcDbSpline
210
0.0
220
0.0
230
1.0
 70
     8
 71
     3
 72
    25
 73
    21
 74
     0
 42
0.000000001
 43
0.00000001
 40
0.0
 40
0.0
 40
0.0
 40
0.0
 40
0.0437724109811291
 40
0.087164148457889
 40
0.1301752862711632
 40
0.1728059003764066
 40
0.2150560689182145
 40
0.2569258723082393
 40
0.2984153933066274
 40
0.3395247171071836
 40
0.3802539314264529
 40
0.4206031265969684
 40
0.4605723956648289
 40
0.5001618344919623
 40
0.579673335195418
 40
0.6607019591457552
 40
0.7432483537009611
 40
0.8273131227634424
 40
0.9128968296982978
 40
1.0
 40
1.0
 40
1.0
 40
1.0
 10
39.0388693076859
 20
236.0003046004235
 30
0.0
 10
39.03886801698422
 20
236.0461251333845
 30
0.0
 10
39.03886544680565
 20
236.1373677139944
 30
0.0
 10
39.03885093859196
 20
236.2729928141818
 30
0.0
 10
39.03883550948539
 20
236.4061774641603
 30
0.0
 10
39.038821853295
 20
236.5363556744038
 30
0.0
 10
39.0388129447875
 20
236.6630010289513
 30
0.0
 10
39.03881017033662
 20
236.785627684901
 30
0.0
 10
39.03881389043286
 20
236.9037911607097
 30
0.0
 10
39.03882336405147
 20
237.0170886022424
 30
0.0
 10
39.0388368485001
 20
237.1251594010734
 30
0.0
 10
39.03885164820206
 20
237.2276831355664
 30
0.0
 10
39.03886421028633
 20
237.3243860564676
 30
0.0
 10
39.03887209503942
 20
237.4457681115088
 30
0.0
 10
39.03885238978385
 20
237.5847375693092
 30
0.0
 10
39.03882098025745
 20
237.7280428527536
 30
0.0
 10
39.03880690010251
 20
237.8454844487808
 30
0.0
 10
39.03881890853948
 20
237.9325566778905
 30
0.0
 10
39.0388543438529
 20
237.989249507655
 30
0.0
 10
39.03886429056767
 20
237.9963955371881
 30
0.0
 10
39.0388693076854
 20
237.9999999907363
 30
0.0
  0
LINE
  5
B5
330
1F
100
AcDbEntity
  8
0
  6
Continuous
 62
     7
370
    30
100
AcDbLine
 10
39.0388693077
 20
236.0003046005
 30
0.0
 11
39.0388693077
 21
164.9996954111
 31
0.0
  0
SPLINE
  5
B6
330
1F
100
AcDbEntity
  8
0
  6
Continuous
 62
     7
370
    30
100
AcDbSpline
210
0.0
220
0.0
230
1.0
 70
     8
 71
     3
 72
     8
 73
     4
 74
     0
 42
0.000000001
 43
0.00000001
 40
0.0
 40
0.0
 40
0.0
 40
0.0
 40
1.0
 40
1.0
 40
1.0
 40
1.0
 10
27.41440061058496
 20
164.1649459538605
 30
0.0
 10
26.91371008308496
 20
188.3848655061938
 30
0.0
 10
26.91371005505163
 20
212.6151344915605
 30
0.0
 10
27.41440053438497
 20
236.8350540450605
 30
0.0
  0
LINE
  5
B7
330
1F
100
AcDbEntity
  8
0
  6
Continuous
 62
     7
370
    30
100
AcDbLine
 10
39.0388693077
 20
221.6339745925
 30
0.0
 11
40.0388693077
 21
221.6339745925
 31
0.0
  0
LINE
  5
B8
330
1F
100
AcDbEntity
  8
0
  6
Continuous
 62
     7
370
    30
100
AcDbLine
 10
40.0388693077
 20
221.6339745925
 30
0.0
 11
40.0388693077
 21
221.4999999963
 31
0.0
  0
LINE
  5
B9
330
1F
100
AcDbEntity
  8
0
  6
Continuous
 62
     7
370
    30
100
AcDbLine
 10
40.0388693077
 20
223.4999999963
 30
0.0
 11
40.0388693077
 21
223.3660254001
 31
0.0
  0
LINE
  5
BA
330
1F
100
AcDbEntity
  8
0
  6
Continuous
 62
     7
370
    30
100
AcDbLine
 10
40.0388693077
 20
223.3660254001
 30
0.0
 11
39.0388693077
 21
223.3660254001
 31
0.0
  0
LINE
  5
BB
330
1F
100
AcDbEntity
  8
0
  6
Continuous
 62
     7
370
    30
100
AcDbLine
 10
40.0388693077
 20
177.6339745925
 30
0.0
 11
39.0388693077
 21
177.6339745925
 31
0.0
  0
LINE
  5
BC
330
1F
100
AcDbEntity
  8
0
  6
Continuous
 62
     7
370
    30
100
AcDbLine
 10
40.0388693077
 20
177.6339745925
 30
0.0
 11
40.0388693077
 21
177.4999999963
 31
0.0
  0
LINE
  5
BD
330
1F
100
AcDbEntity
  8
0
  6
Continuous
 62
     7
370
    30
100
AcDbLine
 10
40.0388693077
 20
179.4999999963
 30
0.0
 11
40.0388693077
 21
179.3660254001
 31
0.0
  0
LINE
  5
BE
330
1F
100
AcDbEntity
  8
0
  6
Continuous
 62
     7
370
    30
100
AcDbLine
 10
39.0388693077
 20
179.3660254001
 30
0.0
 11
40.0388693077
 21
179.3660254001
 31
0.0
  0
LINE
  5
BF
330
1F
100
AcDbEntity
  8
0
  6
Continuous
 62
     7
370
    30
100
AcDbLine
 10
40.0388693077
 20
223.3660254001
 30
0.0
 11
40.0388693077
 21
221.6339745925
 31
0.0
  0
LINE
  5
C0
330
1F
100
AcDbEntity
  8
0
  6
Continuous
 62
     7
370
    30
100
AcDbLine
 10
40.0388693077
 20
179.3660254001
 30
0.0
 11
40.0388693077
 21
177.6339745925
 31
0.0
  0
SPLINE
  5
C1
330
1F
100
AcDbEntity
  8
0
  6
Continuous
 62
     7
370
    30
100
AcDbSpline
210
0.0
220
0.0
230
1.0
 70
     8
 71
     3
 72
    10
 73
     6
 74
     0
 42
0.000000001
 43
0.00000001
 40
0.0
 40
0.0
 40
0.0
 40
0.0
 40
0.5
 40
0.5
 40
1.0
 40
1.0
 40
1.0
 40
1.0
 10
27.41440068658497
 20
236.8350614085605
 30
0.0
 10
27.41968030200163
 20
237.0904523926438
 30
0.0
 10
27.52750037946621
 20
237.3421136609917
 30
0.0
 10
27.88932126140371
 20
237.7027726351793
 30
0.0
 10
28.14132802420163
 20
237.8097827027771
 30
0.0
 10
28.39673466878497
 20
237.8142408423605
 30
0.0
  0
SPLINE
  5
C2
330
1F
100
AcDbEntity
  8
0
  6
Continuous
 62
     7
370
    30
100
AcDbSpline
210
0.0
220
0.0
230
1.0
 70
     8
 71
     3
 72
    24
 73
    20
 74
     0
 42
0.000000001
 43
0.00000001
 40
0.0
 40
0.0
 40
0.0
 40
0.0
 40
0.125
 40
0.125
 40
0.25
 40
0.25
 40
0.3125
 40
0.3125
 40
0.375
 40
0.375
 40
0.5
 40
0.5
 40
0.625
 40
0.625
 40
0.75
 40
0.75
 40
0.875
 40
0.875
 40
1.0
 40
1.0
 40
1.0
 40
1.0
 10
28.41860490918496
 20
237.8146225861605
 30
0.0
 10
28.41689083919164
 20
237.814592667002
 30
0.0
 10
28.41528152828911
 20
237.8145645764628
 30
0.0
 10
28.4122236937995
 20
237.8145112019622
 30
0.0
 10
28.41077193302991
 20
237.8144858614976
 30
0.0
 10
28.40872406694679
 20
237.8144501160386
 30
0.0
 10
28.40806463898639
 20
237.8144386057405
 30
0.0
 10
28.40680357981652
 20
237.81441659399
 30
0.0
 10
28.4062004725344
 20
237.8144060667726
 30
0.0
 10
28.40446934241396
 20
237.8143758499608
 30
0.0
 10
28.40341874041181
 20
237.8143575117507
 30
0.0
 10
28.40152772063915
 20
237.8143245041073
 30
0.0
 10
28.40068793967806
 20
237.8143098457899
 30
0.0
 10
28.39924007710709
 20
237.8142845734841
 30
0.0
 10
28.39863263230663
 20
237.8142739706116
 30
0.0
 10
28.39766887965294
 20
237.8142571484825
 30
0.0
 10
28.39731320860913
 20
237.8142509403417
 30
0.0
 10
28.39685125925898
 20
237.8142428772258
 30
0.0
 10
28.39674561776205
 20
237.8142410333664
 30
0.0
 10
28.39674365748496
 20
237.8142409992605
 30
0.0
  0
LINE
  5
C3
330
1F
100
AcDbEntity
  8
0
  6
Continuous
 62
     7
370
    30
100
AcDbLine
 10
28.3847858
 20
163.1864264841
 30
0.0
 11
28.39673485
 21
163.1857591567
 31
0.0
  0
SPLINE
  5
C4
330
1F
100
AcDbEntity
  8
0
  6
Continuous
 62
     7
370
    30
100
AcDbSpline
210
0.0
220
0.0
230
1.0
 70
     8
 71
     3
 72
    22
 73
    18
 74
     0
 42
0.000000001
 43
0.00000001
 40
0.0
 40
0.0
 40
0.0
 40
0.0
 40
0.1250000000000002
 40
0.1250000000000002
 40
0.2500000000000005
 40
0.2500000000000005
 40
0.3750000000000006
 40
0.3750000000000006
 40
0.5000000000000008
 40
0.5000000000000008
 40
0.6250000000000006
 40
0.6250000000000006
 40
0.7500000000000003
 40
0.7500000000000003
 40
0.8750000000000002
 40
0.8750000000000002
 40
1.0
 40
1.0
 40
1.0
 40
1.0
 10
28.39673484998496
 20
163.1857591566605
 30
0.0
 10
28.39673372795681
 20
163.1857591767564
 30
0.0
 10
28.39683806281357
 20
163.1857573560958
 30
0.0
 10
28.39729602675099
 20
163.185749363319
 30
0.0
 10
28.39764811528887
 20
163.1857432180932
 30
0.0
 10
28.39858233278475
 20
163.1857269122611
 30
0.0
 10
28.39916292119997
 20
163.185716778545
 30
0.0
 10
28.40052654775665
 20
163.1856929773348
 30
0.0
 10
28.4013080445274
 20
163.1856793367455
 30
0.0
 10
28.40308377982383
 20
163.1856483421524
 30
0.0
 10
28.40408311111241
 20
163.185630899255
 30
0.0
 10
28.40633795774248
 20
163.1855915417585
 30
0.0
 10
28.40759272931257
 20
163.1855696401414
 30
0.0
 10
28.41034878308896
 20
163.1855215340456
 30
0.0
 10
28.41184932152388
 20
163.1854953425489
 30
0.0
 10
28.41506810610952
 20
163.1854391594496
 30
0.0
 10
28.41678560848883
 20
163.185409180829
 30
0.0
 10
28.41859915508497
 20
163.1853775257605
 30
0.0
  0
SPLINE
  5
C5
330
1F
100
AcDbEntity
  8
0
  6
Continuous
 62
     7
370
    30
100
AcDbSpline
210
0.0
220
0.0
230
1.0
 70
    24
 71
     3
 72
    27
 73
    23
 74
     0
 42
0.000000001
 43
0.00000001
 40
0.0
 40
0.0
 40
0.0
 40
0.0
 40
0.0526737472476574
 40
0.1050940139467731
 40
0.1574206529553612
 40
0.2098143741106267
 40
0.262435272625271
 40
0.3154413853096921
 40
0.3680770376825654
 40
0.4204361880592729
 40
0.4726779757289666
 40
0.5249626116460567
 40
0.5774499143995941
 40
0.6302978639435801
 40
0.682835514594246
 40
0.7351294618220144
 40
0.7873390936863407
 40
0.8396245693381398
 40
0.8921453540889543
 40
0.9450587858386135
 40
0.9978612284992093
 40
0.9999999999999999
 40
0.9999999999999999
 40
0.9999999999999999
 40
0.9999999999999999
 10
39.03886930768496
 20
236.4999999961605
 30
0.0
 10
39.03886930768496
 20
236.499712721736
 30
0.0
 10
39.03886930768496
 20
236.4991395553306
 30
0.0
 10
39.03886930768496
 20
236.4944636380048
 30
0.0
 10
39.03886930768496
 20
236.4869871921277
 30
0.0
 10
39.03886930768496
 20
236.4764412120503
 30
0.0
 10
39.03886930768496
 20
236.4628958548318
 30
0.0
 10
39.03886930768496
 20
236.4464369646969
 30
0.0
 10
39.03886930768496
 20
236.4272081704824
 30
0.0
 10
39.03886930768496
 20
236.4052689637214
 30
0.0
 10
39.03886930768496
 20
236.3806371094416
 30
0.0
 10
39.03886930768496
 20
236.3533111718506
 30
0.0
 10
39.03886930768496
 20
236.3232906159032
 30
0.0
 10
39.03886930768496
 20
236.2907547711312
 30
0.0
 10
39.03886930768496
 20
236.2559181072831
 30
0.0
 10
39.03886930768496
 20
236.2189335543384
 30
0.0
 10
39.03886930768496
 20
236.1798340561926
 30
0.0
 10
39.03886930768496
 20
236.1386034760345
 30
0.0
 10
39.03886930768496
 20
236.0953002851607
 30
0.0
 10
39.03886930768496
 20
236.0499011147319
 30
0.0
 10
39.03886930768496
 20
236.0182845886045
 30
0.0
 10
39.03886930768496
 20
236.0014714307458
 30
0.0
 10
39.03886930768496
 20
236.000816922042
 30
0.0
  0
LINE
  5
C6
330
1F
100
AcDbEntity
  8
0
  6
Continuous
 62
     7
370
    30
100
AcDbLine
 10
39.0388693077
 20
236.4999999963
 30
0.0
 11
40.0388693077
 21
236.4999999963
 31
0.0
  0
LINE
  5
C7
330
1F
100
AcDbEntity
  8
0
  6
Continuous
 62
     7
370
    30
100
AcDbLine
 10
40.0388693077
 20
236.4999999963
 30
0.0
 11
40.0388693077
 21
234.9999999963
 31
0.0
  0
SPLINE
  5
C8
330
1F
100
AcDbEntity
  8
0
  6
Continuous
 62
     7
370
    30
100
AcDbSpline
210
0.0
220
0.0
230
1.0
 70
    24
 71
     3
 72
    20
 73
    16
 74
     0
 42
0.000000001
 43
0.00000001
 40
0.0
 40
0.0
 40
0.0
 40
0.0
 40
0.0685382787648454
 40
0.1457984966983309
 40
0.2229593879404441
 40
0.3002699917632575
 40
0.3779779080500939
 40
0.4563269699963567
 40
0.534519197525743
 40
0.6121249102072236
 40
0.6893892529672846
 40
0.7665606240192354
 40
0.8438883175350965
 40
0.921620123673098
 40
1.0
 40
1.0
 40
1.0
 40
1.0
 10
39.03886930768496
 20
164.999173089479
 30
0.0
 10
39.03886930768496
 20
164.9775788695364
 30
0.0
 10
39.03886930768496
 20
164.9316424255267
 30
0.0
 10
39.03886930768496
 20
164.8673555705126
 30
0.0
 10
39.03886930768496
 20
164.8052723357941
 30
0.0
 10
39.03886930768496
 20
164.7485693973724
 30
0.0
 10
39.03886930768496
 20
164.6970997698589
 30
0.0
 10
39.03886930768496
 20
164.6511003923221
 30
0.0
 10
39.03886930768496
 20
164.6107911883363
 30
0.0
 10
39.03886930768496
 20
164.5765919135045
 30
0.0
 10
39.03886930768496
 20
164.5486226125791
 30
0.0
 10
39.03886930768496
 20
164.5268474026264
 30
0.0
 10
39.03886930768496
 20
164.5114132230342
 30
0.0
 10
39.03886930768496
 20
164.5017684257108
 30
0.0
 10
39.03886930768496
 20
164.5005911022277
 30
0.0
 10
39.03886930768496
 20
164.4999999967605
 30
0.0
  0
LINE
  5
C9
330
1F
100
AcDbEntity
  8
0
  6
Continuous
 62
     7
370
    30
100
AcDbLine
 10
28.4186050076
 20
237.8146225932
 30
0.0
 11
28.4179011616
 21
237.8101845413
 31
0.0
  0
SPLINE
  5
CA
330
1F
100
AcDbEntity
  8
0
  6
Continuous
 62
     7
370
    30
100
AcDbSpline
210
0.0
220
0.0
230
1.0
 70
     8
 71
     3
 72
    23
 73
    19
 74
     0
 42
0.000000001
 43
0.00000001
 40
0.0
 40
0.0
 40
0.0
 40
0.0
 40
0.0630980461635112
 40
0.1261956145216645
 40
0.1892928123993345
 40
0.2523897471232898
 40
0.315486526021642
 40
0.3774565290535801
 40
0.4394265869868251
 40
0.5013968015025493
 40
0.5633672742811551
 40
0.6266028221562109
 40
0.689838852845088
 40
0.7530754743756999
 40
0.8163127947729306
 40
0.8795509220580858
 40
0.9427899642483342
 40
1.0
 40
1.0
 40
1.0
 40
1.0
 10
161.5000000032643
 20
96.03886933069434
 30
0.0
 10
162.2642736213328
 20
96.03915706387508
 30
0.0
 10
163.7928150700637
 20
96.03973252805773
 30
0.0
 10
166.0856159621794
 20
96.04438719424819
 30
0.0
 10
168.3783955924736
 20
96.05181741655929
 30
0.0
 10
170.6711539600171
 20
96.06229540769783
 30
0.0
 10
172.9502438412356
 20
96.0756681406239
 30
0.0
 10
175.2156655801548
 20
96.09189314248952
 30
0.0
 10
177.4674196794377
 20
96.11090372008739
 30
0.0
 10
179.7191532687434
 20
96.1327990131457
 30
0.0
 10
181.9861842562837
 20
96.15774710224021
 30
0.0
 10
184.2685120985368
 20
96.18581763072196
 30
0.0
 10
186.5661361091939
 20
96.21707848235273
 30
0.0
 10
188.8637386582577
 20
96.2513478722031
 30
0.0
 10
191.1613202516062
 20
96.28860117498498
 30
0.0
 10
193.4588789976139
 20
96.32893028724915
 30
0.0
 10
195.6833961639728
 20
96.37062354733409
 30
0.0
 10
197.1420292464268
 20
96.4003888175357
 30
0.0
 10
197.8348402850966
 20
96.41452651125232
 30
0.0
  0
SPLINE
  5
CB
330
1F
100
AcDbEntity
  8
0
  6
Continuous
 62
     7
370
    30
100
AcDbSpline
210
0.0
220
0.0
230
1.0
 70
     8
 71
     3
 72
    23
 73
    19
 74
     0
 42
0.000000001
 43
0.00000001
 40
0.0
 40
0.0
 40
0.0
 40
0.0
 40
0.0570720577690737
 40
0.1201731270875394
 40
0.1832732850195828
 40
0.2463726388768701
 40
0.3094712959751693
 40
0.3714426171281315
 40
0.4334134713798373
 40
0.4953839604075407
 40
0.5573541858902931
 40
0.6205889435337058
 40
0.6838236406728218
 40
0.7470583853423902
 40
0.8102932855769157
 40
0.8735284494101063
 40
0.9367639848743183
 40
1.0
 40
1.0
 40
1.0
 40
1.0
 10
125.1651597157194
 20
96.41452619893413
 30
0.0
 10
125.8562998350223
 20
96.40042203438524
 30
0.0
 10
127.311591139365
 20
96.37072376127135
 30
0.0
 10
129.5310953963811
 20
96.32911460642478
 30
0.0
 10
131.8236411662983
 20
96.28885723613894
 30
0.0
 10
134.1162096840768
 20
96.25166230536833
 30
0.0
 10
136.3951528950303
 20
96.21764197117687
 30
0.0
 10
138.6604705903024
 20
96.18675873920212
 30
0.0
 10
140.9121620914726
 20
96.15894459687546
 30
0.0
 10
143.1638741097483
 20
96.1340152383143
 30
0.0
 10
145.43092447884
 20
96.11182013994892
 30
0.0
 10
147.7133138432257
 20
96.09242887347571
 30
0.0
 10
150.0110426678911
 20
96.0759096773813
 30
0.0
 10
152.3087928485618
 20
96.06239796454204
 30
0.0
 10
154.6065643841408
 20
96.05187410322094
 30
0.0
 10
156.9043572748958
 20
96.04441135109948
 30
0.0
 10
159.2021715207323
 20
96.03973630711344
 30
0.0
 10
160.7340552391242
 20
96.03915832356475
 30
0.0
 10
161.5000000032643
 20
96.03886933069434
 30
0.0
  0
LINE
  5
CC
330
1F
100
AcDbEntity
  8
0
  6
Continuous
 62
     7
370
    30
100
AcDbLine
 10
160.5000000033
 20
109.0388693077
 30
0.0
 11
160.5000000033
 21
108.0388693077
 31
0.0
  0
LINE
  5
CD
330
1F
100
AcDbEntity
  8
0
  6
Continuous
 62
     7
370
    30
100
AcDbLine
 10
162.5000000033
 20
108.0388693077
 30
0.0
 11
162.5000000033
 21
109.0388693077
 31
0.0
  0
SPLINE
  5
CE
330
1F
100
AcDbEntity
  8
0
  6
Continuous
 62
     7
370
    30
100
AcDbSpline
210
0.0
220
0.0
230
1.0
 70
     8
 71
     3
 72
    44
 73
    40
 74
     0
 42
0.000000001
 43
0.00000001
 40
0.0
 40
0.0
 40
0.0
 40
0.0
 40
0.0371376265452903
 40
0.0729472518587637
 40
0.1074284855996291
 40
0.1405815452523285
 40
0.1724069023645932
 40
0.2029050715263319
 40
0.2320764977760096
 40
0.2599215086587163
 40
0.2864403060521177
 40
0.3116329801175119
 40
0.3354995334320542
 40
0.358039907689968
 40
0.3817103041528628
 40
0.4037169212846614
 40
0.424059601016044
 40
0.4427403547849156
 40
0.4608093120602771
 40
0.4791412288718196
 40
0.5084784185431925
 40
0.5384650654992033
 40
0.5691012251910409
 40
0.6047024895475624
 40
0.6411425525144172
 40
0.6784216131349988
 40
0.7163377568151659
 40
0.7535797673684428
 40
0.7899128420614533
 40
0.8253381068535459
 40
0.8598566711223693
 40
0.8934695264559799
 40
0.905853342448104
 40
0.9182829153459354
 40
0.9308970526536656
 40
0.9437964500308209
 40
0.9615972202634522
 40
0.9802735460277394
 40
1.0
 40
1.0
 40
1.0
 40
1.0
 10
197.8350617632304
 20
96.41440196531447
 30
0.0
 10
197.8541476862463
 20
96.41511161447639
 30
0.0
 10
197.8916370403788
 20
96.41650553651613
 30
0.0
 10
197.9465867546805
 20
96.42250945931177
 30
0.0
 10
197.9991184457689
 20
96.43094001625454
 30
0.0
 10
198.0491292835476
 20
96.44172801621812
 30
0.0
 10
198.0965562534023
 20
96.45446722142711
 30
0.0
 10
198.1413634217962
 20
96.46885229983286
 30
0.0
 10
198.1835406644254
 20
96.48457064279695
 30
0.0
 10
198.2230996918633
 20
96.50133146174305
 30
0.0
 10
198.2600709824524
 20
96.51885972368461
 30
0.0
 10
198.2945006861502
 20
96.5368984136598
 30
0.0
 10
198.326447890184
 20
96.55520838094925
 30
0.0
 10
198.3570544483527
 20
96.57423508340673
 30
0.0
 10
198.386171730478
 20
96.59380607269779
 30
0.0
 10
198.4136667689789
 20
96.61372513957257
 30
0.0
 10
198.4384697377127
 20
96.63295700563494
 30
0.0
 10
198.4611213104067
 20
96.65163617727727
 30
0.0
 10
198.4824570202323
 20
96.67026822073241
 30
0.0
 10
198.5072877092733
 20
96.69320896310268
 30
0.0
 10
198.5356135935632
 20
96.72137258484521
 30
0.0
 10
198.5669042739451
 20
96.75546090484839
 30
0.0
 10
198.5986371042359
 20
96.79344310130497
 30
0.0
 10
198.6303927580221
 20
96.83565001573163
 30
0.0
 10
198.661658580165
 20
96.8823910189883
 30
0.0
 10
198.6908251865416
 20
96.93185576188509
 30
0.0
 10
198.7172643493473
 20
96.98329099627036
 30
0.0
 10
198.7404829395361
 20
97.03573007544946
 30
0.0
 10
198.7602360940523
 20
97.0882055188499
 30
0.0
 10
198.7766314286227
 20
97.14035925867783
 30
0.0
 10
198.7898382153376
 20
97.19196948981663
 30
0.0
 10
198.7979788740876
 20
97.2325762738047
 30
0.0
 10
198.8028349670088
 20
97.26223473856629
 30
0.0
 10
198.8055753614724
 20
97.28125537320547
 30
0.0
 10
198.8079522825054
 20
97.30035672781186
 30
0.0
 10
198.8102024951795
 20
97.32179642177405
 30
0.0
 10
198.8121394739963
 20
97.34553773142578
 30
0.0
 10
198.8136203830128
 20
97.37151970966491
 30
0.0
 10
198.8140303088626
 20
97.38817876509987
 30
0.0
 10
198.814240876521
 20
97.3967360646629
 30
0.0
  0
SPLINE
  5
CF
330
1F
100
AcDbEntity
  8
0
  6
Continuous
 62
     7
370
    30
100
AcDbSpline
210
0.0
220
0.0
230
1.0
 70
     8
 71
     3
 72
    52
 73
    48
 74
     0
 42
0.000000001
 43
0.00000001
 40
0.0
 40
0.0
 40
0.0
 40
0.0
 40
0.0123047737714299
 40
0.0230332006355202
 40
0.0322724758860426
 40
0.0383069993706035
 40
0.0436664894381972
 40
0.0503945589200414
 40
0.0566554797710644
 40
0.0630956232399563
 40
0.069746678168207
 40
0.0766086360613042
 40
0.0836814885037156
 40
0.090965227343823
 40
0.1124806737509934
 40
0.1356490596261401
 40
0.1604702889938295
 40
0.1869443624773172
 40
0.222777609228221
 40
0.2573860761779948
 40
0.290770001513915
 40
0.3229296836257084
 40
0.3538652256821288
 40
0.3835765766110463
 40
0.4028556571934914
 40
0.4215817783819374
 40
0.4411873165199589
 40
0.4630643750109801
 40
0.48721291908206
 40
0.5077807491879366
 40
0.5297508057396789
 40
0.5531229521183476
 40
0.5778970108009286
 40
0.604072771789936
 40
0.6301525982012887
 40
0.6574890499463205
 40
0.6860819861536576
 40
0.7159313405199724
 40
0.747037161300914
 40
0.7793996491544292
 40
0.8081402727358852
 40
0.8378048649324248
 40
0.8683938443379451
 40
0.8999076462356919
 40
0.9323466215456623
 40
0.9657108720265499
 40
0.9999999999999999
 40
0.9999999999999999
 40
0.9999999999999999
 40
0.9999999999999999
 10
124.185759130033
 20
97.39673606461169
 30
0.0
 10
124.1858390971935
 20
97.39285554449289
 30
0.0
 10
124.1859887870363
 20
97.38559163211816
 30
0.0
 10
124.1863853562977
 20
97.37424770061304
 30
0.0
 10
124.1868423305288
 20
97.36419056502434
 30
0.0
 10
124.1873276123431
 20
97.35538960137202
 30
0.0
 10
124.1878515316424
 20
97.34703763694087
 30
0.0
 10
124.1885156834886
 20
97.33775529423332
 30
0.0
 10
124.1893391483617
 20
97.32769565609313
 30
0.0
 10
124.1902529231079
 20
97.31774353780129
 30
0.0
 10
124.1913008338924
 20
97.30747587592282
 30
0.0
 10
124.1924926994896
 20
97.2968992081898
 30
0.0
 10
124.1938392688136
 20
97.28601008120813
 30
0.0
 10
124.1963209074388
 20
97.26762821792798
 30
0.0
 10
124.2005118880766
 20
97.24108033891451
 30
0.0
 10
124.2073468323439
 20
97.20578950077326
 30
0.0
 10
124.2160748265134
 20
97.16827872594618
 30
0.0
 10
124.2280288121862
 20
97.12482965138445
 30
0.0
 10
124.2436538521816
 20
97.07718701273852
 30
0.0
 10
124.2631583434538
 20
97.02714308336022
 30
0.0
 10
124.2844929859441
 20
96.97993100009732
 30
0.0
 10
124.3073297307706
 20
96.9355553594608
 30
0.0
 10
124.3313573180788
 20
96.89399579396618
 30
0.0
 10
124.3537085067549
 20
96.85921606998262
 30
0.0
 10
124.3737445970938
 20
96.83049557506459
 30
0.0
 10
124.391502029066
 20
96.80657312618212
 30
0.0
 10
124.4107939734956
 20
96.78213299677438
 30
0.0
 10
124.4326684770874
 20
96.75617924255997
 30
0.0
 10
124.4557884610956
 20
96.73065039460852
 30
0.0
 10
124.4798090683452
 20
96.70590388089553
 30
0.0
 10
124.5043426213099
 20
96.68223895087102
 30
0.0
 10
124.5313092631977
 20
96.65799398177086
 30
0.0
 10
124.5608314198056
 20
96.63337643736814
 30
0.0
 10
124.5924120519615
 20
96.60908721109358
 30
0.0
 10
124.626031200667
 20
96.5853303695018
 30
0.0
 10
124.6616550791049
 20
96.56230487562094
 30
0.0
 10
124.6999257866473
 20
96.53985729677399
 30
0.0
 10
124.7408998599494
 20
96.51825630600786
 30
0.0
 10
124.7846162014646
 20
96.49778899154798
 30
0.0
 10
124.8287587737251
 20
96.47971592945352
 30
0.0
 10
124.8730015852169
 20
96.46400883511141
 30
0.0
 10
124.9170353892335
 20
96.4505911420265
 30
0.0
 10
124.9630401939152
 20
96.43889938342213
 30
0.0
 10
125.010962897812
 20
96.42914240750817
 30
0.0
 10
125.060732146826
 20
96.42161263303036
 30
0.0
 10
125.1122488915896
 20
96.41629940395502
 30
0.0
 10
125.1472157842715
 20
96.41504018291504
 30
0.0
 10
125.1649382437465
 20
96.41440196509986
 30
0.0
  0
LINE
  5
D0
330
1F
100
AcDbEntity
  8
0
  6
Continuous
 62
     7
370
    30
100
AcDbLine
 10
127.0000000033
 20
108.0388693077
 30
0.0
 11
127.0000000033
 21
109.0388693077
 31
0.0
  0
LINE
  5
D1
330
1F
100
AcDbEntity
  8
0
  6
Continuous
 62
     7
370
    30
100
AcDbLine
 10
196.0000000033
 20
109.0388693077
 30
0.0
 11
196.0000000033
 21
108.0388693077
 31
0.0
  0
LINE
  5
D2
330
1F
100
AcDbEntity
  8
0
  6
Continuous
 62
     7
370
    30
100
AcDbLine
 10
198.8144984095
 20
97.4125431343
 30
0.0
 11
198.8143673649
 21
97.4140722127
 31
0.0
  0
LINE
  5
D3
330
1F
100
AcDbEntity
  8
0
  6
Continuous
 62
     7
370
    30
100
AcDbLine
 10
124.1853774066
 20
97.4186049824
 30
0.0
 11
124.0000000032
 21
108.0388693077
 31
0.0
  0
SPLINE
  5
D4
330
1F
100
AcDbEntity
  8
0
  6
Continuous
 62
     7
370
    30
100
AcDbSpline
210
0.0
220
0.0
230
1.0
 70
     8
 71
     3
 72
    25
 73
    21
 74
     0
 42
0.000000001
 43
0.00000001
 40
0.0
 40
0.0
 40
0.0
 40
0.0
 40
0.0437651042559967
 40
0.087150029024314
 40
0.1301548481300988
 40
0.1727796375098241
 40
0.2150244752856472
 40
0.2568894418431165
 40
0.2983746199123784
 40
0.3394800946531025
 40
0.3802059537433131
 40
0.420552287472337
 40
0.4605191888381279
 40
0.5001067536491703
 40
0.5796225015124068
 40
0.6606573457133968
 40
0.7432119337445355
 40
0.8272868695614706
 40
0.9128827165099413
 40
1.0
 40
1.0
 40
1.0
 40
1.0
 10
125.9996953937001
 20
108.0388693076832
 30
0.0
 10
125.9538825165545
 20
108.0388680155088
 30
0.0
 10
125.8626547303809
 20
108.0388654423849
 30
0.0
 10
125.7270507337561
 20
108.0388509114678
 30
0.0
 10
125.5938850686994
 20
108.0388354490018
 30
0.0
 10
125.4637235255162
 20
108.0388217510171
 30
0.0
 10
125.3370923757755
 20
108.0388127973178
 30
0.0
 10
125.2144773710143
 20
108.0388099797754
 30
0.0
 10
125.0963229522498
 20
108.0388136652414
 30
0.0
 10
124.9830319812549
 20
108.0388231198477
 30
0.0
 10
124.8749651191851
 20
108.0388366079249
 30
0.0
 10
124.772442882221
 20
108.0388514437367
 30
0.0
 10
124.6757391518656
 20
108.0388640755662
 30
0.0
 10
124.5543473979157
 20
108.0388721450022
 30
0.0
 10
124.4153588186529
 20
108.038852622704
 30
0.0
 10
124.2720266562851
 20
108.0388212342186
 30
0.0
 10
124.1545585492879
 20
108.0388070948516
 30
0.0
 10
124.0674635037036
 20
108.0388190092394
 30
0.0
 10
124.0107538911699
 20
108.0388543618819
 30
0.0
 10
124.003605622338
 20
108.0388642965786
 30
0.0
 10
124.0000000032359
 20
108.0388693076845
 30
0.0
  0
LINE
  5
D5
330
1F
100
AcDbEntity
  8
0
  6
Continuous
 62
     7
370
    30
100
AcDbLine
 10
199.0000000033
 20
108.0388693077
 30
0.0
 11
198.8146226941
 21
97.4186103764
 31
0.0
  0
SPLINE
  5
D6
330
1F
100
AcDbEntity
  8
0
  6
Continuous
 62
     7
370
    30
100
AcDbSpline
210
0.0
220
0.0
230
1.0
 70
     8
 71
     3
 72
    25
 73
    21
 74
     0
 42
0.000000001
 43
0.00000001
 40
0.0
 40
0.0
 40
0.0
 40
0.0
 40
0.0437724109811291
 40
0.087164148457889
 40
0.1301752862711632
 40
0.1728059003764066
 40
0.2150560689182145
 40
0.2569258723082393
 40
0.2984153933066274
 40
0.3395247171071836
 40
0.3802539314264529
 40
0.4206031265969684
 40
0.4605723956648289
 40
0.5001618344919623
 40
0.579673335195418
 40
0.6607019591457552
 40
0.7432483537009611
 40
0.8273131227634424
 40
0.9128968296982978
 40
1.0
 40
1.0
 40
1.0
 40
1.0
 10
199.0000000032477
 20
108.0388693076859
 30
0.0
 10
198.99909125288
 20
108.0388680169842
 30
0.0
 10
198.9972816552317
 20
108.0388654468057
 30
0.0
 10
198.9827630683686
 20
108.038850938592
 30
0.0
 10
198.9599557250745
 20
108.0388355094854
 30
0.0
 10
198.9283573015842
 20
108.038821853295
 30
0.0
 10
198.8885654910344
 20
108.0388129447875
 30
0.0
 10
198.8409228355472
 20
108.0388101703366
 30
0.0
 10
198.7858700784488
 20
108.0388138904329
 30
0.0
 10
198.7238480860973
 20
108.0388233640515
 30
0.0
 10
198.6553185083624
 20
108.0388368485001
 30
0.0
 10
198.5807559155229
 20
108.0388516482021
 30
0.0
 10
198.5006376872021
 20
108.0388642102863
 30
0.0
 10
198.3865717892892
 20
108.0388720950394
 30
0.0
 10
198.229062368065
 20
108.0388523897839
 30
0.0
 10
198.0180635229879
 20
108.0388209802575
 30
0.0
 10
197.7861314714854
 20
108.0388069001025
 30
0.0
 10
197.5363401306662
 20
108.0388189085395
 30
0.0
 10
197.2724098518521
 20
108.0388543438529
 30
0.0
 10
197.0915368568654
 20
108.0388642905677
 30
0.0
 10
197.0003046130643
 20
108.0388693076854
 30
0.0
  0
LINE
  5
D7
330
1F
100
AcDbEntity
  8
0
  6
Continuous
 62
     7
370
    30
100
AcDbLine
 10
125.9996953938
 20
108.0388693077
 30
0.0
 11
197.0003046132
 21
108.0388693077
 31
0.0
  0
LINE
  5
D8
330
1F
100
AcDbEntity
  8
0
  6
Continuous
 62
     7
370
    30
100
AcDbLine
 10
162.366025407
 20
108.0388693077
 30
0.0
 11
162.366025407
 21
109.0388693077
 31
0.0
  0
LINE
  5
D9
330
1F
100
AcDbEntity
  8
0
  6
Continuous
 62
     7
370
    30
100
AcDbLine
 10
162.366025407
 20
109.0388693077
 30
0.0
 11
162.5000000033
 21
109.0388693077
 31
0.0
  0
LINE
  5
DA
330
1F
100
AcDbEntity
  8
0
  6
Continuous
 62
     7
370
    30
100
AcDbLine
 10
160.5000000033
 20
109.0388693077
 30
0.0
 11
160.6339745995
 21
109.0388693077
 31
0.0
  0
LINE
  5
DB
330
1F
100
AcDbEntity
  8
0
  6
Continuous
 62
     7
370
    30
100
AcDbLine
 10
160.6339745995
 20
108.0388693077
 30
0.0
 11
160.6339745995
 21
109.0388693077
 31
0.0
  0
LINE
  5
DC
330
1F
100
AcDbEntity
  8
0
  6
Continuous
 62
     7
370
    30
100
AcDbLine
 10
162.366025407
 20
109.0388693077
 30
0.0
 11
160.6339745995
 21
109.0388693077
 31
0.0
  0
SPLINE
  5
DD
330
1F
100
AcDbEntity
  8
0
  6
Continuous
 62
     7
370
    30
100
AcDbSpline
210
0.0
220
0.0
230
1.0
 70
    24
 71
     3
 72
    24
 73
    20
 74
     0
 42
0.000000001
 43
0.00000001
 40
0.0
 40
0.0
 40
0.0
 40
0.0
 40
0.1202879958883456
 40
0.3673738328912932
 40
0.614459266572704
 40
0.6455213944507686
 40
0.6765835115869467
 40
0.7076456175222989
 40
0.7387077118040435
 40
0.7697697939857806
 40
0.8008247878210681
 40
0.8318270953798521
 40
0.8561177627613247
 40
0.8803302009446118
 40
0.9044535438473096
 40
0.9284818185479794
 40
0.952413473779587
 40
0.9762509084229226
 40
1.0
 40
1.0
 40
1.0
 40
1.0
 10
198.8142481729593
 20
97.39715407711857
 30
0.0
 10
198.8142464487114
 20
97.39705529517362
 30
0.0
 10
198.8142411826535
 20
97.39675360337577
 30
0.0
 10
198.8142865477792
 20
97.39935256847875
 30
0.0
 10
198.8143498640665
 20
97.40297995504581
 30
0.0
 10
198.8143993933022
 20
97.40581748280641
 30
0.0
 10
198.8144150400412
 20
97.40671388384929
 30
0.0
 10
198.8144314366078
 20
97.40765324251896
 30
0.0
 10
198.8144485767494
 20
97.40863520061592
 30
0.0
 10
198.8144664625914
 20
97.40965987991136
 30
0.0
 10
198.8144850842472
 20
97.41072671399266
 30
0.0
 10
198.8145030456007
 20
97.4117557195222
 30
0.0
 10
198.8145201560993
 20
97.41273597968421
 30
0.0
 10
198.814536247113
 20
97.4136578335871
 30
0.0
 10
198.8145527406878
 20
97.41460275014383
 30
0.0
 10
198.8145696260934
 20
97.41557011455714
 30
0.0
 10
198.8145869081482
 20
97.41656020285178
 30
0.0
 10
198.8146045419559
 20
97.41757044290614
 30
0.0
 10
198.8146166508548
 20
97.4182641611816
 30
0.0
 10
198.8146226940643
 20
97.41861037638496
 30
0.0
  0
SPLINE
  5
DE
330
1F
100
AcDbEntity
  8
0
  6
Continuous
 62
     7
370
    30
100
AcDbSpline
210
0.0
220
0.0
230
1.0
 70
    24
 71
     3
 72
    11
 73
     7
 74
     0
 42
0.000000001
 43
0.00000001
 40
0.0
 40
0.0
 40
0.0
 40
0.0
 40
0.2800104479247741
 40
0.560021885028606
 40
0.8400339286141326
 40
1.0
 40
1.0
 40
1.0
 40
1.0
 10
124.1853774062643
 20
97.41860500298496
 30
0.0
 10
124.1854434376517
 20
97.41482206743152
 30
0.0
 10
124.1855755006598
 20
97.40725618296081
 30
0.0
 10
124.1856934567185
 20
97.40049848568991
 30
0.0
 10
124.1857557675761
 20
97.39692869933276
 30
0.0
 10
124.1857528815975
 20
97.39709403714585
 30
0.0
 10
124.1857518323211
 20
97.39715415022764
 30
0.0
  0
SPLINE
  5
DF
330
1F
100
AcDbEntity
  8
0
  6
Continuous
 62
     7
370
    30
100
AcDbSpline
210
0.0
220
0.0
230
1.0
 70
    24
 71
     3
 72
    27
 73
    23
 74
     0
 42
0.000000001
 43
0.00000001
 40
0.0
 40
0.0
 40
0.0
 40
0.0
 40
0.0526737488706265
 40
0.105094016390879
 40
0.15742065539801
 40
0.2098143757158885
 40
0.2624352725515713
 40
0.315441382717413
 40
0.3680770345918428
 40
0.4204361837074064
 40
0.4726779694005878
 40
0.5249626026800435
 40
0.5774499021949674
 40
0.6302978479641116
 40
0.6828354961208117
 40
0.7351294402922491
 40
0.7873390686303543
 40
0.8396245403833129
 40
0.8921453209628634
 40
0.945058748369995
 40
0.9978611881296864
 40
1.0
 40
1.0
 40
1.0
 40
1.0
 10
125.5000000032643
 20
108.038869307685
 30
0.0
 10
125.5002872744264
 20
108.038869307685
 30
0.0
 10
125.5008604343184
 20
108.038869307685
 30
0.0
 10
125.5055363424373
 20
108.038869307685
 30
0.0
 10
125.5130127795822
 20
108.038869307685
 30
0.0
 10
125.5235587514286
 20
108.038869307685
 30
0.0
 10
125.5371041009141
 20
108.038869307685
 30
0.0
 10
125.5535629841488
 20
108.038869307685
 30
0.0
 10
125.5727917724941
 20
108.038869307685
 30
0.0
 10
125.5947309746375
 20
108.038869307685
 30
0.0
 10
125.6193628252107
 20
108.038869307685
 30
0.0
 10
125.6466887600068
 20
108.038869307685
 30
0.0
 10
125.6767093140708
 20
108.038869307685
 30
0.0
 10
125.7092451582248
 20
108.038869307685
 30
0.0
 10
125.7440818227307
 20
108.038869307685
 30
0.0
 10
125.7810663776609
 20
108.038869307685
 30
0.0
 10
125.8201658786964
 20
108.038869307685
 30
0.0
 10
125.8613964626338
 20
108.038869307685
 30
0.0
 10
125.904699658225
 20
108.038869307685
 30
0.0
 10
125.9500988345135
 20
108.038869307685
 30
0.0
 10
125.9817153775975
 20
108.038869307685
 30
0.0
 10
125.9985285509676
 20
108.038869307685
 30
0.0
 10
125.9991830721828
 20
108.038869307685
 30
0.0
  0
SPLINE
  5
E0
330
1F
100
AcDbEntity
  8
0
  6
Continuous
 62
     7
370
    30
100
AcDbSpline
210
0.0
220
0.0
230
1.0
 70
    24
 71
     3
 72
    27
 73
    23
 74
     0
 42
0.000000001
 43
0.00000001
 40
0.0
 40
0.0
 40
0.0
 40
0.0
 40
0.0019742862245546
 40
0.0549193622222248
 40
0.1075432509358811
 40
0.1598895273304419
 40
0.2121171115826744
 40
0.2643860065077496
 40
0.3168558370008162
 40
0.3696844065694874
 40
0.4222427035041486
 40
0.4745554279869547
 40
0.5267821498927199
 40
0.579083226280251
 40
0.631618333338601
 40
0.684545029136051
 40
0.7374099251263115
 40
0.7899450410915387
 40
0.8423102681991433
 40
0.8946670540984983
 40
0.9471769242994686
 40
1.0
 40
1.0
 40
1.0
 40
1.0
 10
197.0008169347458
 20
108.038869307685
 30
0.0
 10
197.0014212087513
 20
108.038869307685
 30
0.0
 10
197.0182304953576
 20
108.038869307685
 30
0.0
 10
197.0497760932067
 20
108.038869307685
 30
0.0
 10
197.0951096617778
 20
108.038869307685
 30
0.0
 10
197.1382754551132
 20
108.038869307685
 30
0.0
 10
197.179459169205
 20
108.038869307685
 30
0.0
 10
197.2186016753091
 20
108.038869307685
 30
0.0
 10
197.2557156589936
 20
108.038869307685
 30
0.0
 10
197.2906304585868
 20
108.038869307685
 30
0.0
 10
197.3231717417788
 20
108.038869307685
 30
0.0
 10
197.3531000893786
 20
108.038869307685
 30
0.0
 10
197.3803946247793
 20
108.038869307685
 30
0.0
 10
197.4050529180678
 20
108.038869307685
 30
0.0
 10
197.4270736031157
 20
108.038869307685
 30
0.0
 10
197.4463877533472
 20
108.038869307685
 30
0.0
 10
197.4629057631153
 20
108.038869307685
 30
0.0
 10
197.4764472964563
 20
108.038869307685
 30
0.0
 10
197.4869923838456
 20
108.038869307685
 30
0.0
 10
197.494467174291
 20
108.038869307685
 30
0.0
 10
197.4991409503115
 20
108.038869307685
 30
0.0
 10
197.4997130852026
 20
108.038869307685
 30
0.0
 10
197.5000000032643
 20
108.038869307685
 30
0.0
  0
LINE
  5
E1
330
1F
100
AcDbEntity
  8
0
  6
Continuous
 62
     7
370
    30
100
AcDbLine
 10
125.5000000033
 20
109.0388693077
 30
0.0
 11
125.5000000033
 21
108.0388693077
 31
0.0
  0
LINE
  5
E2
330
1F
100
AcDbEntity
  8
0
  6
Continuous
 62
     7
370
    30
100
AcDbLine
 10
125.5000000033
 20
109.0388693077
 30
0.0
 11
127.0000000033
 21
109.0388693077
 31
0.0
  0
LINE
  5
E3
330
1F
100
AcDbEntity
  8
0
  6
Continuous
 62
     7
370
    30
100
AcDbLine
 10
196.0000000033
 20
109.0388693077
 30
0.0
 11
197.5000000033
 21
109.0388693077
 31
0.0
  0
LINE
  5
E4
330
1F
100
AcDbEntity
  8
0
  6
Continuous
 62
     7
370
    30
100
AcDbLine
 10
197.5000000033
 20
109.0388693077
 30
0.0
 11
197.5000000033
 21
108.0388693077
 31
0.0
  0
LINE
  5
E5
330
1F
100
AcDbEntity
  8
0
  6
Continuous
 62
     7
370
    30
100
AcDbLine
 10
198.8124127443
 20
97.4182545499
 30
0.0
 11
198.8146226005
 21
97.4186050191
 31
0.0
  0
LINE
  5
E6
330
1F
100
AcDbEntity
  8
0
  6
Continuous
 62
     7
370
    30
100
AcDbLine
 10
124.1853774059
 20
97.4186050278
 30
0.0
 11
124.1875865221
 21
97.418254676
 31
0.0
  0
SPLINE
  5
E7
330
1F
100
AcDbEntity
  8
0
  6
Continuous
 62
     7
370
    30
100
AcDbSpline
210
0.0
220
0.0
230
1.0
 70
     8
 71
     3
 72
    93
 73
    89
 74
     0
 42
0.000000001
 43
0.00000001
 40
0.0
 40
0.0
 40
0.0
 40
0.0
 40
0.0150157099756583
 40
0.0282945179807734
 40
0.0387294576420077
 40
0.0463583730245582
 40
0.0532707130825636
 40
0.0605519421540103
 40
0.072740109494248
 40
0.0842747450321476
 40
0.0938255198625288
 40
0.1015074772263111
 40
0.1112688516506852
 40
0.1226081620886711
 40
0.1326875458883641
 40
0.1414851382285302
 40
0.1514035222713827
 40
0.1610541043465074
 40
0.1717509665060292
 40
0.1812652390633676
 40
0.1888851769731951
 40
0.1935426337601082
 40
0.1985775150740339
 40
0.2052396315092704
 40
0.2135344762898804
 40
0.2232290300125215
 40
0.2307431014608605
 40
0.2362419616317649
 40
0.2416412336059737
 40
0.2474719612524926
 40
0.2537355371066363
 40
0.2601936525010166
 40
0.2680205897140583
 40
0.2772284945797353
 40
0.2877778017340435
 40
0.2975279141671516
 40
0.3053038218928449
 40
0.3121851575041972
 40
0.318795472531697
 40
0.3256579413524114
 40
0.3329210985839943
 40
0.3474006082715691
 40
0.3618035414509739
 40
0.3755063572859774
 40
0.3899486117767458
 40
0.4179055345463278
 40
0.4456164471843201
 40
0.4726880202089268
 40
0.500781451337196
 40
0.5193996292107822
 40
0.5375185769098624
 40
0.5555554243787488
 40
0.573675302818964
 40
0.5920755309649689
 40
0.6113822100508978
 40
0.6293800259291528
 40
0.6447759126658384
 40
0.6535596974631834
 40
0.6622989596538094
 40
0.6709955004278658
 40
0.6797880018224323
 40
0.6889671058036365
 40
0.6998805595844034
 40
0.718350987821474
 40
0.7365117290216248
 40
0.7536106236259059
 40
0.7656284598985054
 40
0.7764895817013799
 40
0.7871174963390266
 40
0.7984025138049217
 40
0.8122429631552786
 40
0.827629194526525
 40
0.8424833588332308
 40
0.8554121018963178
 40
0.8655493228130309
 40
0.8752799220327264
 40
0.8852498576877599
 40
0.8946147238135617
 40
0.9054761558792651
 40
0.9175719717461851
 40
0.9299090025100506
 40
0.9413791727690132
 40
0.9504210284730809
 40
0.9714192237070253
 40
0.9755193420112902
 40
0.9813759461559475
 40
0.9895359209969136
 40
1.0
 40
1.0
 40
1.0
 40
1.0
 10
285.8920405094962
 20
28.49822242383604
 30
0.0
 10
285.898743318292
 20
28.49438929756316
 30
0.0
 10
285.9113736064569
 20
28.48716643161633
 30
0.0
 10
285.9287534798511
 20
28.47757446796741
 30
0.0
 10
285.9428664404677
 20
28.46994235351487
 30
0.0
 10
285.9541740825197
 20
28.46393721006386
 30
0.0
 10
285.9640977486918
 20
28.45874170242423
 30
0.0
 10
285.9761239319539
 20
28.45253455967103
 30
0.0
 10
285.9903092284283
 20
28.44535646640629
 30
0.0
 10
286.0055846987904
 20
28.43781467948065
 30
0.0
 10
286.018832524774
 20
28.43141830520395
 30
0.0
 10
286.0313160925321
 20
28.42550193644542
 30
0.0
 10
286.044679234547
 20
28.41928893654287
 30
0.0
 10
286.0591949755142
 20
28.41269775140997
 30
0.0
 10
286.073307178982
 20
28.40644497230706
 30
0.0
 10
286.0868092086009
 20
28.40059324058591
 30
0.0
 10
286.1001632316992
 20
28.3949337699119
 30
0.0
 10
286.1144503445982
 20
28.38902203800066
 30
0.0
 10
286.1285807002203
 20
28.38332207906515
 30
0.0
 10
286.1417760715482
 20
28.3781352426507
 30
0.0
 10
286.1521307959513
 20
28.37415528101499
 30
0.0
 10
286.1603780915291
 20
28.37103683218188
 30
0.0
 10
286.168197194984
 20
28.36811886685687
 30
0.0
 10
286.1777738852628
 20
28.36460207570469
 30
0.0
 10
286.1896021396641
 20
28.36034850042342
 30
0.0
 10
286.2018576876765
 20
28.35605331751889
 30
0.0
 10
286.2127882614338
 20
28.35231791551364
 30
0.0
 10
286.2216789528414
 20
28.349338326412
 30
0.0
 10
286.2297753304829
 20
28.34666975713277
 30
0.0
 10
286.23825515823
 20
28.34392316835639
 30
0.0
 10
286.2472601165522
 20
28.34106176939302
 30
0.0
 10
286.2572546184852
 20
28.33795044487399
 30
0.0
 10
286.2687114775908
 20
28.33446697480102
 30
0.0
 10
286.2821872615514
 20
28.3304862358542
 30
0.0
 10
286.2966234582793
 20
28.32636643672574
 30
0.0
 10
286.3103814831183
 20
28.32258180620525
 30
0.0
 10
286.322351218935
 20
28.31939511573941
 30
0.0
 10
286.3328469936275
 20
28.31667913152921
 30
0.0
 10
286.3426939593481
 20
28.31419846074062
 30
0.0
 10
286.3523312935889
 20
28.31183532409306
 30
0.0
 10
286.366009229752
 20
28.30857153999668
 30
0.0
 10
286.3850956630607
 20
28.30422390513401
 30
0.0
 10
286.4061684657053
 20
28.29975724266174
 30
0.0
 10
286.4274280305993
 20
28.29554470669411
 30
0.0
 10
286.4554845636404
 20
28.29039215027655
 30
0.0
 10
286.4906978320773
 20
28.28468506734393
 30
0.0
 10
286.5324255811175
 20
28.27911429420924
 30
0.0
 10
286.5743741569251
 20
28.27469806677564
 30
0.0
 10
286.6118279059863
 20
28.27182599962952
 30
0.0
 10
286.6447986619808
 20
28.27010191283859
 30
0.0
 10
286.6726820407886
 20
28.26918133922419
 30
0.0
 10
286.7003326768107
 20
28.26879590771167
 30
0.0
 10
286.7281363453673
 20
28.26894196695934
 30
0.0
 10
286.756587765554
 20
28.26964656911012
 30
0.0
 10
286.7849656804124
 20
28.27092520807852
 30
0.0
 10
286.8117875506359
 20
28.2726764530906
 30
0.0
 10
286.8332334852551
 20
28.27446826287447
 30
0.0
 10
286.849954477798
 20
28.27608796910903
 30
0.0
 10
286.8632620243047
 20
28.27750603676427
 30
0.0
 10
286.876561728965
 20
28.27905213914868
 30
0.0
 10
286.8900714834941
 20
28.28075457145467
 30
0.0
 10
286.9046879171869
 20
28.28274381967044
 30
0.0
 10
286.9241762058107
 20
28.28561695817879
 30
0.0
 10
286.9481433027312
 20
28.28955023387551
 30
0.0
 10
286.9751436820051
 20
28.29454871207385
 30
0.0
 10
286.9988134559524
 20
28.29941495209427
 30
0.0
 10
287.018763218014
 20
28.30385714552166
 30
0.0
 10
287.0354386781278
 20
28.30779607549475
 30
0.0
 10
287.0517047971318
 20
28.31184681900363
 30
0.0
 10
287.0694049202758
 20
28.316488050754
 30
0.0
 10
287.0893713019341
 20
28.322027981449
 30
0.0
 10
287.1110052188345
 20
28.32841824580681
 30
0.0
 10
287.1320864963949
 20
28.33504122989918
 30
0.0
 10
287.1505094588878
 20
28.34115082997734
 30
0.0
 10
287.1663765356054
 20
28.34664548795163
 30
0.0
 10
287.1807564157039
 20
28.35180855579514
 30
0.0
 10
287.1947080866602
 20
28.35699594474039
 30
0.0
 10
287.2091447055573
 20
28.36254619134946
 30
0.0
 10
287.2245287803635
 20
28.36866615426939
 30
0.0
 10
287.2412403485376
 20
28.37557028170334
 30
0.0
 10
287.2581410950885
 20
28.38283155670092
 30
0.0
 10
287.2735134229678
 20
28.38968659755585
 30
0.0
 10
287.2928367847445
 20
28.3985779825626
 30
0.0
 10
287.3086036499058
 20
28.40616576887432
 30
0.0
 10
287.3228043142382
 20
28.41325360689685
 30
0.0
 10
287.3310890542757
 20
28.4174498477284
 30
0.0
 10
287.3422409399678
 20
28.42320115555613
 30
0.0
 10
287.3506616875588
 20
28.42769374753644
 30
0.0
 10
287.3553929543816
 20
28.43021794757389
 30
0.0
  0
SPLINE
  5
E8
330
1F
100
AcDbEntity
  8
0
  6
Continuous
 62
     7
370
    30
100
AcDbSpline
210
0.0
220
0.0
230
1.0
 70
     8
 71
     3
 72
    80
 73
    76
 74
     0
 42
0.000000001
 43
0.00000001
 40
0.0
 40
0.0
 40
0.0
 40
0.0
 40
0.0118514112088591
 40
0.0206461478289458
 40
0.0264089469914903
 40
0.0310291679543527
 40
0.0459318188154172
 40
0.0528801199606847
 40
0.0609594511656093
 40
0.0705622771042422
 40
0.0807481089486175
 40
0.0952390995684654
 40
0.108106038247548
 40
0.1188996204931843
 40
0.1287913657604647
 40
0.1386268505025748
 40
0.1474771894599334
 40
0.1584262938958877
 40
0.1704979721824257
 40
0.1827467123238755
 40
0.1945877842995382
 40
0.2048515845390308
 40
0.2182823440527614
 40
0.2314811841534407
 40
0.2457811394950084
 40
0.290257980783289
 40
0.3318298612937856
 40
0.3678241756555807
 40
0.4109544362795056
 40
0.4541277983192979
 40
0.4978635909587769
 40
0.5223676208691227
 40
0.5452813067226882
 40
0.5685183485469221
 40
0.5918855610780795
 40
0.6133855729222157
 40
0.6344698276702445
 40
0.646720391134411
 40
0.6591066545687038
 40
0.670221266285191
 40
0.6798663676874459
 40
0.6889003720041652
 40
0.6969480427197611
 40
0.707530168883604
 40
0.7203290302665726
 40
0.7321875661635742
 40
0.7422864908060828
 40
0.7500917050752672
 40
0.7572904974322089
 40
0.7639605000908524
 40
0.7712634821767881
 40
0.7806247031984359
 40
0.7892205418218766
 40
0.7967808163825204
 40
0.8027486560461672
 40
0.8073374156935476
 40
0.8126126575021009
 40
0.8211000184718354
 40
0.8315411110806303
 40
0.8420943684471567
 40
0.8513929428804988
 40
0.8594433310574899
 40
0.8668854300512238
 40
0.87504956440496
 40
0.8876409806819401
 40
0.9006767518743477
 40
0.91389381620282
 40
0.92567186470175
 40
0.9353045766564935
 40
0.9414397445977115
 40
0.948482064894388
 40
0.9566914542822319
 40
0.967858227403683
 40
0.9823029165918914
 40
1.0
 40
1.0
 40
1.0
 40
1.0
 10
235.4140359473978
 20
118.3956590529237
 30
0.0
 10
235.4088795672926
 20
118.3924445927084
 30
0.0
 10
235.3998967226306
 20
118.3868447346303
 30
0.0
 10
235.388518386028
 20
118.3795034299503
 30
0.0
 10
235.3802965522865
 20
118.3741102991981
 30
0.0
 10
235.3695012270211
 20
118.3669338164716
 30
0.0
 10
235.3582847139238
 20
118.3592949588372
 30
0.0
 10
235.3457136375087
 20
118.3504999979369
 30
0.0
 10
235.3354330171011
 20
118.3431744152992
 30
0.0
 10
235.3238858087355
 20
118.3347681362337
 30
0.0
 10
235.3098017359077
 20
118.3242678433668
 30
0.0
 10
235.2945434603267
 20
118.3125534064931
 30
0.0
 10
235.2791278870137
 20
118.3003263847247
 30
0.0
 10
235.2658847213041
 20
118.2895267480527
 30
0.0
 10
235.2539107984995
 20
118.2795259541205
 30
0.0
 10
235.2427823424561
 20
118.2700159164404
 30
0.0
 10
235.2313718588956
 20
118.2600526857884
 30
0.0
 10
235.2191872808276
 20
118.2491689345638
 30
0.0
 10
235.2058702161057
 20
118.2369553626929
 30
0.0
 10
235.1924037133587
 20
118.2242575544834
 30
0.0
 10
235.179777205889
 20
118.2120215354714
 30
0.0
 10
235.1668759250689
 20
118.1992021051774
 30
0.0
 10
235.1536656008404
 20
118.185719048013
 30
0.0
 10
235.1392389993916
 20
118.1705452113655
 30
0.0
 10
235.1142923109529
 20
118.1434798285901
 30
0.0
 10
235.0807779309457
 20
118.1046217438087
 30
0.0
 10
235.0423487295241
 20
118.0554990126343
 30
0.0
 10
235.0064822747208
 20
118.0053866820412
 30
0.0
 10
234.9723812237735
 20
117.953123829619
 30
0.0
 10
234.9387568570316
 20
117.8959683964844
 30
0.0
 10
234.9122483105164
 20
117.8457611216228
 30
0.0
 10
234.8920454043786
 20
117.8039676359579
 30
0.0
 10
234.8771858301158
 20
117.7712088177197
 30
0.0
 10
234.8633324651029
 20
117.7386523819344
 30
0.0
 10
234.8505142665012
 20
117.7064431249654
 30
0.0
 10
234.8388156638411
 20
117.6750195948083
 30
0.0
 10
234.8296107594944
 20
117.648595082487
 30
0.0
 10
234.8223708674705
 20
117.6266805064534
 30
0.0
 10
234.8166573962837
 20
117.6086555255403
 30
0.0
 10
234.8115861522183
 20
117.591936461498
 30
0.0
 10
234.8076828406764
 20
117.578642237683
 30
0.0
 10
234.8040047477273
 20
117.5657035656101
 30
0.0
 10
234.8002624272079
 20
117.5521124825595
 30
0.0
 10
234.7961653215069
 20
117.5367038040254
 30
0.0
 10
234.7917518691353
 20
117.5193392405299
 30
0.0
 10
234.7875902522241
 20
117.5021358080182
 30
0.0
 10
234.7841725562915
 20
117.4873474214267
 30
0.0
 10
234.7813922246748
 20
117.4748446457851
 30
0.0
 10
234.7790671149821
 20
117.4640362501994
 30
0.0
 10
234.7768643068496
 20
117.4534692833743
 30
0.0
 10
234.7745144108033
 20
117.4418248844593
 30
0.0
 10
234.7720661720712
 20
117.4292006976629
 30
0.0
 10
234.7696941992538
 20
117.4164147360339
 30
0.0
 10
234.7677162023225
 20
117.4053017604194
 30
0.0
 10
234.7661509116199
 20
117.3961867082206
 30
0.0
 10
234.7648219320949
 20
117.3882223414445
 30
0.0
 10
234.7633244334151
 20
117.3789985656901
 30
0.0
 10
234.7614234165646
 20
117.3668197578147
 30
0.0
 10
234.7592294870482
 20
117.3519497450055
 30
0.0
 10
234.7571128568221
 20
117.3366257397331
 30
0.0
 10
234.7552840276383
 20
117.3224804477716
 30
0.0
 10
234.753753338429
 20
117.3098948142547
 30
0.0
 10
234.7523740898645
 20
117.2978829646684
 30
0.0
 10
234.7508266399616
 20
117.2835580647177
 30
0.0
 10
234.7491238257236
 20
117.2663655936972
 30
0.0
 10
234.747380668828
 20
117.2465696341264
 30
0.0
 10
234.7458877205426
 20
117.2271590373612
 30
0.0
 10
234.7447114011675
 20
117.2094441683032
 30
0.0
 10
234.7439005357604
 20
117.1953328922572
 30
0.0
 10
234.7433056398495
 20
117.1836530598837
 30
0.0
 10
234.7428072846454
 20
117.1726987521934
 30
0.0
 10
234.7422752075675
 20
117.1591553457671
 30
0.0
 10
234.741734725681
 20
117.1418189479369
 30
0.0
 10
234.7412510536031
 20
117.1195736484736
 30
0.0
 10
234.7411672971866
 20
117.1029950127895
 30
0.0
 10
234.7411211813639
 20
117.0938669070631
 30
0.0
  0
LINE
  5
E9
330
1F
100
AcDbEntity
  8
0
  6
Continuous
 62
     7
370
    30
100
AcDbLine
 10
287.355404113
 20
28.4295352055
 30
0.0
 11
295.0012528282
 21
32.540475589
 31
0.0
  0
LINE
  5
EA
330
1F
100
AcDbEntity
  8
0
  6
Continuous
 62
     7
370
    30
100
AcDbLine
 10
242.796960573
 20
122.9613371946
 30
0.0
 11
235.4134501985
 21
118.3960132511
 31
0.0
  0
SPLINE
  5
EB
330
1F
100
AcDbEntity
  8
0
  6
Continuous
 62
     7
370
    30
100
AcDbSpline
210
0.0
220
0.0
230
1.0
 70
     8
 71
     3
 72
   171
 73
   167
 74
     0
 42
0.000000001
 43
0.00000001
 40
0.0
 40
0.0
 40
0.0
 40
0.0
 40
0.0091247502219031
 40
0.0181321697776751
 40
0.0270224020816438
 40
0.0357953000176198
 40
0.0444504713803945
 40
0.0528359179561455
 40
0.0611065080548849
 40
0.0692613941822446
 40
0.0772996305697734
 40
0.0853806088101876
 40
0.0933379251209309
 40
0.1011704028041076
 40
0.1088768468308429
 40
0.1164560596106851
 40
0.1239068545579328
 40
0.1312280676466193
 40
0.1384185671344401
 40
0.1454772616249033
 40
0.1524031066264052
 40
0.1591951097567596
 40
0.1658523347319782
 40
0.1723739042687399
 40
0.1787590020210402
 40
0.1844914762650349
 40
0.1901081067694961
 40
0.1956084023880088
 40
0.2009919152848256
 40
0.2062582401067093
 40
0.2114070129011995
 40
0.2162981579927751
 40
0.2210776960720018
 40
0.2257453978690785
 40
0.230301065661248
 40
0.2347445316841957
 40
0.2389993007966763
 40
0.243145597869102
 40
0.2471833390017501
 40
0.2511124619250676
 40
0.2556483095375142
 40
0.2600301235527759
 40
0.2642579001392946
 40
0.2683316653590525
 40
0.2722514716886167
 40
0.2760173946663821
 40
0.2794805776392951
 40
0.2828027456486161
 40
0.2859840088280473
 40
0.2890244868891242
 40
0.2919243070373166
 40
0.2946836020194274
 40
0.2973025083019792
 40
0.2995799630912077
 40
0.3017396758067213
 40
0.3037817528990547
 40
0.3057062993423436
 40
0.3075134178385669
 40
0.3092032080880973
 40
0.3105582889307296
 40
0.3118272980533838
 40
0.3130593430981194
 40
0.3143301933623042
 40
0.3156406703100802
 40
0.3169907416918971
 40
0.3183803738165195
 40
0.3210306630242237
 40
0.3238135712538526
 40
0.3267288511809767
 40
0.3296348579728859
 40
0.3326609883091723
 40
0.3358069804692043
 40
0.3390725571692566
 40
0.3411862824503079
 40
0.3432974254835194
 40
0.3453375486143837
 40
0.347306313534917
 40
0.349203806810889
 40
0.3515207824100715
 40
0.3537221137624186
 40
0.3558079666978484
 40
0.3577807090377347
 40
0.3597276254045198
 40
0.3616937672772202
 40
0.36367910232431
 40
0.3690359184619851
 40
0.3745268341081046
 40
0.3801373248471077
 40
0.3858256510766562
 40
0.3915887425376785
 40
0.397426281767209
 40
0.4044014305056707
 40
0.4114792027652772
 40
0.4186592974888629
 40
0.4259415239762739
 40
0.43308483056865
 40
0.4403237764139697
 40
0.4476587827958469
 40
0.4512166137235606
 40
0.4549155528162568
 40
0.4587554599560759
 40
0.4627362258614221
 40
0.4668577790201
 40
0.4711200934660876
 40
0.4755231974804462
 40
0.4800671833026574
 40
0.4847522179448202
 40
0.4895785552075624
 40
0.4944565900906467
 40
0.4994717101847231
 40
0.504624452307895
 40
0.509915329541088
 40
0.5154448802002007
 40
0.5211187989457515
 40
0.5269377464679342
 40
0.5329024287309119
 40
0.5390135932408701
 40
0.5451589709088407
 40
0.5514471766174399
 40
0.5578790090617092
 40
0.5644552862705681
 40
0.5713155325516526
 40
0.578327935071685
 40
0.5854933830769904
 40
0.5928127565083156
 40
0.6002869170370334
 40
0.6079166986371423
 40
0.6157028977390928
 40
0.6229017428150881
 40
0.6302304295282171
 40
0.6376894295293798
 40
0.6452791617298573
 40
0.6529999855589002
 40
0.6608521942176447
 40
0.6688360079803367
 40
0.6762702370742265
 40
0.6838152154015199
 40
0.6914709233993147
 40
0.6992372729321604
 40
0.7071141036528498
 40
0.7151011796193777
 40
0.7248307458183864
 40
0.7347179089732285
 40
0.744761795817827
 40
0.7549613543916348
 40
0.7653153513701852
 40
0.7756334129793413
 40
0.7860975706873594
 40
0.7967061483281921
 40
0.8074573100977114
 40
0.8185483889806385
 40
0.829782975967894
 40
0.84115868805794
 40
0.8526730257848311
 40
0.8643233965681604
 40
0.8758955645275356
 40
0.8875938381492631
 40
0.8994156731354175
 40
0.9113585695597003
 40
0.923667490542312
 40
0.9360975470349988
 40
0.9486465474353115
 40
0.961312588813473
 40
0.9740941368214205
 40
0.986990114418174
 40
1.0
 40
1.0
 40
1.0
 40
1.0
 10
260.903962150461
 20
42.905954942767
 30
0.0
 10
260.9799215017666
 20
42.8621047365077
 30
0.0
 10
261.1308634805145
 20
42.77496817218055
 30
0.0
 10
261.3558146981325
 20
42.64511061080859
 30
0.0
 10
261.57783844301
 20
42.51694550173847
 30
0.0
 10
261.7969315282904
 20
42.39047485838307
 30
0.0
 10
262.0118240236466
 20
42.26643158950333
 30
0.0
 10
262.2225364847587
 20
42.14480371138887
 30
0.0
 10
262.4290856622965
 20
42.02558141262127
 30
0.0
 10
262.6327458333878
 20
41.90802906522741
 30
0.0
 10
262.8348289570717
 20
41.79138933194839
 30
0.0
 10
263.0352687596894
 20
41.67570042385967
 30
0.0
 10
263.2339970417271
 20
41.5610016578339
 30
0.0
 10
263.4296086653501
 20
41.44810393981734
 30
0.0
 10
263.6220738517656
 20
41.33702435093947
 30
0.0
 10
263.8113627392506
 20
41.22778001920687
 30
0.0
 10
263.9974457238384
 20
41.12038792333313
 30
0.0
 10
264.1802937496498
 20
41.01486472558616
 30
0.0
 10
264.3598785533765
 20
40.9112266310516
 30
0.0
 10
264.5361728671492
 20
40.80948927087447
 30
0.0
 10
264.7091505837611
 20
40.70966760718967
 30
0.0
 10
264.8787868879595
 20
40.61177585760237
 30
0.0
 10
265.0450583572781
 20
40.51582743721613
 30
0.0
 10
265.2079430356481
 20
40.42183491634374
 30
0.0
 10
265.3631293713512
 20
40.33228613667688
 30
0.0
 10
265.5107821703956
 20
40.24708577396591
 30
0.0
 10
265.6510689582432
 20
40.16613695479509
 30
0.0
 10
265.7884510365219
 20
40.08686529502593
 30
0.0
 10
265.9229171700828
 20
40.0092772079315
 30
0.0
 10
266.0544571835977
 20
39.93337849668038
 30
0.0
 10
266.1818983485027
 20
39.85984575174319
 30
0.0
 10
266.3052870743238
 20
39.78865210197581
 30
0.0
 10
266.4246708948746
 20
39.71977003258291
 30
0.0
 10
266.5412620075204
 20
39.65250006496191
 30
0.0
 10
266.6550554262595
 20
39.58684502047208
 30
0.0
 10
266.7654111547632
 20
39.52317409788074
 30
0.0
 10
266.8723588092233
 20
39.46147014404115
 30
0.0
 10
266.9759287059038
 20
39.40171560503546
 30
0.0
 10
267.0767875764589
 20
39.34352575970053
 30
0.0
 10
267.1808904219646
 20
39.28346489720229
 30
0.0
 10
267.287858635263
 20
39.22175152015704
 30
0.0
 10
267.3973140941707
 20
39.15860384416153
 30
0.0
 10
267.5029225183961
 20
39.09767624759158
 30
0.0
 10
267.6046844881321
 20
39.03896832818563
 30
0.0
 10
267.7026012459989
 20
38.9824793041059
 30
0.0
 10
267.7954343418198
 20
38.9289235790297
 30
0.0
 10
267.8832914992631
 20
38.87823892594827
 30
0.0
 10
267.9662807338211
 20
38.83036295660126
 30
0.0
 10
268.0457505630371
 20
38.78451766511921
 30
0.0
 10
268.1217039311249
 20
38.74070130685507
 30
0.0
 10
268.1941439718755
 20
38.69891202991308
 30
0.0
 10
268.2630739598839
 20
38.65914790327582
 30
0.0
 10
268.3268218809782
 20
38.62237342743792
 30
0.0
 10
268.3855773986785
 20
38.58847913356337
 30
0.0
 10
268.439529929655
 20
38.55735570292273
 30
0.0
 10
268.490544033249
 20
38.52792750107715
 30
0.0
 10
268.5386223096733
 20
38.50019300335131
 30
0.0
 10
268.583767303273
 20
38.47415071874568
 30
0.0
 10
268.6241705225697
 20
38.4508438652141
 30
0.0
 10
268.6600930238578
 20
38.43012181746986
 30
0.0
 10
268.6922039825138
 20
38.41159853222018
 30
0.0
 10
268.7236136922845
 20
38.39347981810284
 30
0.0
 10
268.7553687675178
 20
38.37516193430334
 30
0.0
 10
268.7881067621281
 20
38.35627711253324
 30
0.0
 10
268.8218339636076
 20
38.336821731217
 30
0.0
 10
268.866718326716
 20
38.31093047701641
 30
0.0
 10
268.9235346018576
 20
38.2781565345187
 30
0.0
 10
268.9930557947292
 20
38.23805413773344
 30
0.0
 10
269.0647067326374
 20
38.19672350626846
 30
0.0
 10
269.1383833694769
 20
38.1542246800467
 30
0.0
 10
269.2139815394267
 20
38.11061776670039
 30
0.0
 10
269.2925743247381
 20
38.06528381886252
 30
0.0
 10
269.363569295944
 20
38.02433276176901
 30
0.0
 10
269.4259466764977
 20
37.9883527031678
 30
0.0
 10
269.4781191261727
 20
37.95825912946757
 30
0.0
 10
269.5290846040585
 20
37.92886189499107
 30
0.0
 10
269.5782710678698
 20
37.90049094428333
 30
0.0
 10
269.629763274622
 20
37.87079016947235
 30
0.0
 10
269.6831924718372
 20
37.83997229178327
 30
0.0
 10
269.7381905807398
 20
37.8082496403787
 30
0.0
 10
269.7903222676156
 20
37.77818048264289
 30
0.0
 10
269.8403355648358
 20
37.74933333658218
 30
0.0
 10
269.889352078717
 20
37.72106125801357
 30
0.0
 10
269.9384735590106
 20
37.69272876964239
 30
0.0
 10
270.0159926658112
 20
37.64801719484632
 30
0.0
 10
270.1228663901756
 20
37.58637496959019
 30
0.0
 10
270.2599312111997
 20
37.50732027215336
 30
0.0
 10
270.3997577295063
 20
37.42667379679197
 30
0.0
 10
270.5418521243025
 20
37.34472042065301
 30
0.0
 10
270.6858385451505
 20
37.26167696704822
 30
0.0
 10
270.8405431518444
 20
37.17245311186113
 30
0.0
 10
271.0061982452289
 20
37.0769151987732
 30
0.0
 10
271.1830362967432
 20
36.97492951261867
 30
0.0
 10
271.3624335159528
 20
36.87146971463183
 30
0.0
 10
271.5423782401949
 20
36.7676960079382
 30
0.0
 10
271.7228147768546
 20
36.66364052006146
 30
0.0
 10
271.9036926076975
 20
36.55933239150619
 30
0.0
 10
272.0547091059108
 20
36.4722461797856
 30
0.0
 10
272.1762426684915
 20
36.40216274335511
 30
0.0
 10
272.2686667490817
 20
36.34886603297878
 30
0.0
 10
272.3646142396904
 20
36.29353804995654
 30
0.0
 10
272.4640825298816
 20
36.23618035752239
 30
0.0
 10
272.5670699282419
 20
36.17679399094948
 30
0.0
 10
272.673575899418
 20
36.11537932085166
 30
0.0
 10
272.7836012702854
 20
36.0519359342801
 30
0.0
 10
272.8971484766822
 20
35.98646249243046
 30
0.0
 10
273.0142218334371
 20
35.9189565749159
 30
0.0
 10
273.1340785221503
 20
35.84984656421733
 30
0.0
 10
273.2566855509551
 20
35.77915153628899
 30
0.0
 10
273.3820122853596
 20
35.70688920743491
 30
0.0
 10
273.5107787532125
 20
35.63264448111848
 30
0.0
 10
273.6438312043251
 20
35.55592950698781
 30
0.0
 10
273.7812258999474
 20
35.47671194933762
 30
0.0
 10
273.9230203333526
 20
35.39495876756687
 30
0.0
 10
274.068440395856
 20
35.31111637898368
 30
0.0
 10
274.2175037518711
 20
35.22517469151973
 30
0.0
 10
274.3692873571733
 20
35.13766596820733
 30
0.0
 10
274.5237670309807
 20
35.04860421800147
 30
0.0
 10
274.6809190191769
 20
34.95800320347139
 30
0.0
 10
274.8416616184651
 20
34.86533359859739
 30
0.0
 10
275.0071706305041
 20
34.76991765277331
 30
0.0
 10
275.1775171968698
 20
34.67171449379532
 30
0.0
 10
275.3527730560935
 20
34.57068291217782
 30
0.0
 10
275.5318549655416
 20
34.46744750004756
 30
0.0
 10
275.7147849085487
 20
34.36199570014281
 30
0.0
 10
275.901584409928
 20
34.25431522230964
 30
0.0
 10
276.0922743008117
 20
34.14439417907778
 30
0.0
 10
276.280672083694
 20
34.0357964569873
 30
0.0
 10
276.4665629054005
 20
33.9286457903934
 30
0.0
 10
276.6497292054203
 20
33.82306746676789
 30
0.0
 10
276.8361532621727
 20
33.71561329578359
 30
0.0
 10
277.0258455495234
 20
33.60627733993082
 30
0.0
 10
277.2188150564027
 20
33.49505451961267
 30
0.0
 10
277.4150691186784
 20
33.38194071005351
 30
0.0
 10
277.6089369879793
 20
33.27020436979686
 30
0.0
 10
277.8002466647792
 20
33.15994451745475
 30
0.0
 10
277.988824149382
 20
33.05126131911782
 30
0.0
 10
278.1801699775012
 20
32.94098466931785
 30
0.0
 10
278.3742819721492
 20
32.82911590994925
 30
0.0
 10
278.5711561550894
 20
32.71565742248871
 30
0.0
 10
278.7843883438383
 20
32.59277418540056
 30
0.0
 10
279.0143715256664
 20
32.46024038834833
 30
0.0
 10
279.2614934378379
 20
32.31783333520004
 30
0.0
 10
279.5125334939805
 20
32.17317189797507
 30
0.0
 10
279.7674654930121
 20
32.02627134353587
 30
0.0
 10
280.0246843402165
 20
31.87805673170359
 30
0.0
 10
280.2841103202855
 20
31.72857409012341
 30
0.0
 10
280.5456600274025
 20
31.5778715703619
 30
0.0
 10
280.8108210022425
 20
31.42509221503935
 30
0.0
 10
281.0812083297456
 20
31.26930565135036
 30
0.0
 10
281.3568146021138
 20
31.11051641595714
 30
0.0
 10
281.6376278597588
 20
30.9487316769819
 30
0.0
 10
281.9219710207456
 20
30.78491786898525
 30
0.0
 10
282.2097819426785
 20
30.61911098783652
 30
0.0
 10
282.499233182351
 20
30.45236398409472
 30
0.0
 10
282.7902204886956
 20
30.28473700643025
 30
0.0
 10
283.0826400081039
 20
30.11628996766395
 30
0.0
 10
283.3781523038127
 20
29.94606646491483
 30
0.0
 10
283.6787567773532
 20
29.7729150076069
 30
0.0
 10
283.9844334419445
 20
29.59684742278496
 30
0.0
 10
284.2951648803598
 20
29.4178740577775
 30
0.0
 10
284.6088764114972
 20
29.23719010897004
 30
0.0
 10
284.9255212312183
 20
29.05482267248203
 30
0.0
 10
285.2450619461654
 20
28.87079360187668
 30
0.0
 10
285.5674721662988
 20
28.68511769151223
 30
0.0
 10
285.7833681985301
 20
28.56078854934384
 30
0.0
 10
285.8917908616754
 20
28.49835064086934
 30
0.0
  0
SPLINE
  5
EC
330
1F
100
AcDbEntity
  8
0
  6
Continuous
 62
     7
370
    30
100
AcDbSpline
210
0.0
220
0.0
230
1.0
 70
     8
 71
     3
 72
   250
 73
   246
 74
     0
 42
0.000000001
 43
0.00000001
 40
0.0
 40
0.0
 40
0.0
 40
0.0
 40
0.0063808080085277
 40
0.0126870239405452
 40
0.0189186477417942
 40
0.025075679359316
 40
0.031158118741433
 40
0.0371659658377351
 40
0.0430992205990626
 40
0.0484725101283978
 40
0.0537831212999591
 40
0.0590310540785785
 40
0.0642163084299244
 40
0.0693388843204891
 40
0.0743987817175814
 40
0.0793960005893097
 40
0.0843305409045737
 40
0.0892024026330515
 40
0.0940115857451873
 40
0.0987580902121808
 40
0.1034419160059731
 40
0.107800686038962
 40
0.1121037359640115
 40
0.1163510657593587
 40
0.1205426754037918
 40
0.1246785648766394
 40
0.1290042263206316
 40
0.1332672089213505
 40
0.1374675126560574
 40
0.141605137502654
 40
0.145680083439665
 40
0.1496923504462298
 40
0.153417936250569
 40
0.1570878017303882
 40
0.1607019468696441
 40
0.1642603716527427
 40
0.1677630760645303
 40
0.1716065473287718
 40
0.175380612400368
 40
0.1790852712601165
 40
0.1827205238894453
 40
0.1862863702703957
 40
0.1897828103856093
 40
0.1932098442183145
 40
0.1965674717523133
 40
0.1997753812499651
 40
0.2029172677798014
 40
0.2059931313282991
 40
0.2090029718824068
 40
0.2119467894295352
 40
0.214824583957546
 40
0.2176363554547409
 40
0.2201558132522747
 40
0.2226197933463512
 40
0.2250294214302016
 40
0.2274005023732669
 40
0.2297381335709147
 40
0.232042315018386
 40
0.2355043414472991
 40
0.2388880026494657
 40
0.2421932986094211
 40
0.2454202293123159
 40
0.2485687947439012
 40
0.2516389948905087
 40
0.2546308297390375
 40
0.2575442992769354
 40
0.2603794034921849
 40
0.2631361423732878
 40
0.265814515909249
 40
0.2684145240895631
 40
0.2709361669042017
 40
0.2733794443435976
 40
0.2752441866160683
 40
0.277060550254156
 40
0.2788287501043333
 40
0.2805943469881862
 40
0.2823918026694742
 40
0.2842211171502075
 40
0.2860822904324002
 40
0.2884971332100685
 40
0.2909635819876061
 40
0.2934815917083815
 40
0.2960261256304603
 40
0.2985760916618329
 40
0.3011314898020121
 40
0.3036923200504958
 40
0.3065155074082987
 40
0.3093454935708972
 40
0.3122227811993261
 40
0.3151772530390114
 40
0.3182089090962045
 40
0.3213177493770918
 40
0.324503773887779
 40
0.3277669826342741
 40
0.3311073756224729
 40
0.334524952858138
 40
0.3379566310527426
 40
0.341462761537448
 40
0.3450433443172424
 40
0.348698379396923
 40
0.3521479039558466
 40
0.3556609821493784
 40
0.3592092495323504
 40
0.3627731517609362
 40
0.36635268883367
 40
0.3699478607490153
 40
0.373558667505365
 40
0.3802190870428307
 40
0.3869320570014436
 40
0.3936975773693868
 40
0.4010046640452571
 40
0.4083720764148828
 40
0.4157998144604139
 40
0.4232878781628149
 40
0.4308362675018432
 40
0.4371726740191403
 40
0.4435509733116746
 40
0.4499711653657473
 40
0.4564332501670397
 40
0.4629372277006044
 40
0.4694699146791384
 40
0.4848248565619294
 40
0.5001103592908881
 40
0.5140550474478629
 40
0.527941437536114
 40
0.5417695293908187
 40
0.555539322851836
 40
0.5692508177637069
 40
0.5829040139756497
 40
0.588892951243168
 40
0.594870601841872
 40
0.6008193013424868
 40
0.6066948658691141
 40
0.6124951870155623
 40
0.6182202647792114
 40
0.623549278444118
 40
0.6288114022747896
 40
0.6340066362709295
 40
0.6391349804328096
 40
0.6441964347612474
 40
0.649491550325237
 40
0.6547114225082358
 40
0.6598560513130711
 40
0.6649254367431513
 40
0.6699195788024374
 40
0.6748384774954168
 40
0.6794093175464673
 40
0.6839444662500449
 40
0.6884537712469522
 40
0.6929372325358282
 40
0.6973948501154893
 40
0.7035920972936034
 40
0.7097386907974927
 40
0.7113401424145136
 40
0.7129381194879889
 40
0.7145250258668028
 40
0.7160602438682805
 40
0.7175377681832598
 40
0.7189575988150405
 40
0.7203197357668274
 40
0.721624179041725
 40
0.7228709286427346
 40
0.7240599845727513
 40
0.7251913468345588
 40
0.7262650154308278
 40
0.7272244888502312
 40
0.7281326737827072
 40
0.7289895702302022
 40
0.7298259809995956
 40
0.7306932396843591
 40
0.7320279438588336
 40
0.7334312557407118
 40
0.7349031753256308
 40
0.7364437026089665
 40
0.7380528375858283
 40
0.7397305802510533
 40
0.7414769305992018
 40
0.7431380216904679
 40
0.7448567622836522
 40
0.7466331523739247
 40
0.7484671919562431
 40
0.7503588810253471
 40
0.7523082195757552
 40
0.754315207601759
 40
0.7563798450974183
 40
0.7585021320565566
 40
0.760682068472755
 40
0.7629196543393472
 40
0.7652148896494148
 40
0.7674317708337515
 40
0.7696999011842095
 40
0.7720192806943456
 40
0.7743899093574984
 40
0.7768120061779892
 40
0.7794393129739645
 40
0.7821272690333101
 40
0.7848758743464673
 40
0.7876851289035389
 40
0.7905550326942818
 40
0.7934855857080984
 40
0.7963042282772362
 40
0.7991767867487259
 40
0.8021032611127872
 40
0.8050836513593377
 40
0.8081179574779866
 40
0.8115681260328098
 40
0.8150854530013464
 40
0.8186699383677394
 40
0.8223215821156147
 40
0.8260403842280721
 40
0.8298263446876727
 40
0.8336794634764306
 40
0.8375997405758002
 40
0.8413874266627895
 40
0.8452357617640324
 40
0.8491447458621574
 40
0.8531143789393051
 40
0.8571446609771156
 40
0.8612355919567237
 40
0.8651483049141314
 40
0.8691149335091695
 40
0.8731354777247484
 40
0.8772099375433536
 40
0.8813383129470377
 40
0.8860095406234128
 40
0.8907478539170653
 40
0.8955525677203252
 40
0.9004226888218506
 40
0.9053572262234338
 40
0.9103551999813719
 40
0.9154156478968377
 40
0.9205376323455682
 40
0.9264655190676183
 40
0.9324713076956225
 40
0.938553787587873
 40
0.9447118413492369
 40
0.9509444584764795
 40
0.9572507487809402
 40
0.9636299554662808
 40
0.969541092174852
 40
0.9755126296757926
 40
0.9815443326021418
 40
0.9876360911743522
 40
0.9937879273097336
 40
1.0
 40
1.0
 40
1.0
 40
1.0
 10
234.7411212496691
 20
117.0938720113219
 30
0.0
 10
234.7409913719018
 20
116.9711320503539
 30
0.0
 10
234.7407331346471
 20
116.7270869668501
 30
0.0
 10
234.7403544563122
 20
116.3631737345988
 30
0.0
 10
234.7399848157521
 20
116.003566524545
 30
0.0
 10
234.7396244888458
 20
115.6482654383668
 30
0.0
 10
234.7392731774113
 20
115.2972703869208
 30
0.0
 10
234.7389307375408
 20
114.9505813323573
 30
0.0
 10
234.7386060887466
 20
114.6175344977403
 30
0.0
 10
234.7382984349659
 20
114.2979005276701
 30
0.0
 10
234.7380070187768
 20
113.9914500777115
 30
0.0
 10
234.7377225056269
 20
113.688617710057
 30
0.0
 10
234.7374447693975
 20
113.3894033904434
 30
0.0
 10
234.7371736857207
 20
113.0938070851714
 30
0.0
 10
234.7369091319141
 20
112.8018287610818
 30
0.0
 10
234.7366509869843
 20
112.5134683855526
 30
0.0
 10
234.7363991316132
 20
112.2287259264921
 30
0.0
 10
234.7361534481499
 20
111.9476013523324
 30
0.0
 10
234.7359138206004
 20
111.6700946320231
 30
0.0
 10
234.7356801346189
 20
111.396205735026
 30
0.0
 10
234.735456532175
 20
111.1309812848289
 30
0.0
 10
234.7352426172438
 20
110.8742873421725
 30
0.0
 10
234.7350380106494
 20
110.6259899722203
 30
0.0
 10
234.7348383047564
 20
110.3809086720982
 30
0.0
 10
234.734643410333
 20
110.1390434182263
 30
0.0
 10
234.7344494767823
 20
109.8956723884379
 30
0.0
 10
234.7342566705379
 20
109.650929461041
 30
0.0
 10
234.7340651530524
 20
109.404948514344
 30
0.0
 10
234.7338786492206
 20
109.1625851456712
 30
0.0
 10
234.7336970602963
 20
108.9238393291782
 30
0.0
 10
234.7335202891023
 20
108.6887110394794
 30
0.0
 10
234.7333514418205
 20
108.4615086171049
 30
0.0
 10
234.7331902001469
 20
108.2420981428923
 30
0.0
 10
234.7330362596414
 20
108.0303457009729
 30
0.0
 10
234.7328862794515
 20
107.8218090826588
 30
0.0
 10
234.7327401844458
 20
107.616488268488
 30
0.0
 10
234.732592532124
 20
107.406757506431
 30
0.0
 10
234.7324436367578
 20
107.1928800976785
 30
0.0
 10
234.7322938068904
 20
106.9751193465022
 30
0.0
 10
234.7321484371384
 20
106.7613641526935
 30
0.0
 10
234.7320074319375
 20
106.5516144916866
 30
0.0
 10
234.7318706975818
 20
106.345870339431
 30
0.0
 10
234.7317381422189
 20
106.1441316723857
 30
0.0
 10
234.7316096758452
 20
105.9463984675168
 30
0.0
 10
234.7314862026731
 20
105.7542153058631
 30
0.0
 10
234.7313675572367
 20
105.5675170715811
 30
0.0
 10
234.7312535800132
 20
105.3862386497062
 30
0.0
 10
234.7311431713256
 20
105.208770353195
 30
0.0
 10
234.7310362560841
 20
105.0351121629922
 30
0.0
 10
234.73093276085
 20
104.8652640602976
 30
0.0
 10
234.730832613834
 20
104.699226027418
 30
0.0
 10
234.730738343553
 20
104.5413500670033
 30
0.0
 10
234.7306496742078
 20
104.3914332889872
 30
0.0
 10
234.730566331495
 20
104.249251128153
 30
0.0
 10
234.7304853823224
 20
104.1099232362008
 30
0.0
 10
234.7304065392683
 20
103.9730255871388
 30
0.0
 10
234.7303295377406
 20
103.8381561564459
 30
0.0
 10
234.7302413248083
 20
103.6823064167562
 30
0.0
 10
234.7301428012925
 20
103.5063403641329
 30
0.0
 10
234.7300349145328
 20
103.311122035166
 30
0.0
 10
234.7299308780507
 20
103.1204256280478
 30
0.0
 10
234.7298305964771
 20
102.9342511188985
 30
0.0
 10
234.7297339767514
 20
102.7525984843611
 30
0.0
 10
234.7296409281174
 20
102.5754677016966
 30
0.0
 10
234.7295513621193
 20
102.4028587487562
 30
0.0
 10
234.7294651925978
 20
102.2347716039828
 30
0.0
 10
234.7293823356869
 20
102.0712062464135
 30
0.0
 10
234.7293027098099
 20
101.912162655652
 30
0.0
 10
234.729226235677
 20
101.7576408119569
 30
0.0
 10
234.7291528362813
 20
101.607640695911
 30
0.0
 10
234.7290824368975
 20
101.4621622895913
 30
0.0
 10
234.7290195691876
 20
101.3308241131147
 30
0.0
 10
234.7289637298711
 20
101.2130493484181
 30
0.0
 10
234.7289144532303
 20
101.1082570267489
 30
0.0
 10
234.7288664628492
 20
101.0053717814092
 30
0.0
 10
234.7288190247004
 20
100.9028503266347
 30
0.0
 10
234.7287714328153
 20
100.7991536202516
 30
0.0
 10
234.7287234014554
 20
100.6936190082846
 30
0.0
 10
234.7286704239781
 20
100.5762119304752
 30
0.0
 10
234.72861250307
 20
100.4465526597694
 30
0.0
 10
234.7285496725839
 20
100.3042623981329
 30
0.0
 10
234.7284865021881
 20
100.1594780973385
 30
0.0
 10
234.7284234131437
 20
100.0130884454037
 30
0.0
 10
234.7283608052123
 20
99.86598107046188
 30
0.0
 10
234.7282988580151
 20
99.71856142777254
 30
0.0
 10
234.7282355270433
 20
99.56588897737181
 30
0.0
 10
234.7281709026767
 20
99.40793754269046
 30
0.0
 10
234.7281047664427
 20
99.24390223845755
 30
0.0
 10
234.728038614456
 20
99.0773435457264
 30
0.0
 10
234.7279719697389
 20
98.9069078029118
 30
0.0
 10
234.7279046870397
 20
98.7320204645116
 30
0.0
 10
234.727836851444
 20
98.5526815356073
 30
0.0
 10
234.7277685501881
 20
98.36889104185018
 30
0.0
 10
234.7276998726478
 20
98.18064900382551
 30
0.0
 10
234.7276309103395
 20
97.98795544419198
 30
0.0
 10
234.7275621824081
 20
97.79202338530386
 30
0.0
 10
234.7274937718255
 20
97.59290536219429
 30
0.0
 10
234.7274257607494
 20
97.39065391035807
 30
0.0
 10
234.7273578452293
 20
97.18410859097979
 30
0.0
 10
234.7272918511197
 20
96.97865260486336
 30
0.0
 10
234.7272277991275
 20
96.7744954647401
 30
0.0
 10
234.7271658706242
 20
96.57239204215817
 30
0.0
 10
234.7271047847005
 20
96.36809024533667
 30
0.0
 10
234.7270448533925
 20
96.16251152671212
 30
0.0
 10
234.726986209115
 20
95.9560318655879
 30
0.0
 10
234.726928871959
 20
95.74865127099987
 30
0.0
 10
234.726857174688
 20
95.48203360992227
 30
0.0
 10
234.7267728796117
 20
95.15547022830545
 30
0.0
 10
234.7266783647225
 20
94.76825279755226
 30
0.0
 10
234.726586469586
 20
94.3686049272087
 30
0.0
 10
234.726497769307
 20
93.95637742363277
 30
0.0
 10
234.7264128723247
 20
93.5314211021816
 30
0.0
 10
234.7263339293497
 20
93.1029888206059
 30
0.0
 10
234.7262611015065
 20
92.67108061853243
 30
0.0
 10
234.7261982903933
 20
92.26015839218607
 30
0.0
 10
234.7261444114375
 20
91.8705758896019
 30
0.0
 10
234.7260984353563
 20
91.50268690776537
 30
0.0
 10
234.7260571244022
 20
91.1323841957687
 30
0.0
 10
234.7260205755311
 20
90.75966777911567
 30
0.0
 10
234.725988907794
 20
90.38479113483139
 30
0.0
 10
234.7259502530829
 20
89.83894706088597
 30
0.0
 10
234.7259160309445
 20
89.12428224411634
 30
0.0
 10
234.725902498571
 20
88.2671342920984
 30
0.0
 10
234.7259147935802
 20
87.43823304283957
 30
0.0
 10
234.7259500239187
 20
86.63736281900042
 30
0.0
 10
234.7260082643849
 20
85.83986762666828
 30
0.0
 10
234.7260892267332
 20
85.04574740751815
 30
0.0
 10
234.7261926253308
 20
84.25500210474378
 30
0.0
 10
234.7262948628428
 20
83.61384182979275
 30
0.0
 10
234.7263835413447
 20
83.121355822591
 30
0.0
 10
234.7264498757668
 20
82.77697490057878
 30
0.0
 10
234.7265200731361
 20
82.4347757359575
 30
0.0
 10
234.7265937759014
 20
82.09598748127816
 30
0.0
 10
234.7266706436116
 20
81.76150001151491
 30
0.0
 10
234.7267490179657
 20
81.43752069112293
 30
0.0
 10
234.7268285310723
 20
81.12388877105633
 30
0.0
 10
234.7269088384795
 20
80.82044350212131
 30
0.0
 10
234.7269914171491
 20
80.5208574331053
 30
0.0
 10
234.7270761414864
 20
80.22513053347087
 30
0.0
 10
234.7271646044936
 20
79.92748570053618
 30
0.0
 10
234.7272568511508
 20
79.62808360877287
 30
0.0
 10
234.7273529195757
 20
79.32708493664384
 30
0.0
 10
234.7274508382987
 20
79.03042725005467
 30
0.0
 10
234.7275504672516
 20
78.73811051428054
 30
0.0
 10
234.7276516683739
 20
78.45013469738772
 30
0.0
 10
234.7277524081046
 20
78.17174347679168
 30
0.0
 10
234.7278526499931
 20
77.90217649053052
 30
0.0
 10
234.7279524751615
 20
77.640483990284
 30
0.0
 10
234.7280541382215
 20
77.38047277961881
 30
0.0
 10
234.7281576695699
 20
77.12195357575348
 30
0.0
 10
234.7282769369283
 20
76.83099384210267
 30
0.0
 10
234.7284129368127
 20
76.50807136239229
 30
0.0
 10
234.7285293089032
 20
76.2400468446393
 30
0.0
 10
234.7286087699432
 20
76.06042014320636
 30
0.0
 10
234.7286497747352
 20
75.96842899700118
 30
0.0
 10
234.7286905172136
 20
75.87771108325657
 30
0.0
 10
234.7287305115478
 20
75.78930830698171
 30
0.0
 10
234.7287693242991
 20
75.7041167480994
 30
0.0
 10
234.7288068721232
 20
75.62225181291724
 30
0.0
 10
234.7288431251002
 20
75.54371349483402
 30
0.0
 10
234.7288780545215
 20
75.468501786126
 30
0.0
 10
234.7289116328898
 20
75.39661667972794
 30
0.0
 10
234.7289438339198
 20
75.3280581688223
 30
0.0
 10
234.7289746325388
 20
75.2628262468127
 30
0.0
 10
234.7290034896493
 20
75.20200682491189
 30
0.0
 10
234.7290304331117
 20
75.14547678816103
 30
0.0
 10
234.729055494267
 20
75.09311302619685
 30
0.0
 10
234.7290795167684
 20
75.04311450108742
 30
0.0
 10
234.7291032494396
 20
74.99390266121084
 30
0.0
 10
234.7291315158119
 20
74.93550800606289
 30
0.0
 10
234.729165217408
 20
74.86621833498388
 30
0.0
 10
234.7292048054959
 20
74.78530807831226
 30
0.0
 10
234.729246587062
 20
74.70044249383555
 30
0.0
 10
234.7292905991009
 20
74.61162159232804
 30
0.0
 10
234.729336880341
 20
74.51884538378194
 30
0.0
 10
234.7293854712442
 20
74.42211387900221
 30
0.0
 10
234.7294349178572
 20
74.32438418338086
 30
0.0
 10
234.7294851184287
 20
74.22586687464094
 30
0.0
 10
234.7295359677332
 20
74.12677253281379
 30
0.0
 10
234.7295889016228
 20
74.02435468161033
 30
0.0
 10
234.7296439576765
 20
73.91861333100698
 30
0.0
 10
234.7297011747031
 20
73.80954849131078
 30
0.0
 10
234.7297605927418
 20
73.69716017316628
 30
0.0
 10
234.7298222530644
 20
73.5814483875555
 30
0.0
 10
234.7298861981754
 20
73.46241314580048
 30
0.0
 10
234.7299524718137
 20
73.34005445956316
 30
0.0
 10
234.7300211189539
 20
73.21437234085398
 30
0.0
 10
234.7300921858078
 20
73.08536680200615
 30
0.0
 10
234.7301642674126
 20
72.95565156137218
 30
0.0
 10
234.7302372989258
 20
72.82534961038522
 30
0.0
 10
234.7303112128084
 20
72.69458394186076
 30
0.0
 10
234.7303874478514
 20
72.5608638633512
 30
0.0
 10
234.730466050258
 20
72.4241851919353
 30
0.0
 10
234.7305487815183
 20
72.28158910910568
 30
0.0
 10
234.7306358481392
 20
72.13289540132567
 30
0.0
 10
234.7307274637638
 20
71.97792767576139
 30
0.0
 10
234.7308220618335
 20
71.8194640664868
 30
0.0
 10
234.7309197038845
 20
71.6575045892259
 30
0.0
 10
234.7310204528407
 20
71.49204926144157
 30
0.0
 10
234.7311223333083
 20
71.32641421585485
 30
0.0
 10
234.7312252584021
 20
71.16072881792914
 30
0.0
 10
234.7313291376532
 20
70.99512243446448
 30
0.0
 10
234.731436007987
 20
70.82640837399818
 30
0.0
 10
234.7315459278283
 20
70.6545866526197
 30
0.0
 10
234.73166345092
 20
70.47270181573549
 30
0.0
 10
234.7317889688515
 20
70.28049949307115
 30
0.0
 10
234.7319228970422
 20
70.0777253204075
 30
0.0
 10
234.7320609471009
 20
69.87108028683303
 30
0.0
 10
234.7322032084458
 20
69.66056441723148
 30
0.0
 10
234.7323497722366
 20
69.44617773703273
 30
0.0
 10
234.7325007313799
 20
69.2279202722144
 30
0.0
 10
234.7326561805338
 20
69.00579204930864
 30
0.0
 10
234.7328134980235
 20
68.78363152592333
 30
0.0
 10
234.7329725800889
 20
68.56156376147376
 30
0.0
 10
234.7331333183191
 20
68.33971381558864
 30
0.0
 10
234.7332984600058
 20
68.11436837988474
 30
0.0
 10
234.7334680937822
 20
67.8855274795133
 30
0.0
 10
234.7336423097379
 20
67.6531911401028
 30
0.0
 10
234.7338177176708
 20
67.42194941144315
 30
0.0
 10
234.7339941712982
 20
67.19193164728266
 30
0.0
 10
234.7341715197417
 20
66.96326720139646
 30
0.0
 10
234.7343532652142
 20
66.73149547417465
 30
0.0
 10
234.7345394892187
 20
66.49661648912091
 30
0.0
 10
234.7347378062142
 20
66.24923511360589
 30
0.0
 10
234.7349488097062
 20
65.98909842146304
 30
0.0
 10
234.7351731187426
 20
65.71596665933538
 30
0.0
 10
234.7354034094235
 20
65.43901417580636
 30
0.0
 10
234.7356397583719
 20
65.1582923119906
 30
0.0
 10
234.7358822383634
 20
64.8738580736607
 30
0.0
 10
234.7361309231928
 20
64.5857678710552
 30
0.0
 10
234.7363858879374
 20
64.29407708873015
 30
0.0
 10
234.7366598843492
 20
63.98451939011542
 30
0.0
 10
234.7369538883
 20
63.65679861041412
 30
0.0
 10
234.7372689435429
 20
63.31062385899489
 30
0.0
 10
234.7375926462673
 20
62.96002830933102
 30
0.0
 10
234.7379251233745
 20
62.60507618190056
 30
0.0
 10
234.7382665058784
 20
62.24582553799355
 30
0.0
 10
234.7386169289028
 20
61.88232750790426
 30
0.0
 10
234.7389663787147
 20
61.52500841363204
 30
0.0
 10
234.7393142779528
 20
61.17412314175422
 30
0.0
 10
234.7396600590203
 20
60.82991655983004
 30
0.0
 10
234.7400138848373
 20
60.48224125163574
 30
0.0
 10
234.7403759906953
 20
60.13110351108487
 30
0.0
 10
234.7407460725476
 20
59.77650184915262
 30
0.0
 10
234.7409980495821
 20
59.53894693071749
 30
0.0
 10
234.7411246519112
 20
59.41959079164697
 30
0.0
  0
SPLINE
  5
ED
330
1F
100
AcDbEntity
  8
0
  6
Continuous
 62
     7
370
    30
100
AcDbSpline
210
0.0
220
0.0
230
1.0
 70
     8
 71
     3
 72
   165
 73
   161
 74
     0
 42
0.000000001
 43
0.00000001
 40
0.0
 40
0.0
 40
0.0
 40
0.0
 40
0.0108863074062158
 40
0.0216572122814842
 40
0.032316896165026
 40
0.0428692070407566
 40
0.0533176354083642
 40
0.0636652961982643
 40
0.0739149160550267
 40
0.085079030224207
 40
0.0961298701674077
 40
0.1070693966021123
 40
0.1178989951024057
 40
0.1286194897567993
 40
0.1392311618672664
 40
0.1497337730459465
 40
0.1601265921036155
 40
0.1704084251605084
 40
0.1805776484454271
 40
0.190453715415268
 40
0.200216963193166
 40
0.209864844116785
 40
0.2193945474612504
 40
0.2289729569990724
 40
0.2384222930871871
 40
0.247738980380368
 40
0.2569193167370187
 40
0.2659595115180288
 40
0.2746981469953461
 40
0.2832942499058614
 40
0.2917456684030812
 40
0.3000533392131726
 40
0.3083835552007269
 40
0.3165662717928293
 40
0.3246022853645899
 40
0.3324922170466683
 40
0.3402365317237441
 40
0.3478355555083515
 40
0.3552894917864283
 40
0.362582646950767
 40
0.3697314429073895
 40
0.3767357989752547
 40
0.3835955639845659
 40
0.390310526361738
 40
0.3967643775083883
 40
0.4030780085758043
 40
0.4092510970425601
 40
0.4152832934381964
 40
0.4205498238667611
 40
0.4257034653761032
 40
0.4307439348957878
 40
0.4356760848029755
 40
0.4405335038242233
 40
0.4453221805998218
 40
0.4500419359973182
 40
0.4546925876702687
 40
0.4607856424509068
 40
0.4667550760357556
 40
0.4726004450148796
 40
0.4783213069215704
 40
0.483917222622258
 40
0.4893877584039575
 40
0.4944304710780592
 40
0.4993609940061985
 40
0.5041789847721823
 40
0.5088841097305672
 40
0.5134760447060273
 40
0.5180906234064181
 40
0.522584265228927
 40
0.5269566500603923
 40
0.5312074703508954
 40
0.5353364313096854
 40
0.5392727733091812
 40
0.5430910422639467
 40
0.5468270510413278
 40
0.5505352773206729
 40
0.557869742550979
 40
0.5650945388339218
 40
0.5679728870538954
 40
0.5709613697104365
 40
0.5740600935010505
 40
0.5772681494579849
 40
0.5804995052589734
 40
0.5835915671720223
 40
0.5865441548371481
 40
0.5893571009141496
 40
0.5920302505145746
 40
0.5934691889210583
 40
0.5948640262754169
 40
0.5962147399691146
 40
0.5975213084546439
 40
0.598783711215218
 40
0.6000118009997262
 40
0.6013113406207293
 40
0.6029540146797856
 40
0.6047330289332146
 40
0.6066484512771806
 40
0.6087003525950708
 40
0.6108888062460934
 40
0.6132138875097972
 40
0.6155313155386546
 40
0.6179703355836319
 40
0.6205310124273863
 40
0.6232134103172201
 40
0.6260175923796979
 40
0.6290356881916854
 40
0.6321833163603424
 40
0.635460537929518
 40
0.6388674095814729
 40
0.6424039827451815
 40
0.6460036946649963
 40
0.6497285970621336
 40
0.6535787184850321
 40
0.6575540789225697
 40
0.6617396788773255
 40
0.6660556923300758
 40
0.6705021063270736
 40
0.6750788940511451
 40
0.6797860135876216
 40
0.6846234066665817
 40
0.6895909973860618
 40
0.6946886909215148
 40
0.699916372227497
 40
0.7052739047382716
 40
0.7107611290747915
 40
0.716377861766362
 40
0.7221238939961141
 40
0.7279989903803614
 40
0.7346103506049156
 40
0.7413771688321181
 40
0.7482990104975928
 40
0.7553753955730861
 40
0.7626057972190791
 40
0.7692972880872929
 40
0.7761145744379268
 40
0.7830571590844414
 40
0.7901245112143492
 40
0.7973160664041042
 40
0.8044995186928303
 40
0.8118016040838328
 40
0.8192216955019475
 40
0.8267591369878261
 40
0.8345706611162812
 40
0.8425029080606596
 40
0.8505550977901667
 40
0.8587264270028245
 40
0.8670160722728616
 40
0.875423193727078
 40
0.8839469392936025
 40
0.894037562350493
 40
0.9042843870507918
 40
0.9146860568821313
 40
0.9252412413478934
 40
0.9359486537147557
 40
0.9468070710665383
 40
0.9571822931449986
 40
0.9676898818692505
 40
0.9783290838599921
 40
0.9890992778359946
 40
1.0
 40
1.0
 40
1.0
 40
1.0
 10
235.9470963799394
 20
57.33081287651991
 30
0.0
 10
236.0376062540189
 20
57.27843405428754
 30
0.0
 10
236.2176665337232
 20
57.17423166225397
 30
0.0
 10
236.4863562868296
 20
57.01874417536279
 30
0.0
 10
236.7522719011417
 20
56.86486606259263
 30
0.0
 10
237.0155093844477
 20
56.71254205795047
 30
0.0
 10
237.2761555374245
 20
56.56172172567292
 30
0.0
 10
237.5342879199997
 20
56.41236010287664
 30
0.0
 10
237.7983739546222
 20
56.25955774547482
 30
0.0
 10
238.0683099350368
 20
56.10337501303879
 30
0.0
 10
238.3439857838278
 20
55.94387594104078
 30
0.0
 10
238.6168835562351
 20
55.78598877740562
 30
0.0
 10
238.8870378298668
 20
55.62969334951625
 30
0.0
 10
239.1544692139103
 20
55.47497756596381
 30
0.0
 10
239.4191848106613
 20
55.321837150002
 30
0.0
 10
239.6811787870982
 20
55.17027530933589
 30
0.0
 10
239.9404330413214
 20
55.02030235094652
 30
0.0
 10
240.1969179496585
 20
54.87193524919458
 30
0.0
 10
240.4491086004882
 20
54.72605592844189
 30
0.0
 10
240.6969895785841
 20
54.5826730761144
 30
0.0
 10
240.9405377900964
 20
54.44179983044867
 30
0.0
 10
241.1812082100599
 20
54.30259444335277
 30
0.0
 10
241.4203439831617
 20
54.16427991418244
 30
0.0
 10
241.6578310695713
 20
54.02692213620523
 30
0.0
 10
241.8935490683018
 20
53.89059068113729
 30
0.0
 10
242.1259589146824
 20
53.75617558225974
 30
0.0
 10
242.3549684582698
 20
53.6237300098064
 30
0.0
 10
242.5791728626908
 20
53.49406630044136
 30
0.0
 10
242.7985205766045
 20
53.36721409386062
 30
0.0
 10
243.0129736817852
 20
53.24319515324659
 30
0.0
 10
243.2238445362382
 20
53.12125041477154
 30
0.0
 10
243.4325059813277
 20
53.00058586674628
 30
0.0
 10
243.6389345765011
 20
52.88121499767315
 30
0.0
 10
243.8431057127215
 20
52.76315196898325
 30
0.0
 10
244.0436168721338
 20
52.6472076830354
 30
0.0
 10
244.240483634333
 20
52.53337300502913
 30
0.0
 10
244.4337176681375
 20
52.42164106363317
 30
0.0
 10
244.6233271684833
 20
52.31200699831631
 30
0.0
 10
244.8091859363828
 20
52.20454365714428
 30
0.0
 10
244.991301642737
 20
52.09924648209871
 30
0.0
 10
245.1696795968424
 20
51.99611228322953
 30
0.0
 10
245.3444543850219
 20
51.8950631313787
 30
0.0
 10
245.5156222481164
 20
51.79610108923325
 30
0.0
 10
245.6822126864415
 20
51.69978714085291
 30
0.0
 10
245.8442619591183
 20
51.60610018534555
 30
0.0
 10
246.0018054054776
 20
51.51501965933909
 30
0.0
 10
246.1558429103344
 20
51.42596739404301
 30
0.0
 10
246.3011720059026
 20
51.34195090391919
 30
0.0
 10
246.4380225076664
 20
51.26283709055694
 30
0.0
 10
246.5666248025597
 20
51.18849255037009
 30
0.0
 10
246.6924466348025
 20
51.11575629645357
 30
0.0
 10
246.815805406927
 20
51.04444478347019
 30
0.0
 10
246.9370703620591
 20
50.97434450955799
 30
0.0
 10
247.0565692183959
 20
50.90526598913079
 30
0.0
 10
247.1743487547046
 20
50.83718214475071
 30
0.0
 10
247.3029791791211
 20
50.76282666787264
 30
0.0
 10
247.4420057044742
 20
50.68246272478678
 30
0.0
 10
247.5909713898822
 20
50.59635473998697
 30
0.0
 10
247.736842002912
 20
50.51203704011631
 30
0.0
 10
247.8796064703115
 20
50.42951594798163
 30
0.0
 10
248.0192538004594
 20
50.34879774070044
 30
0.0
 10
248.1532607558511
 20
50.27134079241227
 30
0.0
 10
248.2817333492069
 20
50.19708368958417
 30
0.0
 10
248.404778358835
 20
50.12596458641182
 30
0.0
 10
248.5250157915619
 20
50.05646906133785
 30
0.0
 10
248.6424372890025
 20
49.98860188796947
 30
0.0
 10
248.7581673341867
 20
49.92171308981046
 30
0.0
 10
248.8721387725446
 20
49.85584145029642
 30
0.0
 10
248.9842844830044
 20
49.79102573199344
 30
0.0
 10
249.0934047615357
 20
49.72795926605979
 30
0.0
 10
249.1994918971994
 20
49.66664645336043
 30
0.0
 10
249.3019521829171
 20
49.60743036787657
 30
0.0
 10
249.4008146091672
 20
49.55029419078251
 30
0.0
 10
249.4964085994891
 20
49.49504747689584
 30
0.0
 10
249.5901053413
 20
49.44089773365928
 30
0.0
 10
249.7130549001003
 20
49.36984267573798
 30
0.0
 10
249.8650298205187
 20
49.28201443579893
 30
0.0
 10
250.0101013840665
 20
49.19817720119199
 30
0.0
 10
250.1190175659381
 20
49.13523502026071
 30
0.0
 10
250.1936074279166
 20
49.09213017209151
 30
0.0
 10
250.2709408819185
 20
49.04744015233089
 30
0.0
 10
250.3502955816436
 20
49.00158242795317
 30
0.0
 10
250.4295952723327
 20
48.95575684700536
 30
0.0
 10
250.506769850234
 20
48.9111596618345
 30
0.0
 10
250.5804636755605
 20
48.86857422260146
 30
0.0
 10
250.6506725334372
 20
48.82800292211348
 30
0.0
 10
250.7082882737816
 20
48.79470897359498
 30
0.0
 10
250.7541056329
 20
48.76823299244663
 30
0.0
 10
250.7889204822779
 20
48.74811498098954
 30
0.0
 10
250.8226341112293
 20
48.72863338199195
 30
0.0
 10
250.8552459757032
 20
48.70978850363787
 30
0.0
 10
250.8868377045205
 20
48.69153317057898
 30
0.0
 10
250.9183710275164
 20
48.67331164198865
 30
0.0
 10
250.9530685061918
 20
48.65326176718897
 30
0.0
 10
250.9923500389593
 20
48.63056308540301
 30
0.0
 10
251.0367561486111
 20
48.60490329228477
 30
0.0
 10
251.0845674372754
 20
48.57727596051964
 30
0.0
 10
251.1357856874599
 20
48.5476800873299
 30
0.0
 10
251.1904127440915
 20
48.51611463583757
 30
0.0
 10
251.2472493829569
 20
48.48327258773194
 30
0.0
 10
251.3061711272192
 20
48.44922588855469
 30
0.0
 10
251.367053413977
 20
48.41404653230283
 30
0.0
 10
251.430972719115
 20
48.37711253083245
 30
0.0
 10
251.4979306618369
 20
48.33842298106163
 30
0.0
 10
251.5686948991564
 20
48.29753435346802
 30
0.0
 10
251.6433304599893
 20
48.2544091202251
 30
0.0
 10
251.7219023578658
 20
48.20900976635955
 30
0.0
 10
251.8037094898556
 20
48.16174143939285
 30
0.0
 10
251.8887532911479
 20
48.11260335454691
 30
0.0
 10
251.976480834452
 20
48.06191503536579
 30
0.0
 10
252.0668550336707
 20
48.00969794807201
 30
0.0
 10
252.1598386127116
 20
47.95597366892554
 30
0.0
 10
252.2559483282896
 20
47.90044367133718
 30
0.0
 10
252.355891900395
 20
47.84269910544863
 30
0.0
 10
252.459712595643
 20
47.78271503986121
 30
0.0
 10
252.5674534087764
 20
47.72046670421057
 30
0.0
 10
252.6784498146441
 20
47.6563380979423
 30
0.0
 10
252.7927011714495
 20
47.59032965315271
 30
0.0
 10
252.9102064614445
 20
47.52244202101473
 30
0.0
 10
253.0309642595649
 20
47.45267608989456
 30
0.0
 10
253.1549727015965
 20
47.3810330037381
 30
0.0
 10
253.2822294519997
 20
47.30751418065116
 30
0.0
 10
253.4127316715467
 20
47.23212133158614
 30
0.0
 10
253.546475984935
 20
47.1548564790392
 30
0.0
 10
253.6834584485647
 20
47.07572197564868
 30
0.0
 10
253.8236745186879
 20
46.99472052257571
 30
0.0
 10
253.9671190201564
 20
46.91185518753429
 30
0.0
 10
254.1188411330409
 20
46.82420927051763
 30
0.0
 10
254.2790586900549
 20
46.73165717274011
 30
0.0
 10
254.4479878816092
 20
46.63407426935963
 30
0.0
 10
254.6207879475343
 20
46.53425701243462
 30
0.0
 10
254.797446963833
 20
46.43221240604795
 30
0.0
 10
254.9721902280731
 20
46.33127618616012
 30
0.0
 10
255.1447784445271
 20
46.23158648964282
 30
0.0
 10
255.3149725593791
 20
46.13328130440749
 30
0.0
 10
255.4882956566159
 20
46.03317050257976
 30
0.0
 10
255.6647345419076
 20
45.93126179984234
 30
0.0
 10
255.8431791013163
 20
45.82819646769158
 30
0.0
 10
256.0235783174969
 20
45.72400402948392
 30
0.0
 10
256.2058806505204
 20
45.6187143083954
 30
0.0
 10
256.3911301911283
 20
45.51172436689114
 30
0.0
 10
256.5806206917219
 20
45.40228711340014
 30
0.0
 10
256.7743748523284
 20
45.29038958389759
 30
0.0
 10
256.9724143429243
 20
45.1760194135404
 30
0.0
 10
257.1734497354714
 20
45.05992137851653
 30
0.0
 10
257.3774610614997
 20
44.9421071123875
 30
0.0
 10
257.5844278541649
 20
44.82258853603737
 30
0.0
 10
257.7943292402237
 20
44.7013778042655
 30
0.0
 10
258.0192212355227
 20
44.57151323425489
 30
0.0
 10
258.2594265444914
 20
44.43280912543899
 30
0.0
 10
258.5152637141136
 20
44.28508224516771
 30
0.0
 10
258.7749697296003
 20
44.13512517662289
 30
0.0
 10
259.0385116057342
 20
43.98295711146258
 30
0.0
 10
259.3058574656366
 20
43.82859659551318
 30
0.0
 10
259.5717079501183
 20
43.67510343254509
 30
0.0
 10
259.8358976590332
 20
43.52257297596321
 30
0.0
 10
260.098265075544
 20
43.37109829643784
 30
0.0
 10
260.3639223306308
 20
43.2177280678342
 30
0.0
 10
260.6328539626185
 20
43.06247096220709
 30
0.0
 10
260.8132327031503
 20
42.95833955076366
 30
0.0
 10
260.9039653017228
 20
42.90596024306124
 30
0.0
  0
SPLINE
  5
EE
330
1F
100
AcDbEntity
  8
0
  6
Continuous
 62
     7
370
    30
100
AcDbSpline
210
0.0
220
0.0
230
1.0
 70
     8
 71
     3
 72
   138
 73
   134
 74
     0
 42
0.000000001
 43
0.00000001
 40
0.0
 40
0.0
 40
0.0
 40
0.0
 40
0.008698895982837
 40
0.0161944265562638
 40
0.0224939312778001
 40
0.0276036270004406
 40
0.0315285916203638
 40
0.0344495033333272
 40
0.0410468749139846
 40
0.0481063448900032
 40
0.0557498354866106
 40
0.0641917587930927
 40
0.0728685790785434
 40
0.0814555213357281
 40
0.0871088082757987
 40
0.0916206874294424
 40
0.0960643433480352
 40
0.1007408777829643
 40
0.1060904834945909
 40
0.1112336623514176
 40
0.1172056547875054
 40
0.1239899559315109
 40
0.1303088277314797
 40
0.1353236799777337
 40
0.1402534266863277
 40
0.1451044437664823
 40
0.1503858294924265
 40
0.1565895276546354
 40
0.164058175237456
 40
0.1727479490790968
 40
0.1782009599776407
 40
0.1826532653135764
 40
0.1861093607055301
 40
0.1897283485089011
 40
0.1945016639740345
 40
0.200426260087938
 40
0.2071091618159886
 40
0.2164051669250576
 40
0.2241308112616619
 40
0.2305208238766655
 40
0.2359478836743009
 40
0.2404451741875483
 40
0.2442250324051836
 40
0.2486283819724618
 40
0.2539459627446736
 40
0.2620740027858914
 40
0.2717042974930248
 40
0.2826503291239577
 40
0.2935326295491715
 40
0.3040740287099147
 40
0.3121188728531245
 40
0.3199556748424562
 40
0.3275484311981537
 40
0.3339712039063539
 40
0.3388248383241685
 40
0.3416728684865353
 40
0.3441876786184461
 40
0.347577180764087
 40
0.3518566242572976
 40
0.3570251090607413
 40
0.363081554607455
 40
0.3784921907728759
 40
0.3936977881471957
 40
0.4110719826669313
 40
0.4281794228279466
 40
0.4451451959402207
 40
0.4620234685164074
 40
0.4788173154623373
 40
0.4952887435528901
 40
0.5104849738986309
 40
0.524282891404056
 40
0.5378885167994205
 40
0.552755364539358
 40
0.5682599959495923
 40
0.5837798566601553
 40
0.5940509162133679
 40
0.6045002288625048
 40
0.6151297404505458
 40
0.6259709680724282
 40
0.6370447129571079
 40
0.6479991143486512
 40
0.6529486550422754
 40
0.6568107810116125
 40
0.660289667324918
 40
0.6648296414359173
 40
0.6704754607240722
 40
0.6769762855441005
 40
0.7071050679688143
 40
0.720256562083413
 40
0.7333509740088919
 40
0.7456656253439644
 40
0.7561655047900705
 40
0.7629245701068076
 40
0.7697080271961085
 40
0.776555254431562
 40
0.7836866185479805
 40
0.7911971602125153
 40
0.7995791866770217
 40
0.8089965251555367
 40
0.817535601076176
 40
0.8241763425964355
 40
0.8328734189064002
 40
0.8417523838445017
 40
0.8494159844478473
 40
0.8536688354721758
 40
0.857563668514654
 40
0.8610996344166264
 40
0.8648987363560698
 40
0.869973210295082
 40
0.8774486085407941
 40
0.8850127481812898
 40
0.8914896855981783
 40
0.8968745372954741
 40
0.9013548241718196
 40
0.9056770794249563
 40
0.9099166522758575
 40
0.9149508606203199
 40
0.9210204888330447
 40
0.927367580022563
 40
0.9331012231226538
 40
0.9383956364889121
 40
0.9440271419744034
 40
0.9500833075908883
 40
0.9563803581822443
 40
0.9628270125552376
 40
0.9687880688082933
 40
0.9715167623851676
 40
0.9737977462308954
 40
0.9761723215209933
 40
0.9799405225168649
 40
0.9851633893172391
 40
0.9918472167186492
 40
1.0
 40
1.0
 40
1.0
 40
1.0
 10
234.7411212728733
 20
59.41959279909133
 30
0.0
 10
234.7411504034129
 20
59.41255603746683
 30
0.0
 10
234.7412046347068
 20
59.39945594757648
 30
0.0
 10
234.741516356259
 20
59.38119747846078
 30
0.0
 10
234.7418985768932
 20
59.36582552735203
 30
0.0
 10
234.7422986268306
 20
59.35334105510027
 30
0.0
 10
234.7426641678881
 20
59.3436011951658
 30
0.0
 10
234.7431204688376
 20
59.33266142054454
 30
0.0
 10
234.743761538436
 20
59.31916172381645
 30
0.0
 10
234.7447285729739
 20
59.30181449490843
 30
0.0
 10
234.7459448434725
 20
59.28297921237343
 30
0.0
 10
234.747440789643
 20
59.26281085527751
 30
0.0
 10
234.7492076974045
 20
59.2418597959355
 30
0.0
 10
234.7509746200541
 20
59.22316683385758
 30
0.0
 10
234.7525495574994
 20
59.20785968769597
 30
0.0
 10
234.753846582234
 20
59.19594261627978
 30
0.0
 10
234.7551144824751
 20
59.18482631535927
 30
0.0
 10
234.7565231157767
 20
59.17302481026206
 30
0.0
 10
234.7580712192789
 20
59.16065719416755
 30
0.0
 10
234.7598324150712
 20
59.14723705803916
 30
0.0
 10
234.7618412756987
 20
59.13264180478977
 30
0.0
 10
234.7640975259802
 20
59.11707793237374
 30
0.0
 10
234.7663529354337
 20
59.10228598231103
 30
0.0
 10
234.7684640260992
 20
59.08900500129566
 30
0.0
 10
234.7704506627471
 20
59.07693741357152
 30
0.0
 10
234.772539782981
 20
59.06466156676203
 30
0.0
 10
234.7748822459143
 20
59.05134651902473
 30
0.0
 10
234.7776985447341
 20
59.035908256374
 30
0.0
 10
234.781160741484
 20
59.01769905503849
 30
0.0
 10
234.7846673083771
 20
59.00009807079754
 30
0.0
 10
234.7878051898118
 20
58.98495136871658
 30
0.0
 10
234.7901198266795
 20
58.97407020157945
 30
0.0
 10
234.7921570293413
 20
58.96468855799306
 30
0.0
 10
234.7942856610575
 20
58.95506114254534
 30
0.0
 10
234.7969108457426
 20
58.94343403367626
 30
0.0
 10
234.8001814338014
 20
58.92932083208128
 30
0.0
 10
234.8044269316645
 20
58.91153961313842
 30
0.0
 10
234.8091574763907
 20
58.89243837451291
 30
0.0
 10
234.8139272341414
 20
58.87388565125785
 30
0.0
 10
234.8179515205452
 20
58.85870493974767
 30
0.0
 10
234.8214830195709
 20
58.84568265619441
 30
0.0
 10
234.8245597923784
 20
58.83454384939662
 30
0.0
 10
234.8274958784804
 20
58.82406270032877
 30
0.0
 10
234.8306559551462
 20
58.8129864044645
 30
0.0
 10
234.8348930813496
 20
58.79842077559019
 30
0.0
 10
234.8404809461472
 20
58.7797018840341
 30
0.0
 10
234.8476251758583
 20
58.75653654195924
 30
0.0
 10
234.855708119761
 20
58.7312613385546
 30
0.0
 10
234.8643256083749
 20
58.70529471708745
 30
0.0
 10
234.8724341947985
 20
58.68170573651044
 30
0.0
 10
234.8799080032273
 20
58.66059685977721
 30
0.0
 10
234.8867008821255
 20
58.6418781333495
 30
0.0
 10
234.8931611130052
 20
58.62448792096119
 30
0.0
 10
234.8988478992794
 20
58.60949538366702
 30
0.0
 10
234.9031692059044
 20
58.59828907883391
 30
0.0
 10
234.9063259120284
 20
58.59019344887102
 30
0.0
 10
234.9090460307791
 20
58.58327082216505
 30
0.0
 10
234.9122334866354
 20
58.57522655983499
 30
0.0
 10
234.9162903721101
 20
58.56509804738692
 30
0.0
 10
234.9212485429441
 20
58.55288124716889
 30
0.0
 10
234.9298865338585
 20
58.53192375898961
 30
0.0
 10
234.9420930889276
 20
58.5031550742632
 30
0.0
 10
234.9586399450773
 20
58.46569400721016
 30
0.0
 10
234.9763959291948
 20
58.42712690392877
 30
0.0
 10
234.9954527504535
 20
58.38745576613964
 30
0.0
 10
235.0149751300272
 20
58.34843790893412
 30
0.0
 10
235.0350076062537
 20
58.30994712525094
 30
0.0
 10
235.055454613914
 20
58.27213419628922
 30
0.0
 10
235.0757878338466
 20
58.23589639465118
 30
0.0
 10
235.0953659985489
 20
58.20218819424975
 30
0.0
 10
235.1141351937891
 20
58.17086211432474
 30
0.0
 10
235.1331546321315
 20
58.14002537162162
 30
0.0
 10
235.1533622135392
 20
58.10822316189939
 30
0.0
 10
235.174909487695
 20
58.07536086802816
 30
0.0
 10
235.1947158588666
 20
58.04609789267656
 30
0.0
 10
235.2123973416801
 20
58.02064984828878
 30
0.0
 10
235.2278999254695
 20
57.99879997611509
 30
0.0
 10
235.2438955780219
 20
57.97672829105852
 30
0.0
 10
235.2604230117535
 20
57.95440860471462
 30
0.0
 10
235.2773387508067
 20
57.93205982266235
 30
0.0
 10
235.2914055664302
 20
57.91387937830979
 30
0.0
 10
235.3018019212548
 20
57.90065428413423
 30
0.0
 10
235.3082966459449
 20
57.89246463361987
 30
0.0
 10
235.3146021166453
 20
57.88457155783853
 30
0.0
 10
235.3218915281523
 20
57.87551944475223
 30
0.0
 10
235.330843494254
 20
57.86451511321834
 30
0.0
 10
235.3536713638699
 20
57.8367915622859
 30
0.0
 10
235.3810691495417
 20
57.80471171981242
 30
0.0
 10
235.4127543695564
 20
57.76918703876522
 30
0.0
 10
235.4346997014895
 20
57.74522404937922
 30
0.0
 10
235.4553769478048
 20
57.72321871956139
 30
0.0
 10
235.4725981794681
 20
57.70531197714433
 30
0.0
 10
235.4867249711359
 20
57.69088049064024
 30
0.0
 10
235.498768220798
 20
57.67874784167735
 30
0.0
 10
235.5110961495109
 20
57.66650195921458
 30
0.0
 10
235.5239381704264
 20
57.653929089983
 30
0.0
 10
235.5377863685657
 20
57.64057667300862
 30
0.0
 10
235.5531221597048
 20
57.62603458371568
 30
0.0
 10
235.569202517486
 20
57.61107092565283
 30
0.0
 10
235.5843282725529
 20
57.5972623878728
 30
0.0
 10
235.5991208225409
 20
57.58397674937552
 30
0.0
 10
235.6141985577022
 20
57.57065818918961
 30
0.0
 10
235.6300122108421
 20
57.55695488098637
 30
0.0
 10
235.643128752616
 20
57.54579400464088
 30
0.0
 10
235.6531507237607
 20
57.53737851735386
 30
0.0
 10
235.6605779960753
 20
57.53119835083609
 30
0.0
 10
235.6677366491708
 20
57.52529118091972
 30
0.0
 10
235.6756762823685
 20
57.51879355427939
 30
0.0
 10
235.6861789021045
 20
57.5102845821439
 30
0.0
 10
235.6991561340334
 20
57.49992053193816
 30
0.0
 10
235.7131028689743
 20
57.48897371278475
 30
0.0
 10
235.7257508190852
 20
57.47920724540382
 30
0.0
 10
235.7364341332919
 20
57.47107193544724
 30
0.0
 10
235.7457479974228
 20
57.46406184356875
 30
0.0
 10
235.7543366492725
 20
57.45766513088367
 30
0.0
 10
235.7633159314958
 20
57.45104588364538
 30
0.0
 10
235.7734914158887
 20
57.44362847630888
 30
0.0
 10
235.7851267096501
 20
57.43526121375934
 30
0.0
 10
235.7972723396953
 20
57.42665984116012
 30
0.0
 10
235.8089277918076
 20
57.41852887454908
 30
0.0
 10
235.8201289173434
 20
57.41082225636431
 30
0.0
 10
235.8316129589236
 20
57.40302970295608
 30
0.0
 10
235.8438400385142
 20
57.39485668029689
 30
0.0
 10
235.8566598266559
 20
57.38642399208707
 30
0.0
 10
235.8694435201755
 20
57.37815459101024
 30
0.0
 10
235.8798164108273
 20
57.37155422596603
 30
0.0
 10
235.8873623506026
 20
57.36680836227322
 30
0.0
 10
235.8924545639407
 20
57.36362733121747
 30
0.0
 10
235.8982859187809
 20
57.36000764895044
 30
0.0
 10
235.9061685324743
 20
57.35515537892768
 30
0.0
 10
235.9170634898479
 20
57.34853389031154
 30
0.0
 10
235.9310375557741
 20
57.340168702162
 30
0.0
 10
235.9414102118568
 20
57.33412614791613
 30
0.0
 10
235.9471100323147
 20
57.33080573759563
 30
0.0
  0
SPLINE
  5
EF
330
1F
100
AcDbEntity
  8
0
  6
Continuous
 62
     7
370
    30
100
AcDbSpline
210
0.0
220
0.0
230
1.0
 70
     8
 71
     3
 72
    25
 73
    21
 74
     0
 42
0.000000001
 43
0.00000001
 40
0.0
 40
0.0
 40
0.0
 40
0.0
 40
0.0437724109811291
 40
0.087164148457889
 40
0.1301752862711632
 40
0.1728059003764066
 40
0.2150560689182145
 40
0.2569258723082393
 40
0.2984153933066274
 40
0.3395247171071836
 40
0.3802539314264529
 40
0.4206031265969684
 40
0.4605723956648289
 40
0.5001618344919623
 40
0.579673335195418
 40
0.6607019591457552
 40
0.7432483537009611
 40
0.8273131227634424
 40
0.9128968296982978
 40
1.0
 40
1.0
 40
1.0
 40
1.0
 10
295.4330763443627
 20
91.44078435917999
 30
0.0
 10
295.4324328481513
 20
91.4785691230813
 30
0.0
 10
295.4311514519924
 20
91.55381004987329
 30
0.0
 10
295.420875001912
 20
91.67047410302432
 30
0.0
 10
295.404736864782
 20
91.78852855706185
 30
0.0
 10
295.3823837488724
 20
91.9077174086607
 30
0.0
 10
295.3542403905308
 20
92.02736805125411
 30
0.0
 10
295.320549983929
 20
92.14694451312424
 30
0.0
 10
295.281624436567
 20
92.26590409089138
 30
0.0
 10
295.2377749640525
 20
92.38373757178816
 30
0.0
 10
295.1893267698694
 20
92.49996134559471
 30
0.0
 10
295.1366135198193
 20
92.61411895310987
 30
0.0
 10
295.079970260012
 20
92.725790548301
 30
0.0
 10
294.9993190654581
 20
92.87146933083014
 30
0.0
 10
294.8879291518899
 20
93.04923150555248
 30
0.0
 10
294.7387082278242
 20
93.25236388090076
 30
0.0
 10
294.5746975452592
 20
93.44292959361275
 30
0.0
 10
294.3980768855315
 20
93.61599836260926
 30
0.0
 10
294.211475052172
 20
93.77004224698169
 30
0.0
 10
294.0835855642729
 20
93.84971442218607
 30
0.0
 10
294.0190781736562
 20
93.8899010255701
 30
0.0
  0
LINE
  5
F0
330
1F
100
AcDbEntity
  8
0
  6
Continuous
 62
     7
370
    30
100
AcDbLine
 10
243.8140659263
 20
122.8726376855
 30
0.0
 11
294.0190781737
 21
93.8899010256
 31
0.0
  0
LINE
  5
F1
330
1F
100
AcDbEntity
  8
0
  6
Continuous
 62
     7
370
    30
100
AcDbLine
 10
295.4330763444
 20
91.4407843592
 30
0.0
 11
295.4330763444
 21
33.4658892873
 31
0.0
  0
SPLINE
  5
F2
330
1F
100
AcDbEntity
  8
0
  6
Continuous
 62
     7
370
    30
100
AcDbSpline
210
0.0
220
0.0
230
1.0
 70
     8
 71
     3
 72
    21
 73
    17
 74
     0
 42
0.000000001
 43
0.00000001
 40
0.0
 40
0.0
 40
0.0
 40
0.0
 40
0.0218880576553572
 40
0.0993075009167533
 40
0.1774696476171101
 40
0.2563746851695439
 40
0.3360227954827635
 40
0.4164141551608819
 40
0.4975489356942179
 40
0.5794273036415027
 40
0.6620494208040555
 40
0.7454154443921948
 40
0.8084334695551383
 40
0.8718701954712097
 40
0.9357256850688469
 40
1.0
 40
1.0
 40
1.0
 40
1.0
 10
295.0008872144566
 20
32.54116848363557
 30
0.0
 10
295.006957920938
 20
32.54417269543704
 30
0.0
 10
295.034501099915
 20
32.55780299424776
 30
0.0
 10
295.079866650482
 20
32.58894037116469
 30
0.0
 10
295.1367255817318
 20
32.634784994151
 30
0.0
 10
295.1893664105236
 20
32.68817012435056
 30
0.0
 10
295.237821335407
 20
32.74840423752302
 30
0.0
 10
295.2816568108929
 20
32.81560119678974
 30
0.0
 10
295.3205757940374
 20
32.88960601485625
 30
0.0
 10
295.3542562778919
 20
32.97028581898829
 30
0.0
 10
295.3824018676906
 20
33.05744456471062
 30
0.0
 10
295.4028361834488
 20
33.14298272570378
 30
0.0
 10
295.4170079238692
 20
33.22506417902788
 30
0.0
 10
295.4261786074977
 20
33.30228835845012
 30
0.0
 10
295.4319906799526
 20
33.38243316610042
 30
0.0
 10
295.4327136684582
 20
33.43801002448041
 30
0.0
 10
295.4330763443483
 20
33.46588928732278
 30
0.0
  0
SPLINE
  5
F3
330
1F
100
AcDbEntity
  8
0
  6
Continuous
 62
     7
370
    30
100
AcDbSpline
210
0.0
220
0.0
230
1.0
 70
     8
 71
     3
 72
    21
 73
    17
 74
     0
 42
0.000000001
 43
0.00000001
 40
0.0
 40
0.0
 40
0.0
 40
0.0
 40
0.0642839060496514
 40
0.1281493583691916
 40
0.1915964186287019
 40
0.2546251497737081
 40
0.3380060252531756
 40
0.4206436548929754
 40
0.5025381959400405
 40
0.5836898102277109
 40
0.6640986643418612
 40
0.7437649297946682
 40
0.8226887832064329
 40
0.9008704064959611
 40
0.9783099870799051
 40
1.0
 40
1.0
 40
1.0
 40
1.0
 10
243.8140659262662
 20
122.8726376854677
 30
0.0
 10
243.7897430680248
 20
122.8862602114265
 30
0.0
 10
243.7412556802963
 20
122.9134165880106
 30
0.0
 10
243.6689497571736
 20
122.9484469823374
 30
0.0
 10
243.5974934311294
 20
122.9791087777399
 30
0.0
 10
243.5193302528665
 20
123.0078676241331
 30
0.0
 10
243.4350422672716
 20
123.0329306946009
 30
0.0
 10
243.3454951336984
 20
123.052125231018
 30
0.0
 10
243.2587906566295
 20
123.0632869922214
 30
0.0
 10
243.1752468568875
 20
123.0665744460368
 30
0.0
 10
243.0951398320653
 20
123.062199901284
 30
0.0
 10
243.018752526383
 20
123.0503427248959
 30
0.0
 10
242.9462027403848
 20
123.0314359263699
 30
0.0
 10
242.8780750498299
 20
123.0051028084421
 30
0.0
 10
242.8284830829342
 20
122.9814060053009
 30
0.0
 10
242.8029600102969
 20
122.964399097357
 30
0.0
 10
242.7973754441175
 20
122.9606779073471
 30
0.0
  0
ENDSEC
  0
SECTION
  2
OBJECTS
  0
DICTIONARY
  5
C
330
0
100
AcDbDictionary
281
     1
  3
ACAD_GROUP
350
D
  3
ACAD_LAYOUT
350
1A
  3
ACAD_MLINESTYLE
350
17
  3
ACAD_PLOTSETTINGS
350
19
  3
ACAD_PLOTSTYLENAME
350
E
  3
ACAD_SCALELIST
350
47
  0
DICTIONARY
  5
D
102
{ACAD_REACTORS
330
C
102
}
330
C
100
AcDbDictionary
281
     1
  0
DICTIONARY
  5
1A
102
{ACAD_REACTORS
330
C
102
}
330
C
100
AcDbDictionary
281
     1
  3
Layout1
350
1E
  3
Layout2
350
26
  3
Model
350
22
  0
DICTIONARY
  5
17
102
{ACAD_REACTORS
330
C
102
}
330
C
100
AcDbDictionary
281
     1
  3
Standard
350
18
  0
DICTIONARY
  5
19
102
{ACAD_REACTORS
330
C
102
}
330
C
100
AcDbDictionary
281
     1
  0
ACDBDICTIONARYWDFLT
  5
E
102
{ACAD_REACTORS
330
C
102
}
330
C
100
AcDbDictionary
281
     1
  3
Normal
350
F
100
AcDbDictionaryWithDefault
340
F
  0
DICTIONARY
  5
47
102
{ACAD_REACTORS
330
C
102
}
330
C
100
AcDbDictionary
281
     1
  3
A0
350
48
  3
A1
350
49
  3
A2
350
4A
  3
A3
350
4B
  3
A4
350
4C
  3
A5
350
4D
  3
A6
350
4E
  3
A7
350
4F
  3
A8
350
50
  3
A9
350
51
  3
B0
350
52
  3
B1
350
53
  3
B2
350
54
  3
B3
350
55
  3
B4
350
56
  3
B5
350
57
  3
B6
350
58
  3
B7
350
59
  3
B8
350
5A
  3
B9
350
5B
  3
C0
350
5C
  3
C1
350
5D
  3
C2
350
5E
  3
C3
350
5F
  3
C4
350
60
  3
C5
350
61
  3
C6
350
62
  3
C7
350
63
  3
C8
350
64
  3
C9
350
65
  3
D0
350
66
  3
D1
350
67
  3
D2
350
68
  0
LAYOUT
  5
1E
102
{ACAD_REACTORS
330
1A
102
}
330
1A
100
AcDbPlotSettings
  1

  2
none_device
  4

  6

 40
0.0
 41
0.0
 42
0.0
 43
0.0
 44
0.0
 45
0.0
 46
0.0
 47
0.0
 48
0.0
 49
0.0
140
0.0
141
0.0
142
1.0
143
1.0
 70
   688
 72
     1
 73
     0
 74
     5
  7

 75
    16
147
1.0
148
0.0
149
0.0
100
AcDbLayout
  1
Layout1
 70
     1
 71
     1
 10
0.0
 20
0.0
 11
420.0
 21
297.0
 12
0.0
 22
0.0
 32
0.0
 14
1.0000000000E+20
 24
1.0000000000E+20
 34
1.0000000000E+20
 15
-1.0000000000E+20
 25
-1.0000000000E+20
 35
-1.0000000000E+20
146
0.0
 13
0.0
 23
0.0
 33
0.0
 16
1.0
 26
0.0
 36
0.0
 17
0.0
 27
1.0
 37
0.0
 76
     0
330
1B
  0
LAYOUT
  5
26
102
{ACAD_REACTORS
330
1A
102
}
330
1A
100
AcDbPlotSettings
  1

  2
none_device
  4

  6

 40
0.0
 41
0.0
 42
0.0
 43
0.0
 44
0.0
 45
0.0
 46
0.0
 47
0.0
 48
0.0
 49
0.0
140
0.0
141
0.0
142
1.0
143
1.0
 70
   688
 72
     1
 73
     0
 74
     5
  7

 75
    16
147
1.0
148
0.0
149
0.0
100
AcDbLayout
  1
Layout2
 70
     1
 71
     2
 10
0.0
 20
0.0
 11
0.0
 21
0.0
 12
0.0
 22
0.0
 32
0.0
 14
0.0
 24
0.0
 34
0.0
 15
0.0
 25
0.0
 35
0.0
146
0.0
 13
0.0
 23
0.0
 33
0.0
 16
1.0
 26
0.0
 36
0.0
 17
0.0
 27
1.0
 37
0.0
 76
     0
330
23
  0
LAYOUT
  5
22
102
{ACAD_REACTORS
330
1A
102
}
330
1A
100
AcDbPlotSettings
  1

  2
none_device
  4
Letter_(8.50_x_11.00_Inches)
  6

 40
6.35
 41
6.35
 42
6.35000508
 43
6.35000508
 44
215.9
 45
279.4
 46
0.0
 47
0.0
 48
0.0
 49
0.0
140
0.0
141
0.0
142
1.0
143
1.0
 70
  1712
 72
     1
 73
     0
 74
     0
  7

 75
     0
147
1.0
148
0.0
149
0.0
100
AcDbLayout
  1
Model
 70
     1
 71
     0
 10
0.0
 20
0.0
 11
323.0
 21
265.0
 12
0.0
 22
0.0
 32
0.0
 14
0.0
 24
0.0
 34
0.0
 15
323.0
 25
265.0
 35
0.0
146
0.0
 13
0.0
 23
0.0
 33
0.0
 16
1.0
 26
0.0
 36
0.0
 17
0.0
 27
1.0
 37
0.0
 76
     0
330
1F
331
29
  0
MLINESTYLE
  5
18
102
{ACAD_REACTORS
330
17
102
}
330
17
100
AcDbMlineStyle
  2
Standard
 70
     0
  3

 62
   256
 51
90.0
 52
90.0
 71
     2
 49
0.5
 62
   256
  6
BYLAYER
 49
-0.5
 62
   256
  6
BYLAYER
  0
ACDBPLACEHOLDER
  5
F
102
{ACAD_REACTORS
330
E
102
}
330
E
  0
SCALE
  5
48
102
{ACAD_REACTORS
330
47
102
}
330
47
100
AcDbScale
 70
     0
300
1:1
140
1.0
141
1.0
290
     1
  0
SCALE
  5
49
102
{ACAD_REACTORS
330
47
102
}
330
47
100
AcDbScale
 70
     0
300
1:2
140
1.0
141
2.0
290
     0
  0
SCALE
  5
4A
102
{ACAD_REACTORS
330
47
102
}
330
47
100
AcDbScale
 70
     0
300
1:4
140
1.0
141
4.0
290
     0
  0
SCALE
  5
4B
102
{ACAD_REACTORS
330
47
102
}
330
47
100
AcDbScale
 70
     0
300
1:5
140
1.0
141
5.0
290
     0
  0
SCALE
  5
4C
102
{ACAD_REACTORS
330
47
102
}
330
47
100
AcDbScale
 70
     0
300
1:8
140
1.0
141
8.0
290
     0
  0
SCALE
  5
4D
102
{ACAD_REACTORS
330
47
102
}
330
47
100
AcDbScale
 70
     0
300
1:10
140
1.0
141
10.0
290
     0
  0
SCALE
  5
4E
102
{ACAD_REACTORS
330
47
102
}
330
47
100
AcDbScale
 70
     0
300
1:16
140
1.0
141
16.0
290
     0
  0
SCALE
  5
4F
102
{ACAD_REACTORS
330
47
102
}
330
47
100
AcDbScale
 70
     0
300
1:20
140
1.0
141
20.0
290
     0
  0
SCALE
  5
50
102
{ACAD_REACTORS
330
47
102
}
330
47
100
AcDbScale
 70
     0
300
1:30
140
1.0
141
30.0
290
     0
  0
SCALE
  5
51
102
{ACAD_REACTORS
330
47
102
}
330
47
100
AcDbScale
 70
     0
300
1:40
140
1.0
141
40.0
290
     0
  0
SCALE
  5
52
102
{ACAD_REACTORS
330
47
102
}
330
47
100
AcDbScale
 70
     0
300
1:50
140
1.0
141
50.0
290
     0
  0
SCALE
  5
53
102
{ACAD_REACTORS
330
47
102
}
330
47
100
AcDbScale
 70
     0
300
1:100
140
1.0
141
100.0
290
     0
  0
SCALE
  5
54
102
{ACAD_REACTORS
330
47
102
}
330
47
100
AcDbScale
 70
     0
300
2:1
140
2.0
141
1.0
290
     0
  0
SCALE
  5
55
102
{ACAD_REACTORS
330
47
102
}
330
47
100
AcDbScale
 70
     0
300
4:1
140
4.0
141
1.0
290
     0
  0
SCALE
  5
56
102
{ACAD_REACTORS
330
47
102
}
330
47
100
AcDbScale
 70
     0
300
8:1
140
8.0
141
1.0
290
     0
  0
SCALE
  5
57
102
{ACAD_REACTORS
330
47
102
}
330
47
100
AcDbScale
 70
     0
300
10:1
140
10.0
141
1.0
290
     0
  0
SCALE
  5
58
102
{ACAD_REACTORS
330
47
102
}
330
47
100
AcDbScale
 70
     0
300
100:1
140
100.0
141
1.0
290
     0
  0
SCALE
  5
59
102
{ACAD_REACTORS
330
47
102
}
330
47
100
AcDbScale
 70
     0
300
1/128" = 1'-0"
140
0.0078125
141
12.0
290
     0
  0
SCALE
  5
5A
102
{ACAD_REACTORS
330
47
102
}
330
47
100
AcDbScale
 70
     0
300
1/64" = 1'-0"
140
0.015625
141
12.0
290
     0
  0
SCALE
  5
5B
102
{ACAD_REACTORS
330
47
102
}
330
47
100
AcDbScale
 70
     0
300
1/32" = 1'-0"
140
0.03125
141
12.0
290
     0
  0
SCALE
  5
5C
102
{ACAD_REACTORS
330
47
102
}
330
47
100
AcDbScale
 70
     0
300
1/16" = 1'-0"
140
0.0625
141
12.0
290
     0
  0
SCALE
  5
5D
102
{ACAD_REACTORS
330
47
102
}
330
47
100
AcDbScale
 70
     0
300
3/32" = 1'-0"
140
0.09375
141
12.0
290
     0
  0
SCALE
  5
5E
102
{ACAD_REACTORS
330
47
102
}
330
47
100
AcDbScale
 70
     0
300
1/8" = 1'-0"
140
0.125
141
12.0
290
     0
  0
SCALE
  5
5F
102
{ACAD_REACTORS
330
47
102
}
330
47
100
AcDbScale
 70
     0
300
3/16" = 1'-0"
140
0.1875
141
12.0
290
     0
  0
SCALE
  5
60
102
{ACAD_REACTORS
330
47
102
}
330
47
100
AcDbScale
 70
     0
300
1/4" = 1'-0"
140
0.25
141
12.0
290
     0
  0
SCALE
  5
61
102
{ACAD_REACTORS
330
47
102
}
330
47
100
AcDbScale
 70
     0
300
3/8" = 1'-0"
140
0.375
141
12.0
290
     0
  0
SCALE
  5
62
102
{ACAD_REACTORS
330
47
102
}
330
47
100
AcDbScale
 70
     0
300
1/2" = 1'-0"
140
0.5
141
12.0
290
     0
  0
SCALE
  5
63
102
{ACAD_REACTORS
330
47
102
}
330
47
100
AcDbScale
 70
     0
300
3/4" = 1'-0"
140
0.75
141
12.0
290
     0
  0
SCALE
  5
64
102
{ACAD_REACTORS
330
47
102
}
330
47
100
AcDbScale
 70
     0
300
1" = 1'-0"
140
1.0
141
12.0
290
     0
  0
SCALE
  5
65
102
{ACAD_REACTORS
330
47
102
}
330
47
100
AcDbScale
 70
     0
300
1-1/2" = 1'-0"
140
1.5
141
12.0
290
     0
  0
SCALE
  5
66
102
{ACAD_REACTORS
330
47
102
}
330
47
100
AcDbScale
 70
     0
300
3" = 1'-0"
140
3.0
141
12.0
290
     0
  0
SCALE
  5
67
102
{ACAD_REACTORS
330
47
102
}
330
47
100
AcDbScale
 70
     0
300
6" = 1'-0"
140
6.0
141
12.0
290
     0
  0
SCALE
  5
68
102
{ACAD_REACTORS
330
47
102
}
330
47
100
AcDbScale
 70
     0
300
1'-0" = 1'-0"
140
12.0
141
12.0
290
     0
  0
ENDSEC
  0
EOF
