  0
SECTION
  2
HEADER
  9
$ACADVER
  1
AC1015
  9
$ACADMAINTVER
 70
     6
  9
$DWGCODEPAGE
  3
ANSI_1252
  9
$INSBASE
 10
0.0
 20
0.0
 30
0.0
  9
$EXTMIN
 10
0.0
 20
0.0
 30
0.0
  9
$EXTMAX
 10
972.0
 20
702.0
 30
0.0
  9
$LIMMIN
 10
0.0
 20
0.0
  9
$LIMMAX
 10
972.0
 20
702.0
  9
$ORTHOMODE
 70
     0
  9
$REGENMODE
 70
     1
  9
$FILLMODE
 70
     1
  9
$QTEXTMODE
 70
     0
  9
$MIRRTEXT
 70
     1
  9
$LTSCALE
 40
1.0
  9
$ATTMODE
 70
     1
  9
$TEXTSIZE
 40
3.5
  9
$TRACEWID
 40
1.0
  9
$TEXTSTYLE
  7
Standard
  9
$CLAYER
  8
0
  9
$CELTYPE
  6
ByLayer
  9
$CECOLOR
 62
   256
  9
$CELTSCALE
 40
1.0
  9
$DISPSILH
 70
     0
  9
$DIMSCALE
 40
1.0
  9
$DIMASZ
 40
3.302
  9
$DIMEXO
 40
1.0
  9
$DIMDLI
 40
3.75
  9
$DIMRND
 40
0.0
  9
$DIMDLE
 40
0.0
  9
$DIMEXE
 40
1.0
  9
$DIMTP
 40
0.0
  9
$DIMTM
 40
0.0
  9
$DIMTXT
 40
2.8
  9
$DIMCEN
 40
2.5
  9
$DIMTSZ
 40
0.0
  9
$DIMTOL
 70
     0
  9
$DIMLIM
 70
     0
  9
$DIMTIH
 70
     1
  9
$DIMTOH
 70
     1
  9
$DIMSE1
 70
     0
  9
$DIMSE2
 70
     0
  9
$DIMTAD
 70
     1
  9
$DIMZIN
 70
     0
  9
$DIMBLK
  1

  9
$DIMASO
 70
     1
  9
$DIMSHO
 70
     1
  9
$DIMPOST
  1

  9
$DIMAPOST
  1

  9
$DIMALT
 70
     0
  9
$DIMALTD
 70
     3
  9
$DIMALTF
 40
0.0393700787
  9
$DIMLFAC
 40
1.0
  9
$DIMTOFL
 70
     1
  9
$DIMTVP
 40
0.0
  9
$DIMTIX
 70
     0
  9
$DIMSOXD
 70
     0
  9
$DIMSAH
 70
     0
  9
$DIMBLK1
  1

  9
$DIMBLK2
  1

  9
$DIMSTYLE
  2
ISO-25
  9
$DIMCLRD
 70
     0
  9
$DIMCLRE
 70
     0
  9
$DIMCLRT
 70
     0
  9
$DIMTFAC
 40
1.0
  9
$DIMGAP
 40
1.524
  9
$DIMJUST
 70
     0
  9
$DIMSD1
 70
     0
  9
$DIMSD2
 70
     0
  9
$DIMTOLJ
 70
     0
  9
$DIMTZIN
 70
     0
  9
$DIMALTZ
 70
     0
  9
$DIMALTTZ
 70
     0
  9
$DIMUPT
 70
     0
  9
$DIMDEC
 70
     2
  9
$DIMTDEC
 70
     2
  9
$DIMALTU
 70
     2
  9
$DIMALTTD
 70
     3
  9
$DIMTXSTY
  7
Standard
  9
$DIMAUNIT
 70
     0
  9
$DIMADEC
 70
     2
  9
$DIMALTRND
 40
0.0
  9
$DIMAZIN
 70
     0
  9
$DIMDSEP
 70
    44
  9
$DIMATFIT
 70
     3
  9
$DIMFRAC
 70
     0
  9
$DIMLDRBLK
  1

  9
$DIMLUNIT
 70
     2
  9
$DIMLWD
 70
    -2
  9
$DIMLWE
 70
    -2
  9
$DIMTMOVE
 70
     0
  9
$LUNITS
 70
     2
  9
$LUPREC
 70
     2
  9
$SKETCHINC
 40
1.0
  9
$FILLETRAD
 40
10.0
  9
$AUNITS
 70
     0
  9
$AUPREC
 70
     2
  9
$MENU
  1
.
  9
$ELEVATION
 40
0.0
  9
$PELEVATION
 40
0.0
  9
$THICKNESS
 40
0.0
  9
$LIMCHECK
 70
     0
  9
$CHAMFERA
 40
0.0
  9
$CHAMFERB
 40
0.0
  9
$CHAMFERC
 40
0.0
  9
$CHAMFERD
 40
0.0
  9
$SKPOLY
 70
     0
  9
$TDCREATE
 40
2458473.43009228
  9
$TDUCREATE
 40
2458473.346758947
  9
$TDUPDATE
 40
2458473.430093067
  9
$TDUUPDATE
 40
2458473.346759734
  9
$TDINDWG
 40
0.0000000116
  9
$TDUSRTIMER
 40
0.0000000116
  9
$USRTIMER
 70
     1
  9
$ANGBASE
 50
0.0
  9
$ANGDIR
 70
     0
  9
$PDMODE
 70
     0
  9
$PDSIZE
 40
-1.0
  9
$PLINEWID
 40
0.0
  9
$SPLFRAME
 70
     0
  9
$SPLINETYPE
 70
     6
  9
$SPLINESEGS
 70
     8
  9
$HANDSEED
  5
1A0
  9
$SURFTAB1
 70
     6
  9
$SURFTAB2
 70
     6
  9
$SURFTYPE
 70
     6
  9
$SURFU
 70
     6
  9
$SURFV
 70
     6
  9
$UCSBASE
  2

  9
$UCSNAME
  2

  9
$UCSORG
 10
0.0
 20
0.0
 30
0.0
  9
$UCSXDIR
 10
1.0
 20
0.0
 30
0.0
  9
$UCSYDIR
 10
0.0
 20
1.0
 30
0.0
  9
$UCSORTHOREF
  2

  9
$UCSORTHOVIEW
 70
     0
  9
$UCSORGTOP
 10
0.0
 20
0.0
 30
0.0
  9
$UCSORGBOTTOM
 10
0.0
 20
0.0
 30
0.0
  9
$UCSORGLEFT
 10
0.0
 20
0.0
 30
0.0
  9
$UCSORGRIGHT
 10
0.0
 20
0.0
 30
0.0
  9
$UCSORGFRONT
 10
0.0
 20
0.0
 30
0.0
  9
$UCSORGBACK
 10
0.0
 20
0.0
 30
0.0
  9
$PUCSBASE
  2

  9
$PUCSNAME
  2

  9
$PUCSORG
 10
0.0
 20
0.0
 30
0.0
  9
$PUCSXDIR
 10
1.0
 20
0.0
 30
0.0
  9
$PUCSYDIR
 10
0.0
 20
1.0
 30
0.0
  9
$PUCSORTHOREF
  2

  9
$PUCSORTHOVIEW
 70
     0
  9
$PUCSORGTOP
 10
0.0
 20
0.0
 30
0.0
  9
$PUCSORGBOTTOM
 10
0.0
 20
0.0
 30
0.0
  9
$PUCSORGLEFT
 10
0.0
 20
0.0
 30
0.0
  9
$PUCSORGRIGHT
 10
0.0
 20
0.0
 30
0.0
  9
$PUCSORGFRONT
 10
0.0
 20
0.0
 30
0.0
  9
$PUCSORGBACK
 10
0.0
 20
0.0
 30
0.0
  9
$USERI1
 70
     0
  9
$USERI2
 70
     0
  9
$USERI3
 70
     0
  9
$USERI4
 70
     0
  9
$USERI5
 70
     0
  9
$USERR1
 40
0.0
  9
$USERR2
 40
0.0
  9
$USERR3
 40
0.0
  9
$USERR4
 40
0.0
  9
$USERR5
 40
0.0
  9
$WORLDVIEW
 70
     1
  9
$SHADEDGE
 70
     3
  9
$SHADEDIF
 70
    70
  9
$TILEMODE
 70
     1
  9
$MAXACTVP
 70
    64
  9
$PINSBASE
 10
0.0
 20
0.0
 30
0.0
  9
$PLIMCHECK
 70
     0
  9
$PEXTMIN
 10
1.0000000000E+20
 20
1.0000000000E+20
 30
1.0000000000E+20
  9
$PEXTMAX
 10
-1.0000000000E+20
 20
-1.0000000000E+20
 30
-1.0000000000E+20
  9
$PLIMMIN
 10
0.0
 20
0.0
  9
$PLIMMAX
 10
420.0
 20
297.0
  9
$UNITMODE
 70
     0
  9
$VISRETAIN
 70
     1
  9
$PLINEGEN
 70
     0
  9
$PSLTSCALE
 70
     1
  9
$TREEDEPTH
 70
  3020
  9
$CMLSTYLE
  2
Standard
  9
$CMLJUST
 70
     0
  9
$CMLSCALE
 40
20.0
  9
$PROXYGRAPHICS
 70
     1
  9
$MEASUREMENT
 70
     1
  9
$CELWEIGHT
370
    -1
  9
$ENDCAPS
280
     0
  9
$JOINSTYLE
280
     0
  9
$LWDISPLAY
290
     1
  9
$INSUNITS
 70
     4
  9
$HYPERLINKBASE
  1

  9
$STYLESHEET
  1

  9
$XEDIT
290
     1
  9
$CEPSNTYPE
380
     0
  9
$PSTYLEMODE
290
     1
  9
$FINGERPRINTGUID
  2
{5B378E38-3B3A-43B6-826B-358001D13B9C}
  9
$VERSIONGUID
  2
{FAEB1C32-E019-11D5-929B-00C0DF256EC4}
  9
$EXTNAMES
290
     1
  9
$PSVPSCALE
 40
0.0
  9
$OLESTARTUP
290
     0
  0
ENDSEC
  0
SECTION
  2
CLASSES
  0
CLASS
  1
ACDBDICTIONARYWDFLT
  2
AcDbDictionaryWithDefault
  3
ObjectDBX Classes
 90
        0
280
     0
281
     0
  0
CLASS
  1
VISUALSTYLE
  2
AcDbVisualStyle
  3
ObjectDBX Classes
 90
     4095
280
     0
281
     0
  0
CLASS
  1
MATERIAL
  2
AcDbMaterial
  3
ObjectDBX Classes
 90
     1153
280
     0
281
     0
  0
CLASS
  1
SCALE
  2
AcDbScale
  3
ObjectDBX Classes
 90
     1153
280
     0
281
     0
  0
CLASS
  1
TABLESTYLE
  2
AcDbTableStyle
  3
ObjectDBX Classes
 90
     4095
280
     0
281
     0
  0
CLASS
  1
MLEADERSTYLE
  2
AcDbMLeaderStyle
  3
ACDB_MLEADERSTYLE_CLASS
 90
     4095
280
     0
281
     0
  0
CLASS
  1
SUN
  2
AcDbSun
  3
SCENEOE
 90
     1153
280
     0
281
     0
  0
CLASS
  1
ACDBPLACEHOLDER
  2
AcDbPlaceHolder
  3
ObjectDBX Classes
 90
        0
280
     0
281
     0
  0
CLASS
  1
LAYOUT
  2
AcDbLayout
  3
ObjectDBX Classes
 90
        0
280
     0
281
     0
  0
ENDSEC
  0
SECTION
  2
TABLES
  0
TABLE
  2
VPORT
  5
8
330
0
100
AcDbSymbolTable
 70
     1
  0
VPORT
  5
29
330
8
100
AcDbSymbolTableRecord
100
AcDbViewportTableRecord
  2
*Active
 70
     0
 10
0.0
 20
0.0
 11
1.0
 21
1.0
 12
486.0
 22
351.0
 13
0.0
 23
0.0
 14
10.0
 24
10.0
 15
10.0
 25
10.0
 16
0.0
 26
0.0
 36
1.0
 17
0.0
 27
0.0
 37
0.0
 40
702.0
 41
1.3846153846
 42
50.0
 43
0.0
 44
0.0
 50
0.0
 51
0.0
 71
     0
 72
  2000
 73
     1
 74
     3
 75
     0
 76
     0
 77
     0
 78
     0
281
     0
 65
     1
110
0.0
120
0.0
130
0.0
111
1.0
121
0.0
131
0.0
112
0.0
122
1.0
132
0.0
 79
     0
146
0.0
  0
ENDTAB
  0
TABLE
  2
LTYPE
  5
5
330
0
100
AcDbSymbolTable
 70
     6
  0
LTYPE
  5
14
330
5
100
AcDbSymbolTableRecord
100
AcDbLinetypeTableRecord
  2
ByBlock
 70
     0
  3

 72
    65
 73
     0
 40
0.0
  0
LTYPE
  5
15
330
5
100
AcDbSymbolTableRecord
100
AcDbLinetypeTableRecord
  2
ByLayer
 70
     0
  3

 72
    65
 73
     0
 40
0.0
  0
LTYPE
  5
16
330
5
100
AcDbSymbolTableRecord
100
AcDbLinetypeTableRecord
  2
Continuous
 70
     0
  3
Solid line
 72
    65
 73
     0
 40
0.0
  0
LTYPE
  5
6E
330
5
100
AcDbSymbolTableRecord
100
AcDbLinetypeTableRecord
  2
HIDDEN
 70
     0
  3
Hidden __ __ __ __ __ __ __ __ __ __ __ __ __ __
 72
    65
 73
     2
 40
1.905
 49
1.27
 74
     0
 49
-0.635
 74
     0
  0
LTYPE
  5
6F
330
5
100
AcDbSymbolTableRecord
100
AcDbLinetypeTableRecord
  2
PHANTOM
 70
     0
  3
Phantom ______  __  __  ______  __  __  ______
 72
    65
 73
     6
 40
12.7
 49
6.35
 74
     0
 49
-1.27
 74
     0
 49
1.27
 74
     0
 49
-1.27
 74
     0
 49
1.27
 74
     0
 49
-1.27
 74
     0
  0
LTYPE
  5
70
330
5
100
AcDbSymbolTableRecord
100
AcDbLinetypeTableRecord
  2
CENTER
 70
     0
  3
Center ____ _ ____ _ ____ _ ____ _ ____ _ ____
 72
    65
 73
     4
 40
10.16
 49
6.35
 74
     0
 49
-1.27
 74
     0
 49
1.27
 74
     0
 49
-1.27
 74
     0
  0
LTYPE
  5
71
330
5
100
AcDbSymbolTableRecord
100
AcDbLinetypeTableRecord
  2
CENTERX2
 70
     0
  3
Center (2x) ________  __  ________  __  _____
 72
    65
 73
     4
 40
20.32
 49
12.7
 74
     0
 49
-2.54
 74
     0
 49
2.54
 74
     0
 49
-2.54
 74
     0
  0
LTYPE
  5
72
330
5
100
AcDbSymbolTableRecord
100
AcDbLinetypeTableRecord
  2
DOT2
 70
     0
  3
Dot (.5x) ........................................
 72
    65
 73
     2
 40
0.635
 49
0.0
 74
     0
 49
-0.635
 74
     0
  0
ENDTAB
  0
TABLE
  2
LAYER
  5
2
330
0
100
AcDbSymbolTable
 70
     2
  0
LAYER
  5
10
330
2
100
AcDbSymbolTableRecord
100
AcDbLayerTableRecord
  2
0
 70
     0
 62
     7
  6
Continuous
370
    -3
390
F
  0
LAYER
  5
73
330
2
100
AcDbSymbolTableRecord
100
AcDbLayerTableRecord
  2
FORMAT
 70
     0
 62
     7
  6
Continuous
370
    -3
390
F
  0
ENDTAB
  0
TABLE
  2
STYLE
  5
3
330
0
100
AcDbSymbolTable
 70
     2
  0
STYLE
  5
11
330
3
100
AcDbSymbolTableRecord
100
AcDbTextStyleTableRecord
  2
Standard
 70
     0
 40
0.0
 41
1.0
 50
0.0
 71
     0
 42
3.5
  3
txt
  4

  0
STYLE
  5
74
330
3
100
AcDbSymbolTableRecord
100
AcDbTextStyleTableRecord
  2
SLDTEXTSTYLE0
 70
     0
 40
0.0
 41
0.605
 50
0.0
 71
     0
 42
3.5
  3
TXT
  4

  0
ENDTAB
  0
TABLE
  2
VIEW
  5
6
330
0
100
AcDbSymbolTable
 70
     0
  0
ENDTAB
  0
TABLE
  2
UCS
  5
7
330
0
100
AcDbSymbolTable
 70
     0
  0
ENDTAB
  0
TABLE
  2
APPID
  5
9
330
0
100
AcDbSymbolTable
 70
     1
  0
APPID
  5
12
330
9
100
AcDbSymbolTableRecord
100
AcDbRegAppTableRecord
  2
ACAD
 70
     0
  0
ENDTAB
  0
TABLE
  2
DIMSTYLE
  5
A
330
0
100
AcDbSymbolTable
 70
     1
100
AcDbDimStyleTable
  0
DIMSTYLE
105
27
330
A
100
AcDbSymbolTableRecord
100
AcDbDimStyleTableRecord
  2
ISO-25
 70
     0
 41
2.5
 42
0.625
 43
3.75
 44
1.25
 73
     0
 74
     0
 77
     1
 78
     8
140
2.5
141
2.5
143
0.0393700787
147
0.625
171
     3
172
     1
178
     0
271
     2
272
     2
274
     3
278
    44
283
     0
284
     8
340
11
  0
ENDTAB
  0
TABLE
  2
BLOCK_RECORD
  5
1
330
0
100
AcDbSymbolTable
 70
     1
  0
BLOCK_RECORD
  5
1F
330
1
100
AcDbSymbolTableRecord
100
AcDbBlockTableRecord
  2
*Model_Space
340
22
  0
BLOCK_RECORD
  5
1B
330
1
100
AcDbSymbolTableRecord
100
AcDbBlockTableRecord
  2
*Paper_Space
340
1E
  0
BLOCK_RECORD
  5
23
330
1
100
AcDbSymbolTableRecord
100
AcDbBlockTableRecord
  2
*Paper_Space0
340
26
  0
ENDTAB
  0
ENDSEC
  0
SECTION
  2
BLOCKS
  0
BLOCK
  5
20
330
1F
100
AcDbEntity
  8
0
100
AcDbBlockBegin
  2
*Model_Space
 70
     0
 10
0.0
 20
0.0
 30
0.0
  3
*Model_Space
  1

  0
ENDBLK
  5
21
330
1F
100
AcDbEntity
  8
0
100
AcDbBlockEnd
  0
BLOCK
  5
1C
330
1B
100
AcDbEntity
 67
     1
  8
0
100
AcDbBlockBegin
  2
*Paper_Space
 70
     0
 10
0.0
 20
0.0
 30
0.0
  3
*Paper_Space
  1

  0
ENDBLK
  5
1D
330
1B
100
AcDbEntity
 67
     1
  8
0
100
AcDbBlockEnd
  0
BLOCK
  5
24
330
23
100
AcDbEntity
  8
0
100
AcDbBlockBegin
  2
*Paper_Space0
 70
     0
 10
0.0
 20
0.0
 30
0.0
  3
*Paper_Space0
  1

  0
ENDBLK
  5
25
330
23
100
AcDbEntity
  8
0
100
AcDbBlockEnd
  0
ENDSEC
  0
SECTION
  2
ENTITIES
  0
MTEXT
  5
75
330
1F
100
AcDbEntity
  8
0
  6
Continuous
 62
     7
370
     0
100
AcDbMText
 10
7.2782978723
 20
22.1884790273
 30
0.0
 40
10.0
 41
0.0
 71
     1
 72
     1
  1
1:1
  7
SLDTEXTSTYLE0
 73
     1
 44
1.0
  0
LINE
  5
76
330
1F
100
AcDbEntity
  8
0
  6
Continuous
 62
     7
370
    30
100
AcDbLine
 10
473.0
 20
663.9500125
 30
0.0
 11
473.0
 21
545.4500125
 31
0.0
  0
LINE
  5
77
330
1F
100
AcDbEntity
  8
0
  6
Continuous
 62
     7
370
    30
100
AcDbLine
 10
499.0
 20
545.4500125
 30
0.0
 11
499.0
 21
663.9500125
 31
0.0
  0
LINE
  5
78
330
1F
100
AcDbEntity
  8
0
  6
Continuous
 62
     7
370
    30
100
AcDbLine
 10
475.52
 20
545.4500125
 30
0.0
 11
475.52
 21
544.4500125
 31
0.0
  0
LINE
  5
79
330
1F
100
AcDbEntity
  8
0
  6
Continuous
 62
     7
370
    30
100
AcDbLine
 10
496.48
 20
544.4500125
 30
0.0
 11
496.48
 21
545.4500125
 31
0.0
  0
SPLINE
  5
7A
330
1F
100
AcDbEntity
  8
0
  6
Continuous
 62
     7
370
    30
100
AcDbSpline
210
0.0
220
0.0
230
1.0
 70
     8
 71
     3
 72
    31
 73
    27
 74
     0
 42
0.000000001
 43
0.00000001
 40
0.0
 40
0.0
 40
0.0
 40
0.0
 40
0.0367691136021406
 40
0.070715478710415
 40
0.1022415022316425
 40
0.1318545193078758
 40
0.1601674848271452
 40
0.1878774117145846
 40
0.2157181258143875
 40
0.2443433676260303
 40
0.3035911181124423
 40
0.3653172100392925
 40
0.4295231019161924
 40
0.4958448080409589
 40
0.5625413434739258
 40
0.629382735139398
 40
0.6963667113711363
 40
0.7609429565904376
 40
0.7908868047967176
 40
0.8192476120177314
 40
0.8460256683106155
 40
0.8713828506144526
 40
0.8978300067372438
 40
0.9275682515965878
 40
0.9615180938239805
 40
1.0
 40
1.0
 40
1.0
 40
1.0
 10
448.6932245843137
 20
664.9038414636549
 30
0.0
 10
448.6939135840842
 20
664.8934004446827
 30
0.0
 10
448.6952386894194
 20
664.8733199591202
 30
0.0
 10
448.7000518909517
 20
664.8389994391621
 30
0.0
 10
448.7066014645962
 20
664.8031028049588
 30
0.0
 10
448.7149142272727
 20
664.7653503755793
 30
0.0
 10
448.724869240444
 20
664.7258960800352
 30
0.0
 10
448.7364562162371
 20
664.6848833369203
 30
0.0
 10
448.7497499776608
 20
664.6425218898679
 30
0.0
 10
448.7697908305277
 20
664.5845999016789
 30
0.0
 10
448.800905548526
 20
664.5117857852031
 30
0.0
 10
448.8478384443011
 20
664.4257118889278
 30
0.0
 10
448.9052009884498
 20
664.3416840519999
 30
0.0
 10
448.972594622858
 20
664.262033989053
 30
0.0
 10
449.0489554865922
 20
664.18898151368
 30
0.0
 10
449.1328426892521
 20
664.1242201845552
 30
0.0
 10
449.2221214200367
 20
664.0693336669605
 30
0.0
 10
449.2990477262817
 20
664.0325074570464
 30
0.0
 10
449.3593922719223
 20
664.0090191885906
 30
0.0
 10
449.4019190654575
 20
663.9947123405191
 30
0.0
 10
449.442572259334
 20
663.9829793204075
 30
0.0
 10
449.48315966409
 20
663.9731297474623
 30
0.0
 10
449.5232094991842
 20
663.9649086696082
 30
0.0
 10
449.5625931937059
 20
663.9585057897215
 30
0.0
 10
449.6030591471358
 20
663.9536643975249
 30
0.0
 10
449.6295572409123
 20
663.9520490546479
 30
0.0
 10
449.6436352823932
 20
663.951190847102
 30
0.0
  0
SPLINE
  5
7B
330
1F
100
AcDbEntity
  8
0
  6
Continuous
 62
     7
370
    30
100
AcDbSpline
210
0.0
220
0.0
230
1.0
 70
     8
 71
     3
 72
    27
 73
    23
 74
     0
 42
0.000000001
 43
0.00000001
 40
0.0
 40
0.0
 40
0.0
 40
0.0
 40
0.0440386409326531
 40
0.0792728117153279
 40
0.1092666664070553
 40
0.1389296653584197
 40
0.1978329937411326
 40
0.2567170601260776
 40
0.3352108568302107
 40
0.4137057390828258
 40
0.492201323144236
 40
0.5706969823537
 40
0.6491920032866128
 40
0.7276859430089815
 40
0.7865700630463617
 40
0.8442613732224226
 40
0.8621480630867584
 40
0.8797017420753818
 40
0.9013476374872526
 40
0.9284988470697894
 40
0.9613455812599652
 40
1.0
 40
1.0
 40
1.0
 40
1.0
 10
522.3563633791031
 20
663.9511907805625
 30
0.0
 10
522.3767381924168
 20
663.9525317503787
 30
0.0
 10
522.413414363737
 20
663.9549455952546
 30
0.0
 10
522.4658601991512
 20
663.9622845564655
 30
0.0
 10
522.5116711666416
 20
663.9707713602598
 30
0.0
 10
522.5682037250164
 20
663.9838989784415
 30
0.0
 10
522.6374376932259
 20
664.0047926109894
 30
0.0
 10
522.7267955285489
 20
664.0404775550733
 30
0.0
 10
522.8207343768199
 20
664.0894950776261
 30
0.0
 10
522.9163606016573
 20
664.1543940369254
 30
0.0
 10
523.003905971985
 20
664.2298531269437
 30
0.0
 10
523.0822103923097
 20
664.314868560172
 30
0.0
 10
523.1502334581762
 20
664.4083129748732
 30
0.0
 10
523.2023351435738
 20
664.5005971134945
 30
0.0
 10
523.2407251910913
 20
664.588200335733
 30
0.0
 10
523.2619226469009
 20
664.6506625738471
 30
0.0
 10
523.2741594724986
 20
664.6945898744849
 30
0.0
 10
523.280957244585
 20
664.7217655314441
 30
0.0
 10
523.2880108041214
 20
664.7532336206609
 30
0.0
 10
523.2951731088359
 20
664.7913760515206
 30
0.0
 10
523.3018895695436
 20
664.8369726640356
 30
0.0
 10
523.3044728277648
 20
664.8695991939144
 30
0.0
 10
523.3058693695114
 20
664.8872375045751
 30
0.0
  0
SPLINE
  5
7C
330
1F
100
AcDbEntity
  8
0
  6
Continuous
 62
     7
370
    30
100
AcDbSpline
210
0.0
220
0.0
230
1.0
 70
     8
 71
     3
 72
     9
 73
     5
 74
     0
 42
0.000000001
 43
0.00000001
 40
0.0
 40
0.0
 40
0.0
 40
0.0
 40
0.9496648918922279
 40
1.0
 40
1.0
 40
1.0
 40
1.0
 10
522.3563647176069
 20
663.951190847102
 30
0.0
 10
522.3701478132651
 20
663.9518376472919
 30
0.0
 10
522.3846614546306
 20
663.9525187298458
 30
0.0
 10
522.400841509735
 20
663.9544716928361
 30
0.0
 10
522.4016559345579
 20
663.9545699954394
 30
0.0
  0
LINE
  5
7D
330
1F
100
AcDbEntity
  8
0
  6
Continuous
 62
     7
370
    30
100
AcDbLine
 10
523.3050393709
 20
664.8823391593
 30
0.0
 11
523.3067754157
 21
664.9038414637
 31
0.0
  0
ARC
  5
7E
330
1F
100
AcDbEntity
  8
0
  6
Continuous
 62
     7
370
    30
100
AcDbCircle
 10
609.0
 20
491.7500125
 30
0.0
 40
2.0
100
AcDbArc
 50
270.0
 51
0.0
  0
ARC
  5
7F
330
1F
100
AcDbEntity
  8
0
  6
Continuous
 62
     7
370
    30
100
AcDbCircle
 10
363.0
 20
491.7500125
 30
0.0
 40
2.000000000000057
100
AcDbArc
 50
180.0
 51
270.0
  0
LINE
  5
80
330
1F
100
AcDbEntity
  8
0
  6
Continuous
 62
     7
370
    30
100
AcDbLine
 10
611.0
 20
491.7500125
 30
0.0
 11
611.0
 21
499.7500125
 31
0.0
  0
LINE
  5
81
330
1F
100
AcDbEntity
  8
0
  6
Continuous
 62
     7
370
    30
100
AcDbLine
 10
361.0
 20
499.7500125
 30
0.0
 11
361.0
 21
491.7500125
 31
0.0
  0
SPLINE
  5
82
330
1F
100
AcDbEntity
  8
0
  6
Continuous
 62
     7
370
    30
100
AcDbSpline
210
0.0
220
0.0
230
1.0
 70
     8
 71
     3
 72
     9
 73
     5
 74
     0
 42
0.000000001
 43
0.00000001
 40
0.0
 40
0.0
 40
0.0
 40
0.0
 40
0.6347502257542155
 40
1.0
 40
1.0
 40
1.0
 40
1.0
 10
470.3021797236476
 20
505.9500447486998
 30
0.0
 10
470.2985253091055
 20
505.9500378603267
 30
0.0
 10
470.2927680609882
 20
505.9500270082264
 30
0.0
 10
470.2936779528563
 20
505.9504923035299
 30
0.0
 10
470.2940102906556
 20
505.9506622525345
 30
0.0
  0
SPLINE
  5
83
330
1F
100
AcDbEntity
  8
0
  6
Continuous
 62
     7
370
    30
100
AcDbSpline
210
0.0
220
0.0
230
1.0
 70
     8
 71
     3
 72
    20
 73
    16
 74
     0
 42
0.000000001
 43
0.00000001
 40
0.0
 40
0.0
 40
0.0
 40
0.0
 40
0.0997716060183315
 40
0.1904084082472041
 40
0.2717574565476972
 40
0.3437962400551209
 40
0.4254014598507986
 40
0.4910012154439512
 40
0.5521819813459637
 40
0.6458189998670668
 40
0.7420864546170841
 40
0.7959885294901752
 40
0.8569057471378662
 40
0.9249080157246764
 40
1.0
 40
1.0
 40
1.0
 40
1.0
 10
469.9998403220488
 20
506.2500125
 30
0.0
 10
470.0004831731729
 20
506.2351781171429
 30
0.0
 10
470.001710017805
 20
506.2068675452288
 30
0.0
 10
470.0107471910293
 20
506.1673259357274
 30
0.0
 10
470.0229124087809
 20
506.1331119081744
 30
0.0
 10
470.0383604317055
 20
506.1017289392153
 30
0.0
 10
470.0560041149369
 20
506.0742553300918
 30
0.0
 10
470.0755190826501
 20
506.0501608545566
 30
0.0
 10
470.0984684594985
 20
506.0267454409728
 30
0.0
 10
470.1275728982293
 20
506.0032160425955
 30
0.0
 10
470.158790367198
 20
505.9845841474888
 30
0.0
 10
470.1873484010658
 20
505.9715814225211
 30
0.0
 10
470.2128943646427
 20
505.9625226069764
 30
0.0
 10
470.2421429294027
 20
505.9549486284186
 30
0.0
 10
470.2630722393204
 20
505.9524498567608
 30
0.0
 10
470.2740553737215
 20
505.9511385691425
 30
0.0
  0
SPLINE
  5
84
330
1F
100
AcDbEntity
  8
0
  6
Continuous
 62
     7
370
    30
100
AcDbSpline
210
0.0
220
0.0
230
1.0
 70
     8
 71
     3
 72
     9
 73
     5
 74
     0
 42
0.000000001
 43
0.00000001
 40
0.0
 40
0.0
 40
0.0
 40
0.0
 40
0.7529138476253935
 40
1.0
 40
1.0
 40
1.0
 40
1.0
 10
470.2746452444718
 20
505.9510889487862
 30
0.0
 10
470.2756126291692
 20
505.9510516612798
 30
0.0
 10
470.2768974836057
 20
505.9510021370131
 30
0.0
 10
470.2835123212279
 20
505.9509578154286
 30
0.0
 10
470.2851467560046
 20
505.9509468641788
 30
0.0
  0
SPLINE
  5
85
330
1F
100
AcDbEntity
  8
0
  6
Continuous
 62
     7
370
    30
100
AcDbSpline
210
0.0
220
0.0
230
1.0
 70
     8
 71
     3
 72
    94
 73
    90
 74
     0
 42
0.000000001
 43
0.00000001
 40
0.0
 40
0.0
 40
0.0
 40
0.0
 40
0.0139797743812774
 40
0.0275527202468397
 40
0.0407191198468456
 40
0.0534792377374245
 40
0.0658333209390838
 40
0.0777815992846553
 40
0.0893242858806595
 40
0.1004615776254776
 40
0.1116945905272015
 40
0.1224830710615331
 40
0.1328271920275942
 40
0.1427271091727335
 40
0.1521829901747907
 40
0.1614017171217017
 40
0.1777643095751134
 40
0.1939998283106353
 40
0.2101082524366836
 40
0.2260895586739478
 40
0.2419437223772811
 40
0.2576707185113374
 40
0.2725642332687642
 40
0.287373911772945
 40
0.3023708483641839
 40
0.3176164718402054
 40
0.3331107618928247
 40
0.3488536993624922
 40
0.3648452672134867
 40
0.3810854515610416
 40
0.3926678204993778
 40
0.4043734062156698
 40
0.4161987318887975
 40
0.4277460061663338
 40
0.4387438700791462
 40
0.4490106835725499
 40
0.4587477477880117
 40
0.4679551426159851
 40
0.476632930376783
 40
0.4832730945404427
 40
0.4895658978362959
 40
0.4955113494331393
 40
0.5011297984636744
 40
0.506895516216792
 40
0.5130077703673417
 40
0.5194665744459441
 40
0.5262719334752131
 40
0.535318887627893
 40
0.5449135046603868
 40
0.5550557398874207
 40
0.5657455291030692
 40
0.5769827885756347
 40
0.5887197787436286
 40
0.6003716362444593
 40
0.6117648468676931
 40
0.6228994068199392
 40
0.6337753113860505
 40
0.6476263092369654
 40
0.6610337397320263
 40
0.6739975891011045
 40
0.6841721640196948
 40
0.694055744726483
 40
0.7036483254966037
 40
0.709165925933
 40
0.7148747888791629
 40
0.7210027491287784
 40
0.7275498044137214
 40
0.7358903355026861
 40
0.744824808149842
 40
0.7543532145091367
 40
0.7644755453290641
 40
0.7751917900251236
 40
0.786501936891656
 40
0.7966464182509536
 40
0.8072253222766015
 40
0.8182386419173763
 40
0.8296863710494475
 40
0.8415685051800412
 40
0.8536613014709011
 40
0.8661731270709928
 40
0.8791039879620489
 40
0.8924538959243398
 40
0.9065082218593182
 40
0.92099892203341
 40
0.9359260378621165
 40
0.9512896243459684
 40
0.9670897519827184
 40
0.9833265084699727
 40
0.9999999999999999
 40
0.9999999999999999
 40
0.9999999999999999
 40
0.9999999999999999
 10
470.2729506081897
 20
505.9512384338791
 30
0.0
 10
470.2742884772865
 20
505.9511691278985
 30
0.0
 10
470.2769252818545
 20
505.9510325328259
 30
0.0
 10
470.289888233131
 20
505.9508642237872
 30
0.0
 10
470.308658845073
 20
505.9507219116553
 30
0.0
 10
470.3332485190419
 20
505.9506044885085
 30
0.0
 10
470.3628842535125
 20
505.9505080550398
 30
0.0
 10
470.3970176594782
 20
505.9504298397417
 30
0.0
 10
470.4350675884651
 20
505.9503671998703
 30
0.0
 10
470.477107382321
 20
505.9503171354738
 30
0.0
 10
470.5227897114147
 20
505.9502782883984
 30
0.0
 10
470.5717475041412
 20
505.950249441229
 30
0.0
 10
470.6226730670219
 20
505.9502299169544
 30
0.0
 10
470.6750420757987
 20
505.9502182912763
 30
0.0
 10
470.7286959880212
 20
505.950215336201
 30
0.0
 10
470.7984701074719
 20
505.9502162250809
 30
0.0
 10
470.8884725517902
 20
505.9502158315811
 30
0.0
 10
471.0031415389468
 20
505.9502159539132
 30
0.0
 10
471.1265435386487
 20
505.9502159215185
 30
0.0
 10
471.2583673325098
 20
505.9502159300964
 30
0.0
 10
471.3983083911688
 20
505.9502159278243
 30
0.0
 10
471.5438490366062
 20
505.9502159284207
 30
0.0
 10
471.6943744187672
 20
505.9502159282675
 30
0.0
 10
471.8502805586118
 20
505.950215928316
 30
0.0
 10
472.0152182080386
 20
505.9502159282715
 30
0.0
 10
472.1906071023589
 20
505.9502159284035
 30
0.0
 10
472.376961661073
 20
505.9502159279095
 30
0.0
 10
472.5745630135833
 20
505.9502159297943
 30
0.0
 10
472.7836822949697
 20
505.9502159225938
 30
0.0
 10
472.982335742929
 20
505.9502159473255
 30
0.0
 10
473.1674271948673
 20
505.9502158793432
 30
0.0
 10
473.3361527822294
 20
505.9502161160808
 30
0.0
 10
473.5090300241995
 20
505.9502152262447
 30
0.0
 10
473.6824510035283
 20
505.9502186289683
 30
0.0
 10
473.8515969122905
 20
505.9502295001122
 30
0.0
 10
474.014559704849
 20
505.9502474677717
 30
0.0
 10
474.1708412950732
 20
505.9502733571501
 30
0.0
 10
474.3210138849346
 20
505.9503083488327
 30
0.0
 10
474.4563061530656
 20
505.9503512962227
 30
0.0
 10
474.5769580070329
 20
505.9504011601632
 30
0.0
 10
474.683383953303
 20
505.9504567155905
 30
0.0
 10
474.7849635598826
 20
505.950521281557
 30
0.0
 10
474.8842852423653
 20
505.9506050205748
 30
0.0
 10
474.985583127427
 20
505.9506866996379
 30
0.0
 10
475.0928850088086
 20
505.950763048975
 30
0.0
 10
475.2074895388365
 20
505.9508352435448
 30
0.0
 10
475.3408988271472
 20
505.9509078542136
 30
0.0
 10
475.4949818058915
 20
505.9509771660477
 30
0.0
 10
475.6717527707274
 20
505.9510388065931
 30
0.0
 10
475.8613145188668
 20
505.951086842544
 30
0.0
 10
476.0640345444067
 20
505.951120035424
 30
0.0
 10
476.27997274144
 20
505.9511383920221
 30
0.0
 10
476.5053889046306
 20
505.9511386203981
 30
0.0
 10
476.7349894576115
 20
505.9511385590294
 30
0.0
 10
476.9636052880908
 20
505.9511385750053
 30
0.0
 10
477.1898193395054
 20
505.9511385708792
 30
0.0
 10
477.4355278910016
 20
505.9511385720139
 30
0.0
 10
477.7001322313683
 20
505.9511385716379
 30
0.0
 10
477.9829520513946
 20
505.9511385717425
 30
0.0
 10
478.2430885111667
 20
505.9511385717168
 30
0.0
 10
478.4805627920127
 20
505.9511385717223
 30
0.0
 10
478.6956258605562
 20
505.9511385717209
 30
0.0
 10
478.8783684272547
 20
505.9511385717212
 30
0.0
 10
479.0315002978354
 20
505.9511385717212
 30
0.0
 10
479.1597054944271
 20
505.9511385717212
 30
0.0
 10
479.2961262073491
 20
505.9511385717212
 30
0.0
 10
479.4528079593906
 20
505.9511385717211
 30
0.0
 10
479.6313681918055
 20
505.9511385717213
 30
0.0
 10
479.8334850330793
 20
505.9511385717211
 30
0.0
 10
480.0503732529888
 20
505.9511385717212
 30
0.0
 10
480.2822373312888
 20
505.9511385717211
 30
0.0
 10
480.5292774676674
 20
505.9511385717212
 30
0.0
 10
480.7780792224913
 20
505.9511385717212
 30
0.0
 10
481.027286365905
 20
505.9511385717212
 30
0.0
 10
481.275526819601
 20
505.9511385717212
 30
0.0
 10
481.5353443056703
 20
505.9511385717212
 30
0.0
 10
481.8068237224236
 20
505.9511385717212
 30
0.0
 10
482.0882589787979
 20
505.9511385717212
 30
0.0
 10
482.3795526889068
 20
505.9511385717212
 30
0.0
 10
482.6805921565042
 20
505.9511385717211
 30
0.0
 10
482.993059549796
 20
505.9511385717212
 30
0.0
 10
483.319260954782
 20
505.9511385717212
 30
0.0
 10
483.6593435863302
 20
505.9511385717212
 30
0.0
 10
484.0134231568433
 20
505.9511385717212
 30
0.0
 10
484.3792429773636
 20
505.9511385717212
 30
0.0
 10
484.7566904033475
 20
505.9511385717212
 30
0.0
 10
485.1456195410449
 20
505.9511385717212
 30
0.0
 10
485.5458442031714
 20
505.9511385717212
 30
0.0
 10
485.8164576628432
 20
505.9511385717212
 30
0.0
 10
485.9535599789783
 20
505.9511385717212
 30
0.0
  0
SPLINE
  5
86
330
1F
100
AcDbEntity
  8
0
  6
Continuous
 62
     7
370
    30
100
AcDbSpline
210
0.0
220
0.0
230
1.0
 70
     8
 71
     3
 72
   114
 73
   110
 74
     0
 42
0.000000001
 43
0.00000001
 40
0.0
 40
0.0
 40
0.0
 40
0.0
 40
0.0131755168641404
 40
0.0260172334456458
 40
0.0385252087753159
 40
0.0506994931465089
 40
0.0625401286736604
 40
0.0740471499817327
 40
0.0871806726113332
 40
0.0998508754428591
 40
0.1120577835135759
 40
0.1238014138762723
 40
0.1353071586105756
 40
0.1463305410460772
 40
0.1568715628024543
 40
0.1669302224547048
 40
0.1765065164610758
 40
0.1856004399131567
 40
0.1942119871269287
 40
0.202323941073756
 40
0.2099556094212882
 40
0.2171069864629892
 40
0.2239190999247881
 40
0.2307642194089853
 40
0.2443635559757284
 40
0.2581666592300871
 40
0.2748644472515416
 40
0.2918509754615062
 40
0.3091262185422833
 40
0.3198220923094406
 40
0.3306257076169064
 40
0.3415370584859523
 40
0.3523273681285717
 40
0.3626762393893244
 40
0.3725815723620994
 40
0.3820434440582173
 40
0.3919393678672615
 40
0.4012988586921811
 40
0.4101219726132617
 40
0.4184087495138803
 40
0.4261592133152041
 40
0.4307309228505556
 40
0.4351513704900969
 40
0.4398276548622436
 40
0.4448382387913248
 40
0.4501830941934976
 40
0.4558621734557166
 40
0.4618754104721671
 40
0.4682227214209427
 40
0.4766759876206628
 40
0.4856568237400278
 40
0.4951649508475795
 40
0.5052000502660488
 40
0.5157617641362466
 40
0.5304547619176039
 40
0.5449451071987803
 40
0.5592144712752893
 40
0.5732633089872943
 40
0.5870920564786253
 40
0.6007011312109747
 40
0.6164588192048001
 40
0.6319125558679073
 40
0.6470740090620224
 40
0.6620845855648245
 40
0.6798132975184381
 40
0.6973888916778912
 40
0.7148113370883763
 40
0.7320806013606346
 40
0.7491966522049788
 40
0.7661594588431956
 40
0.7791310128602077
 40
0.7924030278733754
 40
0.8059852657175365
 40
0.8198777087074206
 40
0.8340803397371275
 40
0.8483312772775433
 40
0.8628813964138075
 40
0.8777306874380415
 40
0.8928791446050599
 40
0.9016196509939907
 40
0.9104001226094034
 40
0.9188689224551589
 40
0.9269658847457154
 40
0.9346915414348032
 40
0.9420463889209625
 40
0.9490308932413808
 40
0.9556454966759859
 40
0.9618906262814075
 40
0.9677667051236012
 40
0.9732741673501575
 40
0.9784134788167219
 40
0.9800340550943184
 40
0.9814738271160136
 40
0.9827023831753524
 40
0.9841791473040364
 40
0.984778767536017
 40
0.9853097935234455
 40
0.9858011680035381
 40
0.9862890112582188
 40
0.9866631559455689
 40
0.9872541918919303
 40
0.9880854206015797
 40
0.9891642146313135
 40
0.9905851702919096
 40
0.9923765363085886
 40
0.9939655092888064
 40
0.99576617022638
 40
0.9977789475347845
 40
1.0
 40
1.0
 40
1.0
 40
1.0
 10
486.0
 20
505.9511385717274
 30
0.0
 10
486.1100919696945
 20
505.9511385717274
 30
0.0
 10
486.3274867410395
 20
505.9511385717274
 30
0.0
 10
486.6492553321485
 20
505.9511385717274
 30
0.0
 10
486.9623985896845
 20
505.9511385717274
 30
0.0
 10
487.2668188103868
 20
505.9511385717275
 30
0.0
 10
487.5624371188095
 20
505.9511385717274
 30
0.0
 10
487.8654725488968
 20
505.9511385717275
 30
0.0
 10
488.1746799839235
 20
505.9511385717274
 30
0.0
 10
488.4887810465606
 20
505.9511385717274
 30
0.0
 10
488.7904344885416
 20
505.9511385717274
 30
0.0
 10
489.0814902674425
 20
505.9511385717274
 30
0.0
 10
489.361789790097
 20
505.9511385717274
 30
0.0
 10
489.631191201874
 20
505.9511385717274
 30
0.0
 10
489.8877539239151
 20
505.9511385717274
 30
0.0
 10
490.1315513978292
 20
505.9511385717274
 30
0.0
 10
490.3626693716932
 20
505.9511385717275
 30
0.0
 10
490.581203600223
 20
505.9511385717274
 30
0.0
 10
490.787120451249
 20
505.9511385717274
 30
0.0
 10
490.9805481116238
 20
505.9511385717274
 30
0.0
 10
491.1616184049088
 20
505.9511385717276
 30
0.0
 10
491.3317103095287
 20
505.9511385717267
 30
0.0
 10
491.4949509937765
 20
505.9511385717297
 30
0.0
 10
491.7079082449851
 20
505.9511385717151
 30
0.0
 10
491.9738172858507
 20
505.951138571826
 30
0.0
 10
492.3131665800988
 20
505.951138571328
 30
0.0
 10
492.6747301992215
 20
505.9511385735788
 30
0.0
 10
493.0578795789737
 20
505.9511385646799
 30
0.0
 10
493.3913071348683
 20
505.9511385941815
 30
0.0
 10
493.6754532766536
 20
505.9511385223322
 30
0.0
 10
493.9107038135835
 20
505.9511387619232
 30
0.0
 10
494.1442692306982
 20
505.951137856822
 30
0.0
 10
494.3721933205307
 20
505.9511411606427
 30
0.0
 10
494.5907278958846
 20
505.9511592673105
 30
0.0
 10
494.7978056557621
 20
505.9511899135198
 30
0.0
 10
494.9997134703038
 20
505.9512356099116
 30
0.0
 10
495.1958516885709
 20
505.9512985896479
 30
0.0
 10
495.385654835067
 20
505.9513821731109
 30
0.0
 10
495.5628124952887
 20
505.9514858750185
 30
0.0
 10
495.7276330716714
 20
505.9516112067799
 30
0.0
 10
495.8630596777389
 20
505.951744405321
 30
0.0
 10
495.9723218961985
 20
505.951874193698
 30
0.0
 10
496.0611134526209
 20
505.9520027503297
 30
0.0
 10
496.1519872374898
 20
505.9520970358366
 30
0.0
 10
496.2480112455928
 20
505.9521650136527
 30
0.0
 10
496.3495427233819
 20
505.9522044341797
 30
0.0
 10
496.4564323144867
 20
505.9522149003955
 30
0.0
 10
496.5685153630794
 20
505.9521960681665
 30
0.0
 10
496.6965122937096
 20
505.9521438841547
 30
0.0
 10
496.8409618341424
 20
505.9520499560077
 30
0.0
 10
497.0022191504864
 20
505.9519088610057
 30
0.0
 10
497.1702554651649
 20
505.9517312336789
 30
0.0
 10
497.3445997980522
 20
505.9515240977839
 30
0.0
 10
497.5452023892333
 20
505.9512648630034
 30
0.0
 10
497.7660412236783
 20
505.9509866652572
 30
0.0
 10
498.0014661228266
 20
505.9507587792584
 30
0.0
 10
498.2273374857368
 20
505.9505827644552
 30
0.0
 10
498.4437799655031
 20
505.9504525460025
 30
0.0
 10
498.6509863433409
 20
505.950357966142
 30
0.0
 10
498.8606578561848
 20
505.9502879906864
 30
0.0
 10
499.0714039907389
 20
505.9502417065853
 30
0.0
 10
499.2818278181263
 20
505.9502165020656
 30
0.0
 10
499.4815265063714
 20
505.9502157783322
 30
0.0
 10
499.6829422479793
 20
505.9502159764745
 30
0.0
 10
499.8849535487891
 20
505.950215914629
 30
0.0
 10
500.0856877893233
 20
505.9502159319197
 30
0.0
 10
500.2737459096583
 20
505.9502159273469
 30
0.0
 10
500.4492722164514
 20
505.9502159285565
 30
0.0
 10
500.612423135768
 20
505.9502159282351
 30
0.0
 10
500.7519845799993
 20
505.9502159283192
 30
0.0
 10
500.8720445938009
 20
505.9502159282931
 30
0.0
 10
500.9761207322909
 20
505.9502159283315
 30
0.0
 10
501.0756544962781
 20
505.9502159281971
 30
0.0
 10
501.1701410677401
 20
505.9502159287125
 30
0.0
 10
501.2584893335802
 20
505.9502159267374
 30
0.0
 10
501.3402906108986
 20
505.9502159342167
 30
0.0
 10
501.4151402889682
 20
505.9502159055251
 30
0.0
 10
501.4829674807081
 20
505.9502160159403
 30
0.0
 10
501.5343033966432
 20
505.9502156540098
 30
0.0
 10
501.5724782421139
 20
505.9502164852563
 30
0.0
 10
501.5997509973866
 20
505.9502138328488
 30
0.0
 10
501.6243486940374
 20
505.9502449739439
 30
0.0
 10
501.6461186674983
 20
505.9503142818348
 30
0.0
 10
501.6653796739869
 20
505.9504367114328
 30
0.0
 10
501.6824689495192
 20
505.9506336697116
 30
0.0
 10
501.6977106248524
 20
505.9509335450315
 30
0.0
 10
501.7114161437714
 20
505.9513730845334
 30
0.0
 10
501.7238562012514
 20
505.951991268921
 30
0.0
 10
501.7353598766867
 20
505.9528498931101
 30
0.0
 10
501.7459725082609
 20
505.9539626447366
 30
0.0
 10
501.7544361359429
 20
505.9552128909246
 30
0.0
 10
501.7595808691128
 20
505.9561118125181
 30
0.0
 10
501.7641935570204
 20
505.9570253115342
 30
0.0
 10
501.7714809402842
 20
505.9586683191862
 30
0.0
 10
501.7808311522002
 20
505.9610370271267
 30
0.0
 10
501.7925909977521
 20
505.9646357189171
 30
0.0
 10
501.8019306083729
 20
505.9678165176772
 30
0.0
 10
501.8123935629696
 20
505.9717928103127
 30
0.0
 10
501.8227179552886
 20
505.9761906019818
 30
0.0
 10
501.8337235498357
 20
505.9813616773595
 30
0.0
 10
501.8470409712253
 20
505.9882838802145
 30
0.0
 10
501.8649963704711
 20
505.9990146702161
 30
0.0
 10
501.8877005294897
 20
506.0151751300596
 30
0.0
 10
501.9146405483034
 20
506.0389645800813
 30
0.0
 10
501.9409581855751
 20
506.0694490158128
 30
0.0
 10
501.9644311522822
 20
506.1059852912426
 30
0.0
 10
501.9831638198556
 20
506.1471900786257
 30
0.0
 10
501.9972270982955
 20
506.1960004504662
 30
0.0
 10
501.9991506102358
 20
506.2314275605186
 30
0.0
 10
502.0001596779512
 20
506.2500125
 30
0.0
  0
LINE
  5
87
330
1F
100
AcDbEntity
  8
0
  6
Continuous
 62
     7
370
    30
100
AcDbLine
 10
502.0
 20
506.2487585051
 30
0.0
 11
502.0
 21
517.4512664949
 31
0.0
  0
LINE
  5
88
330
1F
100
AcDbEntity
  8
0
  6
Continuous
 62
     7
370
    30
100
AcDbLine
 10
470.0
 20
517.4512664949
 30
0.0
 11
470.0
 21
506.2487585051
 31
0.0
  0
SPLINE
  5
89
330
1F
100
AcDbEntity
  8
0
  6
Continuous
 62
     7
370
    30
100
AcDbSpline
210
0.0
220
0.0
230
1.0
 70
     8
 71
     3
 72
    31
 73
    27
 74
     0
 42
0.000000001
 43
0.00000001
 40
0.0
 40
0.0
 40
0.0
 40
0.0
 40
0.070810180084642
 40
0.1367806038422067
 40
0.1979057115720402
 40
0.2541858347040427
 40
0.3056221465967522
 40
0.3522151480527683
 40
0.3939645959847617
 40
0.4308698360790426
 40
0.4635395618401627
 40
0.4960384401139349
 40
0.5291167869346055
 40
0.5627744397783239
 40
0.6143389768363657
 40
0.6672057889058499
 40
0.720445109245617
 40
0.7697741343202916
 40
0.7927758264998285
 40
0.8146659285538751
 40
0.8354444305541934
 40
0.8559475434814247
 40
0.8819614041415668
 40
0.9146287403011294
 40
0.9539721431648237
 40
1.0
 40
1.0
 40
1.0
 40
1.0
 10
502.000159677943
 20
517.4500125
 30
0.0
 10
501.9989751547953
 20
517.4871287762558
 30
0.0
 10
501.9966870686585
 20
517.5588244939136
 30
0.0
 10
501.979191547111
 20
517.6613132678566
 30
0.0
 10
501.9543217477972
 20
517.7542195348872
 30
0.0
 10
501.923458407671
 20
517.8372512926248
 30
0.0
 10
501.8889770268106
 20
517.9104631174921
 30
0.0
 10
501.8527257150375
 20
517.9741653819073
 30
0.0
 10
501.8163702248581
 20
518.0288448958388
 30
0.0
 10
501.781122220114
 20
518.0753507842524
 30
0.0
 10
501.7465276648923
 20
518.116158758647
 30
0.0
 10
501.7112652071425
 20
518.1536827088721
 30
0.0
 10
501.673744017794
 20
518.1897021252697
 30
0.0
 10
501.6268289551065
 20
518.2302394536521
 30
0.0
 10
501.5689824913033
 20
518.2738219645629
 30
0.0
 10
501.4990778484078
 20
518.3180028559807
 30
0.0
 10
501.4267736696992
 20
518.3556655874726
 30
0.0
 10
501.3661039817242
 20
518.3812821491726
 30
0.0
 10
501.3196036833107
 20
518.3978677785713
 30
0.0
 10
501.2868038856908
 20
518.4082763837878
 30
0.0
 10
501.2549377993305
 20
518.4172236954191
 30
0.0
 10
501.220687964188
 20
518.425647928155
 30
0.0
 10
501.1801166867344
 20
518.4340764590057
 30
0.0
 10
501.1295949652693
 20
518.442108834748
 30
0.0
 10
501.0684199644452
 20
518.4486203397602
 30
0.0
 10
501.0240535209065
 20
518.4495248395507
 30
0.0
 10
501.0001333829271
 20
518.4500125
 30
0.0
  0
SPLINE
  5
8A
330
1F
100
AcDbEntity
  8
0
  6
Continuous
 62
     7
370
    30
100
AcDbSpline
210
0.0
220
0.0
230
1.0
 70
     8
 71
     3
 72
    29
 73
    25
 74
     0
 42
0.000000001
 43
0.00000001
 40
0.0
 40
0.0
 40
0.0
 40
0.0
 40
0.0384009656929058
 40
0.0700986268232961
 40
0.095121954472879
 40
0.1136856518096078
 40
0.1306098864283242
 40
0.1657468863821496
 40
0.2033960027618414
 40
0.2629652004943913
 40
0.3216352262188928
 40
0.3792905284962805
 40
0.4135475189582483
 40
0.4522073237633175
 40
0.497492400106937
 40
0.5494012168684606
 40
0.6079317001053555
 40
0.6617707569497447
 40
0.7202077714616254
 40
0.7832432608807675
 40
0.8335488539621678
 40
0.8864444389322791
 40
0.9419296012466661
 40
1.0
 40
1.0
 40
1.0
 40
1.0
 10
470.9998666170729
 20
518.4500125
 30
0.0
 10
470.9800444335908
 20
518.44967904881
 30
0.0
 10
470.9438602434886
 20
518.4490703539476
 30
0.0
 10
470.8946881075152
 20
518.4447832639465
 30
0.0
 10
470.8557786792322
 20
518.439800073427
 30
0.0
 10
470.8244715623877
 20
518.4346674077285
 30
0.0
 10
470.7881316747925
 20
518.4276688651123
 30
0.0
 10
470.7423470360927
 20
518.416887939004
 30
0.0
 10
470.6758258772265
 20
518.3971437425153
 30
0.0
 10
470.5994024890225
 20
518.3679348179652
 30
0.0
 10
470.5166250201784
 20
518.3271148956895
 30
0.0
 10
470.4492415471653
 20
518.2858360518339
 30
0.0
 10
470.3936067413538
 20
518.2459617100105
 30
0.0
 10
470.3453808096038
 20
518.2070336310263
 30
0.0
 10
470.2930096562375
 20
518.158727574459
 30
0.0
 10
470.2373604768375
 20
518.0989251733307
 30
0.0
 10
470.1843216937658
 20
518.0309644868425
 30
0.0
 10
470.1356366151292
 20
517.9557375785582
 30
0.0
 10
470.0926549012247
 20
517.8744028350025
 30
0.0
 10
470.0583404649391
 20
517.7910244549137
 30
0.0
 10
470.0324365290205
 20
517.7077577545342
 30
0.0
 10
470.0143747163952
 20
517.6265158213796
 30
0.0
 10
470.0021986908719
 20
517.5399766832736
 30
0.0
 10
470.0006382865236
 20
517.4804522773021
 30
0.0
 10
469.999840322057
 20
517.4500125
 30
0.0
  0
LINE
  5
8B
330
1F
100
AcDbEntity
  8
0
  6
Continuous
 62
     7
370
    30
100
AcDbLine
 10
501.8001658296
 20
499.7500125
 30
0.0
 11
501.8001658296
 21
505.0500125
 31
0.0
  0
LINE
  5
8C
330
1F
100
AcDbEntity
  8
0
  6
Continuous
 62
     7
370
    30
100
AcDbLine
 10
470.1998341704
 20
505.0500125
 30
0.0
 11
470.1998341704
 21
499.7500125
 31
0.0
  0
ARC
  5
8D
330
1F
100
AcDbEntity
  8
0
  6
Continuous
 62
     7
370
    30
100
AcDbCircle
 10
486.0
 20
512.2500125
 30
0.0
 40
12.40000000001775
100
AcDbArc
 50
133.9116550007
 51
149.9947783368
  0
LINE
  5
8E
330
1F
100
AcDbEntity
  8
0
  6
Continuous
 62
     7
370
    30
100
AcDbLine
 10
497.4
 20
528.9953597575
 30
0.0
 11
497.4
 21
539.5953597574
 31
0.0
  0
LINE
  5
8F
330
1F
100
AcDbEntity
  8
0
  6
Continuous
 62
     7
370
    30
100
AcDbLine
 10
474.6
 20
539.5953597574
 30
0.0
 11
474.6
 21
528.9953597575
 31
0.0
  0
LINE
  5
90
330
1F
100
AcDbEntity
  8
0
  6
Continuous
 62
     7
370
    30
100
AcDbLine
 10
476.05
 20
524.9800588271
 30
0.0
 11
477.4
 21
524.0347786505
 31
0.0
  0
LINE
  5
91
330
1F
100
AcDbEntity
  8
0
  6
Continuous
 62
     7
370
    30
100
AcDbLine
 10
494.6
 20
524.0347786505
 30
0.0
 11
495.95
 21
524.9800588271
 31
0.0
  0
ARC
  5
92
330
1F
100
AcDbEntity
  8
0
  6
Continuous
 62
     7
370
    30
100
AcDbCircle
 10
486.0
 20
512.2500125
 30
0.0
 40
12.40000000000001
100
AcDbArc
 50
210.5369811128
 51
215.4981372745
  0
LINE
  5
93
330
1F
100
AcDbEntity
  8
0
  6
Continuous
 62
     7
370
    30
100
AcDbLine
 10
494.6
 20
521.1830970737
 30
0.0
 11
494.6
 21
524.0347786505
 31
0.0
  0
LINE
  5
94
330
1F
100
AcDbEntity
  8
0
  6
Continuous
 62
     7
370
    30
100
AcDbLine
 10
477.4
 20
524.0347786505
 30
0.0
 11
477.4
 21
521.1830970737
 31
0.0
  0
LINE
  5
95
330
1F
100
AcDbEntity
  8
0
  6
Continuous
 62
     7
370
    30
100
AcDbLine
 10
499.0
 20
545.4500125
 30
0.0
 11
473.0
 21
545.4500125
 31
0.0
  0
LINE
  5
96
330
1F
100
AcDbEntity
  8
0
  6
Continuous
 62
     7
370
    30
100
AcDbLine
 10
496.48
 20
544.4500125
 30
0.0
 11
494.5
 21
544.4500125
 31
0.0
  0
LINE
  5
97
330
1F
100
AcDbEntity
  8
0
  6
Continuous
 62
     7
370
    30
100
AcDbLine
 10
494.5
 20
544.4500125
 30
0.0
 11
494.5
 21
539.5953597574
 31
0.0
  0
LINE
  5
98
330
1F
100
AcDbEntity
  8
0
  6
Continuous
 62
     7
370
    30
100
AcDbLine
 10
477.5
 20
539.5953597574
 30
0.0
 11
477.5
 21
544.4500125
 31
0.0
  0
LINE
  5
99
330
1F
100
AcDbEntity
  8
0
  6
Continuous
 62
     7
370
    30
100
AcDbLine
 10
477.5
 20
544.4500125
 30
0.0
 11
475.52
 21
544.4500125
 31
0.0
  0
SPLINE
  5
9A
330
1F
100
AcDbEntity
  8
0
  6
Continuous
 62
     7
370
    30
100
AcDbSpline
210
0.0
220
0.0
230
1.0
 70
    24
 71
     3
 72
    27
 73
    23
 74
     0
 42
0.000000001
 43
0.00000001
 40
0.0
 40
0.0
 40
0.0
 40
0.0
 40
0.052289045506569
 40
0.1045702547092781
 40
0.1568331382957842
 40
0.2090964522742416
 40
0.261360012662439
 40
0.3136234181511616
 40
0.3629014882622797
 40
0.4121792990691272
 40
0.4614572903041034
 40
0.5107356660006893
 40
0.5600142628721212
 40
0.6092927451981343
 40
0.658570861034585
 40
0.7078486824661744
 40
0.7571266367971183
 40
0.8064049785190186
 40
0.8548040319082495
 40
0.9032030214709246
 40
0.9516016762466304
 40
1.0
 40
1.0
 40
1.0
 40
1.0
 10
523.5000000000001
 20
675.9500125
 30
0.0
 10
523.4987004324612
 20
675.9500125
 30
0.0
 10
523.4961014921431
 20
675.9500125
 30
0.0
 10
523.4751490486093
 20
675.9500125
 30
0.0
 10
523.4418574225667
 20
675.9500125
 30
0.0
 10
523.3952334955617
 20
675.9500125
 30
0.0
 10
523.3359146908032
 20
675.9500125
 30
0.0
 10
523.2655760655515
 20
675.9500125
 30
0.0
 10
523.1855080843034
 20
675.9500125
 30
0.0
 10
523.0969292605963
 20
675.9500125
 30
0.0
 10
522.9987876293455
 20
675.9500125
 30
0.0
 10
522.8916698066243
 20
675.9500125
 30
0.0
 10
522.7762183056628
 20
675.9500125
 30
0.0
 10
522.6531253723504
 20
675.9500125
 30
0.0
 10
522.5231286951291
 20
675.9500125
 30
0.0
 10
522.3870067254635
 20
675.9500125
 30
0.0
 10
522.2455747162976
 20
675.9500125
 30
0.0
 10
522.1005465601539
 20
675.9500125
 30
0.0
 10
521.9528738609949
 20
675.9500125
 30
0.0
 10
521.8034763570079
 20
675.9500125
 30
0.0
 10
521.6523290619699
 20
675.9500125
 30
0.0
 10
521.5509793115928
 20
675.9500125
 30
0.0
 10
521.5003046097
 20
675.9500125
 30
0.0
  0
LINE
  5
9B
330
1F
100
AcDbEntity
  8
0
  6
Continuous
 62
     7
370
    30
100
AcDbLine
 10
523.5
 20
675.9500125
 30
0.0
 11
523.3076896529
 21
664.9325600936
 31
0.0
  0
LINE
  5
9C
330
1F
100
AcDbEntity
  8
0
  6
Continuous
 62
     7
370
    30
100
AcDbLine
 10
450.4996953903
 20
675.9500125
 30
0.0
 11
521.5003046097
 21
675.9500125
 31
0.0
  0
LINE
  5
9D
330
1F
100
AcDbEntity
  8
0
  6
Continuous
 62
     7
370
    30
100
AcDbLine
 10
448.5
 20
675.9500125
 30
0.0
 11
448.692310347
 21
664.9325600985
 31
0.0
  0
SPLINE
  5
9E
330
1F
100
AcDbEntity
  8
0
  6
Continuous
 62
     7
370
    30
100
AcDbSpline
210
0.0
220
0.0
230
1.0
 70
    24
 71
     3
 72
    27
 73
    23
 74
     0
 42
0.000000001
 43
0.00000001
 40
0.0
 40
0.0
 40
0.0
 40
0.0
 40
0.0522890455056278
 40
0.1045702547096276
 40
0.1568331382981628
 40
0.2090964522786919
 40
0.2613600126687537
 40
0.3136234181587449
 40
0.3629014882704092
 40
0.4121792990773619
 40
0.4614572903121585
 40
0.5107356660079776
 40
0.5600142628781314
 40
0.609292745202638
 40
0.658570861037654
 40
0.7078486824679902
 40
0.7571266367978283
 40
0.8064049785189602
 40
0.8548040319078521
 40
0.9032030214705099
 40
0.951601676246398
 40
1.0
 40
1.0
 40
1.0
 40
1.0
 10
450.4996953903001
 20
675.9500125
 30
0.0
 10
450.4449448327417
 20
675.9500125
 30
0.0
 10
450.3354519228214
 20
675.9500125
 30
0.0
 10
450.1723418591159
 20
675.9500125
 30
0.0
 10
450.0114642433424
 20
675.9500125
 30
0.0
 10
449.8538924788866
 20
675.9500125
 30
0.0
 10
449.7006701908905
 20
675.9500125
 30
0.0
 10
449.5556423920944
 20
675.9500125
 30
0.0
 10
449.4193971755896
 20
675.9500125
 30
0.0
 10
449.292316903589
 20
675.9500125
 30
0.0
 10
449.1724682894309
 20
675.9500125
 30
0.0
 10
449.060568519324
 20
675.9500125
 30
0.0
 10
448.9572879359637
 20
675.9500125
 30
0.0
 10
448.8632455881391
 20
675.9500125
 30
0.0
 10
448.7790048725677
 20
675.9500125
 30
0.0
 10
448.705071772307
 20
675.9500125
 30
0.0
 10
448.6418825830671
 20
675.9500125
 30
0.0
 10
448.5901455886699
 20
675.9500125
 30
0.0
 10
448.5498588073028
 20
675.9500125
 30
0.0
 10
448.5212988864194
 20
675.9500125
 30
0.0
 10
448.503336996839
 20
675.9500125
 30
0.0
 10
448.5011123297438
 20
675.9500125
 30
0.0
 10
448.5
 20
675.9500125
 30
0.0
  0
LINE
  5
9F
330
1F
100
AcDbEntity
  8
0
  6
Continuous
 62
     7
370
    30
100
AcDbLine
 10
521.3079945466
 20
663.9500125
 30
0.0
 11
450.6920057374
 21
663.9500125
 31
0.0
  0
SPLINE
  5
A0
330
1F
100
AcDbEntity
  8
0
  6
Continuous
 62
     7
370
    30
100
AcDbSpline
210
0.0
220
0.0
230
1.0
 70
    24
 71
     3
 72
    21
 73
    17
 74
     0
 42
0.000000001
 43
0.00000001
 40
0.0
 40
0.0
 40
0.0
 40
0.0
 40
0.0700073730251717
 40
0.1400178261429288
 40
0.210026673815742
 40
0.2800287541724902
 40
0.3500235624488574
 40
0.4200138172866985
 40
0.4900037079379809
 40
0.559997447789257
 40
0.6333277487395009
 40
0.7066646937628365
 40
0.7800024080823212
 40
0.8533366782969308
 40
0.9266681575924545
 40
1.0
 40
1.0
 40
1.0
 40
1.0
 10
450.6920057374001
 20
663.9500125
 30
0.0
 10
450.6553558742963
 20
663.9500125
 30
0.0
 10
450.5820545356163
 20
663.9500125
 30
0.0
 10
450.4734301917825
 20
663.9500125
 30
0.0
 10
450.3674482822713
 20
663.9500125
 30
0.0
 10
450.2653939522811
 20
663.9500125
 30
0.0
 10
450.168500446609
 20
663.9500125
 30
0.0
 10
450.0779343110428
 20
663.9500125
 30
0.0
 10
449.9947832784201
 20
663.9500125
 30
0.0
 10
449.9188660404943
 20
663.9500125
 30
0.0
 10
449.8515967165238
 20
663.9500125
 30
0.0
 10
449.7944510755398
 20
663.9500125
 30
0.0
 10
449.7491350508709
 20
663.9500125
 30
0.0
 10
449.7165740855775
 20
663.9500125
 30
0.0
 10
449.6959911849902
 20
663.9500125
 30
0.0
 10
449.6934357577724
 20
663.9500125
 30
0.0
 10
449.692158041
 20
663.9500125
 30
0.0
  0
LINE
  5
A1
330
1F
100
AcDbEntity
  8
0
  6
Continuous
 62
     7
370
    30
100
AcDbLine
 10
449.692158041
 20
663.9500125
 30
0.0
 11
449.5999478291
 21
663.9544920844
 31
0.0
  0
SPLINE
  5
A2
330
1F
100
AcDbEntity
  8
0
  6
Continuous
 62
     7
370
    30
100
AcDbSpline
210
0.0
220
0.0
230
1.0
 70
     8
 71
     3
 72
    22
 73
    18
 74
     0
 42
0.000000001
 43
0.00000001
 40
0.0
 40
0.0
 40
0.0
 40
0.0
 40
0.0165629860852526
 40
0.0868084870791663
 40
0.1570539880730769
 40
0.2272994890669877
 40
0.2975449900608972
 40
0.3677904910548084
 40
0.4380359920487165
 40
0.5082814930426257
 40
0.5785269940365381
 40
0.6487724950304493
 40
0.7190179960243599
 40
0.7892634970182689
 40
0.85950899801218
 40
0.9297544990060899
 40
1.0
 40
1.0
 40
1.0
 40
1.0
 10
449.5218478780307
 20
663.9654834636199
 30
0.0
 10
449.5142904244459
 20
663.9665287135941
 30
0.0
 10
449.4746809537569
 20
663.9720069871632
 30
0.0
 10
449.4046299619018
 20
663.9910983751145
 30
0.0
 10
449.3128940739851
 20
664.0228891419514
 30
0.0
 10
449.2248502864287
 20
664.0641770351896
 30
0.0
 10
449.1411753401332
 20
664.1136024934901
 30
0.0
 10
449.0626981031947
 20
664.1709601356189
 30
0.0
 10
448.9901468050981
 20
664.235640080744
 30
0.0
 10
448.9242073416324
 20
664.3070518492136
 30
0.0
 10
448.8655011216106
 20
664.3845179096422
 30
0.0
 10
448.8145768255649
 20
664.4673099587859
 30
0.0
 10
448.7719304876994
 20
664.5546481987761
 30
0.0
 10
448.7379022157746
 20
664.6457091095951
 30
0.0
 10
448.7130421727236
 20
664.7396390730489
 30
0.0
 10
448.6967272649401
 20
664.8355385110178
 30
0.0
 10
448.6937826530758
 20
664.9002195660477
 30
0.0
 10
448.6923103471436
 20
664.9325600935628
 30
0.0
  0
SPLINE
  5
A3
330
1F
100
AcDbEntity
  8
0
  6
Continuous
 62
     7
370
    30
100
AcDbSpline
210
0.0
220
0.0
230
1.0
 70
    24
 71
     3
 72
    21
 73
    17
 74
     0
 42
0.000000001
 43
0.00000001
 40
0.0
 40
0.0
 40
0.0
 40
0.0
 40
0.0700073730262794
 40
0.1400178261444497
 40
0.2100266738173538
 40
0.2800287541741335
 40
0.3500235624504813
 40
0.4200138172882379
 40
0.4900037079393957
 40
0.5599974477905011
 40
0.6333277487405283
 40
0.7066646937636656
 40
0.7800024080829374
 40
0.8533366782973384
 40
0.9266681575926703
 40
0.9999999999999999
 40
0.9999999999999999
 40
0.9999999999999999
 40
0.9999999999999999
 10
522.3078419871
 20
663.9500125
 30
0.0
 10
522.3066777262412
 20
663.9500125
 30
0.0
 10
522.3043491532999
 20
663.9500125
 30
0.0
 10
522.2855862574253
 20
663.9500125
 30
0.0
 10
522.2558819895847
 20
663.9500125
 30
0.0
 10
522.2144981801398
 20
663.9500125
 30
0.0
 10
522.1622318298545
 20
663.9500125
 30
0.0
 10
522.0996358562687
 20
663.9500125
 30
0.0
 10
522.0274840702167
 20
663.9500125
 30
0.0
 10
521.9453582677492
 20
663.9500125
 30
0.0
 10
521.8537879382282
 20
663.9500125
 30
0.0
 10
521.753570757934
 20
663.9500125
 30
0.0
 10
521.6474447139137
 20
663.9500125
 30
0.0
 10
521.5368224013558
 20
663.9500125
 30
0.0
 10
521.4231707953818
 20
663.9500125
 30
0.0
 10
521.3463866928952
 20
663.9500125
 30
0.0
 10
521.3079945466001
 20
663.9500125
 30
0.0
  0
LINE
  5
A4
330
1F
100
AcDbEntity
  8
0
  6
Continuous
 62
     7
370
    30
100
AcDbLine
 10
522.3078419577
 20
663.9500125
 30
0.0
 11
522.3939366095
 21
663.9541949896
 31
0.0
  0
LINE
  5
A5
330
1F
100
AcDbEntity
  8
0
  6
Continuous
 62
     7
370
    30
100
AcDbLine
 10
523.3016474424
 20
664.8411378363
 30
0.0
 11
523.3076896529
 21
664.9325600936
 31
0.0
  0
LINE
  5
A6
330
1F
100
AcDbEntity
  8
0
  6
Continuous
 62
     7
370
    30
100
AcDbLine
 10
499.5564677059
 20
505.9502160238
 30
0.0
 11
499.5653307904
 21
505.9500371622
 31
0.0
  0
LINE
  5
A7
330
1F
100
AcDbEntity
  8
0
  6
Continuous
 62
     7
370
    30
100
AcDbLine
 10
609.0
 20
489.7500125
 30
0.0
 11
363.0
 21
489.7500125
 31
0.0
  0
LINE
  5
A8
330
1F
100
AcDbEntity
  8
0
  6
Continuous
 62
     7
370
    30
100
AcDbLine
 10
611.0
 20
499.7500125
 30
0.0
 11
361.0
 21
499.7500125
 31
0.0
  0
LINE
  5
A9
330
1F
100
AcDbEntity
  8
0
  6
Continuous
 62
     7
370
    30
100
AcDbLine
 10
485.9536361395
 20
505.9500125627
 30
0.0
 11
486.0
 21
505.9500125627
 31
0.0
  0
LINE
  5
AA
330
1F
100
AcDbEntity
  8
0
  6
Continuous
 62
     7
370
    30
100
AcDbLine
 10
486.0
 20
505.9525645013
 30
0.0
 11
486.0
 21
505.9500125
 31
0.0
  0
SPLINE
  5
AB
330
1F
100
AcDbEntity
  8
0
  6
Continuous
 62
     7
370
    30
100
AcDbSpline
210
0.0
220
0.0
230
1.0
 70
    24
 71
     3
 72
    13
 73
     9
 74
     0
 42
0.000000001
 43
0.00000001
 40
0.0
 40
0.0
 40
0.0
 40
0.0
 40
0.0343489444890565
 40
0.2731605615739296
 40
0.5108964746511035
 40
0.7481780727847002
 40
0.9857536407352203
 40
1.0
 40
1.0
 40
1.0
 40
1.0
 10
470.7213358310058
 20
505.9500125627069
 30
0.0
 10
470.7107054554386
 20
505.9500125627069
 30
0.0
 10
470.6261672140788
 20
505.9500125627069
 30
0.0
 10
470.5141851727014
 20
505.9500125627069
 30
0.0
 10
470.3872100234202
 20
505.9500125627069
 30
0.0
 10
470.3196668417244
 20
505.9500125627068
 30
0.0
 10
470.2921692736191
 20
505.9500125627072
 30
0.0
 10
470.3016434343922
 20
505.9500125627069
 30
0.0
 10
470.3021794174958
 20
505.9500125627069
 30
0.0
  0
SPLINE
  5
AC
330
1F
100
AcDbEntity
  8
0
  6
Continuous
 62
     7
370
    30
100
AcDbSpline
210
0.0
220
0.0
230
1.0
 70
    24
 71
     3
 72
    59
 73
    55
 74
     0
 42
0.000000001
 43
0.00000001
 40
0.0
 40
0.0
 40
0.0
 40
0.0
 40
0.0200277052660508
 40
0.04001651639356
 40
0.0599861783501631
 40
0.0799564929028474
 40
0.0999472598793199
 40
0.1199782184580917
 40
0.1400209281945027
 40
0.1583539289216593
 40
0.1766652055848362
 40
0.1949699771464128
 40
0.2132834787864673
 40
0.2316209239256271
 40
0.2499974665181756
 40
0.2700303820976586
 40
0.2900230300949053
 40
0.3099951192944951
 40
0.3299664193467802
 40
0.349956702243424
 40
0.3699856837583376
 40
0.3900302893621876
 40
0.4083653327782431
 40
0.426677383742489
 40
0.444981680205097
 40
0.463293479474703
 40
0.4816280201292987
 40
0.5000004841601547
 40
0.520028919766766
 40
0.5400183963987647
 40
0.5599886588197491
 40
0.5799595087834708
 40
0.5999507462977592
 40
0.6199821109142959
 40
0.6400252226459081
 40
0.6583584538430524
 40
0.6766697984401022
 40
0.6949744772903943
 40
0.7132877278677544
 40
0.7316247662775548
 40
0.7500007495332127
 40
0.7700331055932511
 40
0.7900251048308269
 40
0.8099964625660216
 40
0.8299669552522775
 40
0.8499563619105369
 40
0.8699844055254171
 40
0.8900301242617276
 40
0.9083663602309417
 40
0.9266790963822383
 40
0.9449835765375211
 40
0.9632950651373896
 40
0.9816288091170281
 40
1.0
 40
1.0
 40
1.0
 40
1.0
 10
501.0001333828918
 20
518.4500125
 30
0.0
 10
500.998491811472
 20
518.4500125
 30
0.0
 10
500.9952118565917
 20
518.4500125
 30
0.0
 10
500.9715911126042
 20
518.4500125
 30
0.0
 10
500.9342693382125
 20
518.4500125
 30
0.0
 10
500.8819114724029
 20
518.4500125
 30
0.0
 10
500.8148764598263
 20
518.4500125000001
 30
0.0
 10
500.7331289948968
 20
518.4500125
 30
0.0
 10
500.6396198412323
 20
518.4500125
 30
0.0
 10
500.5358351902374
 20
518.4500125
 30
0.0
 10
500.4231926571017
 20
518.4500125
 30
0.0
 10
500.2986311689813
 20
518.4500125
 30
0.0
 10
500.1621509552267
 20
518.4500125
 30
0.0
 10
500.0137510904884
 20
518.4500125000001
 30
0.0
 10
499.8487793270911
 20
518.4500125
 30
0.0
 10
499.6663663253116
 20
518.4500125
 30
0.0
 10
499.4655155318819
 20
518.4500125
 30
0.0
 10
499.2515921660445
 20
518.4500125
 30
0.0
 10
499.0245953636033
 20
518.4500125
 30
0.0
 10
498.7845272257853
 20
518.4500125
 30
0.0
 10
498.5315642362526
 20
518.4500125000001
 30
0.0
 10
498.2736452994
 20
518.4500125
 30
0.0
 10
498.0123853413668
 20
518.4500125
 30
0.0
 10
497.7491878536978
 20
518.4500125
 30
0.0
 10
497.4763528106684
 20
518.4500125
 30
0.0
 10
497.1938805694749
 20
518.4500125
 30
0.0
 10
496.9017706403894
 20
518.4500125
 30
0.0
 10
496.5912554250082
 20
518.4500125
 30
0.0
 10
496.2620069756728
 20
518.4500125
 30
0.0
 10
495.9136366542788
 20
518.4500125
 30
0.0
 10
495.5558159896304
 20
518.4500125
 30
0.0
 10
495.1885451216188
 20
518.4500125
 30
0.0
 10
494.8118260032455
 20
518.4500125
 30
0.0
 10
494.4259657610945
 20
518.4500125
 30
0.0
 10
494.042736384356
 20
518.4500125
 30
0.0
 10
493.6636458409308
 20
518.4500125000001
 30
0.0
 10
493.2898305691561
 20
518.4500125
 30
0.0
 10
492.9101066097801
 20
518.4500125
 30
0.0
 10
492.5244744384351
 20
518.4500125
 30
0.0
 10
492.1329340610318
 20
518.4500125
 30
0.0
 10
491.7239408858293
 20
518.4500125
 30
0.0
 10
491.2977855417149
 20
518.4500125
 30
0.0
 10
490.854770432383
 20
518.4500125
 30
0.0
 10
490.4074216811713
 20
518.4500125
 30
0.0
 10
489.9557403918833
 20
518.4500125
 30
0.0
 10
489.4997280243971
 20
518.4500125
 30
0.0
 10
489.0396964117728
 20
518.4500125
 30
0.0
 10
488.5894316864411
 20
518.4500125000001
 30
0.0
 10
488.1500967530393
 20
518.4500125
 30
0.0
 10
487.7224688056832
 20
518.4500125
 30
0.0
 10
487.2936032515022
 20
518.4500125
 30
0.0
 10
486.8635005436843
 20
518.4500125
 30
0.0
 10
486.432161573951
 20
518.4500125
 30
0.0
 10
486.1441518018898
 20
518.4500125
 30
0.0
 10
486.0
 20
518.4500125
 30
0.0
  0
LINE
  5
AD
330
1F
100
AcDbEntity
  8
0
  6
Continuous
 62
     7
370
    30
100
AcDbLine
 10
486.0
 20
518.4500125
 30
0.0
 11
485.9557031051
 21
518.4500125
 31
0.0
  0
SPLINE
  5
AE
330
1F
100
AcDbEntity
  8
0
  6
Continuous
 62
     7
370
    30
100
AcDbSpline
210
0.0
220
0.0
230
1.0
 70
    24
 71
     3
 72
    59
 73
    55
 74
     0
 42
0.000000001
 43
0.00000001
 40
0.0
 40
0.0
 40
0.0
 40
0.0
 40
0.0200330075912271
 40
0.0400254103787705
 40
0.0599969398942961
 40
0.079967389540225
 40
0.0999565559268599
 40
0.1199841801620382
 40
0.14002535461128
 40
0.1583578383005385
 40
0.1766686143850464
 40
0.1949729071610729
 40
0.2132859570943162
 40
0.2316229828154595
 40
0.2499991433870189
 40
0.2700313206294815
 40
0.2900233671544897
 40
0.3099949955410817
 40
0.3299659788302329
 40
0.3499560919771954
 40
0.3699850532755393
 40
0.3900295335905515
 40
0.4083644348939759
 40
0.4266763812704108
 40
0.444980611064452
 40
0.4632923818850255
 40
0.4816269325146388
 40
0.4999994450528584
 40
0.5200278353606634
 40
0.5400173125179051
 40
0.559987621136033
 40
0.5799585626804861
 40
0.5999499367359614
 40
0.6199814822995269
 40
0.6400246229645279
 40
0.6583579408570269
 40
0.6766694970130634
 40
0.6949745102188363
 40
0.7132882155722309
 40
0.7316258265065373
 40
0.7500024970832394
 40
0.7700352770041001
 40
0.7900277442569181
 40
0.8099996075092715
 40
0.8299706364288024
 40
0.8499606031585681
 40
0.8699892237558009
 40
0.8900333021892115
 40
0.908367804535044
 40
0.9266792974665029
 40
0.9449830190959992
 40
0.9632942269371827
 40
0.981628159813618
 40
1.0
 40
1.0
 40
1.0
 40
1.0
 10
485.9557031051307
 20
518.4500125
 30
0.0
 10
485.7985154695091
 20
518.4500125
 30
0.0
 10
485.4844588011047
 20
518.4500125
 30
0.0
 10
485.0142122337491
 20
518.4500125
 30
0.0
 10
484.5454231354437
 20
518.4500125
 30
0.0
 10
484.0780967972921
 20
518.4500125
 30
0.0
 10
483.6122330574083
 20
518.4500125
 30
0.0
 10
483.1481795849818
 20
518.4500125000001
 30
0.0
 10
482.6996417442545
 20
518.4500125
 30
0.0
 10
482.2672415564423
 20
518.4500125
 30
0.0
 10
481.8511799284166
 20
518.4500125
 30
0.0
 10
481.4387058663502
 20
518.4500125
 30
0.0
 10
481.0298199422029
 20
518.4500125
 30
0.0
 10
480.6245230613752
 20
518.4500125
 30
0.0
 10
480.2111470649859
 20
518.4500125000001
 30
0.0
 10
479.7909752608971
 20
518.4500125
 30
0.0
 10
479.3654350961882
 20
518.4500125000001
 30
0.0
 10
478.9468686280991
 20
518.4500125
 30
0.0
 10
478.535278292775
 20
518.4500125
 30
0.0
 10
478.1306640243477
 20
518.4500125
 30
0.0
 10
477.7333147374698
 20
518.4500125
 30
0.0
 10
477.3547812711766
 20
518.4500125
 30
0.0
 10
476.9950847837662
 20
518.4500125
 30
0.0
 10
476.6538890892002
 20
518.4500125
 30
0.0
 10
476.3205903361963
 20
518.4500125000001
 30
0.0
 10
475.9951889736095
 20
518.4500125
 30
0.0
 10
475.677686204806
 20
518.4500125
 30
0.0
 10
475.359079568947
 20
518.4500125
 30
0.0
 10
475.0408755147733
 20
518.4500125000001
 30
0.0
 10
474.7247607276797
 20
518.4500125
 30
0.0
 10
474.4200742635298
 20
518.4500125
 30
0.0
 10
474.1268187186411
 20
518.4500125
 30
0.0
 10
473.844993188308
 20
518.4500125
 30
0.0
 10
473.5748203344177
 20
518.4500125
 30
0.0
 10
473.3239320379425
 20
518.4500125
 30
0.0
 10
473.0917226598939
 20
518.4500125
 30
0.0
 10
472.8773231946628
 20
518.4500125
 30
0.0
 10
472.6738809762753
 20
518.4500125
 30
0.0
 10
472.4813963183463
 20
518.4500125000001
 30
0.0
 10
472.2998704986712
 20
518.4500125
 30
0.0
 10
472.1243448587281
 20
518.4500125
 30
0.0
 10
471.9563408257379
 20
518.4500125
 30
0.0
 10
471.797571590328
 20
518.4500125
 30
0.0
 10
471.6529687023213
 20
518.4500125
 30
0.0
 10
471.5225344640232
 20
518.4500125
 30
0.0
 10
471.4062674713198
 20
518.4500125
 30
0.0
 10
471.3042456966738
 20
518.4500125
 30
0.0
 10
471.2190222247362
 20
518.4500125
 30
0.0
 10
471.1494642691688
 20
518.4500125
 30
0.0
 10
471.0943648222499
 20
518.4500125
 30
0.0
 10
471.0515918783104
 20
518.4500125000001
 30
0.0
 10
471.021445562786
 20
518.4500125
 30
0.0
 10
471.0028055370875
 20
518.4500125
 30
0.0
 10
471.000846931341
 20
518.4500125
 30
0.0
 10
470.9998666171082
 20
518.4500125
 30
0.0
  0
LINE
  5
AF
330
1F
100
AcDbEntity
  8
0
  6
Continuous
 62
     7
370
    30
100
AcDbLine
 10
470.1998341704
 20
505.0500125
 30
0.0
 11
501.8001658296
 21
505.0500125
 31
0.0
  0
ARC
  5
B0
330
1F
100
AcDbEntity
  8
0
  6
Continuous
 62
     7
370
    30
100
AcDbCircle
 10
486.0
 20
512.2500125
 30
0.0
 40
12.40000000000889
100
AcDbArc
 50
30.0021444109
 51
46.0883449991
  0
LINE
  5
B1
330
1F
100
AcDbEntity
  8
0
  6
Continuous
 62
     7
370
    30
100
AcDbLine
 10
477.4
 20
521.1830970737
 30
0.0
 11
486.0
 21
521.1830970737
 31
0.0
  0
LINE
  5
B2
330
1F
100
AcDbEntity
  8
0
  6
Continuous
 62
     7
370
    30
100
AcDbLine
 10
486.0
 20
521.1830970737
 30
0.0
 11
494.6
 21
521.1830970737
 31
0.0
  0
LINE
  5
B3
330
1F
100
AcDbEntity
  8
0
  6
Continuous
 62
     7
370
    30
100
AcDbLine
 10
474.6
 20
539.5953597574
 30
0.0
 11
497.4
 21
539.5953597574
 31
0.0
  0
LWPOLYLINE
  5
B4
330
1F
100
AcDbEntity
  8
0
  6
Continuous
 62
     7
370
    30
100
AcDbPolyline
 90
      115
 70
   128
 43
0.0
 10
476.0500022182
 20
525.9953609714
 10
476.1552799123
 20
525.9953609712
 10
476.2639680409
 20
525.9953609705
 10
476.376028952
 20
525.9953609695
 10
476.4914238251
 20
525.995360968
 10
476.6101126849
 20
525.9953609661
 10
476.7320544147
 20
525.9953609638
 10
476.8572067714
 20
525.9953609611
 10
476.9855263991
 20
525.9953609579
 10
477.1169688451
 20
525.9953609544
 10
477.2514885748
 20
525.9953609504
 10
477.3890389874
 20
525.995360946
 10
477.5295724324
 20
525.9953609412
 10
477.6730402258
 20
525.995360936
 10
477.8193926671
 20
525.9953609304
 10
477.9685790564
 20
525.9953609244
 10
478.1205477123
 20
525.9953609179
 10
478.2752459893
 20
525.9953609111
 10
478.4326202965
 20
525.9953609039
 10
478.5926161158
 20
525.9953608963
 10
478.755178021
 20
525.9953608882
 10
478.920249697
 20
525.9953608798
 10
479.0877739593
 20
525.995360871
 10
479.2576927735
 20
525.9953608618
 10
479.429947276
 20
525.9953608523
 10
479.6044777939
 20
525.9953608423
 10
479.7812238659
 20
525.995360832
 10
479.9601242632
 20
525.9953608213
 10
480.1411170104
 20
525.9953608102
 10
480.3241394078
 20
525.9953607988
 10
480.5091280521
 20
525.995360787
 10
480.6960188591
 20
525.9953607749
 10
480.8847470856
 20
525.9953607623
 10
481.0752473517
 20
525.9953607495
 10
481.2674536641
 20
525.9953607363
 10
481.4612994378
 20
525.9953607228
 10
481.6567175205
 20
525.9953607089
 10
481.8536402149
 20
525.9953606947
 10
482.0519993023
 20
525.9953606802
 10
482.2517260669
 20
525.9953606654
 10
482.4527513186
 20
525.9953606502
 10
482.6550054178
 20
525.9953606347
 10
482.8584182991
 20
525.995360619
 10
483.0629194955
 20
525.9953606029
 10
483.2684381634
 20
525.9953605865
 10
483.4749031062
 20
525.9953605699
 10
483.6822428
 20
525.995360553
 10
483.8903854174
 20
525.9953605358
 10
484.0992588533
 20
525.9953605183
 10
484.308790749
 20
525.9953605006
 10
484.518908518
 20
525.9953604826
 10
484.7295393707
 20
525.9953604643
 10
484.9406103398
 20
525.9953604458
 10
485.1520483055
 20
525.9953604271
 10
485.3637800209
 20
525.9953604082
 10
485.5757321374
 20
525.995360389
 10
485.7878312299
 20
525.9953603696
 10
486.0000038225
 20
525.9953603499
 10
486.2121764138
 20
525.9953603301
 10
486.4242755023
 20
525.9953603101
 10
486.6362276122
 20
525.9953602899
 10
486.8479593184
 20
525.9953602695
 10
487.0593972722
 20
525.9953602489
 10
487.2704682267
 20
525.9953602282
 10
487.4810990623
 20
525.9953602073
 10
487.6912168115
 20
525.9953601862
 10
487.9007486848
 20
525.995360165
 10
488.1096220956
 20
525.9953601437
 10
488.3177646854
 20
525.9953601222
 10
488.5251043489
 20
525.9953601006
 10
488.7315692589
 20
525.9953600788
 10
488.9370878914
 20
525.995360057
 10
489.1415890499
 20
525.995360035
 10
489.3450018907
 20
525.995360013
 10
489.5472559469
 20
525.9953599909
 10
489.7482811531
 20
525.9953599687
 10
489.9480078696
 20
525.9953599464
 10
490.1463669066
 20
525.995359924
 10
490.3432895479
 20
525.9953599016
 10
490.5387075752
 20
525.9953598792
 10
490.7325532911
 20
525.9953598567
 10
490.9247595431
 20
525.9953598341
 10
491.1152597467
 20
525.9953598116
 10
491.3039879081
 20
525.995359789
 10
491.4908786477
 20
525.9953597664
 10
491.6758672223
 20
525.9953597438
 10
491.8588895477
 20
525.9953597212
 10
492.0398822207
 20
525.9953596986
 10
492.2187825414
 20
525.9953596761
 10
492.3955285347
 20
525.9953596536
 10
492.5700589717
 20
525.9953596311
 10
492.7423133911
 20
525.9953596086
 10
492.9122321201
 20
525.9953595862
 10
493.079756295
 20
525.9953595639
 10
493.2448278816
 20
525.9953595416
 10
493.4073896954
 20
525.9953595194
 10
493.5673854212
 20
525.9953594973
 10
493.724759633
 20
525.9953594753
 10
493.8794578126
 20
525.9953594534
 10
494.0314263692
 20
525.9953594315
 10
494.1806126574
 20
525.9953594098
 10
494.3269649956
 20
525.9953593883
 10
494.4704326842
 20
525.9953593668
 10
494.6109660226
 20
525.9953593455
 10
494.7485163268
 20
525.9953593243
 10
494.8830359465
 20
525.9953593033
 10
495.0144782808
 20
525.9953592824
 10
495.1427977952
 20
525.9953592617
 10
495.2679500369
 20
525.9953592412
 10
495.3898916504
 20
525.9953592208
 10
495.5085803922
 20
525.9953592006
 10
495.6239751459
 20
525.9953591806
 10
495.7360359361
 20
525.9953591609
 10
495.8447239425
 20
525.9953591413
 10
495.95
 20
525.9953597575
  0
LINE
  5
B5
330
1F
100
AcDbEntity
  8
0
  6
Continuous
 62
     7
370
    30
100
AcDbLine
 10
476.0500044364
 20
528.9953597575
 30
0.0
 11
476.0500022182
 21
525.9953609714
 31
0.0
  0
LINE
  5
B6
330
1F
100
AcDbEntity
  8
0
  6
Continuous
 62
     7
370
    30
100
AcDbLine
 10
474.6
 20
528.9953597575
 30
0.0
 11
476.0500044364
 21
528.9953597575
 31
0.0
  0
LINE
  5
B7
330
1F
100
AcDbEntity
  8
0
  6
Continuous
 62
     7
370
    30
100
AcDbLine
 10
495.95
 20
528.9953597575
 30
0.0
 11
497.4
 21
528.9953597575
 31
0.0
  0
LINE
  5
B8
330
1F
100
AcDbEntity
  8
0
  6
Continuous
 62
     7
370
    30
100
AcDbLine
 10
495.95
 20
525.9953597575
 30
0.0
 11
495.95
 21
528.9953597575
 31
0.0
  0
SPLINE
  5
B9
330
1F
100
AcDbEntity
  8
0
  6
Continuous
 62
     7
370
    30
100
AcDbSpline
210
0.0
220
0.0
230
1.0
 70
     8
 71
     3
 72
    26
 73
    22
 74
     0
 42
0.000000001
 43
0.00000001
 40
0.0
 40
0.0
 40
0.0
 40
0.0
 40
0.0820355546543211
 40
0.1333800171171738
 40
0.184724348327584
 40
0.2361061877157634
 40
0.2874878788384828
 40
0.338884960383122
 40
0.3902818802976786
 40
0.4417311433283517
 40
0.4931802373657874
 40
0.5452704076668913
 40
0.5973604038253096
 40
0.649521626171191
 40
0.7016826907481822
 40
0.7547357212777749
 40
0.8077886184039633
 40
0.8609314015951328
 40
0.9140741021664778
 40
0.9570307377898462
 40
0.9999999999999999
 40
0.9999999999999999
 40
0.9999999999999999
 40
0.9999999999999999
 10
476.0500009704616
 20
525.9953627149856
 30
0.0
 10
476.0500005420844
 20
525.9458736036735
 30
0.0
 10
476.0499998455941
 20
525.8654102175024
 30
0.0
 10
476.0500000330277
 20
525.760978768803
 30
0.0
 10
476.0499999911431
 20
525.6772386364382
 30
0.0
 10
476.0500000023739
 20
525.5973749876069
 30
0.0
 10
476.0499999993637
 20
525.5214741990312
 30
0.0
 10
476.0500000001705
 20
525.449771613647
 30
0.0
 10
476.0499999999543
 20
525.3824268929869
 30
0.0
 10
476.0500000000122
 20
525.3196467477312
 30
0.0
 10
476.0499999999967
 20
525.2613789992805
 30
0.0
 10
476.0500000000009
 20
525.2079061649889
 30
0.0
 10
476.0499999999997
 20
525.1594557315178
 30
0.0
 10
476.0500000000001
 20
525.1164383219855
 30
0.0
 10
476.05
 20
525.0788021820811
 30
0.0
 10
476.05
 20
525.0468374156236
 30
0.0
 10
476.05
 20
525.0207775698716
 30
0.0
 10
476.05
 20
525.0009039677722
 30
0.0
 10
476.05
 20
524.9883027878697
 30
0.0
 10
476.05
 20
524.9812714674177
 30
0.0
 10
476.05
 20
524.9804630801245
 30
0.0
 10
476.05
 20
524.9800588270829
 30
0.0
  0
SPLINE
  5
BA
330
1F
100
AcDbEntity
  8
0
  6
Continuous
 62
     7
370
    30
100
AcDbSpline
210
0.0
220
0.0
230
1.0
 70
    24
 71
     3
 72
    25
 73
    21
 74
     0
 42
0.000000001
 43
0.00000001
 40
0.0
 40
0.0
 40
0.0
 40
0.0
 40
0.0637408726737092
 40
0.1274818260832775
 40
0.1913852191285672
 40
0.2552888414986433
 40
0.3009509049046928
 40
0.3466130530047501
 40
0.3923271158623276
 40
0.4380412770168216
 40
0.4843228049001752
 40
0.5306044427495643
 40
0.5769300871092922
 40
0.6232558421970843
 40
0.6894961165747293
 40
0.7557368279735454
 40
0.8220707429347212
 40
0.8884050441759002
 40
0.9441975566175169
 40
1.0
 40
1.0
 40
1.0
 40
1.0
 10
495.95
 20
524.9800588270829
 30
0.0
 10
495.95
 20
524.9809493198641
 30
0.0
 10
495.95
 20
524.9827303065545
 30
0.0
 10
495.95
 20
524.9970823116251
 30
0.0
 10
495.95
 20
525.019940339568
 30
0.0
 10
495.95
 20
525.0489485002919
 30
0.0
 10
495.95
 20
525.0809936456689
 30
0.0
 10
495.95
 20
525.11370125836
 30
0.0
 10
495.95
 20
525.1507425349351
 30
0.0
 10
495.95
 20
525.1921828999731
 30
0.0
 10
495.95
 20
525.2379570642803
 30
0.0
 10
495.95
 20
525.2880102142802
 30
0.0
 10
495.95
 20
525.3420312174204
 30
0.0
 10
495.95
 20
525.4081762131862
 30
0.0
 10
495.95
 20
525.4883656526221
 30
0.0
 10
495.95
 20
525.584654168731
 30
0.0
 10
495.95
 20
525.6876889136369
 30
0.0
 10
495.9499999999999
 20
525.7913986231512
 30
0.0
 10
495.95
 20
525.8939185563609
 30
0.0
 10
495.95
 20
525.9615440177649
 30
0.0
 10
495.9499999999999
 20
525.995359757494
 30
0.0
  0
LINE
  5
BB
330
1F
100
AcDbEntity
  8
0
  6
Continuous
 62
     7
370
    30
100
AcDbLine
 10
477.4
 20
524.0347786505
 30
0.0
 11
494.6
 21
524.0347786505
 31
0.0
  0
ARC
  5
BC
330
1F
100
AcDbEntity
  8
0
  6
Continuous
 62
     7
370
    30
100
AcDbCircle
 10
486.0
 20
512.2500125
 30
0.0
 40
12.4
100
AcDbArc
 50
324.5040673497
 51
329.4650064168
  0
LINE
  5
BD
330
1F
100
AcDbEntity
  8
0
  6
Continuous
 62
     7
370
    30
100
AcDbLine
 10
807.0
 20
663.9500125
 30
0.0
 11
807.0
 21
545.4500125
 31
0.0
  0
LINE
  5
BE
330
1F
100
AcDbEntity
  8
0
  6
Continuous
 62
     7
370
    30
100
AcDbLine
 10
833.0
 20
545.4500125
 30
0.0
 11
833.0
 21
663.9500125
 31
0.0
  0
LINE
  5
BF
330
1F
100
AcDbEntity
  8
0
  6
Continuous
 62
     7
370
    30
100
AcDbLine
 10
809.5200000208
 20
545.4500125
 30
0.0
 11
809.5200000208
 21
539.5953597574
 31
0.0
  0
LINE
  5
C0
330
1F
100
AcDbEntity
  8
0
  6
Continuous
 62
     7
370
    30
100
AcDbLine
 10
830.4800000208
 20
539.5953597574
 30
0.0
 11
830.4800000208
 21
545.4500125
 31
0.0
  0
SPLINE
  5
C1
330
1F
100
AcDbEntity
  8
0
  6
Continuous
 62
     7
370
    30
100
AcDbSpline
210
0.0
220
0.0
230
1.0
 70
     8
 71
     3
 72
    31
 73
    27
 74
     0
 42
0.000000001
 43
0.00000001
 40
0.0
 40
0.0
 40
0.0
 40
0.0
 40
0.036769113569263
 40
0.0707154786451343
 40
0.1022415021357011
 40
0.1318545191846705
 40
0.1601674846821415
 40
0.1878774115553526
 40
0.2157181256502236
 40
0.2443433674661698
 40
0.3035911179647827
 40
0.3653172099044717
 40
0.4295231017948518
 40
0.4958448079336842
 40
0.5625413433808356
 40
0.6293827350605111
 40
0.6963667113064632
 40
0.7609429565395465
 40
0.7908868047522226
 40
0.8192476119793057
 40
0.8460256682779163
 40
0.8713828505871622
 40
0.8978300067155542
 40
0.9275682515811731
 40
0.9615180938157788
 40
1.0
 40
1.0
 40
1.0
 40
1.0
 10
782.6932245843352
 20
664.9038414631873
 30
0.0
 10
782.6939135841081
 20
664.8934004442548
 30
0.0
 10
782.6952386894478
 20
664.8733199587692
 30
0.0
 10
782.7000518909806
 20
664.8389994389114
 30
0.0
 10
782.7066014646218
 20
664.8031028047916
 30
0.0
 10
782.7149142272924
 20
664.7653503754777
 30
0.0
 10
782.7248692404567
 20
664.7258960799822
 30
0.0
 10
782.7364562162434
 20
664.6848833368991
 30
0.0
 10
782.7497499776624
 20
664.6425218898631
 30
0.0
 10
782.769790830527
 20
664.5845999016802
 30
0.0
 10
782.8009055485247
 20
664.5117857852055
 30
0.0
 10
782.8478384442997
 20
664.4257118889303
 30
0.0
 10
782.905200988448
 20
664.3416840520022
 30
0.0
 10
782.9725946228561
 20
664.2620339890548
 30
0.0
 10
783.0489554865902
 20
664.1889815136816
 30
0.0
 10
783.1328426892502
 20
664.1242201845563
 30
0.0
 10
783.222121420035
 20
664.0693336669613
 30
0.0
 10
783.2990477262803
 20
664.032507457047
 30
0.0
 10
783.3593922719211
 20
664.009019188591
 30
0.0
 10
783.4019190654566
 20
663.9947123405194
 30
0.0
 10
783.4425722593332
 20
663.9829793204077
 30
0.0
 10
783.4831596640892
 20
663.9731297474624
 30
0.0
 10
783.5232094991836
 20
663.9649086696082
 30
0.0
 10
783.5625931937054
 20
663.9585057897216
 30
0.0
 10
783.6030591471355
 20
663.9536643975249
 30
0.0
 10
783.6295572409122
 20
663.9520490546479
 30
0.0
 10
783.6436352823931
 20
663.951190847102
 30
0.0
  0
SPLINE
  5
C2
330
1F
100
AcDbEntity
  8
0
  6
Continuous
 62
     7
370
    30
100
AcDbSpline
210
0.0
220
0.0
230
1.0
 70
     8
 71
     3
 72
    32
 73
    28
 74
     0
 42
0.000000001
 43
0.00000001
 40
0.0
 40
0.0
 40
0.0
 40
0.0
 40
0.0302535397872215
 40
0.059909094837015
 40
0.0893561785950133
 40
0.1190644278478294
 40
0.1495845193671241
 40
0.1815154967094647
 40
0.2141706154617526
 40
0.2469388981119496
 40
0.3127943871693788
 40
0.3791060586964956
 40
0.4458477192705344
 40
0.5127910141063894
 40
0.5798801298769248
 40
0.6471125525147733
 40
0.6912538073925039
 40
0.7316512994093811
 40
0.7679959172806412
 40
0.7925961169532154
 40
0.8149236857395975
 40
0.836605273448622
 40
0.8603510732175131
 40
0.8876987792793266
 40
0.9196891150175517
 40
0.9569838373166305
 40
1.0
 40
1.0
 40
1.0
 40
1.0
 10
856.356364271958
 20
663.9511908239595
 30
0.0
 10
856.3675608935532
 20
663.9518437894254
 30
0.0
 10
856.3897328268122
 20
663.953136813987
 30
0.0
 10
856.4265576476237
 20
663.9570396557921
 30
0.0
 10
856.4659083332461
 20
663.9628162214374
 30
0.0
 10
856.5082974765431
 20
663.9709671621315
 30
0.0
 10
856.5537446784728
 20
663.9818670136291
 30
0.0
 10
856.6016814829826
 20
663.9957271868448
 30
0.0
 10
856.6500035565527
 20
664.0123876584072
 30
0.0
 10
856.7139003540816
 20
664.0382205287647
 30
0.0
 10
856.7915455174143
 20
664.0769241601657
 30
0.0
 10
856.8798110941584
 20
664.133148615844
 30
0.0
 10
856.962181054077
 20
664.1987195924994
 30
0.0
 10
857.0375179330096
 20
664.272925059808
 30
0.0
 10
857.1048059734331
 20
664.3549003725395
 30
0.0
 10
857.1564889345236
 20
664.4335376637597
 30
0.0
 10
857.1943722157339
 20
664.5039483383987
 30
0.0
 10
857.2207577039751
 20
664.5619265457856
 30
0.0
 10
857.2398732760823
 20
664.6117846723575
 30
0.0
 10
857.2536547362987
 20
664.653456007257
 30
0.0
 10
857.2635454574388
 20
664.6881801614409
 30
0.0
 10
857.2728199206485
 20
664.7228246869366
 30
0.0
 10
857.2817145150879
 20
664.7565317729994
 30
0.0
 10
857.2899762564365
 20
664.789853985628
 30
0.0
 10
857.2972449202276
 20
664.8229733417
 30
0.0
 10
857.3031588258839
 20
664.8563089068452
 30
0.0
 10
857.3049239388334
 20
664.8764496892803
 30
0.0
 10
857.3058693696527
 20
664.8872375068219
 30
0.0
  0
SPLINE
  5
C3
330
1F
100
AcDbEntity
  8
0
  6
Continuous
 62
     7
370
    30
100
AcDbSpline
210
0.0
220
0.0
230
1.0
 70
     8
 71
     3
 72
     9
 73
     5
 74
     0
 42
0.000000001
 43
0.00000001
 40
0.0
 40
0.0
 40
0.0
 40
0.0
 40
0.1160268656124891
 40
1.0
 40
1.0
 40
1.0
 40
1.0
 10
857.3015846905104
 20
664.840188359118
 30
0.0
 10
857.3017650759775
 20
664.8414783688426
 30
0.0
 10
857.3033197630438
 20
664.852596567355
 30
0.0
 10
857.3038917314135
 20
664.8636130238453
 30
0.0
 10
857.3043973360863
 20
664.8733512754189
 30
0.0
  0
ARC
  5
C4
330
1F
100
AcDbEntity
  8
0
  6
Continuous
 62
     7
370
    30
100
AcDbCircle
 10
943.0
 20
491.7500125
 30
0.0
 40
2.000000000000057
100
AcDbArc
 50
270.0
 51
0.0
  0
ARC
  5
C5
330
1F
100
AcDbEntity
  8
0
  6
Continuous
 62
     7
370
    30
100
AcDbCircle
 10
697.0
 20
491.7500125
 30
0.0
 40
2.000000000000057
100
AcDbArc
 50
180.0
 51
270.0
  0
LINE
  5
C6
330
1F
100
AcDbEntity
  8
0
  6
Continuous
 62
     7
370
    30
100
AcDbLine
 10
945.0
 20
491.7500125
 30
0.0
 11
945.0
 21
499.7500125
 31
0.0
  0
LINE
  5
C7
330
1F
100
AcDbEntity
  8
0
  6
Continuous
 62
     7
370
    30
100
AcDbLine
 10
695.0
 20
499.7500125
 30
0.0
 11
695.0
 21
491.7500125
 31
0.0
  0
SPLINE
  5
C8
330
1F
100
AcDbEntity
  8
0
  6
Continuous
 62
     7
370
    30
100
AcDbSpline
210
0.0
220
0.0
230
1.0
 70
    24
 71
     3
 72
    13
 73
     9
 74
     0
 42
0.000000001
 43
0.00000001
 40
0.0
 40
0.0
 40
0.0
 40
0.0
 40
0.126049667254963
 40
0.2907609614469599
 40
0.4605109218551408
 40
0.635300197263472
 40
0.8151295766112245
 40
1.0
 40
1.0
 40
1.0
 40
1.0
 10
835.5879198961726
 20
505.9502159283006
 30
0.0
 10
835.5978055511564
 20
505.9502159283006
 30
0.0
 10
835.6206089635747
 20
505.9502159283006
 30
0.0
 10
835.6493372705371
 20
505.9502159283006
 30
0.0
 10
835.6752568930328
 20
505.9502159283006
 30
0.0
 10
835.6945657366239
 20
505.9502159283006
 30
0.0
 10
835.7075827464051
 20
505.9502159283006
 30
0.0
 10
835.7097747019598
 20
505.9502159283006
 30
0.0
 10
835.7108858288329
 20
505.9502159283006
 30
0.0
  0
SPLINE
  5
C9
330
1F
100
AcDbEntity
  8
0
  6
Continuous
 62
     7
370
    30
100
AcDbSpline
210
0.0
220
0.0
230
1.0
 70
     8
 71
     3
 72
   148
 73
   144
 74
     0
 42
0.000000001
 43
0.00000001
 40
0.0
 40
0.0
 40
0.0
 40
0.0
 40
0.0025364799277208
 40
0.0121958138244438
 40
0.0217032475772519
 40
0.031058775949309
 40
0.0402623906268662
 40
0.0493140813331083
 40
0.0580148716610296
 40
0.0665799921219236
 40
0.0752099224009069
 40
0.083985065647006
 40
0.0929054112240953
 40
0.1018077988482771
 40
0.1108502296616666
 40
0.1200326950575501
 40
0.1293551881376026
 40
0.1347452968626786
 40
0.1401811295754209
 40
0.1455601466680811
 40
0.1507363759862891
 40
0.1557087623177229
 40
0.1604773396983391
 40
0.165042137672532
 40
0.1698280747344527
 40
0.1743674968567716
 40
0.1786604245170666
 40
0.1827068718453833
 40
0.1865068468324831
 40
0.189750901694461
 40
0.1930756161246162
 40
0.19660265248783
 40
0.2003320189241581
 40
0.20426371852559
 40
0.2083221541875317
 40
0.2125757536233036
 40
0.2170245063801913
 40
0.2216683977368432
 40
0.2266081939066662
 40
0.2317511301413713
 40
0.237097177102513
 40
0.2425358961319252
 40
0.2479293407952362
 40
0.2532770951383108
 40
0.2585791588183588
 40
0.267933306317178
 40
0.2771417564003825
 40
0.2862045003828546
 40
0.2951215278277003
 40
0.303892827165252
 40
0.3125183862745414
 40
0.3210509484286068
 40
0.3319083815613996
 40
0.3427658261422875
 40
0.3536232585455626
 40
0.3644806566339876
 40
0.3753380009150376
 40
0.3861952756891042
 40
0.3970524790736176
 40
0.4070049124381971
 40
0.416957286177961
 40
0.4269096046096733
 40
0.4368618764277451
 40
0.4468141145097639
 40
0.4567663354564584
 40
0.4676232055320061
 40
0.4784800375050876
 40
0.489336861252906
 40
0.5001937058063147
 40
0.5110505974256608
 40
0.5219075581219714
 40
0.5327646007587751
 40
0.5427170075605897
 40
0.5526694700544277
 40
0.5626219876057572
 40
0.5725745554265931
 40
0.5825271649335326
 40
0.5924798042361257
 40
0.6019843927847796
 40
0.611553696922053
 40
0.621207191443064
 40
0.6309448598612094
 40
0.6407666849639173
 40
0.6506726495277296
 40
0.6606627370921165
 40
0.6707369327669636
 40
0.6766268304450282
 40
0.6823046235677714
 40
0.6877578009350581
 40
0.692986402231644
 40
0.697990462258918
 40
0.7027700108516474
 40
0.7081148439941938
 40
0.7131478919885589
 40
0.717869176579833
 40
0.7222787100778495
 40
0.7247940630215646
 40
0.7273106337356384
 40
0.7300071005477498
 40
0.7328854999816269
 40
0.7359458134868143
 40
0.7391880127306246
 40
0.743242621654821
 40
0.7475497440218878
 40
0.752109285417797
 40
0.7569211351774068
 40
0.7620911371184004
 40
0.7675235673360008
 40
0.7732182576233294
 40
0.7790760811436774
 40
0.7848809170921286
 40
0.7906252734289662
 40
0.7963092378803999
 40
0.8063090336952694
 40
0.8161170028511734
 40
0.8257335871698193
 40
0.835159204711203
 40
0.8443942505033935
 40
0.8534596607694884
 40
0.8623960582491975
 40
0.8721973144825003
 40
0.8818398801711577
 40
0.8913237413322599
 40
0.9006488854069974
 40
0.9047841426722569
 40
0.9088874003358292
 40
0.9129586577413088
 40
0.9169979143445659
 40
0.9211235173568876
 40
0.9255372592451019
 40
0.9302425216226492
 40
0.9352280815822881
 40
0.9405038839485887
 40
0.9460699251139313
 40
0.9519262018586783
 40
0.95807271170048
 40
0.9643919693730428
 40
0.9709911867830121
 40
0.9778703666242713
 40
0.9850295145843213
 40
0.9916582222824674
 40
0.9985101388483382
 40
1.0
 40
1.0
 40
1.0
 40
1.0
 10
804.8344994552103
 20
505.9502159283006
 30
0.0
 10
804.8437301522205
 20
505.9502159283006
 30
0.0
 10
804.8881128658286
 20
505.9502159283005
 30
0.0
 10
804.9778417288611
 20
505.9502159283006
 30
0.0
 10
805.1029737329376
 20
505.9502159283006
 30
0.0
 10
805.2369025790591
 20
505.9502159283006
 30
0.0
 10
805.378000036273
 20
505.9502159283005
 30
0.0
 10
805.5249004501625
 20
505.9502159283008
 30
0.0
 10
805.6768514348751
 20
505.9502159282997
 30
0.0
 10
805.8344634715426
 20
505.9502159283038
 30
0.0
 10
806.0005214708182
 20
505.9502159282881
 30
0.0
 10
806.1769583999674
 20
505.9502159283489
 30
0.0
 10
806.3634448444803
 20
505.9502159281174
 30
0.0
 10
806.5600578781833
 20
505.9502159289868
 30
0.0
 10
806.766860584189
 20
505.9502159256776
 30
0.0
 10
806.9852646976602
 20
505.9502159383178
 30
0.0
 10
807.1819923816498
 20
505.9502158970869
 30
0.0
 10
807.3526583359172
 20
505.9502159919309
 30
0.0
 10
807.4927364058925
 20
505.9502156852891
 30
0.0
 10
807.6336698435458
 20
505.9502168112926
 30
0.0
 10
807.7729732627374
 20
505.9502230982429
 30
0.0
 10
807.909049195674
 20
505.9502338480729
 30
0.0
 10
808.041579949426
 20
505.9502496214784
 30
0.0
 10
808.1742735465502
 20
505.9502715075022
 30
0.0
 10
808.3066429499842
 20
505.9503008426509
 30
0.0
 10
808.4381709600874
 20
505.9503395792983
 30
0.0
 10
808.5640886838717
 20
505.9503877688115
 30
0.0
 10
808.6840965480278
 20
505.9504474969185
 30
0.0
 10
808.7948572379064
 20
505.9505162486045
 30
0.0
 10
808.8992429819278
 20
505.9506037296812
 30
0.0
 10
809.001917797886
 20
505.9506866109256
 30
0.0
 10
809.1106948933494
 20
505.9507638187428
 30
0.0
 10
809.2269591621892
 20
505.9508368098045
 30
0.0
 10
809.3500939365912
 20
505.9509034411117
 30
0.0
 10
809.4801676096226
 20
505.9509630007429
 30
0.0
 10
809.6172503464858
 20
505.9510147380059
 30
0.0
 10
809.7622452465616
 20
505.9510582611003
 30
0.0
 10
809.9164388037002
 20
505.9510932375176
 30
0.0
 10
810.0801479239014
 20
505.9511188617012
 30
0.0
 10
810.2536941953496
 20
505.9511348924236
 30
0.0
 10
810.43499442948
 20
505.9511395654571
 30
0.0
 10
810.6212943489677
 20
505.9511383059456
 30
0.0
 10
810.809676992609
 20
505.9511386419415
 30
0.0
 10
810.9984701437422
 20
505.9511385534955
 30
0.0
 10
811.236288865564
 20
505.9511385808593
 30
0.0
 10
811.52390428636
 20
505.951138568773
 30
0.0
 10
811.8623211862092
 20
505.9511385724925
 30
0.0
 10
812.2004820146308
 20
505.9511385715194
 30
0.0
 10
812.5379356039682
 20
505.9511385717739
 30
0.0
 10
812.8742532205089
 20
505.9511385717074
 30
0.0
 10
813.2097098659436
 20
505.9511385717247
 30
0.0
 10
813.5762686135647
 20
505.9511385717199
 30
0.0
 10
813.9768132636923
 20
505.9511385717215
 30
0.0
 10
814.413514014769
 20
505.951138571721
 30
0.0
 10
814.8551986469878
 20
505.9511385717211
 30
0.0
 10
815.3014716279846
 20
505.9511385717211
 30
0.0
 10
815.7519349757438
 20
505.9511385717211
 30
0.0
 10
816.2061862963975
 20
505.9511385717211
 30
0.0
 10
816.651111112017
 20
505.951138571721
 30
0.0
 10
817.0860131801212
 20
505.951138571721
 30
0.0
 10
817.5103098099374
 20
505.9511385717211
 30
0.0
 10
817.93647226969
 20
505.9511385717211
 30
0.0
 10
818.364181656583
 20
505.9511385717211
 30
0.0
 10
818.7931179676052
 20
505.9511385717211
 30
0.0
 10
819.2359826244359
 20
505.9511385717211
 30
0.0
 10
819.6925222119002
 20
505.951138571721
 30
0.0
 10
820.1623772301837
 20
505.9511385717211
 30
0.0
 10
820.6320871144023
 20
505.9511385717211
 30
0.0
 10
821.1012328513988
 20
505.9511385717211
 30
0.0
 10
821.5693966520545
 20
505.9511385717211
 30
0.0
 10
822.0361607885202
 20
505.9511385717211
 30
0.0
 10
822.4881959874313
 20
505.9511385717211
 30
0.0
 10
822.9252933411448
 20
505.9511385717211
 30
0.0
 10
823.3473445238341
 20
505.9511385717211
 30
0.0
 10
823.7668866176286
 20
505.9511385717212
 30
0.0
 10
824.1836056391361
 20
505.9511385717207
 30
0.0
 10
824.5971889213876
 20
505.9511385717226
 30
0.0
 10
825.0011722786065
 20
505.9511385717161
 30
0.0
 10
825.3963212706427
 20
505.9511385717389
 30
0.0
 10
825.7836697936684
 20
505.9511385716539
 30
0.0
 10
826.1701012569025
 20
505.9511385719757
 30
0.0
 10
826.5554954373436
 20
505.9511385707586
 30
0.0
 10
826.939456736689
 20
505.9511385753601
 30
0.0
 10
827.3215778406335
 20
505.9511385579657
 30
0.0
 10
827.701438247082
 20
505.9511386237115
 30
0.0
 10
828.0253418031488
 20
505.9511384103316
 30
0.0
 10
828.2919022438163
 20
505.9511388989197
 30
0.0
 10
828.4995660397585
 20
505.951152215969
 30
0.0
 10
828.6972797551841
 20
505.9511763842787
 30
0.0
 10
828.8850930178588
 20
505.9512123214986
 30
0.0
 10
829.0632044064665
 20
505.9512603981652
 30
0.0
 10
829.241099510164
 20
505.9513246676541
 30
0.0
 10
829.41766790889
 20
505.951408992494
 30
0.0
 10
829.5918417602181
 20
505.9515185616479
 30
0.0
 10
829.753718279077
 20
505.9516514512312
 30
0.0
 10
829.8856513100208
 20
505.9517879721691
 30
0.0
 10
829.9919368785029
 20
505.9519280541893
 30
0.0
 10
830.0784399841268
 20
505.9520439317656
 30
0.0
 10
830.1682387589303
 20
505.9521240316965
 30
0.0
 10
830.2632993998542
 20
505.95218097514
 30
0.0
 10
830.3634948557199
 20
505.9522102989303
 30
0.0
 10
830.4755086852348
 20
505.9522125714331
 30
0.0
 10
830.5997027990774
 20
505.9521809485967
 30
0.0
 10
830.7363491487177
 20
505.9521105329482
 30
0.0
 10
830.8791641842743
 20
505.952004626353
 30
0.0
 10
831.0289244647895
 20
505.9518650715669
 30
0.0
 10
831.1853389967332
 20
505.9516948984066
 30
0.0
 10
831.3480815472298
 20
505.9514992036275
 30
0.0
 10
831.5147809097083
 20
505.9512843362082
 30
0.0
 10
831.6820832501488
 20
505.9510700926569
 30
0.0
 10
831.8470166442434
 20
505.9508932938803
 30
0.0
 10
832.0074136875546
 20
505.9507441770563
 30
0.0
 10
832.2032792003753
 20
505.9505896736111
 30
0.0
 10
832.4303881271721
 20
505.950449520967
 30
0.0
 10
832.6837629372474
 20
505.9503384816535
 30
0.0
 10
832.9236299640993
 20
505.950267988
 30
0.0
 10
833.1503747728749
 20
505.9502278386351
 30
0.0
 10
833.3646012625329
 20
505.9502134447769
 30
0.0
 10
833.567024495755
 20
505.9502165760898
 30
0.0
 10
833.764978538135
 20
505.9502157369804
 30
0.0
 10
833.9578215431363
 20
505.9502159806335
 30
0.0
 10
834.1444540791342
 20
505.9502159145966
 30
0.0
 10
834.3182883693681
 20
505.9502159319715
 30
0.0
 10
834.4506658213238
 20
505.9502159279044
 30
0.0
 10
834.5476700128581
 20
505.9502159283693
 30
0.0
 10
834.613792943
 20
505.9502159282824
 30
0.0
 10
834.6775561666836
 20
505.9502159283053
 30
0.0
 10
834.7395952243747
 20
505.9502159282993
 30
0.0
 10
834.8014576719069
 20
505.950215928301
 30
0.0
 10
834.8644801462876
 20
505.9502159283005
 30
0.0
 10
834.9291785439925
 20
505.9502159283006
 30
0.0
 10
834.9950948010883
 20
505.9502159283006
 30
0.0
 10
835.061724223968
 20
505.9502159283006
 30
0.0
 10
835.1285728469747
 20
505.9502159283006
 30
0.0
 10
835.1950697017611
 20
505.9502159283006
 30
0.0
 10
835.2601939662136
 20
505.9502159283005
 30
0.0
 10
835.3233717393999
 20
505.9502159283006
 30
0.0
 10
835.3840316563407
 20
505.9502159283006
 30
0.0
 10
835.4418189458656
 20
505.9502159283006
 30
0.0
 10
835.4941589801302
 20
505.9502159283006
 30
0.0
 10
835.5403678324794
 20
505.9502159283006
 30
0.0
 10
835.5712475618695
 20
505.9502159283007
 30
0.0
 10
835.5853934137095
 20
505.9502159283006
 30
0.0
 10
835.5879198961726
 20
505.9502159283006
 30
0.0
  0
SPLINE
  5
CA
330
1F
100
AcDbEntity
  8
0
  6
Continuous
 62
     7
370
    30
100
AcDbSpline
210
0.0
220
0.0
230
1.0
 70
     8
 71
     3
 72
    38
 73
    34
 74
     0
 42
0.000000001
 43
0.00000001
 40
0.0
 40
0.0
 40
0.0
 40
0.0
 40
0.0149029115965778
 40
0.0282820782538645
 40
0.040113586403144
 40
0.0503966547274041
 40
0.0617077675044673
 40
0.070988647433988
 40
0.0803882055715526
 40
0.090064089469822
 40
0.1000108491985844
 40
0.1081715788105092
 40
0.1121131671049077
 40
0.1141822127205264
 40
0.1151273932064507
 40
0.1160985702021358
 40
0.1183597975097038
 40
0.1212981492016846
 40
0.1296939769020941
 40
0.1417791007700965
 40
0.157688533886487
 40
0.1757061531253297
 40
0.1970149232508522
 40
0.2216281412661161
 40
0.2495547791834474
 40
0.2805803518279064
 40
0.3122139309642614
 40
0.4601131572306733
 40
0.5904673240861035
 40
0.7192292860063768
 40
0.8328589151914574
 40
0.9452346646600612
 40
1.0
 40
1.0
 40
1.0
 40
1.0
 10
804.0048018101053
 20
506.2500125
 30
0.0
 10
804.0055838178106
 20
506.2336413143074
 30
0.0
 10
804.0070678770144
 20
506.2025728112256
 30
0.0
 10
804.0178775146514
 20
506.1596474959744
 30
0.0
 10
804.0321055715298
 20
506.123311639044
 30
0.0
 10
804.049621487365
 20
506.0909950856738
 30
0.0
 10
804.0692076812354
 20
506.0632469426728
 30
0.0
 10
804.0911460441714
 20
506.038648539299
 30
0.0
 10
804.1141718403761
 20
506.0176453400258
 30
0.0
 10
804.1398645565947
 20
505.9987408601028
 30
0.0
 10
804.1662730950552
 20
505.9833935798557
 30
0.0
 10
804.1883077067964
 20
505.9733574202514
 30
0.0
 10
804.202868286358
 20
505.9678573604281
 30
0.0
 10
804.2100710102543
 20
505.9654002203019
 30
0.0
 10
804.2142631577956
 20
505.9640502524059
 30
0.0
 10
804.2184231540492
 20
505.9627698873744
 30
0.0
 10
804.223491502176
 20
505.9613198134505
 30
0.0
 10
804.2315675350824
 20
505.9592075659134
 30
0.0
 10
804.2402942089446
 20
505.9572822573366
 30
0.0
 10
804.2495002426571
 20
505.9555785076555
 30
0.0
 10
804.25786988527
 20
505.9543381485452
 30
0.0
 10
804.265685743236
 20
505.953413653947
 30
0.0
 10
804.273041938693
 20
505.9527479600019
 30
0.0
 10
804.2802301650768
 20
505.9522740694108
 30
0.0
 10
804.2874213924797
 20
505.9519551061094
 30
0.0
 10
804.2944177586127
 20
505.9517865418088
 30
0.0
 10
804.3121246398592
 20
505.9514167256734
 30
0.0
 10
804.3440347563113
 20
505.9510008174743
 30
0.0
 10
804.3978824165372
 20
505.9506416097034
 30
0.0
 10
804.4571358382667
 20
505.9504322581105
 30
0.0
 10
804.5228633095468
 20
505.9503112016759
 30
0.0
 10
804.5801459600926
 20
505.9502511326564
 30
0.0
 10
804.6191830488161
 20
505.9502384806354
 30
0.0
 10
804.63197391503
 20
505.9502343350828
 30
0.0
  0
SPLINE
  5
CB
330
1F
100
AcDbEntity
  8
0
  6
Continuous
 62
     7
370
    30
100
AcDbSpline
210
0.0
220
0.0
230
1.0
 70
     8
 71
     3
 72
    36
 73
    32
 74
     0
 42
0.000000001
 43
0.00000001
 40
0.0
 40
0.0
 40
0.0
 40
0.0
 40
0.0555886531856984
 40
0.1033040721888736
 40
0.1432426500335919
 40
0.1682013360360606
 40
0.1890246841962689
 40
0.205960986703538
 40
0.2194847491413681
 40
0.2305327807411489
 40
0.2424797788297382
 40
0.2585218851063528
 40
0.274287879676219
 40
0.2928355813927453
 40
0.3181183823333427
 40
0.3438115579481085
 40
0.3692902450949855
 40
0.4020576958553383
 40
0.4344640644615647
 40
0.4665095203933349
 40
0.4998847232511732
 40
0.5394935716937331
 40
0.5856460125786196
 40
0.6245593402314571
 40
0.6671530633042421
 40
0.7134265315564678
 40
0.7633795600093409
 40
0.817012814244802
 40
0.8743277574147121
 40
0.9353251261514604
 40
1.0
 40
1.0
 40
1.0
 40
1.0
 10
804.9511034063394
 20
518.4488192455098
 30
0.0
 10
804.944441901875
 20
518.4484563904003
 30
0.0
 10
804.9320623873768
 20
518.4477820727428
 30
0.0
 10
804.9115602705557
 20
518.4460923020848
 30
0.0
 10
804.8923086328065
 20
518.4440748990406
 30
0.0
 10
804.8742946911516
 20
518.4417979048994
 30
0.0
 10
804.8582718223566
 20
518.4394981020828
 30
0.0
 10
804.8418368150518
 20
518.436859157607
 30
0.0
 10
804.8248506475379
 20
518.4338528450725
 30
0.0
 10
804.8053100526408
 20
518.4300528950025
 30
0.0
 10
804.7822285565198
 20
518.4251220925945
 30
0.0
 10
804.7571363108954
 20
518.4190824394391
 30
0.0
 10
804.7282450754508
 20
518.4112687327207
 30
0.0
 10
804.6944188134078
 20
518.4009936687082
 30
0.0
 10
804.6554256785181
 20
518.3874666352725
 30
0.0
 10
804.6132730767054
 20
518.370659618163
 30
0.0
 10
804.5678817667829
 20
518.3501160315864
 30
0.0
 10
804.5200647343296
 20
518.3254091749437
 30
0.0
 10
804.470408899921
 20
518.2959824331394
 30
0.0
 10
804.4222226993901
 20
518.2635546527088
 30
0.0
 10
804.3725995099219
 20
518.2257861085423
 30
0.0
 10
804.3191956274973
 20
518.1793713565503
 30
0.0
 10
804.2671535306621
 20
518.1266602962098
 30
0.0
 10
804.2181173286732
 20
518.0688370524186
 30
0.0
 10
804.1733462456627
 20
518.0075412723669
 30
0.0
 10
804.1301100526522
 20
517.937302087848
 30
0.0
 10
804.0901006541628
 20
517.8577435797225
 30
0.0
 10
804.0551416476161
 20
517.7687061239012
 30
0.0
 10
804.0275686701661
 20
517.670313672064
 30
0.0
 10
804.0085374877514
 20
517.5630509437051
 30
0.0
 10
804.0060710937149
 20
517.4884199485795
 30
0.0
 10
804.0048018100618
 20
517.4500125
 30
0.0
  0
LINE
  5
CC
330
1F
100
AcDbEntity
  8
0
  6
Continuous
 62
     7
370
    30
100
AcDbLine
 10
836.0
 20
506.2500125
 30
0.0
 11
836.0
 21
517.4512664949
 31
0.0
  0
LINE
  5
CD
330
1F
100
AcDbEntity
  8
0
  6
Continuous
 62
     7
370
    30
100
AcDbLine
 10
804.0
 20
517.4500125
 30
0.0
 11
804.0
 21
506.2487585051
 31
0.0
  0
LINE
  5
CE
330
1F
100
AcDbEntity
  8
0
  6
Continuous
 62
     7
370
    30
100
AcDbLine
 10
835.8001658296
 20
499.7500125
 30
0.0
 11
835.8001658296
 21
505.0500125
 31
0.0
  0
LINE
  5
CF
330
1F
100
AcDbEntity
  8
0
  6
Continuous
 62
     7
370
    30
100
AcDbLine
 10
804.1998341704
 20
505.0500125
 30
0.0
 11
804.1998341704
 21
499.7500125
 31
0.0
  0
ARC
  5
D0
330
1F
100
AcDbEntity
  8
0
  6
Continuous
 62
     7
370
    30
100
AcDbCircle
 10
820.0
 20
512.2500125
 30
0.0
 40
12.40000000001775
100
AcDbArc
 50
133.9116550007
 51
149.9949354544
  0
LINE
  5
D1
330
1F
100
AcDbEntity
  8
0
  6
Continuous
 62
     7
370
    30
100
AcDbLine
 10
831.4
 20
525.9953597575
 30
0.0
 11
831.4
 21
539.5953597574
 31
0.0
  0
LINE
  5
D2
330
1F
100
AcDbEntity
  8
0
  6
Continuous
 62
     7
370
    30
100
AcDbLine
 10
808.6
 20
539.5953597574
 30
0.0
 11
808.6
 21
525.9953597575
 31
0.0
  0
ARC
  5
D3
330
1F
100
AcDbEntity
  8
0
  6
Continuous
 62
     7
370
    30
100
AcDbCircle
 10
820.0
 20
512.2500125
 30
0.0
 40
12.4000000000001
100
AcDbArc
 50
210.538685443
 51
215.4993733592
  0
LINE
  5
D4
330
1F
100
AcDbEntity
  8
0
  6
Continuous
 62
     7
370
    30
100
AcDbLine
 10
808.6
 20
525.9953597575
 30
0.0
 11
811.4
 21
524.0347786505
 31
0.0
  0
LINE
  5
D5
330
1F
100
AcDbEntity
  8
0
  6
Continuous
 62
     7
370
    30
100
AcDbLine
 10
828.6
 20
524.0347786505
 30
0.0
 11
831.4
 21
525.9953597575
 31
0.0
  0
LINE
  5
D6
330
1F
100
AcDbEntity
  8
0
  6
Continuous
 62
     7
370
    30
100
AcDbLine
 10
828.6
 20
521.1830970737
 30
0.0
 11
828.6
 21
524.0347786505
 31
0.0
  0
LINE
  5
D7
330
1F
100
AcDbEntity
  8
0
  6
Continuous
 62
     7
370
    30
100
AcDbLine
 10
811.4
 20
524.0347786505
 30
0.0
 11
811.4
 21
521.1830970737
 31
0.0
  0
SPLINE
  5
D8
330
1F
100
AcDbEntity
  8
0
  6
Continuous
 62
     7
370
    30
100
AcDbSpline
210
0.0
220
0.0
230
1.0
 70
     8
 71
     3
 72
    13
 73
     9
 74
     0
 42
0.000000001
 43
0.00000001
 40
0.0
 40
0.0
 40
0.0
 40
0.0
 40
0.1326301193201462
 40
0.3277800968583277
 40
0.5120806080251942
 40
0.6855295916124984
 40
0.8481252380424606
 40
1.0
 40
1.0
 40
1.0
 40
1.0
 10
804.8315252646591
 20
505.9501542850405
 30
0.0
 10
804.8455500401108
 20
505.9501586373847
 30
0.0
 10
804.8802106607862
 20
505.9501693937029
 30
0.0
 10
804.9386004713701
 20
505.9501845260942
 30
0.0
 10
805.0044253335353
 20
505.9501986721813
 30
0.0
 10
805.0695197460377
 20
505.9502088261955
 30
0.0
 10
805.1329619306014
 20
505.9502151706449
 30
0.0
 10
805.1758480927786
 20
505.9502156815565
 30
0.0
 10
805.1965601391212
 20
505.9502159283032
 30
0.0
  0
SPLINE
  5
D9
330
1F
100
AcDbEntity
  8
0
  6
Continuous
 62
     7
370
    30
100
AcDbSpline
210
0.0
220
0.0
230
1.0
 70
     8
 71
     3
 72
    27
 73
    23
 74
     0
 42
0.000000001
 43
0.00000001
 40
0.0
 40
0.0
 40
0.0
 40
0.0
 40
0.0327630725188568
 40
0.0678192528112427
 40
0.1051685226300858
 40
0.1448108597221387
 40
0.1867462376048963
 40
0.2309746255218982
 40
0.2773919934140701
 40
0.3260923039188307
 40
0.377075516448365
 40
0.4303415894036655
 40
0.4858904823441625
 40
0.5426694611802975
 40
0.6016504000856853
 40
0.662833284230663
 40
0.7262181161296875
 40
0.7846726554601239
 40
0.8448826545040209
 40
0.906848179032095
 40
0.9705693250701192
 40
1.0
 40
1.0
 40
1.0
 40
1.0
 10
834.1701645073778
 20
505.9502159283043
 30
0.0
 10
834.1937107257321
 20
505.9502159283059
 30
0.0
 10
834.2424511768725
 20
505.9502159283095
 30
0.0
 10
834.3158574449324
 20
505.9502159283218
 30
0.0
 10
834.3922183460921
 20
505.9502159283393
 30
0.0
 10
834.470983826458
 20
505.9502159283628
 30
0.0
 10
834.5517865163171
 20
505.950215928392
 30
0.0
 10
834.6341053806188
 20
505.9502159284267
 30
0.0
 10
834.7174763528161
 20
505.950215928467
 30
0.0
 10
834.8014039687785
 20
505.9502159285132
 30
0.0
 10
834.8854210095867
 20
505.9502159285649
 30
0.0
 10
834.968974940184
 20
505.9502159286223
 30
0.0
 10
835.0509633834597
 20
505.9502159286851
 30
0.0
 10
835.1308457041681
 20
505.950215928753
 30
0.0
 10
835.2080740408165
 20
505.950215928826
 30
0.0
 10
835.2824669499296
 20
505.9502159289044
 30
0.0
 10
835.3507148631514
 20
505.9502159289854
 30
0.0
 10
835.4127697388204
 20
505.9502159290681
 30
0.0
 10
835.4688016801437
 20
505.950215929152
 30
0.0
 10
835.5201146035686
 20
505.9502159292405
 30
0.0
 10
835.5589183000354
 20
505.9502159293154
 30
0.0
 10
835.5780399890449
 20
505.9502159293616
 30
0.0
 10
835.5840813547154
 20
505.9502159293762
 30
0.0
  0
SPLINE
  5
DA
330
1F
100
AcDbEntity
  8
0
  6
Continuous
 62
     7
370
    30
100
AcDbSpline
210
0.0
220
0.0
230
1.0
 70
     8
 71
     3
 72
     9
 73
     5
 74
     0
 42
0.000000001
 43
0.00000001
 40
0.0
 40
0.0
 40
0.0
 40
0.0
 40
0.6316358515735202
 40
1.0
 40
1.0
 40
1.0
 40
1.0
 10
835.7109543356705
 20
505.9502159283032
 30
0.0
 10
835.7153301624684
 20
505.9504457768632
 30
0.0
 10
835.7222579307179
 20
505.9508096709636
 30
0.0
 10
835.7216413607847
 20
505.9517566847911
 30
0.0
 10
835.7214142385263
 20
505.9521055307332
 30
0.0
  0
SPLINE
  5
DB
330
1F
100
AcDbEntity
  8
0
  6
Continuous
 62
     7
370
    30
100
AcDbSpline
210
0.0
220
0.0
230
1.0
 70
     8
 71
     3
 72
    19
 73
    15
 74
     0
 42
0.000000001
 43
0.00000001
 40
0.0
 40
0.0
 40
0.0
 40
0.0
 40
0.0978213456893595
 40
0.1834782822261153
 40
0.2569091066015369
 40
0.3533104664177014
 40
0.4470774618848706
 40
0.5083429706251219
 40
0.5740331898268926
 40
0.6557492449802315
 40
0.7278846383819475
 40
0.8093417540147008
 40
0.900097958871725
 40
1.0
 40
1.0
 40
1.0
 40
1.0
 10
835.7210610679093
 20
505.9511385691486
 30
0.0
 10
835.7354755219462
 20
505.9530054589234
 30
0.0
 10
835.7625119447974
 20
505.9565070845303
 30
0.0
 10
835.7990389436816
 20
505.9679256825243
 30
0.0
 10
835.8338210371168
 20
505.9830816581214
 30
0.0
 10
835.8675035703511
 20
506.0032214144721
 30
0.0
 10
835.8966020637321
 20
506.0267447143684
 30
0.0
 10
835.9195436473216
 20
506.0501611658227
 30
0.0
 10
835.9390524578165
 20
506.0742551681641
 30
0.0
 10
835.9566905664284
 20
506.101728929166
 30
0.0
 10
835.9721336913822
 20
506.1331119114482
 30
0.0
 10
835.9842949781774
 20
506.1673259064847
 30
0.0
 10
835.9933291989312
 20
506.2068674166831
 30
0.0
 10
835.9945555831091
 20
506.2351781193941
 30
0.0
 10
835.9951981898946
 20
506.2500125
 30
0.0
  0
SPLINE
  5
DC
330
1F
100
AcDbEntity
  8
0
  6
Continuous
 62
     7
370
    30
100
AcDbSpline
210
0.0
220
0.0
230
1.0
 70
     8
 71
     3
 72
     9
 73
     5
 74
     0
 42
0.000000001
 43
0.00000001
 40
0.0
 40
0.0
 40
0.0
 40
0.0
 40
0.3953568943257441
 40
0.9999999999999999
 40
0.9999999999999999
 40
0.9999999999999999
 40
0.9999999999999999
 10
835.1061617814486
 20
518.4441807785097
 30
0.0
 10
835.0979492960354
 20
518.4450627533773
 30
0.0
 10
835.0771769621492
 20
518.44729358552
 30
0.0
 10
835.0595528759031
 20
518.4482443639108
 30
0.0
 10
835.0488965936606
 20
518.4488192455096
 30
0.0
  0
LINE
  5
DD
330
1F
100
AcDbEntity
  8
0
  6
Continuous
 62
     7
370
    30
100
AcDbLine
 10
833.0
 20
545.4500125
 30
0.0
 11
807.0
 21
545.4500125
 31
0.0
  0
LINE
  5
DE
330
1F
100
AcDbEntity
  8
0
  6
Continuous
 62
     7
370
    30
100
AcDbLine
 10
826.1302854954
 20
539.5953597574
 30
0.0
 11
826.1302854954
 21
544.4500125
 31
0.0
  0
LINE
  5
DF
330
1F
100
AcDbEntity
  8
0
  6
Continuous
 62
     7
370
    30
100
AcDbLine
 10
826.1302854954
 20
544.4500125
 30
0.0
 11
813.8697145462
 21
544.4500125
 31
0.0
  0
LINE
  5
E0
330
1F
100
AcDbEntity
  8
0
  6
Continuous
 62
     7
370
    30
100
AcDbLine
 10
813.8697145462
 20
544.4500125
 30
0.0
 11
813.8697145462
 21
539.5953597574
 31
0.0
  0
LINE
  5
E1
330
1F
100
AcDbEntity
  8
0
  6
Continuous
 62
     7
370
    30
100
AcDbLine
 10
782.5
 20
675.9500125
 30
0.0
 11
782.692310347
 21
664.9325600985
 31
0.0
  0
SPLINE
  5
E2
330
1F
100
AcDbEntity
  8
0
  6
Continuous
 62
     7
370
    30
100
AcDbSpline
210
0.0
220
0.0
230
1.0
 70
    24
 71
     3
 72
    27
 73
    23
 74
     0
 42
0.000000001
 43
0.00000001
 40
0.0
 40
0.0
 40
0.0
 40
0.0
 40
0.0522890455048857
 40
0.1045702547079488
 40
0.1568331382954869
 40
0.2090964522751092
 40
0.2613600126645071
 40
0.3136234181542554
 40
0.3629014882660958
 40
0.4121792990734585
 40
0.4614572903088242
 40
0.5107356660054828
 40
0.5600142628766661
 40
0.6092927452021898
 40
0.6585708610380459
 40
0.7078486824690425
 40
0.7571266367994003
 40
0.80640497852076
 40
0.854804031909514
 40
0.9032030214717538
 40
0.951601676247036
 40
1.0
 40
1.0
 40
1.0
 40
1.0
 10
784.4996953903
 20
675.9500125
 30
0.0
 10
784.4449448327424
 20
675.9500125
 30
0.0
 10
784.3354519228238
 20
675.9500125
 30
0.0
 10
784.172341859121
 20
675.9500125
 30
0.0
 10
784.0114642433505
 20
675.9500125
 30
0.0
 10
783.853892478897
 20
675.9500125
 30
0.0
 10
783.7006701909024
 20
675.9500125
 30
0.0
 10
783.5556423921065
 20
675.9500125
 30
0.0
 10
783.4193971756007
 20
675.9500125
 30
0.0
 10
783.2923169035985
 20
675.9500125
 30
0.0
 10
783.1724682894381
 20
675.9500125
 30
0.0
 10
783.0605685193289
 20
675.9500125
 30
0.0
 10
782.9572879359662
 20
675.9500125
 30
0.0
 10
782.8632455881395
 20
675.9500125
 30
0.0
 10
782.7790048725668
 20
675.9500125
 30
0.0
 10
782.7050717723055
 20
675.9500125
 30
0.0
 10
782.6418825830655
 20
675.9500125
 30
0.0
 10
782.5901455886685
 20
675.9500125
 30
0.0
 10
782.5498588073017
 20
675.9500125
 30
0.0
 10
782.5212988864189
 20
675.9500125
 30
0.0
 10
782.5033369968388
 20
675.9500125
 30
0.0
 10
782.5011123297436
 20
675.9500125
 30
0.0
 10
782.5
 20
675.9500125
 30
0.0
  0
LINE
  5
E3
330
1F
100
AcDbEntity
  8
0
  6
Continuous
 62
     7
370
    30
100
AcDbLine
 10
784.4996953903
 20
675.9500125
 30
0.0
 11
855.5003046097
 21
675.9500125
 31
0.0
  0
SPLINE
  5
E4
330
1F
100
AcDbEntity
  8
0
  6
Continuous
 62
     7
370
    30
100
AcDbSpline
210
0.0
220
0.0
230
1.0
 70
    24
 71
     3
 72
    27
 73
    23
 74
     0
 42
0.000000001
 43
0.00000001
 40
0.0
 40
0.0
 40
0.0
 40
0.0
 40
0.0522890455056278
 40
0.1045702547096276
 40
0.1568331382981628
 40
0.2090964522786919
 40
0.2613600126687537
 40
0.3136234181587449
 40
0.3629014882704092
 40
0.4121792990773619
 40
0.4614572903121585
 40
0.5107356660079776
 40
0.5600142628781314
 40
0.609292745202638
 40
0.658570861037654
 40
0.7078486824679902
 40
0.7571266367978283
 40
0.8064049785189602
 40
0.8548040319078521
 40
0.9032030214705099
 40
0.951601676246398
 40
1.0
 40
1.0
 40
1.0
 40
1.0
 10
857.4999999999999
 20
675.9500125
 30
0.0
 10
857.498700432461
 20
675.9500125
 30
0.0
 10
857.496101492143
 20
675.9500125
 30
0.0
 10
857.475149048609
 20
675.9500125
 30
0.0
 10
857.4418574225651
 20
675.9500125
 30
0.0
 10
857.3952334955577
 20
675.9500125
 30
0.0
 10
857.335914690796
 20
675.9500125
 30
0.0
 10
857.2655760655413
 20
675.9500125
 30
0.0
 10
857.1855080842902
 20
675.9500125
 30
0.0
 10
857.0969292605807
 20
675.9500125
 30
0.0
 10
856.9987876293287
 20
675.9500125
 30
0.0
 10
856.8916698066076
 20
675.9500125
 30
0.0
 10
856.776218305648
 20
675.9500125
 30
0.0
 10
856.6531253723383
 20
675.9500125
 30
0.0
 10
856.5231286951202
 20
675.9500125
 30
0.0
 10
856.387006725458
 20
675.9500125
 30
0.0
 10
856.2455747162951
 20
675.9500125
 30
0.0
 10
856.1005465601537
 20
675.9500125
 30
0.0
 10
855.9528738609959
 20
675.9500125
 30
0.0
 10
855.8034763570088
 20
675.9500125
 30
0.0
 10
855.6523290619705
 20
675.9500125
 30
0.0
 10
855.550979311593
 20
675.9500125
 30
0.0
 10
855.5003046096999
 20
675.9500125
 30
0.0
  0
LINE
  5
E5
330
1F
100
AcDbEntity
  8
0
  6
Continuous
 62
     7
370
    30
100
AcDbLine
 10
857.5
 20
675.9500125
 30
0.0
 11
857.3076896529
 21
664.9325600936
 31
0.0
  0
LINE
  5
E6
330
1F
100
AcDbEntity
  8
0
  6
Continuous
 62
     7
370
    30
100
AcDbLine
 10
855.3079945466
 20
663.9500125
 30
0.0
 11
784.6920057374
 21
663.9500125
 31
0.0
  0
SPLINE
  5
E7
330
1F
100
AcDbEntity
  8
0
  6
Continuous
 62
     7
370
    30
100
AcDbSpline
210
0.0
220
0.0
230
1.0
 70
    24
 71
     3
 72
    21
 73
    17
 74
     0
 42
0.000000001
 43
0.00000001
 40
0.0
 40
0.0
 40
0.0
 40
0.0
 40
0.0700073730266491
 40
0.1400178261448119
 40
0.2100266738175264
 40
0.2800287541741194
 40
0.3500235624502727
 40
0.4200138172878227
 40
0.4900037079387989
 40
0.5599974477897591
 40
0.6333277487396803
 40
0.7066646937627333
 40
0.7800024080820047
 40
0.8533366782965784
 40
0.9266681575922515
 40
0.9999999999999999
 40
0.9999999999999999
 40
0.9999999999999999
 40
0.9999999999999999
 10
784.6920057374
 20
663.9500125
 30
0.0
 10
784.6553558742954
 20
663.9500125
 30
0.0
 10
784.5820545356145
 20
663.9500125
 30
0.0
 10
784.4734301917798
 20
663.9500125
 30
0.0
 10
784.3674482822687
 20
663.9500125
 30
0.0
 10
784.2653939522788
 20
663.9500125
 30
0.0
 10
784.168500446607
 20
663.9500125
 30
0.0
 10
784.0779343110414
 20
663.9500125
 30
0.0
 10
783.994783278419
 20
663.9500125
 30
0.0
 10
783.9188660404938
 20
663.9500125
 30
0.0
 10
783.8515967165235
 20
663.9500125
 30
0.0
 10
783.7944510755398
 20
663.9500125
 30
0.0
 10
783.7491350508709
 20
663.9500125
 30
0.0
 10
783.7165740855775
 20
663.9500125
 30
0.0
 10
783.6959911849902
 20
663.9500125
 30
0.0
 10
783.6934357577722
 20
663.9500125
 30
0.0
 10
783.6921580409999
 20
663.9500125
 30
0.0
  0
LINE
  5
E8
330
1F
100
AcDbEntity
  8
0
  6
Continuous
 62
     7
370
    30
100
AcDbLine
 10
783.6921580423
 20
663.9500125
 30
0.0
 11
783.5999478296
 21
663.9544920844
 31
0.0
  0
SPLINE
  5
E9
330
1F
100
AcDbEntity
  8
0
  6
Continuous
 62
     7
370
    30
100
AcDbSpline
210
0.0
220
0.0
230
1.0
 70
     8
 71
     3
 72
    22
 73
    18
 74
     0
 42
0.000000001
 43
0.00000001
 40
0.0
 40
0.0
 40
0.0
 40
0.0
 40
0.0165629858376167
 40
0.0868084868492118
 40
0.1570539878608136
 40
0.2272994888724118
 40
0.297544989884012
 40
0.3677904908956112
 40
0.4380359919072075
 40
0.5082814929188089
 40
0.5785269939304061
 40
0.6487724949420056
 40
0.7190179959536036
 40
0.7892634969652031
 40
0.8595089979768022
 40
0.9297544989884011
 40
0.9999999999999999
 40
0.9999999999999999
 40
0.9999999999999999
 40
0.9999999999999999
 10
783.5218478779753
 20
663.9654834636304
 30
0.0
 10
783.5142904244607
 20
663.9665287135922
 30
0.0
 10
783.4746809536515
 20
663.9720069871619
 30
0.0
 10
783.4046299615004
 20
663.9910983752244
 30
0.0
 10
783.3128940730643
 20
664.0228891423056
 30
0.0
 10
783.2248502850409
 20
664.0641770359014
 30
0.0
 10
783.1411753383429
 20
664.1136024946471
 30
0.0
 10
783.06269810108
 20
664.1709601373038
 30
0.0
 10
782.9901468027484
 20
664.235640083027
 30
0.0
 10
782.9242073391476
 20
664.3070518521522
 30
0.0
 10
782.8655011190993
 20
664.3845179132802
 30
0.0
 10
782.8145768231423
 20
664.4673099631516
 30
0.0
 10
782.7719304854857
 20
664.5546482038819
 30
0.0
 10
782.7379022138919
 20
664.645709115437
 30
0.0
 10
782.7130421712975
 20
664.739639079604
 30
0.0
 10
782.6967272640844
 20
664.835538518253
 30
0.0
 10
782.6937826526993
 20
664.9002195736864
 30
0.0
 10
782.6923103470067
 20
664.9325601014032
 30
0.0
  0
SPLINE
  5
EA
330
1F
100
AcDbEntity
  8
0
  6
Continuous
 62
     7
370
    30
100
AcDbSpline
210
0.0
220
0.0
230
1.0
 70
    24
 71
     3
 72
    21
 73
    17
 74
     0
 42
0.000000001
 43
0.00000001
 40
0.0
 40
0.0
 40
0.0
 40
0.0
 40
0.0700073730251717
 40
0.1400178261429288
 40
0.210026673815742
 40
0.2800287541724902
 40
0.3500235624488574
 40
0.4200138172866985
 40
0.4900037079379809
 40
0.559997447789257
 40
0.6333277487395009
 40
0.7066646937628365
 40
0.7800024080823212
 40
0.8533366782969308
 40
0.9266681575924545
 40
1.0
 40
1.0
 40
1.0
 40
1.0
 10
856.3078419871
 20
663.9500125
 30
0.0
 10
856.3066777262411
 20
663.9500125
 30
0.0
 10
856.3043491533
 20
663.9500125
 30
0.0
 10
856.2855862574257
 20
663.9500125
 30
0.0
 10
856.2558819895855
 20
663.9500125
 30
0.0
 10
856.2144981801409
 20
663.9500125
 30
0.0
 10
856.1622318298557
 20
663.9500125
 30
0.0
 10
856.0996358562701
 20
663.9500125
 30
0.0
 10
856.0274840702181
 20
663.9500125
 30
0.0
 10
855.9453582677505
 20
663.9500125
 30
0.0
 10
855.8537879382295
 20
663.9500125
 30
0.0
 10
855.753570757935
 20
663.9500125
 30
0.0
 10
855.6474447139146
 20
663.9500125
 30
0.0
 10
855.5368224013563
 20
663.9500125
 30
0.0
 10
855.4231707953821
 20
663.9500125
 30
0.0
 10
855.3463866928952
 20
663.9500125
 30
0.0
 10
855.3079945466
 20
663.9500125
 30
0.0
  0
LINE
  5
EB
330
1F
100
AcDbEntity
  8
0
  6
Continuous
 62
     7
370
    30
100
AcDbLine
 10
856.3078419577
 20
663.9500125
 30
0.0
 11
856.40005217
 21
663.9544920843
 31
0.0
  0
SPLINE
  5
EC
330
1F
100
AcDbEntity
  8
0
  6
Continuous
 62
     7
370
    30
100
AcDbSpline
210
0.0
220
0.0
230
1.0
 70
     8
 71
     3
 72
    22
 73
    18
 74
     0
 42
0.000000001
 43
0.00000001
 40
0.0
 40
0.0
 40
0.0
 40
0.0
 40
0.0165629857058821
 40
0.0868084867268949
 40
0.1570539877479006
 40
0.2272994887689107
 40
0.297544989789919
 40
0.3677904908109218
 40
0.4380359918319317
 40
0.5082814928529407
 40
0.578526993873951
 40
0.6487724948949584
 40
0.719017995915966
 40
0.789263496936976
 40
0.8595089979579832
 40
0.9297544989789919
 40
1.0
 40
1.0
 40
1.0
 40
1.0
 10
856.4781521213573
 20
663.9654834635016
 30
0.0
 10
856.4857095747735
 20
663.9665287134446
 30
0.0
 10
856.525319045325
 20
663.9720069869528
 30
0.0
 10
856.595370037085
 20
663.9910983748134
 30
0.0
 10
856.6871059251115
 20
664.0228891415776
 30
0.0
 10
856.7751497127801
 20
664.0641770347697
 30
0.0
 10
856.858824659188
 20
664.1136024930398
 30
0.0
 10
856.9373018962365
 20
664.1709601351561
 30
0.0
 10
857.0098531944386
 20
664.2356400802852
 30
0.0
 10
857.0757926580031
 20
664.3070518487742
 30
0.0
 10
857.1344988781152
 20
664.3845179092368
 30
0.0
 10
857.1854231742407
 20
664.467309958427
 30
0.0
 10
857.2280695121739
 20
664.5546481984748
 30
0.0
 10
857.2620977841533
 20
664.6457091093603
 30
0.0
 10
857.2869578272441
 20
664.7396390728876
 30
0.0
 10
857.3032727350536
 20
664.835538510935
 30
0.0
 10
857.3062173469222
 20
664.9002195660189
 30
0.0
 10
857.3076896528563
 20
664.9325600935607
 30
0.0
  0
LINE
  5
ED
330
1F
100
AcDbEntity
  8
0
  6
Continuous
 62
     7
370
    30
100
AcDbLine
 10
783.645643285
 20
663.9522721931
 30
0.0
 11
783.6436698443
 21
663.9523680631
 31
0.0
  0
LINE
  5
EE
330
1F
100
AcDbEntity
  8
0
  6
Continuous
 62
     7
370
    30
100
AcDbLine
 10
818.1364631128
 20
505.9511385717
 30
0.0
 11
818.1992433726
 21
505.9502926157
 31
0.0
  0
LINE
  5
EF
330
1F
100
AcDbEntity
  8
0
  6
Continuous
 62
     7
370
    30
100
AcDbLine
 10
813.9649226346
 20
505.9511385717
 30
0.0
 11
814.0821136307
 21
505.9500371622
 31
0.0
  0
LINE
  5
F0
330
1F
100
AcDbEntity
  8
0
  6
Continuous
 62
     7
370
    30
100
AcDbLine
 10
820.0
 20
489.7500125
 30
0.0
 11
697.0
 21
489.7500125
 31
0.0
  0
LINE
  5
F1
330
1F
100
AcDbEntity
  8
0
  6
Continuous
 62
     7
370
    30
100
AcDbLine
 10
943.0
 20
489.7500125
 30
0.0
 11
820.0
 21
489.7500125
 31
0.0
  0
LINE
  5
F2
330
1F
100
AcDbEntity
  8
0
  6
Continuous
 62
     7
370
    30
100
AcDbLine
 10
820.0
 20
499.7500125
 30
0.0
 11
695.0
 21
499.7500125
 31
0.0
  0
LINE
  5
F3
330
1F
100
AcDbEntity
  8
0
  6
Continuous
 62
     7
370
    30
100
AcDbLine
 10
945.0
 20
499.7500125
 30
0.0
 11
820.0
 21
499.7500125
 31
0.0
  0
LINE
  5
F4
330
1F
100
AcDbEntity
  8
0
  6
Continuous
 62
     7
370
    30
100
AcDbLine
 10
804.0
 20
506.2500125
 30
0.0
 11
804.0053910912
 21
506.2500125
 31
0.0
  0
SPLINE
  5
F5
330
1F
100
AcDbEntity
  8
0
  6
Continuous
 62
     7
370
    30
100
AcDbSpline
210
0.0
220
0.0
230
1.0
 70
    24
 71
     3
 72
    10
 73
     6
 74
     0
 42
0.000000001
 43
0.00000001
 40
0.0
 40
0.0
 40
0.0
 40
0.0
 40
0.097084290529097
 40
0.8830107835435256
 40
1.0
 40
1.0
 40
1.0
 40
1.0
 10
804.8425165648821
 20
505.9500125627069
 30
0.0
 10
804.834679718907
 20
505.9500125627069
 30
0.0
 10
804.7634012508125
 20
505.9500125627069
 30
0.0
 10
804.6952183439968
 20
505.950012562707
 30
0.0
 10
804.6464854388097
 20
505.9500125627068
 30
0.0
 10
804.6401712011309
 20
505.9500125627068
 30
0.0
  0
SPLINE
  5
F6
330
1F
100
AcDbEntity
  8
0
  6
Continuous
 62
     7
370
    30
100
AcDbSpline
210
0.0
220
0.0
230
1.0
 70
    24
 71
     3
 72
   111
 73
   107
 74
     0
 42
0.000000001
 43
0.00000001
 40
0.0
 40
0.0
 40
0.0
 40
0.0
 40
0.0100165030866661
 40
0.0200127037729274
 40
0.0299984678239185
 40
0.0399836919401495
 40
0.049978274426071
 40
0.0599920858349033
 40
0.0700126723502878
 40
0.0791789135461494
 40
0.088334300940404
 40
0.0974864466806473
 40
0.1066429709991891
 40
0.1158114832108324
 40
0.1249995628462988
 40
0.1350156507586121
 40
0.1450116733136184
 40
0.1549974868001392
 40
0.1649829777379624
 40
0.1749780336040142
 40
0.184992513544382
 40
0.1950147529925347
 40
0.2041822029953937
 40
0.2133381755355704
 40
0.2224902897848232
 40
0.2316461745470754
 40
0.2408134492130413
 40
0.2499997048319669
 40
0.2600138992770855
 40
0.2700086371482994
 40
0.2799937907506348
 40
0.2899792608161104
 40
0.2999749471363741
 40
0.3099907192092611
 40
0.3200122888324557
 40
0.3291789471299081
 40
0.3383347245598993
 40
0.3474872305149903
 40
0.3566440825435845
 40
0.3658128873617887
 40
0.3750012219998084
 40
0.3850176112512995
 40
0.3950138441701958
 40
0.4049997750895889
 40
0.4149852888426003
 40
0.424980271500059
 40
0.4349945810898833
 40
0.4450166195972494
 40
0.4541838701213266
 40
0.4633396159390313
 40
0.4724914761060297
 40
0.4816470793786067
 40
0.4908140451680055
 40
0.4999999646110361
 40
0.5100138179528212
 40
0.5200082242239591
 40
0.5299930559089664
 40
0.539978213892037
 40
0.549973598087726
 40
0.5599890780859865
 40
0.5700104336634831
 40
0.5791769346758475
 40
0.588332573655453
 40
0.5974849600840284
 40
0.6066417115521515
 40
0.6158104347706744
 40
0.6249987067172754
 40
0.6350151652160406
 40
0.6450114899222323
 40
0.6549975352288377
 40
0.6649831859617327
 40
0.6749783281174488
 40
0.6849928195836394
 40
0.695015123095001
 40
0.7041826454519732
 40
0.713338671582186
 40
0.722490820461264
 40
0.731646720744065
 40
0.7408139917201242
 40
0.7500002243856146
 40
0.7600144428978148
 40
0.7700091819212888
 40
0.7799943138385339
 40
0.7899797395271267
 40
0.799975358991683
 40
0.8099910420087422
 40
0.8200125985838679
 40
0.8291792148312732
 40
0.8383348877778383
 40
0.8474872278507696
 40
0.8566438537875194
 40
0.865812373641312
 40
0.8750003659193927
 40
0.8850165446583362
 40
0.8950125449846204
 40
0.9049982245589833
 40
0.9149834716088461
 40
0.9249781756453801
 40
0.9349921981615917
 40
0.9450150582391442
 40
0.9541831768726516
 40
0.9633395455963686
 40
0.9724917863217866
 40
0.9816475312697454
 40
0.9908144039083768
 40
1.0
 40
1.0
 40
1.0
 40
1.0
 10
834.9999346179
 20
518.4500125
 30
0.0
 10
834.9980629130822
 20
518.4500125
 30
0.0
 10
834.9943232971962
 20
518.4500125
 30
0.0
 10
834.9700216116973
 20
518.4500125
 30
0.0
 10
834.9320260197171
 20
518.4500125
 30
0.0
 10
834.8790022917125
 20
518.4500125
 30
0.0
 10
834.8113091333263
 20
518.4500125
 30
0.0
 10
834.7289068415033
 20
518.4500125
 30
0.0
 10
834.6347592243674
 20
518.4500125
 30
0.0
 10
834.5303541064326
 20
518.4500125
 30
0.0
 10
834.4171106216013
 20
518.4500125
 30
0.0
 10
834.2919513733826
 20
518.4500125
 30
0.0
 10
834.1548765179923
 20
518.4500125
 30
0.0
 10
834.0058851623737
 20
518.4500125
 30
0.0
 10
833.8403089832897
 20
518.4500125
 30
0.0
 10
833.6572805270962
 20
518.4500125
 30
0.0
 10
833.4558054382115
 20
518.4500124999998
 30
0.0
 10
833.2412655992956
 20
518.4500125
 30
0.0
 10
833.0136601628363
 20
518.4500125
 30
0.0
 10
832.772991229313
 20
518.4500125
 30
0.0
 10
832.5194367901491
 20
518.4500125
 30
0.0
 10
832.2609539553598
 20
518.4500125
 30
0.0
 10
831.9991584080445
 20
518.4500125
 30
0.0
 10
831.7354525601477
 20
518.4500125
 30
0.0
 10
831.4621203014766
 20
518.4500125
 30
0.0
 10
831.1791619905439
 20
518.4500125
 30
0.0
 10
830.8865771344095
 20
518.4500125
 30
0.0
 10
830.5755854175911
 20
518.4500125
 30
0.0
 10
830.2458610992007
 20
518.4500125
 30
0.0
 10
829.8970180243113
 20
518.4500125
 30
0.0
 10
829.5387409222467
 20
518.4500125
 30
0.0
 10
829.1710299312396
 20
518.4500125
 30
0.0
 10
828.7938870039999
 20
518.4500125
 30
0.0
 10
828.4076208592691
 20
518.4500125
 30
0.0
 10
828.0240148708496
 20
518.4500125
 30
0.0
 10
827.6445757022025
 20
518.4500125
 30
0.0
 10
827.2704366544763
 20
518.4500125
 30
0.0
 10
826.8904030839401
 20
518.4500125000001
 30
0.0
 10
826.5044754655901
 20
518.4500125
 30
0.0
 10
826.1126538122401
 20
518.4500125
 30
0.0
 10
825.7033888815373
 20
518.4500125
 30
0.0
 10
825.2769742737432
 20
518.4500125000001
 30
0.0
 10
824.8337155949097
 20
518.4500125
 30
0.0
 10
824.3861439281136
 20
518.4500125
 30
0.0
 10
823.934260388785
 20
518.4500125
 30
0.0
 10
823.4780664170266
 20
518.4500125
 30
0.0
 10
823.0178910749189
 20
518.4500125
 30
0.0
 10
822.5675250848805
 20
518.4500125
 30
0.0
 10
822.128125591954
 20
518.4500125
 30
0.0
 10
821.7004473910176
 20
518.4500125
 30
0.0
 10
821.271538288228
 20
518.4500125
 30
0.0
 10
820.8413988547462
 20
518.4500125
 30
0.0
 10
820.4100295920116
 20
518.4500125
 30
0.0
 10
819.9648559503488
 20
518.4500125
 30
0.0
 10
819.5067112771952
 20
518.4500125
 30
0.0
 10
819.0365135210521
 20
518.4500125000001
 30
0.0
 10
818.567714484991
 20
518.4500125
 30
0.0
 10
818.1003161014636
 20
518.4500125
 30
0.0
 10
817.6343191130729
 20
518.4500125
 30
0.0
 10
817.1700982579582
 20
518.4500125
 30
0.0
 10
816.721383676039
 20
518.4500125
 30
0.0
 10
816.2888134907284
 20
518.4500125
 30
0.0
 10
815.8725765608684
 20
518.4500125
 30
0.0
 10
815.4599098174892
 20
518.4500125
 30
0.0
 10
815.0508138183731
 20
518.4500125
 30
0.0
 10
814.6452894750834
 20
518.4500125
 30
0.0
 10
814.231658840985
 20
518.4500125
 30
0.0
 10
813.8112046993408
 20
518.4500125
 30
0.0
 10
813.3853538391037
 20
518.4500125000001
 30
0.0
 10
812.9664597558063
 20
518.4500125
 30
0.0
 10
812.5545248892321
 20
518.4500125
 30
0.0
 10
812.1495491764305
 20
518.4500125
 30
0.0
 10
811.7518200941486
 20
518.4500125000001
 30
0.0
 10
811.37289937949
 20
518.4500125
 30
0.0
 10
811.0128100054231
 20
518.4500125
 30
0.0
 10
810.6712188308545
 20
518.4500125
 30
0.0
 10
810.3375108384918
 20
518.4500125000001
 30
0.0
 10
810.0116864786204
 20
518.4500125
 30
0.0
 10
809.6937469487523
 20
518.4500125
 30
0.0
 10
809.3746759515257
 20
518.4500125
 30
0.0
 10
809.0559794853971
 20
518.4500125
 30
0.0
 10
808.7393436989369
 20
518.4500125
 30
0.0
 10
808.4341228963947
 20
518.4500125
 30
0.0
 10
808.1403196689408
 20
518.4500125
 30
0.0
 10
807.8579331153855
 20
518.4500125
 30
0.0
 10
807.5871854805606
 20
518.4500125
 30
0.0
 10
807.3357264021546
 20
518.4500124999998
 30
0.0
 10
807.1029530875257
 20
518.4500125
 30
0.0
 10
806.8879994199999
 20
518.4500125
 30
0.0
 10
806.6839963388443
 20
518.4500125
 30
0.0
 10
806.4909441563226
 20
518.4500125
 30
0.0
 10
806.3088441625042
 20
518.4500125
 30
0.0
 10
806.1327194385779
 20
518.4500125
 30
0.0
 10
805.9640922761869
 20
518.4500125
 30
0.0
 10
805.8046767747902
 20
518.4500125
 30
0.0
 10
805.6594237844021
 20
518.4500125
 30
0.0
 10
805.5283356397182
 20
518.4500125000001
 30
0.0
 10
805.4114108714604
 20
518.4500125
 30
0.0
 10
805.3087243603649
 20
518.4500125
 30
0.0
 10
805.2228498225371
 20
518.4500125
 30
0.0
 10
805.1526547921956
 20
518.4500125
 30
0.0
 10
805.0969388096973
 20
518.4500125
 30
0.0
 10
805.0535516853378
 20
518.4500125
 30
0.0
 10
805.022793754299
 20
518.4500125
 30
0.0
 10
805.003544198781
 20
518.4500125
 30
0.0
 10
805.0011821860468
 20
518.4500125
 30
0.0
 10
804.9999999748
 20
518.4500125
 30
0.0
  0
LINE
  5
F7
330
1F
100
AcDbEntity
  8
0
  6
Continuous
 62
     7
370
    30
100
AcDbLine
 10
804.9999999748
 20
518.4500125
 30
0.0
 11
804.894684247
 21
518.4442272529
 31
0.0
  0
SPLINE
  5
F8
330
1F
100
AcDbEntity
  8
0
  6
Continuous
 62
     7
370
    30
100
AcDbSpline
210
0.0
220
0.0
230
1.0
 70
     8
 71
     3
 72
    19
 73
    15
 74
     0
 42
0.000000001
 43
0.00000001
 40
0.0
 40
0.0
 40
0.0
 40
0.0
 40
0.033394308273988
 40
0.1190428642565743
 40
0.204690288213047
 40
0.2903390174725454
 40
0.3759893412620217
 40
0.4616399138781146
 40
0.5513632485739439
 40
0.6410848719117169
 40
0.730807079211986
 40
0.820533836442308
 40
0.9102671349982869
 40
1.0
 40
1.0
 40
1.0
 40
1.0
 10
804.7172990269222
 20
518.4077528285728
 30
0.0
 10
804.7034941935156
 20
518.4040597794443
 30
0.0
 10
804.6542832053481
 20
518.3908949268442
 30
0.0
 10
804.5734782009839
 20
518.3562217640822
 30
0.0
 10
804.476410658901
 20
518.3044935476655
 30
0.0
 10
804.3858797682886
 20
518.2417116113347
 30
0.0
 10
804.3027024261731
 20
518.1695733671073
 30
0.0
 10
804.2267691922195
 20
518.0874221425261
 30
0.0
 10
804.1594752222306
 20
517.9958553724041
 30
0.0
 10
804.1023037743073
 20
517.8956455153556
 30
0.0
 10
804.0569662332049
 20
517.7895227226923
 30
0.0
 10
804.0243964425523
 20
517.6788884156173
 30
0.0
 10
804.0038246782515
 20
517.5652134745352
 30
0.0
 10
804.0012748906971
 20
517.488412763
 30
0.0
 10
803.9999999999999
 20
517.4500125
 30
0.0
  0
LINE
  5
F9
330
1F
100
AcDbEntity
  8
0
  6
Continuous
 62
     7
370
    30
100
AcDbLine
 10
804.1998341704
 20
505.0500125
 30
0.0
 11
835.8001658296
 21
505.0500125
 31
0.0
  0
LINE
  5
FA
330
1F
100
AcDbEntity
  8
0
  6
Continuous
 62
     7
370
    30
100
AcDbLine
 10
811.4
 20
521.1830970737
 30
0.0
 11
828.6
 21
521.1830970737
 31
0.0
  0
ARC
  5
FB
330
1F
100
AcDbEntity
  8
0
  6
Continuous
 62
     7
370
    30
100
AcDbCircle
 10
820.0
 20
512.2500125
 30
0.0
 40
12.40000000002659
100
AcDbArc
 50
30.0021444109
 51
46.0883449992
  0
LINE
  5
FC
330
1F
100
AcDbEntity
  8
0
  6
Continuous
 62
     7
370
    30
100
AcDbLine
 10
820.0
 20
539.5953597574
 30
0.0
 11
831.4
 21
539.5953597574
 31
0.0
  0
LINE
  5
FD
330
1F
100
AcDbEntity
  8
0
  6
Continuous
 62
     7
370
    30
100
AcDbLine
 10
808.6
 20
539.5953597574
 30
0.0
 11
820.0
 21
539.5953597574
 31
0.0
  0
LWPOLYLINE
  5
FE
330
1F
100
AcDbEntity
  8
0
  6
Continuous
 62
     7
370
    30
100
AcDbPolyline
 90
       58
 70
   128
 43
0.0
 10
825.5639539599
 20
525.9953609714
 10
825.7481758776
 20
525.9953609712
 10
825.9304064968
 20
525.9953609705
 10
826.1105826885
 20
525.9953609695
 10
826.2886420356
 20
525.995360968
 10
826.4645228544
 20
525.9953609661
 10
826.6381642157
 20
525.9953609638
 10
826.8095059662
 20
525.9953609611
 10
826.9784887493
 20
525.9953609579
 10
827.1450540255
 20
525.9953609544
 10
827.3091440928
 20
525.9953609504
 10
827.4707021066
 20
525.995360946
 10
827.6296720996
 20
525.9953609412
 10
827.7859990011
 20
525.995360936
 10
827.9396286557
 20
525.9953609304
 10
828.0905078427
 20
525.9953609244
 10
828.2385842942
 20
525.9953609179
 10
828.383806713
 20
525.9953609111
 10
828.5261247909
 20
525.9953609039
 10
828.6654892255
 20
525.9953608963
 10
828.8018517381
 20
525.9953608882
 10
828.9351650893
 20
525.9953608798
 10
829.0653830966
 20
525.995360871
 10
829.1924606493
 20
525.9953608618
 10
829.316353725
 20
525.9953608523
 10
829.4370194043
 20
525.9953608423
 10
829.5544158859
 20
525.995360832
 10
829.6685025009
 20
525.9953608213
 10
829.7792397271
 20
525.9953608102
 10
829.8865892027
 20
525.9953607988
 10
829.9905137394
 20
525.995360787
 10
830.0909773354
 20
525.9953607749
 10
830.1879451877
 20
525.9953607623
 10
830.2813837045
 20
525.9953607495
 10
830.3712605166
 20
525.9953607363
 10
830.4575444887
 20
525.9953607228
 10
830.5402057299
 20
525.9953607089
 10
830.6192156046
 20
525.9953606947
 10
830.694546742
 20
525.9953606802
 10
830.7661730456
 20
525.9953606654
 10
830.8340697025
 20
525.9953606502
 10
830.8982131917
 20
525.9953606347
 10
830.9585812924
 20
525.995360619
 10
831.0151530918
 20
525.9953606029
 10
831.0679089921
 20
525.9953605865
 10
831.1168307176
 20
525.9953605699
 10
831.1619013205
 20
525.995360553
 10
831.2031051873
 20
525.9953605358
 10
831.2404280443
 20
525.9953605183
 10
831.2738569618
 20
525.9953605006
 10
831.3033803593
 20
525.9953604826
 10
831.3289880093
 20
525.9953604643
 10
831.3506710407
 20
525.9953604458
 10
831.3684219419
 20
525.9953604271
 10
831.3822345637
 20
525.9953604082
 10
831.3921041211
 20
525.995360389
 10
831.398027195
 20
525.9953603696
 10
831.4000017336
 20
525.9953603499
  0
LINE
  5
FF
330
1F
100
AcDbEntity
  8
0
  6
Continuous
 62
     7
370
    30
100
AcDbLine
 10
825.5639543747
 20
528.9953597575
 30
0.0
 11
825.5639539599
 21
525.9953609714
 31
0.0
  0
LINE
  5
100
330
1F
100
AcDbEntity
  8
0
  6
Continuous
 62
     7
370
    30
100
AcDbLine
 10
814.4360503854
 20
528.9953597575
 30
0.0
 11
825.5639543747
 21
528.9953597575
 31
0.0
  0
LINE
  5
101
330
1F
100
AcDbEntity
  8
0
  6
Continuous
 62
     7
370
    30
100
AcDbLine
 10
814.4360535588
 20
525.9953597575
 30
0.0
 11
814.4360503854
 21
528.9953597575
 31
0.0
  0
LWPOLYLINE
  5
102
330
1F
100
AcDbEntity
  8
0
  6
Continuous
 62
     7
370
    30
100
AcDbPolyline
 90
       58
 70
   128
 43
0.0
 10
808.5999993413
 20
525.9953599826
 10
808.6019739628
 20
525.9953599751
 10
808.6078971214
 20
525.9953599675
 10
808.6177667651
 20
525.9953599598
 10
808.631579475
 20
525.995359952
 10
808.6493304659
 20
525.9953599442
 10
808.6710135884
 20
525.9953599363
 10
808.6966213312
 20
525.9953599284
 10
808.726144823
 20
525.9953599204
 10
808.7595738362
 20
525.9953599123
 10
808.7968967903
 20
525.9953599042
 10
808.8381007557
 20
525.9953598961
 10
808.8831714585
 20
525.9953598879
 10
808.9320932852
 20
525.9953598796
 10
808.984849288
 20
525.9953598713
 10
809.041421191
 20
525.995359863
 10
809.1017893966
 20
525.9953598546
 10
809.1659329918
 20
525.9953598462
 10
809.2338297557
 20
525.9953598377
 10
809.3054561674
 20
525.9953598293
 10
809.3807874138
 20
525.9953598208
 10
809.4597973985
 20
525.9953598123
 10
809.5424587506
 20
525.9953598037
 10
809.6287428343
 20
525.9953597952
 10
809.7186197588
 20
525.9953597866
 10
809.8120583887
 20
525.995359778
 10
809.9090263548
 20
525.9953597695
 10
810.0094900651
 20
525.9953597609
 10
810.1134147167
 20
525.9953597523
 10
810.2207643077
 20
525.9953597437
 10
810.3315016497
 20
525.9953597351
 10
810.4455883808
 20
525.9953597266
 10
810.5629849788
 20
525.995359718
 10
810.6836507747
 20
525.9953597095
 10
810.8075439672
 20
525.9953597009
 10
810.9346216369
 20
525.9953596924
 10
811.0648397611
 20
525.9953596839
 10
811.1981532293
 20
525.9953596755
 10
811.3345158587
 20
525.995359667
 10
811.47388041
 20
525.9953596586
 10
811.6161986044
 20
525.9953596503
 10
811.7614211394
 20
525.9953596419
 10
811.9094977066
 20
525.9953596336
 10
812.0603770091
 20
525.9953596254
 10
812.2140067786
 20
525.9953596172
 10
812.3703337943
 20
525.995359609
 10
812.5293039011
 20
525.9953596009
 10
812.6908620279
 20
525.9953595929
 10
812.8549522075
 20
525.9953595849
 10
813.021517595
 20
525.995359577
 10
813.1905004887
 20
525.9953595691
 10
813.3618423487
 20
525.9953595613
 10
813.5354838185
 20
525.9953595536
 10
813.7113647447
 20
525.9953595459
 10
813.889424198
 20
525.9953595383
 10
814.0696004946
 20
525.9953595308
 10
814.2518312174
 20
525.9953595234
 10
814.4360535588
 20
525.9953597575
  0
ARC
  5
103
330
1F
100
AcDbEntity
  8
0
  6
Continuous
 62
     7
370
    30
100
AcDbCircle
 10
820.0
 20
512.2500125
 30
0.0
 40
12.39999999999997
100
AcDbArc
 50
324.5040673497
 51
329.4650064168
  0
SPLINE
  5
104
330
1F
100
AcDbEntity
  8
0
  6
Continuous
 62
     7
370
    30
100
AcDbSpline
210
0.0
220
0.0
230
1.0
 70
     8
 71
     3
 72
    36
 73
    32
 74
     0
 42
0.000000001
 43
0.00000001
 40
0.0
 40
0.0
 40
0.0
 40
0.0
 40
0.0461814011962573
 40
0.092362151869598
 40
0.1266211529345689
 40
0.1608830997769516
 40
0.1951412427371988
 40
0.2296532708889025
 40
0.2641694658135642
 40
0.2986805415521669
 40
0.3337501987342667
 40
0.3688255153519573
 40
0.4038943601578991
 40
0.4359279291901504
 40
0.4679665577208706
 40
0.4999999127544197
 40
0.5318705615259407
 40
0.5637412506656602
 40
0.6002600904236561
 40
0.6367864937913604
 40
0.6733061434783345
 40
0.7039698494606339
 40
0.7346373770367303
 40
0.7653016605528268
 40
0.802821347960123
 40
0.8403466185521005
 40
0.877867599699253
 40
0.9110347782565211
 40
0.944202149955072
 40
0.9721010338695916
 40
1.0
 40
1.0
 40
1.0
 40
1.0
 10
825.5639533640172
 20
525.9953627149856
 30
0.0
 10
825.3980754348868
 20
525.9397819877635
 30
0.0
 10
825.0663219132246
 20
525.8286213162435
 30
0.0
 10
824.6073443773545
 20
525.689123764905
 30
0.0
 10
824.1891847922249
 20
525.5710567832657
 30
0.0
 10
823.8124760177395
 20
525.4726290796393
 30
0.0
 10
823.4329189246281
 20
525.3816287699397
 30
0.0
 10
823.050540220139
 20
525.2986372379282
 30
0.0
 10
822.6654366314843
 20
525.2241453914329
 30
0.0
 10
822.2765919838905
 20
525.1584340269577
 30
0.0
 10
821.8841272369044
 20
525.1021455759825
 30
0.0
 10
821.488235840462
 20
525.0557936133669
 30
0.0
 10
821.1027016571285
 20
525.0210373922271
 30
0.0
 10
820.72787619591
 20
524.9971527043758
 30
0.0
 10
820.3640570175896
 20
524.9831848526246
 30
0.0
 10
820.0006163703728
 20
524.9785058270269
 30
0.0
 10
819.6378117627731
 20
524.983145187645
 30
0.0
 10
819.258262533959
 20
524.9976271218028
 30
0.0
 10
818.8616315587359
 20
525.0235600126497
 30
0.0
 10
818.4483634050414
 20
525.0623578121953
 30
0.0
 10
818.0583443383103
 20
525.1098766329445
 30
0.0
 10
817.691601867401
 20
525.1638217788753
 30
0.0
 10
817.3479934112705
 20
525.2220448465696
 30
0.0
 10
816.9801809614866
 20
525.2923719410597
 30
0.0
 10
816.5886392380282
 20
525.3764509533381
 30
0.0
 10
816.173928661694
 20
525.4757659457111
 30
0.0
 10
815.7774814877594
 20
525.5800944365076
 30
0.0
 10
815.3990532909377
 20
525.6876891318483
 30
0.0
 10
815.0574796494602
 20
525.791401345915
 30
0.0
 10
814.736436315951
 20
525.8939211665665
 30
0.0
 10
814.5361812429032
 20
525.9615468606328
 30
0.0
 10
814.4360535588456
 20
525.9953597574878
 30
0.0
  0
LINE
  5
105
330
1F
100
AcDbEntity
  8
0
  6
Continuous
 62
     7
370
    30
100
AcDbLine
 10
811.4
 20
524.0347786505
 30
0.0
 11
828.6
 21
524.0347786505
 31
0.0
  0
SPLINE
  5
106
330
1F
100
AcDbEntity
  8
0
  6
Continuous
 62
     7
370
    30
100
AcDbSpline
210
0.0
220
0.0
230
1.0
 70
     8
 71
     3
 72
    15
 73
    11
 74
     0
 42
0.000000001
 43
0.00000001
 40
0.0
 40
0.0
 40
0.0
 40
0.0
 40
0.1281881228449114
 40
0.2563825385830441
 40
0.3842864124776952
 40
0.5119425780758503
 40
0.639598743672128
 40
0.7675026175622319
 40
0.8956970332958557
 40
1.0
 40
1.0
 40
1.0
 40
1.0
 10
836.0
 20
506.2500125
 30
0.0
 10
835.9988620702588
 20
506.2303501101649
 30
0.0
 10
835.9965861549146
 20
506.1910243652467
 30
0.0
 10
835.9786794135473
 20
506.1343640785481
 30
0.0
 10
835.9509914404383
 20
506.082186344859
 30
0.0
 10
835.9134827030516
 20
506.0365340669554
 30
0.0
 10
835.8678277385917
 20
505.9990020874257
 30
0.0
 10
835.8156374305521
 20
505.9714046960349
 30
0.0
 10
835.7625486277976
 20
505.9542922337818
 30
0.0
 10
835.7269087306116
 20
505.9520879418001
 30
0.0
 10
835.7109199613164
 20
505.9510990524167
 30
0.0
  0
LINE
  5
107
330
1F
100
AcDbEntity
  8
0
  6
Continuous
 62
     7
370
    30
100
AcDbLine
 10
835.0000000252
 20
518.4500125
 30
0.0
 11
835.0488168983
 21
518.4473308713
 31
0.0
  0
LINE
  5
108
330
1F
100
AcDbEntity
  8
0
  6
Continuous
 62
     7
370
    30
100
AcDbLine
 10
139.0
 20
663.9500125
 30
0.0
 11
139.0
 21
545.4500125
 31
0.0
  0
LINE
  5
109
330
1F
100
AcDbEntity
  8
0
  6
Continuous
 62
     7
370
    30
100
AcDbLine
 10
165.0
 20
545.4500125
 30
0.0
 11
165.0
 21
663.9500125
 31
0.0
  0
LINE
  5
10A
330
1F
100
AcDbEntity
  8
0
  6
Continuous
 62
     7
370
    30
100
AcDbLine
 10
141.5199999792
 20
545.4500125
 30
0.0
 11
141.5199999792
 21
539.5953597574
 31
0.0
  0
LINE
  5
10B
330
1F
100
AcDbEntity
  8
0
  6
Continuous
 62
     7
370
    30
100
AcDbLine
 10
162.4799999792
 20
539.5953597574
 30
0.0
 11
162.4799999792
 21
545.4500125
 31
0.0
  0
SPLINE
  5
10C
330
1F
100
AcDbEntity
  8
0
  6
Continuous
 62
     7
370
    30
100
AcDbSpline
210
0.0
220
0.0
230
1.0
 70
     8
 71
     3
 72
    28
 73
    24
 74
     0
 42
0.000000001
 43
0.00000001
 40
0.0
 40
0.0
 40
0.0
 40
0.0
 40
0.0345179643236904
 40
0.063631597563321
 40
0.0876459590419838
 40
0.1219513055142883
 40
0.1560535842892098
 40
0.1910326008231227
 40
0.2260647605006459
 40
0.2610970716562462
 40
0.3389125209705707
 40
0.4167290780360864
 40
0.4945463923788639
 40
0.5723638458949444
 40
0.6501807522517612
 40
0.727996609314883
 40
0.7863721156909148
 40
0.844316640625171
 40
0.8665387105856626
 40
0.8884943249244108
 40
0.9168503277617306
 40
0.9540101932545473
 40
1.0
 40
1.0
 40
1.0
 40
1.0
 10
114.6932244566211
 20
664.9038442258718
 30
0.0
 10
114.6941525173956
 20
664.888603991182
 30
0.0
 10
114.6958633364104
 20
664.8605096206259
 30
0.0
 10
114.7007387748328
 20
664.8202637175237
 30
0.0
 10
114.7072412136462
 20
664.7787016669005
 30
0.0
 10
114.7160830390042
 20
664.7333352921927
 30
0.0
 10
114.7284517983001
 20
664.6837049135416
 30
0.0
 10
114.7434876389899
 20
664.6342846045645
 30
0.0
 10
114.761229659171
 20
664.5853205462778
 30
0.0
 10
114.7897634767519
 20
664.517778732272
 30
0.0
 10
114.8338170326152
 20
664.4339186354415
 30
0.0
 10
114.8992274369654
 20
664.3381810815284
 30
0.0
 10
114.9752362027193
 20
664.2506148177981
 30
0.0
 10
115.0608222447358
 20
664.1723901689013
 30
0.0
 10
115.1548433968683
 20
664.104551219072
 30
0.0
 10
115.2476465455887
 20
664.0527159501228
 30
0.0
 10
115.3360439187255
 20
664.014497617988
 30
0.0
 10
115.4012782127834
 20
663.9927757862915
 30
0.0
 10
115.450147896984
 20
663.9796876322828
 30
0.0
 10
115.4852071643608
 20
663.9715216014858
 30
0.0
 10
115.5274442682398
 20
663.9633575405174
 30
0.0
 10
115.5811489614927
 20
663.9554225887284
 30
0.0
 10
115.6213820012692
 20
663.9526978927098
 30
0.0
 10
115.6436347615543
 20
663.9511908724178
 30
0.0
  0
SPLINE
  5
10D
330
1F
100
AcDbEntity
  8
0
  6
Continuous
 62
     7
370
    30
100
AcDbSpline
210
0.0
220
0.0
230
1.0
 70
     8
 71
     3
 72
    32
 73
    28
 74
     0
 42
0.000000001
 43
0.00000001
 40
0.0
 40
0.0
 40
0.0
 40
0.0
 40
0.0302535398185377
 40
0.0599090948990544
 40
0.0893561786875249
 40
0.1190644279711132
 40
0.1495845195220049
 40
0.1815154968974119
 40
0.214170615683497
 40
0.2469388983676299
 40
0.3127943874932407
 40
0.3791060590889993
 40
0.4458477197321398
 40
0.5127910146372838
 40
0.5798801304772623
 40
0.64711255318469
 40
0.6912538081081062
 40
0.7316513001668009
 40
0.7679959180756728
 40
0.792596117773707
 40
0.814923686582919
 40
0.8366052742643769
 40
0.8603510739335859
 40
0.887698779847409
 40
0.9196891154092081
 40
0.9569838375162729
 40
0.9999999999999999
 40
0.9999999999999999
 40
0.9999999999999999
 40
0.9999999999999999
 10
188.3563642719581
 20
663.9511908239595
 30
0.0
 10
188.3675608935534
 20
663.9518437894254
 30
0.0
 10
188.3897328268123
 20
663.953136813987
 30
0.0
 10
188.4265576476237
 20
663.9570396557921
 30
0.0
 10
188.4659083332463
 20
663.9628162214374
 30
0.0
 10
188.5082974765432
 20
663.9709671621315
 30
0.0
 10
188.553744678473
 20
663.9818670136292
 30
0.0
 10
188.6016814829827
 20
663.9957271868448
 30
0.0
 10
188.6500035565529
 20
664.0123876584073
 30
0.0
 10
188.7139003540818
 20
664.0382205287647
 30
0.0
 10
188.7915455174145
 20
664.0769241601658
 30
0.0
 10
188.8798110941586
 20
664.1331486158441
 30
0.0
 10
188.9621810540772
 20
664.1987195924995
 30
0.0
 10
189.0375179330097
 20
664.2729250598081
 30
0.0
 10
189.1048059734333
 20
664.3549003725395
 30
0.0
 10
189.1564889345237
 20
664.4335376637597
 30
0.0
 10
189.194372215734
 20
664.5039483383988
 30
0.0
 10
189.2207577039753
 20
664.5619265457856
 30
0.0
 10
189.2398732760823
 20
664.6117846723574
 30
0.0
 10
189.2536547362988
 20
664.6534560072572
 30
0.0
 10
189.2635454574312
 20
664.6881801614142
 30
0.0
 10
189.2728199206193
 20
664.7228246868257
 30
0.0
 10
189.2817145150227
 20
664.7565317726907
 30
0.0
 10
189.2899762563248
 20
664.7898539849688
 30
0.0
 10
189.297244920074
 20
664.8229733405423
 30
0.0
 10
189.3031588257054
 20
664.8563089050474
 30
0.0
 10
189.3049239386662
 20
664.8764496869858
 30
0.0
 10
189.3058693694918
 20
664.8872375042639
 30
0.0
  0
LINE
  5
10E
330
1F
100
AcDbEntity
  8
0
  6
Continuous
 62
     7
370
    30
100
AcDbLine
 10
114.6941306304
 20
664.8872375062
 30
0.0
 11
114.6950444081
 21
664.8786175068
 31
0.0
  0
ARC
  5
10F
330
1F
100
AcDbEntity
  8
0
  6
Continuous
 62
     7
370
    30
100
AcDbCircle
 10
275.0
 20
491.7500125
 30
0.0
 40
2.000000000000057
100
AcDbArc
 50
270.0
 51
0.0
  0
ARC
  5
110
330
1F
100
AcDbEntity
  8
0
  6
Continuous
 62
     7
370
    30
100
AcDbCircle
 10
29.0
 20
491.7500125
 30
0.0
 40
2.000000000000057
100
AcDbArc
 50
180.0
 51
270.0
  0
LINE
  5
111
330
1F
100
AcDbEntity
  8
0
  6
Continuous
 62
     7
370
    30
100
AcDbLine
 10
277.0
 20
491.7500125
 30
0.0
 11
277.0
 21
499.7500125
 31
0.0
  0
LINE
  5
112
330
1F
100
AcDbEntity
  8
0
  6
Continuous
 62
     7
370
    30
100
AcDbLine
 10
27.0
 20
499.7500125
 30
0.0
 11
27.0
 21
491.7500125
 31
0.0
  0
SPLINE
  5
113
330
1F
100
AcDbEntity
  8
0
  6
Continuous
 62
     7
370
    30
100
AcDbSpline
210
0.0
220
0.0
230
1.0
 70
     8
 71
     3
 72
   185
 73
   181
 74
     0
 42
0.000000001
 43
0.00000001
 40
0.0
 40
0.0
 40
0.0
 40
0.0
 40
0.0009942315207827
 40
0.0018868080569877
 40
0.0026761342409137
 40
0.0033621579478472
 40
0.0041167665210668
 40
0.004735930320462
 40
0.0053630116073336
 40
0.0060085276664682
 40
0.0066721149116827
 40
0.0072165491019963
 40
0.0074795078731832
 40
0.0076175419983679
 40
0.0076805986853316
 40
0.0077453897011778
 40
0.0078962450189932
 40
0.0080922739528777
 40
0.0086523924566091
 40
0.0094586383372506
 40
0.0105200188454777
 40
0.0117220446954521
 40
0.0131436360934122
 40
0.0147856801344375
 40
0.0166487753765626
 40
0.0187186126748201
 40
0.0208290124640889
 40
0.0306959483109707
 40
0.039392384622403
 40
0.0479825987151861
 40
0.0555632757057059
 40
0.0630603014761702
 40
0.070474136850478
 40
0.07780343529543
 40
0.0864074819721573
 40
0.0948783192895683
 40
0.1032159464476296
 40
0.1114203588538521
 40
0.1194915492174205
 40
0.1274295085259922
 40
0.1350597426796873
 40
0.1425709999572675
 40
0.1501390927715119
 40
0.1578345313669426
 40
0.1656573064161164
 40
0.1734643330814714
 40
0.1813941718460744
 40
0.1894468151621919
 40
0.1976222569802781
 40
0.2023491599553319
 40
0.2071161609811584
 40
0.2118333370521439
 40
0.2163726766112379
 40
0.2207332542807731
 40
0.2249150999088788
 40
0.2289182394047699
 40
0.2331153087571778
 40
0.2370961946778908
 40
0.2408609151248996
 40
0.2444094824896719
 40
0.2477419037797752
 40
0.2505868060554668
 40
0.2535024434447735
 40
0.2565955088222845
 40
0.2598660093264922
 40
0.2633139476689444
 40
0.2668730283077806
 40
0.2706032595244978
 40
0.2745046321524966
 40
0.2785771332817596
 40
0.2829091307241864
 40
0.2874192736226733
 40
0.2921075362486137
 40
0.2968770684550682
 40
0.3016068969103101
 40
0.3062966568397262
 40
0.310946347942703
 40
0.3191495493800723
 40
0.3272249801949089
 40
0.3351726327707216
 40
0.3429924979547859
 40
0.3506845656009807
 40
0.3582488250797167
 40
0.3657315300654571
 40
0.3752530509835791
 40
0.3847745819412084
 40
0.3942961022195736
 40
0.4038175924052311
 40
0.4133390354040407
 40
0.4228604174480934
 40
0.4323817368864533
 40
0.4411096103449461
 40
0.4498374315149358
 40
0.4585652041820454
 40
0.4672929359709158
 40
0.4760206381746593
 40
0.4847483253514308
 40
0.4942693524915787
 40
0.5037903462174357
 40
0.5133113327300765
 40
0.5228323374883614
 40
0.5323533835215316
 40
0.54187449013235
 40
0.5513956686016002
 40
0.5601235187656437
 40
0.5688514177692944
 40
0.5775793650560934
 40
0.5863073564271755
 40
0.5950353843552505
 40
0.6037634384128848
 40
0.6120985704443066
 40
0.6204904553770136
 40
0.628956171802861
 40
0.6374957052637771
 40
0.646109040665047
 40
0.6547961629024084
 40
0.6635570575406556
 40
0.6723917115217729
 40
0.6775569087890564
 40
0.6825360991120104
 40
0.6873183106842906
 40
0.6919035783077903
 40
0.6962919325018916
 40
0.7004833994304546
 40
0.70517059758758
 40
0.7095843730329164
 40
0.7137247448360107
 40
0.7175917237920785
 40
0.7197975845491958
 40
0.7220045132406947
 40
0.7243692033882875
 40
0.7268934409392613
 40
0.729577209625632
 40
0.7324204846008016
 40
0.7359762093485093
 40
0.7397533779677872
 40
0.7437519076614282
 40
0.7479717013806687
 40
0.7525055797868736
 40
0.7572695969647845
 40
0.7622636054039078
 40
0.7674006749580671
 40
0.772491276597755
 40
0.7775288401132395
 40
0.7825134424367869
 40
0.7912828508100755
 40
0.7998840351175618
 40
0.8083173828186553
 40
0.8165832605347243
 40
0.8246820146890882
 40
0.8326320054856431
 40
0.8404688573911496
 40
0.8490641547425396
 40
0.8575202870332862
 40
0.8658372420009548
 40
0.8740150086319876
 40
0.8776414586475092
 40
0.8812398463325416
 40
0.8848101711114443
 40
0.8883524325070382
 40
0.8919704161410417
 40
0.8958410856816116
 40
0.89996740666422
 40
0.9043395370622344
 40
0.9089661980765137
 40
0.9138473865433249
 40
0.9189830996391786
 40
0.9243733351871566
 40
0.9299150634557467
 40
0.9357023048638925
 40
0.9417350617740189
 40
0.9480133391738298
 40
0.9538264423480433
 40
0.9598352904904427
 40
0.9660398957383056
 40
0.9724402740141114
 40
0.9790364456017701
 40
0.9858284357118352
 40
0.9928162750010379
 40
0.9999999999999999
 40
0.9999999999999999
 40
0.9999999999999999
 40
0.9999999999999999
 10
136.0048018101053
 20
506.2500125
 30
0.0
 10
136.0055838178106
 20
506.2336413143076
 30
0.0
 10
136.0070678770144
 20
506.2025728112263
 30
0.0
 10
136.017877514651
 20
506.1596474959763
 30
0.0
 10
136.0321055715283
 20
506.1233116390475
 30
0.0
 10
136.0496214873614
 20
506.09099508568
 30
0.0
 10
136.0692076812293
 20
506.0632469426809
 30
0.0
 10
136.091146044163
 20
506.0386485393076
 30
0.0
 10
136.1141718403669
 20
506.0176453400335
 30
0.0
 10
136.1398645565852
 20
505.9987408601091
 30
0.0
 10
136.1662730950411
 20
505.9833935798631
 30
0.0
 10
136.1883077067734
 20
505.9733574202616
 30
0.0
 10
136.2028682863218
 20
505.9678573604413
 30
0.0
 10
136.2100710102091
 20
505.9654002203171
 30
0.0
 10
136.2142631577452
 20
505.9640502524218
 30
0.0
 10
136.2184231539976
 20
505.9627698873902
 30
0.0
 10
136.2234915021228
 20
505.9613198134655
 30
0.0
 10
136.2315675350273
 20
505.9592075659275
 30
0.0
 10
136.2402942088868
 20
505.9572822573496
 30
0.0
 10
136.249500242602
 20
505.9555785076674
 30
0.0
 10
136.257869885189
 20
505.9543381485557
 30
0.0
 10
136.2656857432683
 20
505.9534136539571
 30
0.0
 10
136.2730419381813
 20
505.9527479600087
 30
0.0
 10
136.2802301670812
 20
505.9522740694284
 30
0.0
 10
136.287421383164
 20
505.9519551060747
 30
0.0
 10
136.2944177975022
 20
505.9517865419948
 30
0.0
 10
136.3121242613271
 20
505.9514167239463
 30
0.0
 10
136.3440419905285
 20
505.9510008506199
 30
0.0
 10
136.3978599625701
 20
505.9506415068479
 30
0.0
 10
136.4572144848605
 20
505.9504326183902
 30
0.0
 10
136.522608980685
 20
505.9503100366135
 30
0.0
 10
136.5925822201099
 20
505.9502433665529
 30
0.0
 10
136.6693865371622
 20
505.9502136244808
 30
0.0
 10
136.7577934032891
 20
505.950216663026
 30
0.0
 10
136.8600579966719
 20
505.9502157217589
 30
0.0
 10
136.9773127485573
 20
505.9502159823507
 30
0.0
 10
137.1031121012555
 20
505.9502159141658
 30
0.0
 10
137.236866397653
 20
505.950215932
 30
0.0
 10
137.3780094998788
 20
505.9502159273363
 30
0.0
 10
137.5248980394508
 20
505.9502159285498
 30
0.0
 10
137.6768520587222
 20
505.9502159282386
 30
0.0
 10
137.8344633041362
 20
505.9502159283237
 30
0.0
 10
138.0005215165806
 20
505.950215928286
 30
0.0
 10
138.1769583873379
 20
505.9502159283527
 30
0.0
 10
138.3634448478279
 20
505.9502159281199
 30
0.0
 10
138.5600578772239
 20
505.9502159289896
 30
0.0
 10
138.7668605844071
 20
505.9502159256803
 30
0.0
 10
138.9852646975564
 20
505.9502159383206
 30
0.0
 10
139.1819923816289
 20
505.9502158970895
 30
0.0
 10
139.3526583358854
 20
505.9502159919337
 30
0.0
 10
139.4927364058642
 20
505.9502156852918
 30
0.0
 10
139.6336698435172
 20
505.9502168112953
 30
0.0
 10
139.772973262709
 20
505.9502230982457
 30
0.0
 10
139.9090491956452
 20
505.9502338480757
 30
0.0
 10
140.041579949397
 20
505.9502496214812
 30
0.0
 10
140.1742735465209
 20
505.9502715075052
 30
0.0
 10
140.3066429499544
 20
505.9503008426541
 30
0.0
 10
140.4381709600571
 20
505.9503395793016
 30
0.0
 10
140.5640886838408
 20
505.9503877688152
 30
0.0
 10
140.6840965479963
 20
505.9504474969224
 30
0.0
 10
140.7948572378747
 20
505.9505162486089
 30
0.0
 10
140.8992429818964
 20
505.9506037296857
 30
0.0
 10
141.0019177978558
 20
505.9506866109306
 30
0.0
 10
141.1106948933211
 20
505.9507638187479
 30
0.0
 10
141.2269591621629
 20
505.9508368098097
 30
0.0
 10
141.3500939365668
 20
505.9509034411174
 30
0.0
 10
141.4801676096002
 20
505.9509630007486
 30
0.0
 10
141.6172503464653
 20
505.9510147380118
 30
0.0
 10
141.7622452465432
 20
505.9510582611064
 30
0.0
 10
141.916438803684
 20
505.9510932375238
 30
0.0
 10
142.0801479238874
 20
505.9511188617073
 30
0.0
 10
142.2536941953377
 20
505.9511348924298
 30
0.0
 10
142.4349944294699
 20
505.9511395654633
 30
0.0
 10
142.6212943489589
 20
505.9511383059518
 30
0.0
 10
142.809676992601
 20
505.9511386419476
 30
0.0
 10
142.998470143735
 20
505.9511385535017
 30
0.0
 10
143.2362888655575
 20
505.9511385808655
 30
0.0
 10
143.5239042863547
 20
505.9511385687791
 30
0.0
 10
143.8623211862051
 20
505.9511385724987
 30
0.0
 10
144.2004820146277
 20
505.9511385715256
 30
0.0
 10
144.5379356039661
 20
505.9511385717801
 30
0.0
 10
144.8742532205079
 20
505.9511385717136
 30
0.0
 10
145.2097098659436
 20
505.9511385717309
 30
0.0
 10
145.5762686135662
 20
505.9511385717261
 30
0.0
 10
145.9768132636955
 20
505.9511385717277
 30
0.0
 10
146.4135140147741
 20
505.9511385717273
 30
0.0
 10
146.8551986469946
 20
505.9511385717274
 30
0.0
 10
147.3014716279933
 20
505.9511385717274
 30
0.0
 10
147.7519349757544
 20
505.9511385717274
 30
0.0
 10
148.2061862964099
 20
505.9511385717274
 30
0.0
 10
148.6511111120311
 20
505.9511385717274
 30
0.0
 10
149.0860131801369
 20
505.9511385717274
 30
0.0
 10
149.5103098099548
 20
505.9511385717274
 30
0.0
 10
149.9364722697089
 20
505.9511385717273
 30
0.0
 10
150.3641816566035
 20
505.9511385717274
 30
0.0
 10
150.7931179676275
 20
505.9511385717274
 30
0.0
 10
151.2359826244597
 20
505.9511385717274
 30
0.0
 10
151.6925222119255
 20
505.9511385717274
 30
0.0
 10
152.1623772302107
 20
505.9511385717274
 30
0.0
 10
152.6320871144311
 20
505.9511385717274
 30
0.0
 10
153.101232851429
 20
505.9511385717274
 30
0.0
 10
153.5693966520863
 20
505.9511385717275
 30
0.0
 10
154.0361607885535
 20
505.9511385717274
 30
0.0
 10
154.488195987466
 20
505.9511385717274
 30
0.0
 10
154.9252933411809
 20
505.9511385717274
 30
0.0
 10
155.3473445238716
 20
505.9511385717274
 30
0.0
 10
155.7668866176675
 20
505.9511385717275
 30
0.0
 10
156.1836056391762
 20
505.951138571727
 30
0.0
 10
156.5971889214289
 20
505.9511385717288
 30
0.0
 10
157.0011722786491
 20
505.9511385717223
 30
0.0
 10
157.3963212706865
 20
505.9511385717452
 30
0.0
 10
157.7836697937136
 20
505.9511385716601
 30
0.0
 10
158.170101256949
 20
505.9511385719819
 30
0.0
 10
158.5554954373912
 20
505.9511385707648
 30
0.0
 10
158.939456736738
 20
505.9511385753663
 30
0.0
 10
159.3215778406838
 20
505.9511385579719
 30
0.0
 10
159.7014382471334
 20
505.9511386237177
 30
0.0
 10
160.0253418032011
 20
505.9511384103378
 30
0.0
 10
160.2919022438692
 20
505.9511388989259
 30
0.0
 10
160.499566039812
 20
505.9511522159752
 30
0.0
 10
160.6972797552383
 20
505.951176384285
 30
0.0
 10
160.885093017914
 20
505.9512123215051
 30
0.0
 10
161.063204406523
 20
505.9512603981716
 30
0.0
 10
161.2410995102222
 20
505.9513246676608
 30
0.0
 10
161.4176679089503
 20
505.9514089925009
 30
0.0
 10
161.5918417602811
 20
505.951518561655
 30
0.0
 10
161.7537182791429
 20
505.9516514512387
 30
0.0
 10
161.8856513100894
 20
505.9517879721768
 30
0.0
 10
161.9919368785741
 20
505.9519280541971
 30
0.0
 10
162.0784399842004
 20
505.9520439317737
 30
0.0
 10
162.1682387590064
 20
505.9521240317047
 30
0.0
 10
162.2632993999325
 20
505.9521809751485
 30
0.0
 10
162.3634948557998
 20
505.9522102989387
 30
0.0
 10
162.4755086853161
 20
505.9522125714414
 30
0.0
 10
162.5997027991598
 20
505.952180948605
 30
0.0
 10
162.7363491488007
 20
505.9521105329563
 30
0.0
 10
162.8791641843575
 20
505.952004626361
 30
0.0
 10
163.0289244648724
 20
505.9518650715746
 30
0.0
 10
163.1853389968155
 20
505.951694898414
 30
0.0
 10
163.3480815473108
 20
505.9514992036345
 30
0.0
 10
163.5147809097877
 20
505.9512843362146
 30
0.0
 10
163.6820832502263
 20
505.9510700926628
 30
0.0
 10
163.8470166443188
 20
505.9508932938859
 30
0.0
 10
164.0074136876284
 20
505.9507441770613
 30
0.0
 10
164.2032792004472
 20
505.9505896736156
 30
0.0
 10
164.4303881272425
 20
505.950449520971
 30
0.0
 10
164.6837629373161
 20
505.9503384816568
 30
0.0
 10
164.9236299641672
 20
505.9502679880031
 30
0.0
 10
165.1503747729425
 20
505.9502278386378
 30
0.0
 10
165.3646012626006
 20
505.9502134447796
 30
0.0
 10
165.5670244958231
 20
505.9502165760924
 30
0.0
 10
165.7649785382036
 20
505.9502157369832
 30
0.0
 10
165.9578215432053
 20
505.9502159806363
 30
0.0
 10
166.1444540792035
 20
505.9502159145994
 30
0.0
 10
166.318288369438
 20
505.9502159319743
 30
0.0
 10
166.4506658213937
 20
505.9502159279071
 30
0.0
 10
166.5476700129284
 20
505.9502159283721
 30
0.0
 10
166.6137929430699
 20
505.950215928285
 30
0.0
 10
166.6775561667553
 20
505.9502159283081
 30
0.0
 10
166.7395952244401
 20
505.9502159283019
 30
0.0
 10
166.8014576719976
 20
505.9502159283037
 30
0.0
 10
166.8644801462759
 20
505.9502159283031
 30
0.0
 10
166.9291785444031
 20
505.9502159283034
 30
0.0
 10
166.9950947997788
 20
505.9502159283032
 30
0.0
 10
167.0617242296441
 20
505.9502159283034
 30
0.0
 10
167.1285728244009
 20
505.9502159283032
 30
0.0
 10
167.1950697929696
 20
505.9502159283032
 30
0.0
 10
167.2601936037417
 20
505.9502159283034
 30
0.0
 10
167.3233731585952
 20
505.9502159283032
 30
0.0
 10
167.384026004303
 20
505.9502159283034
 30
0.0
 10
167.4418413851461
 20
505.9502159283032
 30
0.0
 10
167.4940743159725
 20
505.9502159283034
 30
0.0
 10
167.5406615569285
 20
505.9502159283032
 30
0.0
 10
167.5816123732405
 20
505.9502159283032
 30
0.0
 10
167.6180740180153
 20
505.9502159283032
 30
0.0
 10
167.6494599209986
 20
505.9502159283034
 30
0.0
 10
167.675222556886
 20
505.9502159283032
 30
0.0
 10
167.694575295808
 20
505.9502159283032
 30
0.0
 10
167.7075802493082
 20
505.9502159283034
 30
0.0
 10
167.7097738620074
 20
505.9502159283032
 30
0.0
 10
167.7108858289058
 20
505.9502159283032
 30
0.0
  0
SPLINE
  5
114
330
1F
100
AcDbEntity
  8
0
  6
Continuous
 62
     7
370
    30
100
AcDbSpline
210
0.0
220
0.0
230
1.0
 70
     8
 71
     3
 72
    36
 73
    32
 74
     0
 42
0.000000001
 43
0.00000001
 40
0.0
 40
0.0
 40
0.0
 40
0.0
 40
0.0555886531856956
 40
0.1033040721888695
 40
0.1432426500335892
 40
0.168201336036072
 40
0.1890246841962863
 40
0.20596098670356
 40
0.2194847491413986
 40
0.2305327807411879
 40
0.2424797788297733
 40
0.258521885106387
 40
0.2742878796762525
 40
0.292835581392783
 40
0.3181183823333762
 40
0.3438115579481398
 40
0.3692902450950187
 40
0.4020576958553621
 40
0.4344640644615945
 40
0.46650952039336
 40
0.4998847232511935
 40
0.5394935716937546
 40
0.5856460125786387
 40
0.624559340231476
 40
0.6671530633042565
 40
0.713426531556482
 40
0.7633795600093665
 40
0.8170128142448118
 40
0.874327757414719
 40
0.9353251261514636
 40
1.0
 40
1.0
 40
1.0
 40
1.0
 10
136.9511034063394
 20
518.4488192455096
 30
0.0
 10
136.9444419018752
 20
518.4484563904003
 30
0.0
 10
136.9320623873769
 20
518.4477820727427
 30
0.0
 10
136.9115602705557
 20
518.4460923020848
 30
0.0
 10
136.8923086328066
 20
518.4440748990406
 30
0.0
 10
136.8742946911516
 20
518.4417979048994
 30
0.0
 10
136.8582718223568
 20
518.4394981020828
 30
0.0
 10
136.841836815052
 20
518.4368591576069
 30
0.0
 10
136.824850647538
 20
518.4338528450725
 30
0.0
 10
136.8053100526409
 20
518.4300528950025
 30
0.0
 10
136.7822285565199
 20
518.4251220925945
 30
0.0
 10
136.7571363108955
 20
518.4190824394391
 30
0.0
 10
136.728245075451
 20
518.4112687327206
 30
0.0
 10
136.6944188134078
 20
518.4009936687083
 30
0.0
 10
136.6554256785182
 20
518.3874666352724
 30
0.0
 10
136.6132730767055
 20
518.370659618163
 30
0.0
 10
136.5678817667829
 20
518.3501160315863
 30
0.0
 10
136.5200647343296
 20
518.3254091749438
 30
0.0
 10
136.4704088999211
 20
518.2959824331393
 30
0.0
 10
136.4222226993901
 20
518.2635546527088
 30
0.0
 10
136.372599509922
 20
518.2257861085423
 30
0.0
 10
136.3191956274973
 20
518.1793713565502
 30
0.0
 10
136.2671535306622
 20
518.1266602962099
 30
0.0
 10
136.2181173286732
 20
518.0688370524185
 30
0.0
 10
136.1733462456628
 20
518.0075412723669
 30
0.0
 10
136.1301100526523
 20
517.937302087848
 30
0.0
 10
136.090100654163
 20
517.8577435797225
 30
0.0
 10
136.0551416476161
 20
517.7687061239012
 30
0.0
 10
136.0275686701661
 20
517.670313672064
 30
0.0
 10
136.0085374877514
 20
517.5630509437051
 30
0.0
 10
136.006071093715
 20
517.4884199485795
 30
0.0
 10
136.0048018100618
 20
517.4500125
 30
0.0
  0
LINE
  5
115
330
1F
100
AcDbEntity
  8
0
  6
Continuous
 62
     7
370
    30
100
AcDbLine
 10
168.0
 20
506.2500125
 30
0.0
 11
168.0
 21
517.4512664949
 31
0.0
  0
LINE
  5
116
330
1F
100
AcDbEntity
  8
0
  6
Continuous
 62
     7
370
    30
100
AcDbLine
 10
136.0
 20
517.4500125
 30
0.0
 11
136.0
 21
506.2487585051
 31
0.0
  0
LINE
  5
117
330
1F
100
AcDbEntity
  8
0
  6
Continuous
 62
     7
370
    30
100
AcDbLine
 10
167.8001658296
 20
499.7500125
 30
0.0
 11
167.8001658296
 21
505.0500125
 31
0.0
  0
LINE
  5
118
330
1F
100
AcDbEntity
  8
0
  6
Continuous
 62
     7
370
    30
100
AcDbLine
 10
136.1998341704
 20
505.0500125
 30
0.0
 11
136.1998341704
 21
499.7500125
 31
0.0
  0
ARC
  5
119
330
1F
100
AcDbEntity
  8
0
  6
Continuous
 62
     7
370
    30
100
AcDbCircle
 10
152.0
 20
512.2500125
 30
0.0
 40
12.40000000001771
100
AcDbArc
 50
30.0028843569
 51
46.0883449993
  0
LINE
  5
11A
330
1F
100
AcDbEntity
  8
0
  6
Continuous
 62
     7
370
    30
100
AcDbLine
 10
163.4
 20
525.9953597575
 30
0.0
 11
163.4
 21
539.5953597574
 31
0.0
  0
LINE
  5
11B
330
1F
100
AcDbEntity
  8
0
  6
Continuous
 62
     7
370
    30
100
AcDbLine
 10
140.6
 20
539.5953597574
 30
0.0
 11
140.6
 21
525.9953597575
 31
0.0
  0
ARC
  5
11C
330
1F
100
AcDbEntity
  8
0
  6
Continuous
 62
     7
370
    30
100
AcDbCircle
 10
152.0
 20
512.2500125
 30
0.0
 40
12.40000000000006
100
AcDbArc
 50
324.5006063131
 51
329.4614447736
  0
LINE
  5
11D
330
1F
100
AcDbEntity
  8
0
  6
Continuous
 62
     7
370
    30
100
AcDbLine
 10
140.6
 20
525.9953597575
 30
0.0
 11
143.4
 21
524.0347786505
 31
0.0
  0
LINE
  5
11E
330
1F
100
AcDbEntity
  8
0
  6
Continuous
 62
     7
370
    30
100
AcDbLine
 10
160.6
 20
524.0347786505
 30
0.0
 11
163.4
 21
525.9953597575
 31
0.0
  0
LINE
  5
11F
330
1F
100
AcDbEntity
  8
0
  6
Continuous
 62
     7
370
    30
100
AcDbLine
 10
160.6
 20
521.1830970737
 30
0.0
 11
160.6
 21
524.0347786505
 31
0.0
  0
LINE
  5
120
330
1F
100
AcDbEntity
  8
0
  6
Continuous
 62
     7
370
    30
100
AcDbLine
 10
143.4
 20
524.0347786505
 30
0.0
 11
143.4
 21
521.1830970737
 31
0.0
  0
SPLINE
  5
121
330
1F
100
AcDbEntity
  8
0
  6
Continuous
 62
     7
370
    30
100
AcDbSpline
210
0.0
220
0.0
230
1.0
 70
    24
 71
     3
 72
    13
 73
     9
 74
     0
 42
0.000000001
 43
0.00000001
 40
0.0
 40
0.0
 40
0.0
 40
0.0
 40
0.1310565169096742
 40
0.2957673984449742
 40
0.4650166746445256
 40
0.6388047950822487
 40
0.8171323330321252
 40
1.0
 40
1.0
 40
1.0
 40
1.0
 10
167.4766223442834
 20
505.9502159291649
 30
0.0
 10
167.4910120190465
 20
505.9502159291889
 30
0.0
 10
167.5234865328632
 20
505.950215929243
 30
0.0
 10
167.5669228547148
 20
505.9502159293305
 30
0.0
 10
167.6083565774446
 20
505.9502159294275
 30
0.0
 10
167.6434367966467
 20
505.9502159295291
 30
0.0
 10
167.6725219936139
 20
505.9502159296349
 30
0.0
 10
167.6855129122982
 20
505.9502159297077
 30
0.0
 10
167.6920900178612
 20
505.9502159297444
 30
0.0
  0
SPLINE
  5
122
330
1F
100
AcDbEntity
  8
0
  6
Continuous
 62
     7
370
    30
100
AcDbSpline
210
0.0
220
0.0
230
1.0
 70
     8
 71
     3
 72
    15
 73
    11
 74
     0
 42
0.000000001
 43
0.00000001
 40
0.0
 40
0.0
 40
0.0
 40
0.0
 40
0.1324772227619504
 40
0.2782793455048395
 40
0.4167896490753781
 40
0.5480064336760353
 40
0.6719281516732735
 40
0.7885534171324369
 40
0.8978810133125256
 40
1.0
 40
1.0
 40
1.0
 40
1.0
 10
136.6878415777878
 20
505.9501053090722
 30
0.0
 10
136.7059045162898
 20
505.9501119240615
 30
0.0
 10
136.7438472101313
 20
505.9501258193927
 30
0.0
 10
136.8062387504527
 20
505.9501469534817
 30
0.0
 10
136.8721920708957
 20
505.9501671121003
 30
0.0
 10
136.9385150380408
 20
505.9501845540428
 30
0.0
 10
137.0044462503352
 20
505.9501986653354
 30
0.0
 10
137.0695146791382
 20
505.9502088278505
 30
0.0
 10
137.1329630686159
 20
505.9502151702699
 30
0.0
 10
137.1758484634391
 20
505.9502156814325
 30
0.0
 10
137.1965601391902
 20
505.9502159283006
 30
0.0
  0
SPLINE
  5
123
330
1F
100
AcDbEntity
  8
0
  6
Continuous
 62
     7
370
    30
100
AcDbSpline
210
0.0
220
0.0
230
1.0
 70
     8
 71
     3
 72
    20
 73
    16
 74
     0
 42
0.000000001
 43
0.00000001
 40
0.0
 40
0.0
 40
0.0
 40
0.0
 40
0.0410908589494791
 40
0.1030953679603857
 40
0.1691557064718413
 40
0.2392718351241022
 40
0.3134437070770913
 40
0.3916712679312824
 40
0.4737705178132974
 40
0.5599076501631938
 40
0.6500825931925645
 40
0.7442952733244916
 40
0.8425456190309799
 40
0.942971640220776
 40
1.0
 40
1.0
 40
1.0
 40
1.0
 10
166.1906186480601
 20
505.9502159283032
 30
0.0
 10
166.207302271659
 20
505.9502159283046
 30
0.0
 10
166.2491608347997
 20
505.9502159283077
 30
0.0
 10
166.3158383612218
 20
505.9502159283192
 30
0.0
 10
166.3922239418469
 20
505.9502159283367
 30
0.0
 10
166.4709822018598
 20
505.9502159283601
 30
0.0
 10
166.5517869537504
 20
505.9502159283892
 30
0.0
 10
166.6341053932714
 20
505.9502159284239
 30
0.0
 10
166.7174757915882
 20
505.9502159284643
 30
0.0
 10
166.8014063646315
 20
505.9502159285104
 30
0.0
 10
166.8854113960373
 20
505.9502159285623
 30
0.0
 10
166.9690132435229
 20
505.9502159286196
 30
0.0
 10
167.0508124297753
 20
505.9502159286825
 30
0.0
 10
167.1188483880478
 20
505.9502159287395
 30
0.0
 10
167.1572824801945
 20
505.9502159287764
 30
0.0
 10
167.1712029136637
 20
505.9502159287898
 30
0.0
  0
SPLINE
  5
124
330
1F
100
AcDbEntity
  8
0
  6
Continuous
 62
     7
370
    30
100
AcDbSpline
210
0.0
220
0.0
230
1.0
 70
     8
 71
     3
 72
     9
 73
     5
 74
     0
 42
0.000000001
 43
0.00000001
 40
0.0
 40
0.0
 40
0.0
 40
0.0
 40
0.3953568943313205
 40
1.0
 40
1.0
 40
1.0
 40
1.0
 10
167.1061617814491
 20
518.4441807785096
 30
0.0
 10
167.0979492960358
 20
518.4450627533773
 30
0.0
 10
167.0771769621494
 20
518.44729358552
 30
0.0
 10
167.0595528759032
 20
518.4482443639108
 30
0.0
 10
167.0488965936606
 20
518.4488192455098
 30
0.0
  0
LINE
  5
125
330
1F
100
AcDbEntity
  8
0
  6
Continuous
 62
     7
370
    30
100
AcDbLine
 10
152.0
 20
545.4500125
 30
0.0
 11
139.0
 21
545.4500125
 31
0.0
  0
LINE
  5
126
330
1F
100
AcDbEntity
  8
0
  6
Continuous
 62
     7
370
    30
100
AcDbLine
 10
165.0
 20
545.4500125
 30
0.0
 11
152.0
 21
545.4500125
 31
0.0
  0
LINE
  5
127
330
1F
100
AcDbEntity
  8
0
  6
Continuous
 62
     7
370
    30
100
AcDbLine
 10
158.1302854538
 20
544.4500125
 30
0.0
 11
158.1302854538
 21
539.5953597574
 31
0.0
  0
LINE
  5
128
330
1F
100
AcDbEntity
  8
0
  6
Continuous
 62
     7
370
    30
100
AcDbLine
 10
158.1302854538
 20
544.4500125
 30
0.0
 11
145.8697145046
 21
544.4500125
 31
0.0
  0
LINE
  5
129
330
1F
100
AcDbEntity
  8
0
  6
Continuous
 62
     7
370
    30
100
AcDbLine
 10
145.8697145046
 20
544.4500125
 30
0.0
 11
145.8697145046
 21
539.5953597574
 31
0.0
  0
SPLINE
  5
12A
330
1F
100
AcDbEntity
  8
0
  6
Continuous
 62
     7
370
    30
100
AcDbSpline
210
0.0
220
0.0
230
1.0
 70
    24
 71
     3
 72
    27
 73
    23
 74
     0
 42
0.000000001
 43
0.00000001
 40
0.0
 40
0.0
 40
0.0
 40
0.0
 40
0.0522890455066976
 40
0.1045702547103422
 40
0.1568331382980536
 40
0.2090964522776652
 40
0.2613600126667832
 40
0.313623418155956
 40
0.3629014882670338
 40
0.4121792990735386
 40
0.4614572903079895
 40
0.5107356660036909
 40
0.5600142628739833
 40
0.6092927451988281
 40
0.6585708610342995
 40
0.7078486824651236
 40
0.75712663679544
 40
0.8064049785170574
 40
0.8548040319064237
 40
0.9032030214695574
 40
0.9516016762459151
 40
1.0
 40
1.0
 40
1.0
 40
1.0
 10
189.5
 20
675.9500125
 30
0.0
 10
189.498700432461
 20
675.9500125
 30
0.0
 10
189.496101492143
 20
675.9500125
 30
0.0
 10
189.4751490486087
 20
675.9500125
 30
0.0
 10
189.4418574225651
 20
675.9500125
 30
0.0
 10
189.3952334955585
 20
675.9500125
 30
0.0
 10
189.3359146907983
 20
675.9500125
 30
0.0
 10
189.265576065545
 20
675.9500125
 30
0.0
 10
189.1855080842957
 20
675.9500125
 30
0.0
 10
189.096929260588
 20
675.9500125
 30
0.0
 10
188.9987876293374
 20
675.9500125
 30
0.0
 10
188.8916698066173
 20
675.9500125
 30
0.0
 10
188.776218305658
 20
675.9500125
 30
0.0
 10
188.653125372348
 20
675.9500125
 30
0.0
 10
188.5231286951294
 20
675.9500125
 30
0.0
 10
188.3870067254662
 20
675.9500125
 30
0.0
 10
188.2455747163022
 20
675.9500125
 30
0.0
 10
188.1005465601594
 20
675.9500125
 30
0.0
 10
187.9528738610003
 20
675.9500125
 30
0.0
 10
187.8034763570118
 20
675.9500125
 30
0.0
 10
187.6523290619721
 20
675.9500125
 30
0.0
 10
187.5509793115935
 20
675.9500125
 30
0.0
 10
187.5003046097
 20
675.9500125
 30
0.0
  0
LINE
  5
12B
330
1F
100
AcDbEntity
  8
0
  6
Continuous
 62
     7
370
    30
100
AcDbLine
 10
189.5
 20
675.9500125
 30
0.0
 11
189.3076896529
 21
664.9325600936
 31
0.0
  0
LINE
  5
12C
330
1F
100
AcDbEntity
  8
0
  6
Continuous
 62
     7
370
    30
100
AcDbLine
 10
116.4996953903
 20
675.9500125
 30
0.0
 11
187.5003046097
 21
675.9500125
 31
0.0
  0
LINE
  5
12D
330
1F
100
AcDbEntity
  8
0
  6
Continuous
 62
     7
370
    30
100
AcDbLine
 10
114.5
 20
675.9500125
 30
0.0
 11
114.692310347
 21
664.9325600985
 31
0.0
  0
SPLINE
  5
12E
330
1F
100
AcDbEntity
  8
0
  6
Continuous
 62
     7
370
    30
100
AcDbSpline
210
0.0
220
0.0
230
1.0
 70
    24
 71
     3
 72
    27
 73
    23
 74
     0
 42
0.000000001
 43
0.00000001
 40
0.0
 40
0.0
 40
0.0
 40
0.0
 40
0.052289045506569
 40
0.1045702547092781
 40
0.1568331382957842
 40
0.2090964522742416
 40
0.261360012662439
 40
0.3136234181511616
 40
0.3629014882622797
 40
0.4121792990691272
 40
0.4614572903041034
 40
0.5107356660006893
 40
0.5600142628721212
 40
0.6092927451981343
 40
0.658570861034585
 40
0.7078486824661744
 40
0.7571266367971183
 40
0.8064049785190186
 40
0.8548040319082495
 40
0.9032030214709246
 40
0.9516016762466304
 40
1.0
 40
1.0
 40
1.0
 40
1.0
 10
116.4996953903
 20
675.9500125
 30
0.0
 10
116.4449448327407
 20
675.9500125
 30
0.0
 10
116.3354519228207
 20
675.9500125
 30
0.0
 10
116.1723418591178
 20
675.9500125
 30
0.0
 10
116.0114642433498
 20
675.9500125
 30
0.0
 10
115.8538924788998
 20
675.9500125
 30
0.0
 10
115.7006701909083
 20
675.9500125
 30
0.0
 10
115.555642392115
 20
675.9500125
 30
0.0
 10
115.4193971756108
 20
675.9500125
 30
0.0
 10
115.2923169036092
 20
675.9500125
 30
0.0
 10
115.1724682894487
 20
675.9500125
 30
0.0
 10
115.0605685193389
 20
675.9500125
 30
0.0
 10
114.9572879359751
 20
675.9500125
 30
0.0
 10
114.8632455881468
 20
675.9500125
 30
0.0
 10
114.7790048725724
 20
675.9500125
 30
0.0
 10
114.7050717723095
 20
675.9500125
 30
0.0
 10
114.6418825830683
 20
675.9500125
 30
0.0
 10
114.5901455886703
 20
675.9500125
 30
0.0
 10
114.5498588073027
 20
675.9500125
 30
0.0
 10
114.5212988864192
 20
675.9500125
 30
0.0
 10
114.5033369968389
 20
675.9500125
 30
0.0
 10
114.5011123297437
 20
675.9500125
 30
0.0
 10
114.5
 20
675.9500125
 30
0.0
  0
LINE
  5
12F
330
1F
100
AcDbEntity
  8
0
  6
Continuous
 62
     7
370
    30
100
AcDbLine
 10
187.3079945466
 20
663.9500125
 30
0.0
 11
116.6920057374
 21
663.9500125
 31
0.0
  0
SPLINE
  5
130
330
1F
100
AcDbEntity
  8
0
  6
Continuous
 62
     7
370
    30
100
AcDbSpline
210
0.0
220
0.0
230
1.0
 70
    24
 71
     3
 72
    21
 73
    17
 74
     0
 42
0.000000001
 43
0.00000001
 40
0.0
 40
0.0
 40
0.0
 40
0.0
 40
0.0700073730262794
 40
0.1400178261444497
 40
0.2100266738173538
 40
0.2800287541741335
 40
0.3500235624504813
 40
0.4200138172882379
 40
0.4900037079393957
 40
0.5599974477905011
 40
0.6333277487405283
 40
0.7066646937636656
 40
0.7800024080829374
 40
0.8533366782973384
 40
0.9266681575926703
 40
0.9999999999999999
 40
0.9999999999999999
 40
0.9999999999999999
 40
0.9999999999999999
 10
116.6920057374
 20
663.9500125
 30
0.0
 10
116.6553558742957
 20
663.9500125
 30
0.0
 10
116.5820545356149
 20
663.9500125
 30
0.0
 10
116.4734301917803
 20
663.9500125
 30
0.0
 10
116.3674482822689
 20
663.9500125
 30
0.0
 10
116.2653939522788
 20
663.9500125
 30
0.0
 10
116.1685004466068
 20
663.9500125
 30
0.0
 10
116.0779343110409
 20
663.9500125
 30
0.0
 10
115.9947832784185
 20
663.9500125
 30
0.0
 10
115.918866040493
 20
663.9500125
 30
0.0
 10
115.8515967165229
 20
663.9500125
 30
0.0
 10
115.7944510755392
 20
663.9500125
 30
0.0
 10
115.7491350508706
 20
663.9500125
 30
0.0
 10
115.7165740855772
 20
663.9500125
 30
0.0
 10
115.6959911849903
 20
663.9500125
 30
0.0
 10
115.6934357577723
 20
663.9500125
 30
0.0
 10
115.692158041
 20
663.9500125
 30
0.0
  0
LINE
  5
131
330
1F
100
AcDbEntity
  8
0
  6
Continuous
 62
     7
370
    30
100
AcDbLine
 10
115.692158041
 20
663.9500125
 30
0.0
 11
115.6087992055
 21
663.9540620834
 31
0.0
  0
LINE
  5
132
330
1F
100
AcDbEntity
  8
0
  6
Continuous
 62
     7
370
    30
100
AcDbLine
 10
114.6981327619
 20
664.8444634736
 30
0.0
 11
114.6923103471
 21
664.9325600985
 31
0.0
  0
SPLINE
  5
133
330
1F
100
AcDbEntity
  8
0
  6
Continuous
 62
     7
370
    30
100
AcDbSpline
210
0.0
220
0.0
230
1.0
 70
    24
 71
     3
 72
    21
 73
    17
 74
     0
 42
0.000000001
 43
0.00000001
 40
0.0
 40
0.0
 40
0.0
 40
0.0
 40
0.0700073730262883
 40
0.1400178261444543
 40
0.21002667381735
 40
0.2800287541741339
 40
0.3500235624504779
 40
0.4200138172882383
 40
0.4900037079393929
 40
0.5599974477904984
 40
0.6333277487405283
 40
0.7066646937636634
 40
0.7800024080829389
 40
0.8533366782973373
 40
0.9266681575926707
 40
0.9999999999999999
 40
0.9999999999999999
 40
0.9999999999999999
 40
0.9999999999999999
 10
188.3078419871
 20
663.9500125
 30
0.0
 10
188.3066777262412
 20
663.9500125
 30
0.0
 10
188.3043491532999
 20
663.9500125
 30
0.0
 10
188.2855862574253
 20
663.9500125
 30
0.0
 10
188.2558819895847
 20
663.9500125
 30
0.0
 10
188.2144981801398
 20
663.9500125
 30
0.0
 10
188.1622318298544
 20
663.9500125
 30
0.0
 10
188.0996358562687
 20
663.9500125
 30
0.0
 10
188.0274840702167
 20
663.9500125
 30
0.0
 10
187.9453582677491
 20
663.9500125
 30
0.0
 10
187.8537879382282
 20
663.9500125
 30
0.0
 10
187.7535707579338
 20
663.9500125
 30
0.0
 10
187.6474447139138
 20
663.9500125
 30
0.0
 10
187.5368224013558
 20
663.9500125
 30
0.0
 10
187.4231707953818
 20
663.9500125
 30
0.0
 10
187.3463866928952
 20
663.9500125
 30
0.0
 10
187.3079945466
 20
663.9500125
 30
0.0
  0
LINE
  5
134
330
1F
100
AcDbEntity
  8
0
  6
Continuous
 62
     7
370
    30
100
AcDbLine
 10
188.3078419577
 20
663.9500125
 30
0.0
 11
188.4016559346
 21
663.9545699954
 31
0.0
  0
SPLINE
  5
135
330
1F
100
AcDbEntity
  8
0
  6
Continuous
 62
     7
370
    30
100
AcDbSpline
210
0.0
220
0.0
230
1.0
 70
     8
 71
     3
 72
    22
 73
    18
 74
     0
 42
0.000000001
 43
0.00000001
 40
0.0
 40
0.0
 40
0.0
 40
0.0
 40
0.0157895821035941
 40
0.0860903262390512
 40
0.1563910703745108
 40
0.2266918145099654
 40
0.2969925586454227
 40
0.3672933027808827
 40
0.4375940469163376
 40
0.5078947910517961
 40
0.5781955351872555
 40
0.6484962793227119
 40
0.7187970234581688
 40
0.7890977675936277
 40
0.8593985117290847
 40
0.9296992558645425
 40
1.0
 40
1.0
 40
1.0
 40
1.0
 10
188.4792262471623
 20
663.9656409992416
 30
0.0
 10
188.4864247585142
 20
663.9666388681558
 30
0.0
 10
188.5256735610889
 20
663.9720795986196
 30
0.0
 10
188.5953684350874
 20
663.9911075064625
 30
0.0
 10
188.6871063543657
 20
664.0228866947596
 30
0.0
 10
188.775149597762
 20
664.0641776903926
 30
0.0
 10
188.8588246900072
 20
664.1136023173661
 30
0.0
 10
188.9373018879786
 20
664.1709601822276
 30
0.0
 10
189.0098531966515
 20
664.2356400676723
 30
0.0
 10
189.0757926574104
 20
664.3070518521538
 30
0.0
 10
189.1344988782741
 20
664.3845179083312
 30
0.0
 10
189.1854231741982
 20
664.4673099586695
 30
0.0
 10
189.2280695121854
 20
664.5546481984097
 30
0.0
 10
189.2620977841503
 20
664.6457091093777
 30
0.0
 10
189.2869578272451
 20
664.739639072883
 30
0.0
 10
189.3032727350535
 20
664.8355385109361
 30
0.0
 10
189.306217346922
 20
664.9002195660192
 30
0.0
 10
189.3076896528563
 20
664.9325600935607
 30
0.0
  0
LINE
  5
136
330
1F
100
AcDbEntity
  8
0
  6
Continuous
 62
     7
370
    30
100
AcDbLine
 10
153.8635368867
 20
505.9511385717
 30
0.0
 11
153.8007566274
 21
505.9502926157
 31
0.0
  0
LINE
  5
137
330
1F
100
AcDbEntity
  8
0
  6
Continuous
 62
     7
370
    30
100
AcDbLine
 10
158.0350773647
 20
505.9511385717
 30
0.0
 11
157.9178863693
 21
505.9500371622
 31
0.0
  0
LINE
  5
138
330
1F
100
AcDbEntity
  8
0
  6
Continuous
 62
     7
370
    30
100
AcDbLine
 10
275.0
 20
489.7500125
 30
0.0
 11
29.0
 21
489.7500125
 31
0.0
  0
LINE
  5
139
330
1F
100
AcDbEntity
  8
0
  6
Continuous
 62
     7
370
    30
100
AcDbLine
 10
277.0
 20
499.7500125
 30
0.0
 11
27.0
 21
499.7500125
 31
0.0
  0
LINE
  5
13A
330
1F
100
AcDbEntity
  8
0
  6
Continuous
 62
     7
370
    30
100
AcDbLine
 10
136.0
 20
506.2500125
 30
0.0
 11
136.0053910912
 21
506.2500125
 31
0.0
  0
SPLINE
  5
13B
330
1F
100
AcDbEntity
  8
0
  6
Continuous
 62
     7
370
    30
100
AcDbSpline
210
0.0
220
0.0
230
1.0
 70
    24
 71
     3
 72
   111
 73
   107
 74
     0
 42
0.000000001
 43
0.00000001
 40
0.0
 40
0.0
 40
0.0
 40
0.0
 40
0.0100165030866662
 40
0.0200127037729274
 40
0.0299984678239185
 40
0.0399836919401494
 40
0.049978274426071
 40
0.0599920858349033
 40
0.0700126723502878
 40
0.0791789135461493
 40
0.0883343009404038
 40
0.0974864466806471
 40
0.1066429709991889
 40
0.1158114832108323
 40
0.1249995628462988
 40
0.1350156507586119
 40
0.145011673313618
 40
0.1549974868001388
 40
0.1649829777379621
 40
0.174978033604014
 40
0.184992513544382
 40
0.195014752992495
 40
0.2041822029953203
 40
0.2133381755354793
 40
0.2224902897847307
 40
0.2316461745469975
 40
0.2408134492129941
 40
0.249999704831966
 40
0.2600138992770741
 40
0.2700086371482814
 40
0.2799937907506143
 40
0.2899792608160915
 40
0.2999749471363614
 40
0.3099907192092594
 40
0.3200122888325088
 40
0.3291789471300052
 40
0.3383347245600195
 40
0.3474872305151123
 40
0.3566440825436875
 40
0.3658128873618515
 40
0.3750012219998105
 40
0.3850176112513282
 40
0.3950138441702408
 40
0.4049997750896403
 40
0.4149852888426482
 40
0.4249802715000929
 40
0.4349945810898928
 40
0.4450166195972513
 40
0.4541838701213285
 40
0.4633396159390333
 40
0.4724914761060318
 40
0.4816470793786088
 40
0.4908140451680077
 40
0.4999999646110382
 40
0.5100138179528233
 40
0.5200082242239611
 40
0.5299930559089683
 40
0.539978213892039
 40
0.5499735980877278
 40
0.5599890780859885
 40
0.5700104336634847
 40
0.579176934675849
 40
0.5883325736554544
 40
0.5974849600840296
 40
0.6066417115521527
 40
0.6158104347706758
 40
0.6249987067172768
 40
0.6350151652159622
 40
0.6450114899221047
 40
0.6549975352286911
 40
0.6649831859615972
 40
0.6749783281173544
 40
0.6849928195836161
 40
0.695015123094899
 40
0.7041826454517849
 40
0.7133386715819523
 40
0.7224908204610263
 40
0.7316467207438648
 40
0.7408139917200031
 40
0.7500002243856134
 40
0.7600144428977047
 40
0.7700091819211109
 40
0.77999431383833
 40
0.7899797395269383
 40
0.7999753589915517
 40
0.8099910420087093
 40
0.8200125985838204
 40
0.8291792148311864
 40
0.8383348877777309
 40
0.8474872278506606
 40
0.8566438537874276
 40
0.8658123736412566
 40
0.8750003659193926
 40
0.885016544658336
 40
0.89501254498462
 40
0.9049982245589829
 40
0.914983471608846
 40
0.9249781756453801
 40
0.9349921981615917
 40
0.9450150582391442
 40
0.9541831768726516
 40
0.9633395455963685
 40
0.9724917863217865
 40
0.9816475312697454
 40
0.9908144039083768
 40
1.0
 40
1.0
 40
1.0
 40
1.0
 10
166.9999346179
 20
518.4500125
 30
0.0
 10
166.9980629130823
 20
518.4500125
 30
0.0
 10
166.9943232971962
 20
518.4500125
 30
0.0
 10
166.9700216116974
 20
518.4500125
 30
0.0
 10
166.9320260197172
 20
518.4500125
 30
0.0
 10
166.8790022917125
 20
518.4500125
 30
0.0
 10
166.8113091333263
 20
518.4500125
 30
0.0
 10
166.7289068415034
 20
518.4500125
 30
0.0
 10
166.6347592243674
 20
518.4500125
 30
0.0
 10
166.5303541064327
 20
518.4500125
 30
0.0
 10
166.4171106216014
 20
518.4500125
 30
0.0
 10
166.2919513733827
 20
518.4500125
 30
0.0
 10
166.1548765179924
 20
518.4500125
 30
0.0
 10
166.0058851623737
 20
518.4500125
 30
0.0
 10
165.8403089832897
 20
518.4500125
 30
0.0
 10
165.6572805270963
 20
518.4500125
 30
0.0
 10
165.4558054382116
 20
518.4500125
 30
0.0
 10
165.2412655992956
 20
518.4500125
 30
0.0
 10
165.0136601628365
 20
518.4500125000001
 30
0.0
 10
164.7729912293131
 20
518.4500125
 30
0.0
 10
164.5194367901496
 20
518.4500125000001
 30
0.0
 10
164.2609539553609
 20
518.4500125
 30
0.0
 10
163.9991584080463
 20
518.4500125
 30
0.0
 10
163.73545256015
 20
518.4500125
 30
0.0
 10
163.4621203014789
 20
518.4500125
 30
0.0
 10
163.1791619905458
 20
518.4500125
 30
0.0
 10
162.8865771344106
 20
518.4500125000001
 30
0.0
 10
162.5755854175918
 20
518.4500125
 30
0.0
 10
162.2458610992014
 20
518.4500125
 30
0.0
 10
161.8970180243123
 20
518.4500125
 30
0.0
 10
161.5387409222479
 20
518.4500125
 30
0.0
 10
161.1710299312408
 20
518.4500125
 30
0.0
 10
160.7938870040007
 20
518.4500125
 30
0.0
 10
160.4076208592688
 20
518.4500125
 30
0.0
 10
160.0240148708475
 20
518.4500125000001
 30
0.0
 10
159.6445757021988
 20
518.4500125
 30
0.0
 10
159.2704366544716
 20
518.4500125
 30
0.0
 10
158.8904030839353
 20
518.4500125
 30
0.0
 10
158.504475465586
 20
518.4500125000001
 30
0.0
 10
158.1126538122378
 20
518.4500125
 30
0.0
 10
157.7033888815359
 20
518.4500125
 30
0.0
 10
157.2769742737421
 20
518.4500125
 30
0.0
 10
156.8337155949077
 20
518.4500125
 30
0.0
 10
156.3861439281115
 20
518.4500125
 30
0.0
 10
155.934260388783
 20
518.4500125
 30
0.0
 10
155.4780664170252
 20
518.4500125000001
 30
0.0
 10
155.0178910749183
 20
518.4500125
 30
0.0
 10
154.5675250848802
 20
518.4500125
 30
0.0
 10
154.128125591954
 20
518.4500125
 30
0.0
 10
153.7004473910176
 20
518.4500125
 30
0.0
 10
153.271538288228
 20
518.4500125
 30
0.0
 10
152.8413988547462
 20
518.4500125
 30
0.0
 10
152.4100295920115
 20
518.4500125
 30
0.0
 10
151.9648559503488
 20
518.4500125
 30
0.0
 10
151.5067112771952
 20
518.4500125
 30
0.0
 10
151.036513521052
 20
518.4500125
 30
0.0
 10
150.5677144849909
 20
518.4500125
 30
0.0
 10
150.1003161014636
 20
518.4500125
 30
0.0
 10
149.6343191130728
 20
518.4500125
 30
0.0
 10
149.1700982579582
 20
518.4500125
 30
0.0
 10
148.7213836760389
 20
518.4500125
 30
0.0
 10
148.2888134907285
 20
518.4500125
 30
0.0
 10
147.8725765608684
 20
518.4500125
 30
0.0
 10
147.4599098174892
 20
518.4500125
 30
0.0
 10
147.050813818373
 20
518.4500125
 30
0.0
 10
146.6452894750834
 20
518.4500125
 30
0.0
 10
146.2316588409861
 20
518.4500125
 30
0.0
 10
145.8112046993438
 20
518.4500125
 30
0.0
 10
145.3853538391089
 20
518.4500125
 30
0.0
 10
144.9664597558125
 20
518.4500125
 30
0.0
 10
144.5545248892376
 20
518.4500125
 30
0.0
 10
144.1495491764342
 20
518.4500125
 30
0.0
 10
143.7518200941515
 20
518.4500125
 30
0.0
 10
143.3728993794938
 20
518.4500125
 30
0.0
 10
143.0128100054294
 20
518.4500125
 30
0.0
 10
142.6712188308622
 20
518.4500125
 30
0.0
 10
142.3375108384999
 20
518.4500125
 30
0.0
 10
142.0116864786271
 20
518.4500125
 30
0.0
 10
141.6937469487562
 20
518.4500125
 30
0.0
 10
141.3746759515282
 20
518.4500125
 30
0.0
 10
141.0559794854
 20
518.4500125
 30
0.0
 10
140.7393436989417
 20
518.4500125
 30
0.0
 10
140.4341228964005
 20
518.4500125
 30
0.0
 10
140.1403196689461
 20
518.4500125
 30
0.0
 10
139.8579331153892
 20
518.4500125000001
 30
0.0
 10
139.5871854805626
 20
518.4500125
 30
0.0
 10
139.3357264021556
 20
518.4500125
 30
0.0
 10
139.1029530875273
 20
518.4500125
 30
0.0
 10
138.8879994200016
 20
518.4500125
 30
0.0
 10
138.6839963388461
 20
518.4500125
 30
0.0
 10
138.4909441563242
 20
518.4500125
 30
0.0
 10
138.3088441625051
 20
518.4500125
 30
0.0
 10
138.1327194385783
 20
518.4500125
 30
0.0
 10
137.9640922761869
 20
518.4500125
 30
0.0
 10
137.8046767747902
 20
518.4500125
 30
0.0
 10
137.6594237844021
 20
518.4500125
 30
0.0
 10
137.5283356397183
 20
518.4500125
 30
0.0
 10
137.4114108714605
 20
518.4500125
 30
0.0
 10
137.3087243603649
 20
518.4500125
 30
0.0
 10
137.2228498225372
 20
518.4500125
 30
0.0
 10
137.1526547921956
 20
518.4500125
 30
0.0
 10
137.0969388096974
 20
518.4500125
 30
0.0
 10
137.0535516853379
 20
518.4500125
 30
0.0
 10
137.0227937542991
 20
518.4500125
 30
0.0
 10
137.0035441987811
 20
518.4500125
 30
0.0
 10
137.0011821860468
 20
518.4500125
 30
0.0
 10
136.9999999748
 20
518.4500125
 30
0.0
  0
LINE
  5
13C
330
1F
100
AcDbEntity
  8
0
  6
Continuous
 62
     7
370
    30
100
AcDbLine
 10
136.9999999748
 20
518.4500125
 30
0.0
 11
136.894684247
 21
518.4442272529
 31
0.0
  0
SPLINE
  5
13D
330
1F
100
AcDbEntity
  8
0
  6
Continuous
 62
     7
370
    30
100
AcDbSpline
210
0.0
220
0.0
230
1.0
 70
     8
 71
     3
 72
    19
 73
    15
 74
     0
 42
0.000000001
 43
0.00000001
 40
0.0
 40
0.0
 40
0.0
 40
0.0
 40
0.0333943082742468
 40
0.1190428642568059
 40
0.2046902882132564
 40
0.2903390174727326
 40
0.3759893412621826
 40
0.4616399138782606
 40
0.5513632485740635
 40
0.641084871911808
 40
0.7308070792120558
 40
0.8205338364423547
 40
0.9102671349983102
 40
1.0
 40
1.0
 40
1.0
 40
1.0
 10
136.7172990269226
 20
518.4077528285729
 30
0.0
 10
136.7034941935158
 20
518.4040597794443
 30
0.0
 10
136.6542832053482
 20
518.3908949268442
 30
0.0
 10
136.5734782009839
 20
518.3562217640821
 30
0.0
 10
136.4764106589012
 20
518.3044935476656
 30
0.0
 10
136.3858797682888
 20
518.2417116113347
 30
0.0
 10
136.3027024261732
 20
518.1695733671073
 30
0.0
 10
136.2267691922196
 20
518.0874221425261
 30
0.0
 10
136.1594752222307
 20
517.9958553724041
 30
0.0
 10
136.1023037743074
 20
517.8956455153555
 30
0.0
 10
136.0569662332049
 20
517.7895227226923
 30
0.0
 10
136.0243964425524
 20
517.6788884156174
 30
0.0
 10
136.0038246782516
 20
517.5652134745352
 30
0.0
 10
136.0012748906973
 20
517.488412763
 30
0.0
 10
136.0
 20
517.4500125
 30
0.0
  0
LINE
  5
13E
330
1F
100
AcDbEntity
  8
0
  6
Continuous
 62
     7
370
    30
100
AcDbLine
 10
152.0
 20
505.0500125
 30
0.0
 11
167.8001658296
 21
505.0500125
 31
0.0
  0
LINE
  5
13F
330
1F
100
AcDbEntity
  8
0
  6
Continuous
 62
     7
370
    30
100
AcDbLine
 10
136.1998341704
 20
505.0500125
 30
0.0
 11
152.0
 21
505.0500125
 31
0.0
  0
LINE
  5
140
330
1F
100
AcDbEntity
  8
0
  6
Continuous
 62
     7
370
    30
100
AcDbLine
 10
152.0
 20
521.1830970737
 30
0.0
 11
160.6
 21
521.1830970737
 31
0.0
  0
ARC
  5
141
330
1F
100
AcDbEntity
  8
0
  6
Continuous
 62
     7
370
    30
100
AcDbCircle
 10
152.0
 20
512.2500125
 30
0.0
 40
12.40000000002656
100
AcDbArc
 50
133.9116550008
 51
149.9978555891
  0
LINE
  5
142
330
1F
100
AcDbEntity
  8
0
  6
Continuous
 62
     7
370
    30
100
AcDbLine
 10
143.4
 20
521.1830970737
 30
0.0
 11
152.0
 21
521.1830970737
 31
0.0
  0
LWPOLYLINE
  5
143
330
1F
100
AcDbEntity
  8
0
  6
Continuous
 62
     7
370
    30
100
AcDbPolyline
 90
       58
 70
   128
 43
0.0
 10
140.5999982664
 20
525.9953603499
 10
140.6019729473
 20
525.9953603301
 10
140.6078961634
 20
525.9953603101
 10
140.6177658629
 20
525.9953602899
 10
140.6315786267
 20
525.9953602695
 10
140.6493296698
 20
525.9953602489
 10
140.6710128427
 20
525.9953602282
 10
140.6966206339
 20
525.9953602073
 10
140.7261441724
 20
525.9953601862
 10
140.7595732304
 20
525.995360165
 10
140.7968962274
 20
525.9953601437
 10
140.8381002339
 20
525.9953601222
 10
140.8831709758
 20
525.9953601006
 10
140.9320928397
 20
525.9953600788
 10
140.9848488778
 20
525.995360057
 10
141.0414208144
 20
525.995360035
 10
141.1017890515
 20
525.995360013
 10
141.1659326764
 20
525.9953599909
 10
141.233829468
 20
525.9953599687
 10
141.3054559056
 20
525.9953599464
 10
141.380787176
 20
525.995359924
 10
141.4597971828
 20
525.9953599016
 10
141.5424585551
 20
525.9953598792
 10
141.6287426571
 20
525.9953598567
 10
141.7186195981
 20
525.9953598341
 10
141.8120582427
 20
525.9953598116
 10
141.9090262216
 20
525.995359789
 10
142.0094899429
 20
525.9953597664
 10
142.1134146036
 20
525.9953597438
 10
142.2207642019
 20
525.9953597212
 10
142.3315015496
 20
525.9953596986
 10
142.4455882845
 20
525.9953596761
 10
142.5629848846
 20
525.9953596536
 10
142.683650681
 20
525.9953596311
 10
142.8075438722
 20
525.9953596086
 10
142.9346215389
 20
525.9953595862
 10
143.0648396585
 20
525.9953595639
 10
143.1981531204
 20
525.9953595416
 10
143.334515742
 20
525.9953595194
 10
143.473880284
 20
525.9953594973
 10
143.6161984674
 20
525.9953594753
 10
143.7614209899
 20
525.9953594534
 10
143.9094975433
 20
525.9953594315
 10
144.0603768304
 20
525.9953594098
 10
144.2140065831
 20
525.9953593883
 10
144.3703335808
 20
525.9953593668
 10
144.5293036681
 20
525.9953593455
 10
144.6908617741
 20
525.9953593243
 10
144.8549519316
 20
525.9953593033
 10
145.0215172959
 20
525.9953592824
 10
145.1905001651
 20
525.9953592617
 10
145.3618419996
 20
525.9953592412
 10
145.5354834427
 20
525.9953592208
 10
145.711364341
 20
525.9953592006
 10
145.8894237655
 20
525.9953591806
 10
146.0696000324
 20
525.9953591609
 10
146.2518307244
 20
525.9953591413
 10
146.4360535588
 20
525.9953597575
  0
LWPOLYLINE
  5
144
330
1F
100
AcDbEntity
  8
0
  6
Continuous
 62
     7
370
    30
100
AcDbPolyline
 90
       58
 70
   128
 43
0.0
 10
157.5639477908
 20
525.9953602187
 10
157.7481697999
 20
525.9953602187
 10
157.9304005114
 20
525.9953602184
 10
158.1105767965
 20
525.995360218
 10
158.2886362379
 20
525.9953602175
 10
158.4645171518
 20
525.9953602167
 10
158.638158609
 20
525.9953602159
 10
158.8095004561
 20
525.9953602148
 10
158.9784833365
 20
525.9953602136
 10
159.1450487105
 20
525.9953602123
 10
159.3091388761
 20
525.9953602108
 10
159.4706969887
 20
525.9953602091
 10
159.6296670809
 20
525.9953602073
 10
159.7859940819
 20
525.9953602053
 10
159.9396238363
 20
525.9953602032
 10
160.0905031233
 20
525.9953602009
 10
160.2385796748
 20
525.9953601984
 10
160.3838021939
 20
525.9953601958
 10
160.5261203719
 20
525.9953601931
 10
160.6654849068
 20
525.9953601902
 10
160.8018475193
 20
525.9953601871
 10
160.9351609705
 20
525.995360184
 10
161.0653790774
 20
525.9953601806
 10
161.1924567295
 20
525.9953601771
 10
161.3163499042
 20
525.9953601735
 10
161.4370156821
 20
525.9953601697
 10
161.5544122618
 20
525.9953601658
 10
161.6684989744
 20
525.9953601617
 10
161.7792362978
 20
525.9953601575
 10
161.8865858698
 20
525.9953601532
 10
161.9905105023
 20
525.9953601487
 10
162.0909741933
 20
525.9953601441
 10
162.1879421398
 20
525.9953601393
 10
162.2813807501
 20
525.9953601344
 10
162.3712576548
 20
525.9953601294
 10
162.4575417184
 20
525.9953601243
 10
162.5402030503
 20
525.995360119
 10
162.6192130147
 20
525.9953601136
 10
162.6945442406
 20
525.9953601081
 10
162.7661706316
 20
525.9953601025
 10
162.8340673748
 20
525.9953600967
 10
162.898210949
 20
525.9953600908
 10
162.9585791336
 20
525.9953600848
 10
163.0151510155
 20
525.9953600787
 10
163.0679069971
 20
525.9953600725
 10
163.1168288024
 20
525.9953600662
 10
163.1618994838
 20
525.9953600598
 10
163.2031034277
 20
525.9953600532
 10
163.2404263602
 20
525.9953600466
 10
163.2738553518
 20
525.9953600398
 10
163.3033788219
 20
525.995360033
 10
163.3289865429
 20
525.9953600261
 10
163.3506696436
 20
525.9953600191
 10
163.3684206126
 20
525.9953600119
 10
163.3822333006
 20
525.9953600047
 10
163.3921029224
 20
525.9953599974
 10
163.3980260591
 20
525.9953599901
 10
163.4000006587
 20
525.9953599826
  0
LINE
  5
145
330
1F
100
AcDbEntity
  8
0
  6
Continuous
 62
     7
370
    30
100
AcDbLine
 10
157.5639464412
 20
528.9953597575
 30
0.0
 11
157.5639477908
 21
525.9953602187
 31
0.0
  0
LINE
  5
146
330
1F
100
AcDbEntity
  8
0
  6
Continuous
 62
     7
370
    30
100
AcDbLine
 10
146.4360535588
 20
528.9953597575
 30
0.0
 11
157.5639464412
 21
528.9953597575
 31
0.0
  0
LINE
  5
147
330
1F
100
AcDbEntity
  8
0
  6
Continuous
 62
     7
370
    30
100
AcDbLine
 10
146.4360535588
 20
525.9953597575
 30
0.0
 11
146.4360535588
 21
528.9953597575
 31
0.0
  0
LINE
  5
148
330
1F
100
AcDbEntity
  8
0
  6
Continuous
 62
     7
370
    30
100
AcDbLine
 10
140.6
 20
539.5953597574
 30
0.0
 11
163.4
 21
539.5953597574
 31
0.0
  0
ARC
  5
149
330
1F
100
AcDbEntity
  8
0
  6
Continuous
 62
     7
370
    30
100
AcDbCircle
 10
152.0
 20
512.2500125
 30
0.0
 40
12.40000000000002
100
AcDbArc
 50
210.5349935832
 51
215.4959326503
  0
SPLINE
  5
14A
330
1F
100
AcDbEntity
  8
0
  6
Continuous
 62
     7
370
    30
100
AcDbSpline
210
0.0
220
0.0
230
1.0
 70
     8
 71
     3
 72
    36
 73
    32
 74
     0
 42
0.000000001
 43
0.00000001
 40
0.0
 40
0.0
 40
0.0
 40
0.0
 40
0.0461813831954031
 40
0.0923621163416461
 40
0.1266211038502335
 40
0.1608830371335995
 40
0.1951411665394539
 40
0.22965318076803
 40
0.2641693617640133
 40
0.2986804235822602
 40
0.3337500660043168
 40
0.3688253678520065
 40
0.4038941979007056
 40
0.4359277529140497
 40
0.4679663674154086
 40
0.4999997084308582
 40
0.5318703702262275
 40
0.5637410723898119
 40
0.6002599270711259
 40
0.636786345365239
 40
0.6733060099758628
 40
0.7039697284888026
 40
0.7346372685971005
 40
0.7653015646440735
 40
0.8028212673837046
 40
0.8403465533102987
 40
0.8778675497903152
 40
0.9110347419012963
 40
0.9442021271536427
 40
0.9721010224688607
 40
1.0
 40
1.0
 40
1.0
 40
1.0
 10
157.563949115066
 20
525.9953607543508
 30
0.0
 10
157.3980712841917
 20
525.9397801726398
 30
0.0
 10
157.0663179573394
 20
525.8286197915701
 30
0.0
 10
156.6073406738569
 20
525.6891227286122
 30
0.0
 10
156.1891814190519
 20
525.5710558562964
 30
0.0
 10
155.812472926627
 20
525.4726283100609
 30
0.0
 10
155.4329161261247
 20
525.3816281318277
 30
0.0
 10
155.0505377181799
 20
525.2986367266794
 30
0.0
 10
154.6654344318178
 20
525.2241449950292
 30
0.0
 10
154.2765900938794
 20
525.158433734273
 30
0.0
 10
153.8841256639606
 20
525.1021453737058
 30
0.0
 10
153.4882345916423
 20
525.0557934867983
 30
0.0
 10
153.102700727658
 20
525.0210373232923
 30
0.0
 10
152.7278755802411
 20
524.9971526754506
 30
0.0
 10
152.3640567094526
 20
524.9831848473057
 30
0.0
 10
152.000616267688
 20
524.9785058283483
 30
0.0
 10
151.637811762772
 20
524.9831451876429
 30
0.0
 10
151.2582625339595
 20
524.9976271218035
 30
0.0
 10
150.8616315587359
 20
525.0235600126495
 30
0.0
 10
150.4483634050415
 20
525.0623578121953
 30
0.0
 10
150.0583443383104
 20
525.1098766329445
 30
0.0
 10
149.691601867401
 20
525.1638217788753
 30
0.0
 10
149.3479934112705
 20
525.2220448465695
 30
0.0
 10
148.9801809614864
 20
525.2923719410599
 30
0.0
 10
148.5886392380279
 20
525.3764509533381
 30
0.0
 10
148.1739286616934
 20
525.4757659457117
 30
0.0
 10
147.7774814877582
 20
525.5800944365069
 30
0.0
 10
147.3990532909371
 20
525.6876891318519
 30
0.0
 10
147.057479649461
 20
525.7914013459225
 30
0.0
 10
146.7364363159521
 20
525.893921166573
 30
0.0
 10
146.5361812429051
 20
525.9615468606391
 30
0.0
 10
146.4360535588478
 20
525.995359757494
 30
0.0
  0
LINE
  5
14B
330
1F
100
AcDbEntity
  8
0
  6
Continuous
 62
     7
370
    30
100
AcDbLine
 10
152.0
 20
524.0347786505
 30
0.0
 11
160.6
 21
524.0347786505
 31
0.0
  0
LINE
  5
14C
330
1F
100
AcDbEntity
  8
0
  6
Continuous
 62
     7
370
    30
100
AcDbLine
 10
143.4
 20
524.0347786505
 30
0.0
 11
152.0
 21
524.0347786505
 31
0.0
  0
SPLINE
  5
14D
330
1F
100
AcDbEntity
  8
0
  6
Continuous
 62
     7
370
    30
100
AcDbSpline
210
0.0
220
0.0
230
1.0
 70
     8
 71
     3
 72
    15
 73
    11
 74
     0
 42
0.000000001
 43
0.00000001
 40
0.0
 40
0.0
 40
0.0
 40
0.0
 40
0.1251977549203595
 40
0.250401655933555
 40
0.3753217928529696
 40
0.5000000000061066
 40
0.6246782071574195
 40
0.749598344072405
 40
0.8748022450811825
 40
1.0
 40
1.0
 40
1.0
 40
1.0
 10
168.0
 20
506.2500125
 30
0.0
 10
167.9988620654209
 20
506.2303501408737
 30
0.0
 10
167.9965861404001
 20
506.1910244573749
 30
0.0
 10
167.9786794715538
 20
506.1343637103623
 30
0.0
 10
167.9509912236422
 20
506.0821877209339
 30
0.0
 10
167.9134835107396
 20
506.0365289402994
 30
0.0
 10
167.8678247215018
 20
505.9990212378707
 30
0.0
 10
167.8156487257239
 20
505.9713330019279
 30
0.0
 10
167.7589879746064
 20
505.9534263460778
 30
0.0
 10
167.7196622905868
 20
505.9511504300719
 30
0.0
 10
167.6999999312
 20
505.9500125000001
 30
0.0
  0
LINE
  5
14E
330
1F
100
AcDbEntity
  8
0
  6
Continuous
 62
     7
370
    30
100
AcDbLine
 10
167.0000000252
 20
518.4500125
 30
0.0
 11
167.0488168983
 21
518.4473308713
 31
0.0
  0
SPLINE
  5
14F
330
1F
100
AcDbEntity
  8
0
  6
Continuous
 62
     7
370
    30
100
AcDbSpline
210
0.0
220
0.0
230
1.0
 70
     8
 71
     3
 72
    27
 73
    23
 74
     0
 42
0.000000001
 43
0.00000001
 40
0.0
 40
0.0
 40
0.0
 40
0.0
 40
0.0522890455048857
 40
0.1045702547079488
 40
0.1568331382954869
 40
0.2090964522751092
 40
0.2613600126645071
 40
0.3136234181542554
 40
0.3629014882660958
 40
0.4121792990734585
 40
0.4614572903088242
 40
0.5107356660054828
 40
0.5600142628766661
 40
0.6092927452021898
 40
0.6585708610380459
 40
0.7078486824690425
 40
0.7571266367994003
 40
0.80640497852076
 40
0.854804031909514
 40
0.9032030214717538
 40
0.951601676247036
 40
1.0
 40
1.0
 40
1.0
 40
1.0
 10
448.5
 20
308.5003046096996
 30
0.0
 10
448.5012995675389
 20
308.5550551672572
 30
0.0
 10
448.5038985078569
 20
308.6645480771757
 30
0.0
 10
448.5248509513901
 20
308.8276581408785
 30
0.0
 10
448.5581425774329
 20
308.9885357566491
 30
0.0
 10
448.6047665044389
 20
309.1461075211026
 30
0.0
 10
448.664085309199
 20
309.2993298090972
 30
0.0
 10
448.7344239344527
 20
309.4443576078932
 30
0.0
 10
448.8144919157028
 20
309.5806028243988
 30
0.0
 10
448.9030707394118
 20
309.7076830964011
 30
0.0
 10
449.0012123706642
 20
309.8275317105615
 30
0.0
 10
449.1083301933865
 20
309.9394314806707
 30
0.0
 10
449.2237816943482
 20
310.0427120640334
 30
0.0
 10
449.3468746276602
 20
310.1367544118601
 30
0.0
 10
449.4768713048803
 20
310.2209951274327
 30
0.0
 10
449.6129932745447
 20
310.2949282276941
 30
0.0
 10
449.7544252837091
 20
310.3581174169341
 30
0.0
 10
449.8994534398514
 20
310.409854411331
 30
0.0
 10
450.0471261390089
 20
310.4501411926979
 30
0.0
 10
450.1965236429949
 20
310.4787011135807
 30
0.0
 10
450.3476709380315
 20
310.4966630031608
 30
0.0
 10
450.4490206884078
 20
310.498887670256
 30
0.0
 10
450.4996953903001
 20
310.4999999999997
 30
0.0
  0
LINE
  5
150
330
1F
100
AcDbEntity
  8
0
  6
Continuous
 62
     7
370
    30
100
AcDbLine
 10
521.5003046097
 20
310.5
 30
0.0
 11
450.4996953903
 21
310.5
 31
0.0
  0
LINE
  5
151
330
1F
100
AcDbEntity
  8
0
  6
Continuous
 62
     7
370
    30
100
AcDbLine
 10
523.5
 20
237.4996953903
 30
0.0
 11
523.5
 21
308.5003046097
 31
0.0
  0
LINE
  5
152
330
1F
100
AcDbEntity
  8
0
  6
Continuous
 62
     7
370
    30
100
AcDbLine
 10
448.5
 20
308.5003046097
 30
0.0
 11
448.5
 21
237.4996953903
 31
0.0
  0
SPLINE
  5
153
330
1F
100
AcDbEntity
  8
0
  6
Continuous
 62
     7
370
    30
100
AcDbSpline
210
0.0
220
0.0
230
1.0
 70
     8
 71
     3
 72
    27
 73
    23
 74
     0
 42
0.000000001
 43
0.00000001
 40
0.0
 40
0.0
 40
0.0
 40
0.0
 40
0.052289045506569
 40
0.1045702547092781
 40
0.1568331382957842
 40
0.2090964522742416
 40
0.261360012662439
 40
0.3136234181511616
 40
0.3629014882622797
 40
0.4121792990691272
 40
0.4614572903041034
 40
0.5107356660006893
 40
0.5600142628721212
 40
0.6092927451981343
 40
0.658570861034585
 40
0.7078486824661744
 40
0.7571266367971183
 40
0.8064049785190186
 40
0.8548040319082495
 40
0.9032030214709246
 40
0.9516016762466304
 40
1.0
 40
1.0
 40
1.0
 40
1.0
 10
523.5000000000001
 20
237.4996953902996
 30
0.0
 10
523.4987004324612
 20
237.4449448327403
 30
0.0
 10
523.4961014921431
 20
237.3354519228204
 30
0.0
 10
523.4751490486093
 20
237.1723418591175
 30
0.0
 10
523.4418574225667
 20
237.0114642433494
 30
0.0
 10
523.3952334955617
 20
236.8538924788994
 30
0.0
 10
523.3359146908032
 20
236.700670190908
 30
0.0
 10
523.2655760655515
 20
236.5556423921146
 30
0.0
 10
523.1855080843034
 20
236.4193971756104
 30
0.0
 10
523.0969292605963
 20
236.2923169036088
 30
0.0
 10
522.9987876293455
 20
236.1724682894484
 30
0.0
 10
522.8916698066243
 20
236.0605685193385
 30
0.0
 10
522.7762183056628
 20
235.9572879359747
 30
0.0
 10
522.6531253723504
 20
235.8632455881464
 30
0.0
 10
522.5231286951291
 20
235.779004872572
 30
0.0
 10
522.3870067254635
 20
235.7050717723091
 30
0.0
 10
522.2455747162976
 20
235.6418825830679
 30
0.0
 10
522.1005465601539
 20
235.5901455886699
 30
0.0
 10
521.9528738609949
 20
235.5498588073023
 30
0.0
 10
521.8034763570079
 20
235.5212988864189
 30
0.0
 10
521.6523290619699
 20
235.5033369968386
 30
0.0
 10
521.5509793115928
 20
235.5011123297433
 30
0.0
 10
521.5003046097
 20
235.4999999999997
 30
0.0
  0
SPLINE
  5
154
330
1F
100
AcDbEntity
  8
0
  6
Continuous
 62
     7
370
    30
100
AcDbSpline
210
0.0
220
0.0
230
1.0
 70
     8
 71
     3
 72
    27
 73
    23
 74
     0
 42
0.000000001
 43
0.00000001
 40
0.0
 40
0.0
 40
0.0
 40
0.0
 40
0.0522890455056278
 40
0.1045702547096276
 40
0.1568331382981628
 40
0.2090964522786919
 40
0.2613600126687537
 40
0.3136234181587449
 40
0.3629014882704092
 40
0.4121792990773619
 40
0.4614572903121585
 40
0.5107356660079776
 40
0.5600142628781314
 40
0.609292745202638
 40
0.658570861037654
 40
0.7078486824679902
 40
0.7571266367978283
 40
0.8064049785189602
 40
0.8548040319078521
 40
0.9032030214705099
 40
0.951601676246398
 40
1.0
 40
1.0
 40
1.0
 40
1.0
 10
450.4996953903001
 20
235.4999999999997
 30
0.0
 10
450.4449448327417
 20
235.5012995675386
 30
0.0
 10
450.3354519228214
 20
235.5038985078566
 30
0.0
 10
450.1723418591159
 20
235.5248509513906
 30
0.0
 10
450.0114642433424
 20
235.5581425774344
 30
0.0
 10
449.8538924788866
 20
235.604766504442
 30
0.0
 10
449.7006701908905
 20
235.6640853092035
 30
0.0
 10
449.5556423920944
 20
235.7344239344584
 30
0.0
 10
449.4193971755896
 20
235.8144919157095
 30
0.0
 10
449.292316903589
 20
235.9030707394188
 30
0.0
 10
449.1724682894309
 20
236.0012123706709
 30
0.0
 10
449.060568519324
 20
236.1083301933919
 30
0.0
 10
448.9572879359637
 20
236.2237816943516
 30
0.0
 10
448.8632455881391
 20
236.3468746276614
 30
0.0
 10
448.7790048725677
 20
236.4768713048793
 30
0.0
 10
448.705071772307
 20
236.6129932745415
 30
0.0
 10
448.6418825830671
 20
236.7544252837044
 30
0.0
 10
448.5901455886699
 20
236.8994534398459
 30
0.0
 10
448.5498588073028
 20
237.0471261390038
 30
0.0
 10
448.5212988864194
 20
237.1965236429908
 30
0.0
 10
448.503336996839
 20
237.3476709380291
 30
0.0
 10
448.5011123297438
 20
237.4490206884067
 30
0.0
 10
448.5
 20
237.4996953902996
 30
0.0
  0
LINE
  5
155
330
1F
100
AcDbEntity
  8
0
  6
Continuous
 62
     7
370
    30
100
AcDbLine
 10
450.4996953903
 20
235.5
 30
0.0
 11
521.5003046097
 21
235.5
 31
0.0
  0
SPLINE
  5
156
330
1F
100
AcDbEntity
  8
0
  6
Continuous
 62
     7
370
    30
100
AcDbSpline
210
0.0
220
0.0
230
1.0
 70
     8
 71
     3
 72
    27
 73
    23
 74
     0
 42
0.000000001
 43
0.00000001
 40
0.0
 40
0.0
 40
0.0
 40
0.0
 40
0.0522890455066976
 40
0.1045702547103422
 40
0.1568331382980536
 40
0.2090964522776652
 40
0.2613600126667832
 40
0.313623418155956
 40
0.3629014882670338
 40
0.4121792990735386
 40
0.4614572903079895
 40
0.5107356660036909
 40
0.5600142628739833
 40
0.6092927451988281
 40
0.6585708610342995
 40
0.7078486824651236
 40
0.75712663679544
 40
0.8064049785170574
 40
0.8548040319064237
 40
0.9032030214695574
 40
0.9516016762459151
 40
1.0
 40
1.0
 40
1.0
 40
1.0
 10
521.5003046097
 20
310.4999999999997
 30
0.0
 10
521.5550551672594
 20
310.4987004324607
 30
0.0
 10
521.6645480771806
 20
310.4961014921427
 30
0.0
 10
521.8276581408859
 20
310.4751490486083
 30
0.0
 10
521.9885357566571
 20
310.4418574225648
 30
0.0
 10
522.1461075211103
 20
310.3952334955582
 30
0.0
 10
522.2993298091038
 20
310.3359146907979
 30
0.0
 10
522.444357607898
 20
310.2655760655446
 30
0.0
 10
522.5806028244017
 20
310.1855080842953
 30
0.0
 10
522.7076830964016
 20
310.0969292605876
 30
0.0
 10
522.8275317105597
 20
309.9987876293371
 30
0.0
 10
522.939431480667
 20
309.891669806617
 30
0.0
 10
523.0427120640283
 20
309.7762183056576
 30
0.0
 10
523.1367544118541
 20
309.6531253723477
 30
0.0
 10
523.220995127427
 20
309.5231286951291
 30
0.0
 10
523.2949282276891
 20
309.3870067254659
 30
0.0
 10
523.3581174169303
 20
309.2455747163019
 30
0.0
 10
523.4098544113284
 20
309.1005465601591
 30
0.0
 10
523.4501411926964
 20
308.9528738609999
 30
0.0
 10
523.4787011135802
 20
308.8034763570115
 30
0.0
 10
523.496663003161
 20
308.6523290619717
 30
0.0
 10
523.4988876702563
 20
308.5509793115932
 30
0.0
 10
523.5000000000001
 20
308.5003046096996
 30
0.0
  0
CIRCLE
  5
157
330
1F
100
AcDbEntity
  8
0
  6
Continuous
 62
     7
370
    30
100
AcDbCircle
 10
486.0
 20
273.0
 30
0.0
 40
125.0
  0
LINE
  5
158
330
1F
100
AcDbEntity
  8
0
  6
Continuous
 62
     7
370
    30
100
AcDbLine
 10
755.0
 20
279.5461298715
 30
0.0
 11
755.0
 21
205.2614485522
 31
0.0
  0
LINE
  5
159
330
1F
100
AcDbEntity
  8
0
  6
Continuous
 62
     7
370
    30
100
AcDbLine
 10
781.0
 20
205.2614485522
 30
0.0
 11
781.0
 21
279.5461298715
 31
0.0
  0
LINE
  5
15A
330
1F
100
AcDbEntity
  8
0
  6
Continuous
 62
     7
370
    30
100
AcDbLine
 10
757.5199999853
 20
200.8208488147
 30
0.0
 11
757.5199999853
 21
200.48088564
 31
0.0
  0
LINE
  5
15B
330
1F
100
AcDbEntity
  8
0
  6
Continuous
 62
     7
370
    30
100
AcDbLine
 10
778.4799999853
 20
200.48088564
 30
0.0
 11
778.4799999853
 21
200.8208487915
 31
0.0
  0
SPLINE
  5
15C
330
1F
100
AcDbEntity
  8
0
  6
Continuous
 62
     7
370
    30
100
AcDbSpline
210
0.0
220
0.0
230
1.0
 70
     8
 71
     3
 72
    43
 73
    39
 74
     0
 42
0.000000001
 43
0.00000001
 40
0.0
 40
0.0
 40
0.0
 40
0.0
 40
0.0299900341269469
 40
0.0537549816689203
 40
0.0714131329084024
 40
0.0861052821138918
 40
0.101595970840801
 40
0.1328874393304654
 40
0.1605612714644463
 40
0.2102424737542235
 40
0.2627278882938753
 40
0.2965775973361311
 40
0.3332684324821032
 40
0.3669520962504953
 40
0.3966720691181545
 40
0.4334087846587438
 40
0.4711684858559919
 40
0.506546829772224
 40
0.5420029225820301
 40
0.5812946479907746
 40
0.6210287028470097
 40
0.6609417690541733
 40
0.7016780579255824
 40
0.7406417148188119
 40
0.7613154685025569
 40
0.7850013402504817
 40
0.809725745361447
 40
0.8344389556943798
 40
0.8584371618208184
 40
0.8687793010325568
 40
0.8795476426528981
 40
0.8942864622619046
 40
0.9093363586181452
 40
0.9201907141722155
 40
0.9320916253123297
 40
0.9492491262128797
 40
0.9718525759229852
 40
1.0
 40
1.0
 40
1.0
 40
1.0
 10
766.7931712203083
 20
272.7384176873868
 30
0.0
 10
766.8142954139927
 20
272.7265181156677
 30
0.0
 10
766.8521590135961
 20
272.7051889882343
 30
0.0
 10
766.9041836947521
 20
272.6787397909909
 30
0.0
 10
766.9456556032566
 20
272.6588177735335
 30
0.0
 10
766.9813373617507
 20
272.642527563806
 30
0.0
 10
767.0276359072783
 20
272.6223542138811
 30
0.0
 10
767.084581875694
 20
272.5993343510299
 30
0.0
 10
767.1691100452517
 20
272.5683566697003
 30
0.0
 10
767.2721233635908
 20
272.5354466931154
 30
0.0
 10
767.3826980446423
 20
272.5065474887793
 30
0.0
 10
767.484249785263
 20
272.4847110365481
 30
0.0
 10
767.5712831697581
 20
272.4691639364948
 30
0.0
 10
767.6557115059901
 20
272.457061406596
 30
0.0
 10
767.7406468035467
 20
272.4475237591536
 30
0.0
 10
767.8295544287749
 20
272.4403821376585
 30
0.0
 10
767.9236972823226
 20
272.4361505162097
 30
0.0
 10
768.0168780266467
 20
272.4351728208657
 30
0.0
 10
768.1113305911109
 20
272.4373271196897
 30
0.0
 10
768.2092705200215
 20
272.4430154138436
 30
0.0
 10
768.3105740092298
 20
272.4527207246216
 30
0.0
 10
768.4123024716913
 20
272.4664075737952
 30
0.0
 10
768.5123629874727
 20
272.4838978904713
 30
0.0
 10
768.5951561766714
 20
272.5017723370918
 30
0.0
 10
768.6631154616914
 20
272.5186076676401
 30
0.0
 10
768.7190273691579
 20
272.5338214796047
 30
0.0
 10
768.7775588207878
 20
272.5513531765179
 30
0.0
 10
768.835641211976
 20
272.5704285443593
 30
0.0
 10
768.8818389732602
 20
272.586971150945
 30
0.0
 10
768.9164814702499
 20
272.6001195744686
 30
0.0
 10
768.943975475673
 20
272.6109240671522
 30
0.0
 10
768.9750087354133
 20
272.6236378674856
 30
0.0
 10
769.0057669298787
 20
272.6368557233514
 30
0.0
 10
769.0340969718262
 20
272.64953614857
 30
0.0
 10
769.0638267185213
 20
272.6633158264613
 30
0.0
 10
769.1019620080286
 20
272.681817540679
 30
0.0
 10
769.1513196214329
 20
272.7071013888801
 30
0.0
 10
769.1870257087716
 20
272.7272454704566
 30
0.0
 10
769.2068290009604
 20
272.7384177708421
 30
0.0
  0
LINE
  5
15D
330
1F
100
AcDbEntity
  8
0
  6
Continuous
 62
     7
370
    30
100
AcDbLine
 10
716.859997202
 20
301.5638848258
 30
0.0
 11
766.7930417491
 21
272.7381517816
 31
0.0
  0
LINE
  5
15E
330
1F
100
AcDbEntity
  8
0
  6
Continuous
 62
     7
370
    30
100
AcDbLine
 10
769.2069584517
 20
272.7381518976
 30
0.0
 11
819.1400028388
 21
301.5638848493
 31
0.0
  0
LINE
  5
15F
330
1F
100
AcDbEntity
  8
0
  6
Continuous
 62
     7
370
    30
100
AcDbLine
 10
715.7955445368
 20
311.7998837911
 30
0.0
 11
716.0677004951
 21
302.7974636676
 31
0.0
  0
LINE
  5
160
330
1F
100
AcDbEntity
  8
0
  6
Continuous
 62
     7
370
    30
100
AcDbLine
 10
819.9322995049
 20
302.7974636683
 30
0.0
 11
820.2044554632
 21
311.7998837911
 31
0.0
  0
SPLINE
  5
161
330
1F
100
AcDbEntity
  8
0
  6
Continuous
 62
     7
370
    30
100
AcDbSpline
210
0.0
220
0.0
230
1.0
 70
     8
 71
     3
 72
    31
 73
    27
 74
     0
 42
0.000000001
 43
0.00000001
 40
0.0
 40
0.0
 40
0.0
 40
0.0
 40
0.0636118303289932
 40
0.1182856530823491
 40
0.1637322752165586
 40
0.1997271418063568
 40
0.2297254920478007
 40
0.2569632390735568
 40
0.281403738651857
 40
0.3049712847976764
 40
0.3725080716401581
 40
0.4475981089554601
 40
0.5248862962018908
 40
0.5720185696316192
 40
0.6198926948370852
 40
0.6697764944299854
 40
0.7202890294980482
 40
0.7678164745812878
 40
0.8050407105836674
 40
0.8396819819248088
 40
0.8730592457458708
 40
0.8884895870987088
 40
0.9047841609227438
 40
0.9282677247111056
 40
0.9600026068114133
 40
1.0
 40
1.0
 40
1.0
 40
1.0
 10
819.1398695939292
 20
301.5641485764692
 30
0.0
 10
819.1682365039986
 20
301.5810837306846
 30
0.0
 10
819.2209845300517
 20
301.6125745047442
 30
0.0
 10
819.2901905028218
 20
301.6600387547848
 30
0.0
 10
819.3457400668585
 20
301.7014177832761
 30
0.0
 10
819.3899026469874
 20
301.7368859754173
 30
0.0
 10
819.4260114946679
 20
301.7676712068898
 30
0.0
 10
819.4568478756847
 20
301.7953822374828
 30
0.0
 10
819.4846700819757
 20
301.8216091542149
 30
0.0
 10
819.5265489435129
 20
301.8629062912152
 30
0.0
 10
819.5842195640141
 20
301.9249267136772
 30
0.0
 10
819.6545650645056
 20
302.0121162035343
 30
0.0
 10
819.712107477136
 20
302.0959959487793
 30
0.0
 10
819.7569643754395
 20
302.1715342314486
 30
0.0
 10
819.7914448011687
 20
302.2369484559603
 30
0.0
 10
819.8231535469898
 20
302.3057203139215
 30
0.0
 10
819.8509662580386
 20
302.3760174317161
 30
0.0
 10
819.8728648495076
 20
302.4416362311365
 30
0.0
 10
819.88942028194
 20
302.5004494389522
 30
0.0
 10
819.9018981018728
 20
302.5528739702062
 30
0.0
 10
819.9101800368093
 20
302.5948204288645
 30
0.0
 10
819.9157237961891
 20
302.6277111761511
 30
0.0
 10
819.9199236004785
 20
302.6556977155051
 30
0.0
 10
819.9245135166957
 20
302.6920874193171
 30
0.0
 10
819.9292255745208
 20
302.7406924440893
 30
0.0
 10
819.9308070252484
 20
302.7774283575853
 30
0.0
 10
819.9316888306325
 20
302.7979120348466
 30
0.0
  0
SPLINE
  5
162
330
1F
100
AcDbEntity
  8
0
  6
Continuous
 62
     7
370
    30
100
AcDbSpline
210
0.0
220
0.0
230
1.0
 70
     8
 71
     3
 72
    30
 73
    26
 74
     0
 42
0.000000001
 43
0.00000001
 40
0.0
 40
0.0
 40
0.0
 40
0.0
 40
0.0421587025882047
 40
0.0750224196618328
 40
0.0986050847222421
 40
0.1152382846962803
 40
0.1316607618079549
 40
0.1483008821630945
 40
0.1886721258717679
 40
0.232183247329313
 40
0.279659674711071
 40
0.3301484331985116
 40
0.3800392272238043
 40
0.4279201813462922
 40
0.4750593177669447
 40
0.5523584921321196
 40
0.6274583038748984
 40
0.6950053821074063
 40
0.7219007679992657
 40
0.7505268710078101
 40
0.7827905293119805
 40
0.8196689639435095
 40
0.8677739462524303
 40
0.9280222307468498
 40
1.0
 40
1.0
 40
1.0
 40
1.0
 10
716.0683111058277
 20
302.7978972768433
 30
0.0
 10
716.0692553500608
 20
302.7763073957213
 30
0.0
 10
716.0709356552592
 20
302.73788768585
 30
0.0
 10
716.0759788804114
 20
302.6875666355274
 30
0.0
 10
716.0808114904486
 20
302.6503982121112
 30
0.0
 10
716.0852363962277
 20
302.6217100355081
 30
0.0
 10
716.0895892698444
 20
302.5966245007365
 30
0.0
 10
716.0967207773235
 20
302.5596911734739
 30
0.0
 10
716.1081210677053
 20
302.5094804874989
 30
0.0
 10
716.126109673489
 20
302.4446991041531
 30
0.0
 10
716.1490118901888
 20
302.3760670222517
 30
0.0
 10
716.1768068588283
 20
302.3058011817129
 30
0.0
 10
716.2085083086193
 20
302.2370320433325
 30
0.0
 10
716.2429893077345
 20
302.1716068681724
 30
0.0
 10
716.2878483123565
 20
302.0960560447676
 30
0.0
 10
716.3453945382722
 20
302.0121634044677
 30
0.0
 10
716.415747229338
 20
301.9249603828559
 30
0.0
 10
716.4745755851621
 20
301.8616922124187
 30
0.0
 10
716.5192520961451
 20
301.8177749736885
 30
0.0
 10
716.5518458836194
 20
301.7873578801558
 30
0.0
 10
716.5890816068363
 20
301.7545107048119
 30
0.0
 10
716.6350570460329
 20
301.7164251793851
 30
0.0
 10
716.693634249842
 20
301.6715856263953
 30
0.0
 10
716.7692078835604
 20
301.6186639855727
 30
0.0
 10
716.8280821197686
 20
301.5833640905119
 30
0.0
 10
716.8601305403988
 20
301.5641484546418
 30
0.0
  0
LINE
  5
163
330
1F
100
AcDbEntity
  8
0
  6
Continuous
 62
     7
370
    30
100
AcDbLine
 10
893.0
 20
161.413206954
 30
0.0
 11
893.0
 21
167.945533449
 31
0.0
  0
LINE
  5
164
330
1F
100
AcDbEntity
  8
0
  6
Continuous
 62
     7
370
    30
100
AcDbLine
 10
643.0
 20
167.945533449
 30
0.0
 11
643.0
 21
161.413206954
 31
0.0
  0
SPLINE
  5
165
330
1F
100
AcDbEntity
  8
0
  6
Continuous
 62
     7
370
    30
100
AcDbSpline
210
0.0
220
0.0
230
1.0
 70
     8
 71
     3
 72
   498
 73
   494
 74
     0
 42
0.000000001
 43
0.00000001
 40
0.0
 40
0.0
 40
0.0
 40
0.0
 40
0.0001388663364626
 40
0.0021527082021567
 40
0.004166553068174
 40
0.0061804243358745
 40
0.0081943465773391
 40
0.0102083442543142
 40
0.0122224416676504
 40
0.0142366629074027
 40
0.0162510318036626
 40
0.0182655718782943
 40
0.0202803062978917
 40
0.0222952578278671
 40
0.0243104487880614
 40
0.0263259010099627
 40
0.0283416357955254
 40
0.0303576738779666
 40
0.0323740353844702
 40
0.0343907398009913
 40
0.0364078059392648
 40
0.0384252519061326
 40
0.0404430950751284
 40
0.0424613520606309
 40
0.0444800386944193
 40
0.0464991700047945
 40
0.0485187601982675
 40
0.0505388226438598
 40
0.0525593698599682
 40
0.0545804135038546
 40
0.0566019643637226
 40
0.0586240323533317
 40
0.0606466265091682
 40
0.0626697549900842
 40
0.0646934250792977
 40
0.0667176431888432
 40
0.0687424148662707
 40
0.070767744803459
 40
0.0727936368476601
 40
0.0748200940144434
 40
0.0768471185026395
 40
0.0788747117109625
 40
0.0809028742563953
 40
0.082931605994112
 40
0.0849609060388446
 40
0.0869907727875199
 40
0.089021203943157
 40
0.0910521965397545
 40
0.0930837469681909
 40
0.0951158510028597
 40
0.0971485038290621
 40
0.0991817000709176
 40
0.1012154338197138
 40
0.1032496986626552
 40
0.1052844877117446
 40
0.1073197936328366
 40
0.1093556086746531
 40
0.111391924697718
 40
0.1134287332031031
 40
0.1154660253609365
 40
0.1175037920384437
 40
0.1195420238276624
 40
0.1215807110725724
 40
0.1236198438957224
 40
0.1256594122240925
 40
0.1276994058144436
 40
0.1297398142777773
 40
0.1317806271030688
 40
0.1338218336802352
 40
0.1358634233221633
 40
0.1379053852859592
 40
0.1399477087932168
 40
0.1419903830494225
 40
0.1440333972625107
 40
0.1460767406603048
 40
0.1481204025072526
 40
0.1501643721200762
 40
0.1522086388825858
 40
0.1542531922595173
 40
0.1562980218095357
 40
0.1583431171973428
 40
0.1603884682048127
 40
0.1624340647414646
 40
0.1644798968539235
 40
0.1665259547346644
 40
0.1685722287300202
 40
0.1706187093473011
 40
0.1726653872613343
 40
0.1747122533201562
 40
0.1767592985501559
 40
0.1788065141605111
 40
0.1808538915470056
 40
0.1829014222952891
 40
0.1849490981835514
 40
0.1869969111846862
 40
0.1890448534679429
 40
0.1910929174001226
 40
0.1931410955463018
 40
0.195189380670174
 40
0.1972377657339915
 40
0.1992862438980814
 40
0.2013348085201744
 40
0.2033834531542457
 40
0.2054321715491446
 40
0.2074809576470024
 40
0.209529805581327
 40
0.211578709674879
 40
0.213627664437374
 40
0.2156766645629786
 40
0.2177257049276654
 40
0.21977478058636
 40
0.2218238867700331
 40
0.2238730188826411
 40
0.2259221724979297
 40
0.2279713433562134
 40
0.2300205273610558
 40
0.2320697205758494
 40
0.2341189192204055
 40
0.236168119238759
 40
0.2382173164544767
 40
0.2402665075836542
 40
0.2423156894835146
 40
0.2443648591489784
 40
0.2464140137090698
 40
0.2484631504234524
 40
0.2505122666788661
 40
0.252561359985727
 40
0.254610427974635
 40
0.2566594683929952
 40
0.2587084791016507
 40
0.2607574580715256
 40
0.262806403380429
 40
0.26485531320973
 40
0.2669041858412519
 40
0.2689530196541315
 40
0.2710018131217752
 40
0.2730505648088107
 40
0.2750992733681906
 40
0.2771479375382971
 40
0.2791965561400943
 40
0.2812451280744009
 40
0.2832936523192013
 40
0.2853421279269683
 40
0.2873905540221363
 40
0.2894389297986164
 40
0.2914872545172859
 40
0.2935355275036755
 40
0.2955837481456209
 40
0.2976319158910418
 40
0.2996800302457402
 40
0.3017280907712413
 40
0.3037760970828021
 40
0.3058240488473365
 40
0.3078719457814745
 40
0.309919787649733
 40
0.3119675742626236
 40
0.3140153054749029
 40
0.3160629811838417
 40
0.3181106013275699
 40
0.3201581658834785
 40
0.3222056748666109
 40
0.3242531283282074
 40
0.3263005263542076
 40
0.3283478690638646
 40
0.3303951566083757
 40
0.3324423891695329
 40
0.3344895669585186
 40
0.3365366902145984
 40
0.3385837592039895
 40
0.3406307742187167
 40
0.3426777355754669
 40
0.3447246436145762
 40
0.3467714986989644
 40
0.3488183012131619
 40
0.3508650515623885
 40
0.3529117501715887
 40
0.3549583974845648
 40
0.3570049939631393
 40
0.3590515400863405
 40
0.3610980363495849
 40
0.3631444832639822
 40
0.365190881355541
 40
0.3672372311645066
 40
0.3692835332446854
 40
0.3713297881628113
 40
0.3733759964978998
 40
0.3754221588406927
 40
0.377468275793055
 40
0.3795143479674424
 40
0.3815603759863792
 40
0.3836063604819567
 40
0.3856523020953478
 40
0.3876982014763474
 40
0.3897440592829196
 40
0.3917898761808275
 40
0.3938356528431585
 40
0.3958813899499671
 40
0.3979270881879249
 40
0.3999727482499424
 40
0.4020183708348506
 40
0.4040639566470464
 40
0.4061095063962395
 40
0.4081550207970978
 40
0.4102005005690127
 40
0.4122459464358247
 40
0.4142913591255366
 40
0.4163367393701237
 40
0.4183820879052556
 40
0.4204274054701144
 40
0.4224726928071644
 40
0.42451795066196
 40
0.4265631797829626
 40
0.4286083809213421
 40
0.430653554830848
 40
0.4326987022676023
 40
0.4347438239899836
 40
0.4367889207584741
 40
0.4388339933354959
 40
0.4408790424853288
 40
0.44292406897395
 40
0.4449690735689394
 40
0.4470140570393664
 40
0.4490590201556838
 40
0.4511039636896414
 40
0.4531488884141842
 40
0.455193795103371
 40
0.4572386845322933
 40
0.4592835574770063
 40
0.4613284147144399
 40
0.4633732570223731
 40
0.4654180851793014
 40
0.4674628999644526
 40
0.4695077021576892
 40
0.4715524925394716
 40
0.473597271890785
 40
0.4756420409931418
 40
0.477686800628501
 40
0.4797315515792234
 40
0.4817762946280543
 40
0.4838210305580961
 40
0.4858657601527507
 40
0.4879104841956997
 40
0.4899552034708637
 40
0.4919999187623872
 40
0.4940446308546121
 40
0.4960893405320447
 40
0.4981340485793023
 40
0.5001787557811622
 40
0.5022234629224426
 40
0.5042681706359748
 40
0.5063128795971575
 40
0.5083575905909654
 40
0.5104023044023672
 40
0.5124470218163075
 40
0.5144917436176912
 40
0.5165364705913371
 40
0.5185812035219575
 40
0.5206259431941367
 40
0.5226706903923144
 40
0.5247154459007132
 40
0.5267602105033535
 40
0.5288049849839805
 40
0.5308497701260738
 40
0.5328945667127604
 40
0.5349393755267989
 40
0.5369841973505493
 40
0.5390290329658812
 40
0.5410738831541774
 40
0.543118748696249
 40
0.5451636303722981
 40
0.5472085289618461
 40
0.5492534452436636
 40
0.5512983799957298
 40
0.5533433339951382
 40
0.5553883080180141
 40
0.5574333028394641
 40
0.559478319233459
 40
0.5615233579727681
 40
0.5635684198288259
 40
0.5656135055716661
 40
0.5676586159698017
 40
0.5697037517900788
 40
0.571748913797599
 40
0.573794102755559
 40
0.5758393194251347
 40
0.5778845645652948
 40
0.5799298389327036
 40
0.581975143281521
 40
0.5840204783632407
 40
0.5860658449265106
 40
0.588111243716946
 40
0.5901566754769036
 40
0.5922021409453277
 40
0.5942476408574747
 40
0.5962931759446991
 40
0.5983387469342131
 40
0.6003843545488352
 40
0.602429999506696
 40
0.6044756825209936
 40
0.6065214042996591
 40
0.6085671655450683
 40
0.6106129669537147
 40
0.612658809215857
 40
0.614704693015184
 40
0.6167506190284059
 40
0.6187965879249135
 40
0.620842600366319
 40
0.6228886570060648
 40
0.624934758488968
 40
0.6269809054507528
 40
0.6290270985175662
 40
0.6310733383054703
 40
0.6331196254198942
 40
0.6351659604551396
 40
0.6372123439937365
 40
0.6392587766058987
 40
0.641305258848861
 40
0.6433517912662412
 40
0.645398374387394
 40
0.6474450087266425
 40
0.6494916947825986
 40
0.6515384330373928
 40
0.6535852239558445
 40
0.6556320679846777
 40
0.6576789655516506
 40
0.65972591706465
 40
0.6617729229107987
 40
0.6638199834554571
 40
0.6658670990412383
 40
0.6679142699869987
 40
0.6699614965867374
 40
0.6720087791084688
 40
0.6740561177931114
 40
0.6761035128532451
 40
0.6781509644719197
 40
0.6801984728013225
 40
0.6822460379614735
 40
0.6842936600388424
 40
0.6863413390849401
 40
0.6883890751148084
 40
0.6904368681055385
 40
0.6924847179946539
 40
0.6945326246785222
 40
0.6965805880106435
 40
0.6986286077999416
 40
0.7006766838089458
 40
0.7027248157519479
 40
0.7047730032930983
 40
0.7068212460444645
 40
0.7088695435639649
 40
0.7109178953533116
 40
0.7129663008558554
 40
0.7150147594543613
 40
0.7170632704687726
 40
0.7191118331538496
 40
0.7211604466967653
 40
0.7232091102146591
 40
0.7252578227521236
 40
0.727306583278556
 40
0.7293553906855577
 40
0.7314042437842061
 40
0.7334531413022487
 40
0.7355020818812709
 40
0.7375510640737707
 40
0.7396000863402027
 40
0.7416491470459676
 40
0.7436982444582523
 40
0.7457473767429615
 40
0.7477965419614535
 40
0.7498457380673345
 40
0.7518949629030977
 40
0.753944214196836
 40
0.7559934895587835
 40
0.7580427864779151
 40
0.7600921023184559
 40
0.7621414343164082
 40
0.7641907795759656
 40
0.7662401350660552
 40
0.7682894976166598
 40
0.770338863915354
 40
0.7723882295591774
 40
0.7744375906490901
 40
0.7764869433722108
 40
0.7785362837578771
 40
0.7805856076741459
 40
0.7826349108244071
 40
0.7846841887440371
 40
0.7867334367970777
 40
0.788782650173105
 40
0.790831823884109
 40
0.792880952761519
 40
0.7949300314534169
 40
0.7969790544217851
 40
0.7990280159400586
 40
0.8010769100907617
 40
0.803125730763377
 40
0.8051744716525026
 40
0.8072231262561415
 40
0.8092716878743585
 40
0.8113201496082073
 40
0.8133685043589471
 40
0.8154167448276487
 40
0.8174648635150866
 40
0.8195128527221527
 40
0.8215607045505455
 40
0.823608410904053
 40
0.8256559634901768
 40
0.8277033538223696
 40
0.8297505732227419
 40
0.8317976128253906
 40
0.8338444635802303
 40
0.8358911162575383
 40
0.8379375614531226
 40
0.8399837895941393
 40
0.8420297909456593
 40
0.8440755556179896
 40
0.8461210735746617
 40
0.8481663346413271
 40
0.8502113285153738
 40
0.8522560447764889
 40
0.8543004728979291
 40
0.856344602258827
 40
0.8583884221572737
 40
0.8604319218243714
 40
0.8624750904391908
 40
0.864517917144668
 40
0.8665603910643975
 40
0.8686025013204394
 40
0.8706442370519525
 40
0.8726855874348471
 40
0.8747265417023334
 40
0.8767670891662978
 40
0.8788072192396746
 40
0.880846921459573
 40
0.8828861855112714
 40
0.8849250012529704
 40
0.8869633587413028
 40
0.8890012482575416
 40
0.8910386603344164
 40
0.8930755857835434
 40
0.8951120157232892
 40
0.8971479416071726
 40
0.8991833552525464
 40
0.9012182488695915
 40
0.9032526150904279
 40
0.905286446998408
 40
0.9073197381573123
 40
0.909352482640437
 40
0.9113846750595174
 40
0.9134163105931628
 40
0.915447385014977
 40
0.9174778947209996
 40
0.9195078367564278
 40
0.9215372088416076
 40
0.9235660093968866
 40
0.9255942375665693
 40
0.927621893241475
 40
0.9296489770802878
 40
0.9316754905293482
 40
0.9337014358409016
 40
0.9357268160896295
 40
0.937751635187292
 40
0.9397758978955729
 40
0.9417996098367138
 40
0.943822777502154
 40
0.9458454082588672
 40
0.9478675103533923
 40
0.9498890929135082
 40
0.9519101659474377
 40
0.9539307403405792
 40
0.955950827849607
 40
0.9579704410941168
 40
0.9599895935455209
 40
0.9620082995134805
 40
0.9640265741295833
 40
0.9660444333285019
 40
0.9680618938265703
 40
0.9700789730977631
 40
0.9720956893472504
 40
0.9741120614824842
 40
0.9761281090819451
 40
0.9781438523616133
 40
0.9801593121392211
 40
0.9821745097965414
 40
0.9841894672395829
 40
0.9862042068571034
 40
0.9882187514772833
 40
0.9902331243230277
 40
0.9922473489656874
 40
0.9942614492776868
 40
0.99627544938403
 40
0.9982893736129174
 40
1.0
 40
1.0
 40
1.0
 40
1.0
 10
643.0003660761844
 20
161.2813818957305
 30
0.0
 10
643.0003450818914
 20
161.2706108291613
 30
0.0
 10
643.000019628022
 20
161.1036375803509
 30
0.0
 10
643.0041542249845
 20
160.7804649097921
 30
0.0
 10
643.0131622437887
 20
160.3118913632588
 30
0.0
 10
643.0278387848754
 20
159.8433658490367
 30
0.0
 10
643.0474716268702
 20
159.374905814362
 30
0.0
 10
643.0722508765243
 20
158.9065286207804
 30
0.0
 10
643.1021247352006
 20
158.4382516416644
 30
0.0
 10
643.1371061032016
 20
157.9700922699786
 30
0.0
 10
643.1771904186987
 20
157.5020679243823
 30
0.0
 10
643.2223776712189
 20
157.0341960555867
 30
0.0
 10
643.2726664990209
 20
156.5664941524192
 30
0.0
 10
643.3280557667075
 20
156.0989797476942
 30
0.0
 10
643.3885441377661
 20
155.6316704238298
 30
0.0
 10
643.4541301839388
 20
155.164583818193
 30
0.0
 10
643.5248123502578
 20
154.6977376281383
 30
0.0
 10
643.6005889583215
 20
154.2311496157264
 30
0.0
 10
643.6814581989187
 20
153.7648376120897
 30
0.0
 10
643.7674181271376
 20
153.2988195214319
 30
0.0
 10
643.8584666564775
 20
152.8331133246361
 30
0.0
 10
643.9546015529359
 20
152.3677370824756
 30
0.0
 10
644.0558204288466
 20
151.9027089384007
 30
0.0
 10
644.1621207365765
 20
151.4380471209051
 30
0.0
 10
644.2734997620882
 20
150.9737699454467
 30
0.0
 10
644.3899546184117
 20
150.5098958159316
 30
0.0
 10
644.511482239054
 20
150.0464432257448
 30
0.0
 10
644.6380793713839
 20
149.5834307583365
 30
0.0
 10
644.7697425700203
 20
149.1208770873541
 30
0.0
 10
644.9064681902593
 20
148.6588009763348
 30
0.0
 10
645.0482523815699
 20
148.197221277954
 30
0.0
 10
645.1950910811923
 20
147.7361569328427
 30
0.0
 10
645.3469800078616
 20
147.2756269679815
 30
0.0
 10
645.5039146556912
 20
146.8156504946872
 30
0.0
 10
645.66589028824
 20
146.3562467062007
 30
0.0
 10
645.8329019327876
 20
145.8974348748941
 30
0.0
 10
646.0049443748436
 20
145.4392343491129
 30
0.0
 10
646.1820121529086
 20
144.9816645496767
 30
0.0
 10
646.3640995535101
 20
144.5247449660546
 30
0.0
 10
646.551200606529
 20
144.0684951522334
 30
0.0
 10
646.7433090808332
 20
143.6129347223103
 30
0.0
 10
646.9404184802305
 20
143.1580833458257
 30
0.0
 10
647.1425220397526
 20
142.7039607428649
 30
0.0
 10
647.3496127222819
 20
142.2505866789457
 30
0.0
 10
647.5616832155245
 20
141.7979809597277
 30
0.0
 10
647.7787259293369
 20
141.3461634255577
 30
0.0
 10
648.0007329934086
 20
140.8951539458873
 30
0.0
 10
648.2276962553028
 20
140.4449724135743
 30
0.0
 10
648.4596072788514
 20
139.9956387391049
 30
0.0
 10
648.6964573429076
 20
139.5471728447527
 30
0.0
 10
648.938237440444
 20
139.0995946587022
 30
0.0
 10
649.1849382779966
 20
138.6529241091612
 30
0.0
 10
649.4365502754429
 20
138.2071811184769
 30
0.0
 10
649.6930635661089
 20
137.7623855972864
 30
0.0
 10
649.9544679971921
 20
137.3185574387124
 30
0.0
 10
650.2207531304882
 20
136.8757165126325
 30
0.0
 10
650.4919082434133
 20
136.4338826600334
 30
0.0
 10
650.767922330302
 20
135.9930756874713
 30
0.0
 10
651.0487841039746
 20
135.5533153616473
 30
0.0
 10
651.3344819975517
 20
135.1146214041211
 30
0.0
 10
651.6250041665052
 20
134.6770134861684
 30
0.0
 10
651.9203384909265
 20
134.2405112238019
 30
0.0
 10
652.2204725780017
 20
133.8051341729518
 30
0.0
 10
652.5253937646688
 20
133.3709018248348
 30
0.0
 10
652.8350891204495
 20
132.9378336014977
 30
0.0
 10
653.1495454504325
 20
132.5059488515639
 30
0.0
 10
653.4687492983963
 20
132.0752668461669
 30
0.0
 10
653.7926869500529
 20
131.6458067750926
 30
0.0
 10
654.1213444363989
 20
131.2175877431216
 30
0.0
 10
654.4547075371578
 20
130.790628766576
 30
0.0
 10
654.7927617842979
 20
130.3649487700771
 30
0.0
 10
655.1354924656118
 20
129.9405665835069
 30
0.0
 10
655.4828846283458
 20
129.5175009391718
 30
0.0
 10
655.8349230828625
 20
129.0957704691763
 30
0.0
 10
656.1915924063276
 20
128.6753937029867
 30
0.0
 10
656.552876946404
 20
128.2563890652038
 30
0.0
 10
656.9187608249516
 20
127.8387748735143
 30
0.0
 10
657.289227941708
 20
127.422569336842
 30
0.0
 10
657.6642619779536
 20
127.0077905536734
 30
0.0
 10
658.0438464001467
 20
126.5944565105615
 30
0.0
 10
658.4279644635171
 20
126.1825850808021
 30
0.0
 10
658.816599215618
 20
125.7721940232689
 30
0.0
 10
659.2097334998193
 20
125.363300981413
 30
0.0
 10
659.6073499587483
 20
124.9559234824046
 30
0.0
 10
660.0094310376602
 20
124.5500789364211
 30
0.0
 10
660.415958987743
 20
124.1457846360717
 30
0.0
 10
660.8269158693489
 20
123.743057755943
 30
0.0
 10
661.2422835551425
 20
123.3419153522763
 30
0.0
 10
661.6620437331753
 20
122.9423743627486
 30
0.0
 10
662.086177909872
 20
122.5444516063635
 30
0.0
 10
662.5146674129364
 20
122.148163783439
 30
0.0
 10
662.9474933941679
 20
121.7535274756865
 30
0.0
 10
663.3846368321887
 20
121.3605591463757
 30
0.0
 10
663.8260785350878
 20
120.9692751405754
 30
0.0
 10
664.2717991429719
 20
120.5796916854643
 30
0.0
 10
664.72177913043
 20
120.1918248907072
 30
0.0
 10
665.1759988089118
 20
119.8056907488891
 30
0.0
 10
665.6344383290151
 20
119.4213051359985
 30
0.0
 10
666.0970776826938
 20
119.0386838119593
 30
0.0
 10
666.5638967053729
 20
118.6578424212037
 30
0.0
 10
667.0348750779912
 20
118.2787964932747
 30
0.0
 10
667.5099923289534
 20
117.9015614434657
 30
0.0
 10
667.9892278360101
 20
117.5261525734788
 30
0.0
 10
668.4725608280551
 20
117.1525850721105
 30
0.0
 10
668.959970386854
 20
116.7808740159458
 30
0.0
 10
669.4514354486997
 20
116.4110343700689
 30
0.0
 10
669.9469348059938
 20
116.0430809887827
 30
0.0
 10
670.4464471087646
 20
115.6770286163323
 30
0.0
 10
670.9499508661218
 20
115.3128918876284
 30
0.0
 10
671.4574244476456
 20
114.9506853289729
 30
0.0
 10
671.9688460847209
 20
114.5904233587757
 30
0.0
 10
672.4841938718114
 20
114.232120288269
 30
0.0
 10
673.0034457676846
 20
113.875790322208
 30
0.0
 10
673.5265795965822
 20
113.5214475595638
 30
0.0
 10
674.0535730493434
 20
113.1691059942004
 30
0.0
 10
674.5844036844834
 20
112.8187795155383
 30
0.0
 10
675.1190489292279
 20
112.4704819091997
 30
0.0
 10
675.6574860429585
 20
112.1242268817849
 30
0.0
 10
676.19969209292
 20
111.7800280758002
 30
0.0
 10
676.7456440191277
 20
111.4378990273921
 30
0.0
 10
677.2953186740772
 20
111.0978531435423
 30
0.0
 10
677.8486928496504
 20
110.7599036888497
 30
0.0
 10
678.4057432119721
 20
110.4240638279169
 30
0.0
 10
678.9664463022107
 20
110.0903466258386
 30
0.0
 10
679.530778537338
 20
109.7587650486748
 30
0.0
 10
680.0987162108806
 20
109.4293319638918
 30
0.0
 10
680.6702354936438
 20
109.1020601407845
 30
0.0
 10
681.245312434424
 20
108.7769622508669
 30
0.0
 10
681.8239229607029
 20
108.4540508682435
 30
0.0
 10
682.4060428793275
 20
108.1333384699533
 30
0.0
 10
682.9916478771823
 20
107.8148374362862
 30
0.0
 10
683.580713521845
 20
107.4985600510802
 30
0.0
 10
684.1732152622398
 20
107.1845185019879
 30
0.0
 10
684.7691284292757
 20
106.8727248807255
 30
0.0
 10
685.3684282364899
 20
106.5631911832901
 30
0.0
 10
685.9710897806746
 20
106.2559293101605
 30
0.0
 10
686.5770880425084
 20
105.9509510664712
 30
0.0
 10
687.1863978871813
 20
105.6482681621646
 30
0.0
 10
687.7989940650206
 20
105.347892212121
 30
0.0
 10
688.4148512121158
 20
105.0498347362686
 30
0.0
 10
689.0339438509441
 20
104.7541071596687
 30
0.0
 10
689.6562463909978
 20
104.4607208125848
 30
0.0
 10
690.2817331294142
 20
104.169686930529
 30
0.0
 10
690.9103782516095
 20
103.8810166542895
 30
0.0
 10
691.5421558319157
 20
103.5947210299402
 30
0.0
 10
692.1770398342236
 20
103.3108110088312
 30
0.0
 10
692.815004112625
 20
103.0292974475643
 30
0.0
 10
693.4560224120738
 20
102.7501911079471
 30
0.0
 10
694.1000683690414
 20
102.4735026569339
 30
0.0
 10
694.747115512184
 20
102.1992426665518
 30
0.0
 10
695.3971372630194
 20
101.9274216138089
 30
0.0
 10
696.0501069366056
 20
101.6580498805906
 30
0.0
 10
696.7059977422332
 20
101.3911377535406
 30
0.0
 10
697.3647827841245
 20
101.1266954239299
 30
0.0
 10
698.0264350621412
 20
100.8647329875118
 30
0.0
 10
698.690927472505
 20
100.6052604443647
 30
0.0
 10
699.3582328085187
 20
100.3482876987267
 30
0.0
 10
700.0283237613056
 20
100.0938245588153
 30
0.0
 10
700.7011729205578
 20
99.84188073663918
 30
0.0
 10
701.3767527752892
 20
99.5924658477992
 30
0.0
 10
702.0550357146047
 20
99.34558941128063
 30
0.0
 10
702.7359940284734
 20
99.10126084923787
 30
0.0
 10
703.4195999085209
 20
98.85948948676804
 30
0.0
 10
704.1058254488249
 20
98.62028455167993
 30
0.0
 10
704.7946426467219
 20
98.38365517425396
 30
0.0
 10
705.48602340363
 20
98.14961038699695
 30
0.0
 10
706.1799395258738
 20
97.91815912438953
 30
0.0
 10
706.8763627255285
 20
97.689310222628
 30
0.0
 10
707.5752646212692
 20
97.46307241936148
 30
0.0
 10
708.2766167392324
 20
97.23945435342368
 30
0.0
 10
708.9803905138899
 20
97.01846456456038
 30
0.0
 10
709.6865572889275
 20
96.80011149315385
 30
0.0
 10
710.3950883181402
 20
96.58440347994195
 30
0.0
 10
711.105954766337
 20
96.37134876573495
 30
0.0
 10
711.8191277102547
 20
96.16095549112966
 30
0.0
 10
712.5345781394803
 20
95.95323169622017
 30
0.0
 10
713.2522769573845
 20
95.74818532030932
 30
0.0
 10
713.9721949820681
 20
95.54582420161375
 30
0.0
 10
714.694302947315
 20
95.34615607697155
 30
0.0
 10
715.4185715035599
 20
95.14918858154614
 30
0.0
 10
716.1449712188573
 20
94.95492924853072
 30
0.0
 10
716.8734725798695
 20
94.76338550885255
 30
0.0
 10
717.6040459928536
 20
94.57456469087572
 30
0.0
 10
718.3366617846702
 20
94.3884740201049
 30
0.0
 10
719.0712902037922
 20
94.20512061888822
 30
0.0
 10
719.8079014213271
 20
94.02451150612212
 30
0.0
 10
720.5464655320455
 20
93.84665359695626
 30
0.0
 10
721.2869525554208
 20
93.67155370249941
 30
0.0
 10
722.0293324366745
 20
93.49921852952747
 30
0.0
 10
722.773575047834
 20
93.3296546801915
 30
0.0
 10
723.519650188796
 20
93.16286865172901
 30
0.0
 10
724.2675275883994
 20
92.99886683617564
 30
0.0
 10
725.017176905503
 20
92.83765552008106
 30
0.0
 10
725.7685677300797
 20
92.6792408842243
 30
0.0
 10
726.5216695843087
 20
92.52362900333408
 30
0.0
 10
727.2764519236806
 20
92.37082584581036
 30
0.0
 10
728.0328841381063
 20
92.2208372734504
 30
0.0
 10
728.7909355530378
 20
92.07366904117514
 30
0.0
 10
729.5505754305963
 20
91.92932679676099
 30
0.0
 10
730.3117729707002
 20
91.78781608057405
 30
0.0
 10
731.0744973122094
 20
91.6491423253079
 30
0.0
 10
731.8387175340667
 20
91.51331085572461
 30
0.0
 10
732.6044026564559
 20
91.38032688840067
 30
0.0
 10
733.3715216419582
 20
91.25019553147462
 30
0.0
 10
734.1400433967171
 20
91.12292178440073
 30
0.0
 10
734.909936771613
 20
90.99851053770624
 30
0.0
 10
735.6811705634364
 20
90.8769665727516
 30
0.0
 10
736.453713516076
 20
90.75829456149617
 30
0.0
 10
737.2275343217048
 20
90.64249906626797
 30
0.0
 10
738.0026016219757
 20
90.52958453953846
 30
0.0
 10
738.7788840092213
 20
90.41955532370038
 30
0.0
 10
739.5563500276567
 20
90.31241565085236
 30
0.0
 10
740.3349681745925
 20
90.2081696425866
 30
0.0
 10
741.1147069016479
 20
90.10682130978176
 30
0.0
 10
741.8955346159725
 20
90.0083745524017
 30
0.0
 10
742.6774196814681
 20
89.91283315929758
 30
0.0
 10
743.4603304200191
 20
89.82020080801684
 30
0.0
 10
744.2442351127248
 20
89.73048106461582
 30
0.0
 10
745.0291020011354
 20
89.64367738347842
 30
0.0
 10
745.8148992884959
 20
89.5597931071396
 30
0.0
 10
746.6015951409893
 20
89.47883146611419
 30
0.0
 10
747.3891576889864
 20
89.40079557873165
 30
0.0
 10
748.1775550282983
 20
89.32568845097519
 30
0.0
 10
748.9667552214324
 20
89.25351297632747
 30
0.0
 10
749.7567262988518
 20
89.18427193562123
 30
0.0
 10
750.5474362602365
 20
89.11796799689503
 30
0.0
 10
751.338853075751
 20
89.05460371525609
 30
0.0
 10
752.130944687311
 20
88.99418153274696
 30
0.0
 10
752.9236790098578
 20
88.9367037782186
 30
0.0
 10
753.7170239326281
 20
88.88217266721085
 30
0.0
 10
754.5109473204346
 20
88.83059030183452
 30
0.0
 10
755.3054170149412
 20
88.78195867066444
 30
0.0
 10
756.1004008359499
 20
88.73627964863375
 30
0.0
 10
756.8958665826777
 20
88.69355499693698
 30
0.0
 10
757.6917820350469
 20
88.65378636293808
 30
0.0
 10
758.4881149549706
 20
88.6169752800835
 30
0.0
 10
759.2848330876426
 20
88.58312316782282
 30
0.0
 10
760.0819041628254
 20
88.55223133153389
 30
0.0
 10
760.8792958961454
 20
88.52430096245494
 30
0.0
 10
761.6769759903876
 20
88.49933313762165
 30
0.0
 10
762.4749121367898
 20
88.47732881981123
 30
0.0
 10
763.273072016336
 20
88.45828885749185
 30
0.0
 10
764.0714233010553
 20
88.44221398477845
 30
0.0
 10
764.8699336553212
 20
88.42910482139402
 30
0.0
 10
765.6685707371504
 20
88.41896187263772
 30
0.0
 10
766.4673021994994
 20
88.4117855293588
 30
0.0
 10
767.2660956915684
 20
88.40757606793542
 30
0.0
 10
768.0649188600961
 20
88.40633365026171
 30
0.0
 10
768.8637393308629
 20
88.40805832369658
 30
0.0
 10
769.6625247155282
 20
88.41275002068885
 30
0.0
 10
770.4612426272207
 20
88.42040855862837
 30
0.0
 10
771.2598607016481
 20
88.43103364022856
 30
0.0
 10
772.0583465928579
 20
88.4446248538234
 30
0.0
 10
772.8566679602718
 20
88.4611816733058
 30
0.0
 10
773.6547924699863
 20
88.480703458156
 30
0.0
 10
774.4526877960704
 20
88.50318945347644
 30
0.0
 10
775.2503216218637
 20
88.52863879003256
 30
0.0
 10
776.0476616412767
 20
88.5570504842989
 30
0.0
 10
776.8446755600858
 20
88.58842343851303
 30
0.0
 10
777.6413310972299
 20
88.62275644073297
 30
0.0
 10
778.4375959861018
 20
88.66004816490347
 30
0.0
 10
779.2334379758473
 20
88.70029717092531
 30
0.0
 10
780.0288248326527
 20
88.7435019047335
 30
0.0
 10
780.8237243410365
 20
88.7896606983797
 30
0.0
 10
781.6181043051376
 20
88.8387717701202
 30
0.0
 10
782.4119325500006
 20
88.89083322451164
 30
0.0
 10
783.205176922863
 20
88.9458430525114
 30
0.0
 10
783.9978052944343
 20
89.00379913158335
 30
0.0
 10
784.7897855601825
 20
89.0646992258114
 30
0.0
 10
785.5810856416077
 20
89.12854098601736
 30
0.0
 10
786.3716734875186
 20
89.195321949884
 30
0.0
 10
787.1615170753057
 20
89.26503954208661
 30
0.0
 10
787.9505844122125
 20
89.33769107442701
 30
0.0
 10
788.7388435366015
 20
89.4132737459763
 30
0.0
 10
789.5262625192204
 20
89.49178464322006
 30
0.0
 10
790.3128094644618
 20
89.57322074021306
 30
0.0
 10
791.0984525116252
 20
89.65757889873582
 30
0.0
 10
791.8831598361659
 20
89.74485586845992
 30
0.0
 10
792.666899650951
 20
89.83504828711527
 30
0.0
 10
793.4496402075054
 20
89.92815268066737
 30
0.0
 10
794.231349797254
 20
90.02416546349556
 30
0.0
 10
795.0119967527643
 20
90.12308293857969
 30
0.0
 10
795.7915494489788
 20
90.22490129769025
 30
0.0
 10
796.5699763044519
 20
90.32961662158561
 30
0.0
 10
797.3472457825706
 20
90.43722488021211
 30
0.0
 10
798.1233263927812
 20
90.54772193291139
 30
0.0
 10
798.8981866918061
 20
90.66110352863122
 30
0.0
 10
799.6717952848587
 20
90.777365306143
 30
0.0
 10
800.4441208268496
 20
90.89650279426229
 30
0.0
 10
801.21513202359
 20
91.01851141207557
 30
0.0
 10
801.984797632988
 20
91.14338646917014
 30
0.0
 10
802.7530864662448
 20
91.27112316587157
 30
0.0
 10
803.5199673890385
 20
91.40171659348239
 30
0.0
 10
804.2854093227081
 20
91.53516173452746
 30
0.0
 10
805.0493812454257
 20
91.67145346300309
 30
0.0
 10
805.811852193368
 20
91.81058654463001
 30
0.0
 10
806.5727912618789
 20
91.95255563711136
 30
0.0
 10
807.3321676066279
 20
92.09735529039375
 30
0.0
 10
808.0899504447575
 20
92.24497994693334
 30
0.0
 10
808.8461090560304
 20
92.39542394196465
 30
0.0
 10
809.6006127839634
 20
92.54868150377368
 30
0.0
 10
810.3534310369598
 20
92.70474675397477
 30
0.0
 10
811.104533289432
 20
92.86361370779001
 30
0.0
 10
811.8538890829155
 20
93.02527627433282
 30
0.0
 10
812.6014680271805
 20
93.18972825689434
 30
0.0
 10
813.3472398013288
 20
93.35696335323202
 30
0.0
 10
814.091174154891
 20
93.52697515586303
 30
0.0
 10
814.8332409089073
 20
93.6997571523568
 30
0.0
 10
815.5734099570099
 20
93.87530272563485
 30
0.0
 10
816.3116512664877
 20
94.0536051542678
 30
0.0
 10
817.0479348793493
 20
94.23465761277788
 30
0.0
 10
817.7822309133708
 20
94.41845317194134
 30
0.0
 10
818.5145095631449
 20
94.60498479909398
 30
0.0
 10
819.2447411011115
 20
94.79424535843708
 30
0.0
 10
819.9728958785879
 20
94.98622761134573
 30
0.0
 10
820.6989443267803
 20
95.18092421667568
 30
0.0
 10
821.4228569577928
 20
95.37832773107338
 30
0.0
 10
822.144604365627
 20
95.57843060928528
 30
0.0
 10
822.8641572271677
 20
95.78122520446797
 30
0.0
 10
823.5814863031641
 20
95.98670376849664
 30
0.0
 10
824.2965624391962
 20
96.19485845227571
 30
0.0
 10
825.0093565666357
 20
96.40568130604626
 30
0.0
 10
825.7198397035935
 20
96.61916427969425
 30
0.0
 10
826.4279829558584
 20
96.83529922305603
 30
0.0
 10
827.1337575178261
 20
97.0540778862235
 30
0.0
 10
827.8371346734183
 20
97.27549191984724
 30
0.0
 10
828.5380857969869
 20
97.49953287543545
 30
0.0
 10
829.2365823542132
 20
97.72619220565237
 30
0.0
 10
829.9325959029921
 20
97.95546126461213
 30
0.0
 10
830.6260980943111
 20
98.18733130817125
 30
0.0
 10
831.3170606731106
 20
98.42179349421417
 30
0.0
 10
832.0054554791401
 20
98.65883888293692
 30
0.0
 10
832.6912544477973
 20
98.8984584371241
 30
0.0
 10
833.3744296109661
 20
99.14064302242464
 30
0.0
 10
834.0549530978316
 20
99.38538340761588
 30
0.0
 10
834.732797135693
 20
99.63267026486768
 30
0.0
 10
835.4079340507585
 20
99.88249416999464
 30
0.0
 10
836.0803362689377
 20
100.1348456027057
 30
0.0
 10
836.7499763166147
 20
100.3897149468437
 30
0.0
 10
837.4168268214165
 20
100.6470924906174
 30
0.0
 10
838.0808605129643
 20
100.906968426824
 30
0.0
 10
838.7420502236217
 20
101.1693328530653
 30
0.0
 10
839.4003688892257
 20
101.4341757719502
 30
0.0
 10
840.0557895498129
 20
101.7014870912911
 30
0.0
 10
840.7082853503298
 20
101.9712566242857
 30
0.0
 10
841.3578295413369
 20
102.2434740896896
 30
0.0
 10
842.004395479698
 20
102.5181291119749
 30
0.0
 10
842.647956629269
 20
102.7952112214789
 30
0.0
 10
843.2884865615687
 20
103.0747098545373
 30
0.0
 10
843.9259589564456
 20
103.3566143536047
 30
0.0
 10
844.5603476027323
 20
103.6409139673585
 30
0.0
 10
845.1916263988925
 20
103.9275978507897
 30
0.0
 10
845.8197693536639
 20
104.2166550652771
 30
0.0
 10
846.444750586689
 20
104.5080745786449
 30
0.0
 10
847.0665443291422
 20
104.8018452652029
 30
0.0
 10
847.6851249243466
 20
105.0979559057685
 30
0.0
 10
848.3004668283909
 20
105.396395187672
 30
0.0
 10
848.9125446107345
 20
105.6971517047394
 30
0.0
 10
849.5213329548133
 20
106.0002139572585
 30
0.0
 10
850.1268066586385
 20
106.3055703519219
 30
0.0
 10
850.7289406353976
 20
106.6132092017527
 30
0.0
 10
851.3277099140474
 20
106.9231187260033
 30
0.0
 10
851.9230896399062
 20
107.2352870500355
 30
0.0
 10
852.5150550752501
 20
107.5497022051748
 30
0.0
 10
853.1035815999096
 20
107.8663521285455
 30
0.0
 10
853.6886447118643
 20
108.1852246628766
 30
0.0
 10
854.2702200278452
 20
108.506307556287
 30
0.0
 10
854.8482832839356
 20
108.829588462041
 30
0.0
 10
855.422810336188
 20
109.155054938285
 30
0.0
 10
855.9937771612349
 20
109.4826944477501
 30
0.0
 10
856.5611598569221
 20
109.8124943574367
 30
0.0
 10
857.1249346429394
 20
110.1444419382637
 30
0.0
 10
857.6850778614731
 20
110.478524364699
 30
0.0
 10
858.2415659778642
 20
110.814728714355
 30
0.0
 10
858.7943755812896
 20
111.1530419675647
 30
0.0
 10
859.3434833854518
 20
111.4934510069231
 30
0.0
 10
859.8888662292999
 20
111.8359426168079
 30
0.0
 10
860.4305010777541
 20
112.1805034828668
 30
0.0
 10
860.9683650224733
 20
112.5271201914833
 30
0.0
 10
861.502435200585
 20
112.8757791756495
 30
0.0
 10
862.0326888550869
 20
113.2264667499377
 30
0.0
 10
862.5591033572191
 20
113.5791691231177
 30
0.0
 10
863.0816562868554
 20
113.9338724523386
 30
0.0
 10
863.6003253757373
 20
114.2905628057745
 30
0.0
 10
864.115088487701
 20
114.6492261482236
 30
0.0
 10
864.6259236196847
 20
115.0098483403999
 30
0.0
 10
865.132808902776
 20
115.3724151382069
 30
0.0
 10
865.6357226033094
 20
115.7369121919918
 30
0.0
 10
866.1346431240102
 20
116.1033250457838
 30
0.0
 10
866.629549005191
 20
116.4716391365183
 30
0.0
 10
867.1204189260051
 20
116.8418397932482
 30
0.0
 10
867.6072317057517
 20
117.213912236345
 30
0.0
 10
868.0899663052495
 20
117.5878415766944
 30
0.0
 10
868.568601828266
 20
117.9636128148843
 30
0.0
 10
869.0431175230176
 20
118.3412108403946
 30
0.0
 10
869.5134927837371
 20
118.720620430786
 30
0.0
 10
869.979707152311
 20
119.1018262508965
 30
0.0
 10
870.4417403199924
 20
119.4848128520443
 30
0.0
 10
870.8995721291902
 20
119.8695646712456
 30
0.0
 10
871.3531825753378
 20
120.2560660304522
 30
0.0
 10
871.8025518088442
 20
120.6443011358082
 30
0.0
 10
872.2476601371245
 20
121.034254076934
 30
0.0
 10
872.688488026721
 20
121.4259088262457
 30
0.0
 10
873.1250161055053
 20
121.8192492383065
 30
0.0
 10
873.5572251649791
 20
122.2142590492305
 30
0.0
 10
873.9850961626523
 20
122.6109218761267
 30
0.0
 10
874.4086102245243
 20
123.0092212166062
 30
0.0
 10
874.8277486476468
 20
123.4091404483455
 30
0.0
 10
875.2424929027882
 20
123.8106628287262
 30
0.0
 10
875.6528246371822
 20
124.2137714945436
 30
0.0
 10
876.0587256773713
 20
124.6184494618015
 30
0.0
 10
876.4601780321409
 20
125.0246796255975
 30
0.0
 10
876.8571638955427
 20
125.4324447601076
 30
0.0
 10
877.2496656500064
 20
125.841727518673
 30
0.0
 10
877.6376658695356
 20
126.2525104340065
 30
0.0
 10
878.021147322986
 20
126.664775918513
 30
0.0
 10
878.4000929774234
 20
127.0785062647448
 30
0.0
 10
878.7744860015507
 20
127.4936836459866
 30
0.0
 10
879.144309769215
 20
127.9102901169971
 30
0.0
 10
879.509547862969
 20
128.3283076148903
 30
0.0
 10
879.8701840776977
 20
128.7477179601885
 30
0.0
 10
880.2262024242899
 20
129.1685028580319
 30
0.0
 10
880.5775871333597
 20
129.590643899572
 30
0.0
 10
880.9243226589978
 20
130.0141225635395
 30
0.0
 10
881.2663936825536
 20
130.4389202180053
 30
0.0
 10
881.6037851164301
 20
130.865018122331
 30
0.0
 10
881.9364821078876
 20
131.2923974293224
 30
0.0
 10
882.2644700428399
 20
131.7210391875835
 30
0.0
 10
882.587734549634
 20
132.1509243440815
 30
0.0
 10
882.9062615027998
 20
132.5820337469234
 30
0.0
 10
883.2200370267572
 20
133.0143481483458
 30
0.0
 10
883.5290474994644
 20
133.4478482079241
 30
0.0
 10
883.8332795559949
 20
133.8825144959949
 30
0.0
 10
884.1327200920288
 20
134.3183274973026
 30
0.0
 10
884.4273562672389
 20
134.7552676148543
 30
0.0
 10
884.7171755085601
 20
135.1933151739943
 30
0.0
 10
885.0021655133231
 20
135.6324504266884
 30
0.0
 10
885.2823142522387
 20
136.0726535560146
 30
0.0
 10
885.5576099722123
 20
136.5139046808557
 30
0.0
 10
885.828041198972
 20
136.9561838607802
 30
0.0
 10
886.0935967394987
 20
137.3994711011136
 30
0.0
 10
886.3542656842346
 20
137.8437463581809
 30
0.0
 10
886.6100374090599
 20
138.2889895447184
 30
0.0
 10
886.8609015770174
 20
138.7351805354286
 30
0.0
 10
887.1068481397702
 20
139.1822991726794
 30
0.0
 10
887.3478673387809
 20
139.6303252723199
 30
0.0
 10
887.5839497061938
 20
140.0792386296065
 30
0.0
 10
887.815086065412
 20
140.5290190252138
 30
0.0
 10
888.0412675313501
 20
140.979646231312
 30
0.0
 10
888.2624855103604
 20
141.4311000176975
 30
0.0
 10
888.4787316998153
 20
141.883360157943
 30
0.0
 10
888.689998087341
 20
142.336406435559
 30
0.0
 10
888.8962769496984
 20
142.7902186501329
 30
0.0
 10
889.0975608512994
 20
143.2447766234231
 30
0.0
 10
889.2938426423622
 20
143.7000602053921
 30
0.0
 10
889.4851154566987
 20
144.1560492801368
 30
0.0
 10
889.671372709139
 20
144.6127237717113
 30
0.0
 10
889.8526080925908
 20
145.0700636497949
 30
0.0
 10
890.0288155747432
 20
145.5280489351991
 30
0.0
 10
890.1999893944176
 20
145.9866597051733
 30
0.0
 10
890.3661240575751
 20
146.4458760984892
 30
0.0
 10
890.5272143329944
 20
146.9056783202832
 30
0.0
 10
890.683255247627
 20
147.3660466466214
 30
0.0
 10
890.8342420816533
 20
147.8269614287771
 30
0.0
 10
890.9801703632476
 20
148.2884030971851
 30
0.0
 10
891.1210358630792
 20
148.7503521650611
 30
0.0
 10
891.2568345885653
 20
149.2127892316608
 30
0.0
 10
891.3875627779016
 20
149.6756949851612
 30
0.0
 10
891.5132168938962
 20
150.1390502051501
 30
0.0
 10
891.6337936176292
 20
150.6028357647006
 30
0.0
 10
891.7492898419705
 20
151.0670326320279
 30
0.0
 10
891.8597026649828
 20
151.5316218717038
 30
0.0
 10
891.9650293832414
 20
151.9965846454366
 30
0.0
 10
892.0652674851008
 20
152.4619022123914
 30
0.0
 10
892.1604146439423
 20
152.9275559290605
 30
0.0
 10
892.2504687114362
 20
153.3935272486722
 30
0.0
 10
892.335427710845
 20
153.859797720143
 30
0.0
 10
892.415289830423
 20
154.3263489865742
 30
0.0
 10
892.490053416878
 20
154.7931627832975
 30
0.0
 10
892.5597169691671
 20
155.2602209354793
 30
0.0
 10
892.6242791317832
 20
155.7275053552927
 30
0.0
 10
892.6837386908206
 20
156.1949980386625
 30
0.0
 10
892.7380945607167
 20
156.662681061625
 30
0.0
 10
892.7873458069621
 20
157.130536576234
 30
0.0
 10
892.8314915359359
 20
157.5985468063295
 30
0.0
 10
892.8705312820083
 20
158.0666940421096
 30
0.0
 10
892.9044635407109
 20
158.5349606375276
 30
0.0
 10
892.9332912215953
 20
159.0033289956604
 30
0.0
 10
892.9570012815643
 20
159.4717815975511
 30
0.0
 10
892.9756407093731
 20
159.9403008675806
 30
0.0
 10
892.989032957684
 20
160.4088696477342
 30
0.0
 10
892.997394301537
 20
160.8539497065819
 30
0.0
 10
892.9988049662434
 20
161.1428415184278
 30
0.0
 10
892.9994528619277
 20
161.2755248961854
 30
0.0
  0
LINE
  5
166
330
1F
100
AcDbEntity
  8
0
  6
Continuous
 62
     7
370
    30
100
AcDbLine
 10
779.4
 20
189.3759306069
 30
0.0
 11
779.4
 21
200.4808856485
 31
0.0
  0
LINE
  5
167
330
1F
100
AcDbEntity
  8
0
  6
Continuous
 62
     7
370
    30
100
AcDbLine
 10
756.6
 20
200.4808856485
 30
0.0
 11
756.6
 21
189.3759306069
 31
0.0
  0
SPLINE
  5
168
330
1F
100
AcDbEntity
  8
0
  6
Continuous
 62
     7
370
    30
100
AcDbSpline
210
0.0
220
0.0
230
1.0
 70
     8
 71
     3
 72
   112
 73
   108
 74
     0
 42
0.000000001
 43
0.00000001
 40
0.0
 40
0.0
 40
0.0
 40
0.0
 40
0.0082342470914534
 40
0.0176055108954744
 40
0.0278944877148716
 40
0.0376344294178991
 40
0.0466025758028072
 40
0.0546085748283177
 40
0.0616078331553398
 40
0.0678584633473127
 40
0.07462521311712
 40
0.0851848659369656
 40
0.0960115708341657
 40
0.1070793702356922
 40
0.1190760389843185
 40
0.1322769678215104
 40
0.1421644792629468
 40
0.1524837644434794
 40
0.1617401408958311
 40
0.1692848786692463
 40
0.1744051683902899
 40
0.1801120278504848
 40
0.1864982946868527
 40
0.1935637982049553
 40
0.2063133323780759
 40
0.2176690933675004
 40
0.2283587710439914
 40
0.2399026825410079
 40
0.2504700371960028
 40
0.2600710680049192
 40
0.269356450262957
 40
0.2786243962868628
 40
0.2881709688880728
 40
0.2980373212146417
 40
0.3086953789325332
 40
0.3181509149231933
 40
0.328564114745416
 40
0.3395055750819654
 40
0.3497860862209858
 40
0.3593641768126494
 40
0.3683056556303
 40
0.3766136071225124
 40
0.3873906402588106
 40
0.3974557195921899
 40
0.4070206646326121
 40
0.4175163085126859
 40
0.4291263947052797
 40
0.4387354891002248
 40
0.4487333492044532
 40
0.458622406340675
 40
0.4674749337186844
 40
0.4753034678789184
 40
0.4846427499211378
 40
0.4950186301594454
 40
0.5060723875464888
 40
0.5176608767753718
 40
0.5292778457358708
 40
0.5403722184916653
 40
0.5507628181991114
 40
0.5576855329500383
 40
0.5633910912142946
 40
0.5686531509106486
 40
0.5743544736114209
 40
0.5804958413549298
 40
0.5870770672378368
 40
0.5940979491886571
 40
0.6030775781940749
 40
0.6135288146716967
 40
0.6254874262414307
 40
0.638952138426537
 40
0.6535085772714917
 40
0.6673262526616006
 40
0.6821845175014339
 40
0.6952549706657025
 40
0.7065671851185099
 40
0.7165742060673865
 40
0.7230942175990592
 40
0.7290381204614725
 40
0.7354361883650461
 40
0.7428287813745134
 40
0.7512154413941491
 40
0.7603763574984358
 40
0.7698516282626698
 40
0.7796265251038749
 40
0.7866876653868382
 40
0.7938971236458179
 40
0.8007975113408957
 40
0.806431540180946
 40
0.8107694987898838
 40
0.8137687989451484
 40
0.8160911243407304
 40
0.8187907474909405
 40
0.8218905655425416
 40
0.8264853613848607
 40
0.8317530651327391
 40
0.8380329139064235
 40
0.8455217564389459
 40
0.8542190866715664
 40
0.864124318536352
 40
0.8752367858477809
 40
0.8875557416942743
 40
0.9031107931080933
 40
0.9202392052435884
 40
0.9389394652996054
 40
0.9592099159628397
 40
0.9810487537110921
 40
1.0
 40
1.0
 40
1.0
 40
1.0
 10
784.0001647885115
 20
182.3983884760176
 30
0.0
 10
784.0000549843058
 20
182.4228863190835
 30
0.0
 10
783.9998202137047
 20
182.4752647622152
 30
0.0
 10
783.9983127987302
 20
182.5490749617512
 30
0.0
 10
783.9961526256146
 20
182.6212611413009
 30
0.0
 10
783.9930333587606
 20
182.6934764488827
 30
0.0
 10
783.9893508108278
 20
182.7603818774698
 30
0.0
 10
783.9853603316051
 20
182.8209452574694
 30
0.0
 10
783.981217045418
 20
182.8758802157061
 30
0.0
 10
783.9767173242205
 20
182.9293224327776
 30
0.0
 10
783.9709702633278
 20
182.9911238484462
 30
0.0
 10
783.9633491880428
 20
183.0641852906078
 30
0.0
 10
783.9533754046341
 20
183.1484915893066
 30
0.0
 10
783.9417127495207
 20
183.2363919999523
 30
0.0
 10
783.927825354631
 20
183.3303361656422
 30
0.0
 10
783.9129040199848
 20
183.4210932635736
 30
0.0
 10
783.8974063842405
 20
183.50736848982
 30
0.0
 10
783.8827469811429
 20
183.5833343504814
 30
0.0
 10
783.8683671305553
 20
183.6531656487384
 30
0.0
 10
783.8561312881629
 20
183.7095367435338
 30
0.0
 10
783.8454934973342
 20
183.7567185202139
 30
0.0
 10
783.8352193620118
 20
183.8008784551724
 30
0.0
 10
783.8234014542918
 20
183.8499761891939
 30
0.0
 10
783.8066564665843
 20
183.9170465178779
 30
0.0
 10
783.7857160849838
 20
183.996699704329
 30
0.0
 10
783.7609698417014
 20
184.0853856802937
 30
0.0
 10
783.7358811388517
 20
184.1707709093785
 30
0.0
 10
783.710194679124
 20
184.2539532974357
 30
0.0
 10
783.684222923075
 20
184.3341792667872
 30
0.0
 10
783.6591462147748
 20
184.408502847864
 30
0.0
 10
783.6343252265988
 20
184.4793725164012
 30
0.0
 10
783.608720957604
 20
184.54993085877
 30
0.0
 10
783.5817299525506
 20
184.6217642509288
 30
0.0
 10
783.5525029468643
 20
184.6968859296306
 30
0.0
 10
783.5223945409483
 20
184.7715605520071
 30
0.0
 10
783.4907754131423
 20
184.8473689307265
 30
0.0
 10
783.4578985398875
 20
184.9236713502688
 30
0.0
 10
783.423078227802
 20
185.0017862056118
 30
0.0
 10
783.3881744789636
 20
185.0775630675338
 30
0.0
 10
783.3546658835154
 20
185.1481722916301
 30
0.0
 10
783.3226818629271
 20
185.213762909432
 30
0.0
 10
783.2885304830843
 20
185.2820855584393
 30
0.0
 10
783.252164405949
 20
185.3529146939828
 30
0.0
 10
783.2132627275442
 20
185.4265451529937
 30
0.0
 10
783.1738406492053
 20
185.4992211425663
 30
0.0
 10
783.131363164193
 20
185.5754932056338
 30
0.0
 10
783.0876997028129
 20
185.6516900501878
 30
0.0
 10
783.0438781041684
 20
185.7261455226277
 30
0.0
 10
783.0017084074716
 20
185.7960863089829
 30
0.0
 10
782.9598337340896
 20
185.863891901065
 30
0.0
 10
782.920336219408
 20
185.9264431949264
 30
0.0
 10
782.880976044382
 20
185.9875726484849
 30
0.0
 10
782.8386266584974
 20
186.0520555772677
 30
0.0
 10
782.7904356648479
 20
186.1238090051976
 30
0.0
 10
782.7377779084604
 20
186.2003599501102
 30
0.0
 10
782.6821488443544
 20
186.279251389538
 30
0.0
 10
782.62529297815
 20
186.357898249923
 30
0.0
 10
782.5691822393615
 20
186.4336716620615
 30
0.0
 10
782.5200087284582
 20
186.4986000670951
 30
0.0
 10
782.4796504760882
 20
186.5509432119891
 30
0.0
 10
782.4480270093479
 20
186.5914322632073
 30
0.0
 10
782.4183635877589
 20
186.6289930128639
 30
0.0
 10
782.3876591268988
 20
186.6674467225792
 30
0.0
 10
782.3542919048213
 20
186.7087450005661
 30
0.0
 10
782.3181884443304
 20
186.7528714160575
 30
0.0
 10
782.2764699372631
 20
186.8031849170176
 30
0.0
 10
782.2270203899668
 20
186.8619014362965
 30
0.0
 10
782.1675257755311
 20
186.9312367615299
 30
0.0
 10
782.0984306726175
 20
187.0100625464803
 30
0.0
 10
782.020039126664
 20
187.097384443916
 30
0.0
 10
781.9363861490909
 20
187.1881782390437
 30
0.0
 10
781.8484058327342
 20
187.2812248098252
 30
0.0
 10
781.7619176085834
 20
187.3703621937794
 30
0.0
 10
781.6791549976666
 20
187.4535676451604
 30
0.0
 10
781.6055590978334
 20
187.5259877022377
 30
0.0
 10
781.545212280006
 20
187.5842778870299
 30
0.0
 10
781.4960293432209
 20
187.631110679664
 30
0.0
 10
781.4544459193471
 20
187.6702849441407
 30
0.0
 10
781.4106671103648
 20
187.711094138489
 30
0.0
 10
781.3611117783056
 20
187.7567491742043
 30
0.0
 10
781.3049059232052
 20
187.8078445572353
 30
0.0
 10
781.2434101984187
 20
187.8629298583852
 30
0.0
 10
781.1780481626788
 20
187.9205729253035
 30
0.0
 10
781.1168543800345
 20
187.9736825081075
 30
0.0
 10
781.0604022099025
 20
188.0219987452147
 30
0.0
 10
781.010305995672
 20
188.0643735308049
 30
0.0
 10
780.9632282463764
 20
188.1037361289261
 30
0.0
 10
780.9227386094701
 20
188.1372446175612
 30
0.0
 10
780.8914573799826
 20
188.1629225496612
 30
0.0
 10
780.868086331757
 20
188.1819929444325
 30
0.0
 10
780.848653706529
 20
188.1977812848737
 30
0.0
 10
780.8289328679206
 20
188.2137387293122
 30
0.0
 10
780.8036276467296
 20
188.2341190011256
 30
0.0
 10
780.7719558338364
 20
188.2594687749839
 30
0.0
 10
780.7323178581373
 20
188.2909433701302
 30
0.0
 10
780.6853453119687
 20
188.3278973353799
 30
0.0
 10
780.6295729742993
 20
188.371293013715
 30
0.0
 10
780.5643145578165
 20
188.4214179593904
 30
0.0
 10
780.4893456019965
 20
188.4781560405207
 30
0.0
 10
780.4044112648055
 20
188.5413749044313
 30
0.0
 10
780.3039999457542
 20
188.6147443474177
 30
0.0
 10
780.1866112473064
 20
188.6986620142791
 30
0.0
 10
780.0505960962087
 20
188.7934337044503
 30
0.0
 10
779.8997741081657
 20
188.8956551253416
 30
0.0
 10
779.7334644683065
 20
189.0049042279083
 30
0.0
 10
779.5638762267607
 20
189.1131520809064
 30
0.0
 10
779.4479272269728
 20
189.1839057882286
 30
0.0
 10
779.394056829208
 20
189.2167782611584
 30
0.0
  0
LINE
  5
169
330
1F
100
AcDbEntity
  8
0
  6
Continuous
 62
     7
370
    30
100
AcDbLine
 10
784.0
 20
173.2520247883
 30
0.0
 11
784.0
 21
182.3993297575
 31
0.0
  0
LINE
  5
16A
330
1F
100
AcDbEntity
  8
0
  6
Continuous
 62
     7
370
    30
100
AcDbLine
 10
752.0
 20
182.3993297575
 30
0.0
 11
752.0
 21
173.2520247883
 31
0.0
  0
SPLINE
  5
16B
330
1F
100
AcDbEntity
  8
0
  6
Continuous
 62
     7
370
    30
100
AcDbSpline
210
0.0
220
0.0
230
1.0
 70
     8
 71
     3
 72
    12
 73
     8
 74
     0
 42
0.000000001
 43
0.00000001
 40
0.0
 40
0.0
 40
0.0
 40
0.0
 40
0.3238545801682378
 40
0.4576300517742059
 40
0.6795416841419402
 40
0.9106079317670761
 40
1.0
 40
1.0
 40
1.0
 40
1.0
 10
757.2609941064796
 20
184.3517897399592
 30
0.0
 10
757.2193030992848
 20
184.2786285328323
 30
0.0
 10
757.1603906770146
 20
184.1752464315574
 30
0.0
 10
757.0759151797038
 20
184.0200606612438
 30
0.0
 10
757.0044982019056
 20
183.8852507344911
 30
0.0
 10
756.9398108089389
 20
183.7599311997047
 30
0.0
 10
756.9030741078174
 20
183.6851460739804
 30
0.0
 10
756.8928263797017
 20
183.6642847115793
 30
0.0
  0
SPLINE
  5
16C
330
1F
100
AcDbEntity
  8
0
  6
Continuous
 62
     7
370
    30
100
AcDbSpline
210
0.0
220
0.0
230
1.0
 70
     8
 71
     3
 72
    17
 73
    13
 74
     0
 42
0.000000001
 43
0.00000001
 40
0.0
 40
0.0
 40
0.0
 40
0.0
 40
0.0464620582192813
 40
0.1712991926354572
 40
0.2954021496417721
 40
0.4182681070426198
 40
0.5387889347833424
 40
0.6539531325651756
 40
0.7554055488273236
 40
0.8303351276695601
 40
0.9147843736466771
 40
1.0
 40
1.0
 40
1.0
 40
1.0
 10
758.320666345765
 20
185.9019747389804
 30
0.0
 10
758.3023658480661
 20
185.8793365198254
 30
0.0
 10
758.234894440195
 20
185.7958725319482
 30
0.0
 10
758.1221434404548
 20
185.6490743311201
 30
0.0
 10
757.9828876908515
 20
185.4623280298289
 30
0.0
 10
757.8489533025187
 20
185.2750302887753
 30
0.0
 10
757.7216101543281
 20
185.0899558120497
 30
0.0
 10
757.6050186619239
 20
184.9138107281536
 30
0.0
 10
757.5066945034881
 20
184.7598618444104
 30
0.0
 10
757.4206132744498
 20
184.62095168378
 30
0.0
 10
757.3413477996589
 20
184.4897918693295
 30
0.0
 10
757.2878592072991
 20
184.3979287657109
 30
0.0
 10
757.2609941064796
 20
184.3517897399592
 30
0.0
  0
SPLINE
  5
16D
330
1F
100
AcDbEntity
  8
0
  6
Continuous
 62
     7
370
    30
100
AcDbSpline
210
0.0
220
0.0
230
1.0
 70
     8
 71
     3
 72
    21
 73
    17
 74
     0
 42
0.000000001
 43
0.00000001
 40
0.0
 40
0.0
 40
0.0
 40
0.0
 40
0.0071687700108122
 40
0.0894913812381041
 40
0.1718404601439427
 40
0.2542146468692306
 40
0.336612681112616
 40
0.4190333949458269
 40
0.5014757062462625
 40
0.5839386126933952
 40
0.6664211862812103
 40
0.7489225683029884
 40
0.8314419647693407
 40
0.9139786422243668
 40
0.9965319239271337
 40
1.0
 40
1.0
 40
1.0
 40
1.0
 10
779.1076764947337
 20
183.6636042882862
 30
0.0
 10
779.104506719037
 20
183.6701407973246
 30
0.0
 10
779.0649368060825
 20
183.7517393451151
 30
0.0
 10
778.984702609154
 20
183.9063273884908
 30
0.0
 10
778.8666793665448
 20
184.1271073963395
 30
0.0
 10
778.7437057330121
 20
184.3452819133207
 30
0.0
 10
778.6164422417136
 20
184.5610561902466
 30
0.0
 10
778.4847745738349
 20
184.7742563975482
 30
0.0
 10
778.3487995277846
 20
184.9848127415324
 30
0.0
 10
778.2085563501975
 20
185.1926262587525
 30
0.0
 10
778.0641148272878
 20
185.3976184551509
 30
0.0
 10
777.915491456093
 20
185.5996661166201
 30
0.0
 10
777.7628965058043
 20
185.7988126126782
 30
0.0
 10
777.6058291264045
 20
185.9944877754952
 30
0.0
 10
777.4973553582442
 20
186.1264776388047
 30
0.0
 10
777.4401792835845
 20
186.1922769528445
 30
0.0
 10
777.4378741470277
 20
186.1949297478309
 30
0.0
  0
SPLINE
  5
16E
330
1F
100
AcDbEntity
  8
0
  6
Continuous
 62
     7
370
    30
100
AcDbSpline
210
0.0
220
0.0
230
1.0
 70
     8
 71
     3
 72
    97
 73
    93
 74
     0
 42
0.000000001
 43
0.00000001
 40
0.0
 40
0.0
 40
0.0
 40
0.0
 40
0.0066252844654164
 40
0.0128483225624053
 40
0.0186689026247608
 40
0.0240868915298633
 40
0.0293283445744518
 40
0.0349276098539652
 40
0.0420152512373582
 40
0.049631665204941
 40
0.0577770333188702
 40
0.0664515047184559
 40
0.0746437978584939
 40
0.0832580515370352
 40
0.0922943118478677
 40
0.1015225294601096
 40
0.1102444933717768
 40
0.1184121024006492
 40
0.1260252043705982
 40
0.1330836554112574
 40
0.1384231079693147
 40
0.1433943966585342
 40
0.1479974565092017
 40
0.1522322263938081
 40
0.1560945518631396
 40
0.1593494400335908
 40
0.1618604980462895
 40
0.1633116024449276
 40
0.1644955054863137
 40
0.1660508489158503
 40
0.1680285903695557
 40
0.1704287616490412
 40
0.1732514011239455
 40
0.1764965538859645
 40
0.1817496783736823
 40
0.1878311915013932
 40
0.1947412859713448
 40
0.2021792105126457
 40
0.2094759876791133
 40
0.2233262127691321
 40
0.2365369640599177
 40
0.2486688722576022
 40
0.260205846439013
 40
0.2711476604220694
 40
0.2815040582499009
 40
0.2917020773189902
 40
0.301968584107557
 40
0.3182393885659291
 40
0.3346787601839218
 40
0.3512871958309083
 40
0.367708970024801
 40
0.3844270235125529
 40
0.4014412641002749
 40
0.4187515774695438
 40
0.4363578293428044
 40
0.4540225501234055
 40
0.4714996034265579
 40
0.4887886919191644
 40
0.5058895541080727
 40
0.522801946564569
 40
0.539527429978551
 40
0.5561830143767885
 40
0.5728390776034142
 40
0.5894954837827433
 40
0.6089278865660096
 40
0.6283603843785768
 40
0.6477927598424006
 40
0.6672247433230456
 40
0.6866560971490308
 40
0.706086567686116
 40
0.7255158812208585
 40
0.7448955885654653
 40
0.7640619986487635
 40
0.7830013976757445
 40
0.8017135343391554
 40
0.8201981765851907
 40
0.8270960988413514
 40
0.8343131897035071
 40
0.8421558288854775
 40
0.8506238041247292
 40
0.8597168779358374
 40
0.8692557829169917
 40
0.8793971424373174
 40
0.8901406711748274
 40
0.9014860689399187
 40
0.9136830887698733
 40
0.9265061295376525
 40
0.9399548503551148
 40
0.9540289143628282
 40
0.9687279954864214
 40
0.9840517853831021
 40
1.0
 40
1.0
 40
1.0
 40
1.0
 10
780.1429137685369
 20
180.6258170115989
 30
0.0
 10
780.1253187896154
 20
180.5970325734637
 30
0.0
 10
780.0911970902617
 20
180.5412113105626
 30
0.0
 10
780.0388328627395
 20
180.4594153650748
 30
0.0
 10
779.9878797177396
 20
180.3824010869658
 30
0.0
 10
779.937701633815
 20
180.3091216690545
 30
0.0
 10
779.8861586133014
 20
180.2362567979189
 30
0.0
 10
779.8276104844642
 20
180.1560340861297
 30
0.0
 10
779.7589517459122
 20
180.0652757641569
 30
0.0
 10
779.678731589684
 20
179.9634458257514
 30
0.0
 10
779.5896156332302
 20
179.8550022036368
 30
0.0
 10
779.4948417680195
 20
179.7446171201569
 30
0.0
 10
779.3947216097384
 20
179.6328842569675
 30
0.0
 10
779.2896291315247
 20
179.5203703766478
 30
0.0
 10
779.176500893234
 20
179.4042977593543
 30
0.0
 10
779.0590235132775
 20
179.2888354686015
 30
0.0
 10
778.9418433680404
 20
179.1783153639286
 30
0.0
 10
778.8288352035773
 20
179.07571392143
 30
0.0
 10
778.7208583606035
 20
178.9810554485147
 30
0.0
 10
778.6241216547713
 20
178.8989324642494
 30
0.0
 10
778.5386102295264
 20
178.828262495678
 30
0.0
 10
778.4640920418668
 20
178.7680263391275
 30
0.0
 10
778.3941599477631
 20
178.7126396394708
 30
0.0
 10
778.3290575267445
 20
178.6620347692017
 30
0.0
 10
778.2702286917103
 20
178.6170802541779
 30
0.0
 10
778.219858208243
 20
178.5791598213105
 30
0.0
 10
778.1818152345786
 20
178.5508631056965
 30
0.0
 10
778.1545512052924
 20
178.5307507249355
 30
0.0
 10
778.1322770484354
 20
178.5144091873148
 30
0.0
 10
778.107102917634
 20
178.4960449452951
 30
0.0
 10
778.0752894057792
 20
178.4730069543073
 30
0.0
 10
778.0364597543943
 20
178.4451420958765
 30
0.0
 10
777.9904901171535
 20
178.4125077862315
 30
0.0
 10
777.9285625140516
 20
178.3690915518174
 30
0.0
 10
777.8479664916955
 20
178.3135662144358
 30
0.0
 10
777.7457218570113
 20
178.2447435895055
 30
0.0
 10
777.6294700381321
 20
178.168540149658
 30
0.0
 10
777.5042693003041
 20
178.0888307730089
 30
0.0
 10
777.3362288906349
 20
177.9849963311155
 30
0.0
 10
777.12964787191
 20
177.8626907789188
 30
0.0
 10
776.8874785787319
 20
177.7269383708701
 30
0.0
 10
776.6540177157515
 20
177.6025997230335
 30
0.0
 10
776.4301636074683
 20
177.4889613769974
 30
0.0
 10
776.2136145564023
 20
177.3839514600114
 30
0.0
 10
776.0022486180837
 20
177.2858350016008
 30
0.0
 10
775.7918953658678
 20
177.1922470523186
 30
0.0
 10
775.5370503044792
 20
177.0836078702719
 30
0.0
 10
775.2328265395167
 20
176.9610137183993
 30
0.0
 10
774.875535087581
 20
176.8268950529956
 30
0.0
 10
774.5092518475054
 20
176.699187051447
 30
0.0
 10
774.1335197843597
 20
176.5778241205289
 30
0.0
 10
773.7477329261026
 20
176.4627775935175
 30
0.0
 10
773.3483171697234
 20
176.3533993071283
 30
0.0
 10
772.9354137976504
 20
176.250236756794
 30
0.0
 10
772.5111256075832
 20
176.1542791421914
 30
0.0
 10
772.0797470094891
 20
176.0667568947255
 30
0.0
 10
771.6458212814774
 20
175.9885313768455
 30
0.0
 10
771.2120628104325
 20
175.9198301890389
 30
0.0
 10
770.7791465878016
 20
175.8604589886541
 30
0.0
 10
770.3477013178051
 20
175.8102083320815
 30
0.0
 10
769.9173204032211
 20
175.7687613138555
 30
0.0
 10
769.4869394819156
 20
175.7358325032066
 30
0.0
 10
769.0554562047988
 20
175.7112673172682
 30
0.0
 10
768.598726977758
 20
175.6941491847837
 30
0.0
 10
768.1170863372422
 20
175.6862029806392
 30
0.0
 10
767.6111868177848
 20
175.6892646549926
 30
0.0
 10
767.1058933103891
 20
175.703725825195
 30
0.0
 10
766.6019983936441
 20
175.7295616097321
 30
0.0
 10
766.1002902765608
 20
175.7667277739141
 30
0.0
 10
765.6015536201888
 20
175.8151611821914
 30
0.0
 10
765.106977078648
 20
175.8747307671525
 30
0.0
 10
764.6191010800716
 20
175.9450478597455
 30
0.0
 10
764.1404859426259
 20
176.0255084506207
 30
0.0
 10
763.6731599019935
 20
176.1154018369662
 30
0.0
 10
763.2177187693186
 20
176.214200437535
 30
0.0
 10
762.8653486124283
 20
176.2994402675794
 30
0.0
 10
762.6078206485099
 20
176.366242259705
 30
0.0
 10
762.4355270098488
 20
176.4126404711208
 30
0.0
 10
762.2523039613872
 20
176.4639436290897
 30
0.0
 10
762.0561311547654
 20
176.5211824715314
 30
0.0
 10
761.8488232014477
 20
176.584343847199
 30
0.0
 10
761.6309949576929
 20
176.6537489130066
 30
0.0
 10
761.4033010669463
 20
176.7297245937021
 30
0.0
 10
761.1651415326743
 20
176.813088030609
 30
0.0
 10
760.9153458050804
 20
176.9049617036044
 30
0.0
 10
760.6545563318833
 20
177.0059650726661
 30
0.0
 10
760.3835207393939
 20
177.1167410087765
 30
0.0
 10
760.1047910269239
 20
177.2371783082137
 30
0.0
 10
759.8193287219816
 20
177.3677573572784
 30
0.0
 10
759.5284352998307
 20
177.5090978389388
 30
0.0
 10
759.2325177641966
 20
177.661246945328
 30
0.0
 10
759.0387142242162
 20
177.7692474868638
 30
0.0
 10
758.9398775651279
 20
177.8243260097134
 30
0.0
  0
LINE
  5
16F
330
1F
100
AcDbEntity
  8
0
  6
Continuous
 62
     7
370
    30
100
AcDbLine
 10
776.6
 20
185.4465217281
 30
0.0
 11
776.6
 21
185.5278087419
 31
0.0
  0
LINE
  5
170
330
1F
100
AcDbEntity
  8
0
  6
Continuous
 62
     7
370
    30
100
AcDbLine
 10
784.0000309049
 20
173.2444637687
 30
0.0
 11
784.0001647885
 21
173.2531309315
 31
0.0
  0
SPLINE
  5
171
330
1F
100
AcDbEntity
  8
0
  6
Continuous
 62
     7
370
    30
100
AcDbSpline
210
0.0
220
0.0
230
1.0
 70
     8
 71
     3
 72
   162
 73
   158
 74
     0
 42
0.000000001
 43
0.00000001
 40
0.0
 40
0.0
 40
0.0
 40
0.0
 40
0.0028642196275183
 40
0.0052270500576448
 40
0.0070885546553734
 40
0.00844878292456
 40
0.0093543940245799
 40
0.0102280043948601
 40
0.0111708201358196
 40
0.0141203733239831
 40
0.0175931949548427
 40
0.0211360399787623
 40
0.0250959025939281
 40
0.0294727120377951
 40
0.0341820182125859
 40
0.0452553629940337
 40
0.05600365273843
 40
0.0664271082884738
 40
0.077234823902597
 40
0.0876701109895573
 40
0.0979300607392241
 40
0.108294636741913
 40
0.1187659564420612
 40
0.1322473185726166
 40
0.1459017154940636
 40
0.1597640579374088
 40
0.173940611323228
 40
0.1884387427885686
 40
0.200055958608803
 40
0.2118717259284486
 40
0.2238860543058418
 40
0.2360650885926234
 40
0.2482706969817464
 40
0.2627850452349246
 40
0.2773170758016155
 40
0.2918674016982856
 40
0.3004507769237834
 40
0.3090408487176013
 40
0.3175518681981382
 40
0.3256810120473828
 40
0.3335549511118696
 40
0.3410033291673025
 40
0.3480259702850645
 40
0.3546227318406279
 40
0.3607935051450644
 40
0.3665382167447595
 40
0.3719193652701472
 40
0.3790389910842628
 40
0.3866373251781033
 40
0.3947144921264736
 40
0.4032706465475818
 40
0.4123059733949942
 40
0.4218206876330002
 40
0.431815033375877
 40
0.4459744484387052
 40
0.4600704555323302
 40
0.47409412216999
 40
0.4880455178182715
 40
0.5021763642658398
 40
0.5162324175475514
 40
0.5302936753739891
 40
0.5446230822225278
 40
0.5592414556722047
 40
0.5665262650620373
 40
0.5738808548465913
 40
0.5813052557813735
 40
0.5887994996049359
 40
0.5963636191119401
 40
0.6039976482179463
 40
0.6115901684973539
 40
0.6188316913566628
 40
0.6253711928136344
 40
0.6315772010351108
 40
0.6374496549062437
 40
0.6429884950341487
 40
0.6481936636923292
 40
0.6530477075108286
 40
0.6549201007950622
 40
0.6565531656248419
 40
0.6579468853060032
 40
0.6591012454813829
 40
0.660061364696711
 40
0.6612119334955738
 40
0.6629251818558233
 40
0.6650249628751737
 40
0.667511316882346
 40
0.6702688936974577
 40
0.6780309431316759
 40
0.68621579872097
 40
0.6948236703753997
 40
0.7038547786185614
 40
0.7133121055941227
 40
0.7232176955723472
 40
0.7314502492657432
 40
0.7399717937664158
 40
0.748782496260151
 40
0.7530365134427024
 40
0.7573548521458622
 40
0.7617375298344552
 40
0.7659865833514248
 40
0.7698293921038692
 40
0.7732641825957516
 40
0.7762908697372098
 40
0.7789093787351998
 40
0.781140713567187
 40
0.7834493611567428
 40
0.7868772086292349
 40
0.7907640038417881
 40
0.7951098666150437
 40
0.8046558158560605
 40
0.8143769652779542
 40
0.8242629884648854
 40
0.8342543290551118
 40
0.8441926799055169
 40
0.8540694463954126
 40
0.8570741198615012
 40
0.8599544609466432
 40
0.8624619033688508
 40
0.8645885316699226
 40
0.8663342974209339
 40
0.8676991615140205
 40
0.8687028518298929
 40
0.8702556336947868
 40
0.8722952149535922
 40
0.8748216539661996
 40
0.8778350212984284
 40
0.8809370626551057
 40
0.8844274101392725
 40
0.8882979080328289
 40
0.8923141026112007
 40
0.8963686039939911
 40
0.9004614129921342
 40
0.9045925296887982
 40
0.9087619534080081
 40
0.9183801991652842
 40
0.9281962576105873
 40
0.9313150863763598
 40
0.9339847097056971
 40
0.9362032999521779
 40
0.9375712305238457
 40
0.9386854229170467
 40
0.939545869574433
 40
0.9401755562623997
 40
0.9410216744373078
 40
0.9422566312901367
 40
0.944251871206405
 40
0.9468070994591644
 40
0.9499223572604268
 40
0.9535976902226565
 40
0.9578331456850285
 40
0.9623877058059858
 40
0.967450390672913
 40
0.973021227000986
 40
0.9791002292465854
 40
0.9856873951328144
 40
0.992782700709088
 40
1.0
 40
1.0
 40
1.0
 40
1.0
 10
756.7484319928321
 20
166.584442561404
 30
0.0
 10
756.7739472457988
 20
166.5697680401901
 30
0.0
 10
756.8205112394286
 20
166.5429878113906
 30
0.0
 10
756.884151273103
 20
166.5069654054809
 30
0.0
 10
756.9345071412951
 20
166.4787199082078
 30
0.0
 10
756.9718612499483
 20
166.4579302151737
 30
0.0
 10
757.0003425820562
 20
166.4421624837944
 30
0.0
 10
757.0250829249401
 20
166.4285233215395
 30
0.0
 10
757.0684842394814
 20
166.4046987597353
 30
0.0
 10
757.1358343529951
 20
166.3680659257801
 30
0.0
 10
757.2275881478769
 20
166.3189107332156
 30
0.0
 10
757.3293986887919
 20
166.265265177537
 30
0.0
 10
757.4404635700865
 20
166.2077740829673
 30
0.0
 10
757.5634860660754
 20
166.1453409948779
 30
0.0
 10
757.7553408446839
 20
166.0500589694607
 30
0.0
 10
758.0117918182532
 20
165.9274140313763
 30
0.0
 10
758.3298970182923
 20
165.7830858431708
 30
0.0
 10
758.6513619304209
 20
165.6445848991812
 30
0.0
 10
758.975420713139
 20
165.5121266783528
 30
0.0
 10
759.3033078529426
 20
165.3851001261396
 30
0.0
 10
759.6316714457232
 20
165.2644919292821
 30
0.0
 10
759.9653087195044
 20
165.1484285828724
 30
0.0
 10
760.3387442624121
 20
165.0256369673961
 30
0.0
 10
760.754309739734
 20
164.8978276815975
 30
0.0
 10
761.2146972479683
 20
164.7669728131133
 30
0.0
 10
761.6899985893823
 20
164.6427710905695
 30
0.0
 10
762.181797791698
 20
164.525407265663
 30
0.0
 10
762.6537939701136
 20
164.4234147532173
 30
0.0
 10
763.1029345842319
 20
164.3353662313555
 30
0.0
 10
763.5263924862327
 20
164.2598212424527
 30
0.0
 10
763.9600782145626
 20
164.1900986060466
 30
0.0
 10
764.4017196914613
 20
164.1268807477733
 30
0.0
 10
764.8767233824946
 20
164.0672084177963
 30
0.0
 10
765.3835901709225
 20
164.0131386905625
 30
0.0
 10
765.9222499896591
 20
163.9666487061914
 30
0.0
 10
766.3897149500996
 20
163.9357495776409
 30
0.0
 10
766.7844605601005
 20
163.9159662635968
 30
0.0
 10
767.1045663045763
 20
163.9037092397622
 30
0.0
 10
767.4193875285316
 20
163.8953575395127
 30
0.0
 10
767.7255344116036
 20
163.8907038024371
 30
0.0
 10
768.0185278725168
 20
163.8894335043422
 30
0.0
 10
768.2977000125616
 20
163.8911185681334
 30
0.0
 10
768.5608257613167
 20
163.895279591319
 30
0.0
 10
768.807836257454
 20
163.9014571145188
 30
0.0
 10
769.0386856042376
 20
163.9092207917516
 30
0.0
 10
769.2541357465345
 20
163.9182051523686
 30
0.0
 10
769.4810830577394
 20
163.929380630424
 30
0.0
 10
769.7307636352708
 20
163.9438598116548
 30
0.0
 10
770.0134258842099
 20
163.9631484511608
 30
0.0
 10
770.3132299590293
 20
163.9868810351396
 30
0.0
 10
770.629944928668
 20
164.0156313953857
 30
0.0
 10
770.9632928544904
 20
164.0500064445357
 30
0.0
 10
771.3129418180202
 20
164.0906441119762
 30
0.0
 10
771.7234337982807
 20
164.144058936781
 30
0.0
 10
772.1867546916326
 20
164.212414078973
 30
0.0
 10
772.6942822676881
 20
164.2977908121216
 30
0.0
 10
773.1942409814336
 20
164.3923866795004
 30
0.0
 10
773.6890181462172
 20
164.4965575370528
 30
0.0
 10
774.1780283388803
 20
164.6102406812557
 30
0.0
 10
774.6615899469563
 20
164.7335910297378
 30
0.0
 10
775.1401636523923
 20
164.8667838494933
 30
0.0
 10
775.6171375379786
 20
165.0110817478928
 30
0.0
 10
776.0116867925276
 20
165.140537917535
 30
0.0
 10
776.3255331885083
 20
165.2497992410263
 30
0.0
 10
776.5597584717219
 20
165.3345578700604
 30
0.0
 10
776.7936334838964
 20
165.4225032539605
 30
0.0
 10
777.0270146031668
 20
165.5136775733154
 30
0.0
 10
777.2597529202544
 20
165.6081210579791
 30
0.0
 10
777.4905673308675
 20
165.7053967902937
 30
0.0
 10
777.7151444700131
 20
165.8036590287975
 30
0.0
 10
777.9259617681275
 20
165.899296700743
 30
0.0
 10
778.1206026474993
 20
165.9905867187736
 30
0.0
 10
778.2997184947682
 20
166.0772059559414
 30
0.0
 10
778.4672095639993
 20
166.1605743157703
 30
0.0
 10
778.6233804517058
 20
166.2404468923546
 30
0.0
 10
778.7683634969355
 20
166.3165106517412
 30
0.0
 10
778.8781016591506
 20
166.3754699190247
 30
0.0
 10
778.9544278655598
 20
166.4171346425717
 30
0.0
 10
778.998988169744
 20
166.4416611690088
 30
0.0
 10
779.0368918637845
 20
166.4626733304618
 30
0.0
 10
779.0686068346977
 20
166.480360715892
 30
0.0
 10
779.0980578963421
 20
166.496867632186
 30
0.0
 10
779.1324760920318
 20
166.5162548258656
 30
0.0
 10
779.1770118771758
 20
166.5415110983251
 30
0.0
 10
779.2332910845457
 20
166.5737153549592
 30
0.0
 10
779.298555824662
 20
166.6114674005878
 30
0.0
 10
779.4134384242411
 20
166.6787474029681
 30
0.0
 10
779.5766268228085
 20
166.7767179091471
 30
0.0
 10
779.7867243467618
 20
166.9076911422252
 30
0.0
 10
780.0030145155303
 20
167.0479946247923
 30
0.0
 10
780.2247186322676
 20
167.1979726813646
 30
0.0
 10
780.4511571325394
 20
167.3580849296506
 30
0.0
 10
780.6651953114855
 20
167.5166742579055
 30
0.0
 10
780.8663923496018
 20
167.6724995683921
 30
0.0
 10
781.05430353218
 20
167.8241855145117
 30
0.0
 10
781.2085126882763
 20
167.9541876008752
 30
0.0
 10
781.3299417863262
 20
168.0600061916488
 30
0.0
 10
781.4190847233531
 20
168.1394155076447
 30
0.0
 10
781.5068090223332
 20
168.2193399071396
 30
0.0
 10
781.5899792232786
 20
168.2968423823484
 30
0.0
 10
781.6656701848021
 20
168.3688960208456
 30
0.0
 10
781.7324003285864
 20
168.4336614150517
 30
0.0
 10
781.7904721290957
 20
168.4910092890597
 30
0.0
 10
781.8402958900854
 20
168.5409690972909
 30
0.0
 10
781.8851562369018
 20
168.586550386464
 30
0.0
 10
781.9346471475124
 20
168.6374670021141
 30
0.0
 10
781.993729376202
 20
168.6992228576397
 30
0.0
 10
782.0642365692955
 20
168.7744410391014
 30
0.0
 10
782.1698565164191
 20
168.8897692506306
 30
0.0
 10
782.3058906159666
 20
169.0443590216049
 30
0.0
 10
782.4664765080013
 20
169.2375523394157
 30
0.0
 10
782.6218057007542
 20
169.4360045947351
 30
0.0
 10
782.770306065151
 20
169.6381663970714
 30
0.0
 10
782.9107047525921
 20
169.8424548972756
 30
0.0
 10
783.0119917192179
 20
170.0004452986209
 30
0.0
 10
783.0791355115152
 20
170.1102453076794
 30
0.0
 10
783.1141991644324
 20
170.168869877372
 30
0.0
 10
783.1450251112107
 20
170.2214836998605
 30
0.0
 10
783.1707819851916
 20
170.2662448878668
 30
0.0
 10
783.1916422423941
 20
170.303053930647
 30
0.0
 10
783.2078516735261
 20
170.3320130324341
 30
0.0
 10
783.2231762535303
 20
170.3596532608837
 30
0.0
 10
783.2409842879703
 20
170.3921074888847
 30
0.0
 10
783.2643862109876
 20
170.435389001282
 30
0.0
 10
783.2928868491497
 20
170.4891104795654
 30
0.0
 10
783.3247020178541
 20
170.5505015656772
 30
0.0
 10
783.3592262342863
 20
170.6189029347198
 30
0.0
 10
783.3958417924692
 20
170.6935928753481
 30
0.0
 10
783.4344490662396
 20
170.7750207495844
 30
0.0
 10
783.4736177765528
 20
170.8607366020248
 30
0.0
 10
783.5121021084458
 20
170.948305061829
 30
0.0
 10
783.549503814708
 20
171.0369527399485
 30
0.0
 10
783.5857770641851
 20
171.1266781454345
 30
0.0
 10
783.6360571821285
 20
171.2567549978691
 30
0.0
 10
783.697536623992
 20
171.4288344476918
 30
0.0
 10
783.7498353101103
 20
171.5941638982712
 30
0.0
 10
783.7830237554085
 20
171.7088976079586
 30
0.0
 10
783.7993529085305
 20
171.7678031491977
 30
0.0
 10
783.8116471377558
 20
171.8138388731757
 30
0.0
 10
783.8206254537909
 20
171.8484202853634
 30
0.0
 10
783.8268773165505
 20
171.8729856483259
 30
0.0
 10
783.8316670636553
 20
171.8921125070935
 30
0.0
 10
783.8358868894268
 20
171.9091724055076
 30
0.0
 10
783.8407527456162
 20
171.9290873854107
 30
0.0
 10
783.8479625759297
 20
171.9591227406862
 30
0.0
 10
783.8579325972588
 20
172.0018415206809
 30
0.0
 10
783.8706340002841
 20
172.0585430141786
 30
0.0
 10
783.8853345860763
 20
172.1277801284527
 30
0.0
 10
783.9015610511901
 20
172.2095873286063
 30
0.0
 10
783.918427548673
 20
172.3022090184617
 30
0.0
 10
783.9353394438665
 20
172.4052826936461
 30
0.0
 10
783.9516801730438
 20
172.5184410640705
 30
0.0
 10
783.9669702694013
 20
172.6431105213406
 30
0.0
 10
783.9804605589347
 20
172.7793025164845
 30
0.0
 10
783.991190556957
 20
172.927017041028
 30
0.0
 10
783.99857689098
 20
173.0833491156063
 30
0.0
 10
783.9995434873368
 20
173.1904545793132
 30
0.0
 10
784.0000309049149
 20
173.2444637687261
 30
0.0
  0
LINE
  5
172
330
1F
100
AcDbEntity
  8
0
  6
Continuous
 62
     7
370
    30
100
AcDbLine
 10
783.8001658296
 20
167.945533449
 30
0.0
 11
783.8001658296
 21
171.7711286943
 31
0.0
  0
LINE
  5
173
330
1F
100
AcDbEntity
  8
0
  6
Continuous
 62
     7
370
    30
100
AcDbLine
 10
752.1998341704
 20
171.7715396703
 30
0.0
 11
752.1998341704
 21
167.945533449
 31
0.0
  0
SPLINE
  5
174
330
1F
100
AcDbEntity
  8
0
  6
Continuous
 62
     7
370
    30
100
AcDbSpline
210
0.0
220
0.0
230
1.0
 70
     8
 71
     3
 72
    96
 73
    92
 74
     0
 42
0.000000001
 43
0.00000001
 40
0.0
 40
0.0
 40
0.0
 40
0.0
 40
0.0008591342551641
 40
0.0179534812338637
 40
0.0359824232967483
 40
0.0549902586726665
 40
0.0751474927907093
 40
0.0964727960521536
 40
0.1068248954118397
 40
0.1174319088624548
 40
0.1282940118155209
 40
0.1392537486303182
 40
0.1492192660299864
 40
0.1579812376305038
 40
0.1667618629833884
 40
0.1738689518795963
 40
0.1795460212444967
 40
0.1852802886651433
 40
0.1915459461723476
 40
0.198892272387008
 40
0.2074463666280182
 40
0.2172090252605194
 40
0.2281811512713357
 40
0.2402904844074105
 40
0.2526303784810652
 40
0.2915396084222377
 40
0.3300402713162103
 40
0.3416538613749577
 40
0.3521373531464839
 40
0.3614784593305859
 40
0.3696765580745948
 40
0.3767317069579484
 40
0.384085397557535
 40
0.3930669230330912
 40
0.403626612762301
 40
0.4139668920290912
 40
0.4231918282090265
 40
0.4312875746010392
 40
0.4398303194267577
 40
0.4492177845187543
 40
0.459219676496202
 40
0.4785300384139413
 40
0.4980495676279345
 40
0.5169284045725265
 40
0.5350617848616934
 40
0.5519234439123746
 40
0.5621694416024897
 40
0.5723499655493032
 40
0.5825650997806153
 40
0.5927149517473304
 40
0.6035540592801442
 40
0.6154499499120334
 40
0.6284015359490372
 40
0.6417443617120727
 40
0.6555586044483276
 40
0.6643478848721563
 40
0.673643609944038
 40
0.6822175125877571
 40
0.6896669575426022
 40
0.6970686680636934
 40
0.7037779478512727
 40
0.7106583567325152
 40
0.7177099428977224
 40
0.7249102772465136
 40
0.7321669793747853
 40
0.7539525966463735
 40
0.7757850515026933
 40
0.7848846310065062
 40
0.795372454040518
 40
0.8072243074403348
 40
0.8194601885454927
 40
0.8296258429242013
 40
0.8383871007583434
 40
0.8455965491599732
 40
0.8528020445500265
 40
0.8610666262272182
 40
0.8703655575531133
 40
0.8844772902219981
 40
0.8968603810244106
 40
0.9095208916631561
 40
0.9195554059402086
 40
0.92889960285461
 40
0.9375625237523736
 40
0.9460926660656416
 40
0.950048201194836
 40
0.9551263605049073
 40
0.9615031608079029
 40
0.9691788213960133
 40
0.9781534781114689
 40
0.9884272029396517
 40
1.0
 40
1.0
 40
1.0
 40
1.0
 10
756.605583343456
 20
189.2170006383784
 30
0.0
 10
756.6031368967755
 20
189.2155182520376
 30
0.0
 10
756.5520130656587
 20
189.1845405611924
 30
0.0
 10
756.4505299939912
 20
189.121820100555
 30
0.0
 10
756.2996985114937
 20
189.0263286032833
 30
0.0
 10
756.1427388857022
 20
188.9239847555337
 30
0.0
 10
755.9793097995974
 20
188.814160316892
 30
0.0
 10
755.8416944511328
 20
188.7186383688553
 30
0.0
 10
755.7309753764006
 20
188.6398572148533
 30
0.0
 10
755.6484283670129
 20
188.5801462790195
 30
0.0
 10
755.5651218774102
 20
188.5188575897607
 30
0.0
 10
755.484283921007
 20
188.4583493977887
 30
0.0
 10
755.4095355573808
 20
188.4014619038125
 30
0.0
 10
755.340892949285
 20
188.348435630899
 30
0.0
 10
755.2798979026238
 20
188.3006511682522
 30
0.0
 10
755.2269375294765
 20
188.2586285205479
 30
0.0
 10
755.1817087903609
 20
188.2223690066316
 30
0.0
 10
755.13876025742
 20
188.1876181697026
 30
0.0
 10
755.0920295184078
 20
188.1494372771683
 30
0.0
 10
755.038744913462
 20
188.1054161238716
 30
0.0
 10
754.9774884466457
 20
188.0541450132297
 30
0.0
 10
754.9081844939315
 20
187.995255634815
 30
0.0
 10
754.8312822906465
 20
187.9287761302763
 30
0.0
 10
754.7493348385706
 20
187.8565553208933
 30
0.0
 10
754.6048533713483
 20
187.7265766334997
 30
0.0
 10
754.4064404402043
 20
187.5401225468275
 30
0.0
 10
754.2192266324789
 20
187.3519607988149
 30
0.0
 10
754.0960398673674
 20
187.2225122534752
 30
0.0
 10
754.0329974923613
 20
187.1549288346488
 30
0.0
 10
753.9775003395682
 20
187.0943464173731
 30
0.0
 10
753.9293132708377
 20
187.0408856488946
 30
0.0
 10
753.8853905870901
 20
186.9914583148257
 30
0.0
 10
753.8403197659807
 20
186.9400463131093
 30
0.0
 10
753.7890933714824
 20
186.8806989854057
 30
0.0
 10
753.7329727880216
 20
186.8144516446849
 30
0.0
 10
753.6772688265618
 20
186.7473492158344
 30
0.0
 10
753.62686149461
 20
186.6854495464702
 30
0.0
 10
753.5803451125149
 20
186.6273372560133
 30
0.0
 10
753.534057309398
 20
186.5685364520966
 30
0.0
 10
753.4849947413784
 20
186.5050627648268
 30
0.0
 10
753.4181327561503
 20
186.4168128898183
 30
0.0
 10
753.3361184391865
 20
186.3051950027142
 30
0.0
 10
753.2423059700365
 20
186.172115471473
 30
0.0
 10
753.153305073833
 20
186.0403960016786
 30
0.0
 10
753.0714086661167
 20
185.9139731783327
 30
0.0
 10
753.0049415977217
 20
185.807067770364
 30
0.0
 10
752.9516426315885
 20
185.7184896817909
 30
0.0
 10
752.9087619999762
 20
185.645406394692
 30
0.0
 10
752.8669371150113
 20
185.5722678180574
 30
0.0
 10
752.8251536598269
 20
185.4972635472342
 30
0.0
 10
752.7821464570368
 20
185.4179040827277
 30
0.0
 10
752.7367016600276
 20
185.3314420150737
 30
0.0
 10
752.6895172608831
 20
185.2385354620917
 30
0.0
 10
752.64157108433
 20
185.1405288395877
 30
0.0
 10
752.6001082861834
 20
185.0523225173558
 30
0.0
 10
752.5644121015749
 20
184.9737326725617
 30
0.0
 10
752.5353224609221
 20
184.9078551348125
 30
0.0
 10
752.5084091647013
 20
184.845139483394
 30
0.0
 10
752.4841013190735
 20
184.7869895332307
 30
0.0
 10
752.4622293851968
 20
184.7333493520498
 30
0.0
 10
752.4413961336567
 20
184.6810072148756
 30
0.0
 10
752.4213544680875
 20
184.6294426566245
 30
0.0
 10
752.4013026036188
 20
184.5765508622079
 30
0.0
 10
752.381381802277
 20
184.5226169185945
 30
0.0
 10
752.3486475215404
 20
184.4315579166575
 30
0.0
 10
752.3050521564195
 20
184.3032365805249
 30
0.0
 10
752.2635860239102
 20
184.1695680199376
 30
0.0
 10
752.2330914654978
 20
184.0641913331149
 30
0.0
 10
752.2109476630991
 20
183.9840319316576
 30
0.0
 10
752.1878660609052
 20
183.8956992691823
 30
0.0
 10
752.1663534982339
 20
183.8079784931814
 30
0.0
 10
752.1479303365207
 20
183.7279924811108
 30
0.0
 10
752.133302956859
 20
183.6608223919489
 30
0.0
 10
752.1209408344699
 20
183.6011538613972
 30
0.0
 10
752.1094030805563
 20
183.5427763304693
 30
0.0
 10
752.0974594219048
 20
183.4790548318341
 30
0.0
 10
752.0831362302367
 20
183.3976202580001
 30
0.0
 10
752.0683089548068
 20
183.3052819671748
 30
0.0
 10
752.0537035762026
 20
183.2032268838007
 30
0.0
 10
752.0421431371174
 20
183.111856850283
 30
0.0
 10
752.0328577645114
 20
183.0287042130025
 30
0.0
 10
752.0255748860262
 20
182.9551288394601
 30
0.0
 10
752.0194636774899
 20
182.8847952365032
 30
0.0
 10
752.0153430488261
 20
182.8302746883918
 30
0.0
 10
752.0123315628108
 20
182.7858006535337
 30
0.0
 10
752.0098774673157
 20
182.7461682749576
 30
0.0
 10
752.0071808795067
 20
182.6966727724517
 30
0.0
 10
752.004460807995
 20
182.6367859283314
 30
0.0
 10
752.0020507667728
 20
182.5665217152645
 30
0.0
 10
752.0002163682803
 20
182.4858781759258
 30
0.0
 10
751.9999672025147
 20
182.4285776502686
 30
0.0
 10
751.9998352114885
 20
182.398223740467
 30
0.0
  0
LINE
  5
175
330
1F
100
AcDbEntity
  8
0
  6
Continuous
 62
     7
370
    30
100
AcDbLine
 10
758.9398747285
 20
177.8243277266
 30
0.0
 11
758.8652376122
 21
177.8670434747
 31
0.0
  0
SPLINE
  5
176
330
1F
100
AcDbEntity
  8
0
  6
Continuous
 62
     7
370
    30
100
AcDbSpline
210
0.0
220
0.0
230
1.0
 70
     8
 71
     3
 72
    41
 73
    37
 74
     0
 42
0.000000001
 43
0.00000001
 40
0.0
 40
0.0
 40
0.0
 40
0.0
 40
0.0408243764148828
 40
0.0784145600661982
 40
0.1127722587713665
 40
0.1438989786057367
 40
0.171796039337773
 40
0.1964645882213209
 40
0.2179056120136978
 40
0.2361199472212563
 40
0.2511082886541498
 40
0.2628711964212659
 40
0.2689214473794141
 40
0.273538461954235
 40
0.2767473918123002
 40
0.2868213294809808
 40
0.3004237755346237
 40
0.3156083472635005
 40
0.3336249040374474
 40
0.3544729823976345
 40
0.3781520564170358
 40
0.4036405940950707
 40
0.4530591674424966
 40
0.5014801602550276
 40
0.5687787453735502
 40
0.6340560971562091
 40
0.6591490784734642
 40
0.6839306909086474
 40
0.7094309618702371
 40
0.7371524193641881
 40
0.7730658952837186
 40
0.8121422496559892
 40
0.8543780505922721
 40
0.8997691778047099
 40
0.9483112353066957
 40
1.0
 40
1.0
 40
1.0
 40
1.0
 10
758.8632536957532
 20
177.8682294511665
 30
0.0
 10
758.8082488212116
 20
177.9003131475879
 30
0.0
 10
758.702596673709
 20
177.9619388026772
 30
0.0
 10
758.5541837454095
 20
178.0524943603497
 30
0.0
 10
758.4207155996819
 20
178.1363996632769
 30
0.0
 10
758.3018135733626
 20
178.2134411537513
 30
0.0
 10
758.1968524367139
 20
178.283281925739
 30
0.0
 10
758.1053238803705
 20
178.3456614266353
 30
0.0
 10
758.0267566131521
 20
178.4003466070782
 30
0.0
 10
757.9607384335361
 20
178.4471406181343
 30
0.0
 10
757.9069141360617
 20
178.4858789856866
 30
0.0
 10
757.8679448983634
 20
178.5142744510483
 30
0.0
 10
757.8414286476781
 20
178.5337558559184
 30
0.0
 10
757.8250728514131
 20
178.545831986214
 30
0.0
 10
757.8040105963454
 20
178.5614396608675
 30
0.0
 10
757.7724823626166
 20
178.5849475857584
 30
0.0
 10
757.7272261403829
 20
178.6190657667827
 30
0.0
 10
757.6731801113365
 20
178.66036266803
 30
0.0
 10
757.6113888394718
 20
178.7083196498547
 30
0.0
 10
757.540733518185
 20
178.764171237626
 30
0.0
 10
757.4627353118524
 20
178.8271449258086
 30
0.0
 10
757.3546169214096
 20
178.9165140824287
 30
0.0
 10
757.2225593975035
 20
179.029692780733
 30
0.0
 10
757.0514280821067
 20
179.1835761381044
 30
0.0
 10
756.8713278750961
 20
179.3552033228049
 30
0.0
 10
756.721990574663
 20
179.5075901040643
 30
0.0
 10
756.6167814541394
 20
179.620227078205
 30
0.0
 10
756.5492182616982
 20
179.6945208872375
 30
0.0
 10
756.4810808722635
 20
179.7716172519054
 30
0.0
 10
756.4060722080808
 20
179.8593180109496
 30
0.0
 10
756.3230100390061
 20
179.9602596631596
 30
0.0
 10
756.2325475952146
 20
180.0753602333793
 30
0.0
 10
756.1395166068573
 20
180.1997549751978
 30
0.0
 10
756.044908126478
 20
180.3334658153638
 30
0.0
 10
755.9491124673268
 20
180.4764988082943
 30
0.0
 10
755.8883666340134
 20
180.5749798436904
 30
0.0
 10
755.8570401715995
 20
180.6257662480505
 30
0.0
  0
LINE
  5
177
330
1F
100
AcDbEntity
  8
0
  6
Continuous
 62
     7
370
    30
100
AcDbLine
 10
756.7150318356
 20
166.6037811157
 30
0.0
 11
756.7484335067
 21
166.5844416873
 31
0.0
  0
SPLINE
  5
178
330
1F
100
AcDbEntity
  8
0
  6
Continuous
 62
     7
370
    30
100
AcDbSpline
210
0.0
220
0.0
230
1.0
 70
     8
 71
     3
 72
    81
 73
    77
 74
     0
 42
0.000000001
 43
0.00000001
 40
0.0
 40
0.0
 40
0.0
 40
0.0
 40
0.0086433011339509
 40
0.0174059594855082
 40
0.0267740268291277
 40
0.0374053380651456
 40
0.0493106472344828
 40
0.062489894024936
 40
0.0737386979578294
 40
0.0857738804618658
 40
0.0983454585567952
 40
0.1101720711777699
 40
0.1210728587557562
 40
0.1310478570607935
 40
0.141795853109026
 40
0.15121082669296
 40
0.1592928345555612
 40
0.1665953979344361
 40
0.1742107779233608
 40
0.1847006078221561
 40
0.195867400168046
 40
0.2081685941101791
 40
0.2247246468810556
 40
0.2430482874904371
 40
0.2631023580432969
 40
0.2833979325124811
 40
0.3142074078266066
 40
0.3436935345281507
 40
0.3564300839260849
 40
0.3684826077134593
 40
0.3794260679195657
 40
0.3892606833896993
 40
0.397986662037249
 40
0.4057179847990071
 40
0.413905034110455
 40
0.4229884171749015
 40
0.4361226439889439
 40
0.4507661257629457
 40
0.4666077082256286
 40
0.4834194685037607
 40
0.5012010511441035
 40
0.5199520711739303
 40
0.5396721129205853
 40
0.554052551716399
 40
0.5689074378848272
 40
0.5838919326840967
 40
0.5973855701736993
 40
0.60918168590969
 40
0.6177153901867628
 40
0.6250707883118686
 40
0.6312480768297926
 40
0.636247421983195
 40
0.6400689587064375
 40
0.6431827490194701
 40
0.6467862614270953
 40
0.6509388214423518
 40
0.6556403821068288
 40
0.660890890261234
 40
0.6668378021625379
 40
0.6739189535919817
 40
0.6839515408076047
 40
0.6956586093825023
 40
0.7090398021879691
 40
0.7240947126631576
 40
0.7408228843064057
 40
0.75794507065468
 40
0.776523966467753
 40
0.7965590838135341
 40
0.8180498983103198
 40
0.8409958506721502
 40
0.8653963488797807
 40
0.8897342662544042
 40
0.915364157424762
 40
0.9422854622108852
 40
0.9704976054679526
 40
1.0
 40
1.0
 40
1.0
 40
1.0
 10
751.9998352114982
 20
173.2529665211347
 30
0.0
 10
752.0001626663269
 20
173.2258899473428
 30
0.0
 10
752.000822097879
 20
173.1713628934864
 30
0.0
 10
752.0031019938416
 20
173.100492850245
 30
0.0
 10
752.0050034803015
 20
173.0317910565198
 30
0.0
 10
752.008574372585
 20
172.9534202038272
 30
0.0
 10
752.0137694255577
 20
172.866320309523
 30
0.0
 10
752.0205931767491
 20
172.7775028309406
 30
0.0
 10
752.0288961595205
 20
172.6884285167617
 30
0.0
 10
752.0384357967911
 20
172.6008443385637
 30
0.0
 10
752.0496010152324
 20
172.5118868977175
 30
0.0
 10
752.0618311861226
 20
172.4257486451014
 30
0.0
 10
752.07438094364
 20
172.3459917351784
 30
0.0
 10
752.0876001628249
 20
172.2689064004189
 30
0.0
 10
752.1012240708123
 20
172.1954803000933
 30
0.0
 10
752.1149296817575
 20
172.1266942297009
 30
0.0
 10
752.1276801219141
 20
172.0663123120943
 30
0.0
 10
752.1400960847799
 20
172.0102987190009
 30
0.0
 10
752.154446982352
 20
171.9484021583986
 30
0.0
 10
752.1718658157575
 20
171.8770847532096
 30
0.0
 10
752.1932968950415
 20
171.7943687428641
 30
0.0
 10
752.2201813879343
 20
171.6966884465423
 30
0.0
 10
752.2541956980501
 20
171.5814568183275
 30
0.0
 10
752.2970439903438
 20
171.4473273958889
 30
0.0
 10
752.3466321712372
 20
171.3041729866894
 30
0.0
 10
752.4114791906388
 20
171.1312398477535
 30
0.0
 10
752.4915682459725
 20
170.9365902473606
 30
0.0
 10
752.5711801582967
 20
170.7615741221796
 30
0.0
 10
752.6339478949534
 20
170.6323082285245
 30
0.0
 10
752.676668553521
 20
170.5474979404513
 30
0.0
 10
752.7171169150882
 20
170.4698100372082
 30
0.0
 10
752.7544298221302
 20
170.4002005385551
 30
0.0
 10
752.7884420894763
 20
170.3383415095692
 30
0.0
 10
752.8209477060578
 20
170.2805152761925
 30
0.0
 10
752.8545345206735
 20
170.2220077147661
 30
0.0
 10
752.8961895076685
 20
170.1510525175877
 30
0.0
 10
752.9479537584028
 20
170.0653321957669
 30
0.0
 10
753.0110818673672
 20
169.9643337352763
 30
0.0
 10
753.0817390769544
 20
169.8553732652787
 30
0.0
 10
753.1595869449498
 20
169.7398362086003
 30
0.0
 10
753.2447217421111
 20
169.6183710978949
 30
0.0
 10
753.337596073748
 20
169.4911210330328
 30
0.0
 10
753.4279038863378
 20
169.3724103610569
 30
0.0
 10
753.5140407086876
 20
169.2631636806241
 30
0.0
 10
753.5937622441031
 20
169.1650457471079
 30
0.0
 10
753.6737916739212
 20
169.0694681368515
 30
0.0
 10
753.7498622528782
 20
168.9811454137302
 30
0.0
 10
753.8149994249301
 20
168.9073595473129
 30
0.0
 10
753.8691329036214
 20
168.847227129893
 30
0.0
 10
753.9127853623638
 20
168.7994663331206
 30
0.0
 10
753.94980444017
 20
168.759478505288
 30
0.0
 10
753.9800001490149
 20
168.7272021359255
 30
0.0
 10
754.004172451551
 20
168.7015764750109
 30
0.0
 10
754.0256077106641
 20
168.6789986567977
 30
0.0
 10
754.0478154307843
 20
168.6557524601094
 30
0.0
 10
754.0734001292617
 20
168.6291626194908
 30
0.0
 10
754.1025413082729
 20
168.5991223328365
 30
0.0
 10
754.1356123916703
 20
168.5653402848441
 30
0.0
 10
754.1739170923804
 20
168.5266095285337
 30
0.0
 10
754.2226337657212
 20
168.4779292282789
 30
0.0
 10
754.284190521962
 20
168.417358459265
 30
0.0
 10
754.3602498498514
 20
168.343955141666
 30
0.0
 10
754.4485722568818
 20
168.2605856677924
 30
0.0
 10
754.5497070894273
 20
168.1674664085237
 30
0.0
 10
754.6613462537613
 20
168.0674615869277
 30
0.0
 10
754.7834427038548
 20
167.9612088047666
 30
0.0
 10
754.9159252308718
 20
167.8493452294113
 30
0.0
 10
755.0618949731445
 20
167.7300094980064
 30
0.0
 10
755.2220126698403
 20
167.603527567394
 30
0.0
 10
755.3969715594754
 20
167.4702608155755
 30
0.0
 10
755.583543637489
 20
167.3334992428882
 30
0.0
 10
755.7817133643932
 20
167.1938269011352
 30
0.0
 10
755.9913823743907
 20
167.0517958160806
 30
0.0
 10
756.2169367769569
 20
166.9053695030472
 30
0.0
 10
756.4585324077461
 20
166.7547224044106
 30
0.0
 10
756.6282714768473
 20
166.6548367026056
 30
0.0
 10
756.7150383327548
 20
166.6037773422494
 30
0.0
  0
LWPOLYLINE
  5
179
330
1F
100
AcDbEntity
  8
0
  6
Continuous
 62
     7
370
    30
100
AcDbPolyline
 90
       91
 70
   128
 43
0.0
 10
777.1923881554
 20
199.9547958254
 10
776.948609484
 20
199.8177023086
 10
776.6986978827
 20
199.6843396636
 10
776.4428246283
 20
199.5547992904
 10
776.1811650836
 20
199.4291699696
 10
775.9138985771
 20
199.3075378012
 10
775.6412082798
 20
199.1899861458
 10
775.36328108
 20
199.0765955675
 10
775.0803074552
 20
198.9674437785
 10
774.7924813413
 20
198.862605586
 10
774.5
 20
198.7621528408
 10
774.2030638834
 20
198.6661543882
 10
773.9018764966
 20
198.5746760208
 10
773.5966442585
 20
198.4877804333
 10
773.28757636
 20
198.4055271796
 10
772.9748846207
 20
198.3279726319
 10
772.6587833441
 20
198.2551699422
 10
772.33948917
 20
198.187169006
 10
772.0172209269
 20
198.1240164276
 10
771.6921994812
 20
198.0657554886
 10
771.3646475863
 20
198.0124261183
 10
771.0347897301
 20
197.9640648658
 10
770.7028519806
 20
197.9207048756
 10
770.3690618314
 20
197.8823758644
 10
770.0336480455
 20
197.8491041011
 10
769.6968404989
 20
197.8209123884
 10
769.3588700225
 20
197.7978200475
 10
769.0199682445
 20
197.7798429047
 10
768.6803674312
 20
197.7669932808
 10
768.340300328
 20
197.7592799822
 10
768.0
 20
197.7567082951
 10
767.659699672
 20
197.7592799822
 10
767.3196325688
 20
197.7669932808
 10
766.9800317555
 20
197.7798429047
 10
766.6411299775
 20
197.7978200475
 10
766.3031595011
 20
197.8209123884
 10
765.9663519545
 20
197.8491041011
 10
765.6309381686
 20
197.8823758644
 10
765.2971480194
 20
197.9207048756
 10
764.9652102699
 20
197.9640648658
 10
764.6353524137
 20
198.0124261183
 10
764.3078005188
 20
198.0657554886
 10
763.9827790731
 20
198.1240164276
 10
763.66051083
 20
198.187169006
 10
763.3412166559
 20
198.2551699422
 10
763.0251153793
 20
198.3279726319
 10
762.71242364
 20
198.4055271796
 10
762.4033557415
 20
198.4877804333
 10
762.0981235034
 20
198.5746760208
 10
761.7969361166
 20
198.6661543882
 10
761.5
 20
198.7621528408
 10
761.2075186587
 20
198.862605586
 10
760.9196925448
 20
198.9674437785
 10
760.63671892
 20
199.0765955675
 10
760.3587917202
 20
199.1899861458
 10
760.0861014229
 20
199.3075378012
 10
759.8188349164
 20
199.4291699696
 10
759.5571753717
 20
199.5547992904
 10
759.3013021173
 20
199.6843396636
 10
759.051390516
 20
199.8177023086
 10
758.8076118446
 20
199.9547958254
 10
758.5701331768
 20
200.0955262568
 10
758.3391172688
 20
200.2397971534
 10
758.1147224472
 20
200.387509639
 10
757.8971025011
 20
200.5385624789
 10
757.6864065762
 20
200.692852149
 10
757.4827790731
 20
200.8502729068
 10
757.2863595479
 20
201.0107168641
 10
757.0972826167
 20
201.1740740606
 10
756.9156778634
 20
201.3402325393
 10
756.7416697508
 20
201.5090784237
 10
756.5753775354
 20
201.6804959951
 10
756.4169151856
 20
201.8543677725
 10
756.2663913035
 20
202.0305745929
 10
756.1239090506
 20
202.2089956929
 10
755.9895660774
 20
202.3895087916
 10
755.8634544555
 20
202.5719901744
 10
755.7456606158
 20
202.7563147776
 10
755.6362652882
 20
202.9423562744
 10
755.5353434467
 20
203.1299871612
 10
755.4429642582
 20
203.3190788451
 10
755.3591910348
 20
203.5095017323
 10
755.2840811905
 20
203.7011253162
 10
755.2176862017
 20
203.8938182678
 10
755.1600515723
 20
204.0874485248
 10
755.1112168021
 20
204.2818833829
 10
755.0712153602
 20
204.4769895859
 10
755.0400746615
 20
204.672633418
 10
755.0178160482
 20
204.8686807945
 10
755.0044547753
 20
205.0649973544
 10
755.0
 20
205.2614485522
  0
ARC
  5
17A
330
1F
100
AcDbEntity
  8
0
  6
Continuous
 62
     7
370
    30
100
AcDbCircle
 10
774.4890796672
 20
205.9138036233
 30
0.0
 40
6.543519749984276
100
AcDbArc
 50
294.4014565931
 51
354.2784024493
  0
LINE
  5
17B
330
1F
100
AcDbEntity
  8
0
  6
Continuous
 62
     7
370
    30
100
AcDbLine
 10
778.345174055
 20
200.7167100653
 30
0.0
 11
778.345174055
 21
199.5135585593
 31
0.0
  0
LINE
  5
17C
330
1F
100
AcDbEntity
  8
0
  6
Continuous
 62
     7
370
    30
100
AcDbLine
 10
769.6756411957
 20
197.8193114491
 30
0.0
 11
769.6756411957
 21
194.5087437701
 31
0.0
  0
SPLINE
  5
17D
330
1F
100
AcDbEntity
  8
0
  6
Continuous
 62
     7
370
    30
100
AcDbSpline
210
0.0
220
0.0
230
1.0
 70
     8
 71
     3
 72
    23
 73
    19
 74
     0
 42
0.000000001
 43
0.00000001
 40
0.0
 40
0.0
 40
0.0
 40
0.0
 40
0.0627512664965554
 40
0.1254779189917071
 40
0.1881949130235996
 40
0.2509124123612865
 40
0.3136298077643104
 40
0.3752275535335082
 40
0.4368250656736615
 40
0.4984230694183965
 40
0.5600215058142823
 40
0.622875859774464
 40
0.6857296157657048
 40
0.7485832578364553
 40
0.8114374729384894
 40
0.8742920504314788
 40
0.9371463191545003
 40
1.0
 40
1.0
 40
1.0
 40
1.0
 10
769.4139981707885
 20
282.0210040788688
 30
0.0
 10
769.3662152511404
 20
281.9949473225408
 30
0.0
 10
769.2706681545549
 20
281.9428440305714
 30
0.0
 10
769.1113642593145
 20
281.8754951315754
 30
0.0
 10
768.9422923841186
 20
281.8169190063338
 30
0.0
 10
768.7638275299341
 20
281.7683921399158
 30
0.0
 10
768.5791291178915
 20
281.7304169735517
 30
0.0
 10
768.390032047987
 20
281.7031950745316
 30
0.0
 10
768.1984276254045
 20
281.6867443199313
 30
0.0
 10
768.0049643722665
 20
281.6810591891719
 30
0.0
 10
767.8101399600242
 20
281.6862259019658
 30
0.0
 10
767.6158029318811
 20
281.7024557536596
 30
0.0
 10
767.4239031380608
 20
281.7298461216494
 30
0.0
 10
767.2376346800004
 20
281.7680348731172
 30
0.0
 10
767.058721459581
 20
281.8165977761869
 30
0.0
 10
766.8892410058359
 20
281.8752544008369
 30
0.0
 10
766.7295903329018
 20
281.9427087255464
 30
0.0
 10
766.6338645145531
 20
281.9949057091283
 30
0.0
 10
766.5860018292113
 20
282.0210040788688
 30
0.0
  0
SPLINE
  5
17E
330
1F
100
AcDbEntity
  8
0
  6
Continuous
 62
     7
370
    30
100
AcDbSpline
210
0.0
220
0.0
230
1.0
 70
     8
 71
     3
 72
    23
 73
    19
 74
     0
 42
0.000000001
 43
0.00000001
 40
0.0
 40
0.0
 40
0.0
 40
0.0
 40
0.0627512664968016
 40
0.1254779189932511
 40
0.188194913026573
 40
0.2509124123654732
 40
0.3136298077691031
 40
0.3752275535381924
 40
0.4368250656778469
 40
0.4984230694216516
 40
0.5600215058161445
 40
0.622875859774866
 40
0.6857296157649815
 40
0.7485832578348631
 40
0.8114374729365258
 40
0.8742920504298011
 40
0.9371463191535784
 40
1.0
 40
1.0
 40
1.0
 40
1.0
 10
819.6190104182025
 20
312.6363082722204
 30
0.0
 10
819.6641469346788
 20
312.6087237798598
 30
0.0
 10
819.7544022629653
 20
312.5535656150748
 30
0.0
 10
819.8710666186878
 20
312.4616014338637
 30
0.0
 10
819.9725344379679
 20
312.3639983178516
 30
0.0
 10
820.0565945442241
 20
312.2609727504897
 30
0.0
 10
820.1223765894136
 20
312.1543486267746
 30
0.0
 10
820.1695314109165
 20
312.0451852119272
 30
0.0
 10
820.1980280413741
 20
311.9345743331897
 30
0.0
 10
820.2078760437472
 20
311.8228903744147
 30
0.0
 10
820.1989260649307
 20
311.7104206352153
 30
0.0
 10
820.1708120909905
 20
311.5982322568674
 30
0.0
 10
820.123365441052
 20
311.4874508639454
 30
0.0
 10
820.057213415524
 20
311.379920371959
 30
0.0
 10
819.9730908851936
 20
311.2766359682817
 30
0.0
 10
819.8714836217408
 20
311.1787969848955
 30
0.0
 10
819.7546366435395
 20
311.0866326131834
 30
0.0
 10
819.6642190190344
 20
311.0313712745206
 30
0.0
 10
819.6190104182025
 20
311.003740734405
 30
0.0
  0
LINE
  5
17F
330
1F
100
AcDbEntity
  8
0
  6
Continuous
 62
     7
370
    30
100
AcDbLine
 10
769.4139981708
 20
282.0210040789
 30
0.0
 11
819.6190104182
 21
311.0037407344
 31
0.0
  0
LINE
  5
180
330
1F
100
AcDbEntity
  8
0
  6
Continuous
 62
     7
370
    30
100
AcDbLine
 10
716.3809895818
 20
311.0037407344
 30
0.0
 11
766.5860018292
 21
282.0210040789
 31
0.0
  0
SPLINE
  5
181
330
1F
100
AcDbEntity
  8
0
  6
Continuous
 62
     7
370
    30
100
AcDbSpline
210
0.0
220
0.0
230
1.0
 70
     8
 71
     3
 72
    23
 73
    19
 74
     0
 42
0.000000001
 43
0.00000001
 40
0.0
 40
0.0
 40
0.0
 40
0.0
 40
0.0627512664956726
 40
0.1254779189928541
 40
0.1881949130272218
 40
0.2509124123672561
 40
0.3136298077718916
 40
0.3752275535416851
 40
0.4368250656818595
 40
0.4984230694259287
 40
0.560021505820291
 40
0.6228758597785528
 40
0.6857296157680716
 40
0.7485832578373356
 40
0.8114374729383779
 40
0.8742920504310431
 40
0.9371463191541909
 40
1.0
 40
1.0
 40
1.0
 40
1.0
 10
716.3809895817976
 20
311.0037407344051
 30
0.0
 10
716.3358530653221
 20
311.0313252267652
 30
0.0
 10
716.2455977370358
 20
311.0864833915499
 30
0.0
 10
716.1289333813127
 20
311.1784475727612
 30
0.0
 10
716.027465562031
 20
311.2760506887749
 30
0.0
 10
715.9434054557736
 20
311.3790762561386
 30
0.0
 10
715.8776234105836
 20
311.4857003798555
 30
0.0
 10
715.8304685890814
 20
311.5948637947044
 30
0.0
 10
715.8019719586248
 20
311.7054746734428
 30
0.0
 10
715.7921239562531
 20
311.8171586322182
 30
0.0
 10
715.8010739350707
 20
311.9296283714174
 30
0.0
 10
715.8291879090118
 20
312.0418167497645
 30
0.0
 10
715.8766345589509
 20
312.1525981426855
 30
0.0
 10
715.9427865844792
 20
312.2601286346705
 30
0.0
 10
716.0269091148093
 20
312.3634130383467
 30
0.0
 10
716.1285163782615
 20
312.4612520217318
 30
0.0
 10
716.2453633564619
 20
312.5534163934429
 30
0.0
 10
716.3357809809661
 20
312.6086777321051
 30
0.0
 10
716.3809895817976
 20
312.6363082722204
 30
0.0
  0
LINE
  5
182
330
1F
100
AcDbEntity
  8
0
  6
Continuous
 62
     7
370
    30
100
AcDbLine
 10
766.5860018292
 20
341.6190449278
 30
0.0
 11
716.3809895818
 21
312.6363082722
 31
0.0
  0
SPLINE
  5
183
330
1F
100
AcDbEntity
  8
0
  6
Continuous
 62
     7
370
    30
100
AcDbSpline
210
0.0
220
0.0
230
1.0
 70
     8
 71
     3
 72
    23
 73
    19
 74
     0
 42
0.000000001
 43
0.00000001
 40
0.0
 40
0.0
 40
0.0
 40
0.0
 40
0.0627512664947656
 40
0.1254779189907752
 40
0.1881949130239816
 40
0.2509124123631168
 40
0.3136298077674034
 40
0.3752275535374637
 40
0.4368250656782157
 40
0.4984230694232056
 40
0.5600215058188265
 40
0.6228758597783637
 40
0.6857296157688346
 40
0.7485832578388331
 40
0.8114374729401781
 40
0.874292050432558
 40
0.9371463191550271
 40
1.0
 40
1.0
 40
1.0
 40
1.0
 10
766.5860018292116
 20
341.6190449277566
 30
0.0
 10
766.6337847488584
 20
341.6451016840839
 30
0.0
 10
766.7293318454431
 20
341.6972049760529
 30
0.0
 10
766.8886357406833
 20
341.7645538750493
 30
0.0
 10
767.0577076158826
 20
341.8231300002922
 30
0.0
 10
767.236172470071
 20
341.8716568667111
 30
0.0
 10
767.4208708821174
 20
341.9096320330755
 30
0.0
 10
767.6099679520248
 20
341.9368539320953
 30
0.0
 10
767.8015723746096
 20
341.9533046866947
 30
0.0
 10
767.9950356277482
 20
341.9589898174533
 30
0.0
 10
768.1898600399896
 20
341.9538231046587
 30
0.0
 10
768.3841970681309
 20
341.9375932529644
 30
0.0
 10
768.5760968619486
 20
341.9102028849744
 30
0.0
 10
768.7623653200067
 20
341.8720141335065
 30
0.0
 10
768.9412785404238
 20
341.823451230437
 30
0.0
 10
769.110758994167
 20
341.7647946057874
 30
0.0
 10
769.2704096670996
 20
341.6973402810785
 30
0.0
 10
769.3661354854473
 20
341.6451432974969
 30
0.0
 10
769.4139981707887
 20
341.6190449277566
 30
0.0
  0
LINE
  5
184
330
1F
100
AcDbEntity
  8
0
  6
Continuous
 62
     7
370
    30
100
AcDbLine
 10
819.6190104182
 20
312.6363082722
 30
0.0
 11
769.4139981708
 21
341.6190449278
 31
0.0
  0
SPLINE
  5
185
330
1F
100
AcDbEntity
  8
0
  6
Continuous
 62
     7
370
    30
100
AcDbSpline
210
0.0
220
0.0
230
1.0
 70
     8
 71
     3
 72
     9
 73
     5
 74
     0
 42
0.000000001
 43
0.00000001
 40
0.0
 40
0.0
 40
0.0
 40
0.0
 40
0.5108363546759812
 40
1.0
 40
1.0
 40
1.0
 40
1.0
 10
769.1996992474051
 20
272.7344656720081
 30
0.0
 10
769.2007015049892
 20
272.7348212047258
 30
0.0
 10
769.2026634984437
 20
272.7355171863537
 30
0.0
 10
769.2042835117367
 20
272.736812448261
 30
0.0
 10
769.2050759633445
 20
272.7374460432973
 30
0.0
  0
LWPOLYLINE
  5
186
330
1F
100
AcDbEntity
  8
0
  6
Continuous
 62
     7
370
    30
100
AcDbPolyline
 90
      121
 70
   128
 43
0.0
 10
783.8001658296
 20
167.945533449
 10
783.7947515074
 20
167.7067671796
 10
783.7785122514
 20
167.4681645487
 10
783.7514591914
 20
167.2298890826
 10
783.713610868
 20
166.9921040833
 10
783.6649932206
 20
166.754972517
 10
783.6056395693
 20
166.5186569016
 10
783.5355905923
 20
166.2833191961
 10
783.4548942974
 20
166.0491206893
 10
783.36360599
 20
165.816221889
 10
783.2617882344
 20
165.5847824126
 10
783.1495108116
 20
165.3549608769
 10
783.0268506708
 20
165.1269147903
 10
782.8938918771
 20
164.9008004441
 10
782.7507255539
 20
164.6767728059
 10
782.5974498202
 20
164.4549854129
 10
782.4341697236
 20
164.2355902672
 10
782.2609971681
 20
164.0187377312
 10
782.0780508374
 20
163.8045764248
 10
781.8854561139
 20
163.5932531236
 10
781.6833449924
 20
163.3849126579
 10
781.4718559898
 20
163.1796978138
 10
781.2511340499
 20
162.9777492355
 10
781.0213304447
 20
162.7792053283
 10
780.7826026701
 20
162.5842021644
 10
780.5351143381
 20
162.392873389
 10
780.2790350648
 20
162.2053501296
 10
780.0145403543
 20
162.0217609051
 10
779.7418114779
 20
161.8422315383
 10
779.4610353505
 20
161.6668850698
 10
779.172404402
 20
161.4958416733
 10
778.8761164455
 20
161.3292185734
 10
778.5723745421
 20
161.1671299652
 10
778.2613868613
 20
161.0096869362
 10
777.9433665385
 20
160.8569973899
 10
777.618531529
 20
160.7091659721
 10
777.2871044584
 20
160.5662939991
 10
776.9493124703
 20
160.4284793883
 10
776.6053870705
 20
160.2958165908
 10
776.2555639682
 20
160.1683965272
 10
775.9000829148
 20
160.0463065247
 10
775.5391875391
 20
159.9296302578
 10
775.1731251809
 20
159.8184476905
 10
774.802146721
 20
159.7128350218
 10
774.4265064096
 20
159.6128646334
 10
774.0464616916
 20
159.51860504
 10
773.6622730308
 20
159.4301208424
 10
773.2742037309
 20
159.3474726833
 10
772.8825197553
 20
159.2707172055
 10
772.4874895445
 20
159.1999070134
 10
772.0893838325
 20
159.1350906368
 10
771.6884754611
 20
159.0763124977
 10
771.2850391928
 20
159.0236128796
 10
770.8793515228
 20
158.9770279001
 10
770.4716904891
 20
158.9365894864
 10
770.0623354822
 20
158.9023253529
 10
769.6515670535
 20
158.8742589825
 10
769.2396667233
 20
158.8524096105
 10
768.8269167875
 20
158.8367922113
 10
768.4136001242
 20
158.8274174884
 10
768.0
 20
158.8242918667
 10
767.5863998758
 20
158.8274174884
 10
767.1730832125
 20
158.8367922113
 10
766.7603332767
 20
158.8524096105
 10
766.3484329465
 20
158.8742589825
 10
765.9376645178
 20
158.9023253529
 10
765.5283095109
 20
158.9365894864
 10
765.1206484772
 20
158.9770279001
 10
764.7149608072
 20
159.0236128796
 10
764.3115245389
 20
159.0763124977
 10
763.9106161675
 20
159.1350906368
 10
763.5125104555
 20
159.1999070134
 10
763.1174802447
 20
159.2707172055
 10
762.7257962691
 20
159.3474726833
 10
762.3377269692
 20
159.4301208424
 10
761.9535383084
 20
159.51860504
 10
761.5734935904
 20
159.6128646334
 10
761.197853279
 20
159.7128350218
 10
760.8268748191
 20
159.8184476905
 10
760.4608124609
 20
159.9296302578
 10
760.0999170852
 20
160.0463065247
 10
759.7444360318
 20
160.1683965272
 10
759.3946129295
 20
160.2958165908
 10
759.0506875297
 20
160.4284793883
 10
758.7128955416
 20
160.5662939991
 10
758.381468471
 20
160.7091659721
 10
758.0566334615
 20
160.8569973899
 10
757.7386131387
 20
161.0096869362
 10
757.4276254579
 20
161.1671299652
 10
757.1238835545
 20
161.3292185734
 10
756.827595598
 20
161.4958416733
 10
756.5389646495
 20
161.6668850698
 10
756.2581885221
 20
161.8422315383
 10
755.9854596457
 20
162.0217609051
 10
755.7209649352
 20
162.2053501296
 10
755.4648856619
 20
162.3928733891
 10
755.2173973299
 20
162.5842021644
 10
754.9786695553
 20
162.7792053283
 10
754.7488659501
 20
162.9777492355
 10
754.5281440102
 20
163.1796978138
 10
754.3166550076
 20
163.3849126579
 10
754.1145438861
 20
163.5932531236
 10
753.9219491626
 20
163.8045764248
 10
753.7390028319
 20
164.0187377312
 10
753.5658302764
 20
164.2355902672
 10
753.4025501798
 20
164.4549854129
 10
753.2492744461
 20
164.6767728059
 10
753.1061081229
 20
164.9008004441
 10
752.9731493292
 20
165.1269147903
 10
752.8504891884
 20
165.3549608769
 10
752.7382117656
 20
165.5847824126
 10
752.63639401
 20
165.816221889
 10
752.5451057026
 20
166.0491206893
 10
752.4644094077
 20
166.2833191961
 10
752.3943604307
 20
166.5186569016
 10
752.3350067794
 20
166.754972517
 10
752.286389132
 20
166.9921040833
 10
752.2485408086
 20
167.2298890826
 10
752.2214877486
 20
167.4681645487
 10
752.2052484926
 20
167.7067671796
 10
752.1998341704
 20
167.945533449
  0
LWPOLYLINE
  5
187
330
1F
100
AcDbEntity
  8
0
  6
Continuous
 62
     7
370
    30
100
AcDbPolyline
 90
       28
 70
   128
 43
0.0
 10
679.6116523517
 20
218.971040438
 10
681.9556780383
 20
220.2892473299
 10
684.3586742051
 20
221.5715804551
 10
686.8189939587
 20
222.8171609662
 10
689.3349511188
 20
224.0251352048
 10
691.9048213739
 20
225.1946752856
 10
694.5268434634
 20
226.3249796642
 10
697.1992203844
 20
227.4152736865
 10
699.9201206231
 20
228.4648101194
 10
702.6876794105
 20
229.4728696631
 10
705.5
 20
230.4387614439
 10
708.3551549675
 20
231.3618234878
 10
711.2511875326
 20
232.2414231743
 10
714.186112899
 20
233.0769576696
 10
717.1579196155
 20
233.8678543401
 10
720.1645709544
 20
234.6135711448
 10
723.2040063068
 20
235.3135970066
 10
726.2741425958
 20
235.9674521627
 10
729.3728757031
 20
236.5746884936
 10
732.498081912
 20
237.1348898296
 10
735.6476193622
 20
237.6476722369
 10
738.819329518
 20
238.1126842799
 10
742.0110386478
 20
238.5296072627
 10
745.2205593135
 20
238.8981554471
 10
748.44569187
 20
239.2180762485
 10
751.6842259725
 20
239.4891504092
 10
754.9339420915
 20
239.7111921486
 10
755.0
 20
239.7151899943
  0
LWPOLYLINE
  5
188
330
1F
100
AcDbEntity
  8
0
  6
Continuous
 62
     7
370
    30
100
AcDbPolyline
 90
      209
 70
   128
 43
0.0
 10
781.0
 20
239.7151899943
 10
781.0660579085
 20
239.7111921486
 10
784.3157740275
 20
239.4891504092
 10
787.55430813
 20
239.2180762485
 10
790.7794406865
 20
238.8981554471
 10
793.9889613522
 20
238.5296072627
 10
797.180670482
 20
238.1126842799
 10
800.3523806378
 20
237.6476722369
 10
803.501918088
 20
237.1348898296
 10
806.6271242969
 20
236.5746884936
 10
809.7258574042
 20
235.9674521627
 10
812.7959936932
 20
235.3135970066
 10
815.8354290456
 20
234.6135711448
 10
818.8420803845
 20
233.8678543401
 10
821.813887101
 20
233.0769576696
 10
824.7488124674
 20
232.2414231743
 10
827.6448450325
 20
231.3618234878
 10
830.5
 20
230.4387614439
 10
833.3123205895
 20
229.4728696631
 10
836.0798793769
 20
228.4648101194
 10
838.8007796156
 20
227.4152736865
 10
841.4731565366
 20
226.3249796642
 10
844.0951786261
 20
225.1946752856
 10
846.6650488812
 20
224.0251352048
 10
849.1810060413
 20
222.8171609662
 10
851.6413257949
 20
221.5715804551
 10
854.0443219617
 20
220.2892473299
 10
856.3883476483
 20
218.971040438
 10
858.6717963765
 20
217.6178632123
 10
860.8931031847
 20
216.230643053
 10
863.0507457
 20
214.8103306914
 10
865.1432451821
 20
213.3578995388
 10
867.1691675364
 20
211.8743450188
 10
869.1271242969
 20
210.3606838857
 10
871.0157735778
 20
208.8179535272
 10
872.8338209932
 20
207.2472112536
 10
874.5800205443
 20
205.6495335731
 10
876.2531754731
 20
204.0260154544
 10
877.8521390827
 20
202.3777695755
 10
879.3758155235
 20
200.7059255619
 10
880.8231605437
 20
199.011629212
 10
882.1931822053
 20
197.2960417119
 10
883.4849415639
 20
195.5603388394
 10
884.6975533122
 20
193.8057101588
 10
885.8301863865
 20
192.0333582047
 10
886.8820645369
 20
190.2444976588
 10
887.8524668585
 20
188.4403545167
 10
888.7407282861
 20
186.622165248
 10
889.5462400497
 20
184.7911759487
 10
890.2684500917
 20
182.9486414875
 10
890.9068634455
 20
181.0958246456
 10
891.4610425744
 20
179.2339952508
 10
891.9306076717
 20
177.3644293083
 10
892.315236921
 20
175.488408125
 10
892.6146667166
 20
173.6072174322
 10
892.8286918443
 20
171.722146504
 10
892.9571656219
 20
169.8344872738
 10
893.0
 20
167.945533449
 10
892.9571656219
 20
166.0565796243
 10
892.8286918443
 20
164.1689203941
 10
892.6146667166
 20
162.2838494659
 10
892.315236921
 20
160.4026587731
 10
891.9306076717
 20
158.5266375898
 10
891.4610425744
 20
156.6570716472
 10
890.9068634455
 20
154.7952422525
 10
890.2684500917
 20
152.9424254105
 10
889.5462400497
 20
151.0998909494
 10
888.7407282861
 20
149.2689016501
 10
887.8524668585
 20
147.4507123814
 10
886.8820645369
 20
145.6465692393
 10
885.8301863865
 20
143.8577086934
 10
884.6975533121
 20
142.0853567393
 10
883.4849415639
 20
140.3307280587
 10
882.1931822053
 20
138.5950251862
 10
880.8231605437
 20
136.8794376861
 10
879.3758155235
 20
135.1851413361
 10
877.8521390827
 20
133.5132973226
 10
876.2531754731
 20
131.8650514437
 10
874.5800205443
 20
130.2415333249
 10
872.8338209932
 20
128.6438556445
 10
871.0157735778
 20
127.0731133709
 10
869.1271242969
 20
125.5303830124
 10
867.1691675364
 20
124.0167218792
 10
865.1432451821
 20
122.5331673593
 10
863.0507457
 20
121.0807362067
 10
860.8931031847
 20
119.6604238451
 10
858.6717963765
 20
118.2732036858
 10
856.3883476483
 20
116.9200264601
 10
854.0443219617
 20
115.6018195681
 10
851.6413257949
 20
114.319486443
 10
849.1810060413
 20
113.0739059319
 10
846.6650488812
 20
111.8659316933
 10
844.0951786261
 20
110.6963916125
 10
841.4731565366
 20
109.5660872339
 10
838.8007796156
 20
108.4757932116
 10
836.0798793769
 20
107.4262567787
 10
833.3123205895
 20
106.418197235
 10
830.5
 20
105.4523054542
 10
827.6448450325
 20
104.5292434103
 10
824.7488124674
 20
103.6496437238
 10
821.813887101
 20
102.8141092285
 10
818.8420803845
 20
102.023212558
 10
815.8354290456
 20
101.2774957533
 10
812.7959936932
 20
100.5774698915
 10
809.7258574042
 20
99.9236147354
 10
806.6271242969
 20
99.3163784045
 10
803.501918088
 20
98.7561770685
 10
800.3523806378
 20
98.2433946612
 10
797.180670482
 20
97.7783826181
 10
793.9889613522
 20
97.3614596353
 10
790.7794406865
 20
96.992911451
 10
787.55430813
 20
96.6729906496
 10
784.3157740275
 20
96.4019164889
 10
781.0660579085
 20
96.1798747495
 10
777.807386966
 20
96.0070176079
 10
774.5419945304
 20
95.8834635316
 10
771.2721185385
 20
95.8092971985
 10
768.0
 20
95.7845694384
 10
764.7278814615
 20
95.8092971985
 10
761.4580054696
 20
95.8834635316
 10
758.192613034
 20
96.0070176079
 10
754.9339420915
 20
96.1798747495
 10
751.6842259725
 20
96.4019164889
 10
748.44569187
 20
96.6729906496
 10
745.2205593135
 20
96.992911451
 10
742.0110386478
 20
97.3614596353
 10
738.819329518
 20
97.7783826181
 10
735.6476193622
 20
98.2433946612
 10
732.498081912
 20
98.7561770685
 10
729.3728757031
 20
99.3163784045
 10
726.2741425958
 20
99.9236147354
 10
723.2040063068
 20
100.5774698915
 10
720.1645709544
 20
101.2774957533
 10
717.1579196155
 20
102.023212558
 10
714.186112899
 20
102.8141092285
 10
711.2511875326
 20
103.6496437238
 10
708.3551549675
 20
104.5292434103
 10
705.5
 20
105.4523054542
 10
702.6876794105
 20
106.418197235
 10
699.9201206231
 20
107.4262567787
 10
697.1992203844
 20
108.4757932116
 10
694.5268434634
 20
109.5660872339
 10
691.9048213739
 20
110.6963916125
 10
689.3349511188
 20
111.8659316933
 10
686.8189939587
 20
113.0739059319
 10
684.3586742051
 20
114.319486443
 10
681.9556780383
 20
115.6018195681
 10
679.6116523517
 20
116.9200264601
 10
677.3282036235
 20
118.2732036858
 10
675.1068968153
 20
119.6604238451
 10
672.9492543
 20
121.0807362067
 10
670.8567548179
 20
122.5331673593
 10
668.8308324636
 20
124.0167218792
 10
666.8728757031
 20
125.5303830124
 10
664.9842264222
 20
127.0731133709
 10
663.1661790068
 20
128.6438556445
 10
661.4199794557
 20
130.2415333249
 10
659.7468245269
 20
131.8650514437
 10
658.1478609173
 20
133.5132973226
 10
656.6241844765
 20
135.1851413361
 10
655.1768394563
 20
136.8794376861
 10
653.8068177947
 20
138.5950251862
 10
652.5150584361
 20
140.3307280587
 10
651.3024466878
 20
142.0853567393
 10
650.1698136135
 20
143.8577086934
 10
649.1179354631
 20
145.6465692393
 10
648.1475331415
 20
147.4507123814
 10
647.2592717139
 20
149.2689016501
 10
646.4537599503
 20
151.0998909494
 10
645.7315499083
 20
152.9424254105
 10
645.0931365545
 20
154.7952422525
 10
644.5389574256
 20
156.6570716472
 10
644.0693923283
 20
158.5266375898
 10
643.684763079
 20
160.4026587731
 10
643.3853332834
 20
162.2838494659
 10
643.1713081557
 20
164.1689203941
 10
643.0428343781
 20
166.0565796243
 10
643.0
 20
167.945533449
 10
643.0428343781
 20
169.8344872738
 10
643.1713081557
 20
171.722146504
 10
643.3853332834
 20
173.6072174322
 10
643.684763079
 20
175.488408125
 10
644.0693923283
 20
177.3644293083
 10
644.5389574256
 20
179.2339952508
 10
645.0931365545
 20
181.0958246456
 10
645.7315499083
 20
182.9486414875
 10
646.4537599503
 20
184.7911759487
 10
647.2592717139
 20
186.622165248
 10
648.1475331415
 20
188.4403545167
 10
649.1179354631
 20
190.2444976588
 10
650.1698136135
 20
192.0333582047
 10
651.3024466879
 20
193.8057101588
 10
652.5150584361
 20
195.5603388394
 10
653.8068177947
 20
197.2960417119
 10
655.1768394563
 20
199.011629212
 10
656.6241844765
 20
200.7059255619
 10
658.1478609173
 20
202.3777695755
 10
659.7468245269
 20
204.0260154544
 10
661.4199794557
 20
205.6495335732
 10
663.1661790068
 20
207.2472112536
 10
664.9842264222
 20
208.8179535272
 10
666.8728757031
 20
210.3606838857
 10
668.8308324636
 20
211.8743450188
 10
670.8567548179
 20
213.3578995388
 10
672.9492543
 20
214.8103306914
 10
675.1068968153
 20
216.230643053
 10
677.3282036235
 20
217.6178632123
 10
679.6116523517
 20
218.971040438
 10
679.6116523517
 20
218.971040438
  0
LINE
  5
189
330
1F
100
AcDbEntity
  8
0
  6
Continuous
 62
     7
370
    30
100
AcDbLine
 10
643.0
 20
161.413206954
 30
0.0
 11
643.0001958414
 21
161.2854706449
 31
0.0
  0
LINE
  5
18A
330
1F
100
AcDbEntity
  8
0
  6
Continuous
 62
     7
370
    30
100
AcDbLine
 10
892.9997863705
 20
161.2797956206
 30
0.0
 11
893.0
 21
161.413206954
 31
0.0
  0
LWPOLYLINE
  5
18B
330
1F
100
AcDbEntity
  8
0
  6
Continuous
 62
     7
370
    30
100
AcDbPolyline
 90
      134
 70
   128
 43
0.0
 10
756.7403529172
 20
201.5103933648
 10
756.6975285803
 20
201.3398889508
 10
756.6624503928
 20
201.1687958189
 10
756.6351423954
 20
200.9972312277
 10
756.6156233038
 20
200.8253127591
 10
756.6039064953
 20
200.6531582373
 10
756.6
 20
200.4808856485
 10
756.6039064953
 20
200.3086130597
 10
756.6156233038
 20
200.1364585379
 10
756.6351423954
 20
199.9645400692
 10
756.6624503928
 20
199.792975478
 10
756.6975285803
 20
199.6218823461
 10
756.7403529172
 20
199.4513779321
 10
756.7908940538
 20
199.2815790913
 10
756.8491173516
 20
199.1126021954
 10
756.9149829075
 20
198.9445630525
 10
756.9884455803
 20
198.7775768284
 10
757.0694550225
 20
198.6117579671
 10
757.1579557142
 20
198.4472201125
 10
757.2538870015
 20
198.2840760308
 10
757.3571831379
 20
198.1224375325
 10
757.4677733294
 20
197.9624153969
 10
757.5855817829
 20
197.8041192949
 10
757.7105277584
 20
197.6476577149
 10
757.8425256243
 20
197.4931378878
 10
757.9814849157
 20
197.3406657137
 10
758.1273103969
 20
197.1903456896
 10
758.2799021264
 20
197.0422808372
 10
758.4391555254
 20
196.8965726327
 10
758.6049614497
 20
196.7533209373
 10
758.7772062641
 20
196.6126239286
 10
758.9557719207
 20
196.4745780333
 10
759.1405360394
 20
196.3392778611
 10
759.3313719922
 20
196.20681614
 10
759.5281489896
 20
196.0772836526
 10
759.7307321705
 20
195.9507691741
 10
759.9389826945
 20
195.8273594111
 10
760.1527578371
 20
195.7071389425
 10
760.3719110875
 20
195.5901901615
 10
760.596292249
 20
195.4765932189
 10
760.825747542
 20
195.3664259683
 10
761.0601197093
 20
195.259763913
 10
761.2992481239
 20
195.1566801537
 10
761.5429688991
 20
195.0572453388
 10
761.7911150008
 20
194.9615276161
 10
762.0435163622
 20
194.8695925858
 10
762.3
 20
194.7815032553
 10
762.560390133
 20
194.6973199969
 10
762.824508303
 20
194.6171005055
 10
763.0921734964
 20
194.5408997596
 10
763.3632022689
 20
194.4687699832
 10
763.637408871
 20
194.4007606106
 10
763.9146053752
 20
194.336918252
 10
764.1946018047
 20
194.2772866618
 10
764.4772062641
 20
194.2219067084
 10
764.7622250704
 20
194.1708163466
 10
765.0494628858
 20
194.124050591
 10
765.338722852
 20
194.0816414927
 10
765.6298067247
 20
194.0436181167
 10
765.9225150094
 20
194.0100065222
 10
766.2166470985
 20
193.9808297452
 10
766.5120014087
 20
193.9561077817
 10
766.8083755187
 20
193.9358575751
 10
767.1055663087
 20
193.9200930038
 10
767.4033700988
 20
193.908824872
 10
767.7015827893
 20
193.9020609024
 10
768.0
 20
193.8998057307
 10
768.2984172107
 20
193.9020609024
 10
768.5966299012
 20
193.908824872
 10
768.8944336913
 20
193.9200930038
 10
769.1916244813
 20
193.9358575751
 10
769.4879985913
 20
193.9561077817
 10
769.7833529015
 20
193.9808297452
 10
770.0774849906
 20
194.0100065222
 10
770.3701932753
 20
194.0436181167
 10
770.661277148
 20
194.0816414927
 10
770.9505371142
 20
194.124050591
 10
771.2377749296
 20
194.1708163466
 10
771.5227937359
 20
194.2219067084
 10
771.8053981953
 20
194.2772866618
 10
772.0853946248
 20
194.336918252
 10
772.362591129
 20
194.4007606106
 10
772.6367977311
 20
194.4687699832
 10
772.9078265036
 20
194.5408997596
 10
773.175491697
 20
194.6171005055
 10
773.439609867
 20
194.6973199969
 10
773.7
 20
194.7815032553
 10
773.9564836378
 20
194.8695925858
 10
774.2088849992
 20
194.9615276161
 10
774.4570311009
 20
195.0572453388
 10
774.7007518761
 20
195.1566801537
 10
774.9398802907
 20
195.259763913
 10
775.174252458
 20
195.3664259683
 10
775.403707751
 20
195.4765932189
 10
775.6280889125
 20
195.5901901615
 10
775.8472421629
 20
195.7071389425
 10
776.0610173055
 20
195.8273594111
 10
776.2692678295
 20
195.9507691741
 10
776.4718510104
 20
196.0772836526
 10
776.6686280078
 20
196.20681614
 10
776.8594639606
 20
196.3392778611
 10
777.0442280793
 20
196.4745780333
 10
777.2227937359
 20
196.6126239286
 10
777.3950385503
 20
196.7533209373
 10
777.5608444746
 20
196.8965726327
 10
777.7200978736
 20
197.0422808372
 10
777.8726896031
 20
197.1903456896
 10
778.0185150843
 20
197.3406657137
 10
778.1574743757
 20
197.4931378878
 10
778.2894722416
 20
197.6476577149
 10
778.4144182171
 20
197.8041192949
 10
778.5322266706
 20
197.9624153969
 10
778.6428168621
 20
198.1224375325
 10
778.7461129985
 20
198.2840760308
 10
778.8420442858
 20
198.4472201125
 10
778.9305449775
 20
198.6117579671
 10
779.0115544197
 20
198.7775768284
 10
779.0850170925
 20
198.9445630525
 10
779.1508826484
 20
199.1126021954
 10
779.2091059462
 20
199.2815790913
 10
779.2596470828
 20
199.4513779321
 10
779.3024714197
 20
199.6218823461
 10
779.3375496072
 20
199.792975478
 10
779.3648576046
 20
199.9645400692
 10
779.3843766962
 20
200.1364585379
 10
779.3960935047
 20
200.3086130597
 10
779.4
 20
200.4808856485
 10
779.3960935047
 20
200.6531582373
 10
779.3843766962
 20
200.8253127591
 10
779.3648576046
 20
200.9972312277
 10
779.3375496072
 20
201.1687958189
 10
779.3024714197
 20
201.3398889508
 10
779.2596470828
 20
201.5103933648
 10
779.2596466398
 20
201.5103949795
  0
LWPOLYLINE
  5
18C
330
1F
100
AcDbEntity
  8
0
  6
Continuous
 62
     7
370
    30
100
AcDbPolyline
 90
       84
 70
   128
 43
0.0
 10
756.6
 20
189.3759306069
 10
756.6012522791
 20
189.2783205484
 10
756.607871621
 20
189.1313832338
 10
756.620173839
 20
188.9845679097
 10
756.6381527962
 20
188.8379478139
 10
756.6617995241
 20
188.6915960868
 10
756.6911022265
 20
188.5455857346
 10
756.7260462861
 20
188.3999895937
 10
756.7666142712
 20
188.2548802934
 10
756.8127859449
 20
188.1103302206
 10
756.8645382748
 20
187.9664114828
 10
756.9218454447
 20
187.8231958728
 10
756.9846788671
 20
187.6807548327
 10
757.0530071983
 20
187.5391594181
 10
757.1267963532
 20
187.3984802627
 10
757.2060095225
 20
187.2587875433
 10
757.2906071914
 20
187.1201509445
 10
757.380547159
 20
186.9826396242
 10
757.4757845594
 20
186.8463221788
 10
757.5762718842
 20
186.7112666091
 10
757.6819590061
 20
186.5775402868
 10
757.7927932038
 20
186.44520992
 10
757.9087191886
 20
186.3143415209
 10
758.0296791316
 20
186.185000372
 10
758.1556126929
 20
186.0572509943
 10
758.2864570515
 20
185.9311571146
 10
758.4221469368
 20
185.8067816337
 10
758.5626146608
 20
185.6841865955
 10
758.7077901523
 20
185.5634331556
 10
758.8576009916
 20
185.4445815509
 10
759.0119724468
 20
185.3276910696
 10
759.1708275107
 20
185.2128200216
 10
759.3340869398
 20
185.1000257095
 10
759.5016692934
 20
184.9893643998
 10
759.6734909743
 20
184.8808912952
 10
759.8494662704
 20
184.7746605065
 10
760.0295073981
 20
184.6707250263
 10
760.213524545
 20
184.5691367018
 10
760.4014259156
 20
184.4699462098
 10
760.5931177768
 20
184.3732030305
 10
760.7885045045
 20
184.2789554236
 10
760.9874886316
 20
184.1872504038
 10
761.1899708964
 20
184.0981337175
 10
761.3958502921
 20
184.0116498197
 10
761.6050241174
 20
183.9278418524
 10
761.8173880275
 20
183.8467516226
 10
762.0328360863
 20
183.7684195813
 10
762.2512608191
 20
183.6928848041
 10
762.4725532666
 20
183.6201849708
 10
762.6966030386
 20
183.5503563471
 10
762.9232983696
 20
183.4834337667
 10
763.1525261743
 20
183.4194506132
 10
763.3841721044
 20
183.3584388042
 10
763.6181206048
 20
183.300428775
 10
763.8542549723
 20
183.2454494634
 10
764.092457413
 20
183.1935282954
 10
764.3326091014
 20
183.1446911716
 10
764.5745902398
 20
183.0989624539
 10
764.8182801175
 20
183.0563649537
 10
765.063557172
 20
183.0169199205
 10
765.3102990484
 20
182.9806470312
 10
765.5583826616
 20
182.9475643802
 10
765.807684257
 20
182.9176884705
 10
766.0580794723
 20
182.8910342055
 10
766.3094433998
 20
182.8676148815
 10
766.5616506485
 20
182.847442181
 10
766.8145754068
 20
182.830526167
 10
767.0680915051
 20
182.816875278
 10
767.3220724788
 20
182.8064963236
 10
767.5763916315
 20
182.7993944812
 10
767.8309220979
 20
182.7955732936
 10
768.0855369076
 20
182.7950346668
 10
768.3401090479
 20
182.7977788697
 10
768.5945115273
 20
182.8038045333
 10
768.8486174393
 20
182.8131086517
 10
769.1023000249
 20
182.8256865836
 10
769.3554327366
 20
182.8415320547
 10
769.607889301
 20
182.8606371605
 10
769.8595437821
 20
182.8829923707
 10
770.1102706441
 20
182.9085865334
 10
770.3599448136
 20
182.9374068812
 10
770.6084417428
 20
182.9694390374
 10
770.8556374707
 20
183.0046670229
 10
771.1014082141
 20
183.0430747464
  0
ARC
  5
18D
330
1F
100
AcDbEntity
  8
0
  6
Continuous
 62
     7
370
    30
100
AcDbCircle
 10
775.3549201633
 20
189.400560405
 30
0.0
 40
4.045154819318283
100
AcDbArc
 50
333.3401239557
 51
359.6511401258
  0
LINE
  5
18E
330
1F
100
AcDbEntity
  8
0
  6
Continuous
 62
     7
370
    30
100
AcDbLine
 10
778.9700167315
 20
190.0351481904
 30
0.0
 11
778.9700176859
 21
187.5855266823
 31
0.0
  0
LWPOLYLINE
  5
18F
330
1F
100
AcDbEntity
  8
0
  6
Continuous
 62
     7
370
    30
100
AcDbPolyline
 90
       46
 70
   128
 43
0.0
 10
771.1014082141
 20
185.4926971821
 10
771.3491819304
 20
185.5348919832
 10
771.5952358492
 20
185.580317025
 10
771.8394436222
 20
185.6289489818
 10
772.0816798492
 20
185.6807628812
 10
772.3218201426
 20
185.735732117
 10
772.5597411909
 20
185.7938284625
 10
772.7953208219
 20
185.8550220854
 10
773.0284380662
 20
185.9192815629
 10
773.2589732186
 20
185.9865738978
 10
773.4868078997
 20
186.0568645358
 10
773.711825117
 20
186.1301173828
 10
773.9339093245
 20
186.2062948235
 10
774.1529464826
 20
186.285357741
 10
774.3688241161
 20
186.3672655367
 10
774.5814313724
 20
186.451976151
 10
774.790659078
 20
186.5394460854
 10
774.996399795
 20
186.6296304241
 10
775.1985478761
 20
186.7224828578
 10
775.3969995185
 20
186.8179557068
 10
775.5916528179
 20
186.9159999461
 10
775.7824078201
 20
187.0165652302
 10
775.969166573
 20
187.119599919
 10
776.1518331762
 20
187.2250511044
 10
776.3303138309
 20
187.3328646376
 10
776.5045168877
 20
187.4429851564
 10
776.6743528936
 20
187.5553561142
 10
776.8397346383
 20
187.6699198089
 10
777.0005771986
 20
187.7866174121
 10
777.1567979822
 20
187.9053889999
 10
777.30831677
 20
188.0261735834
 10
777.4550557575
 20
188.1489091399
 10
777.5969395946
 20
188.273532645
 10
777.7338954242
 20
188.3999801049
 10
777.8658529197
 20
188.528186589
 10
777.9927443213
 20
188.6580862635
 10
778.1145044706
 20
188.7896124253
 10
778.231070844
 20
188.9226975359
 10
778.3423835848
 20
189.0572732566
 10
778.4483855343
 20
189.1932704828
 10
778.5490222606
 20
189.3306193804
 10
778.6442420871
 20
189.4692494209
 10
778.7339961185
 20
189.6090894182
 10
778.8182382664
 20
189.7500675648
 10
778.8969252726
 20
189.8921114686
 10
778.9700167315
 20
190.0351481904
  0
LINE
  5
190
330
1F
100
AcDbEntity
  8
0
  6
Continuous
 62
     7
370
    30
100
AcDbLine
 10
771.1014082141
 20
183.0430747464
 30
0.0
 11
771.1014082141
 21
185.4926971821
 31
0.0
  0
LINE
  5
191
330
1F
100
AcDbEntity
  8
0
  6
Continuous
 62
     7
370
    30
100
AcDbLine
 10
783.9992148229
 20
182.4064629103
 30
0.0
 11
783.9994275926
 21
182.3983008466
 31
0.0
  0
LINE
  5
192
330
1F
100
AcDbEntity
  8
0
  6
Continuous
 62
     7
370
    30
100
AcDbLine
 10
752.0006094607
 20
173.2530543892
 30
0.0
 11
752.000825501
 21
173.2453056945
 31
0.0
  0
LINE
  5
193
330
1F
100
AcDbEntity
  8
0
  6
Continuous
 62
     7
370
    30
100
AcDbLine
 10
783.9996210175
 20
173.2447765295
 30
0.0
 11
783.9993905394
 21
173.2530430634
 31
0.0
  0
ARC
  5
194
330
1F
100
AcDbEntity
  8
0
  6
Continuous
 62
     7
370
    30
100
AcDbCircle
 10
772.2927757799
 20
185.8780796982
 30
0.0
 40
4.328789988447741
100
AcDbArc
 50
294.4014565931
 51
354.2784024493
  0
ARC
  5
195
330
1F
100
AcDbEntity
  8
0
  6
Continuous
 62
     7
370
    30
100
AcDbCircle
 10
763.9171822232
 20
186.0901690545
 30
0.0
 40
4.609837419328403
100
AcDbArc
 50
193.2130098402
 51
244.3109975337
  0
SPLINE
  5
196
330
1F
100
AcDbEntity
  8
0
  6
Continuous
 62
     7
370
    30
100
AcDbSpline
210
0.0
220
0.0
230
1.0
 70
     8
 71
     3
 72
    33
 73
    29
 74
     0
 42
0.000000001
 43
0.00000001
 40
0.0
 40
0.0
 40
0.0
 40
0.0
 40
0.0133641520538993
 40
0.0443142550839701
 40
0.0752643581140408
 40
0.1254565930459987
 40
0.1757394615829521
 40
0.2264324425681238
 40
0.2772188028742119
 40
0.3139560651898657
 40
0.3507288139511371
 40
0.3815944723919733
 40
0.4124601308328095
 40
0.4434102338628798
 40
0.4743603368929497
 40
0.5245525718249074
 40
0.5748354403618597
 40
0.625528421347031
 40
0.6763147816531198
 40
0.7130520439687733
 40
0.7498247927300448
 40
0.78069045117088
 40
0.8115561096117154
 40
0.8425062126417867
 40
0.8734563156718573
 40
0.9236485506038162
 40
0.9739314191407699
 40
1.0
 40
1.0
 40
1.0
 40
1.0
 10
758.2500887663605
 20
178.2481527957534
 30
0.0
 10
758.2265541363541
 20
178.2692794038512
 30
0.0
 10
758.1485155452633
 20
178.3393332236916
 30
0.0
 10
758.0230437632023
 20
178.4608771199132
 30
0.0
 10
757.8426814416848
 20
178.6440319230711
 30
0.0
 10
757.6446144373381
 20
178.8630804409208
 30
0.0
 10
757.435317273427
 20
179.1203111230871
 30
0.0
 10
757.244531921119
 20
179.3835148421978
 30
0.0
 10
757.0887234566158
 20
179.6273067236935
 30
0.0
 10
756.9627742697039
 20
179.8493496561773
 30
0.0
 10
756.8670917841456
 20
180.0376164528619
 30
0.0
 10
756.7856334966498
 20
180.2166995165703
 30
0.0
 10
756.7166270656086
 20
180.3862941074941
 30
0.0
 10
756.655266513117
 20
180.5570279763518
 30
0.0
 10
756.5904928654913
 20
180.7643773559413
 30
0.0
 10
756.5290216850018
 20
181.0089029079508
 30
0.0
 10
756.4790656198962
 20
181.291633818256
 30
0.0
 10
756.4499369921041
 20
181.5764548353671
 30
0.0
 10
756.4427006694772
 20
181.8362770993421
 30
0.0
 10
756.4511660120336
 20
182.0698701360747
 30
0.0
 10
756.4688253133278
 20
182.2658077656646
 30
0.0
 10
756.4946436929814
 20
182.4503608535003
 30
0.0
 10
756.526762170482
 20
182.6235825290688
 30
0.0
 10
756.5667835461961
 20
182.7964124993775
 30
0.0
 10
756.6244275389824
 20
183.0044710853881
 30
0.0
 10
756.7073832818776
 20
183.2468340018189
 30
0.0
 10
756.8010601176098
 20
183.4785825958645
 30
0.0
 10
756.8708868929423
 20
183.616318479965
 30
0.0
 10
756.8947277624122
 20
183.6633454723835
 30
0.0
  0
SPLINE
  5
197
330
1F
100
AcDbEntity
  8
0
  6
Continuous
 62
     7
370
    30
100
AcDbSpline
210
0.0
220
0.0
230
1.0
 70
     8
 71
     3
 72
    34
 73
    30
 74
     0
 42
0.000000001
 43
0.00000001
 40
0.0
 40
0.0
 40
0.0
 40
0.0
 40
0.0098835236373045
 40
0.0412668548884438
 40
0.0726501861395837
 40
0.1041224040541551
 40
0.1355946219687268
 40
0.1736401536507647
 40
0.211725151823648
 40
0.2484403769336716
 40
0.2851910672024229
 40
0.3160382105765627
 40
0.3468853539507031
 40
0.3778168912591661
 40
0.4087484285676296
 40
0.4589105551972189
 40
0.5091632610643501
 40
0.5598258333697377
 40
0.6105817289815446
 40
0.6472969540915698
 40
0.6840476443603215
 40
0.7148947877344631
 40
0.7457419311086044
 40
0.7766734684170699
 40
0.8076050057255348
 40
0.8577671323551189
 40
0.9080198382222453
 40
0.9586824105276328
 40
1.0
 40
1.0
 40
1.0
 40
1.0
 10
779.1071361871841
 20
183.6633417894155
 30
0.0
 10
779.1162337204885
 20
183.6455119378018
 30
0.0
 10
779.1542188157333
 20
183.5710666360828
 30
0.0
 10
779.2132000027686
 20
183.4387148892371
 30
0.0
 10
779.2838701269274
 20
183.2662426408093
 30
0.0
 10
779.3460724310233
 20
183.0924965996848
 30
0.0
 10
779.4042305186929
 20
182.9055478008174
 30
0.0
 10
779.4559822958878
 20
182.7053721691283
 30
0.0
 10
779.4985358442589
 20
182.4945462312427
 30
0.0
 10
779.5291572774992
 20
182.2854780056063
 30
0.0
 10
779.5472593860123
 20
182.0895545155271
 30
0.0
 10
779.5551780630681
 20
181.9044566192314
 30
0.0
 10
779.5547594109764
 20
181.7302463791872
 30
0.0
 10
779.5464459597297
 20
181.555942646396
 30
0.0
 10
779.5268646810018
 20
181.345552005601
 30
0.0
 10
779.4892566929936
 20
181.0994205557333
 30
0.0
 10
779.4252194737796
 20
180.8176372520484
 30
0.0
 10
779.3400805112956
 20
180.5365854983375
 30
0.0
 10
779.2435968876808
 20
180.2827692365098
 30
0.0
 10
779.1422839034848
 20
180.0565637838957
 30
0.0
 10
779.0470263585812
 20
179.8682251771073
 30
0.0
 10
778.9483674660506
 20
179.6920483505022
 30
0.0
 10
778.8480826283304
 20
179.5277388799266
 30
0.0
 10
778.7402991348041
 20
179.3648480960469
 30
0.0
 10
778.6011710921831
 20
179.1700652149954
 30
0.0
 10
778.4246577668807
 20
178.9449576805555
 30
0.0
 10
778.2022486457344
 20
178.6914462361226
 30
0.0
 10
777.9772379851431
 20
178.457467461043
 30
0.0
 10
777.817649100075
 20
178.3110392537409
 30
0.0
 10
777.7459615980077
 20
178.245263542549
 30
0.0
  0
ARC
  5
198
330
1F
100
AcDbEntity
  8
0
  6
Continuous
 62
     7
370
    30
100
AcDbCircle
 10
768.0
 20
193.6641250138
 30
0.0
 40
13.21096869949159
100
AcDbArc
 50
242.5929977738
 51
297.407002226
  0
LINE
  5
199
330
1F
100
AcDbEntity
  8
0
  6
Continuous
 62
     7
370
    30
100
AcDbLine
 10
780.1411157331
 20
180.6259127043
 30
0.0
 11
780.1284566483
 21
180.6051162966
 31
0.0
  0
SPLINE
  5
19A
330
1F
100
AcDbEntity
  8
0
  6
Continuous
 62
     7
370
    30
100
AcDbSpline
210
0.0
220
0.0
230
1.0
 70
     8
 71
     3
 72
    31
 73
    27
 74
     0
 42
0.000000001
 43
0.00000001
 40
0.0
 40
0.0
 40
0.0
 40
0.0
 40
0.0461819215957221
 40
0.0923631931347058
 40
0.1437528848857541
 40
0.1951413354533449
 40
0.2469108071705387
 40
0.2986789013013745
 40
0.3337489525788044
 40
0.3688246633478474
 40
0.4038939022424488
 40
0.4519457589580936
 40
0.4999973061437077
 40
0.5318683394995044
 40
0.5637394132239869
 40
0.6002586936561479
 40
0.6367855377892877
 40
0.6733056281602009
 40
0.719302421043405
 40
0.7653000492860271
 40
0.8028201894447767
 40
0.8403459128555802
 40
0.877867346769798
 40
0.9110349255566556
 40
0.9442026974871299
 40
1.0
 40
1.0
 40
1.0
 40
1.0
 10
778.9700185259037
 20
187.5855277158292
 30
0.0
 10
778.8527245138285
 20
187.4724331459389
 30
0.0
 10
778.618138140709
 20
187.2462455980775
 30
0.0
 10
778.2496963334013
 20
186.90420803152
 30
0.0
 10
777.8651942124944
 20
186.5590236801515
 30
0.0
 10
777.4630933404554
 20
186.2129855551821
 30
0.0
 10
777.0570253994368
 20
185.8794356136162
 30
0.0
 10
776.691260927411
 20
185.5942228295723
 30
0.0
 10
776.3679911718119
 20
185.3540622778608
 30
0.0
 10
776.0880525369586
 20
185.1546089547118
 30
0.0
 10
775.7727062645088
 20
184.9397352255502
 30
0.0
 10
775.4218533193043
 20
184.7139226470989
 30
0.0
 10
775.0790508084094
 20
184.5083822939296
 30
0.0
 10
774.7796072041149
 20
184.339939399387
 30
0.0
 10
774.51122469865
 20
184.1968304562959
 30
0.0
 10
774.2307646092473
 20
184.0560996215534
 30
0.0
 10
773.9385391896795
 20
183.9190813274301
 30
0.0
 10
773.6219844286451
 20
183.7808761103632
 30
0.0
 10
773.2816482871452
 20
183.6444828275163
 30
0.0
 10
772.9405339594143
 20
183.5208038698192
 30
0.0
 10
772.6235161404211
 20
183.4164028584821
 30
0.0
 10
772.3302732877593
 20
183.3282205390231
 30
0.0
 10
772.0499341389647
 20
183.2515424810414
 30
0.0
 10
771.7823742711754
 20
183.185039057053
 30
0.0
 10
771.4692100644655
 20
183.1135631417986
 30
0.0
 10
771.2431739929019
 20
183.070243838309
 30
0.0
 10
771.1014082141087
 20
183.0430747464313
 30
0.0
  0
LINE
  5
19B
330
1F
100
AcDbEntity
  8
0
  6
Continuous
 62
     7
370
    30
100
AcDbLine
 10
755.8748411495
 20
180.6001407492
 30
0.0
 11
755.8590801393
 21
180.625953409
 31
0.0
  0
ARC
  5
19C
330
1F
100
AcDbEntity
  8
0
  6
Continuous
 62
     7
370
    30
100
AcDbCircle
 10
775.0865665471
 20
181.8301241675
 30
0.0
 40
4.996074045626549
100
AcDbArc
 50
339.2997959628
 51
61.5077262192
  0
ARC
  5
19D
330
1F
100
AcDbEntity
  8
0
  6
Continuous
 62
     7
370
    30
100
AcDbCircle
 10
760.7773381431
 20
181.8406370301
 30
0.0
 40
4.873393250879709
100
AcDbArc
 50
121.6056332039
 51
201.2465503018
  0
ARC
  5
19E
330
1F
100
AcDbEntity
  8
0
  6
Continuous
 62
     7
370
    30
100
AcDbCircle
 10
775.6279151039
 20
173.3406580125
 30
0.0
 40
8.310893396637457
100
AcDbArc
 50
295.2448319736
 51
348.1205055715
  0
LWPOLYLINE
  5
19F
330
1F
100
AcDbEntity
  8
0
  6
Continuous
 62
     7
370
    30
100
AcDbPolyline
 90
       89
 70
   128
 43
0.0
 10
752.2402364982
 20
171.621325964
 10
752.2485408086
 20
171.5575553856
 10
752.286389132
 20
171.3197703863
 10
752.3350067794
 20
171.08263882
 10
752.3943604307
 20
170.8463232046
 10
752.4644094077
 20
170.6109854991
 10
752.5451057026
 20
170.3767869923
 10
752.63639401
 20
170.143888192
 10
752.7382117656
 20
169.9124487155
 10
752.8504891884
 20
169.6826271799
 10
752.9731493292
 20
169.4545810933
 10
753.1061081229
 20
169.2284667471
 10
753.2492744461
 20
169.0044391089
 10
753.4025501798
 20
168.7826517159
 10
753.5658302764
 20
168.5632565702
 10
753.7390028319
 20
168.3464040342
 10
753.9219491626
 20
168.1322427278
 10
754.1145438861
 20
167.9209194266
 10
754.3166550076
 20
167.7125789609
 10
754.5281440102
 20
167.5073641168
 10
754.7488659501
 20
167.3054155385
 10
754.9786695553
 20
167.1068716313
 10
755.2173973299
 20
166.9118684673
 10
755.4648856619
 20
166.720539692
 10
755.7209649352
 20
166.5330164326
 10
755.9854596457
 20
166.349427208
 10
756.2581885221
 20
166.1698978413
 10
756.5389646495
 20
165.9945513728
 10
756.827595598
 20
165.8235079763
 10
757.1238835545
 20
165.6568848764
 10
757.4276254579
 20
165.4947962682
 10
757.7386131387
 20
165.3373532392
 10
758.0566334615
 20
165.1846636929
 10
758.381468471
 20
165.0368322751
 10
758.7128955416
 20
164.8939603021
 10
759.0506875297
 20
164.7561456913
 10
759.3946129295
 20
164.6234828938
 10
759.7444360318
 20
164.4960628302
 10
760.0999170852
 20
164.3739728277
 10
760.4608124609
 20
164.2572965608
 10
760.8268748191
 20
164.1461139935
 10
761.197853279
 20
164.0405013248
 10
761.5734935904
 20
163.9405309364
 10
761.9535383084
 20
163.846271343
 10
762.3377269692
 20
163.7577871454
 10
762.7257962691
 20
163.6751389863
 10
763.1174802447
 20
163.5983835085
 10
763.5125104555
 20
163.5275733164
 10
763.9106161675
 20
163.4627569398
 10
764.3115245389
 20
163.4039788007
 10
764.7149608072
 20
163.3512791826
 10
765.1206484772
 20
163.3046942031
 10
765.5283095109
 20
163.2642557894
 10
765.9376645178
 20
163.2299916559
 10
766.3484329465
 20
163.2019252855
 10
766.7603332767
 20
163.1800759134
 10
767.1730832125
 20
163.1644585143
 10
767.5863998758
 20
163.1550837914
 10
768.0
 20
163.1519581697
 10
768.4136001242
 20
163.1550837914
 10
768.8269167875
 20
163.1644585143
 10
769.2396667233
 20
163.1800759134
 10
769.6515670535
 20
163.2019252855
 10
770.0623354822
 20
163.2299916559
 10
770.4716904891
 20
163.2642557894
 10
770.8793515228
 20
163.3046942031
 10
771.2850391928
 20
163.3512791826
 10
771.6884754611
 20
163.4039788007
 10
772.0893838325
 20
163.4627569398
 10
772.4874895445
 20
163.5275733164
 10
772.8825197553
 20
163.5983835085
 10
773.2742037309
 20
163.6751389863
 10
773.6622730308
 20
163.7577871454
 10
774.0464616916
 20
163.846271343
 10
774.4265064096
 20
163.9405309364
 10
774.802146721
 20
164.0405013248
 10
775.1731251809
 20
164.1461139935
 10
775.5391875391
 20
164.2572965608
 10
775.9000829148
 20
164.3739728277
 10
776.2555639682
 20
164.4960628302
 10
776.6053870705
 20
164.6234828938
 10
776.9493124703
 20
164.7561456913
 10
777.2871044584
 20
164.8939603021
 10
777.618531529
 20
165.0368322751
 10
777.9433665385
 20
165.1846636929
 10
778.2613868613
 20
165.3373532392
 10
778.5723745421
 20
165.4947962682
 10
778.8761164455
 20
165.6568848764
 10
779.172404402
 20
165.8235079763
  0
ENDSEC
  0
SECTION
  2
OBJECTS
  0
DICTIONARY
  5
C
330
0
100
AcDbDictionary
281
     1
  3
ACAD_GROUP
350
D
  3
ACAD_LAYOUT
350
1A
  3
ACAD_MLINESTYLE
350
17
  3
ACAD_PLOTSETTINGS
350
19
  3
ACAD_PLOTSTYLENAME
350
E
  3
ACAD_SCALELIST
350
47
  0
DICTIONARY
  5
D
102
{ACAD_REACTORS
330
C
102
}
330
C
100
AcDbDictionary
281
     1
  0
DICTIONARY
  5
1A
102
{ACAD_REACTORS
330
C
102
}
330
C
100
AcDbDictionary
281
     1
  3
Layout1
350
1E
  3
Layout2
350
26
  3
Model
350
22
  0
DICTIONARY
  5
17
102
{ACAD_REACTORS
330
C
102
}
330
C
100
AcDbDictionary
281
     1
  3
Standard
350
18
  0
DICTIONARY
  5
19
102
{ACAD_REACTORS
330
C
102
}
330
C
100
AcDbDictionary
281
     1
  0
ACDBDICTIONARYWDFLT
  5
E
102
{ACAD_REACTORS
330
C
102
}
330
C
100
AcDbDictionary
281
     1
  3
Normal
350
F
100
AcDbDictionaryWithDefault
340
F
  0
DICTIONARY
  5
47
102
{ACAD_REACTORS
330
C
102
}
330
C
100
AcDbDictionary
281
     1
  3
A0
350
48
  3
A1
350
49
  3
A2
350
4A
  3
A3
350
4B
  3
A4
350
4C
  3
A5
350
4D
  3
A6
350
4E
  3
A7
350
4F
  3
A8
350
50
  3
A9
350
51
  3
B0
350
52
  3
B1
350
53
  3
B2
350
54
  3
B3
350
55
  3
B4
350
56
  3
B5
350
57
  3
B6
350
58
  3
B7
350
59
  3
B8
350
5A
  3
B9
350
5B
  3
C0
350
5C
  3
C1
350
5D
  3
C2
350
5E
  3
C3
350
5F
  3
C4
350
60
  3
C5
350
61
  3
C6
350
62
  3
C7
350
63
  3
C8
350
64
  3
C9
350
65
  3
D0
350
66
  3
D1
350
67
  3
D2
350
68
  0
LAYOUT
  5
1E
102
{ACAD_REACTORS
330
1A
102
}
330
1A
100
AcDbPlotSettings
  1

  2
none_device
  4

  6

 40
0.0
 41
0.0
 42
0.0
 43
0.0
 44
0.0
 45
0.0
 46
0.0
 47
0.0
 48
0.0
 49
0.0
140
0.0
141
0.0
142
1.0
143
1.0
 70
   688
 72
     1
 73
     0
 74
     5
  7

 75
    16
147
1.0
148
0.0
149
0.0
100
AcDbLayout
  1
Layout1
 70
     1
 71
     1
 10
0.0
 20
0.0
 11
420.0
 21
297.0
 12
0.0
 22
0.0
 32
0.0
 14
1.0000000000E+20
 24
1.0000000000E+20
 34
1.0000000000E+20
 15
-1.0000000000E+20
 25
-1.0000000000E+20
 35
-1.0000000000E+20
146
0.0
 13
0.0
 23
0.0
 33
0.0
 16
1.0
 26
0.0
 36
0.0
 17
0.0
 27
1.0
 37
0.0
 76
     0
330
1B
  0
LAYOUT
  5
26
102
{ACAD_REACTORS
330
1A
102
}
330
1A
100
AcDbPlotSettings
  1

  2
none_device
  4

  6

 40
0.0
 41
0.0
 42
0.0
 43
0.0
 44
0.0
 45
0.0
 46
0.0
 47
0.0
 48
0.0
 49
0.0
140
0.0
141
0.0
142
1.0
143
1.0
 70
   688
 72
     1
 73
     0
 74
     5
  7

 75
    16
147
1.0
148
0.0
149
0.0
100
AcDbLayout
  1
Layout2
 70
     1
 71
     2
 10
0.0
 20
0.0
 11
0.0
 21
0.0
 12
0.0
 22
0.0
 32
0.0
 14
0.0
 24
0.0
 34
0.0
 15
0.0
 25
0.0
 35
0.0
146
0.0
 13
0.0
 23
0.0
 33
0.0
 16
1.0
 26
0.0
 36
0.0
 17
0.0
 27
1.0
 37
0.0
 76
     0
330
23
  0
LAYOUT
  5
22
102
{ACAD_REACTORS
330
1A
102
}
330
1A
100
AcDbPlotSettings
  1

  2
none_device
  4
Letter_(8.50_x_11.00_Inches)
  6

 40
6.35
 41
6.35
 42
6.35000508
 43
6.35000508
 44
215.9
 45
279.4
 46
0.0
 47
0.0
 48
0.0
 49
0.0
140
0.0
141
0.0
142
1.0
143
1.0
 70
  1712
 72
     1
 73
     0
 74
     0
  7

 75
     0
147
1.0
148
0.0
149
0.0
100
AcDbLayout
  1
Model
 70
     1
 71
     0
 10
0.0
 20
0.0
 11
972.0
 21
702.0
 12
0.0
 22
0.0
 32
0.0
 14
0.0
 24
0.0
 34
0.0
 15
972.0
 25
702.0
 35
0.0
146
0.0
 13
0.0
 23
0.0
 33
0.0
 16
1.0
 26
0.0
 36
0.0
 17
0.0
 27
1.0
 37
0.0
 76
     0
330
1F
331
29
  0
MLINESTYLE
  5
18
102
{ACAD_REACTORS
330
17
102
}
330
17
100
AcDbMlineStyle
  2
Standard
 70
     0
  3

 62
   256
 51
90.0
 52
90.0
 71
     2
 49
0.5
 62
   256
  6
BYLAYER
 49
-0.5
 62
   256
  6
BYLAYER
  0
ACDBPLACEHOLDER
  5
F
102
{ACAD_REACTORS
330
E
102
}
330
E
  0
SCALE
  5
48
102
{ACAD_REACTORS
330
47
102
}
330
47
100
AcDbScale
 70
     0
300
1:1
140
1.0
141
1.0
290
     1
  0
SCALE
  5
49
102
{ACAD_REACTORS
330
47
102
}
330
47
100
AcDbScale
 70
     0
300
1:2
140
1.0
141
2.0
290
     0
  0
SCALE
  5
4A
102
{ACAD_REACTORS
330
47
102
}
330
47
100
AcDbScale
 70
     0
300
1:4
140
1.0
141
4.0
290
     0
  0
SCALE
  5
4B
102
{ACAD_REACTORS
330
47
102
}
330
47
100
AcDbScale
 70
     0
300
1:5
140
1.0
141
5.0
290
     0
  0
SCALE
  5
4C
102
{ACAD_REACTORS
330
47
102
}
330
47
100
AcDbScale
 70
     0
300
1:8
140
1.0
141
8.0
290
     0
  0
SCALE
  5
4D
102
{ACAD_REACTORS
330
47
102
}
330
47
100
AcDbScale
 70
     0
300
1:10
140
1.0
141
10.0
290
     0
  0
SCALE
  5
4E
102
{ACAD_REACTORS
330
47
102
}
330
47
100
AcDbScale
 70
     0
300
1:16
140
1.0
141
16.0
290
     0
  0
SCALE
  5
4F
102
{ACAD_REACTORS
330
47
102
}
330
47
100
AcDbScale
 70
     0
300
1:20
140
1.0
141
20.0
290
     0
  0
SCALE
  5
50
102
{ACAD_REACTORS
330
47
102
}
330
47
100
AcDbScale
 70
     0
300
1:30
140
1.0
141
30.0
290
     0
  0
SCALE
  5
51
102
{ACAD_REACTORS
330
47
102
}
330
47
100
AcDbScale
 70
     0
300
1:40
140
1.0
141
40.0
290
     0
  0
SCALE
  5
52
102
{ACAD_REACTORS
330
47
102
}
330
47
100
AcDbScale
 70
     0
300
1:50
140
1.0
141
50.0
290
     0
  0
SCALE
  5
53
102
{ACAD_REACTORS
330
47
102
}
330
47
100
AcDbScale
 70
     0
300
1:100
140
1.0
141
100.0
290
     0
  0
SCALE
  5
54
102
{ACAD_REACTORS
330
47
102
}
330
47
100
AcDbScale
 70
     0
300
2:1
140
2.0
141
1.0
290
     0
  0
SCALE
  5
55
102
{ACAD_REACTORS
330
47
102
}
330
47
100
AcDbScale
 70
     0
300
4:1
140
4.0
141
1.0
290
     0
  0
SCALE
  5
56
102
{ACAD_REACTORS
330
47
102
}
330
47
100
AcDbScale
 70
     0
300
8:1
140
8.0
141
1.0
290
     0
  0
SCALE
  5
57
102
{ACAD_REACTORS
330
47
102
}
330
47
100
AcDbScale
 70
     0
300
10:1
140
10.0
141
1.0
290
     0
  0
SCALE
  5
58
102
{ACAD_REACTORS
330
47
102
}
330
47
100
AcDbScale
 70
     0
300
100:1
140
100.0
141
1.0
290
     0
  0
SCALE
  5
59
102
{ACAD_REACTORS
330
47
102
}
330
47
100
AcDbScale
 70
     0
300
1/128" = 1'-0"
140
0.0078125
141
12.0
290
     0
  0
SCALE
  5
5A
102
{ACAD_REACTORS
330
47
102
}
330
47
100
AcDbScale
 70
     0
300
1/64" = 1'-0"
140
0.015625
141
12.0
290
     0
  0
SCALE
  5
5B
102
{ACAD_REACTORS
330
47
102
}
330
47
100
AcDbScale
 70
     0
300
1/32" = 1'-0"
140
0.03125
141
12.0
290
     0
  0
SCALE
  5
5C
102
{ACAD_REACTORS
330
47
102
}
330
47
100
AcDbScale
 70
     0
300
1/16" = 1'-0"
140
0.0625
141
12.0
290
     0
  0
SCALE
  5
5D
102
{ACAD_REACTORS
330
47
102
}
330
47
100
AcDbScale
 70
     0
300
3/32" = 1'-0"
140
0.09375
141
12.0
290
     0
  0
SCALE
  5
5E
102
{ACAD_REACTORS
330
47
102
}
330
47
100
AcDbScale
 70
     0
300
1/8" = 1'-0"
140
0.125
141
12.0
290
     0
  0
SCALE
  5
5F
102
{ACAD_REACTORS
330
47
102
}
330
47
100
AcDbScale
 70
     0
300
3/16" = 1'-0"
140
0.1875
141
12.0
290
     0
  0
SCALE
  5
60
102
{ACAD_REACTORS
330
47
102
}
330
47
100
AcDbScale
 70
     0
300
1/4" = 1'-0"
140
0.25
141
12.0
290
     0
  0
SCALE
  5
61
102
{ACAD_REACTORS
330
47
102
}
330
47
100
AcDbScale
 70
     0
300
3/8" = 1'-0"
140
0.375
141
12.0
290
     0
  0
SCALE
  5
62
102
{ACAD_REACTORS
330
47
102
}
330
47
100
AcDbScale
 70
     0
300
1/2" = 1'-0"
140
0.5
141
12.0
290
     0
  0
SCALE
  5
63
102
{ACAD_REACTORS
330
47
102
}
330
47
100
AcDbScale
 70
     0
300
3/4" = 1'-0"
140
0.75
141
12.0
290
     0
  0
SCALE
  5
64
102
{ACAD_REACTORS
330
47
102
}
330
47
100
AcDbScale
 70
     0
300
1" = 1'-0"
140
1.0
141
12.0
290
     0
  0
SCALE
  5
65
102
{ACAD_REACTORS
330
47
102
}
330
47
100
AcDbScale
 70
     0
300
1-1/2" = 1'-0"
140
1.5
141
12.0
290
     0
  0
SCALE
  5
66
102
{ACAD_REACTORS
330
47
102
}
330
47
100
AcDbScale
 70
     0
300
3" = 1'-0"
140
3.0
141
12.0
290
     0
  0
SCALE
  5
67
102
{ACAD_REACTORS
330
47
102
}
330
47
100
AcDbScale
 70
     0
300
6" = 1'-0"
140
6.0
141
12.0
290
     0
  0
SCALE
  5
68
102
{ACAD_REACTORS
330
47
102
}
330
47
100
AcDbScale
 70
     0
300
1'-0" = 1'-0"
140
12.0
141
12.0
290
     0
  0
ENDSEC
  0
EOF
