  0
SECTION
  2
HEADER
  9
$ACADVER
  1
AC1015
  9
$ACADMAINTVER
 70
     6
  9
$DWGCODEPAGE
  3
ANSI_1252
  9
$INSBASE
 10
0.0
 20
0.0
 30
0.0
  9
$EXTMIN
 10
0.0
 20
0.0
 30
0.0
  9
$EXTMAX
 10
448.0
 20
341.0
 30
0.0
  9
$LIMMIN
 10
0.0
 20
0.0
  9
$LIMMAX
 10
448.0
 20
341.0
  9
$ORTHOMODE
 70
     0
  9
$REGENMODE
 70
     1
  9
$FILLMODE
 70
     1
  9
$QTEXTMODE
 70
     0
  9
$MIRRTEXT
 70
     1
  9
$LTSCALE
 40
1.0
  9
$ATTMODE
 70
     1
  9
$TEXTSIZE
 40
3.5
  9
$TRACEWID
 40
1.0
  9
$TEXTSTYLE
  7
Standard
  9
$CLAYER
  8
0
  9
$CELTYPE
  6
ByLayer
  9
$CECOLOR
 62
   256
  9
$CELTSCALE
 40
1.0
  9
$DISPSILH
 70
     0
  9
$DIMSCALE
 40
1.0
  9
$DIMASZ
 40
3.302
  9
$DIMEXO
 40
1.0
  9
$DIMDLI
 40
3.75
  9
$DIMRND
 40
0.0
  9
$DIMDLE
 40
0.0
  9
$DIMEXE
 40
1.0
  9
$DIMTP
 40
0.0
  9
$DIMTM
 40
0.0
  9
$DIMTXT
 40
2.8
  9
$DIMCEN
 40
2.5
  9
$DIMTSZ
 40
0.0
  9
$DIMTOL
 70
     0
  9
$DIMLIM
 70
     0
  9
$DIMTIH
 70
     1
  9
$DIMTOH
 70
     1
  9
$DIMSE1
 70
     0
  9
$DIMSE2
 70
     0
  9
$DIMTAD
 70
     1
  9
$DIMZIN
 70
     0
  9
$DIMBLK
  1

  9
$DIMASO
 70
     1
  9
$DIMSHO
 70
     1
  9
$DIMPOST
  1

  9
$DIMAPOST
  1

  9
$DIMALT
 70
     0
  9
$DIMALTD
 70
     3
  9
$DIMALTF
 40
0.0393700787
  9
$DIMLFAC
 40
1.0
  9
$DIMTOFL
 70
     1
  9
$DIMTVP
 40
0.0
  9
$DIMTIX
 70
     0
  9
$DIMSOXD
 70
     0
  9
$DIMSAH
 70
     0
  9
$DIMBLK1
  1

  9
$DIMBLK2
  1

  9
$DIMSTYLE
  2
ISO-25
  9
$DIMCLRD
 70
     0
  9
$DIMCLRE
 70
     0
  9
$DIMCLRT
 70
     0
  9
$DIMTFAC
 40
1.0
  9
$DIMGAP
 40
1.524
  9
$DIMJUST
 70
     0
  9
$DIMSD1
 70
     0
  9
$DIMSD2
 70
     0
  9
$DIMTOLJ
 70
     0
  9
$DIMTZIN
 70
     0
  9
$DIMALTZ
 70
     0
  9
$DIMALTTZ
 70
     0
  9
$DIMUPT
 70
     0
  9
$DIMDEC
 70
     2
  9
$DIMTDEC
 70
     2
  9
$DIMALTU
 70
     2
  9
$DIMALTTD
 70
     3
  9
$DIMTXSTY
  7
Standard
  9
$DIMAUNIT
 70
     0
  9
$DIMADEC
 70
     2
  9
$DIMALTRND
 40
0.0
  9
$DIMAZIN
 70
     0
  9
$DIMDSEP
 70
    44
  9
$DIMATFIT
 70
     3
  9
$DIMFRAC
 70
     0
  9
$DIMLDRBLK
  1

  9
$DIMLUNIT
 70
     2
  9
$DIMLWD
 70
    -2
  9
$DIMLWE
 70
    -2
  9
$DIMTMOVE
 70
     0
  9
$LUNITS
 70
     2
  9
$LUPREC
 70
     2
  9
$SKETCHINC
 40
1.0
  9
$FILLETRAD
 40
10.0
  9
$AUNITS
 70
     0
  9
$AUPREC
 70
     2
  9
$MENU
  1
.
  9
$ELEVATION
 40
0.0
  9
$PELEVATION
 40
0.0
  9
$THICKNESS
 40
0.0
  9
$LIMCHECK
 70
     0
  9
$CHAMFERA
 40
0.0
  9
$CHAMFERB
 40
0.0
  9
$CHAMFERC
 40
0.0
  9
$CHAMFERD
 40
0.0
  9
$SKPOLY
 70
     0
  9
$TDCREATE
 40
2458401.561615729
  9
$TDUCREATE
 40
2458401.436615729
  9
$TDUPDATE
 40
2458401.56161625
  9
$TDUUPDATE
 40
2458401.43661625
  9
$TDINDWG
 40
0.0000000116
  9
$TDUSRTIMER
 40
0.0000000116
  9
$USRTIMER
 70
     1
  9
$ANGBASE
 50
0.0
  9
$ANGDIR
 70
     0
  9
$PDMODE
 70
     0
  9
$PDSIZE
 40
-1.0
  9
$PLINEWID
 40
0.0
  9
$SPLFRAME
 70
     0
  9
$SPLINETYPE
 70
     6
  9
$SPLINESEGS
 70
     8
  9
$HANDSEED
  5
F7
  9
$SURFTAB1
 70
     6
  9
$SURFTAB2
 70
     6
  9
$SURFTYPE
 70
     6
  9
$SURFU
 70
     6
  9
$SURFV
 70
     6
  9
$UCSBASE
  2

  9
$UCSNAME
  2

  9
$UCSORG
 10
0.0
 20
0.0
 30
0.0
  9
$UCSXDIR
 10
1.0
 20
0.0
 30
0.0
  9
$UCSYDIR
 10
0.0
 20
1.0
 30
0.0
  9
$UCSORTHOREF
  2

  9
$UCSORTHOVIEW
 70
     0
  9
$UCSORGTOP
 10
0.0
 20
0.0
 30
0.0
  9
$UCSORGBOTTOM
 10
0.0
 20
0.0
 30
0.0
  9
$UCSORGLEFT
 10
0.0
 20
0.0
 30
0.0
  9
$UCSORGRIGHT
 10
0.0
 20
0.0
 30
0.0
  9
$UCSORGFRONT
 10
0.0
 20
0.0
 30
0.0
  9
$UCSORGBACK
 10
0.0
 20
0.0
 30
0.0
  9
$PUCSBASE
  2

  9
$PUCSNAME
  2

  9
$PUCSORG
 10
0.0
 20
0.0
 30
0.0
  9
$PUCSXDIR
 10
1.0
 20
0.0
 30
0.0
  9
$PUCSYDIR
 10
0.0
 20
1.0
 30
0.0
  9
$PUCSORTHOREF
  2

  9
$PUCSORTHOVIEW
 70
     0
  9
$PUCSORGTOP
 10
0.0
 20
0.0
 30
0.0
  9
$PUCSORGBOTTOM
 10
0.0
 20
0.0
 30
0.0
  9
$PUCSORGLEFT
 10
0.0
 20
0.0
 30
0.0
  9
$PUCSORGRIGHT
 10
0.0
 20
0.0
 30
0.0
  9
$PUCSORGFRONT
 10
0.0
 20
0.0
 30
0.0
  9
$PUCSORGBACK
 10
0.0
 20
0.0
 30
0.0
  9
$USERI1
 70
     0
  9
$USERI2
 70
     0
  9
$USERI3
 70
     0
  9
$USERI4
 70
     0
  9
$USERI5
 70
     0
  9
$USERR1
 40
0.0
  9
$USERR2
 40
0.0
  9
$USERR3
 40
0.0
  9
$USERR4
 40
0.0
  9
$USERR5
 40
0.0
  9
$WORLDVIEW
 70
     1
  9
$SHADEDGE
 70
     3
  9
$SHADEDIF
 70
    70
  9
$TILEMODE
 70
     1
  9
$MAXACTVP
 70
    64
  9
$PINSBASE
 10
0.0
 20
0.0
 30
0.0
  9
$PLIMCHECK
 70
     0
  9
$PEXTMIN
 10
1.0000000000E+20
 20
1.0000000000E+20
 30
1.0000000000E+20
  9
$PEXTMAX
 10
-1.0000000000E+20
 20
-1.0000000000E+20
 30
-1.0000000000E+20
  9
$PLIMMIN
 10
0.0
 20
0.0
  9
$PLIMMAX
 10
420.0
 20
297.0
  9
$UNITMODE
 70
     0
  9
$VISRETAIN
 70
     1
  9
$PLINEGEN
 70
     0
  9
$PSLTSCALE
 70
     1
  9
$TREEDEPTH
 70
  3020
  9
$CMLSTYLE
  2
Standard
  9
$CMLJUST
 70
     0
  9
$CMLSCALE
 40
20.0
  9
$PROXYGRAPHICS
 70
     1
  9
$MEASUREMENT
 70
     1
  9
$CELWEIGHT
370
    -1
  9
$ENDCAPS
280
     0
  9
$JOINSTYLE
280
     0
  9
$LWDISPLAY
290
     1
  9
$INSUNITS
 70
     4
  9
$HYPERLINKBASE
  1

  9
$STYLESHEET
  1

  9
$XEDIT
290
     1
  9
$CEPSNTYPE
380
     0
  9
$PSTYLEMODE
290
     1
  9
$FINGERPRINTGUID
  2
{EFED5056-6D49-4189-96BF-0DE2A373EE2E}
  9
$VERSIONGUID
  2
{FAEB1C32-E019-11D5-929B-00C0DF256EC4}
  9
$EXTNAMES
290
     1
  9
$PSVPSCALE
 40
0.0
  9
$OLESTARTUP
290
     0
  0
ENDSEC
  0
SECTION
  2
CLASSES
  0
CLASS
  1
ACDBDICTIONARYWDFLT
  2
AcDbDictionaryWithDefault
  3
ObjectDBX Classes
 90
        0
280
     0
281
     0
  0
CLASS
  1
VISUALSTYLE
  2
AcDbVisualStyle
  3
ObjectDBX Classes
 90
     4095
280
     0
281
     0
  0
CLASS
  1
MATERIAL
  2
AcDbMaterial
  3
ObjectDBX Classes
 90
     1153
280
     0
281
     0
  0
CLASS
  1
SCALE
  2
AcDbScale
  3
ObjectDBX Classes
 90
     1153
280
     0
281
     0
  0
CLASS
  1
TABLESTYLE
  2
AcDbTableStyle
  3
ObjectDBX Classes
 90
     4095
280
     0
281
     0
  0
CLASS
  1
MLEADERSTYLE
  2
AcDbMLeaderStyle
  3
ACDB_MLEADERSTYLE_CLASS
 90
     4095
280
     0
281
     0
  0
CLASS
  1
SUN
  2
AcDbSun
  3
SCENEOE
 90
     1153
280
     0
281
     0
  0
CLASS
  1
ACDBPLACEHOLDER
  2
AcDbPlaceHolder
  3
ObjectDBX Classes
 90
        0
280
     0
281
     0
  0
CLASS
  1
LAYOUT
  2
AcDbLayout
  3
ObjectDBX Classes
 90
        0
280
     0
281
     0
  0
ENDSEC
  0
SECTION
  2
TABLES
  0
TABLE
  2
VPORT
  5
8
330
0
100
AcDbSymbolTable
 70
     1
  0
VPORT
  5
29
330
8
100
AcDbSymbolTableRecord
100
AcDbViewportTableRecord
  2
*Active
 70
     0
 10
0.0
 20
0.0
 11
1.0
 21
1.0
 12
224.0
 22
170.5
 13
0.0
 23
0.0
 14
10.0
 24
10.0
 15
10.0
 25
10.0
 16
0.0
 26
0.0
 36
1.0
 17
0.0
 27
0.0
 37
0.0
 40
341.0
 41
1.3137829912
 42
50.0
 43
0.0
 44
0.0
 50
0.0
 51
0.0
 71
     0
 72
  2000
 73
     1
 74
     3
 75
     0
 76
     0
 77
     0
 78
     0
281
     0
 65
     1
110
0.0
120
0.0
130
0.0
111
1.0
121
0.0
131
0.0
112
0.0
122
1.0
132
0.0
 79
     0
146
0.0
  0
ENDTAB
  0
TABLE
  2
LTYPE
  5
5
330
0
100
AcDbSymbolTable
 70
     6
  0
LTYPE
  5
14
330
5
100
AcDbSymbolTableRecord
100
AcDbLinetypeTableRecord
  2
ByBlock
 70
     0
  3

 72
    65
 73
     0
 40
0.0
  0
LTYPE
  5
15
330
5
100
AcDbSymbolTableRecord
100
AcDbLinetypeTableRecord
  2
ByLayer
 70
     0
  3

 72
    65
 73
     0
 40
0.0
  0
LTYPE
  5
16
330
5
100
AcDbSymbolTableRecord
100
AcDbLinetypeTableRecord
  2
Continuous
 70
     0
  3
Solid line
 72
    65
 73
     0
 40
0.0
  0
LTYPE
  5
6E
330
5
100
AcDbSymbolTableRecord
100
AcDbLinetypeTableRecord
  2
HIDDEN
 70
     0
  3
Hidden __ __ __ __ __ __ __ __ __ __ __ __ __ __
 72
    65
 73
     2
 40
1.905
 49
1.27
 74
     0
 49
-0.635
 74
     0
  0
LTYPE
  5
6F
330
5
100
AcDbSymbolTableRecord
100
AcDbLinetypeTableRecord
  2
PHANTOM
 70
     0
  3
Phantom ______  __  __  ______  __  __  ______
 72
    65
 73
     6
 40
12.7
 49
6.35
 74
     0
 49
-1.27
 74
     0
 49
1.27
 74
     0
 49
-1.27
 74
     0
 49
1.27
 74
     0
 49
-1.27
 74
     0
  0
LTYPE
  5
70
330
5
100
AcDbSymbolTableRecord
100
AcDbLinetypeTableRecord
  2
CENTER
 70
     0
  3
Center ____ _ ____ _ ____ _ ____ _ ____ _ ____
 72
    65
 73
     4
 40
10.16
 49
6.35
 74
     0
 49
-1.27
 74
     0
 49
1.27
 74
     0
 49
-1.27
 74
     0
  0
LTYPE
  5
71
330
5
100
AcDbSymbolTableRecord
100
AcDbLinetypeTableRecord
  2
CENTERX2
 70
     0
  3
Center (2x) ________  __  ________  __  _____
 72
    65
 73
     4
 40
20.32
 49
12.7
 74
     0
 49
-2.54
 74
     0
 49
2.54
 74
     0
 49
-2.54
 74
     0
  0
LTYPE
  5
72
330
5
100
AcDbSymbolTableRecord
100
AcDbLinetypeTableRecord
  2
DOT2
 70
     0
  3
Dot (.5x) ........................................
 72
    65
 73
     2
 40
0.635
 49
0.0
 74
     0
 49
-0.635
 74
     0
  0
ENDTAB
  0
TABLE
  2
LAYER
  5
2
330
0
100
AcDbSymbolTable
 70
     2
  0
LAYER
  5
10
330
2
100
AcDbSymbolTableRecord
100
AcDbLayerTableRecord
  2
0
 70
     0
 62
     7
  6
Continuous
370
    -3
390
F
  0
LAYER
  5
73
330
2
100
AcDbSymbolTableRecord
100
AcDbLayerTableRecord
  2
FORMAT
 70
     0
 62
     7
  6
Continuous
370
    -3
390
F
  0
ENDTAB
  0
TABLE
  2
STYLE
  5
3
330
0
100
AcDbSymbolTable
 70
     2
  0
STYLE
  5
11
330
3
100
AcDbSymbolTableRecord
100
AcDbTextStyleTableRecord
  2
Standard
 70
     0
 40
0.0
 41
1.0
 50
0.0
 71
     0
 42
3.5
  3
txt
  4

  0
STYLE
  5
74
330
3
100
AcDbSymbolTableRecord
100
AcDbTextStyleTableRecord
  2
SLDTEXTSTYLE0
 70
     0
 40
0.0
 41
0.605
 50
0.0
 71
     0
 42
3.5
  3
TXT
  4

  0
ENDTAB
  0
TABLE
  2
VIEW
  5
6
330
0
100
AcDbSymbolTable
 70
     0
  0
ENDTAB
  0
TABLE
  2
UCS
  5
7
330
0
100
AcDbSymbolTable
 70
     0
  0
ENDTAB
  0
TABLE
  2
APPID
  5
9
330
0
100
AcDbSymbolTable
 70
     1
  0
APPID
  5
12
330
9
100
AcDbSymbolTableRecord
100
AcDbRegAppTableRecord
  2
ACAD
 70
     0
  0
ENDTAB
  0
TABLE
  2
DIMSTYLE
  5
A
330
0
100
AcDbSymbolTable
 70
     1
100
AcDbDimStyleTable
  0
DIMSTYLE
105
27
330
A
100
AcDbSymbolTableRecord
100
AcDbDimStyleTableRecord
  2
ISO-25
 70
     0
 41
2.5
 42
0.625
 43
3.75
 44
1.25
 73
     0
 74
     0
 77
     1
 78
     8
140
2.5
141
2.5
143
0.0393700787
147
0.625
171
     3
172
     1
178
     0
271
     2
272
     2
274
     3
278
    44
283
     0
284
     8
340
11
  0
ENDTAB
  0
TABLE
  2
BLOCK_RECORD
  5
1
330
0
100
AcDbSymbolTable
 70
     1
  0
BLOCK_RECORD
  5
1F
330
1
100
AcDbSymbolTableRecord
100
AcDbBlockTableRecord
  2
*Model_Space
340
22
  0
BLOCK_RECORD
  5
1B
330
1
100
AcDbSymbolTableRecord
100
AcDbBlockTableRecord
  2
*Paper_Space
340
1E
  0
BLOCK_RECORD
  5
23
330
1
100
AcDbSymbolTableRecord
100
AcDbBlockTableRecord
  2
*Paper_Space0
340
26
  0
ENDTAB
  0
ENDSEC
  0
SECTION
  2
BLOCKS
  0
BLOCK
  5
20
330
1F
100
AcDbEntity
  8
0
100
AcDbBlockBegin
  2
*Model_Space
 70
     0
 10
0.0
 20
0.0
 30
0.0
  3
*Model_Space
  1

  0
ENDBLK
  5
21
330
1F
100
AcDbEntity
  8
0
100
AcDbBlockEnd
  0
BLOCK
  5
1C
330
1B
100
AcDbEntity
 67
     1
  8
0
100
AcDbBlockBegin
  2
*Paper_Space
 70
     0
 10
0.0
 20
0.0
 30
0.0
  3
*Paper_Space
  1

  0
ENDBLK
  5
1D
330
1B
100
AcDbEntity
 67
     1
  8
0
100
AcDbBlockEnd
  0
BLOCK
  5
24
330
23
100
AcDbEntity
  8
0
100
AcDbBlockBegin
  2
*Paper_Space0
 70
     0
 10
0.0
 20
0.0
 30
0.0
  3
*Paper_Space0
  1

  0
ENDBLK
  5
25
330
23
100
AcDbEntity
  8
0
100
AcDbBlockEnd
  0
ENDSEC
  0
SECTION
  2
ENTITIES
  0
MTEXT
  5
75
330
1F
100
AcDbEntity
  8
0
  6
Continuous
 62
     7
370
     0
100
AcDbMText
 10
7.2782978723
 20
22.1884790273
 30
0.0
 40
10.0
 41
0.0
 71
     1
 72
     1
  1
1:1
  7
SLDTEXTSTYLE0
 73
     1
 44
1.0
  0
SPLINE
  5
76
330
1F
100
AcDbEntity
  8
0
  6
Continuous
 62
     7
370
    30
100
AcDbSpline
210
0.0
220
0.0
230
1.0
 70
     8
 71
     3
 72
    53
 73
    49
 74
     0
 42
0.000000001
 43
0.00000001
 40
0.0
 40
0.0
 40
0.0
 40
0.0
 40
0.0138640411577874
 40
0.0260131157951104
 40
0.0369998585778801
 40
0.0472077373200436
 40
0.0567754990366286
 40
0.0657396923714594
 40
0.0741784078084716
 40
0.0885310163102172
 40
0.1017753244187775
 40
0.1142182587748807
 40
0.1332326434766316
 40
0.1507126943381976
 40
0.1669017719900115
 40
0.1820417824909862
 40
0.1963447812491789
 40
0.2099848013165205
 40
0.2230891905780532
 40
0.2459175301576306
 40
0.2672757627627434
 40
0.2873489714460212
 40
0.3118130004601978
 40
0.3348085336287884
 40
0.356650895486484
 40
0.377581158655225
 40
0.3977508972715378
 40
0.417209779082998
 40
0.4359901792395717
 40
0.4642421161581255
 40
0.4912381912165109
 40
0.517161854800002
 40
0.542157162228129
 40
0.5663412847540116
 40
0.5969395798799325
 40
0.6264688428961658
 40
0.6550693202047043
 40
0.6866042243358781
 40
0.7172754095117907
 40
0.7472342276904397
 40
0.776612200129852
 40
0.8055193154000077
 40
0.8340415881008529
 40
0.8678406065511003
 40
0.9012416941476612
 40
0.9343367700727614
 40
0.9672231328115799
 40
1.0
 40
1.0
 40
1.0
 40
1.0
 10
220.4534763123569
 20
284.8978388246214
 30
0.0
 10
220.4534138722022
 20
284.885737142577
 30
0.0
 10
220.4532967156707
 20
284.8630307431402
 30
0.0
 10
220.452423847261
 20
284.830744095056
 30
0.0
 10
220.4512311860427
 20
284.8016628162729
 30
0.0
 10
220.449750042371
 20
284.7748508484577
 30
0.0
 10
220.448044738741
 20
284.7498216435489
 30
0.0
 10
220.4461589765548
 20
284.726354296333
 30
0.0
 10
220.443624264043
 20
284.698750768045
 30
0.0
 10
220.4402807665827
 20
284.6674715267199
 30
0.0
 10
220.4359383704358
 20
284.6327896416665
 30
0.0
 10
220.430439415946
 20
284.5941570357604
 30
0.0
 10
220.4235496375472
 20
284.5519932819327
 30
0.0
 10
220.4150500984573
 20
284.5067928318356
 30
0.0
 10
220.4062544429952
 20
284.4651002353785
 30
0.0
 10
220.3972338889911
 20
284.4262982952825
 30
0.0
 10
220.3880128612206
 20
284.3898347563193
 30
0.0
 10
220.3785932650342
 20
284.355260456632
 30
0.0
 10
220.3664875746599
 20
284.3137111638233
 30
0.0
 10
220.3513696220166
 20
284.2660289746528
 30
0.0
 10
220.3328727981125
 20
284.2130608068209
 30
0.0
 10
220.3124384337214
 20
284.1592793190928
 30
0.0
 10
220.2898966577096
 20
284.1047909399624
 30
0.0
 10
220.2650395332969
 20
284.0496211676481
 30
0.0
 10
220.2399233192922
 20
283.9979793221138
 30
0.0
 10
220.2145109148804
 20
283.9492490262607
 30
0.0
 10
220.1888074321155
 20
283.903039033928
 30
0.0
 10
220.1628686771941
 20
283.8591270358875
 30
0.0
 10
220.1320969319451
 20
283.8098951768891
 30
0.0
 10
220.0961563479656
 20
283.7561564607602
 30
0.0
 10
220.0546453615351
 20
283.6986959776425
 30
0.0
 10
220.0129177855287
 20
283.6449500757927
 30
0.0
 10
219.9709926162331
 20
283.5945120235004
 30
0.0
 10
219.9247517412803
 20
283.54240060146
 30
0.0
 10
219.8739314058882
 20
283.4891090717283
 30
0.0
 10
219.8182825851321
 20
283.4351765985979
 30
0.0
 10
219.760012849898
 20
283.3828548328116
 30
0.0
 10
219.6989563720452
 20
283.332226624965
 30
0.0
 10
219.6349463512684
 20
283.2834070936844
 30
0.0
 10
219.5705908516719
 20
283.2382488655749
 30
0.0
 10
219.5058236218108
 20
283.1964610978893
 30
0.0
 10
219.4405871507772
 20
283.1578163588396
 30
0.0
 10
219.3705500144988
 20
283.1198100378023
 30
0.0
 10
219.2954866152445
 20
283.0829632893747
 30
0.0
 10
219.2152205674655
 20
283.0478359383802
 30
0.0
 10
219.1342265095078
 20
283.0165941045942
 30
0.0
 10
219.0525413913398
 20
282.9887972150801
 30
0.0
 10
218.9973209552219
 20
282.9733067243144
 30
0.0
 10
218.9697567780907
 20
282.9655743943777
 30
0.0
  0
SPLINE
  5
77
330
1F
100
AcDbEntity
  8
0
  6
Continuous
 62
     7
370
    30
100
AcDbSpline
210
0.0
220
0.0
230
1.0
 70
     8
 71
     3
 72
    53
 73
    49
 74
     0
 42
0.000000001
 43
0.00000001
 40
0.0
 40
0.0
 40
0.0
 40
0.0
 40
0.0330105503134776
 40
0.0661141361292264
 40
0.0993954863088224
 40
0.1329522637980721
 40
0.1668956084376515
 40
0.1955681690338727
 40
0.2246782630470769
 40
0.2543171896519341
 40
0.2845871961362272
 40
0.3156032781765231
 40
0.3474952621616895
 40
0.3750507927074576
 40
0.4033344187283125
 40
0.4324443656178565
 40
0.4625709773128313
 40
0.4871265566705562
 40
0.5126303810249526
 40
0.5392629198375114
 40
0.5672255170198316
 40
0.586199884055042
 40
0.6058925493706175
 40
0.6263070242714622
 40
0.6474199976706281
 40
0.6693593290926408
 40
0.6923951375045767
 40
0.716913855037281
 40
0.7352133323854544
 40
0.7546593057306461
 40
0.7754527565996818
 40
0.797763662481161
 40
0.8209858436991658
 40
0.8328349590085747
 40
0.845031028953482
 40
0.8578402048734484
 40
0.8716035571902631
 40
0.8867170497855158
 40
0.8983302122288723
 40
0.9109700705829891
 40
0.9247919311164488
 40
0.9398799548514513
 40
0.9481764717950223
 40
0.9568008217240779
 40
0.9659620265634944
 40
0.9759655067345983
 40
0.9871791728314862
 40
0.9999999999999999
 40
0.9999999999999999
 40
0.9999999999999999
 40
0.9999999999999999
 10
229.0372010226686
 20
282.9655817096248
 30
0.0
 10
229.0094403551502
 20
282.9733692559009
 30
0.0
 10
228.9538407806529
 20
282.9889662965355
 30
0.0
 10
228.8716400075219
 20
283.0169773145279
 30
0.0
 10
228.7902142366171
 20
283.0484574151063
 30
0.0
 10
228.7095956975741
 20
283.0838389587962
 30
0.0
 10
228.6342240404873
 20
283.1209501577418
 30
0.0
 10
228.5638564021319
 20
283.1592583473762
 30
0.0
 10
228.4982170434606
 20
283.1982754090504
 30
0.0
 10
228.4329551849399
 20
283.2405452931235
 30
0.0
 10
228.3680417686704
 20
283.2863030211234
 30
0.0
 10
228.3034583096251
 20
283.3358299430068
 30
0.0
 10
228.2427923546519
 20
283.3864598317944
 30
0.0
 10
228.1859168013075
 20
283.4378035662859
 30
0.0
 10
228.1326997940901
 20
283.4895006781669
 30
0.0
 10
228.0799158282861
 20
283.5447874701234
 30
0.0
 10
228.0314708866771
 20
283.5996403338942
 30
0.0
 10
227.9870246260577
 20
283.6537513102069
 30
0.0
 10
227.9462326152937
 20
283.7068694533635
 30
0.0
 10
227.9055460024257
 20
283.763767896769
 30
0.0
 10
227.8700670567812
 20
283.8173316599709
 30
0.0
 10
227.8394465726625
 20
283.8667997509534
 30
0.0
 10
227.813414620596
 20
283.9113379108175
 30
0.0
 10
227.7876610107845
 20
283.9581798289739
 30
0.0
 10
227.7622928834892
 20
284.0074486344001
 30
0.0
 10
227.7373357388677
 20
284.059477365182
 30
0.0
 10
227.7127154648232
 20
284.1149363230885
 30
0.0
 10
227.6910299676152
 20
284.1681915547776
 30
0.0
 10
227.6719464364056
 20
284.2190926377399
 30
0.0
 10
227.6551922961073
 20
284.2673773931699
 30
0.0
 10
227.6386560522227
 20
284.3194249336836
 30
0.0
 10
227.622688233443
 20
284.375088135728
 30
0.0
 10
227.6103065329468
 20
284.4236340411426
 30
0.0
 10
227.6010374393198
 20
284.4638423146709
 30
0.0
 10
227.5943079533431
 20
284.4953034018779
 30
0.0
 10
227.5877715863059
 20
284.5285098528926
 30
0.0
 10
227.5813621075782
 20
284.5643313766224
 30
0.0
 10
227.5757919760495
 20
284.5992363855816
 30
0.0
 10
227.5709705471994
 20
284.6332609856424
 30
0.0
 10
227.5668310717384
 20
284.66623937463
 30
0.0
 10
227.5629393301183
 20
284.7023005000783
 30
0.0
 10
227.5600665034346
 20
284.7346525879932
 30
0.0
 10
227.5580181648724
 20
284.762517967555
 30
0.0
 10
227.5566025515661
 20
284.7852409875456
 30
0.0
 10
227.5553765982429
 20
284.8094671106245
 30
0.0
 10
227.5543773590745
 20
284.8359653387804
 30
0.0
 10
227.5536362605285
 20
284.8656686097551
 30
0.0
 10
227.5535362214918
 20
284.8866478009724
 30
0.0
 10
227.5534828572212
 20
284.8978388247131
 30
0.0
  0
ARC
  5
78
330
1F
100
AcDbEntity
  8
0
  6
Continuous
 62
     7
370
    30
100
AcDbCircle
 10
224.0034795848
 20
264.1264721795
 30
0.0
 40
19.50000000000006
100
AcDbArc
 50
104.9596973172
 51
75.0403016478
  0
LINE
  5
79
330
1F
100
AcDbEntity
  8
0
  6
Continuous
 62
     7
370
    30
100
AcDbLine
 10
218.9697776836
 20
282.9654961503
 30
0.0
 11
218.9697576886
 21
282.9655709868
 31
0.0
  0
LINE
  5
7A
330
1F
100
AcDbEntity
  8
0
  6
Continuous
 62
     7
370
    30
100
AcDbLine
 10
229.0371805153
 20
282.96549642
 30
0.0
 11
229.0372005151
 21
282.9655712449
 31
0.0
  0
LINE
  5
7B
330
1F
100
AcDbEntity
  8
0
  6
Continuous
 62
     7
370
    30
100
AcDbLine
 10
220.4535619266
 20
284.897838917
 30
0.0
 11
220.4534795848
 21
284.8977865337
 31
0.0
  0
LINE
  5
7C
330
1F
100
AcDbEntity
  8
0
  6
Continuous
 62
     7
370
    30
100
AcDbLine
 10
220.4534795848
 20
284.8977865337
 30
0.0
 11
220.4534795848
 21
284.9764721795
 31
0.0
  0
LINE
  5
7D
330
1F
100
AcDbEntity
  8
0
  6
Continuous
 62
     7
370
    30
100
AcDbLine
 10
227.5534795848
 20
284.89778673
 30
0.0
 11
227.5534795848
 21
284.9764721795
 31
0.0
  0
SPLINE
  5
7E
330
1F
100
AcDbEntity
  8
0
  6
Continuous
 62
     7
370
    30
100
AcDbSpline
210
0.0
220
0.0
230
1.0
 70
     8
 71
     3
 72
   111
 73
   107
 74
     0
 42
0.000000001
 43
0.00000001
 40
0.0
 40
0.0
 40
0.0
 40
0.0
 40
0.0114477523390911
 40
0.0227423994640373
 40
0.0338839408416631
 40
0.0448723759526517
 40
0.0557077042918285
 40
0.0662005314682997
 40
0.0765456694996968
 40
0.0867431179694648
 40
0.0967928764751637
 40
0.108033651944997
 40
0.1190837176135708
 40
0.1299430727369613
 40
0.1406117166016142
 40
0.1510896485253107
 40
0.1613768678582228
 40
0.1714733739840675
 40
0.1813791663213749
 40
0.1924664127315455
 40
0.2033045707702272
 40
0.2138936393629592
 40
0.2242336175156165
 40
0.2343245043185801
 40
0.2441662989514319
 40
0.2537590006882653
 40
0.2629181908856684
 40
0.2718381501820876
 40
0.2805188782468773
 40
0.288960374862103
 40
0.2922113014914027
 40
0.2954253032967507
 40
0.2986023803402734
 40
0.3017425326867949
 40
0.3048457604039585
 40
0.3079120635623571
 40
0.3109414422356697
 40
0.3139338965008098
 40
0.3258712661641138
 40
0.3377641392547583
 40
0.3496125185762916
 40
0.3614164069648367
 40
0.3731758072895816
 40
0.3848907224532719
 40
0.39656115539272
 40
0.40818710907932
 40
0.4197685865195738
 40
0.4313055907556263
 40
0.4427981248658112
 40
0.4542461919652078
 40
0.4656497952062091
 40
0.4770089377790985
 40
0.4883236229126394
 40
0.499593853874678
 40
0.5108648159997934
 40
0.5221780699168833
 40
0.5335336188837972
 40
0.5449314661213747
 40
0.5563716148139868
 40
0.5678540681100683
 40
0.5793788291226407
 40
0.5909459009298232
 40
0.6013460525467501
 40
0.611780177672934
 40
0.6222482784603541
 40
0.6327503570397194
 40
0.6432864155207403
 40
0.6549152168669629
 40
0.6665851379800309
 40
0.6692107083407786
 40
0.6718383514589187
 40
0.6744680673653994
 40
0.6770998560910955
 40
0.6797337176668085
 40
0.6823696521232673
 40
0.6850076594911292
 40
0.6942223251126504
 40
0.7037769686457251
 40
0.7136715895719876
 40
0.7239061870563221
 40
0.7344807599751365
 40
0.7453953069402337
 40
0.7550213556880415
 40
0.7648971895057743
 40
0.7750228076652695
 40
0.7853982093427512
 40
0.7960233936242082
 40
0.8068983595101551
 40
0.8180231059198547
 40
0.8279622797733672
 40
0.8380926974024324
 40
0.8484143582223017
 40
0.8589272616130171
 40
0.8696314069206973
 40
0.8805267934587074
 40
0.8916134205087279
 40
0.9028912873217347
 40
0.9131588052271462
 40
0.9235798572454939
 40
0.9341544429273201
 40
0.9448825618075275
 40
0.9557642134057592
 40
0.9666010132288204
 40
0.9775859112539218
 40
0.9887189070066842
 40
1.0
 40
1.0
 40
1.0
 40
1.0
 10
220.4534795848241
 20
284.9764721794766
 30
0.0
 10
220.4539209612517
 20
285.0190277371952
 30
0.0
 10
220.454797811024
 20
285.1035697035467
 30
0.0
 10
220.4618152042009
 20
285.2293671414169
 30
0.0
 10
220.4727868180512
 20
285.3531467402089
 30
0.0
 10
220.4879272695526
 20
285.4747727611364
 30
0.0
 10
220.5068255593025
 20
285.5934268264535
 30
0.0
 10
220.529237820526
 20
285.7090318345871
 30
0.0
 10
220.5548923495614
 20
285.821528997218
 30
0.0
 10
220.5837452716998
 20
285.9315463283575
 30
0.0
 10
220.6170281478877
 20
286.0437820981842
 30
0.0
 10
220.6550494154399
 20
286.1578554856837
 30
0.0
 10
220.698091383013
 20
286.273347300071
 30
0.0
 10
220.7442704634576
 20
286.385322914633
 30
0.0
 10
220.7933316131409
 20
286.4937347548653
 30
0.0
 10
220.8450249205436
 20
286.5985492762171
 30
0.0
 10
220.8991059750078
 20
286.6997457408222
 30
0.0
 10
220.955336548001
 20
286.797315810642
 30
0.0
 10
221.0161692064506
 20
286.8955996152189
 30
0.0
 10
221.0817402312886
 20
286.9941250213714
 30
0.0
 10
221.1521435787878
 20
287.0923981720784
 30
0.0
 10
221.2241205648348
 20
287.1860432946453
 30
0.0
 10
221.2973715942812
 20
287.2751254761577
 30
0.0
 10
221.3716103008356
 20
287.3597226960322
 30
0.0
 10
221.4465634619224
 20
287.4399241417377
 30
0.0
 10
221.521488003191
 20
287.5153427141806
 30
0.0
 10
221.5961142574199
 20
287.5861619427861
 30
0.0
 10
221.6701964401506
 20
287.6525703143442
 30
0.0
 10
221.7440501061158
 20
287.7151794953705
 30
0.0
 10
221.8031238784318
 20
287.76258863108
 30
0.0
 10
221.846971102349
 20
287.7964729515028
 30
0.0
 10
221.875554351026
 20
287.8181015648303
 30
0.0
 10
221.9040224015582
 20
287.8391969599316
 30
0.0
 10
221.9323651340515
 20
287.8597669881667
 30
0.0
 10
221.9605726249029
 20
287.8798195013642
 30
0.0
 10
221.9886351921487
 20
287.8993623952946
 30
0.0
 10
222.0165435319175
 20
287.9184036809303
 30
0.0
 10
222.0720465431777
 20
287.955507811334
 30
0.0
 10
222.1562410464052
 20
288.0089790766689
 30
0.0
 10
222.2708127245114
 20
288.0758607525152
 30
0.0
 10
222.3873622286915
 20
288.1381908843142
 30
0.0
 10
222.5057004409008
 20
288.1959309073775
 30
0.0
 10
222.6256408476979
 20
288.2490512742946
 30
0.0
 10
222.7469973928666
 20
288.2975296618724
 30
0.0
 10
222.8695854190892
 20
288.3413512677665
 30
0.0
 10
222.9932217730593
 20
288.3805085380038
 30
0.0
 10
223.1177251197015
 20
288.4150010346099
 30
0.0
 10
223.2429161866425
 20
288.4448352551777
 30
0.0
 10
223.3686180130948
 20
288.470024455302
 30
0.0
 10
223.4946561830015
 20
288.4905884610988
 30
0.0
 10
223.6208590485589
 20
288.5065534759741
 30
0.0
 10
223.7470579391795
 20
288.51795188136
 30
0.0
 10
223.8730873691139
 20
288.5248220320074
 30
0.0
 10
223.9989531688019
 20
288.5272112357957
 30
0.0
 10
224.1248193367529
 20
288.5251430774804
 30
0.0
 10
224.2508499359037
 20
288.5185952836298
 30
0.0
 10
224.3770376369185
 20
288.5075233549053
 30
0.0
 10
224.5032174359609
 20
288.4918910865927
 30
0.0
 10
224.6292212980961
 20
288.4716682361204
 30
0.0
 10
224.754878459003
 20
288.4468306850096
 30
0.0
 10
224.8800152815307
 20
288.4173607450978
 30
0.0
 10
225.0001203879233
 20
288.3844356618405
 30
0.0
 10
225.1151402462654
 20
288.3485947883046
 30
0.0
 10
225.225066843775
 20
288.3103519525274
 30
0.0
 10
225.3340321099773
 20
288.2683848778301
 30
0.0
 10
225.4419050071032
 20
288.2227040148582
 30
0.0
 10
225.5521255717975
 20
288.1716706442844
 30
0.0
 10
225.6643810675473
 20
288.114869039028
 30
0.0
 10
225.7487441891305
 20
288.0682277278409
 30
0.0
 10
225.8031043775169
 20
288.0365598617357
 30
0.0
 10
225.8283034123459
 20
288.0216001714341
 30
0.0
 10
225.8533977470434
 20
288.0064209789708
 30
0.0
 10
225.8783854556613
 20
287.9910227865388
 30
0.0
 10
225.9032644943824
 20
287.9754061800867
 30
0.0
 10
225.9280329131148
 20
287.9595717033953
 30
0.0
 10
225.9731711781264
 20
287.9301852030637
 30
0.0
 10
226.0390540629398
 20
287.8855251421836
 30
0.0
 10
226.1254672623105
 20
287.8231527301431
 30
0.0
 10
226.2129415738356
 20
287.7558567677818
 30
0.0
 10
226.3011761796639
 20
287.6834224711906
 30
0.0
 10
226.389847776309
 20
287.6056421413242
 30
0.0
 10
226.4741954335999
 20
287.5264609740576
 30
0.0
 10
226.554104504147
 20
287.4464428878172
 30
0.0
 10
226.6295179790193
 20
287.3661520342663
 30
0.0
 10
226.7042150082567
 20
287.2814418924937
 30
0.0
 10
226.7779207586873
 20
287.1922222462434
 30
0.0
 10
226.8503468945253
 20
287.0984144052746
 30
0.0
 10
226.9211917947331
 20
286.9999526345081
 30
0.0
 10
226.9871761080344
 20
286.901221361959
 30
0.0
 10
227.0483938065262
 20
286.8027177396098
 30
0.0
 10
227.1049815934142
 20
286.7049170040972
 30
0.0
 10
227.159407424702
 20
286.6034692251406
 30
0.0
 10
227.2114313736276
 20
286.4983828216962
 30
0.0
 10
227.2608072811476
 20
286.3896787320691
 30
0.0
 10
227.3072834424702
 20
286.2773908384549
 30
0.0
 10
227.3506029946941
 20
286.1615671525543
 30
0.0
 10
227.3890877917202
 20
286.0465061474574
 30
0.0
 10
227.4229507358455
 20
285.9325860813915
 30
0.0
 10
227.452431696757
 20
285.8201542388367
 30
0.0
 10
227.4785686215596
 20
285.7051413130517
 30
0.0
 10
227.5011682578283
 20
285.5876362720927
 30
0.0
 10
227.5199129834854
 20
285.4684684226987
 30
0.0
 10
227.5347201370072
 20
285.3477833665844
 30
0.0
 10
227.5453824766774
 20
285.2257309161647
 30
0.0
 10
227.5521993383378
 20
285.1017295189782
 30
0.0
 10
227.5530509603466
 20
285.0184081365502
 30
0.0
 10
227.5534795848241
 20
284.9764721794766
 30
0.0
  0
LWPOLYLINE
  5
7F
330
1F
100
AcDbEntity
  8
0
  6
Continuous
 62
     7
370
    30
100
AcDbPolyline
 90
        3
 70
   128
 43
0.0
 10
227.5534795848
 20
284.9764721795
 10
227.5522630885
 20
285.069400346
 10
227.5508919913
 20
285.1119905105
  0
LWPOLYLINE
  5
80
330
1F
100
AcDbEntity
  8
0
  6
Continuous
 62
     7
370
    30
100
AcDbPolyline
 90
        3
 70
   128
 43
0.0
 10
227.2634026098
 20
286.3819620837
 10
227.2465659594
 20
286.4203872624
 10
227.2085594367
 20
286.5028938588
  0
LINE
  5
81
330
1F
100
AcDbEntity
  8
0
  6
Continuous
 62
     7
370
    30
100
AcDbLine
 10
226.6691887043
 20
287.3209326484
 30
0.0
 11
226.6417020546
 21
287.3518210381
 31
0.0
  0
LWPOLYLINE
  5
82
330
1F
100
AcDbEntity
  8
0
  6
Continuous
 62
     7
370
    30
100
AcDbPolyline
 90
        3
 70
   128
 43
0.0
 10
226.4272982127
 20
287.5702345547
 10
226.3788932374
 20
287.6146363099
 10
226.3629653585
 20
287.6288912421
  0
ARC
  5
83
330
1F
100
AcDbEntity
  8
0
  6
Continuous
 62
     7
370
    30
100
AcDbCircle
 10
224.0034795848
 20
284.9764721795
 30
0.0
 40
3.549999999989796
100
AcDbArc
 50
58.0285040772
 51
60.1827425936
  0
LWPOLYLINE
  5
84
330
1F
100
AcDbEntity
  8
0
  6
Continuous
 62
     7
370
    30
100
AcDbPolyline
 90
        3
 70
   128
 43
0.0
 10
225.4803096894
 20
288.2047027849
 10
225.4473946677
 20
288.2195585541
 10
225.3997125806
 20
288.24037068
  0
LINE
  5
85
330
1F
100
AcDbEntity
  8
0
  6
Continuous
 62
     7
370
    30
100
AcDbLine
 10
224.9839817019
 20
288.3883800912
 30
0.0
 11
224.9301805665
 21
288.403384097
 31
0.0
  0
LWPOLYLINE
  5
86
330
1F
100
AcDbEntity
  8
0
  6
Continuous
 62
     7
370
    30
100
AcDbPolyline
 90
        3
 70
   128
 43
0.0
 10
223.3858083916
 20
288.4723243355
 10
223.3565434693
 20
288.4670271013
 10
223.2961529627
 20
288.4552922452
  0
ARC
  5
87
330
1F
100
AcDbEntity
  8
0
  6
Continuous
 62
     7
370
    30
100
AcDbCircle
 10
224.0034795848
 20
284.9764721795
 30
0.0
 40
3.549999999989804
100
AcDbArc
 50
104.4326622447
 51
106.6420283301
  0
LINE
  5
88
330
1F
100
AcDbEntity
  8
0
  6
Continuous
 62
     7
370
    30
100
AcDbLine
 10
222.7268897419
 20
288.2889966508
 30
0.0
 11
222.6731454575
 21
288.2677805986
 31
0.0
  0
LWPOLYLINE
  5
89
330
1F
100
AcDbEntity
  8
0
  6
Continuous
 62
     7
370
    30
100
AcDbPolyline
 90
        3
 70
   128
 43
0.0
 10
221.2160821319
 20
287.1748614625
 10
221.1870752268
 20
287.1375752524
 10
221.1436997092
 20
287.0798406833
  0
LWPOLYLINE
  5
8A
330
1F
100
AcDbEntity
  8
0
  6
Continuous
 62
     7
370
    30
100
AcDbPolyline
 90
        3
 70
   128
 43
0.0
 10
220.9680101947
 20
286.8172398404
 10
220.9290894014
 20
286.7514721794
 10
220.9118307328
 20
286.7212378875
  0
LWPOLYLINE
  5
8B
330
1F
100
AcDbEntity
  8
0
  6
Continuous
 62
     7
370
    30
100
AcDbPolyline
 90
        3
 70
   128
 43
0.0
 10
220.7622094609
 20
286.4244597428
 10
220.7603932102
 20
286.4203872623
 10
220.7280540337
 20
286.3454453199
  0
CIRCLE
  5
8C
330
1F
100
AcDbEntity
  8
0
  6
Continuous
 62
     7
370
    30
100
AcDbCircle
 10
224.0034795848
 20
264.1264721795
 30
0.0
 40
37.49999999974136
  0
SPLINE
  5
8D
330
1F
100
AcDbEntity
  8
0
  6
Continuous
 62
     7
370
    30
100
AcDbSpline
210
0.0
220
0.0
230
1.0
 70
     8
 71
     3
 72
    44
 73
    40
 74
     0
 42
0.000000001
 43
0.00000001
 40
0.0
 40
0.0
 40
0.0
 40
0.0
 40
0.0176299432156725
 40
0.0449727792412006
 40
0.0723156235310194
 40
0.0996584760835507
 40
0.1270013368989308
 40
0.1543442059778403
 40
0.1816870833163467
 40
0.2090299689170031
 40
0.2363728627776719
 40
0.2637157648938591
 40
0.2910586752656816
 40
0.318401593902333
 40
0.3457445207909
 40
0.3730874559423736
 40
0.4004303993503688
 40
0.4277733510163816
 40
0.4551163109384977
 40
0.482459279115897
 40
0.5098022555519288
 40
0.537145240244422
 40
0.5644882331952754
 40
0.591831234402081
 40
0.6191742438688407
 40
0.6465172615924114
 40
0.6738602875721948
 40
0.7012033218141441
 40
0.7285463643170053
 40
0.7558894150757433
 40
0.783232474099095
 40
0.8105755413856651
 40
0.8379186169333361
 40
0.8652617007462795
 40
0.8926047928243525
 40
0.9199478931635853
 40
0.9472910017717576
 40
0.9746341186525769
 40
1.0
 40
1.0
 40
1.0
 40
1.0
 10
420.2964449708045
 20
245.6160800378264
 30
0.0
 10
420.3010116098513
 20
245.8623857156961
 30
0.0
 10
420.3126607936979
 20
246.4906946524396
 30
0.0
 10
420.3299010649029
 20
247.5010338345158
 30
0.0
 10
420.3483425561301
 20
248.6470926050264
 30
0.0
 10
420.3654170325296
 20
249.7931730432511
 30
0.0
 10
420.3811921617962
 20
250.9392723949459
 30
0.0
 10
420.3956497841712
 20
252.0853894888931
 30
0.0
 10
420.4087947394913
 20
253.2315227296962
 30
0.0
 10
420.4206257070563
 20
254.3776706355565
 30
0.0
 10
420.4311430190648
 20
255.5238316941907
 30
0.0
 10
420.4403465670133
 20
256.6700044014224
 30
0.0
 10
420.4482363626709
 20
257.8161872510289
 30
0.0
 10
420.4548123877689
 20
258.9623787372408
 30
0.0
 10
420.4600746342775
 20
260.1085773542696
 30
0.0
 10
420.4640230936096
 20
261.2547815961399
 30
0.0
 10
420.4666577595169
 20
262.4009899570561
 30
0.0
 10
420.4679786273124
 20
263.5472009310384
 30
0.0
 10
420.4679856940807
 20
264.6934130121776
 30
0.0
 10
420.4666789586189
 20
265.8396246945872
 30
0.0
 10
420.4640584214549
 20
266.9858344723753
 30
0.0
 10
420.4601240848407
 20
268.132040839688
 30
0.0
 10
420.4548759527554
 20
269.2782422905934
 30
0.0
 10
420.4483140309043
 20
270.4244373192501
 30
0.0
 10
420.440438326713
 20
271.5706244197519
 30
0.0
 10
420.4312488493588
 20
272.7168020862271
 30
0.0
 10
420.4207456096502
 20
273.8629688128389
 30
0.0
 10
420.4089286204682
 20
275.0091230937971
 30
0.0
 10
420.3957978951326
 20
276.1552634232336
 30
0.0
 10
420.3813534534885
 20
277.3013882954473
 30
0.0
 10
420.3655952992016
 20
278.447496204335
 30
0.0
 10
420.3485235044782
 20
279.5935856454146
 30
0.0
 10
420.3301378938976
 20
280.7396551083395
 30
0.0
 10
420.3104392243624
 20
281.8857031045346
 30
0.0
 10
420.2894247814653
 20
283.0317280643273
 30
0.0
 10
420.2671048140774
 20
284.1777287207842
 30
0.0
 10
420.2434411995888
 20
285.3237026775088
 30
0.0
 10
420.2191756933674
 20
286.4420296807029
 30
0.0
 10
420.2021254363215
 20
287.1783495330895
 30
0.0
 10
420.1939201049415
 20
287.5326989352261
 30
0.0
  0
ARC
  5
8E
330
1F
100
AcDbEntity
  8
0
  6
Continuous
 62
     7
370
    30
100
AcDbCircle
 10
419.2966164533
 20
245.6264721795
 30
0.0
 40
0.9999999999999954
100
AcDbArc
 50
270.0
 51
358.9389063922
  0
ARC
  5
8F
330
1F
100
AcDbEntity
  8
0
  6
Continuous
 62
     7
370
    30
100
AcDbCircle
 10
379.967927438
 20
245.1264721795
 30
0.0
 40
0.4999999999999716
100
AcDbArc
 50
180.0
 51
270.0
  0
ARC
  5
90
330
1F
100
AcDbEntity
  8
0
  6
Continuous
 62
     7
370
    30
100
AcDbCircle
 10
379.967927438
 20
283.1264721795
 30
0.0
 40
0.5
100
AcDbArc
 50
90.0
 51
180.0
  0
LINE
  5
91
330
1F
100
AcDbEntity
  8
0
  6
Continuous
 62
     7
370
    30
100
AcDbLine
 10
379.967927438
 20
244.6264721795
 30
0.0
 11
419.2966164533
 21
244.6264721795
 31
0.0
  0
LINE
  5
92
330
1F
100
AcDbEntity
  8
0
  6
Continuous
 62
     7
370
    30
100
AcDbLine
 10
392.7689277082
 20
283.6264721795
 30
0.0
 11
379.967927438
 21
283.6264721795
 31
0.0
  0
LINE
  5
93
330
1F
100
AcDbEntity
  8
0
  6
Continuous
 62
     7
370
    30
100
AcDbLine
 10
419.1938373591
 20
288.5264721795
 30
0.0
 11
397.767927438
 21
288.5264721795
 31
0.0
  0
SPLINE
  5
94
330
1F
100
AcDbEntity
  8
0
  6
Continuous
 62
     7
370
    30
100
AcDbSpline
210
0.0
220
0.0
230
1.0
 70
     8
 71
     3
 72
    39
 73
    35
 74
     0
 42
0.000000001
 43
0.00000001
 40
0.0
 40
0.0
 40
0.0
 40
0.0
 40
0.0423040187359099
 40
0.0826940254460186
 40
0.1211696348552285
 40
0.1577313331412239
 40
0.1923798634982974
 40
0.225115909584636
 40
0.2559399641200768
 40
0.2848523037077075
 40
0.3118530173462091
 40
0.3369420557698068
 40
0.3601192827284782
 40
0.3813845187386013
 40
0.4007375737858823
 40
0.4181782689104737
 40
0.434294632830813
 40
0.4519734874487181
 40
0.474565877292607
 40
0.4997055191988621
 40
0.5273921711261239
 40
0.5576254687474834
 40
0.5904049255988315
 40
0.6257299665199478
 40
0.6636000092545521
 40
0.6988249648458987
 40
0.7359982186861834
 40
0.7751199922975354
 40
0.8161908968139742
 40
0.8504539266174874
 40
0.8859659361812593
 40
0.9227275395925787
 40
0.9607390427482403
 40
0.9999999999999999
 40
0.9999999999999999
 40
0.9999999999999999
 40
0.9999999999999999
 10
420.1935613906294
 20
287.5498968642855
 30
0.0
 10
420.1926394665052
 20
287.5716999418277
 30
0.0
 10
420.190837329988
 20
287.6143196338323
 30
0.0
 10
420.1831116626288
 20
287.6763868070128
 30
0.0
 10
420.1724266678942
 20
287.7349686343056
 30
0.0
 10
420.1589862426265
 20
287.789944012348
 30
0.0
 10
420.1434112497879
 20
287.8412587557755
 30
0.0
 10
420.126181951505
 20
287.8889040111643
 30
0.0
 10
420.1077726209457
 20
287.932911503135
 30
0.0
 10
420.0886158936385
 20
287.9733452719686
 30
0.0
 10
420.0691104374921
 20
288.0102949824926
 30
0.0
 10
420.0496189512649
 20
288.0438695662479
 30
0.0
 10
420.0304692993449
 20
288.074191502853
 30
0.0
 10
420.0119554647924
 20
288.101391653614
 30
0.0
 10
419.9943389615754
 20
288.1256046525126
 30
0.0
 10
419.9776650649803
 20
288.1472049353502
 30
0.0
 10
419.9609828711542
 20
288.1676962308875
 30
0.0
 10
419.9420411972059
 20
288.1897619586771
 30
0.0
 10
419.9192819554876
 20
288.2146659245627
 30
0.0
 10
419.8920001502374
 20
288.2423959046186
 30
0.0
 10
419.8607334871398
 20
288.2716875852784
 30
0.0
 10
419.8251942651792
 20
288.302118355578
 30
0.0
 10
419.7851014578332
 20
288.3332022371309
 30
0.0
 10
419.7401917775924
 20
288.3643855400422
 30
0.0
 10
419.6925121312983
 20
288.3936441115927
 30
0.0
 10
419.6424219765419
 20
288.4206130575135
 30
0.0
 10
419.5903122136311
 20
288.4450120631132
 30
0.0
 10
419.5340481367371
 20
288.4674090481076
 30
0.0
 10
419.4779234760741
 20
288.4858050050656
 30
0.0
 10
419.4226357813686
 20
288.5004100494967
 30
0.0
 10
419.3688127479014
 20
288.5115705010498
 30
0.0
 10
419.312535439303
 20
288.5199207506827
 30
0.0
 10
419.2539373657328
 20
288.5254221925009
 30
0.0
 10
419.2140844265658
 20
288.5261195943444
 30
0.0
 10
419.1938357566938
 20
288.5264739335724
 30
0.0
  0
SPLINE
  5
95
330
1F
100
AcDbEntity
  8
0
  6
Continuous
 62
     7
370
    30
100
AcDbSpline
210
0.0
220
0.0
230
1.0
 70
     8
 71
     3
 72
    44
 73
    40
 74
     0
 42
0.000000001
 43
0.00000001
 40
0.0
 40
0.0
 40
0.0
 40
0.0
 40
0.0254126470328573
 40
0.050826562185705
 40
0.0762409241368594
 40
0.1016551740269198
 40
0.127068965399715
 40
0.1524821188400353
 40
0.1778945814316834
 40
0.205847158683901
 40
0.2337990797450211
 40
0.2617505238737031
 40
0.2897016837125866
 40
0.3176527398882964
 40
0.3456038429724571
 40
0.3735551022084386
 40
0.401506580318644
 40
0.4294582936290178
 40
0.4574102166812504
 40
0.4848632213136952
 40
0.5123162940679806
 40
0.5397693480573655
 40
0.5672222990173555
 40
0.5951741395051174
 40
0.6231257549318024
 40
0.6510771365648725
 40
0.6790283198829785
 40
0.7069793874091738
 40
0.7344314154447661
 40
0.7618836108148018
 40
0.7893361516065267
 40
0.8167892188861116
 40
0.8448031720049629
 40
0.8728179454800262
 40
0.9008335413627198
 40
0.9288498025050714
 40
0.9568663502039582
 40
0.9848825131423798
 40
1.0
 40
1.0
 40
1.0
 40
1.0
 10
397.7679274379717
 20
288.5264721794663
 30
0.0
 10
397.7285177672758
 20
288.5260250574646
 30
0.0
 10
397.6496964592968
 20
288.5251307911491
 30
0.0
 10
397.5316455963954
 20
288.5178959305885
 30
0.0
 10
397.4139581896935
 20
288.5063524827481
 30
0.0
 10
397.2968198518759
 20
288.4900920626179
 30
0.0
 10
397.180414676594
 20
288.4692509187252
 30
0.0
 10
397.0649246627197
 20
288.4438294987229
 30
0.0
 10
396.946718490864
 20
288.4128766488364
 30
0.0
 10
396.8261233172173
 20
288.3758967263269
 30
0.0
 10
396.7035354795114
 20
288.332402172317
 30
0.0
 10
396.5829519623808
 20
288.2836306999632
 30
0.0
 10
396.4645987438477
 20
288.2296753003501
 30
0.0
 10
396.348696997852
 20
288.1706387455871
 30
0.0
 10
396.2354632392808
 20
288.106633454579
 30
0.0
 10
396.12510889416
 20
288.0377811314949
 30
0.0
 10
396.0178400033155
 20
287.9642124461184
 30
0.0
 10
395.913856968909
 20
287.8860667777846
 30
0.0
 10
395.8139521428478
 20
287.8039831147038
 30
0.0
 10
395.7182381114647
 20
287.7182062692428
 30
0.0
 10
395.6268107678721
 20
287.6289784285471
 30
0.0
 10
395.5392592340096
 20
287.5359446996517
 30
0.0
 10
395.4552362669153
 20
287.4386877041624
 30
0.0
 10
395.3749823922062
 20
287.3373075997311
 30
0.0
 10
395.2987404548494
 20
287.2319212922993
 30
0.0
 10
395.22713501975
 20
287.123332507342
 30
0.0
 10
395.1603018928698
 20
287.0117441261828
 30
0.0
 10
395.098736522297
 20
286.8980450183087
 30
0.0
 10
395.0424531169186
 20
286.782502924023
 30
0.0
 10
394.9914508671482
 20
286.6653771678065
 30
0.0
 10
394.9454847155246
 20
286.5461832322541
 30
0.0
 10
394.9043607729511
 20
286.4243132725512
 30
0.0
 10
394.8682797661474
 20
286.2999463594312
 30
0.0
 10
394.8374295006826
 20
286.173280489819
 30
0.0
 10
394.8121348926564
 20
286.0453892966514
 30
0.0
 10
394.7923480864075
 20
285.9165177652232
 30
0.0
 10
394.7784549064093
 20
285.7869043323868
 30
0.0
 10
394.7705920235029
 20
285.6767854742794
 30
0.0
 10
394.769581594569
 20
285.6098992667406
 30
0.0
 10
394.7692274593126
 20
285.5864569805393
 30
0.0
  0
SPLINE
  5
96
330
1F
100
AcDbEntity
  8
0
  6
Continuous
 62
     7
370
    30
100
AcDbSpline
210
0.0
220
0.0
230
1.0
 70
     8
 71
     3
 72
    23
 73
    19
 74
     0
 42
0.000000001
 43
0.00000001
 40
0.0
 40
0.0
 40
0.0
 40
0.0
 40
0.0164531104285031
 40
0.0832502155513726
 40
0.1500473360243496
 40
0.21684447184063
 40
0.283641623008828
 40
0.3504387895178921
 40
0.4172359713719587
 40
0.4840331685775916
 40
0.5508303811204753
 40
0.6176276090262883
 40
0.6844248522783506
 40
0.7512221108876662
 40
0.8180193848549114
 40
0.8848166742015251
 40
0.9516139789020401
 40
1.0
 40
1.0
 40
1.0
 40
1.0
 10
366.4678132651063
 20
280.7258072709528
 30
0.0
 10
366.4664881240789
 20
280.8337457507465
 30
0.0
 10
366.4597831137008
 20
281.3798979052683
 30
0.0
 10
366.4463943858169
 20
282.3642473381586
 30
0.0
 10
366.4275965114859
 20
283.6788533656568
 30
0.0
 10
366.4073786615874
 20
284.9934388453663
 30
0.0
 10
366.3858756454388
 20
286.3080041446781
 30
0.0
 10
366.3630513652752
 20
287.6225475006352
 30
0.0
 10
366.3389155262331
 20
288.9370677213242
 30
0.0
 10
366.3134655368574
 20
290.2515634611245
 30
0.0
 10
366.286702197004
 20
291.5660334183726
 30
0.0
 10
366.2586250457554
 20
292.8804762698131
 30
0.0
 10
366.2292352818414
 20
294.1948907344436
 30
0.0
 10
366.198528734034
 20
295.5092753843426
 30
0.0
 10
366.1665210591785
 20
296.8236293369339
 30
0.0
 10
366.1331539796149
 20
298.1379496759442
 30
0.0
 10
366.1018156859019
 20
299.3314886376959
 30
0.0
 10
366.0810120591303
 20
300.0869043551865
 30
0.0
 10
366.0722729059855
 20
300.4042381410521
 30
0.0
  0
SPLINE
  5
97
330
1F
100
AcDbEntity
  8
0
  6
Continuous
 62
     7
370
    30
100
AcDbSpline
210
0.0
220
0.0
230
1.0
 70
     8
 71
     3
 72
    23
 73
    19
 74
     0
 42
0.000000001
 43
0.00000001
 40
0.0
 40
0.0
 40
0.0
 40
0.0
 40
0.0312707999504907
 40
0.0980712776624027
 40
0.1648717707605643
 40
0.2316722792161385
 40
0.2984728030278694
 40
0.3652733422065756
 40
0.4320738967399962
 40
0.498874466639854
 40
0.5656750518898936
 40
0.6324756524931787
 40
0.6992762684398514
 40
0.7660768997445332
 40
0.8328775463758529
 40
0.8996782083600114
 40
0.9664788856959624
 40
0.9999999999999999
 40
0.9999999999999999
 40
0.9999999999999999
 40
0.9999999999999999
 10
366.0722729059855
 20
227.8498812233618
 30
0.0
 10
366.0779643646285
 20
228.0549534751578
 30
0.0
 10
366.0958138798878
 20
228.6980997259277
 30
0.0
 10
366.1244149032447
 20
229.7793585125218
 30
0.0
 10
366.15813824847
 20
231.0936543170137
 30
0.0
 10
366.1904753015991
 20
232.4079854221074
 30
0.0
 10
366.2215184977732
 20
233.7223479631688
 30
0.0
 10
366.2512430261095
 20
235.0367413115763
 30
0.0
 10
366.2796555035628
 20
236.3511639715659
 30
0.0
 10
366.3067540896686
 20
237.6656146800088
 30
0.0
 10
366.332539353655
 20
238.9800921096673
 30
0.0
 10
366.3570106912748
 20
240.2945949570116
 30
0.0
 10
366.3801697903553
 20
241.6091218873557
 30
0.0
 10
366.4020103517744
 20
242.9236716672122
 30
0.0
 10
366.4225557400075
 20
244.2382426888374
 30
0.0
 10
366.4417186599428
 20
245.5528347407868
 30
0.0
 10
366.4568180199134
 20
246.6491332935223
 30
0.0
 10
366.4650278109113
 20
247.3072404195606
 30
0.0
 10
366.4677709969923
 20
247.5271376506168
 30
0.0
  0
LINE
  5
98
330
1F
100
AcDbEntity
  8
0
  6
Continuous
 62
     7
370
    30
100
AcDbLine
 10
358.0726532293
 20
226.6264721797
 30
0.0
 11
365.107552726
 21
226.8721362832
 31
0.0
  0
LINE
  5
99
330
1F
100
AcDbEntity
  8
0
  6
Continuous
 62
     7
370
    30
100
AcDbLine
 10
365.107552726
 20
301.3808080758
 30
0.0
 11
358.0726532293
 21
301.6264721792
 31
0.0
  0
ARC
  5
9A
330
1F
100
AcDbEntity
  8
0
  6
Continuous
 62
     7
370
    30
100
AcDbCircle
 10
365.0726532293
 20
300.3814172488
 30
0.0
 40
1.000000000000043
100
AcDbArc
 50
1.5802574569
 51
88.0000000001
  0
ARC
  5
9B
330
1F
100
AcDbEntity
  8
0
  6
Continuous
 62
     7
370
    30
100
AcDbCircle
 10
365.0726532293
 20
227.8715271102
 30
0.0
 40
1.000000000000042
100
AcDbArc
 50
271.9999999999
 51
358.4197425431
  0
LINE
  5
9C
330
1F
100
AcDbEntity
  8
0
  6
Continuous
 62
     7
370
    30
100
AcDbLine
 10
379.467927438
 20
281.1264721795
 30
0.0
 11
366.467927438
 21
281.1264721795
 31
0.0
  0
LINE
  5
9D
330
1F
100
AcDbEntity
  8
0
  6
Continuous
 62
     7
370
    30
100
AcDbLine
 10
366.467927438
 20
247.1264721795
 30
0.0
 11
379.467927438
 21
247.1264721795
 31
0.0
  0
SPLINE
  5
9E
330
1F
100
AcDbEntity
  8
0
  6
Continuous
 62
     7
370
    30
100
AcDbSpline
210
0.0
220
0.0
230
1.0
 70
     8
 71
     3
 72
    10
 73
     6
 74
     0
 42
0.000000001
 43
0.00000001
 40
0.0
 40
0.0
 40
0.0
 40
0.0
 40
0.3957500332623931
 40
0.7891138962445203
 40
1.0
 40
1.0
 40
1.0
 40
1.0
 10
420.2484897537212
 20
284.9185786400776
 30
0.0
 10
420.249370620877
 20
284.8760721422493
 30
0.0
 10
420.2511270440103
 20
284.7913154390333
 30
0.0
 10
420.2533230928269
 20
284.6840105354977
 30
0.0
 10
420.254624705613
 20
284.6194979155545
 30
0.0
 10
420.2550789746476
 20
284.5969827052743
 30
0.0
  0
SPLINE
  5
9F
330
1F
100
AcDbEntity
  8
0
  6
Continuous
 62
     7
370
    30
100
AcDbSpline
210
0.0
220
0.0
230
1.0
 70
    24
 71
     3
 72
    47
 73
    43
 74
     0
 42
0.000000001
 43
0.00000001
 40
0.0
 40
0.0
 40
0.0
 40
0.0
 40
0.032863439807687
 40
0.0656855512195608
 40
0.0984751252541668
 40
0.1312409791192171
 40
0.1639919491802424
 40
0.1967368838521581
 40
0.2294846364421519
 40
0.2631178636340237
 40
0.2967729580876179
 40
0.3304594688727429
 40
0.3418117448367244
 40
0.3531690257570291
 40
0.3645316739139837
 40
0.3765001542916853
 40
0.3885491549016019
 40
0.4005917491863724
 40
0.4126283682788361
 40
0.4445176745021308
 40
0.4763760768224248
 40
0.5082116669528532
 40
0.5400325540092472
 40
0.5718468583503952
 40
0.6036627053754058
 40
0.6336692518396985
 40
0.6636911956709457
 40
0.6937353300671701
 40
0.7238084331885518
 40
0.753917263630786
 40
0.7657861578396631
 40
0.7776482059167947
 40
0.789503818173776
 40
0.8013534055907547
 40
0.8131973797750556
 40
0.8250361529194804
 40
0.8529234415897866
 40
0.88078954230753
 40
0.9139432608722288
 40
0.9470838196007856
 40
0.9802204044968776
 40
1.0
 40
1.0
 40
1.0
 40
1.0
 10
379.4679274379718
 20
247.4524035035766
 30
0.0
 10
379.4679274379717
 20
247.4029399201821
 30
0.0
 10
379.4679274379717
 20
247.3040749577929
 30
0.0
 10
379.4679274379718
 20
247.1615655720873
 30
0.0
 10
379.4679274379718
 20
247.0234352010649
 30
0.0
 10
379.4679274379718
 20
246.8900892668918
 30
0.0
 10
379.4679274379717
 20
246.761419334038
 30
0.0
 10
379.4679274379717
 20
246.6374544575332
 30
0.0
 10
379.4679274379718
 20
246.5171262377404
 30
0.0
 10
379.4679274379718
 20
246.4005836809591
 30
0.0
 10
379.4679274379717
 20
246.2879770193474
 30
0.0
 10
379.4679274379718
 20
246.2041557509583
 30
0.0
 10
379.4679274379717
 20
246.145979077496
 30
0.0
 10
379.4679274379718
 20
246.1114079328202
 30
0.0
 10
379.4679274379718
 20
246.0767997275726
 30
0.0
 10
379.4679274379718
 20
246.0421168943562
 30
0.0
 10
379.4679274379718
 20
246.0074141174872
 30
0.0
 10
379.4679274379718
 20
245.9732982805933
 30
0.0
 10
379.4679274379718
 20
245.9214610108176
 30
0.0
 10
379.4679274379717
 20
245.8537817803967
 30
0.0
 10
379.4679274379717
 20
245.7730569077183
 30
0.0
 10
379.4679274379718
 20
245.697049970338
 30
0.0
 10
379.4679274379717
 20
245.6257611750634
 30
0.0
 10
379.4679274379718
 20
245.5591904982404
 30
0.0
 10
379.4679274379718
 20
245.4985165721771
 30
0.0
 10
379.4679274379717
 20
245.4434302505075
 30
0.0
 10
379.4679274379718
 20
245.3936284354602
 30
0.0
 10
379.4679274379718
 20
245.3480208976881
 30
0.0
 10
379.4679274379717
 20
245.3066074104408
 30
0.0
 10
379.4679274379717
 20
245.2769213944753
 30
0.0
 10
379.4679274379718
 20
245.2564983165816
 30
0.0
 10
379.4679274379718
 20
245.24365676626
 30
0.0
 10
379.4679274379718
 20
245.2314809668353
 30
0.0
 10
379.4679274379717
 20
245.2199708181664
 30
0.0
 10
379.4679274379718
 20
245.2091262836021
 30
0.0
 10
379.4679274379718
 20
245.1943469245032
 30
0.0
 10
379.4679274379718
 20
245.1770870242042
 30
0.0
 10
379.4679274379718
 20
245.158312406198
 30
0.0
 10
379.4679274379717
 20
245.1429328098928
 30
0.0
 10
379.4679274379718
 20
245.1321211194405
 30
0.0
 10
379.4679274379717
 20
245.1266835872636
 30
0.0
 10
379.4679274379718
 20
245.1266984603384
 30
0.0
 10
379.4679274379718
 20
245.1267040197609
 30
0.0
  0
SPLINE
  5
A0
330
1F
100
AcDbEntity
  8
0
  6
Continuous
 62
     7
370
    30
100
AcDbSpline
210
0.0
220
0.0
230
1.0
 70
    24
 71
     3
 72
   214
 73
   210
 74
     0
 42
0.000000001
 43
0.00000001
 40
0.0
 40
0.0
 40
0.0
 40
0.0
 40
0.0062186496246071
 40
0.0124298182047465
 40
0.0186351698022247
 40
0.024836373161724
 40
0.0310351003781396
 40
0.0372330255504311
 40
0.0434318234273784
 40
0.0497985837054051
 40
0.0561698376539604
 40
0.0625473907400726
 40
0.0646966899188689
 40
0.0668469760726746
 40
0.0689983176761386
 40
0.0712626925514174
 40
0.0735421430744957
 40
0.0758204604143497
 40
0.0780977262952399
 40
0.0841314010927373
 40
0.0901597880559657
 40
0.0961844201469275
 40
0.1022068331949531
 40
0.1082285647272592
 40
0.1142511527930218
 40
0.1195529724194878
 40
0.1248576924708773
 40
0.1301663577865888
 40
0.1319550532890371
 40
0.1337443541040542
 40
0.135534299926375
 40
0.1373249304078383
 40
0.1391162851548183
 40
0.1409084037256694
 40
0.1427013256281882
 40
0.1488354916746481
 40
0.1549615157225859
 40
0.1610809918319021
 40
0.167195519183651
 40
0.1733067008438775
 40
0.1794161425122712
 40
0.1855254512604793
 40
0.1917992198023464
 40
0.1980762801925811
 40
0.2043583676185785
 40
0.206828107754932
 40
0.2092989956745396
 40
0.2117711359672219
 40
0.2142446330639325
 40
0.2167195912238742
 40
0.2191961145217216
 40
0.2254616278812725
 40
0.2317184554701829
 40
0.2379682951040186
 40
0.244212850298158
 40
0.2504538288952471
 40
0.2566929416750153
 40
0.2629319009520654
 40
0.2686522851106696
 40
0.2743752973223982
 40
0.2801022538774364
 40
0.2858344683487478
 40
0.2915732506987803
 40
0.2973199063984975
 40
0.3035854199233949
 40
0.3098422476252794
 40
0.3160920873295897
 40
0.322336642561645
 40
0.3285776211740831
 40
0.3348167339566621
 40
0.3410556932340318
 40
0.3474626584894207
 40
0.353873118649016
 40
0.3602889223958457
 40
0.3628113067982823
 40
0.3653349121194178
 40
0.3678598497630796
 40
0.3703862309568439
 40
0.3729141667377409
 40
0.3754437679380851
 40
0.3815779344408021
 40
0.3877039588005179
 40
0.3938234351043688
 40
0.3999379625608236
 40
0.4060491442634792
 40
0.4121585859396709
 40
0.4182678946887434
 40
0.4245416632532982
 40
0.4308187237180535
 40
0.4371008113002536
 40
0.4392176646550444
 40
0.4413353503077662
 40
0.4434539341442474
 40
0.4455734819665566
 40
0.447694059487024
 40
0.4498157323223049
 40
0.4519385659874862
 40
0.4585317725739202
 40
0.4651161948386774
 40
0.4716938156891468
 40
0.4782666241883421
 40
0.4848366137700941
 40
0.4914057804344611
 40
0.4979761209314828
 40
0.5030373648399429
 40
0.5081013979801666
 40
0.5131691288480654
 40
0.5182414639526722
 40
0.5205205901995557
 40
0.522800908476094
 40
0.525082500290494
 40
0.5272497013537415
 40
0.5293993520593997
 40
0.5315480586022067
 40
0.5336958896288656
 40
0.5393871279935619
 40
0.5450739780963381
 40
0.5507577266432733
 40
0.5564396624475412
 40
0.5621210755559628
 40
0.5678032563713679
 40
0.5731626088544847
 40
0.5785248705258588
 40
0.5838911196586231
 40
0.5892624321245014
 40
0.5946398807561402
 40
0.6008576745703055
 40
0.6070681539016219
 40
0.6132729838763953
 40
0.6194738341720306
 40
0.625672377681906
 40
0.6318702891672902
 40
0.6380692439017104
 40
0.6444363430508514
 40
0.6508081163048253
 40
0.657186369242987
 40
0.6593359447160853
 40
0.6614865276270608
 40
0.6636381864432153
 40
0.6659026027486928
 40
0.6681820532717906
 40
0.6704603706116626
 40
0.6727376364925693
 40
0.6787713112901048
 40
0.6847996982533622
 40
0.6908243303443437
 40
0.6968467433923796
 40
0.7028684749246867
 40
0.7088910629904414
 40
0.7141928826168925
 40
0.7194976026682601
 40
0.7248062679839421
 40
0.7265949634863789
 40
0.7283842643013838
 40
0.7301742101236913
 40
0.7319648406051408
 40
0.733756195352106
 40
0.7355483139229417
 40
0.7373412358254438
 40
0.7434754018720887
 40
0.7496014259201791
 40
0.7557209020296158
 40
0.761835429381453
 40
0.7679466110417358
 40
0.7740560527101535
 40
0.7801653614583536
 40
0.7864391300001791
 40
0.7927161903903388
 40
0.7989982778162278
 40
0.8014680179525295
 40
0.8039389058720804
 40
0.8064110461647007
 40
0.8088845432613445
 40
0.8113595014212142
 40
0.8138360247189844
 40
0.8201015380786868
 40
0.8263583656677227
 40
0.8326082053016577
 40
0.8388527604958705
 40
0.8450937390930063
 40
0.8513328518727946
 40
0.8575718111498379
 40
0.8632921953084123
 40
0.8690152075200885
 40
0.8747421640750517
 40
0.8804743785462652
 40
0.8862131608961772
 40
0.8919598165957506
 40
0.8982253301207896
 40
0.9044821578227911
 40
0.9107319975271937
 40
0.9169765527593166
 40
0.9232175313717976
 40
0.9294566441543949
 40
0.9356956034317587
 40
0.942102568687116
 40
0.948513028846654
 40
0.9549288325934013
 40
0.9574512169957987
 40
0.9599748223168911
 40
0.9624997599605059
 40
0.9650261411542191
 40
0.9675540769350615
 40
0.970083678135347
 40
0.9762178446381053
 40
0.982343868997856
 40
0.9884633453017345
 40
0.9945778727582099
 40
0.9999999999999999
 40
0.9999999999999999
 40
0.9999999999999999
 40
0.9999999999999999
 10
379.4679274379718
 20
247.4524035035766
 30
0.0
 10
379.4679274379718
 20
247.5027121333802
 30
0.0
 10
379.4679274379717
 20
247.6032688716331
 30
0.0
 10
379.4679274379718
 20
247.7596549626292
 30
0.0
 10
379.4679274379717
 20
247.9199720811264
 30
0.0
 10
379.4679274379718
 20
248.0846256640988
 30
0.0
 10
379.4679274379717
 20
248.2535071695931
 30
0.0
 10
379.4679274379718
 20
248.4266456385066
 30
0.0
 10
379.4679274379717
 20
248.6056108804719
 30
0.0
 10
379.4679274379718
 20
248.7905390282216
 30
0.0
 10
379.4679274379718
 20
248.9815611090455
 30
0.0
 10
379.4679274379718
 20
249.1337806810488
 30
0.0
 10
379.4679274379718
 20
249.2444467252471
 30
0.0
 10
379.4679274379718
 20
249.3117864644193
 30
0.0
 10
379.4679274379718
 20
249.3808105141416
 30
0.0
 10
379.4679274379718
 20
249.4516950121586
 30
0.0
 10
379.4679274379717
 20
249.5244491670489
 30
0.0
 10
379.4679274379718
 20
249.5978669835879
 30
0.0
 10
379.4679274379717
 20
249.7124219623447
 30
0.0
 10
379.4679274379718
 20
249.8695459504762
 30
0.0
 10
379.4679274379717
 20
250.0713495374032
 30
0.0
 10
379.4679274379718
 20
250.2765984097054
 30
0.0
 10
379.4679274379717
 20
250.4852921569989
 30
0.0
 10
379.4679274379718
 20
250.6974307640776
 30
0.0
 10
379.4679274379718
 20
250.9043864641571
 30
0.0
 10
379.4679274379718
 20
251.1056914626069
 30
0.0
 10
379.4679274379718
 20
251.3009161304834
 30
0.0
 10
379.4679274379718
 20
251.4550117101015
 30
0.0
 10
379.4679274379717
 20
251.566351155187
 30
0.0
 10
379.4679274379718
 20
251.6338849529442
 30
0.0
 10
379.4679274379717
 20
251.7017211413564
 30
0.0
 10
379.4679274379717
 20
251.7698597623871
 30
0.0
 10
379.4679274379718
 20
251.8383007879576
 30
0.0
 10
379.4679274379717
 20
251.9070442877231
 30
0.0
 10
379.4679274379718
 20
252.0318061291553
 30
0.0
 10
379.4679274379718
 20
252.2137631219377
 30
0.0
 10
379.4679274379718
 20
252.4548450422066
 30
0.0
 10
379.4679274379717
 20
252.6987181575853
 30
0.0
 10
379.4679274379718
 20
252.9453819247423
 30
0.0
 10
379.4679274379718
 20
253.1948364229321
 30
0.0
 10
379.4679274379717
 20
253.4470816028253
 30
0.0
 10
379.4679274379717
 20
253.7043850586012
 30
0.0
 10
379.4679274379718
 20
253.9668357820868
 30
0.0
 10
379.4679274379718
 20
254.2345185417179
 30
0.0
 10
379.4679274379718
 20
254.4503083704806
 30
0.0
 10
379.4679274379718
 20
254.6125425777437
 30
0.0
 10
379.4679274379718
 20
254.720105005966
 30
0.0
 10
379.4679274379718
 20
254.8281212322679
 30
0.0
 10
379.4679274379718
 20
254.9365913127664
 30
0.0
 10
379.4679274379717
 20
255.0455153482873
 30
0.0
 10
379.4679274379717
 20
255.2106487294509
 30
0.0
 10
379.4679274379718
 20
255.4328157814036
 30
0.0
 10
379.4679274379718
 20
255.7132377838049
 30
0.0
 10
379.4679274379717
 20
255.9956393816311
 30
0.0
 10
379.4679274379718
 20
256.2800200044643
 30
0.0
 10
379.4679274379717
 20
256.5663797521494
 30
0.0
 10
379.4679274379718
 20
256.8547184374639
 30
0.0
 10
379.4679274379717
 20
257.1369692644041
 30
0.0
 10
379.4679274379718
 20
257.4129400405612
 30
0.0
 10
379.4679274379718
 20
257.6824598187267
 30
0.0
 10
379.4679274379717
 20
257.9536422100748
 30
0.0
 10
379.4679274379718
 20
258.2264871939185
 30
0.0
 10
379.4679274379718
 20
258.5009948859837
 30
0.0
 10
379.4679274379717
 20
258.7853286690972
 30
0.0
 10
379.4679274379718
 20
259.0793124686707
 30
0.0
 10
379.4679274379717
 20
259.3827670201293
 30
0.0
 10
379.4679274379717
 20
259.6871757544507
 30
0.0
 10
379.4679274379718
 20
259.9925386352734
 30
0.0
 10
379.4679274379717
 20
260.2988555782997
 30
0.0
 10
379.4679274379717
 20
260.606126560901
 30
0.0
 10
379.4679274379718
 20
260.917092108596
 30
0.0
 10
379.4679274379718
 20
261.2317839763582
 30
0.0
 10
379.4679274379718
 20
261.5502277937419
 30
0.0
 10
379.4679274379718
 20
261.8049464816264
 30
0.0
 10
379.4679274379718
 20
261.9954255771507
 30
0.0
 10
379.4679274379717
 20
262.1213384835272
 30
0.0
 10
379.4679274379718
 20
262.2474064455444
 30
0.0
 10
379.4679274379718
 20
262.3736295451984
 30
0.0
 10
379.4679274379717
 20
262.500007866011
 30
0.0
 10
379.4679274379718
 20
262.686611790014
 30
0.0
 10
379.4679274379718
 20
262.933433390554
 30
0.0
 10
379.4679274379717
 20
263.2404753001691
 30
0.0
 10
379.4679274379718
 20
263.5474219500848
 30
0.0
 10
379.4679274379718
 20
263.8542726971873
 30
0.0
 10
379.4679274379718
 20
264.1610276238061
 30
0.0
 10
379.4679274379718
 20
264.4676866667004
 30
0.0
 10
379.4679274379717
 20
264.7769755633067
 30
0.0
 10
379.4679274379717
 20
265.0888930529729
 30
0.0
 10
379.4679274379718
 20
265.4034316487545
 30
0.0
 10
379.4679274379718
 20
265.6482701134143
 30
0.0
 10
379.4679274379718
 20
265.8235513117494
 30
0.0
 10
379.4679274379717
 20
265.9293863304337
 30
0.0
 10
379.4679274379717
 20
266.0352098071622
 30
0.0
 10
379.4679274379718
 20
266.141021833837
 30
0.0
 10
379.4679274379718
 20
266.2468223658558
 30
0.0
 10
379.4679274379718
 20
266.3526114879863
 30
0.0
 10
379.4679274379718
 20
266.5326182919348
 30
0.0
 10
379.4679274379718
 20
266.7863948753694
 30
0.0
 10
379.4679274379718
 20
267.1132555824087
 30
0.0
 10
379.4679274379717
 20
267.4388787528551
 30
0.0
 10
379.4679274379718
 20
267.7632633667223
 30
0.0
 10
379.4679274379718
 20
268.0864096543935
 30
0.0
 10
379.4679274379717
 20
268.408317168577
 30
0.0
 10
379.4679274379718
 20
268.7043870398319
 30
0.0
 10
379.4679274379717
 20
268.9749268571586
 30
0.0
 10
379.4679274379717
 20
269.220248715229
 30
0.0
 10
379.4679274379717
 20
269.4648358397019
 30
0.0
 10
379.4679274379717
 20
269.6638425452691
 30
0.0
 10
379.4679274379718
 20
269.8177243148821
 30
0.0
 10
379.4679274379718
 20
269.9268149286585
 30
0.0
 10
379.4679274379718
 20
270.0339153282142
 30
0.0
 10
379.4679274379717
 20
270.13873617952
 30
0.0
 10
379.4679274379718
 20
270.2412520332167
 30
0.0
 10
379.4679274379717
 20
270.343264797684
 30
0.0
 10
379.4679274379718
 20
270.5010148097726
 30
0.0
 10
379.4679274379717
 20
270.7138732926475
 30
0.0
 10
379.4679274379718
 20
270.9808882266288
 30
0.0
 10
379.4679274379717
 20
271.2462092779695
 30
0.0
 10
379.4679274379718
 20
271.5098359184051
 30
0.0
 10
379.4679274379718
 20
271.7717681966306
 30
0.0
 10
379.4679274379717
 20
272.0270467597369
 30
0.0
 10
379.4679274379718
 20
272.2757817092209
 30
0.0
 10
379.4679274379718
 20
272.5180876049502
 30
0.0
 10
379.4679274379718
 20
272.7588871514091
 30
0.0
 10
379.4679274379717
 20
272.9981803019479
 30
0.0
 10
379.4679274379718
 20
273.2482467169019
 30
0.0
 10
379.4679274379718
 20
273.5085135245055
 30
0.0
 10
379.4679274379717
 20
273.7783558066592
 30
0.0
 10
379.4679274379718
 20
274.0453601478329
 30
0.0
 10
379.4679274379717
 20
274.3095261746812
 30
0.0
 10
379.4679274379718
 20
274.5708539010054
 30
0.0
 10
379.4679274379718
 20
274.8293432799026
 30
0.0
 10
379.4679274379718
 20
275.0872680473292
 30
0.0
 10
379.4679274379717
 20
275.3445399742612
 30
0.0
 10
379.4679274379718
 20
275.6010646943255
 30
0.0
 10
379.4679274379717
 20
275.7984650149126
 30
0.0
 10
379.4679274379718
 20
275.9387010904533
 30
0.0
 10
379.4679274379718
 20
276.0230520545039
 30
0.0
 10
379.4679274379717
 20
276.1085164322986
 30
0.0
 10
379.4679274379718
 20
276.1952497793238
 30
0.0
 10
379.4679274379717
 20
276.2831918366526
 30
0.0
 10
379.4679274379718
 20
276.3708616612005
 30
0.0
 10
379.4679274379718
 20
276.5060008873994
 30
0.0
 10
379.4679274379717
 20
276.6872969401542
 30
0.0
 10
379.4679274379718
 20
276.9127834699335
 30
0.0
 10
379.4679274379718
 20
277.1348827273146
 30
0.0
 10
379.4679274379717
 20
277.3535942035982
 30
0.0
 10
379.4679274379717
 20
277.5689179092951
 30
0.0
 10
379.4679274379718
 20
277.7723720202454
 30
0.0
 10
379.4679274379718
 20
277.9644132406899
 30
0.0
 10
379.4679274379717
 20
278.1454858525084
 30
0.0
 10
379.4679274379718
 20
278.2844414824457
 30
0.0
 10
379.4679274379718
 20
278.3829688403434
 30
0.0
 10
379.4679274379717
 20
278.4421663464052
 30
0.0
 10
379.4679274379718
 20
278.5010664148101
 30
0.0
 10
379.4679274379717
 20
278.5596690827385
 30
0.0
 10
379.4679274379718
 20
278.6179743353957
 30
0.0
 10
379.4679274379717
 20
278.6759821944188
 30
0.0
 10
379.4679274379718
 20
278.7802617162605
 30
0.0
 10
379.4679274379717
 20
278.9291687638647
 30
0.0
 10
379.4679274379717
 20
279.1200589182833
 30
0.0
 10
379.4679274379718
 20
279.3068311589473
 30
0.0
 10
379.4679274379718
 20
279.4894848971943
 30
0.0
 10
379.4679274379718
 20
279.6680202290951
 30
0.0
 10
379.4679274379717
 20
279.8424370954181
 30
0.0
 10
379.4679274379718
 20
280.0142496783463
 30
0.0
 10
379.4679274379718
 20
280.1833297294518
 30
0.0
 10
379.4679274379718
 20
280.3495443288009
 30
0.0
 10
379.4679274379717
 20
280.4786186244327
 30
0.0
 10
379.4679274379718
 20
280.5731326205333
 30
0.0
 10
379.4679274379718
 20
280.6348618322426
 30
0.0
 10
379.4679274379717
 20
280.695921150359
 30
0.0
 10
379.4679274379718
 20
280.756310636141
 30
0.0
 10
379.4679274379718
 20
280.8160302643531
 30
0.0
 10
379.4679274379717
 20
280.9051810703964
 30
0.0
 10
379.4679274379718
 20
281.0218632091974
 30
0.0
 10
379.4679274379718
 20
281.1633035807247
 30
0.0
 10
379.4679274379718
 20
281.2999470934444
 30
0.0
 10
379.4679274379717
 20
281.4317932388282
 30
0.0
 10
379.4679274379718
 20
281.5588421119
 30
0.0
 10
379.4679274379718
 20
281.6810936149047
 30
0.0
 10
379.4679274379718
 20
281.7952841378051
 30
0.0
 10
379.4679274379718
 20
281.9018675571965
 30
0.0
 10
379.4679274379718
 20
282.0012864042585
 30
0.0
 10
379.4679274379718
 20
282.0966742208272
 30
0.0
 10
379.4679274379718
 20
282.1880311119795
 30
0.0
 10
379.4679274379717
 20
282.2753567625497
 30
0.0
 10
379.4679274379718
 20
282.3611146709551
 30
0.0
 10
379.4679274379718
 20
282.4447713750505
 30
0.0
 10
379.4679274379718
 20
282.5257494426558
 30
0.0
 10
379.4679274379718
 20
282.601626804534
 30
0.0
 10
379.4679274379717
 20
282.6724030540579
 30
0.0
 10
379.4679274379717
 20
282.7380782664583
 30
0.0
 10
379.4679274379718
 20
282.7986523994124
 30
0.0
 10
379.4679274379717
 20
282.8546186959482
 30
0.0
 10
379.4679274379718
 20
282.9058174410202
 30
0.0
 10
379.4679274379717
 20
282.9520861958489
 30
0.0
 10
379.4679274379718
 20
282.984692050347
 30
0.0
 10
379.4679274379717
 20
283.0067951537043
 30
0.0
 10
379.4679274379718
 20
283.0205584028434
 30
0.0
 10
379.4679274379717
 20
283.0334919754312
 30
0.0
 10
379.4679274379717
 20
283.0455959724459
 30
0.0
 10
379.4679274379718
 20
283.056870083331
 30
0.0
 10
379.4679274379718
 20
283.0722743237403
 30
0.0
 10
379.4679274379718
 20
283.0898293703644
 30
0.0
 10
379.4679274379718
 20
283.1067341134489
 30
0.0
 10
379.4679274379718
 20
283.1185397647467
 30
0.0
 10
379.4679274379718
 20
283.125563573724
 30
0.0
 10
379.4679274379718
 20
283.1261697393975
 30
0.0
 10
379.4679274379718
 20
283.1264546319853
 30
0.0
  0
SPLINE
  5
A1
330
1F
100
AcDbEntity
  8
0
  6
Continuous
 62
     7
370
    30
100
AcDbSpline
210
0.0
220
0.0
230
1.0
 70
     8
 71
     3
 72
    39
 73
    35
 74
     0
 42
0.000000001
 43
0.00000001
 40
0.0
 40
0.0
 40
0.0
 40
0.0
 40
0.0312500380164547
 40
0.0625000986388379
 40
0.093750150346193
 40
0.1250001948153178
 40
0.156250243089865
 40
0.1875003016801632
 40
0.2187503668316116
 40
0.2500004250639726
 40
0.2812504579817909
 40
0.3125004492875315
 40
0.3437503918935737
 40
0.3750002930272784
 40
0.4062501752544848
 40
0.4375000714115289
 40
0.4687500115339213
 40
0.5000000000014516
 40
0.5312499884688947
 40
0.5624999285910169
 40
0.5937498247476954
 40
0.6249997069745942
 40
0.656249608108234
 40
0.6874995507146211
 40
0.7187495420212381
 40
0.7499995749404913
 40
0.7812496331747723
 40
0.8124996983284247
 40
0.8437497569208766
 40
0.8749998051970541
 40
0.9062498496666855
 40
0.9374999013726996
 40
0.9687499619910824
 40
1.0
 40
1.0
 40
1.0
 40
1.0
 10
392.7689275379717
 20
283.6264721794766
 30
0.0
 10
392.8012358056645
 20
283.6269241652621
 30
0.0
 10
392.8658523644215
 20
283.62782813716
 30
0.0
 10
392.9625496532402
 20
283.6351352734787
 30
0.0
 10
393.058792277074
 20
283.6467816298685
 30
0.0
 10
393.1543541727418
 20
283.6631673653499
 30
0.0
 10
393.2490109501268
 20
283.6841393312583
 30
0.0
 10
393.3425403869873
 20
283.7096787386656
 30
0.0
 10
393.4347229196727
 20
283.7397171602086
 30
0.0
 10
393.5253421345291
 20
283.774186092781
 30
0.0
 10
393.6141852589857
 20
283.8130039365329
 30
0.0
 10
393.7010436528614
 20
283.8560797418921
 30
0.0
 10
393.7857133000284
 20
283.9033124624546
 30
0.0
 10
393.8679953005765
 20
283.9545914109848
 30
0.0
 10
393.9476963639042
 20
284.0097963923008
 30
0.0
 10
394.0246293019017
 20
284.0687979214994
 30
0.0
 10
394.0986135259933
 20
284.1314574209104
 30
0.0
 10
394.1694755398993
 20
284.1976274199844
 30
0.0
 10
394.2370495439348
 20
284.2671518600816
 30
0.0
 10
394.3011761946798
 20
284.3398680958545
 30
0.0
 10
394.3617045811556
 20
284.4156056151375
 30
0.0
 10
394.4184925416384
 20
284.4941866370303
 30
0.0
 10
394.4714068733624
 20
284.5754266005628
 30
0.0
 10
394.5203235393753
 20
284.6591346576992
 30
0.0
 10
394.5651278965838
 20
284.7451141620575
 30
0.0
 10
394.605714838473
 20
284.8331631592447
 30
0.0
 10
394.64198926086
 20
284.9230748698029
 30
0.0
 10
394.6738653247657
 20
285.0146381957157
 30
0.0
 10
394.7012702125137
 20
285.1076381366772
 30
0.0
 10
394.7241311191553
 20
285.2018565415001
 30
0.0
 10
394.7424248150759
 20
285.2970716081682
 30
0.0
 10
394.7559936944418
 20
285.3930620544185
 30
0.0
 10
394.7652333149697
 20
285.4895938591048
 30
0.0
 10
394.7674294372359
 20
285.5541794138073
 30
0.0
 10
394.7685274979718
 20
285.5864721794766
 30
0.0
  0
LINE
  5
A2
330
1F
100
AcDbEntity
  8
0
  6
Continuous
 62
     7
370
    30
100
AcDbLine
 10
358.0726532293
 20
301.6264721792
 30
0.0
 11
358.0726532293
 21
226.6264721797
 31
0.0
  0
LINE
  5
A3
330
1F
100
AcDbEntity
  8
0
  6
Continuous
 62
     7
370
    30
100
AcDbLine
 10
366.467927438
 20
281.1264721795
 30
0.0
 11
366.467927438
 21
247.1264721795
 31
0.0
  0
SPLINE
  5
A4
330
1F
100
AcDbEntity
  8
0
  6
Continuous
 62
     7
370
    30
100
AcDbSpline
210
0.0
220
0.0
230
1.0
 70
     8
 71
     3
 72
    44
 73
    40
 74
     0
 42
0.000000001
 43
0.00000001
 40
0.0
 40
0.0
 40
0.0
 40
0.0
 40
0.0250077331291012
 40
0.0523523422939657
 40
0.0796969597237693
 40
0.1070415854237116
 40
0.1343862193928869
 40
0.1617308616285679
 40
0.1890755121313953
 40
0.2164201708979958
 40
0.243764837929434
 40
0.2711095132238407
 40
0.2984541967796328
 40
0.3257988885967348
 40
0.3531435886739633
 40
0.3804882970108453
 40
0.4078330136031898
 40
0.435177738450217
 40
0.4625224715579651
 40
0.4898672129269626
 40
0.5172119625557648
 40
0.5445567204420951
 40
0.5719014865860844
 40
0.5992462609856157
 40
0.6265910436420102
 40
0.6539358345573089
 40
0.6812806337280782
 40
0.7086254411549817
 40
0.7359702568457055
 40
0.7633150807944322
 40
0.790659913001359
 40
0.818004753468831
 40
0.845349602197895
 40
0.8726944591859809
 40
0.900039324434745
 40
0.9273841979480492
 40
0.9547290797265655
 40
0.9820739697697374
 40
1.0
 40
1.0
 40
1.0
 40
1.0
 10
27.80601967452041
 20
287.5298158942341
 30
0.0
 10
27.79792703581615
 20
287.1804928153238
 30
0.0
 10
27.78098553258913
 20
286.4492037654972
 30
0.0
 10
27.75681831172835
 20
285.3359119407662
 30
0.0
 10
27.73314022858242
 20
284.1899507534628
 30
0.0
 10
27.71080666834857
 20
283.0439621368042
 30
0.0
 10
27.6897783470681
 20
281.8979485139458
 30
0.0
 10
27.67006582785146
 20
280.7519111446534
 30
0.0
 10
27.6516663151331
 20
279.6058516005166
 30
0.0
 10
27.63458059060621
 20
278.4597713695686
 30
0.0
 10
27.61880847525241
 20
277.3136719622904
 30
0.0
 10
27.60435004528629
 20
276.1675548831677
 30
0.0
 10
27.59120530634443
 20
275.0214216383348
 30
0.0
 10
27.57937428078629
 20
273.8752737335094
 30
0.0
 10
27.56885698430164
 20
272.7291126745304
 30
0.0
 10
27.55965343217841
 20
271.582939967283
 30
0.0
 10
27.55176363762611
 20
270.4367571176726
 30
0.0
 10
27.54518761221721
 20
269.2905656315269
 30
0.0
 10
27.53992536577843
 20
268.144367014622
 30
0.0
 10
27.53597690641338
 20
266.9981627727547
 30
0.0
 10
27.53334224050057
 20
265.8519544118478
 30
0.0
 10
27.5320213726918
 20
264.7057434378372
 30
0.0
 10
27.53201430591308
 20
263.5595313566739
 30
0.0
 10
27.53332104136199
 20
262.4133196742625
 30
0.0
 10
27.53594157852028
 20
261.2671098964825
 30
0.0
 10
27.53987591510124
 20
260.1209035292312
 30
0.0
 10
27.54512404725402
 20
258.9747020784155
 30
0.0
 10
27.55168596879979
 20
257.8285070498486
 30
0.0
 10
27.55956167407249
 20
256.6823199494115
 30
0.0
 10
27.56875114733394
 20
255.5361422828302
 30
0.0
 10
27.57925440226347
 20
254.3899755564692
 30
0.0
 10
27.59107133458646
 20
253.2438212744418
 30
0.0
 10
27.60420227206944
 20
252.0976809488851
 30
0.0
 10
27.61864592191406
 20
250.9515560620764
 30
0.0
 10
27.63440703118337
 20
249.8054482076487
 30
0.0
 10
27.65146779770276
 20
248.6593585633721
 30
0.0
 10
27.66989456606532
 20
247.5132898588024
 30
0.0
 10
27.68719555205498
 20
246.4988236601377
 30
0.0
 10
27.69891460779171
 20
245.8663910878681
 30
0.0
 10
27.70355502919553
 20
245.6159653103351
 30
0.0
  0
ARC
  5
A5
330
1F
100
AcDbEntity
  8
0
  6
Continuous
 62
     7
370
    30
100
AcDbCircle
 10
28.7033835467
 20
245.6264721795
 30
0.0
 40
0.999999999999999
100
AcDbArc
 50
181.0610936078
 51
270.0
  0
ARC
  5
A6
330
1F
100
AcDbEntity
  8
0
  6
Continuous
 62
     7
370
    30
100
AcDbCircle
 10
68.032072562
 20
283.1264721795
 30
0.0
 40
0.5
100
AcDbArc
 50
0.0
 51
90.0
  0
ARC
  5
A7
330
1F
100
AcDbEntity
  8
0
  6
Continuous
 62
     7
370
    30
100
AcDbCircle
 10
68.032072562
 20
245.1264721795
 30
0.0
 40
0.5
100
AcDbArc
 50
270.0
 51
0.0
  0
LINE
  5
A8
330
1F
100
AcDbEntity
  8
0
  6
Continuous
 62
     7
370
    30
100
AcDbLine
 10
68.032072562
 20
283.6264721795
 30
0.0
 11
55.2310722878
 21
283.6264721795
 31
0.0
  0
LINE
  5
A9
330
1F
100
AcDbEntity
  8
0
  6
Continuous
 62
     7
370
    30
100
AcDbLine
 10
28.7033835467
 20
244.6264721795
 30
0.0
 11
68.032072562
 21
244.6264721795
 31
0.0
  0
LINE
  5
AA
330
1F
100
AcDbEntity
  8
0
  6
Continuous
 62
     7
370
    30
100
AcDbLine
 10
50.232072562
 20
288.5264721795
 30
0.0
 11
28.8061626409
 21
288.5264721795
 31
0.0
  0
SPLINE
  5
AB
330
1F
100
AcDbEntity
  8
0
  6
Continuous
 62
     7
370
    30
100
AcDbSpline
210
0.0
220
0.0
230
1.0
 70
     8
 71
     3
 72
    39
 73
    35
 74
     0
 42
0.000000001
 43
0.00000001
 40
0.0
 40
0.0
 40
0.0
 40
0.0
 40
0.0423040255737556
 40
0.0826940418078518
 40
0.1211696623616436
 40
0.1577313725725711
 40
0.1923799150097249
 40
0.2251159729014527
 40
0.2559400387080166
 40
0.2848523889161599
 40
0.3118531125244922
 40
0.3369421603588513
 40
0.3601193963310051
 40
0.381384641172149
 40
0.4007377051236603
 40
0.4181784095160543
 40
0.4342947745786644
 40
0.4519736241266133
 40
0.474566009025056
 40
0.4997056464307148
 40
0.527392293807833
 40
0.5576255863288823
 40
0.5904050370446233
 40
0.6257300703588626
 40
0.6636001036748435
 40
0.6988250493898742
 40
0.7359982918343223
 40
0.7751200527136642
 40
0.8161909435570113
 40
0.8504539621771631
 40
0.8859659608256774
 40
0.9227275541754892
 40
0.9607390488368768
 40
1.0
 40
1.0
 40
1.0
 40
1.0
 10
28.80616424330623
 20
288.5264739335724
 30
0.0
 10
28.78434555206164
 20
288.5260629379611
 30
0.0
 10
28.74169533753707
 20
288.5252595418822
 30
0.0
 10
28.67946422950893
 20
288.5189897506997
 30
0.0
 10
28.6206481924072
 20
288.5096798144081
 30
0.0
 10
28.56537307294491
 20
288.4975307367289
 30
0.0
 10
28.51370758441468
 20
288.4831619399095
 30
0.0
 10
28.46567182733575
 20
288.4670533459441
 30
0.0
 10
28.42124519495951
 20
288.4496798399989
 30
0.0
 10
28.3803737984142
 20
288.4314754380377
 30
0.0
 10
28.34297733563424
 20
288.4128407980068
 30
0.0
 10
28.30895540057096
 20
288.3941410699384
 30
0.0
 10
28.27819322684388
 20
288.3757068964711
 30
0.0
 10
28.25056687503617
 20
288.3578352446129
 30
0.0
 10
28.22594787353567
 20
288.3407907096396
 30
0.0
 10
28.20396295330879
 20
288.3246273271039
 30
0.0
 10
28.18308652763832
 20
288.3084296783882
 30
0.0
 10
28.16058318334152
 20
288.2900100527914
 30
0.0
 10
28.13515296199643
 20
288.2678403899262
 30
0.0
 10
28.10679156839671
 20
288.2412155990515
 30
0.0
 10
28.07677556431465
 20
288.2106436240683
 30
0.0
 10
28.04552070665352
 20
288.1758269442033
 30
0.0
 10
28.01350625882722
 20
288.1364732270176
 30
0.0
 10
27.98127959283795
 20
288.0923062881293
 30
0.0
 10
27.95091225168939
 20
288.0453250601764
 30
0.0
 10
27.92277744996084
 20
287.9958803550872
 30
0.0
 10
27.89716458205889
 20
287.9443563999576
 30
0.0
 10
27.87345588418955
 20
287.8886323771778
 30
0.0
 10
27.8537503869933
 20
287.8329540149404
 30
0.0
 10
27.83785437094991
 20
287.7780235931286
 30
0.0
 10
27.82543631313528
 20
287.7244767463471
 30
0.0
 10
27.8157702059787
 20
287.6684104732968
 30
0.0
 10
27.80889777215694
 20
287.6099573426345
 30
0.0
 10
27.80726711924461
 20
287.5701316773799
 30
0.0
 10
27.80643860937061
 20
287.5498968642855
 30
0.0
  0
SPLINE
  5
AC
330
1F
100
AcDbEntity
  8
0
  6
Continuous
 62
     7
370
    30
100
AcDbSpline
210
0.0
220
0.0
230
1.0
 70
     8
 71
     3
 72
    44
 73
    40
 74
     0
 42
0.000000001
 43
0.00000001
 40
0.0
 40
0.0
 40
0.0
 40
0.0
 40
0.0125135045143303
 40
0.0379274684280718
 40
0.0633418791410389
 40
0.0887561777927566
 40
0.1141700179263859
 40
0.1395832201263776
 40
0.1649957314764293
 40
0.1929483623607791
 40
0.220900337052845
 40
0.2488518348116233
 40
0.276803048280118
 40
0.3047541580852985
 40
0.3327053147990796
 40
0.3606566276650386
 40
0.3886081594056897
 40
0.4165599263470123
 40
0.4445119030306481
 40
0.4719649603372701
 40
0.4994180857659095
 40
0.5268711924296552
 40
0.5543241960638587
 40
0.5822760901831088
 40
0.6102277592408952
 40
0.6381791945046733
 40
0.6661304314531599
 40
0.6940815526095685
 40
0.7215336333179169
 40
0.7489858813610872
 40
0.7764384748266719
 40
0.803891594781189
 40
0.8319056016512273
 40
0.8599204288791172
 40
0.8879360785162942
 40
0.9159523934144713
 40
0.9439689948698066
 40
0.9719852115640129
 40
0.9999999999999999
 40
0.9999999999999999
 40
0.9999999999999999
 40
0.9999999999999999
 10
53.23089315819131
 20
285.5864684009616
 30
0.0
 10
53.23062082172078
 20
285.6058725594406
 30
0.0
 10
53.22979539085318
 20
285.6646850693367
 30
0.0
 10
53.22339796812767
 20
285.7627509710715
 30
0.0
 10
53.21197921683258
 20
285.8804422450243
 30
0.0
 10
53.19568538457485
 20
285.9975795466168
 30
0.0
 10
53.17485319267438
 20
286.1139849995262
 30
0.0
 10
53.14942937611818
 20
286.2294749390721
 30
0.0
 10
53.11847718189694
 20
286.3476811312591
 30
0.0
 10
53.08149706695413
 20
286.4682762989349
 30
0.0
 10
53.03800256611619
 20
286.590864138287
 30
0.0
 10
52.98923107951555
 20
286.7114476549734
 30
0.0
 10
52.93527568372009
 20
286.8298008736227
 30
0.0
 10
52.8762391279344
 20
286.9457026195848
 30
0.0
 10
52.81223383720065
 20
287.0589363781629
 30
0.0
 10
52.74338151404314
 20
287.1692907232801
 30
0.0
 10
52.66981282868645
 20
287.276559614124
 30
0.0
 10
52.59166716034731
 20
287.3805426485293
 30
0.0
 10
52.50958349726783
 20
287.4804474745899
 30
0.0
 10
52.42380665180617
 20
287.5761615059724
 30
0.0
 10
52.33457881111026
 20
287.6675888495647
 30
0.0
 10
52.24154508221435
 20
287.7551403834265
 30
0.0
 10
52.14428808672447
 20
287.839163350522
 30
0.0
 10
52.04290798229213
 20
287.9194172252262
 30
0.0
 10
51.93752167485988
 20
287.995659162601
 30
0.0
 10
51.828932889899
 20
288.0672645976329
 30
0.0
 10
51.71734450874704
 20
288.1340977247658
 30
0.0
 10
51.60364540083923
 20
288.1956630944021
 30
0.0
 10
51.48810330666906
 20
288.2519465032162
 30
0.0
 10
51.37097755001351
 20
288.3029487402135
 30
0.0
 10
51.25178361608902
 20
288.348914939517
 30
0.0
 10
51.12991365025717
 20
288.3900387029298
 30
0.0
 10
51.00554676045015
 20
288.4261203916229
 30
0.0
 10
50.87888080344949
 20
288.4569681014738
 30
0.0
 10
50.75098993635864
 20
288.4822722458643
 30
0.0
 10
50.62211718795352
 20
288.5020234612311
 30
0.0
 10
50.49250829695853
 20
288.5160494694144
 30
0.0
 10
50.3624114733139
 20
288.5248419332596
 30
0.0
 10
50.27551812747195
 20
288.5259287732989
 30
0.0
 10
50.23207256202829
 20
288.5264721794664
 30
0.0
  0
SPLINE
  5
AD
330
1F
100
AcDbEntity
  8
0
  6
Continuous
 62
     7
370
    30
100
AcDbSpline
210
0.0
220
0.0
230
1.0
 70
     8
 71
     3
 72
    23
 73
    19
 74
     0
 42
0.000000001
 43
0.00000001
 40
0.0
 40
0.0
 40
0.0
 40
0.0
 40
0.0164531096066984
 40
0.083250214730702
 40
0.1500473352131096
 40
0.216844471033984
 40
0.2836416221937564
 40
0.3504387886931649
 40
0.417235970538635
 40
0.4840331677421514
 40
0.550830380291308
 40
0.6176276081868992
 40
0.6844248514483314
 40
0.7512221100581187
 40
0.818019384036595
 40
0.8848166733720608
 40
0.9516139780617272
 40
0.9999999999999999
 40
0.9999999999999999
 40
0.9999999999999999
 40
0.9999999999999999
 10
81.53218673488894
 20
247.5271370880511
 30
0.0
 10
81.53351187584919
 20
247.4191986136478
 30
0.0
 10
81.54021688615579
 20
246.873046464505
 30
0.0
 10
81.55360561396078
 20
245.8886970369278
 30
0.0
 10
81.57240348827611
 20
244.5740910093183
 30
0.0
 10
81.59262133815906
 20
243.2595055295602
 30
0.0
 10
81.61412435429149
 20
241.944940230325
 30
0.0
 10
81.63694863443487
 20
240.6303968745311
 30
0.0
 10
81.66108447345935
 20
239.3158766539638
 30
0.0
 10
81.68653446281796
 20
238.0013809141807
 30
0.0
 10
81.71329780265418
 20
236.6869109569604
 30
0.0
 10
81.74137495388779
 20
235.3724681054724
 30
0.0
 10
81.77076471778564
 20
234.0580536408324
 30
0.0
 10
81.80147126557999
 20
232.7436689907832
 30
0.0
 10
81.83347894041937
 20
231.4293150381762
 30
0.0
 10
81.8668460199658
 20
230.1149946992245
 30
0.0
 10
81.89818431380804
 20
228.9214557320949
 30
0.0
 10
81.91898794072135
 20
228.1660400091575
 30
0.0
 10
81.92772709401456
 20
227.8487062177779
 30
0.0
  0
SPLINE
  5
AE
330
1F
100
AcDbEntity
  8
0
  6
Continuous
 62
     7
370
    30
100
AcDbSpline
210
0.0
220
0.0
230
1.0
 70
     8
 71
     3
 72
    23
 73
    19
 74
     0
 42
0.000000001
 43
0.00000001
 40
0.0
 40
0.0
 40
0.0
 40
0.0
 40
0.0312707993340151
 40
0.0980712770319486
 40
0.1648717701082756
 40
0.2316722785496848
 40
0.298472802353855
 40
0.3652733415167435
 40
0.4320738960455802
 40
0.4988744659458971
 40
0.5656750511819157
 40
0.6324756517675936
 40
0.6992762677084002
 40
0.7660768990059951
 40
0.832877545650886
 40
0.8996782076397155
 40
0.9664788849596987
 40
1.0
 40
1.0
 40
1.0
 40
1.0
 10
81.92772709401456
 20
300.4030631356085
 30
0.0
 10
81.92203563548239
 20
300.1979908878557
 30
0.0
 10
81.90418612033373
 20
299.5548446412215
 30
0.0
 10
81.87558509708131
 20
298.4735858589073
 30
0.0
 10
81.84186175185286
 20
297.1592900547457
 30
0.0
 10
81.80952469871609
 20
295.8449589499402
 30
0.0
 10
81.7784815025357
 20
294.5305964091276
 30
0.0
 10
81.74875697418979
 20
293.216203060906
 30
0.0
 10
81.72034449672577
 20
291.9017804010498
 30
0.0
 10
81.6932459106095
 20
290.5873296927282
 30
0.0
 10
81.66746064661216
 20
289.2728522632768
 30
0.0
 10
81.642989308984
 20
287.9583494161809
 30
0.0
 10
81.61983020989238
 20
286.6438224860397
 30
0.0
 10
81.59798964845771
 20
285.3292727061816
 30
0.0
 10
81.57744426021048
 20
284.0147016844857
 30
0.0
 10
81.55828134025845
 20
282.7001096325238
 30
0.0
 10
81.54318198021467
 20
281.6038110750346
 30
0.0
 10
81.53497218915176
 20
280.9457039442724
 30
0.0
 10
81.53222900300845
 20
280.7258067083867
 30
0.0
  0
LINE
  5
AF
330
1F
100
AcDbEntity
  8
0
  6
Continuous
 62
     7
370
    30
100
AcDbLine
 10
89.9273467707
 20
301.6264721792
 30
0.0
 11
82.892447274
 21
301.3808080758
 31
0.0
  0
LINE
  5
B0
330
1F
100
AcDbEntity
  8
0
  6
Continuous
 62
     7
370
    30
100
AcDbLine
 10
82.892447274
 20
226.8721362832
 30
0.0
 11
89.9273467707
 21
226.6264721797
 31
0.0
  0
ARC
  5
B1
330
1F
100
AcDbEntity
  8
0
  6
Continuous
 62
     7
370
    30
100
AcDbCircle
 10
82.9273467707
 20
227.8715271102
 30
0.0
 40
1.0
100
AcDbArc
 50
181.5802574569
 51
268.0000000001
  0
ARC
  5
B2
330
1F
100
AcDbEntity
  8
0
  6
Continuous
 62
     7
370
    30
100
AcDbCircle
 10
82.9273467707
 20
300.3814172488
 30
0.0
 40
1.0
100
AcDbArc
 50
91.9999999999
 51
178.4197425431
  0
LINE
  5
B3
330
1F
100
AcDbEntity
  8
0
  6
Continuous
 62
     7
370
    30
100
AcDbLine
 10
68.532072562
 20
247.1264721795
 30
0.0
 11
81.532072562
 21
247.1264721795
 31
0.0
  0
LINE
  5
B4
330
1F
100
AcDbEntity
  8
0
  6
Continuous
 62
     7
370
    30
100
AcDbLine
 10
81.532072562
 20
281.1264721795
 30
0.0
 11
68.532072562
 21
281.1264721795
 31
0.0
  0
SPLINE
  5
B5
330
1F
100
AcDbEntity
  8
0
  6
Continuous
 62
     7
370
    30
100
AcDbSpline
210
0.0
220
0.0
230
1.0
 70
     8
 71
     3
 72
    10
 73
     6
 74
     0
 42
0.000000001
 43
0.00000001
 40
0.0
 40
0.0
 40
0.0
 40
0.0
 40
0.2357598078988524
 40
0.616727301726907
 40
1.0
 40
1.0
 40
1.0
 40
1.0
 10
27.74492119256821
 20
284.5970134418122
 30
0.0
 10
27.74542958661073
 20
284.6221898245548
 30
0.0
 10
27.74675950153073
 20
284.6880490680556
 30
0.0
 10
27.74895596778652
 20
284.7953402249595
 30
0.0
 10
27.75065710970921
 20
284.8774166450455
 30
0.0
 10
27.75151024627751
 20
284.9185786400781
 30
0.0
  0
SPLINE
  5
B6
330
1F
100
AcDbEntity
  8
0
  6
Continuous
 62
     7
370
    30
100
AcDbSpline
210
0.0
220
0.0
230
1.0
 70
    24
 71
     3
 72
   214
 73
   210
 74
     0
 42
0.000000001
 43
0.00000001
 40
0.0
 40
0.0
 40
0.0
 40
0.0
 40
0.0018569915580194
 40
0.0074598808174582
 40
0.0130660307663358
 40
0.0186766754329004
 40
0.0242930458826645
 40
0.0299163694206531
 40
0.0340130463373531
 40
0.0381055336483757
 40
0.0421943032185514
 40
0.0462798282008721
 40
0.0503625828763817
 40
0.0544430424921214
 40
0.060851655721885
 40
0.0672576274805735
 40
0.0736628103320676
 40
0.0793825810474968
 40
0.0851045187872035
 40
0.0908299405858775
 40
0.0965601610758789
 40
0.1022964915903266
 40
0.1080402392774715
 40
0.114308891377173
 40
0.1205683145879961
 40
0.1268202046087566
 40
0.1330662632736725
 40
0.1393081971866399
 40
0.1455477163361036
 40
0.1517865326960865
 40
0.1575063034047422
 40
0.1632282411235713
 40
0.1689536628795475
 40
0.1746838832973447
 40
0.1804202137024344
 40
0.1861639612354704
 40
0.1901747123117202
 40
0.1941815259196187
 40
0.198184845123353
 40
0.2021851141482162
 40
0.2061827782363203
 40
0.2101782835006268
 40
0.2164536048194628
 40
0.2227264352882665
 40
0.2289985135998361
 40
0.234599378334766
 40
0.2402022675368079
 40
0.2458084173682041
 40
0.2514190618360081
 40
0.2570354319846421
 40
0.262658755098172
 40
0.2647286089844633
 40
0.2667974002663705
 40
0.2688651897567129
 40
0.2709320383567369
 40
0.2729980070508964
 40
0.2750631569015969
 40
0.2771275490439052
 40
0.2828011742746562
 40
0.2884708073898197
 40
0.2935306571768268
 40
0.2985892538576695
 40
0.3036475088691598
 40
0.3087063338327827
 40
0.3137666400619902
 40
0.3188293380703268
 40
0.3238953370817111
 40
0.328965544544188
 40
0.3312435870981117
 40
0.3335227422454933
 40
0.3358030916202126
 40
0.3379712407561636
 40
0.3401220864897648
 40
0.3422719075187899
 40
0.3444207723831113
 40
0.3501143608977109
 40
0.3558029918724826
 40
0.3614879508033073
 40
0.3671705256781041
 40
0.3728520061061849
 40
0.3785336824421035
 40
0.3838920358564279
 40
0.3892527910449767
 40
0.3946170271879845
 40
0.3999858213665687
 40
0.4053602479214394
 40
0.4115814815178248
 40
0.4177947258812642
 40
0.4240016439077919
 40
0.4302039035819318
 40
0.436403176648356
 40
0.4426011372684253
 40
0.448799460666972
 40
0.4551652042423261
 40
0.4615349063538392
 40
0.4679103743326585
 40
0.4700588517888064
 40
0.4722082561117417
 40
0.4743586558810895
 40
0.4766240031753154
 40
0.4789046327467643
 40
0.481184049731789
 40
0.4834623357350255
 40
0.4894983296851026
 40
0.4955284741579269
 40
0.5015543007494254
 40
0.5075773443495002
 40
0.5135991419761151
 40
0.5196212316012639
 40
0.5253008576067352
 40
0.5309833980191024
 40
0.5366701386519197
 40
0.5423623624723846
 40
0.5480613487445374
 40
0.550307887855221
 40
0.5525531311330713
 40
0.5547971562416877
 40
0.5570400409712127
 40
0.5592818632305014
 40
0.5615227010392271
 40
0.5668011948554836
 40
0.5720756782252935
 40
0.5783509995910838
 40
0.5846238300687785
 40
0.5908959083811406
 40
0.5964967731345915
 40
0.6020996623939199
 40
0.60770581234264
 40
0.6133164570089996
 40
0.6189328274585119
 40
0.6245561509962024
 40
0.6286528279129413
 40
0.6327453152239988
 40
0.6368340847942054
 40
0.640919609776553
 40
0.645002364452085
 40
0.6490828240678432
 40
0.6554914372976266
 40
0.661897409056324
 40
0.6683025919078154
 40
0.6740223626232321
 40
0.679744300362917
 40
0.6854697221615594
 40
0.6911999426515193
 40
0.6969362731659151
 40
0.7026800208529985
 40
0.7089486729524046
 40
0.7152080961629835
 40
0.7214599861835507
 40
0.7277060448483246
 40
0.7339479787612014
 40
0.7401874979106264
 40
0.7464263142706223
 40
0.7521460849793352
 40
0.7578680226982651
 40
0.7635934444543856
 40
0.7693236648723705
 40
0.7750599952776912
 40
0.7808037428110017
 40
0.7848144938871525
 40
0.788821307494963
 40
0.7928246266986199
 40
0.7968248957234166
 40
0.8008225598114651
 40
0.804818065075727
 40
0.8110933863945149
 40
0.8173662168632977
 40
0.8236382951748736
 40
0.8292391599098321
 40
0.8348420491119242
 40
0.8404481989433924
 40
0.84605884341129
 40
0.8516752135600393
 40
0.8572985366737065
 40
0.8593683905599726
 40
0.8614371818418564
 40
0.8635049713321765
 40
0.8655718199321799
 40
0.86763778862632
 40
0.8697029384770028
 40
0.8717673306192947
 40
0.8774409558500079
 40
0.8831105889651449
 40
0.8881704387521374
 40
0.8932290354329745
 40
0.8982872904444676
 40
0.9033461154081024
 40
0.9084064216373307
 40
0.9134691196456964
 40
0.9185351186571191
 40
0.923605326119643
 40
0.9258833686735906
 40
0.9281625238209977
 40
0.9304428731957446
 40
0.9326107417194497
 40
0.9347612855392486
 40
0.9369108251156505
 40
0.9390594289944288
 40
0.9447524246069453
 40
0.9504406066058002
 40
0.9561252603969843
 40
0.9618076737808126
 40
0.9674891360810797
 40
0.9731709372690451
 40
0.9785295389258193
 40
0.9838906685547059
 40
0.9892554047790563
 40
0.9946248240487143
 40
1.0
 40
1.0
 40
1.0
 40
1.0
 10
68.53207256202829
 20
245.1267040197608
 30
0.0
 10
68.53207256202829
 20
245.1265787963748
 30
0.0
 10
68.53207256202832
 20
245.1260757507196
 30
0.0
 10
68.53207256202829
 20
245.1294683428589
 30
0.0
 10
68.5320725620283
 20
245.1369193628309
 30
0.0
 10
68.53207256202829
 20
245.1488429823794
 30
0.0
 10
68.5320725620283
 20
245.1648669745865
 30
0.0
 10
68.53207256202829
 20
245.1832527043482
 30
0.0
 10
68.5320725620283
 20
245.2027341552497
 30
0.0
 10
68.53207256202829
 20
245.2222462302661
 30
0.0
 10
68.53207256202829
 20
245.2439352757902
 30
0.0
 10
68.5320725620283
 20
245.267801364497
 30
0.0
 10
68.53207256202829
 20
245.2938445103148
 30
0.0
 10
68.53207256202829
 20
245.3274356719002
 30
0.0
 10
68.53207256202829
 20
245.3702696031162
 30
0.0
 10
68.53207256202829
 20
245.4243941846136
 30
0.0
 10
68.5320725620283
 20
245.4817702707918
 30
0.0
 10
68.53207256202829
 20
245.5417444806808
 30
0.0
 10
68.53207256202829
 20
245.6036987044513
 30
0.0
 10
68.53207256202829
 20
245.6699390158029
 30
0.0
 10
68.53207256202829
 20
245.7404654927102
 30
0.0
 10
68.53207256202829
 20
245.8152778174148
 30
0.0
 10
68.53207256202829
 20
245.8967464155677
 30
0.0
 10
68.53207256202829
 20
245.9852210588356
 30
0.0
 10
68.5320725620283
 20
246.0810865793255
 30
0.0
 10
68.53207256202829
 20
246.1817498389198
 30
0.0
 10
68.5320725620283
 20
246.2872104547767
 30
0.0
 10
68.53207256202829
 20
246.3974685230421
 30
0.0
 10
68.5320725620283
 20
246.5125239580985
 30
0.0
 10
68.53207256202829
 20
246.629046965502
 30
0.0
 10
68.53207256202829
 20
246.7465797914834
 30
0.0
 10
68.53207256202829
 20
246.8646875763244
 30
0.0
 10
68.53207256202829
 20
246.9868262151475
 30
0.0
 10
68.53207256202829
 20
247.1129957896401
 30
0.0
 10
68.5320725620283
 20
247.2431959687652
 30
0.0
 10
68.53207256202829
 20
247.3638608446799
 30
0.0
 10
68.5320725620283
 20
247.4736407592007
 30
0.0
 10
68.53207256202829
 20
247.5713882898468
 30
0.0
 10
68.53207256202829
 20
247.6708935996708
 30
0.0
 10
68.5320725620283
 20
247.772156598039
 30
0.0
 10
68.53207256202829
 20
247.8751773961266
 30
0.0
 10
68.53207256202829
 20
247.9998984981724
 30
0.0
 10
68.53207256202829
 20
248.1477084212875
 30
0.0
 10
68.5320725620283
 20
248.320265758416
 30
0.0
 10
68.53207256202829
 20
248.4908456129303
 30
0.0
 10
68.53207256202829
 20
248.6589173457881
 30
0.0
 10
68.53207256202829
 20
248.8239868722069
 30
0.0
 10
68.5320725620283
 20
248.9925168156123
 30
0.0
 10
68.53207256202829
 20
249.1645073081242
 30
0.0
 10
68.53207256202829
 20
249.3399579091667
 30
0.0
 10
68.5320725620283
 20
249.4811002664605
 30
0.0
 10
68.53207256202829
 20
249.5858841874289
 30
0.0
 10
68.5320725620283
 20
249.6529340728266
 30
0.0
 10
68.53207256202829
 20
249.7203803552394
 30
0.0
 10
68.5320725620283
 20
249.7882230558565
 30
0.0
 10
68.53207256202829
 20
249.8564621566738
 30
0.0
 10
68.5320725620283
 20
249.9250977077586
 30
0.0
 10
68.53207256202829
 20
250.0343669623991
 30
0.0
 10
68.53207256202829
 20
250.1855188611042
 30
0.0
 10
68.53207256202829
 20
250.3734610884779
 30
0.0
 10
68.53207256202829
 20
250.5570733940179
 30
0.0
 10
68.53207256202829
 20
250.7360095266174
 30
0.0
 10
68.53207256202829
 20
250.917335866696
 30
0.0
 10
68.53207256202829
 20
251.1010524276089
 30
0.0
 10
68.53207256202829
 20
251.2871591655967
 30
0.0
 10
68.53207256202829
 20
251.475656130583
 30
0.0
 10
68.53207256202829
 20
251.6665430496947
 30
0.0
 10
68.5320725620283
 20
251.8242786000289
 30
0.0
 10
68.53207256202829
 20
251.9476084964681
 30
0.0
 10
68.53207256202829
 20
252.0356386185371
 30
0.0
 10
68.5320725620283
 20
252.1226823269516
 30
0.0
 10
68.53207256202829
 20
252.2084721492483
 30
0.0
 10
68.53207256202829
 20
252.2929492416763
 30
0.0
 10
68.53207256202829
 20
252.377553873835
 30
0.0
 10
68.53207256202829
 20
252.5092157610832
 30
0.0
 10
68.53207256202829
 20
252.688943183319
 30
0.0
 10
68.53207256202829
 20
252.9182203447443
 30
0.0
 10
68.53207256202829
 20
253.1498828580378
 30
0.0
 10
68.53207256202829
 20
253.3839302933235
 30
0.0
 10
68.53207256202829
 20
253.6203626835346
 30
0.0
 10
68.53207256202829
 20
253.8546295728865
 30
0.0
 10
68.5320725620283
 20
254.0865727665394
 30
0.0
 10
68.53207256202829
 20
254.3160449204362
 30
0.0
 10
68.5320725620283
 20
254.5476370700438
 30
0.0
 10
68.5320725620283
 20
254.7813491631044
 30
0.0
 10
68.53207256202829
 20
255.029468597012
 30
0.0
 10
68.53207256202829
 20
255.2921094870331
 30
0.0
 10
68.53207256202829
 20
255.5693970129377
 30
0.0
 10
68.5320725620283
 20
255.8487015317906
 30
0.0
 10
68.53207256202829
 20
256.1300226856873
 30
0.0
 10
68.53207256202829
 20
256.4133604875535
 30
0.0
 10
68.53207256202829
 20
256.6987148968249
 30
0.0
 10
68.5320725620283
 20
256.9886413297656
 30
0.0
 10
68.5320725620283
 20
257.2832044312595
 30
0.0
 10
68.53207256202829
 20
257.5824634802282
 30
0.0
 10
68.5320725620283
 20
257.8171297756279
 30
0.0
 10
68.53207256202829
 20
257.9859556115779
 30
0.0
 10
68.53207256202829
 20
258.0881485855348
 30
0.0
 10
68.5320725620283
 20
258.1923907454595
 30
0.0
 10
68.53207256202829
 20
258.2989189787845
 30
0.0
 10
68.5320725620283
 20
258.4077080069174
 30
0.0
 10
68.53207256202829
 20
258.5169093427493
 30
0.0
 10
68.5320725620283
 20
258.6863930448916
 30
0.0
 10
68.53207256202829
 20
258.916646700098
 30
0.0
 10
68.53207256202829
 20
259.2083758449134
 30
0.0
 10
68.53207256202829
 20
259.5011463021792
 30
0.0
 10
68.53207256202829
 20
259.7949574382253
 30
0.0
 10
68.5320725620283
 20
260.0898092992034
 30
0.0
 10
68.5320725620283
 20
260.3800635746995
 30
0.0
 10
68.53207256202829
 20
260.6656496916532
 30
0.0
 10
68.53207256202829
 20
260.9465082861605
 30
0.0
 10
68.5320725620283
 20
261.2282919371301
 30
0.0
 10
68.53207256202829
 20
261.5110001159223
 30
0.0
 10
68.53207256202829
 20
261.7372303988105
 30
0.0
 10
68.53207256202829
 20
261.9064955311923
 30
0.0
 10
68.53207256202829
 20
262.0184525687361
 30
0.0
 10
68.5320725620283
 20
262.1304224091735
 30
0.0
 10
68.53207256202829
 20
262.2424050984015
 30
0.0
 10
68.5320725620283
 20
262.3544006912291
 30
0.0
 10
68.5320725620283
 20
262.5170358228656
 30
0.0
 10
68.53207256202829
 20
262.7303878712409
 30
0.0
 10
68.5320725620283
 20
263.0113074500862
 30
0.0
 10
68.53207256202829
 20
263.3091004357127
 30
0.0
 10
68.53207256202829
 20
263.623787286686
 30
0.0
 10
68.53207256202829
 20
263.9273312403162
 30
0.0
 10
68.53207256202829
 20
264.2197124773472
 30
0.0
 10
68.5320725620283
 20
264.5009316172549
 30
0.0
 10
68.53207256202829
 20
264.7822312021724
 30
0.0
 10
68.53207256202829
 20
265.0636113431309
 30
0.0
 10
68.53207256202829
 20
265.3450717864419
 30
0.0
 10
68.53207256202829
 20
265.6010005412021
 30
0.0
 10
68.53207256202829
 20
265.8312655660965
 30
0.0
 10
68.53207256202829
 20
266.0357512427134
 30
0.0
 10
68.5320725620283
 20
266.2398297696204
 30
0.0
 10
68.53207256202829
 20
266.4435012294155
 30
0.0
 10
68.5320725620283
 20
266.6467657553005
 30
0.0
 10
68.53207256202829
 20
266.8882321166213
 30
0.0
 10
68.5320725620283
 20
267.1676373567085
 30
0.0
 10
68.53207256202829
 20
267.4846124150648
 30
0.0
 10
68.5320725620283
 20
267.7892957622632
 30
0.0
 10
68.53207256202829
 20
268.0818012172894
 30
0.0
 10
68.5320725620283
 20
268.3622577752604
 30
0.0
 10
68.53207256202829
 20
268.6419126084197
 30
0.0
 10
68.5320725620283
 20
268.9207657378792
 30
0.0
 10
68.53207256202829
 20
269.1988172689277
 30
0.0
 10
68.5320725620283
 20
269.4843712588388
 30
0.0
 10
68.53207256202829
 20
269.7769908380441
 30
0.0
 10
68.5320725620283
 20
270.0762129896684
 30
0.0
 10
68.53207256202829
 20
270.3734564786274
 30
0.0
 10
68.5320725620283
 20
270.6687212540549
 30
0.0
 10
68.53207256202829
 20
270.9620072630227
 30
0.0
 10
68.53207256202829
 20
271.2533143541638
 30
0.0
 10
68.53207256202829
 20
271.5346042305734
 30
0.0
 10
68.5320725620283
 20
271.8060595042004
 30
0.0
 10
68.53207256202829
 20
272.0678700234705
 30
0.0
 10
68.5320725620283
 20
272.3280175784726
 30
0.0
 10
68.5320725620283
 20
272.5865022398277
 30
0.0
 10
68.53207256202829
 20
272.8433238228566
 30
0.0
 10
68.53207256202829
 20
273.0726935312749
 30
0.0
 10
68.53207256202829
 20
273.2750665484234
 30
0.0
 10
68.53207256202829
 20
273.4508282419635
 30
0.0
 10
68.53207256202829
 20
273.6253988795453
 30
0.0
 10
68.53207256202829
 20
273.7987785967592
 30
0.0
 10
68.53207256202829
 20
273.9709674788687
 30
0.0
 10
68.5320725620283
 20
274.1745116721124
 30
0.0
 10
68.5320725620283
 20
274.4085305818729
 30
0.0
 10
68.53207256202829
 20
274.6719160029401
 30
0.0
 10
68.5320725620283
 20
274.9230571652071
 30
0.0
 10
68.53207256202829
 20
275.1623042540981
 30
0.0
 10
68.5320725620283
 20
275.3900069702714
 30
0.0
 10
68.53207256202829
 20
275.615364727444
 30
0.0
 10
68.53207256202829
 20
275.8383776734044
 30
0.0
 10
68.5320725620283
 20
276.0590454291231
 30
0.0
 10
68.53207256202829
 20
276.2312792894849
 30
0.0
 10
68.53207256202829
 20
276.3565523910261
 30
0.0
 10
68.53207256202829
 20
276.4358361854721
 30
0.0
 10
68.53207256202829
 20
276.5147168294252
 30
0.0
 10
68.5320725620283
 20
276.5931944020038
 30
0.0
 10
68.53207256202829
 20
276.6712688692586
 30
0.0
 10
68.5320725620283
 20
276.7489402864273
 30
0.0
 10
68.53207256202829
 20
276.871246731354
 30
0.0
 10
68.53207256202829
 20
277.0369952349896
 30
0.0
 10
68.53207256202829
 20
277.2369759839297
 30
0.0
 10
68.53207256202829
 20
277.4268658247732
 30
0.0
 10
68.5320725620283
 20
277.60701715741
 30
0.0
 10
68.53207256202829
 20
277.7847379445654
 30
0.0
 10
68.53207256202829
 20
277.9600282028983
 30
0.0
 10
68.53207256202829
 20
278.1328878932883
 30
0.0
 10
68.5320725620283
 20
278.3033170582
 30
0.0
 10
68.53207256202829
 20
278.4713154755726
 30
0.0
 10
68.5320725620283
 20
278.6064371938656
 30
0.0
 10
68.53207256202829
 20
278.7100352047256
 30
0.0
 10
68.5320725620283
 20
278.7830866168009
 30
0.0
 10
68.53207256202829
 20
278.8544414959396
 30
0.0
 10
68.53207256202829
 20
278.92393372945
 30
0.0
 10
68.5320725620283
 20
278.9915714260845
 30
0.0
 10
68.53207256202829
 20
279.0585312628892
 30
0.0
 10
68.5320725620283
 20
279.1615317906762
 30
0.0
 10
68.5320725620283
 20
279.2991708028411
 30
0.0
 10
68.53207256202829
 20
279.4693565268738
 30
0.0
 10
68.5320725620283
 20
279.6359708677583
 30
0.0
 10
68.53207256202829
 20
279.7990135977218
 30
0.0
 10
68.53207256202829
 20
279.9584842971688
 30
0.0
 10
68.5320725620283
 20
280.1114139954813
 30
0.0
 10
68.53207256202829
 20
280.2580300583302
 30
0.0
 10
68.5320725620283
 20
280.3985860861438
 30
0.0
 10
68.53207256202829
 20
280.5359030092508
 30
0.0
 10
68.5320725620283
 20
280.6702838140996
 30
0.0
 10
68.53207256202829
 20
280.7571063358492
 30
0.0
 10
68.53207256202829
 20
280.8005408553766
 30
0.0
  0
SPLINE
  5
B7
330
1F
100
AcDbEntity
  8
0
  6
Continuous
 62
     7
370
    30
100
AcDbSpline
210
0.0
220
0.0
230
1.0
 70
    24
 71
     3
 72
    49
 73
    45
 74
     0
 42
0.000000001
 43
0.00000001
 40
0.0
 40
0.0
 40
0.0
 40
0.0
 40
0.0036404010694518
 40
0.0359177017394478
 40
0.0681943001310565
 40
0.1013397698849826
 40
0.1345026313512616
 40
0.1676920520007847
 40
0.1788757764436771
 40
0.1900638980691532
 40
0.2012567649641254
 40
0.2124547247729882
 40
0.2236581246660332
 40
0.2348673113080811
 40
0.2460826308273502
 40
0.2809157502257844
 40
0.3157024604421681
 40
0.3504532375398463
 40
0.385178590103459
 40
0.4198890498094711
 40
0.4545951618922007
 40
0.489307475548251
 40
0.5160469552024051
 40
0.542801170879528
 40
0.5695749223301093
 40
0.5963729988075993
 40
0.6084140406958858
 40
0.6204613802954405
 40
0.6325154482290688
 40
0.6439666518303993
 40
0.655325246248873
 40
0.6666787443482738
 40
0.678027508770485
 40
0.7080984980314798
 40
0.7381455426762454
 40
0.7681754410850224
 40
0.7981950032871221
 40
0.82821104634708
 40
0.8582303897269076
 40
0.8865435197400025
 40
0.9148713526016715
 40
0.9432195879691794
 40
0.9715939132048098
 40
1.0
 40
1.0
 40
1.0
 40
1.0
 10
68.53207256202829
 20
283.1264546319853
 30
0.0
 10
68.53207256202829
 20
283.1265366009009
 30
0.0
 10
68.53207256202832
 20
283.1273453401051
 30
0.0
 10
68.53207256202829
 20
283.1241719839215
 30
0.0
 10
68.53207256202829
 20
283.1165102543989
 30
0.0
 10
68.5320725620283
 20
283.1031359227438
 30
0.0
 10
68.53207256202829
 20
283.0845434062605
 30
0.0
 10
68.53207256202829
 20
283.0659532787585
 30
0.0
 10
68.53207256202829
 20
283.0506949607587
 30
0.0
 10
68.53207256202829
 20
283.0408861719194
 30
0.0
 10
68.53207256202829
 20
283.0304831630682
 30
0.0
 10
68.5320725620283
 20
283.0194857658498
 30
0.0
 10
68.5320725620283
 20
283.0078940541604
 30
0.0
 10
68.53207256202829
 20
282.9957079014344
 30
0.0
 10
68.53207256202829
 20
282.9739592529926
 30
0.0
 10
68.53207256202829
 20
282.9403562137956
 30
0.0
 10
68.5320725620283
 20
282.8912957654954
 30
0.0
 10
68.53207256202829
 20
282.8366202132958
 30
0.0
 10
68.53207256202829
 20
282.7763293502732
 30
0.0
 10
68.53207256202829
 20
282.710423218587
 30
0.0
 10
68.5320725620283
 20
282.6389019019832
 30
0.0
 10
68.5320725620283
 20
282.5676825857892
 30
0.0
 10
68.53207256202829
 20
282.4981748961707
 30
0.0
 10
68.53207256202829
 20
282.431628779537
 30
0.0
 10
68.53207256202829
 20
282.3617539390921
 30
0.0
 10
68.5320725620283
 20
282.3020128674981
 30
0.0
 10
68.5320725620283
 20
282.2541929362863
 30
0.0
 10
68.53207256202829
 20
282.2195752449533
 30
0.0
 10
68.5320725620283
 20
282.184881994537
 30
0.0
 10
68.5320725620283
 20
282.1502500854049
 30
0.0
 10
68.53207256202829
 20
282.1157324267962
 30
0.0
 10
68.5320725620283
 20
282.0807413801201
 30
0.0
 10
68.53207256202829
 20
282.0256340948964
 30
0.0
 10
68.53207256202829
 20
281.9488008393006
 30
0.0
 10
68.53207256202829
 20
281.847858659497
 30
0.0
 10
68.53207256202829
 20
281.7429680329159
 30
0.0
 10
68.53207256202829
 20
281.6341292529904
 30
0.0
 10
68.53207256202829
 20
281.5213418571972
 30
0.0
 10
68.53207256202829
 20
281.4068320536413
 30
0.0
 10
68.5320725620283
 20
281.2908535098328
 30
0.0
 10
68.53207256202829
 20
281.1736776913697
 30
0.0
 10
68.5320725620283
 20
281.0529281716833
 30
0.0
 10
68.53207256202829
 20
280.9289078786069
 30
0.0
 10
68.5320725620283
 20
280.8433458168877
 30
0.0
 10
68.53207256202829
 20
280.8005408553766
 30
0.0
  0
SPLINE
  5
B8
330
1F
100
AcDbEntity
  8
0
  6
Continuous
 62
     7
370
    30
100
AcDbSpline
210
0.0
220
0.0
230
1.0
 70
     8
 71
     3
 72
    39
 73
    35
 74
     0
 42
0.000000001
 43
0.00000001
 40
0.0
 40
0.0
 40
0.0
 40
0.0
 40
0.0312500380164547
 40
0.0625000986388378
 40
0.0937501503461929
 40
0.1250001948153179
 40
0.156250243089865
 40
0.187500301680163
 40
0.2187503668316118
 40
0.2500004250639722
 40
0.281250457981791
 40
0.3125004492875316
 40
0.3437503918935738
 40
0.3750002930272785
 40
0.4062501752544843
 40
0.4375000714115304
 40
0.4687500115339198
 40
0.5000000000014517
 40
0.5312499884688939
 40
0.5624999285910186
 40
0.5937498247476953
 40
0.6249997069745941
 40
0.6562496081082321
 40
0.6874995507146221
 40
0.7187495420212381
 40
0.7499995749404913
 40
0.7812496331747713
 40
0.8124996983284258
 40
0.8437497569208777
 40
0.8749998051970552
 40
0.9062498496666866
 40
0.9374999013727007
 40
0.9687499619910835
 40
1.0
 40
1.0
 40
1.0
 40
1.0
 10
55.23107246202829
 20
283.6264721794766
 30
0.0
 10
55.19876419433553
 20
283.6269241652622
 30
0.0
 10
55.13414763557857
 20
283.62782813716
 30
0.0
 10
55.03745034675976
 20
283.6351352734787
 30
0.0
 10
54.94120772292608
 20
283.6467816298685
 30
0.0
 10
54.84564582725827
 20
283.6631673653499
 30
0.0
 10
54.75098904987318
 20
283.6841393312583
 30
0.0
 10
54.6574596130128
 20
283.7096787386656
 30
0.0
 10
54.56527708032738
 20
283.7397171602086
 30
0.0
 10
54.47465786547092
 20
283.774186092781
 30
0.0
 10
54.38581474101426
 20
283.8130039365329
 30
0.0
 10
54.29895634713858
 20
283.8560797418921
 30
0.0
 10
54.21428669997159
 20
283.9033124624546
 30
0.0
 10
54.13200469942346
 20
283.9545914109848
 30
0.0
 10
54.05230363609581
 20
284.0097963923008
 30
0.0
 10
53.97537069809839
 20
284.0687979214994
 30
0.0
 10
53.90138647400669
 20
284.1314574209104
 30
0.0
 10
53.8305244601007
 20
284.1976274199844
 30
0.0
 10
53.76295045606523
 20
284.2671518600816
 30
0.0
 10
53.69882380532022
 20
284.3398680958545
 30
0.0
 10
53.63829541884439
 20
284.4156056151375
 30
0.0
 10
53.58150745836155
 20
284.4941866370303
 30
0.0
 10
53.52859312663764
 20
284.5754266005628
 30
0.0
 10
53.47967646062467
 20
284.6591346576992
 30
0.0
 10
53.43487210341628
 20
284.7451141620575
 30
0.0
 10
53.39428516152699
 20
284.8331631592447
 30
0.0
 10
53.35801073914001
 20
284.9230748698029
 30
0.0
 10
53.32613467523426
 20
285.0146381957157
 30
0.0
 10
53.29872978748634
 20
285.1076381366773
 30
0.0
 10
53.27586888084472
 20
285.2018565415001
 30
0.0
 10
53.25757518492406
 20
285.2970716081682
 30
0.0
 10
53.24400630555825
 20
285.3930620544185
 30
0.0
 10
53.23476668503033
 20
285.4895938591048
 30
0.0
 10
53.23257056276415
 20
285.5541794138073
 30
0.0
 10
53.23147250202829
 20
285.5864721794766
 30
0.0
  0
LINE
  5
B9
330
1F
100
AcDbEntity
  8
0
  6
Continuous
 62
     7
370
    30
100
AcDbLine
 10
89.9273467707
 20
264.1264721795
 30
0.0
 11
89.9273467707
 21
301.6264721792
 31
0.0
  0
LINE
  5
BA
330
1F
100
AcDbEntity
  8
0
  6
Continuous
 62
     7
370
    30
100
AcDbLine
 10
89.9273467707
 20
226.6264721797
 30
0.0
 11
89.9273467707
 21
264.1264721795
 31
0.0
  0
LINE
  5
BB
330
1F
100
AcDbEntity
  8
0
  6
Continuous
 62
     7
370
    30
100
AcDbLine
 10
81.532072562
 20
247.9524161182
 30
0.0
 11
81.532072562
 21
281.1264721795
 31
0.0
  0
LINE
  5
BC
330
1F
100
AcDbEntity
  8
0
  6
Continuous
 62
     7
370
    30
100
AcDbLine
 10
81.532072562
 20
247.1264721795
 30
0.0
 11
81.532072562
 21
247.9524161182
 31
0.0
  0
SPLINE
  5
BD
330
1F
100
AcDbEntity
  8
0
  6
Continuous
 62
     7
370
    30
100
AcDbSpline
210
0.0
220
0.0
230
1.0
 70
     8
 71
     3
 72
    40
 73
    36
 74
     0
 42
0.000000001
 43
0.00000001
 40
0.0
 40
0.0
 40
0.0
 40
0.0
 40
0.0302526478352462
 40
0.0612052810737587
 40
0.0921579456554376
 40
0.1231106415680763
 40
0.1540633688044615
 40
0.1850161273554741
 40
0.2159689172489379
 40
0.2469217384650469
 40
0.2778745910100984
 40
0.3088274748705109
 40
0.3397803900559338
 40
0.3707333365549225
 40
0.4016863143745221
 40
0.4326393235248008
 40
0.4635923639890163
 40
0.4945454357669566
 40
0.5254985388737289
 40
0.5564516733010031
 40
0.5874048390372347
 40
0.6183580360995593
 40
0.6493112644835487
 40
0.6802645241903349
 40
0.711217815208177
 40
0.7421711375489228
 40
0.7731244912163984
 40
0.8040778762162154
 40
0.8350312925439308
 40
0.865984740194039
 40
0.8969382191750931
 40
0.9278917294906934
 40
0.9588452711379223
 40
0.9897988441079095
 40
1.0
 40
1.0
 40
1.0
 40
1.0
 10
205.4856810616338
 20
97.70355621499982
 30
0.0
 10
205.8590436875365
 20
97.69675603467017
 30
0.0
 10
206.6144077993081
 20
97.68299833151988
 30
0.0
 10
207.7518029704489
 20
97.66393742521343
 30
0.0
 10
208.8978575019149
 20
97.645945536958
 30
0.0
 10
210.043933533316
 20
97.62929398376392
 30
0.0
 10
211.1900289316107
 20
97.61394889083388
 30
0.0
 10
212.3361423593125
 20
97.59991936598858
 30
0.0
 10
213.4822722657026
 20
97.58720299768002
 30
0.0
 10
214.6284171573089
 20
97.57580045878188
 30
0.0
 10
215.774575524825
 20
97.56571159351645
 30
0.0
 10
216.9207458633809
 20
97.5569364659492
 30
0.0
 10
218.0669266667664
 20
97.54947507905169
 30
0.0
 10
219.2131164292987
 20
97.54332744997868
 30
0.0
 10
220.359313645202
 20
97.53849358989048
 30
0.0
 10
221.5055168086386
 20
97.53497350936836
 30
0.0
 10
222.6517244136603
 20
97.53276721696271
 30
0.0
 10
223.7979349543693
 20
97.5318747195744
 30
0.0
 10
224.9441469249594
 20
97.53229602236223
 30
0.0
 10
226.0903588194755
 20
97.53403112875633
 30
0.0
 10
227.2365691319795
 20
97.53708004048309
 30
0.0
 10
228.3827763565773
 20
97.54144275746307
 30
0.0
 10
229.5289789875225
 20
97.54711927817786
 30
0.0
 10
230.6751755187305
 20
97.55410959832139
 30
0.0
 10
231.8213644442443
 20
97.56241371581234
 30
0.0
 10
232.9675442584167
 20
97.57203161211488
 30
0.0
 10
234.1137134547959
 20
97.58296332191318
 30
0.0
 10
235.2598705305543
 20
97.59520867313739
 30
0.0
 10
236.4060139685052
 20
97.60876825714593
 30
0.0
 10
237.552142304697
 20
97.62363980797222
 30
0.0
 10
238.6982538767892
 20
97.639831715185
 30
0.0
 10
239.8443477633008
 20
97.65731259312408
 30
0.0
 10
240.9904202777953
 20
97.6761994913683
 30
0.0
 10
241.8803578636169
 20
97.69161807960961
 30
0.0
 10
242.3882625019374
 20
97.70118391468382
 30
0.0
 10
242.5141584691102
 20
97.70355502919553
 30
0.0
  0
SPLINE
  5
BE
330
1F
100
AcDbEntity
  8
0
  6
Continuous
 62
     7
370
    30
100
AcDbSpline
210
0.0
220
0.0
230
1.0
 70
     8
 71
     3
 72
     9
 73
     5
 74
     0
 42
0.000000001
 43
0.00000001
 40
0.0
 40
0.0
 40
0.0
 40
0.0
 40
0.5536402730552213
 40
0.9999999999999999
 40
0.9999999999999999
 40
0.9999999999999999
 40
0.9999999999999999
 10
227.5534566023891
 20
98.7462357267314
 30
0.0
 10
227.5532418764323
 20
98.74779756682173
 30
0.0
 10
227.5528540326153
 20
98.75061860453582
 30
0.0
 10
227.5500558418669
 20
98.75397985132771
 30
0.0
 10
227.5488068422086
 20
98.75548017652794
 30
0.0
  0
LINE
  5
BF
330
1F
100
AcDbEntity
  8
0
  6
Continuous
 62
     7
370
    30
100
AcDbLine
 10
204.5034795848
 20
138.032072562
 30
0.0
 11
204.5034795848
 21
98.7033835467
 31
0.0
  0
LINE
  5
C0
330
1F
100
AcDbEntity
  8
0
  6
Continuous
 62
     7
370
    30
100
AcDbLine
 10
243.5034795848
 20
98.7033835467
 30
0.0
 11
243.5034795848
 21
138.032072562
 31
0.0
  0
ARC
  5
C1
330
1F
100
AcDbEntity
  8
0
  6
Continuous
 62
     7
370
    30
100
AcDbCircle
 10
242.5034795848
 20
98.7033835467
 30
0.0
 40
0.9999999999999954
100
AcDbArc
 50
271.0610936078
 51
0.0
  0
ARC
  5
C2
330
1F
100
AcDbEntity
  8
0
  6
Continuous
 62
     7
370
    30
100
AcDbCircle
 10
205.5034795848
 20
98.7033835467
 30
0.0
 40
0.999999999999996
100
AcDbArc
 50
180.0
 51
268.9389063922
  0
ARC
  5
C3
330
1F
100
AcDbEntity
  8
0
  6
Continuous
 62
     7
370
    30
100
AcDbCircle
 10
205.0034795848
 20
138.032072562
 30
0.0
 40
0.5
100
AcDbArc
 50
90.0
 51
180.0
  0
ARC
  5
C4
330
1F
100
AcDbEntity
  8
0
  6
Continuous
 62
     7
370
    30
100
AcDbCircle
 10
243.0034795848
 20
138.032072562
 30
0.0
 40
0.5
100
AcDbArc
 50
0.0
 51
90.0
  0
SPLINE
  5
C5
330
1F
100
AcDbEntity
  8
0
  6
Continuous
 62
     7
370
    30
100
AcDbSpline
210
0.0
220
0.0
230
1.0
 70
     8
 71
     3
 72
    23
 73
    19
 74
     0
 42
0.000000001
 43
0.00000001
 40
0.0
 40
0.0
 40
0.0
 40
0.0
 40
0.0380982351176111
 40
0.1048987357958663
 40
0.1716992878582647
 40
0.2384998913395452
 40
0.305300546196939
 40
0.3721012524426106
 40
0.438902010129894
 40
0.505702819206598
 40
0.5725036796847353
 40
0.639304591597489
 40
0.7061055549204275
 40
0.7729065696640413
 40
0.8397076358387774
 40
0.9065087534335728
 40
0.9733099224431616
 40
1.0
 40
1.0
 40
1.0
 40
1.0
 10
240.6027143349266
 20
151.5322245007922
 30
0.0
 10
240.8526411367686
 20
151.5353564228349
 30
0.0
 10
241.5407833951645
 20
151.5439797793204
 30
0.0
 10
242.6671225567948
 20
151.5595503283675
 30
0.0
 10
243.9817321343095
 20
151.5788096126882
 30
0.0
 10
245.2963220006165
 20
151.5994436416907
 30
0.0
 10
246.6108918221614
 20
151.6213749903266
 30
0.0
 10
247.9254400238557
 20
151.6446243835829
 30
0.0
 10
249.239965363606
 20
151.6691862334063
 30
0.0
 10
250.5544665088462
 20
151.6950620459212
 30
0.0
 10
251.8689421558142
 20
151.7222512557154
 30
0.0
 10
253.183390975771
 20
151.7507544814826
 30
0.0
 10
254.4978117117912
 20
151.7805696691516
 30
0.0
 10
255.8122028447936
 20
151.8117042637616
 30
0.0
 10
257.1265638321278
 20
151.8441303787401
 30
0.0
 10
258.4408904878164
 20
151.8779519471408
 30
0.0
 10
259.4921322320482
 20
151.9058098562315
 30
0.0
 10
260.1052517761878
 20
151.9228596757153
 30
0.0
 10
260.2802864322192
 20
151.9277270940145
 30
0.0
  0
SPLINE
  5
C6
330
1F
100
AcDbEntity
  8
0
  6
Continuous
 62
     7
370
    30
100
AcDbSpline
210
0.0
220
0.0
230
1.0
 70
     8
 71
     3
 72
    23
 73
    19
 74
     0
 42
0.000000001
 43
0.00000001
 40
0.0
 40
0.0
 40
0.0
 40
0.0
 40
0.0530182781355886
 40
0.1198105625606699
 40
0.1866028984024298
 40
0.2533952857200583
 40
0.3201877244420983
 40
0.3869802145775043
 40
0.4537727561271793
 40
0.5205653490714603
 40
0.5873579934193489
 40
0.6541506891497086
 40
0.7209434362956036
 40
0.7877362348448208
 40
0.8545290847452272
 40
0.9213219860246372
 40
0.9881149387281424
 40
1.0
 40
1.0
 40
1.0
 40
1.0
 10
187.724856618477
 20
151.9277270940146
 30
0.0
 10
188.0725879644581
 20
151.9181715996228
 30
0.0
 10
188.8583903263421
 20
151.8965781190556
 30
0.0
 10
190.0823062621131
 20
151.8645102436279
 30
0.0
 10
191.3965954136212
 20
151.8312388664321
 30
0.0
 10
192.7109192396823
 20
151.7993209296469
 30
0.0
 10
194.0252750291316
 20
151.7687055997987
 30
0.0
 10
195.3396618440519
 20
151.7394065443945
 30
0.0
 10
196.6540782713574
 20
151.7114201285889
 30
0.0
 10
197.9685230261495
 20
151.6847474179945
 30
0.0
 10
199.2829947859375
 20
151.6593879708883
 30
0.0
 10
200.5974922499791
 20
151.6353426665565
 30
0.0
 10
201.9120140690397
 20
151.6126085997105
 30
0.0
 10
203.2265590655059
 20
151.5911966744826
 30
0.0
 10
204.5411254226085
 20
151.5710663339946
 30
0.0
 10
205.8557137084486
 20
151.5523690483383
 30
0.0
 10
206.8100875434114
 20
151.5394252600935
 30
0.0
 10
207.3262697521766
 20
151.5331131228953
 30
0.0
 10
207.4042439773589
 20
151.5321596146207
 30
0.0
  0
LINE
  5
C7
330
1F
100
AcDbEntity
  8
0
  6
Continuous
 62
     7
370
    30
100
AcDbLine
 10
186.5034795851
 20
159.9273467707
 30
0.0
 11
186.7491436885
 21
152.892447274
 31
0.0
  0
LINE
  5
C8
330
1F
100
AcDbEntity
  8
0
  6
Continuous
 62
     7
370
    30
100
AcDbLine
 10
261.2578154811
 20
152.892447274
 30
0.0
 11
261.5034795846
 21
159.9273467707
 31
0.0
  0
ARC
  5
C9
330
1F
100
AcDbEntity
  8
0
  6
Continuous
 62
     7
370
    30
100
AcDbCircle
 10
260.2584246541
 20
152.9273467707
 30
0.0
 40
0.9999999999999859
100
AcDbArc
 50
271.5802574569
 51
358.0000000001
  0
ARC
  5
CA
330
1F
100
AcDbEntity
  8
0
  6
Continuous
 62
     7
370
    30
100
AcDbCircle
 10
187.7485345155
 20
152.9273467707
 30
0.0
 40
0.9999999999999859
100
AcDbArc
 50
181.9999999999
 51
268.4197425431
  0
LINE
  5
CB
330
1F
100
AcDbEntity
  8
0
  6
Continuous
 62
     7
370
    30
100
AcDbLine
 10
241.0034795848
 20
138.532072562
 30
0.0
 11
241.0034795848
 21
151.532072562
 31
0.0
  0
LINE
  5
CC
330
1F
100
AcDbEntity
  8
0
  6
Continuous
 62
     7
370
    30
100
AcDbLine
 10
207.0034795848
 20
151.532072562
 30
0.0
 11
207.0034795848
 21
138.532072562
 31
0.0
  0
LINE
  5
CD
330
1F
100
AcDbEntity
  8
0
  6
Continuous
 62
     7
370
    30
100
AcDbLine
 10
227.5534795848
 20
98.7529303093
 30
0.0
 11
227.5534795848
 21
120.232072562
 31
0.0
  0
LINE
  5
CE
330
1F
100
AcDbEntity
  8
0
  6
Continuous
 62
     7
370
    30
100
AcDbLine
 10
220.4534795848
 20
98.7529303088
 30
0.0
 11
220.4534795848
 21
120.232072562
 31
0.0
  0
SPLINE
  5
CF
330
1F
100
AcDbEntity
  8
0
  6
Continuous
 62
     7
370
    30
100
AcDbSpline
210
0.0
220
0.0
230
1.0
 70
     8
 71
     3
 72
    16
 73
    12
 74
     0
 42
0.000000001
 43
0.00000001
 40
0.0
 40
0.0
 40
0.0
 40
0.0
 40
0.1119998882434503
 40
0.2239997764868993
 40
0.3359996647303513
 40
0.4479995529738038
 40
0.5599994412172534
 40
0.6699995809129402
 40
0.779999720608629
 40
0.8899998603043207
 40
1.0
 40
1.0
 40
1.0
 40
1.0
 10
220.4534795848241
 20
120.2320725620283
 30
0.0
 10
220.4539235270028
 20
120.2712853551691
 30
0.0
 10
220.4548114113604
 20
120.3497109414507
 30
0.0
 10
220.4619892956178
 20
120.4671684946795
 30
0.0
 10
220.4734357091978
 20
120.5842644545275
 30
0.0
 10
220.4895509196683
 20
120.7008194857546
 30
0.0
 10
220.5100822535936
 20
120.8159624076449
 30
0.0
 10
220.534906519145
 20
120.9295432751253
 30
0.0
 10
220.5639883084978
 20
121.0413764135952
 30
0.0
 10
220.597055712566
 20
121.1521188562495
 30
0.0
 10
220.6226712308535
 20
121.2247649119061
 30
0.0
 10
220.6354789899972
 20
121.2610879397344
 30
0.0
  0
LINE
  5
D0
330
1F
100
AcDbEntity
  8
0
  6
Continuous
 62
     7
370
    30
100
AcDbLine
 10
220.6354802201
 20
121.2610913085
 30
0.0
 11
220.637173906
 21
121.2654538553
 31
0.0
  0
SPLINE
  5
D1
330
1F
100
AcDbEntity
  8
0
  6
Continuous
 62
     7
370
    30
100
AcDbSpline
210
0.0
220
0.0
230
1.0
 70
     8
 71
     3
 72
    16
 73
    12
 74
     0
 42
0.000000001
 43
0.00000001
 40
0.0
 40
0.0
 40
0.0
 40
0.0
 40
0.111999888245221
 40
0.2239997764904384
 40
0.3359996647356632
 40
0.4479995529808831
 40
0.5599994412261023
 40
0.6699995809195773
 40
0.7799997206130554
 40
0.8899998603065257
 40
1.0
 40
1.0
 40
1.0
 40
1.0
 10
227.3714830333127
 20
121.2610801248314
 30
0.0
 10
227.3845160100867
 20
121.2240942169488
 30
0.0
 10
227.4105819636346
 20
121.1501224011835
 30
0.0
 10
227.4441275549353
 20
121.0373293489936
 30
0.0
 10
227.4735396082719
 20
120.9234118526703
 30
0.0
 10
227.4983806332287
 20
120.8084010732935
 30
0.0
 10
227.5185891566572
 20
120.6932019980692
 30
0.0
 10
227.5342294643087
 20
120.5779977265507
 30
0.0
 10
227.5452711294701
 20
120.4629748097747
 30
0.0
 10
227.5521949238633
 20
120.3476093420092
 30
0.0
 10
227.5530513645038
 20
120.2705848220219
 30
0.0
 10
227.5534795848241
 20
120.2320725620283
 30
0.0
  0
LINE
  5
D2
330
1F
100
AcDbEntity
  8
0
  6
Continuous
 62
     7
370
    30
100
AcDbLine
 10
220.6356614345
 20
121.2633866526
 30
0.0
 11
220.6354802201
 21
121.2610913085
 31
0.0
  0
LINE
  5
D3
330
1F
100
AcDbEntity
  8
0
  6
Continuous
 62
     7
370
    30
100
AcDbLine
 10
220.4537290562
 20
98.7436594848
 30
0.0
 11
220.4534795848
 21
98.7512908087
 31
0.0
  0
LINE
  5
D4
330
1F
100
AcDbEntity
  8
0
  6
Continuous
 62
     7
370
    30
100
AcDbLine
 10
220.4534795848
 20
98.7512908086
 30
0.0
 11
220.4534795848
 21
98.7529303088
 31
0.0
  0
LINE
  5
D5
330
1F
100
AcDbEntity
  8
0
  6
Continuous
 62
     7
370
    30
100
AcDbLine
 10
227.5534795848
 20
98.7512908127
 30
0.0
 11
227.5534795848
 21
98.7529303093
 31
0.0
  0
LINE
  5
D6
330
1F
100
AcDbEntity
  8
0
  6
Continuous
 62
     7
370
    30
100
AcDbLine
 10
227.5534795848
 20
98.7512908087
 30
0.0
 11
227.5532302597
 21
98.7436639586
 31
0.0
  0
SPLINE
  5
D7
330
1F
100
AcDbEntity
  8
0
  6
Continuous
 62
     7
370
    30
100
AcDbSpline
210
0.0
220
0.0
230
1.0
 70
     8
 71
     3
 72
     9
 73
     5
 74
     0
 42
0.000000001
 43
0.00000001
 40
0.0
 40
0.0
 40
0.0
 40
0.0
 40
0.9544221775794008
 40
1.0
 40
1.0
 40
1.0
 40
1.0
 10
220.4534795848241
 20
98.75129080862828
 30
0.0
 10
220.453440770113
 20
98.7502976948487
 30
0.0
 10
220.4534001018302
 20
98.74925715555389
 30
0.0
 10
220.4509825132013
 20
98.7482516597823
 30
0.0
 10
220.4508723247761
 20
98.74820583147459
 30
0.0
  0
SPLINE
  5
D8
330
1F
100
AcDbEntity
  8
0
  6
Continuous
 62
     7
370
    30
100
AcDbSpline
210
0.0
220
0.0
230
1.0
 70
     8
 71
     3
 72
     9
 73
     5
 74
     0
 42
0.000000001
 43
0.00000001
 40
0.0
 40
0.0
 40
0.0
 40
0.0
 40
0.0351772559454552
 40
1.0
 40
1.0
 40
1.0
 40
1.0
 10
227.5560100233016
 20
98.74823824782648
 30
0.0
 10
227.5559261763134
 20
98.74827324272405
 30
0.0
 10
227.5535426194967
 20
98.74926805873908
 30
0.0
 10
227.5535105378889
 20
98.75029754086174
 30
0.0
 10
227.5534795848241
 20
98.75129080862828
 30
0.0
  0
SPLINE
  5
D9
330
1F
100
AcDbEntity
  8
0
  6
Continuous
 62
     7
370
    30
100
AcDbSpline
210
0.0
220
0.0
230
1.0
 70
    24
 71
     3
 72
    91
 73
    87
 74
     0
 42
0.000000001
 43
0.00000001
 40
0.0
 40
0.0
 40
0.0
 40
0.0
 40
0.0045810897925788
 40
0.0184030905826589
 40
0.0322331353031579
 40
0.0460742682297399
 40
0.0599295263291736
 40
0.0738019372913264
 40
0.0839082001423355
 40
0.0940041274806549
 40
0.1040908833692811
 40
0.1141696350490294
 40
0.1242415525435531
 40
0.1343078082595653
 40
0.1501174830586711
 40
0.165920641502777
 40
0.1817218537588503
 40
0.1958321942793131
 40
0.2099478807221667
 40
0.2240721621351216
 40
0.238208281639481
 40
0.2523594742175126
 40
0.2665289645276609
 40
0.2819933633869585
 40
0.2974349951161632
 40
0.3128580429052842
 40
0.3282667050800102
 40
0.3436651917325474
 40
0.3590577213045862
 40
0.374448517136122
 40
0.388558857640047
 40
0.4026745440316993
 40
0.4167988253397553
 40
0.4309349446665566
 40
0.4450861369755063
 40
0.4592556269063059
 40
0.4691499157236464
 40
0.4790344910364017
 40
0.4889104458580609
 40
0.4987788760664963
 40
0.5086408800480106
 40
0.5184975583372431
 40
0.5339784097715063
 40
0.5494531164241855
 40
0.5649259675489349
 40
0.5787429739555556
 40
0.5925649746044374
 40
0.606395019035683
 40
0.6202361514726705
 40
0.6340914088301396
 40
0.6479638187462516
 40
0.653070027476629
 40
0.658173614824014
 40
0.6632747308100813
 40
0.6683735256746521
 40
0.673470149862814
 40
0.678564754011958
 40
0.6836574889387261
 40
0.6976539912417067
 40
0.7116406452285607
 40
0.724122999334892
 40
0.7366022621014753
 40
0.7490806819897288
 40
0.7615605079166502
 40
0.7740439880393367
 40
0.7865333685415595
 40
0.7990308924256604
 40
0.8115387983130016
 40
0.8171585963356156
 40
0.8227811390613581
 40
0.8284066278762462
 40
0.8337546329965604
 40
0.8390598990834947
 40
0.8443626877605809
 40
0.8496631681262422
 40
0.8637074560305793
 40
0.8777398690309597
 40
0.8917635781489401
 40
0.9057817603127352
 40
0.9197975962088949
 40
0.933814268121227
 40
0.947033625653654
 40
0.9602592195457371
 40
0.9734937106983307
 40
0.986739754650372
 40
1.0
 40
1.0
 40
1.0
 40
1.0
 10
243.0032477445499
 20
138.5320725620283
 30
0.0
 10
243.0033729679359
 20
138.5320725620283
 30
0.0
 10
243.0038760135911
 20
138.5320725620283
 30
0.0
 10
243.0004834214513
 20
138.5320725620283
 30
0.0
 10
242.9930324014783
 20
138.5320725620283
 30
0.0
 10
242.9811087819288
 20
138.5320725620283
 30
0.0
 10
242.9650847897205
 20
138.5320725620283
 30
0.0
 10
242.946699059957
 20
138.5320725620283
 30
0.0
 10
242.9272176090536
 20
138.5320725620283
 30
0.0
 10
242.9077055340353
 20
138.5320725620283
 30
0.0
 10
242.8860164885095
 20
138.5320725620283
 30
0.0
 10
242.8621503998013
 20
138.5320725620283
 30
0.0
 10
242.8361072539822
 20
138.5320725620283
 30
0.0
 10
242.8025160923956
 20
138.5320725620283
 30
0.0
 10
242.7596821611785
 20
138.5320725620283
 30
0.0
 10
242.7055575796805
 20
138.5320725620283
 30
0.0
 10
242.6481814935022
 20
138.5320725620283
 30
0.0
 10
242.5882072836135
 20
138.5320725620283
 30
0.0
 10
242.5262530598438
 20
138.5320725620283
 30
0.0
 10
242.4600127484934
 20
138.5320725620283
 30
0.0
 10
242.3894862715877
 20
138.5320725620283
 30
0.0
 10
242.3146739468851
 20
138.5320725620283
 30
0.0
 10
242.2332053487358
 20
138.5320725620283
 30
0.0
 10
242.1447307054724
 20
138.5320725620283
 30
0.0
 10
242.0488651849873
 20
138.5320725620283
 30
0.0
 10
241.9482019253967
 20
138.5320725620283
 30
0.0
 10
241.8427413095425
 20
138.5320725620283
 30
0.0
 10
241.7324832412787
 20
138.5320725620283
 30
0.0
 10
241.6174278062229
 20
138.5320725620283
 30
0.0
 10
241.5009047988189
 20
138.5320725620283
 30
0.0
 10
241.3833719728362
 20
138.5320725620283
 30
0.0
 10
241.2652641879929
 20
138.5320725620283
 30
0.0
 10
241.1431255491666
 20
138.5320725620283
 30
0.0
 10
241.0169559746699
 20
138.5320725620283
 30
0.0
 10
240.8867557955398
 20
138.5320725620283
 30
0.0
 10
240.7660909196225
 20
138.5320725620283
 30
0.0
 10
240.6563110051016
 20
138.5320725620283
 30
0.0
 10
240.558563474458
 20
138.5320725620283
 30
0.0
 10
240.4590581646362
 20
138.5320725620283
 30
0.0
 10
240.3577951662698
 20
138.5320725620283
 30
0.0
 10
240.2547743681837
 20
138.5320725620283
 30
0.0
 10
240.1300532661393
 20
138.5320725620283
 30
0.0
 10
239.982243343025
 20
138.5320725620283
 30
0.0
 10
239.809686005897
 20
138.5320725620283
 30
0.0
 10
239.6391061513823
 20
138.5320725620283
 30
0.0
 10
239.4710344185235
 20
138.5320725620283
 30
0.0
 10
239.305964892103
 20
138.5320725620283
 30
0.0
 10
239.1374349486953
 20
138.5320725620283
 30
0.0
 10
238.9654444561804
 20
138.5320725620283
 30
0.0
 10
238.7899938551344
 20
138.5320725620283
 30
0.0
 10
238.6488514978383
 20
138.5320725620283
 30
0.0
 10
238.544067576869
 20
138.5320725620283
 30
0.0
 10
238.4770176914721
 20
138.5320725620283
 30
0.0
 10
238.40957140906
 20
138.5320725620283
 30
0.0
 10
238.3417287084437
 20
138.5320725620283
 30
0.0
 10
238.273489607627
 20
138.5320725620283
 30
0.0
 10
238.2048540565428
 20
138.5320725620283
 30
0.0
 10
238.0955848019031
 20
138.5320725620283
 30
0.0
 10
237.9444329031988
 20
138.5320725620283
 30
0.0
 10
237.756490675826
 20
138.5320725620283
 30
0.0
 10
237.5728783702864
 20
138.5320725620283
 30
0.0
 10
237.3939422376869
 20
138.5320725620283
 30
0.0
 10
237.2126158976087
 20
138.5320725620283
 30
0.0
 10
237.0288993366927
 20
138.5320725620283
 30
0.0
 10
236.8427925987131
 20
138.5320725620283
 30
0.0
 10
236.6542956336916
 20
138.5320725620283
 30
0.0
 10
236.4634087147054
 20
138.5320725620283
 30
0.0
 10
236.3056731639822
 20
138.5320725620283
 30
0.0
 10
236.1823432682718
 20
138.5320725620283
 30
0.0
 10
236.0943131440627
 20
138.5320725620283
 30
0.0
 10
236.0072730741742
 20
138.5320725620283
 30
0.0
 10
235.9214908221281
 20
138.5320725620283
 30
0.0
 10
235.8370249325532
 20
138.5320725620283
 30
0.0
 10
235.7524312584717
 20
138.5320725620283
 30
0.0
 10
235.6207840894294
 20
138.5320725620283
 30
0.0
 10
235.4410735242134
 20
138.5320725620283
 30
0.0
 10
235.2118138323637
 20
138.5320725620283
 30
0.0
 10
234.9801631810011
 20
138.5320725620283
 30
0.0
 10
234.7461220667872
 20
138.5320725620283
 30
0.0
 10
234.5096902081217
 20
138.5320725620283
 30
0.0
 10
234.2754192397178
 20
138.5320725620283
 30
0.0
 10
234.0434642687151
 20
138.5320725620283
 30
0.0
 10
233.8139847661446
 20
138.5320725620283
 30
0.0
 10
233.582345370428
 20
138.5320725620283
 30
0.0
 10
233.348711585478
 20
138.5320725620283
 30
0.0
 10
233.1913085182192
 20
138.5320725620283
 30
0.0
 10
233.112564818304
 20
138.5320725620283
 30
0.0
  0
SPLINE
  5
DA
330
1F
100
AcDbEntity
  8
0
  6
Continuous
 62
     7
370
    30
100
AcDbSpline
210
0.0
220
0.0
230
1.0
 70
    24
 71
     3
 72
   173
 73
   169
 74
     0
 42
0.000000001
 43
0.00000001
 40
0.0
 40
0.0
 40
0.0
 40
0.0
 40
0.0008789859903807
 40
0.0086724391172215
 40
0.0164657226768041
 40
0.0244687978885773
 40
0.0324760723825878
 40
0.0404897596727663
 40
0.04319010420036
 40
0.0458915104411605
 40
0.048594062441819
 40
0.0512978441421396
 40
0.0540029393674527
 40
0.0567094318210414
 40
0.0594174050766241
 40
0.0678279684652872
 40
0.0762273262147335
 40
0.0846180078025504
 40
0.0930025505586913
 40
0.1013834973887022
 40
0.1097633944717139
 40
0.1181447889435635
 40
0.1246011182212134
 40
0.1310610055567291
 40
0.1375256098645701
 40
0.1439960875246536
 40
0.1469034339757143
 40
0.1498123010284491
 40
0.1527227926580531
 40
0.1554873627772309
 40
0.1582295449440422
 40
0.1609705226981895
 40
0.1637103836082089
 40
0.1709703595241401
 40
0.1782247375940821
 40
0.1854751591928196
 40
0.1927232683830333
 40
0.1999707108010943
 40
0.2072191325375135
 40
0.2140557412787272
 40
0.2208960610992051
 40
0.2277414674881596
 40
0.2345933328714677
 40
0.2414530257982351
 40
0.2493846973340969
 40
0.2573070382171345
 40
0.2652221725504169
 40
0.2731322302425813
 40
0.2810393453046909
 40
0.2889456541305669
 40
0.2968532937674879
 40
0.3049754252817556
 40
0.313103519274897
 40
0.3212398790176227
 40
0.3239819652147104
 40
0.3267253365406676
 40
0.3294700803351784
 40
0.332358662184673
 40
0.3352664222957062
 40
0.338172736871972
 40
0.3410777101642716
 40
0.3487745119686722
 40
0.3564645683958724
 40
0.3641498349547623
 40
0.3718322708119124
 40
0.3795138372997863
 40
0.3871964964166805
 40
0.3939597138980311
 40
0.4007266312797703
 40
0.4074985814016745
 40
0.4097803143807708
 40
0.4120628195212817
 40
0.4143461474594303
 40
0.416630348776721
 40
0.4189154739966609
 40
0.4212015735815012
 40
0.4234886979289991
 40
0.4313136904717849
 40
0.4391282967489416
 40
0.4469345502083322
 40
0.4547344908305713
 40
0.4625301635521268
 40
0.4703236166690506
 40
0.4781169002275205
 40
0.4861199754102994
 40
0.4941272498091528
 40
0.5021409368999344
 40
0.5052914382072394
 40
0.5084434036736976
 40
0.5115969667183522
 40
0.5147522605575898
 40
0.5179094181887041
 40
0.5210685723735973
 40
0.5290611169091681
 40
0.5370425815212128
 40
0.5450151320125542
 40
0.5529809414569292
 40
0.5609421884481128
 40
0.5689010553265446
 40
0.5768597263906104
 40
0.5841568818706445
 40
0.5914573898024655
 40
0.598762929299551
 40
0.6060751760091797
 40
0.6133958009729094
 40
0.6207264695027765
 40
0.6287190142492576
 40
0.6367004790054057
 40
0.6446730295866385
 40
0.6526388390793731
 40
0.6606000860901319
 40
0.668558952972147
 40
0.6765176240366215
 40
0.6846906103829038
 40
0.6928680549715855
 40
0.7010523160581814
 40
0.7042699725397162
 40
0.7074891864749638
 40
0.7107100999751927
 40
0.7139328549268383
 40
0.717157592973268
 40
0.7203844554967046
 40
0.7282094486213273
 40
0.7360240552960504
 40
0.7438303090034789
 40
0.7516302497591988
 40
0.7594259225348235
 40
0.7672193756616716
 40
0.7750126592212517
 40
0.7830157344330122
 40
0.7910230089269991
 40
0.799036696217143
 40
0.8017370407447227
 40
0.8044384469855078
 40
0.8071409989861497
 40
0.8098447806864523
 40
0.8125498759117462
 40
0.8152563683653142
 40
0.8179643416208752
 40
0.826374905009342
 40
0.8347742627586301
 40
0.8431649443463274
 40
0.8515494871023874
 40
0.8599304339323564
 40
0.8683103310153649
 40
0.8766917254872499
 40
0.8831480547649543
 40
0.8896079421005475
 40
0.8960725464084892
 40
0.9025430240686967
 40
0.9054503705198207
 40
0.9083592375726232
 40
0.9112697292022996
 40
0.9140346573920948
 40
0.916777224810985
 40
0.9195185617080227
 40
0.9222587556442015
 40
0.9295194881224093
 40
0.9367744390996751
 40
0.9440252500657348
 40
0.9512735653230279
 40
0.9585210308726699
 40
0.965769293294655
 40
0.9726055852723334
 40
0.9794454272978417
 40
0.9862901955708869
 40
0.9931412633225155
 40
1.0
 40
1.0
 40
1.0
 40
1.0
 10
205.0034971323046
 20
138.5320725620283
 30
0.0
 10
205.0034151633889
 20
138.5320725620283
 30
0.0
 10
205.0026064241845
 20
138.5320725620283
 30
0.0
 10
205.0057797803678
 20
138.5320725620283
 30
0.0
 10
205.0134415098903
 20
138.5320725620283
 30
0.0
 10
205.0268158415454
 20
138.5320725620283
 30
0.0
 10
205.0454083580291
 20
138.5320725620283
 30
0.0
 10
205.0639984855317
 20
138.5320725620283
 30
0.0
 10
205.0792568035319
 20
138.5320725620283
 30
0.0
 10
205.0890655923714
 20
138.5320725620283
 30
0.0
 10
205.099468601223
 20
138.5320725620283
 30
0.0
 10
205.1104659984418
 20
138.5320725620283
 30
0.0
 10
205.1220577101316
 20
138.5320725620283
 30
0.0
 10
205.134243862858
 20
138.5320725620283
 30
0.0
 10
205.1559925113008
 20
138.5320725620283
 30
0.0
 10
205.1895955504993
 20
138.5320725620283
 30
0.0
 10
205.2386559988009
 20
138.5320725620283
 30
0.0
 10
205.2933315510016
 20
138.5320725620283
 30
0.0
 10
205.3536224140248
 20
138.5320725620283
 30
0.0
 10
205.4195285457115
 20
138.5320725620283
 30
0.0
 10
205.4910498623137
 20
138.5320725620283
 30
0.0
 10
205.562269178512
 20
138.5320725620283
 30
0.0
 10
205.6317768681151
 20
138.5320725620283
 30
0.0
 10
205.6983229847987
 20
138.5320725620283
 30
0.0
 10
205.7681978250515
 20
138.5320725620283
 30
0.0
 10
205.8279388972265
 20
138.5320725620283
 30
0.0
 10
205.8757588273406
 20
138.5320725620283
 30
0.0
 10
205.9103765218862
 20
138.5320725620283
 30
0.0
 10
205.9450683132849
 20
138.5320725620283
 30
0.0
 10
205.9796971679439
 20
138.5320725620283
 30
0.0
 10
206.0142103344572
 20
138.5320725620283
 30
0.0
 10
206.0491969771227
 20
138.5320725620283
 30
0.0
 10
206.1042983674088
 20
138.5320725620283
 30
0.0
 10
206.1811249116252
 20
138.5320725620283
 30
0.0
 10
206.2820601140517
 20
138.5320725620283
 30
0.0
 10
206.3869459854685
 20
138.5320725620283
 30
0.0
 10
206.4957823546756
 20
138.5320725620283
 30
0.0
 10
206.6085692281049
 20
138.5320725620283
 30
0.0
 10
206.7230819582057
 20
138.5320725620283
 30
0.0
 10
206.8390607834926
 20
138.5320725620283
 30
0.0
 10
206.9562560588136
 20
138.5320725620283
 30
0.0
 10
207.0769630172129
 20
138.5320725620283
 30
0.0
 10
207.2011820132115
 20
138.5320725620283
 30
0.0
 10
207.3355077255471
 20
138.5320725620283
 30
0.0
 10
207.4804488624509
 20
138.5320725620283
 30
0.0
 10
207.6365607412386
 20
138.5320725620283
 30
0.0
 10
207.7969287125108
 20
138.5320725620283
 30
0.0
 10
207.9615530323355
 20
138.5320725620283
 30
0.0
 10
208.1304335878692
 20
138.5320725620283
 30
0.0
 10
208.3035703918927
 20
138.5320725620283
 30
0.0
 10
208.48254113998
 20
138.5320725620283
 30
0.0
 10
208.6674799847475
 20
138.5320725620283
 30
0.0
 10
208.8585186183869
 20
138.5320725620283
 30
0.0
 10
209.0107540739358
 20
138.5320725620283
 30
0.0
 10
209.121433581667
 20
138.5320725620283
 30
0.0
 10
209.1887827254203
 20
138.5320725620283
 30
0.0
 10
209.257813701845
 20
138.5320725620283
 30
0.0
 10
209.3287019710924
 20
138.5320725620283
 30
0.0
 10
209.401456573613
 20
138.5320725620283
 30
0.0
 10
209.4748743886085
 20
138.5320725620283
 30
0.0
 10
209.5894293679345
 20
138.5320725620283
 30
0.0
 10
209.7465533557266
 20
138.5320725620283
 30
0.0
 10
209.9483569427699
 20
138.5320725620283
 30
0.0
 10
210.1536058150423
 20
138.5320725620283
 30
0.0
 10
210.3622995623445
 20
138.5320725620283
 30
0.0
 10
210.5744381694213
 20
138.5320725620283
 30
0.0
 10
210.7813938695012
 20
138.5320725620283
 30
0.0
 10
210.9826988679504
 20
138.5320725620283
 30
0.0
 10
211.1779235358263
 20
138.5320725620283
 30
0.0
 10
211.3320191154437
 20
138.5320725620283
 30
0.0
 10
211.4433585605286
 20
138.5320725620283
 30
0.0
 10
211.5108923582854
 20
138.5320725620283
 30
0.0
 10
211.5787285466971
 20
138.5320725620283
 30
0.0
 10
211.6468671677274
 20
138.5320725620283
 30
0.0
 10
211.7153081932974
 20
138.5320725620283
 30
0.0
 10
211.7840516930623
 20
138.5320725620283
 30
0.0
 10
211.9088135344966
 20
138.5320725620283
 30
0.0
 10
212.0907705272833
 20
138.5320725620283
 30
0.0
 10
212.3318524475583
 20
138.5320725620283
 30
0.0
 10
212.5757255629418
 20
138.5320725620283
 30
0.0
 10
212.8223893301024
 20
138.5320725620283
 30
0.0
 10
213.0718438282945
 20
138.5320725620283
 30
0.0
 10
213.3240890081887
 20
138.5320725620283
 30
0.0
 10
213.5813924639644
 20
138.5320725620283
 30
0.0
 10
213.8438431874485
 20
138.5320725620283
 30
0.0
 10
214.1115259470768
 20
138.5320725620283
 30
0.0
 10
214.3273157758366
 20
138.5320725620283
 30
0.0
 10
214.4895499830969
 20
138.5320725620283
 30
0.0
 10
214.597112411317
 20
138.5320725620283
 30
0.0
 10
214.7051286376166
 20
138.5320725620283
 30
0.0
 10
214.8135987181124
 20
138.5320725620283
 30
0.0
 10
214.9225227536306
 20
138.5320725620283
 30
0.0
 10
215.0876561347949
 20
138.5320725620283
 30
0.0
 10
215.3098231867512
 20
138.5320725620283
 30
0.0
 10
215.5902451891589
 20
138.5320725620283
 30
0.0
 10
215.8726467869901
 20
138.5320725620283
 30
0.0
 10
216.157027409827
 20
138.5320725620283
 30
0.0
 10
216.4433871575145
 20
138.5320725620283
 30
0.0
 10
216.7317258428301
 20
138.5320725620283
 30
0.0
 10
217.0139766697701
 20
138.5320725620283
 30
0.0
 10
217.2899474459258
 20
138.5320725620283
 30
0.0
 10
217.5594672240888
 20
138.5320725620283
 30
0.0
 10
217.8306496154333
 20
138.5320725620283
 30
0.0
 10
218.1034945992724
 20
138.5320725620283
 30
0.0
 10
218.3780022913317
 20
138.5320725620283
 30
0.0
 10
218.6623360744432
 20
138.5320725620283
 30
0.0
 10
218.9563198740186
 20
138.5320725620283
 30
0.0
 10
219.2597744254829
 20
138.5320725620283
 30
0.0
 10
219.5641831598088
 20
138.5320725620283
 30
0.0
 10
219.8695460406348
 20
138.5320725620283
 30
0.0
 10
220.1758629836631
 20
138.5320725620283
 30
0.0
 10
220.4831339662654
 20
138.5320725620283
 30
0.0
 10
220.7940995139602
 20
138.5320725620283
 30
0.0
 10
221.1087913817208
 20
138.5320725620283
 30
0.0
 10
221.4272351991018
 20
138.5320725620283
 30
0.0
 10
221.6819538869834
 20
138.5320725620283
 30
0.0
 10
221.8724329825051
 20
138.5320725620283
 30
0.0
 10
221.9983458888795
 20
138.5320725620283
 30
0.0
 10
222.1244138508944
 20
138.5320725620283
 30
0.0
 10
222.2506369505459
 20
138.5320725620283
 30
0.0
 10
222.3770152713559
 20
138.5320725620283
 30
0.0
 10
222.5636191953578
 20
138.5320725620283
 30
0.0
 10
222.8104407958982
 20
138.5320725620283
 30
0.0
 10
223.1174827055151
 20
138.5320725620283
 30
0.0
 10
223.4244293554321
 20
138.5320725620283
 30
0.0
 10
223.7312801025357
 20
138.5320725620283
 30
0.0
 10
224.0380350291553
 20
138.5320725620283
 30
0.0
 10
224.3446940720498
 20
138.5320725620283
 30
0.0
 10
224.653982968656
 20
138.5320725620283
 30
0.0
 10
224.9659004583217
 20
138.5320725620283
 30
0.0
 10
225.2804390541024
 20
138.5320725620283
 30
0.0
 10
225.5252775187612
 20
138.5320725620283
 30
0.0
 10
225.7005587170955
 20
138.5320725620283
 30
0.0
 10
225.8063937357793
 20
138.5320725620283
 30
0.0
 10
225.9122172125072
 20
138.5320725620283
 30
0.0
 10
226.0180292391813
 20
138.5320725620283
 30
0.0
 10
226.1238297711994
 20
138.5320725620283
 30
0.0
 10
226.2296188933292
 20
138.5320725620283
 30
0.0
 10
226.4096256972746
 20
138.5320725620283
 30
0.0
 10
226.6634022807044
 20
138.5320725620283
 30
0.0
 10
226.9902629877377
 20
138.5320725620283
 30
0.0
 10
227.3158861581794
 20
138.5320725620283
 30
0.0
 10
227.6402707720435
 20
138.5320725620283
 30
0.0
 10
227.9634170597132
 20
138.5320725620283
 30
0.0
 10
228.285324573896
 20
138.5320725620283
 30
0.0
 10
228.5813944451536
 20
138.5320725620283
 30
0.0
 10
228.8519342624776
 20
138.5320725620283
 30
0.0
 10
229.0972561205674
 20
138.5320725620283
 30
0.0
 10
229.3418432449822
 20
138.5320725620283
 30
0.0
 10
229.5408499507418
 20
138.5320725620283
 30
0.0
 10
229.6947317200022
 20
138.5320725620283
 30
0.0
 10
229.8038223348237
 20
138.5320725620283
 30
0.0
 10
229.9109271981199
 20
138.5320725620283
 30
0.0
 10
230.0157573071611
 20
138.5320725620283
 30
0.0
 10
230.1182869046485
 20
138.5320725620283
 30
0.0
 10
230.2203130970006
 20
138.5320725620283
 30
0.0
 10
230.3780811757728
 20
138.5320725620283
 30
0.0
 10
230.5909604161883
 20
138.5320725620283
 30
0.0
 10
230.8579968137969
 20
138.5320725620283
 30
0.0
 10
231.1233324605967
 20
138.5320725620283
 30
0.0
 10
231.3869668951443
 20
138.5320725620283
 30
0.0
 10
231.6488999171221
 20
138.5320725620283
 30
0.0
 10
231.9041733877407
 20
138.5320725620283
 30
0.0
 10
232.1528943782332
 20
138.5320725620283
 30
0.0
 10
232.3951896584175
 20
138.5320725620283
 30
0.0
 10
232.6359375504489
 20
138.5320725620283
 30
0.0
 10
232.8753035632054
 20
138.5320725620283
 30
0.0
 10
233.0334482458618
 20
138.5320725620283
 30
0.0
 10
233.112564818304
 20
138.5320725620283
 30
0.0
  0
LINE
  5
DB
330
1F
100
AcDbEntity
  8
0
  6
Continuous
 62
     7
370
    30
100
AcDbLine
 10
261.5034795846
 20
159.9273467707
 30
0.0
 11
186.5034795851
 21
159.9273467707
 31
0.0
  0
LINE
  5
DC
330
1F
100
AcDbEntity
  8
0
  6
Continuous
 62
     7
370
    30
100
AcDbLine
 10
241.0034795848
 20
151.532072562
 30
0.0
 11
207.0034795848
 21
151.532072562
 31
0.0
  0
SPLINE
  5
DD
330
1F
100
AcDbEntity
  8
0
  6
Continuous
 62
     7
370
    30
100
AcDbSpline
210
0.0
220
0.0
230
1.0
 70
     8
 71
     3
 72
   170
 73
   166
 74
     0
 42
0.000000001
 43
0.00000001
 40
0.0
 40
0.0
 40
0.0
 40
0.0
 40
0.0064260747793329
 40
0.0090863847076061
 40
0.0134973640286938
 40
0.0180885666821645
 40
0.0230218924491123
 40
0.0281772543855478
 40
0.0335061157047498
 40
0.038969778954895
 40
0.0445407545115863
 40
0.0501987029093379
 40
0.0559282953033738
 40
0.0617177534362394
 40
0.0675578691979989
 40
0.0734413304722318
 40
0.0793622486675317
 40
0.0853158213830423
 40
0.0912980873316151
 40
0.0973057453886133
 40
0.1033360189771413
 40
0.1093865530201875
 40
0.1154553346381875
 40
0.1215406314005973
 40
0.1276409427228726
 40
0.1337549612249912
 40
0.1398815417238987
 40
0.1460196761363718
 40
0.1521684730022917
 40
0.158327140652486
 40
0.1644949732754545
 40
0.1706713393084895
 40
0.1768556717054541
 40
0.1830474597313448
 40
0.1892462420056561
 40
0.1954516005749937
 40
0.2016631558374353
 40
0.2078805621765886
 40
0.2141035041892482
 40
0.2203316934124998
 40
0.2265648654728783
 40
0.2328027775930636
 40
0.2390452064038868
 40
0.2452919460166374
 40
0.25154280631922
 40
0.2577976114651644
 40
0.2640561985284551
 40
0.2703184163031364
 40
0.276584124227596
 40
0.2828531914181021
 40
0.289125495797475
 40
0.2954009233069382
 40
0.3016793671910406
 40
0.3079607273464413
 40
0.3142449097271235
 40
0.3205318257991826
 40
0.3268213920390947
 40
0.333113529470646
 40
0.3394081632356308
 40
0.3457052221946431
 40
0.3520046385540218
 40
0.3583063475162269
 40
0.3646102869505133
 40
0.3709163970816541
 40
0.3772246201942294
 40
0.3835349003508038
 40
0.389847183122051
 40
0.3961614153271298
 40
0.4024775447830655
 40
0.4087955200619169
 40
0.4151152902543055
 40
0.4214368047384192
 40
0.4277600129537975
 40
0.4340848641787973
 40
0.4404113073110576
 40
0.4467392906508265
 40
0.4530687616857437
 40
0.4593996668776814
 40
0.4657319514506282
 40
0.4720655591794565
 40
0.4784004321798493
 40
0.4847365106988494
 40
0.4910737329061359
 40
0.4974120346867337
 40
0.503751349434434
 40
0.5100916078473409
 40
0.5164327377250306
 40
0.5227746637686685
 40
0.529117307384388
 40
0.5354605724083504
 40
0.5418043586558438
 40
0.5481485748230024
 40
0.5544931254031948
 40
0.5608379106484248
 40
0.5671828264179689
 40
0.573527764040836
 40
0.5798726101932302
 40
0.5862172467925207
 40
0.5925615509105479
 40
0.598905394708023
 40
0.6052486453926101
 40
0.6115911652035254
 40
0.6179328114247499
 40
0.6242734364301338
 40
0.6306128877625755
 40
0.6369510082505009
 40
0.6432876361641214
 40
0.6496226054139892
 40
0.6559557457947987
 40
0.6622868832766803
 40
0.6686158403458715
 40
0.6749424363972288
 40
0.6812664881799269
 40
0.687587810297726
 40
0.6939062157644964
 40
0.7002215166155995
 40
0.7065335245748081
 40
0.7128420517761285
 40
0.7191469115389616
 40
0.7254479191949423
 40
0.7317448929631667
 40
0.7380376548709918
 40
0.7443260317156764
 40
0.7506098560623663
 40
0.7568889672726103
 40
0.7631632125572899
 40
0.7694324480468869
 40
0.7756965398719645
 40
0.781955365245512
 40
0.7882088135390843
 40
0.7944567873441122
 40
0.800699203509231
 40
0.8069359941448636
 40
0.8131671075862361
 40
0.8193925093058009
 40
0.8256121827665778
 40
0.8318261302084241
 40
0.8380343733593447
 40
0.8442369540648573
 40
0.8504339348289176
 40
0.856625399260832
 40
0.8628114524231153
 40
0.8689922210762414
 40
0.875167853817419
 40
0.8813385211105077
 40
0.8875044152064127
 40
0.8936657499529161
 40
0.8998227604941933
 40
0.9059757028616795
 40
0.9121248534575032
 40
0.9182705084334625
 40
0.9244129829684202
 40
0.9305526104481106
 40
0.9366897415513845
 40
0.9428247432477249
 40
0.948957997710764
 40
0.9550899011534422
 40
0.9612208625904023
 40
0.9673513025329378
 40
0.9734816516231386
 40
0.9796123492128085
 40
0.9857438418936012
 40
0.99187658198476
 40
0.9980110259845314
 40
0.9999999999999999
 40
0.9999999999999999
 40
0.9999999999999999
 40
0.9999999999999999
 10
332.3162703630866
 20
83.09844499845507
 30
0.0
 10
332.3487603438504
 20
83.04237249779544
 30
0.0
 10
332.3947007467403
 20
82.96308672381886
 30
0.0
 10
332.4636068397569
 20
82.84570699495754
 30
0.0
 10
332.5234463409715
 20
82.74446795516829
 30
0.0
 10
332.5954495180175
 20
82.62381060751697
 30
0.0
 10
332.6718395280387
 20
82.49705577230368
 30
0.0
 10
332.752668721747
 20
82.36432860227119
 30
0.0
 10
332.8369173801818
 20
82.22747095369704
 30
0.0
 10
332.9240309575388
 20
82.08751622421454
 30
0.0
 10
333.0135880629214
 20
81.94524693156588
 30
0.0
 10
333.1052800503606
 20
81.80123907990728
 30
0.0
 10
333.1988735468423
 20
81.65592956554974
 30
0.0
 10
333.2941883890301
 20
81.509656691154
 30
0.0
 10
333.3910825893069
 20
81.36268769241535
 30
0.0
 10
333.4894421010363
 20
81.21523755050491
 30
0.0
 10
333.5891736913275
 20
81.06748212000281
 30
0.0
 10
333.6901998874043
 20
80.91956746505463
 30
0.0
 10
333.7924553285443
 20
80.7716166179583
 30
0.0
 10
333.8958840891455
 20
80.62373455368133
 30
0.0
 10
334.0004376842139
 20
80.4760119077308
 30
0.0
 10
334.1060735623241
 20
80.32852779432764
 30
0.0
 10
334.2127539521034
 20
80.18135197053927
 30
0.0
 10
334.3204449687568
 20
80.03454651815551
 30
0.0
 10
334.4291159143895
 20
79.88816716526645
 30
0.0
 10
334.5387387245352
 20
79.74226433534368
 30
0.0
 10
334.6492875262359
 20
79.59688398788212
 30
0.0
 10
334.7607382821399
 20
79.45206829790813
 30
0.0
 10
334.8730685015751
 20
79.30785620969783
 30
0.0
 10
334.9862570042517
 20
79.16428389139647
 30
0.0
 10
335.1002837256764
 20
79.0213851108932
 30
0.0
 10
335.2151295558839
 20
78.87919154863093
 30
0.0
 10
335.3307762049891
 20
78.73773305952217
 30
0.0
 10
335.4472060904672
 20
78.59703789351593
 30
0.0
 10
335.5644022421684
 20
78.45713288233789
 30
0.0
 10
335.6823482218815
 20
78.31804359839632
 30
0.0
 10
335.8010280549142
 20
78.17979449064296
 30
0.0
 10
335.9204261716442
 20
78.04240900125798
 30
0.0
 10
336.0405273573903
 20
77.90590966628879
 30
0.0
 10
336.1613167092586
 20
77.77031820280055
 30
0.0
 10
336.282779598863
 20
77.63565558463432
 30
0.0
 10
336.404901640013
 20
77.50194210850067
 30
0.0
 10
336.5276686606188
 20
77.36919745184451
 30
0.0
 10
336.6510666781913
 20
77.23744072367089
 30
0.0
 10
336.7750818784162
 20
77.10669050933039
 30
0.0
 10
336.8997005963652
 20
76.97696491010369
 30
0.0
 10
337.0249092999781
 20
76.84828157828832
 30
0.0
 10
337.1506945755015
 20
76.72065774839105
 30
0.0
 10
337.277043114623
 20
76.59411026492982
 30
0.0
 10
337.4039417030726
 20
76.4686556072828
 30
0.0
 10
337.5313772104994
 20
76.34430991195347
 30
0.0
 10
337.659336581458
 20
76.22108899257049
 30
0.0
 10
337.7878068273607
 20
76.09900835789796
 30
0.0
 10
337.9167750192708
 20
75.97808322809189
 30
0.0
 10
338.0462282814312
 20
75.85832854940797
 30
0.0
 10
338.1761537854325
 20
75.73975900753904
 30
0.0
 10
338.3065387449393
 20
75.62238903973692
 30
0.0
 10
338.4373704109006
 20
75.50623284585384
 30
0.0
 10
338.5686360671841
 20
75.39130439842012
 30
0.0
 10
338.7003230265735
 20
75.27761745186295
 30
0.0
 10
338.8324186270826
 20
75.1651855509545
 30
0.0
 10
338.9649102285385
 20
75.0540220385704
 30
0.0
 10
339.0977852093969
 20
74.94414006282571
 30
0.0
 10
339.2310309637506
 20
74.83555258365176
 30
0.0
 10
339.3646348985008
 20
74.72827237886496
 30
0.0
 10
339.4985844306619
 20
74.62231204977543
 30
0.0
 10
339.6328669847736
 20
74.5176840263757
 30
0.0
 10
339.7674699903955
 20
74.41440057214601
 30
0.0
 10
339.902380879663
 20
74.31247378850523
 30
0.0
 10
340.0375870848866
 20
74.21191561893598
 30
0.0
 10
340.1730760361727
 20
74.11273785280572
 30
0.0
 10
340.3088351590545
 20
74.01495212890406
 30
0.0
 10
340.4448518721136
 20
73.91856993871117
 30
0.0
 10
340.5811135845833
 20
73.82360262941258
 30
0.0
 10
340.7176076939197
 20
73.73006140666847
 30
0.0
 10
340.8543215833289
 20
73.63795733714929
 30
0.0
 10
340.9912426192453
 20
73.54730135083983
 30
0.0
 10
341.1283581487479
 20
73.45810424311857
 30
0.0
 10
341.2656554969132
 20
73.3703766766127
 30
0.0
 10
341.4031219640969
 20
73.2841291828291
 30
0.0
 10
341.5407448231407
 20
73.19937216355964
 30
0.0
 10
341.6785113165045
 20
73.11611589205812
 30
0.0
 10
341.816408653321
 20
73.03437051398248
 30
0.0
 10
341.954424006375
 20
72.95414604809822
 30
0.0
 10
342.0925445090124
 20
72.87545238673285
 30
0.0
 10
342.2307572519794
 20
72.79829929597604
 30
0.0
 10
342.3690492802033
 20
72.72269641561269
 30
0.0
 10
342.5074075895201
 20
72.64865325878145
 30
0.0
 10
342.6458190209268
 20
72.57617926498189
 30
0.0
 10
342.7842702546121
 20
72.50528379398496
 30
0.0
 10
342.9227478993383
 20
72.4359760714837
 30
0.0
 10
343.0612385905162
 20
72.36826513890301
 30
0.0
 10
343.199728989186
 20
72.30215985609127
 30
0.0
 10
343.3382056858002
 20
72.23766894655856
 30
0.0
 10
343.4766551980438
 20
72.17480099431536
 30
0.0
 10
343.6150639678904
 20
72.11356444078822
 30
0.0
 10
343.7534183588235
 20
72.05396758135478
 30
0.0
 10
343.891704653254
 20
71.99601856149462
 30
0.0
 10
344.0299090501712
 20
71.93972537255289
 30
0.0
 10
344.1680176630697
 20
71.88509584711491
 30
0.0
 10
344.306016518193
 20
71.83213765399329
 30
0.0
 10
344.4438915531405
 20
71.78085829283282
 30
0.0
 10
344.581628615886
 20
71.73126508834105
 30
0.0
 10
344.7192134642517
 20
71.68336518415869
 30
0.0
 10
344.85663176589
 20
71.63716553638614
 30
0.0
 10
344.9938690988207
 20
71.5926729067901
 30
0.0
 10
345.1309109525693
 20
71.54989385571777
 30
0.0
 10
345.2677427299552
 20
71.50883473475244
 30
0.0
 10
345.4043497495741
 20
71.4695016791507
 30
0.0
 10
345.5407172490152
 20
71.43190060010652
 30
0.0
 10
345.6768303888503
 20
71.39603717689525
 30
0.0
 10
345.8126742574272
 20
71.36191684895566
 30
0.0
 10
345.948233876495
 20
71.32954480797413
 30
0.0
 10
346.0834942076792
 20
71.29892599004195
 30
0.0
 10
346.2184401598187
 20
71.27006506796133
 30
0.0
 10
346.353056597165
 20
71.24296644378144
 30
0.0
 10
346.4873283484393
 20
71.21763424164848
 30
0.0
 10
346.6212402167268
 20
71.19407230105942
 30
0.0
 10
346.7547769901788
 20
71.17228417060933
 30
0.0
 10
346.8879234534815
 20
71.15227310232532
 30
0.0
 10
347.0206644000378
 20
71.1340420466787
 30
0.0
 10
347.1529846447939
 20
71.11759364836637
 30
0.0
 10
347.2848690376348
 20
71.10293024294995
 30
0.0
 10
347.4163024772559
 20
71.09005385443554
 30
0.0
 10
347.5472699254095
 20
71.07896619387283
 30
0.0
 10
347.6777564214134
 20
71.06966865904302
 30
0.0
 10
347.8077470968007
 20
71.0621623352974
 30
0.0
 10
347.9372271899791
 20
71.05644799759725
 30
0.0
 10
348.0661820607647
 20
71.05252611379379
 30
0.0
 10
348.1945972046509
 20
71.05039684917482
 30
0.0
 10
348.3224582666656
 20
71.05006007228917
 30
0.0
 10
348.4497510546765
 20
71.0515153620471
 30
0.0
 10
348.576461552001
 20
71.05476201607807
 30
0.0
 10
348.702575929184
 20
71.0597990603126
 30
0.0
 10
348.8280805548115
 20
71.06662525973906
 30
0.0
 10
348.9529620052388
 20
71.07523913027164
 30
0.0
 10
349.0772070731176
 20
71.08563895164998
 30
0.0
 10
349.2008027746272
 20
71.09782278127896
 30
0.0
 10
349.3237363553175
 20
71.11178846890282
 30
0.0
 10
349.445995294498
 20
71.12753367199804
 30
0.0
 10
349.5675673081157
 20
71.14505587175846
 30
0.0
 10
349.6884403500835
 20
71.16435238953903
 30
0.0
 10
349.80860261204
 20
71.18542040361727
 30
0.0
 10
349.9280425215358
 20
71.2082569661282
 30
0.0
 10
350.0467487386606
 20
71.2328590200246
 30
0.0
 10
350.1647101511429
 20
71.25922341591486
 30
0.0
 10
350.2819158679639
 20
71.28734692862989
 30
0.0
 10
350.3983552115507
 20
71.31722627337463
 30
0.0
 10
350.5140177086163
 20
71.34885812132492
 30
0.0
 10
350.6288930797441
 20
71.3822391145215
 30
0.0
 10
350.7429712277773
 20
71.41736587998332
 30
0.0
 10
350.856242225237
 20
71.45423504272017
 30
0.0
 10
350.9686963004466
 20
71.49284323827432
 30
0.0
 10
351.080323824092
 20
71.53318712190865
 30
0.0
 10
351.1911152903357
 20
71.57526338471223
 30
0.0
 10
351.3010613149913
 20
71.61906873786045
 30
0.0
 10
351.4101525674029
 20
71.66460000924462
 30
0.0
 10
351.5183799475956
 20
71.7118538140806
 30
0.0
 10
351.6257338468146
 20
71.76082780800716
 30
0.0
 10
351.7322068276157
 20
71.81151602762768
 30
0.0
 10
351.8377835419583
 20
71.86392628908838
 30
0.0
 10
351.9424782823398
 20
71.9180152497709
 30
0.0
 10
352.0461947293679
 20
71.97393080896374
 30
0.0
 10
352.126024194378
 20
72.01822140175184
 30
0.0
 10
352.1709506728246
 20
72.04443458690346
 30
0.0
 10
352.1819506728331
 20
72.05085274044812
 30
0.0
  0
SPLINE
  5
DE
330
1F
100
AcDbEntity
  8
0
  6
Continuous
 62
     7
370
    30
100
AcDbSpline
210
0.0
220
0.0
230
1.0
 70
     8
 71
     3
 72
   164
 73
   160
 74
     0
 42
0.000000001
 43
0.00000001
 40
0.0
 40
0.0
 40
0.0
 40
0.0
 40
0.0041178305838896
 40
0.0102570556111816
 40
0.0163992109160053
 40
0.0225447538515268
 40
0.0286941384068546
 40
0.0348478135804534
 40
0.0410062217654032
 40
0.0471697971515939
 40
0.0533389641521199
 40
0.059514135861922
 40
0.0656957125555716
 40
0.0718840802325676
 40
0.0780796092174301
 40
0.0842826528227726
 40
0.0904935460829001
 40
0.0967126045660407
 40
0.1029401232721844
 40
0.1091763756244752
 40
0.1154216125610995
 40
0.1216760617339512
 40
0.1279399268206789
 40
0.1342133869552444
 40
0.1404965962819456
 40
0.1467896836370108
 40
0.153092752360218
 40
0.1594058802392556
 40
0.1657291195872046
 40
0.1720624974528787
 40
0.1784060159628748
 40
0.1847596527920763
 40
0.1911233617590668
 40
0.1974970735409685
 40
0.2038806965011921
 40
0.2102741176229736
 40
0.2166772035394947
 40
0.2230898016518355
 40
0.2295117413235633
 40
0.235942835142023
 40
0.242382880234051
 40
0.2488316596249144
 40
0.2552889436283937
 40
0.2617544912561566
 40
0.268228051634838
 40
0.2747093654197361
 40
0.2811981661937561
 40
0.2876941818423338
 40
0.2941971358941624
 40
0.3007067488198309
 40
0.3072227392802865
 40
0.3137448253189816
 40
0.3202727254916733
 40
0.3268061599298052
 40
0.3333448513333568
 40
0.3398885258910926
 40
0.346436914126451
 40
0.3529897516680672
 40
0.3595467799457001
 40
0.3661077468116261
 40
0.3726724070900088
 40
0.3792405230552178
 40
0.3858118648431013
 40
0.3923862107971222
 40
0.3989633477535647
 40
0.4055430712691572
 40
0.4121251857951342
 40
0.418709504801804
 40
0.425295850857674
 40
0.4318840556672401
 40
0.4384739600715372
 40
0.4450654140157711
 40
0.4516582764872134
 40
0.4582524154281998
 40
0.4648477076266639
 40
0.4714440385888016
 40
0.4780413023962903
 40
0.4846394015516597
 40
0.4912382284339746
 40
0.4978376914707282
 40
0.5044377192346131
 40
0.5110382480914936
 40
0.517639221899691
 40
0.5242405918356734
 40
0.5308423162260574
 40
0.5374443603864499
 40
0.5440466964684175
 40
0.5506493033161798
 40
0.5572521663346935
 40
0.5638552773699981
 40
0.5704586346036629
 40
0.5770622424620021
 40
0.5836661115420588
 40
0.5902702585548599
 40
0.5968747062881753
 40
0.6034794835892221
 40
0.6100846253696788
 40
0.6166901726340076
 40
0.6232961725334071
 40
0.6299026784465674
 40
0.6365097500905479
 40
0.6431174536630597
 40
0.6497258620197123
 40
0.6563350548892468
 40
0.6629451191302854
 40
0.66955614903351
 40
0.6761682466747488
 40
0.6827815223238027
 40
0.6893960949158929
 40
0.6960120925926933
 40
0.7026296533224156
 40
0.7092489256081161
 40
0.7158700692970511
 40
0.7224932565043374
 40
0.7291186726683293
 40
0.7357465177560245
 40
0.7423770076433872
 40
0.7490103756974954
 40
0.7556468745939529
 40
0.7622867784105283
 40
0.7689303850456249
 40
0.7755780190209585
 40
0.7822300347420398
 40
0.7888868203059137
 40
0.7955488019685488
 40
0.8022164494107873
 40
0.8088902819794959
 40
0.8155708761258972
 40
0.8222588743277023
 40
0.8289549958626931
 40
0.8356600499155179
 40
0.8423749516513288
 40
0.8491007421034491
 40
0.8558386130178371
 40
0.8625899382231077
 40
0.8686618191857675
 40
0.8754245217615125
 40
0.8814931219534555
 40
0.8875605001393035
 40
0.8936259219799685
 40
0.8996891277804179
 40
0.9057497886537788
 40
0.9118074835530052
 40
0.9178616654654919
 40
0.9239116113521688
 40
0.9299563458430627
 40
0.9359945209867916
 40
0.9420242192023879
 40
0.948042615086879
 40
0.954045361648081
 40
0.9600253971582641
 40
0.9659704153025205
 40
0.9718568559396336
 40
0.9776332172460076
 40
0.983161410378521
 40
0.9880928002996913
 40
0.9916731155175857
 40
0.9956786133828966
 40
1.0
 40
1.0
 40
1.0
 40
1.0
 10
332.6836958939015
 20
105.8263587461003
 30
0.0
 10
332.6608615126757
 20
105.8131759483108
 30
0.0
 10
332.6039836219251
 20
105.7803390728533
 30
0.0
 10
332.514164913299
 20
105.7259197162989
 30
0.0
 10
332.4140968402362
 20
105.6633485191192
 30
0.0
 10
332.3150242921305
 20
105.5990201460349
 30
0.0
 10
332.2169088893576
 20
105.5330199640444
 30
0.0
 10
332.1197728629953
 20
105.4653286716228
 30
0.0
 10
332.023622318202
 20
105.3959550557487
 30
0.0
 10
331.9284678270599
 20
105.3249004074834
 30
0.0
 10
331.834318916221
 20
105.2521680882733
 30
0.0
 10
331.7411855550839
 20
105.1777609871368
 30
0.0
 10
331.6490777643129
 20
105.1016822276523
 30
0.0
 10
331.5580057268388
 20
105.023935004373
 30
0.0
 10
331.4679797621538
 20
104.9445226539602
 30
0.0
 10
331.3790103353389
 20
104.8634486642849
 30
0.0
 10
331.2911080547557
 20
104.7807167009315
 30
0.0
 10
331.204283670723
 20
104.6963306295763
 30
0.0
 10
331.1185480718343
 20
104.6102945397946
 30
0.0
 10
331.0339122797956
 20
104.5226127685699
 30
0.0
 10
330.9503874425422
 20
104.4332899237224
 30
0.0
 10
330.8679848257131
 20
104.3423309069454
 30
0.0
 10
330.7867158024953
 20
104.2497409362763
 30
0.0
 10
330.7065918418846
 20
104.1555255677852
 30
0.0
 10
330.62762449542
 20
104.0596907162823
 30
0.0
 10
330.549825382472
 20
103.9622426748405
 30
0.0
 10
330.4732061741707
 20
103.8631881329408
 30
0.0
 10
330.3977785760868
 20
103.762534193058
 30
0.0
 10
330.3235543097852
 20
103.6602883855146
 30
0.0
 10
330.2505450933895
 20
103.5564586814497
 30
0.0
 10
330.1787626213091
 20
103.4510535037664
 30
0.0
 10
330.1082185432879
 20
103.3440817359438
 30
0.0
 10
330.0389244429491
 20
103.235552728621
 30
0.0
 10
329.9708918160128
 20
103.1254763038884
 30
0.0
 10
329.9041320483693
 20
103.0138627572457
 30
0.0
 10
329.8386563941968
 20
102.9007228572167
 30
0.0
 10
329.7744759543049
 20
102.7860678426322
 30
0.0
 10
329.7116016548889
 20
102.6699094176308
 30
0.0
 10
329.6500442268699
 20
102.5522597444417
 30
0.0
 10
329.5898141859884
 20
102.4331314340494
 30
0.0
 10
329.5309218138078
 20
102.3125375348564
 30
0.0
 10
329.4733771397713
 20
102.1904915194878
 30
0.0
 10
329.4171899244401
 20
102.0670072698938
 30
0.0
 10
329.3623696440247
 20
101.9420990609282
 30
0.0
 10
329.3089254763017
 20
101.8157815425873
 30
0.0
 10
329.2568662879906
 20
101.6880697211075
 30
0.0
 10
329.2062006236462
 20
101.5589789391226
 30
0.0
 10
329.156936696101
 20
101.4285248550862
 30
0.0
 10
329.1090823784748
 20
101.2967234221593
 30
0.0
 10
329.0626451977496
 20
101.163590866765
 30
0.0
 10
329.0176323298891
 20
101.0291436669994
 30
0.0
 10
328.9740505964692
 20
100.8933985310826
 30
0.0
 10
328.9319064627676
 20
100.7563723760169
 30
0.0
 10
328.8912060372507
 20
100.6180823066129
 30
0.0
 10
328.8519550723818
 20
100.4785455950204
 30
0.0
 10
328.8141589666696
 20
100.3377796608931
 30
0.0
 10
328.7778227678642
 20
100.1958020522946
 30
0.0
 10
328.7429511772044
 20
100.0526304274366
 30
0.0
 10
328.7095485546187
 20
99.90828253732711
 30
0.0
 10
328.6776189247732
 20
99.76277620938251
 30
0.0
 10
328.6471659838714
 20
99.61612933205323
 30
0.0
 10
328.6181931070965
 20
99.46835984048293
 30
0.0
 10
328.5907033566053
 20
99.31948570322223
 30
0.0
 10
328.5646994899724
 20
99.16952490999161
 30
0.0
 10
328.5401839689973
 20
99.01849546048837
 30
0.0
 10
328.5171589687883
 20
98.866415354213
 30
0.0
 10
328.4956263870424
 20
98.71330258128684
 30
0.0
 10
328.4755878534483
 20
98.55917511422275
 30
0.0
 10
328.4570447391449
 20
98.40405090060528
 30
0.0
 10
328.439998166177
 20
98.24794785663163
 30
0.0
 10
328.4244490168899
 20
98.09088386145805
 30
0.0
 10
328.4103979432222
 20
97.93287675229867
 30
0.0
 10
328.3978453758494
 20
97.77394432021354
 30
0.0
 10
328.3867915331502
 20
97.6141043065329
 30
0.0
 10
328.377236429963
 20
97.45337439985002
 30
0.0
 10
328.3691798861113
 20
97.29177223352939
 30
0.0
 10
328.3626215346823
 20
97.12931538366517
 30
0.0
 10
328.3575608347427
 20
96.96602151906471
 30
0.0
 10
328.3539970700076
 20
96.80190833803731
 30
0.0
 10
328.3519293507255
 20
96.63699346754274
 30
0.0
 10
328.351356623211
 20
96.47129430637847
 30
0.0
 10
328.3522776839301
 20
96.3048280881331
 30
0.0
 10
328.3546911883672
 20
96.13761198274881
 30
0.0
 10
328.3585956573874
 20
95.96966309725592
 30
0.0
 10
328.363989483348
 20
95.8009984754914
 30
0.0
 10
328.3708709359866
 20
95.63163509778624
 30
0.0
 10
328.3792381681057
 20
95.4615898805922
 30
0.0
 10
328.3890892210727
 20
95.29087967600746
 30
0.0
 10
328.4004220301562
 20
95.11952127116386
 30
0.0
 10
328.4132344297236
 20
94.9475313874354
 30
0.0
 10
328.4275241583218
 20
94.77492667943554
 30
0.0
 10
328.443288863671
 20
94.60172373376116
 30
0.0
 10
328.4605261075962
 20
94.42793906745133
 30
0.0
 10
328.4792333709287
 20
94.25358912611675
 30
0.0
 10
328.4994080584071
 20
94.07869028170713
 30
0.0
 10
328.521047503613
 20
93.90325882986963
 30
0.0
 10
328.544148973976
 20
93.72731098686086
 30
0.0
 10
328.5687096758865
 20
93.55086288595895
 30
0.0
 10
328.5947267599576
 20
93.37393057333362
 30
0.0
 10
328.6221973264802
 20
93.19653000331061
 30
0.0
 10
328.6511184311195
 20
93.018677032978
 30
0.0
 10
328.6814870909059
 20
92.84038741606004
 30
0.0
 10
328.7133002905767
 20
92.66167679598799
 30
0.0
 10
328.7465549893346
 20
92.48256069807783
 30
0.0
 10
328.7812481280922
 20
92.30305452072248
 30
0.0
 10
328.8173766372822
 20
92.12317352548511
 30
0.0
 10
328.8549374453223
 20
91.94293282596927
 30
0.0
 10
328.893927487837
 20
91.76234737531678
 30
0.0
 10
328.9343437177479
 20
91.58143195217167
 30
0.0
 10
328.9761831163668
 20
91.4002011449089
 30
0.0
 10
329.0194427056389
 20
91.21866933390805
 30
0.0
 10
329.0641195617119
 20
91.03685067160106
 30
0.0
 10
329.1102108300311
 20
90.85475905999249
 30
0.0
 10
329.1577137421963
 20
90.67240812527871
 30
0.0
 10
329.2066256348528
 20
90.48981118914747
 30
0.0
 10
329.2569439709452
 20
90.30698123623834
 30
0.0
 10
329.3086663637115
 20
90.12393087716413
 30
0.0
 10
329.3617906038775
 20
89.94067230636362
 30
0.0
 10
329.4163146905939
 20
89.75721725391841
 30
0.0
 10
329.4722368667709
 20
89.57357693027988
 30
0.0
 10
329.5295556596024
 20
89.38976196263008
 30
0.0
 10
329.5882699272411
 20
89.2057823213199
 30
0.0
 10
329.6483789128002
 20
89.02164723447638
 30
0.0
 10
329.7098823071308
 20
88.83736508841422
 30
0.0
 10
329.772780322169
 20
88.65294331092474
 30
0.0
 10
329.8370737770931
 20
88.46838823376515
 30
0.0
 10
329.9027642001118
 20
88.28370492971574
 30
0.0
 10
329.9698539494452
 20
88.09889701833951
 30
0.0
 10
330.0383463581248
 20
87.91396643276909
 30
0.0
 10
330.1082459083199
 20
87.72891313820135
 30
0.0
 10
330.17955844366
 20
87.54373478752663
 30
0.0
 10
330.2522914268807
 20
87.35842630379898
 30
0.0
 10
330.3264542670373
 20
87.17297934199406
 30
0.0
 10
330.402058694805
 20
86.98738169237444
 30
0.0
 10
330.4764772127101
 20
86.80798549923493
 30
0.0
 10
330.5521811519514
 20
86.62856887358092
 30
0.0
 10
330.6263900182084
 20
86.45562197207593
 30
0.0
 10
330.7017162558004
 20
86.28295050670043
 30
0.0
 10
330.7752908575877
 20
86.11687749899284
 30
0.0
 10
330.8498640042765
 20
85.95109595493125
 30
0.0
 10
330.9254225668424
 20
85.78563226765242
 30
0.0
 10
331.0019543774158
 20
85.62050990884092
 30
0.0
 10
331.0794457495771
 20
85.45575483061597
 30
0.0
 10
331.1578809363124
 20
85.29139641091517
 30
0.0
 10
331.237241328058
 20
85.1274688492874
 30
0.0
 10
331.3175042159955
 20
84.96401332363578
 30
0.0
 10
331.3986408203834
 20
84.80108143256037
 30
0.0
 10
331.4806130089577
 20
84.63874093103526
 30
0.0
 10
331.5633675504371
 20
84.47708578908868
 30
0.0
 10
331.6468253915619
 20
84.31625497529448
 30
0.0
 10
331.7308600155436
 20
84.15647045513124
 30
0.0
 10
331.8152488674647
 20
83.99812246069845
 30
0.0
 10
331.8995478451606
 20
83.84199075643758
 30
0.0
 10
331.9826862918288
 20
83.68995789349411
 30
0.0
 10
332.0619652587067
 20
83.54675194666113
 30
0.0
 10
332.1311205037219
 20
83.42322711639544
 30
0.0
 10
332.1932165830789
 20
83.3133362056441
 30
0.0
 10
332.2526242689283
 20
83.208984916501
 30
0.0
 10
332.2945251476842
 20
83.13621187732261
 30
0.0
 10
332.3162703630866
 20
83.09844499845507
 30
0.0
  0
LINE
  5
DF
330
1F
100
AcDbEntity
  8
0
  6
Continuous
 62
     7
370
    30
100
AcDbLine
 10
360.4934459422
 20
121.880832813
 30
0.0
 11
332.6838632443
 21
105.8267024432
 31
0.0
  0
LINE
  5
E0
330
1F
100
AcDbEntity
  8
0
  6
Continuous
 62
     7
370
    30
100
AcDbLine
 10
352.1822785307
 20
72.0507968104
 30
0.0
 11
379.9918612286
 21
88.1049271801
 31
0.0
  0
SPLINE
  5
E1
330
1F
100
AcDbEntity
  8
0
  6
Continuous
 62
     7
370
    30
100
AcDbSpline
210
0.0
220
0.0
230
1.0
 70
     8
 71
     3
 72
   119
 73
   115
 74
     0
 42
0.000000001
 43
0.00000001
 40
0.0
 40
0.0
 40
0.0
 40
0.0
 40
0.0103337522754023
 40
0.0187531533024048
 40
0.0252375880442902
 40
0.0299035199776606
 40
0.0345319715126858
 40
0.0396899420859964
 40
0.0453814603695895
 40
0.0514595439052935
 40
0.0641457515086882
 40
0.0766007756489431
 40
0.0877435675547681
 40
0.096546734415966
 40
0.1052217504530427
 40
0.1138757268644384
 40
0.1225059075568902
 40
0.1318146572034458
 40
0.1428638501229832
 40
0.1572319447419739
 40
0.1711441837287171
 40
0.1835733634720231
 40
0.1942893565599338
 40
0.2047384746224427
 40
0.2099028776976996
 40
0.2151387357708621
 40
0.2204468697652982
 40
0.2259360636751745
 40
0.2321452215161421
 40
0.2391555564565792
 40
0.2467013888965191
 40
0.2526452053241189
 40
0.2625234952636317
 40
0.2774385127518331
 40
0.2899458929964992
 40
0.3016776631474242
 40
0.3141515308394516
 40
0.3256949686307846
 40
0.3332827605118289
 40
0.3426187621746665
 40
0.3531532207259861
 40
0.3612653919012613
 40
0.3676030121652208
 40
0.3777248648442079
 40
0.3886909101698315
 40
0.4013848688802439
 40
0.4120718253476646
 40
0.4240178860167604
 40
0.4378308108099507
 40
0.4500909359333194
 40
0.465934354325386
 40
0.4795244112877875
 40
0.4907391939617402
 40
0.4999849168800652
 40
0.507802770327667
 40
0.5130166392749724
 40
0.5177802705610893
 40
0.523443147558447
 40
0.530014173648606
 40
0.5369533978149135
 40
0.5445693523460389
 40
0.5528730696449935
 40
0.5605936168047604
 40
0.566348584896835
 40
0.572563342029471
 40
0.581051052038733
 40
0.5916926283995051
 40
0.601640391963711
 40
0.6101395797415397
 40
0.6177263520154194
 40
0.6261117422783143
 40
0.6351168917249994
 40
0.64314555704724
 40
0.6500644985031703
 40
0.6567271076669673
 40
0.6633108321926073
 40
0.6701329537480374
 40
0.6788268142234435
 40
0.68719323050726
 40
0.6969587558052238
 40
0.7062062579059424
 40
0.7136597671089314
 40
0.7194664398932534
 40
0.7254716540125833
 40
0.7321062870111575
 40
0.7428212810153182
 40
0.7512543756475015
 40
0.7609273540716289
 40
0.7717268956079404
 40
0.7821261569588791
 40
0.7928931141490009
 40
0.802845109348735
 40
0.8142031692861041
 40
0.8246742090760504
 40
0.832884971403195
 40
0.8409546352845508
 40
0.8504801435990987
 40
0.8635804715078536
 40
0.876437363557755
 40
0.8882907136709297
 40
0.8986679245444052
 40
0.9099781259348421
 40
0.9234989494596141
 40
0.9294406901456832
 40
0.9347771607955623
 40
0.9394682042441483
 40
0.9434755847570803
 40
0.9469848521688938
 40
0.9517025915669614
 40
0.9576705575722577
 40
0.9652438802263659
 40
0.9746117597341506
 40
0.9860555703753667
 40
1.0
 40
1.0
 40
1.0
 40
1.0
 10
340.7198378099051
 20
109.0736714080934
 30
0.0
 10
340.712739006639
 20
109.0695380107504
 30
0.0
 10
340.6998564696509
 20
109.0620369373778
 30
0.0
 10
340.682778865298
 20
109.0517392818887
 30
0.0
 10
340.669662122478
 20
109.0436770650807
 30
0.0
 10
340.6593103720243
 20
109.0372129495334
 30
0.0
 10
340.6498337224813
 20
109.0312205546251
 30
0.0
 10
340.6396639103174
 20
109.0247030815912
 30
0.0
 10
340.6285488587505
 20
109.0174737568737
 30
0.0
 10
340.6125266975661
 20
109.0068847411638
 30
0.0
 10
340.592257657043
 20
108.993145677072
 30
0.0
 10
340.568975590862
 20
108.9768282663562
 30
0.0
 10
340.5483714180753
 20
108.9619338104069
 30
0.0
 10
340.5302820948966
 20
108.9485129475428
 30
0.0
 10
340.5139336413459
 20
108.936106508747
 30
0.0
 10
340.4978402070413
 20
108.9236198697819
 30
0.0
 10
340.4814887321219
 20
108.9106512689628
 30
0.0
 10
340.4638218306037
 20
108.8963183678958
 30
0.0
 10
340.4428725138458
 20
108.8788829620209
 30
0.0
 10
340.4194653764212
 20
108.858775180808
 30
0.0
 10
340.3956570940157
 20
108.8375970707279
 30
0.0
 10
340.3742580001934
 20
108.8179397582018
 30
0.0
 10
340.3550085767445
 20
108.7997495052471
 30
0.0
 10
340.3401582766688
 20
108.7853496985838
 30
0.0
 10
340.3285185344193
 20
108.7738484274518
 30
0.0
 10
340.31980200057
 20
108.7651268467338
 30
0.0
 10
340.3109624479014
 20
108.7561691699628
 30
0.0
 10
340.3016480957284
 20
108.7466070409941
 30
0.0
 10
340.2914754856799
 20
108.7360161577305
 30
0.0
 10
340.2802778269706
 20
108.7241719286526
 30
0.0
 10
340.2693270079458
 20
108.7123853013407
 30
0.0
 10
340.2569478063149
 20
108.6988450309216
 30
0.0
 10
340.2408610685289
 20
108.6809124197302
 30
0.0
 10
340.2218563096393
 20
108.6590988061626
 30
0.0
 10
340.2018957090548
 20
108.635432304321
 30
0.0
 10
340.1834942521447
 20
108.6129655911973
 30
0.0
 10
340.1660501822406
 20
108.5910447371902
 30
0.0
 10
340.1508497993217
 20
108.5713905252761
 30
0.0
 10
340.1373544210411
 20
108.5535370364747
 30
0.0
 10
340.1245128558322
 20
108.5362012240305
 30
0.0
 10
340.1116312158467
 20
108.5183925125988
 30
0.0
 10
340.1002969545597
 20
108.5023685761997
 30
0.0
 10
340.0892700506731
 20
108.4865057093046
 30
0.0
 10
340.0771206103012
 20
108.468676960614
 30
0.0
 10
340.0624164562757
 20
108.4465405966482
 30
0.0
 10
340.0477640483737
 20
108.4238374147059
 30
0.0
 10
340.0329912207868
 20
108.4002833480578
 30
0.0
 10
340.0180466423031
 20
108.3757812067606
 30
0.0
 10
340.0027983074341
 20
108.3499711130299
 30
0.0
 10
339.9862683729116
 20
108.3210562043028
 30
0.0
 10
339.9704575502976
 20
108.2923948255135
 30
0.0
 10
339.955462328259
 20
108.2641813497987
 30
0.0
 10
339.9431448579742
 20
108.2402516829662
 30
0.0
 10
339.9331339992254
 20
108.220276596923
 30
0.0
 10
339.9253846160217
 20
108.2044631317071
 30
0.0
 10
339.9192785996504
 20
108.1917862330708
 30
0.0
 10
339.9139686663556
 20
108.1806146932658
 30
0.0
 10
339.9082618421523
 20
108.1684394038215
 30
0.0
 10
339.9019078827336
 20
108.1546582732083
 30
0.0
 10
339.8950091377849
 20
108.1394187529988
 30
0.0
 10
339.8876635075883
 20
108.1228656657
 30
0.0
 10
339.8802004161908
 20
108.1056739127287
 30
0.0
 10
339.8734483864143
 20
108.0897683078824
 30
0.0
 10
339.8674374237377
 20
108.0753367853266
 30
0.0
 10
339.8612832341267
 20
108.0603076335848
 30
0.0
 10
339.8537974272172
 20
108.0416367032481
 30
0.0
 10
339.8454089576856
 20
108.0201254380536
 30
0.0
 10
339.8372210231942
 20
107.9984820561703
 30
0.0
 10
339.8300541354616
 20
107.9790075197688
 30
0.0
 10
339.8234469385467
 20
107.9606095073973
 30
0.0
 10
339.8168551310927
 20
107.9417972958836
 30
0.0
 10
339.8103084908669
 20
107.9226010008792
 30
0.0
 10
339.8042814202239
 20
107.9044459582817
 30
0.0
 10
339.7989551888861
 20
107.8880126755525
 30
0.0
 10
339.7940793244216
 20
107.8726329647884
 30
0.0
 10
339.7893185781984
 20
107.8572849744277
 30
0.0
 10
339.7841776298918
 20
107.8403359489351
 30
0.0
 10
339.7787496981097
 20
107.8219634489228
 30
0.0
 10
339.7728137364938
 20
107.801270981856
 30
0.0
 10
339.7669305910142
 20
107.7800978639419
 30
0.0
 10
339.7614188683726
 20
107.7595723469504
 30
0.0
 10
339.7568602077532
 20
107.7420678749527
 30
0.0
 10
339.7530407685159
 20
107.7270334231886
 30
0.0
 10
339.7494567446482
 20
107.7126046921867
 30
0.0
 10
339.7450197684294
 20
107.6942995741378
 30
0.0
 10
339.7402752671903
 20
107.6740429529125
 30
0.0
 10
339.7351535953022
 20
107.6513102788533
 30
0.0
 10
339.7301922917915
 20
107.6284409808623
 30
0.0
 10
339.7251077408472
 20
107.6039487216918
 30
0.0
 10
339.7200670554743
 20
107.578495524787
 30
0.0
 10
339.715377527707
 20
107.5536302546767
 30
0.0
 10
339.7107655732831
 20
107.5279395770292
 30
0.0
 10
339.7064223659838
 20
107.5024348665821
 30
0.0
 10
339.7025325426555
 20
107.4782624013983
 30
0.0
 10
339.6992267166103
 20
107.4566461724163
 30
0.0
 10
339.6961708006734
 20
107.4357132310571
 30
0.0
 10
339.6927153493514
 20
107.4107666048141
 30
0.0
 10
339.6889869993542
 20
107.3818618352425
 30
0.0
 10
339.6853359779624
 20
107.350982399951
 30
0.0
 10
339.6822271350103
 20
107.3222530037957
 30
0.0
 10
339.6794856747991
 20
107.2947012350741
 30
0.0
 10
339.6768500592874
 20
107.2656736490239
 30
0.0
 10
339.6747947133348
 20
107.2402458919583
 30
0.0
 10
339.6732913884962
 20
107.2197350135677
 30
0.0
 10
339.6723797581662
 20
107.2065186321059
 30
0.0
 10
339.6716221590651
 20
107.194893592907
 30
0.0
 10
339.6709958255897
 20
107.1847716919589
 30
0.0
 10
339.6703958766133
 20
107.1746100634621
 30
0.0
 10
339.6697332426888
 20
107.1627620016598
 30
0.0
 10
339.6689419109566
 20
107.1475021597003
 30
0.0
 10
339.6680461523087
 20
107.1283392023097
 30
0.0
 10
339.6670930021799
 20
107.1045933658766
 30
0.0
 10
339.6661369186696
 20
107.0755252222218
 30
0.0
 10
339.6656973127461
 20
107.0543165449762
 30
0.0
 10
339.6654558602548
 20
107.0426677302421
 30
0.0
  0
LINE
  5
E2
330
1F
100
AcDbEntity
  8
0
  6
Continuous
 62
     7
370
    30
100
AcDbLine
 10
355.8812971298
 20
117.8261971906
 30
0.0
 11
340.7197062523
 21
109.0735970813
 31
0.0
  0
LINE
  5
E3
330
1F
100
AcDbEntity
  8
0
  6
Continuous
 62
     7
370
    30
100
AcDbLine
 10
339.6653050408
 20
107.042748886
 30
0.0
 11
339.6641512147
 21
106.9777660449
 31
0.0
  0
SPLINE
  5
E4
330
1F
100
AcDbEntity
  8
0
  6
Continuous
 62
     7
370
    30
100
AcDbSpline
210
0.0
220
0.0
230
1.0
 70
     8
 71
     3
 72
    73
 73
    69
 74
     0
 42
0.000000001
 43
0.00000001
 40
0.0
 40
0.0
 40
0.0
 40
0.0
 40
0.0163543663037178
 40
0.0294453859357084
 40
0.0399478648200889
 40
0.0483003206301683
 40
0.0547793553964916
 40
0.0601345088822906
 40
0.0658085700622644
 40
0.0831965717749411
 40
0.1018417264753801
 40
0.1129642807940855
 40
0.1228690239817442
 40
0.1314660624133871
 40
0.1415064532512401
 40
0.1539948500804788
 40
0.1660690191950281
 40
0.1795048686232893
 40
0.1906376138607232
 40
0.2009930711316706
 40
0.2108299478504839
 40
0.2231017030650041
 40
0.2378667450971648
 40
0.25073672778407
 40
0.2631155830992166
 40
0.2857910972830218
 40
0.303231544151275
 40
0.3229553596223225
 40
0.3453176870849694
 40
0.3609849848855347
 40
0.3789598053630484
 40
0.4003596848511984
 40
0.4118767228459099
 40
0.4221311040113009
 40
0.4322626891161698
 40
0.4433161095349057
 40
0.4570219079863224
 40
0.4759470996222716
 40
0.4917376377004707
 40
0.5052689886362388
 40
0.5138552207196623
 40
0.5232231750297095
 40
0.5336629621396887
 40
0.5458953382545088
 40
0.5592158341857454
 40
0.5701799182157693
 40
0.5789123547249186
 40
0.5874655279680345
 40
0.5974834773144848
 40
0.6102727019802827
 40
0.6233316601594837
 40
0.6348749423413919
 40
0.6449151582871625
 40
0.6538802688508268
 40
0.6729803459612473
 40
0.6962375329238578
 40
0.7129956098586707
 40
0.7316216459182049
 40
0.7526350586073556
 40
0.7735209844800387
 40
0.8348120639934004
 40
0.8956661712469701
 40
0.9222600601653278
 40
0.9486245453809891
 40
0.9585603740413843
 40
0.9687120771389023
 40
0.9823766722987922
 40
1.0
 40
1.0
 40
1.0
 40
1.0
 10
339.6639924916063
 20
106.9776664266306
 30
0.0
 10
339.6638433867757
 20
106.9705941081046
 30
0.0
 10
339.6635749294597
 20
106.9578606799431
 30
0.0
 10
339.6629998610856
 20
106.9411841798508
 30
0.0
 10
339.662451899807
 20
106.9281095114074
 30
0.0
 10
339.6619545721285
 20
106.917897072323
 30
0.0
 10
339.6615193712397
 20
106.909816706455
 30
0.0
 10
339.6611110466699
 20
106.9027875258511
 30
0.0
 10
339.6604067090007
 20
106.8914394255437
 30
0.0
 10
339.6592460832183
 20
106.8749665216218
 30
0.0
 10
339.6577203726778
 20
106.856746137118
 30
0.0
 10
339.6562936844929
 20
106.841704713019
 30
0.0
 10
339.6551581631329
 20
106.8306594389624
 30
0.0
 10
339.654004558933
 20
106.8201563854076
 30
0.0
 10
339.6526690230976
 20
106.8087447608868
 30
0.0
 10
339.6510942900637
 20
106.7962389253707
 30
0.0
 10
339.6492728581221
 20
106.7828150638183
 30
0.0
 10
339.6474277792528
 20
106.7701699885944
 30
0.0
 10
339.6455850572266
 20
106.7583458204222
 30
0.0
 10
339.6438659821158
 20
106.7479055347201
 30
0.0
 10
339.6420227826996
 20
106.7372528568881
 30
0.0
 10
339.6398422510662
 20
106.7252969249444
 30
0.0
 10
339.6373966183918
 20
106.7126925790095
 30
0.0
 10
339.634855458773
 20
106.7003585891508
 30
0.0
 10
339.6317024903619
 20
106.6858450108745
 30
0.0
 10
339.6281338559953
 20
106.6705505441632
 30
0.0
 10
339.6239598668417
 20
106.653959767595
 30
0.0
 10
339.6196111281583
 20
106.6378070871688
 30
0.0
 10
339.6153183823371
 20
106.6230027107039
 30
0.0
 10
339.6110824996654
 20
106.6092876476017
 30
0.0
 10
339.6068011045184
 20
106.5961436572412
 30
0.0
 10
339.6024278412964
 20
106.5835801182527
 30
0.0
 10
339.5990959098051
 20
106.5745130774069
 30
0.0
 10
339.5968946585784
 20
106.5686918789327
 30
0.0
 10
339.594503695928
 20
106.562532123018
 30
0.0
 10
339.5917329839262
 20
106.555615079391
 30
0.0
 10
339.5883026315139
 20
106.5473536739768
 30
0.0
 10
339.5845275857655
 20
106.5386711576931
 30
0.0
 10
339.5807844002204
 20
106.5304640934915
 30
0.0
 10
339.5778736823857
 20
106.5243317489894
 30
0.0
 10
339.575479804575
 20
106.5194351194707
 30
0.0
 10
339.5733408259942
 20
106.5151634788482
 30
0.0
 10
339.570955035328
 20
106.5105220830887
 30
0.0
 10
339.568303143288
 20
106.5055144905952
 30
0.0
 10
339.5656599548612
 20
106.5006873054291
 30
0.0
 10
339.5633214283349
 20
106.4965475324899
 30
0.0
 10
339.5613488701983
 20
106.4931423699362
 30
0.0
 10
339.559488258317
 20
106.4900002652541
 30
0.0
 10
339.5573869509031
 20
106.4865333202682
 30
0.0
 10
339.555006357249
 20
106.4827174547917
 30
0.0
 10
339.5525952460961
 20
106.4789771885691
 30
0.0
 10
339.5504270825658
 20
106.4757156875964
 30
0.0
 10
339.5485692051889
 20
106.4729946578917
 30
0.0
 10
339.5463051112244
 20
106.4697569057558
 30
0.0
 10
339.543417862019
 20
106.4657655487127
 30
0.0
 10
339.5400314057857
 20
106.4613397646189
 30
0.0
 10
339.5373407679747
 20
106.4579912801792
 30
0.0
 10
339.5346444473076
 20
106.4547685439559
 30
0.0
 10
339.5320272166681
 20
106.4517988115905
 30
0.0
 10
339.5279116759954
 20
106.4473606856596
 30
0.0
 10
339.523135671553
 20
106.4427693429242
 30
0.0
 10
339.5195000545198
 20
106.439782866788
 30
0.0
 10
339.517230177247
 20
106.4381000248241
 30
0.0
 10
339.5159791175731
 20
106.4372406613029
 30
0.0
 10
339.5152355419015
 20
106.4367538344925
 30
0.0
 10
339.5147857289009
 20
106.4364638786436
 30
0.0
 10
339.5139044029085
 20
106.4359126636066
 30
0.0
 10
339.5132122672993
 20
106.4355097603289
 30
0.0
 10
339.5128224129548
 20
106.4352828198406
 30
0.0
  0
SPLINE
  5
E5
330
1F
100
AcDbEntity
  8
0
  6
Continuous
 62
     7
370
    30
100
AcDbSpline
210
0.0
220
0.0
230
1.0
 70
     8
 71
     3
 72
    78
 73
    74
 74
     0
 42
0.000000001
 43
0.00000001
 40
0.0
 40
0.0
 40
0.0
 40
0.0
 40
0.0080075469107287
 40
0.0137779542485858
 40
0.0230623384337747
 40
0.0333221108938623
 40
0.0446758711185648
 40
0.0567564732451399
 40
0.0693926533333857
 40
0.0824533450885653
 40
0.0958473386328985
 40
0.1095083876209138
 40
0.123387254003281
 40
0.1374463270181057
 40
0.151655582747165
 40
0.1659911013790515
 40
0.1804330573463417
 40
0.194964647422103
 40
0.2095713449253287
 40
0.2242403970077795
 40
0.2389604901374885
 40
0.253721531490306
 40
0.2685145080390953
 40
0.2833313950856919
 40
0.2981650934885225
 40
0.3130093808011454
 40
0.3278588664094447
 40
0.3427089446905701
 40
0.3575557432990294
 40
0.3723960659333956
 40
0.3872273304465416
 40
0.4020475040138606
 40
0.4168550374185047
 40
0.4316488004829235
 40
0.4464280204080229
 40
0.4611922243918247
 40
0.4759411874678859
 40
0.4906748860969844
 40
0.5053934576913324
 40
0.5200971659706218
 40
0.534786371842159
 40
0.5494615093586521
 40
0.5641230662293123
 40
0.5787715683246907
 40
0.5934075676182049
 40
0.6080316330327951
 40
0.62264434370168
 40
0.6372462842020117
 40
0.6518380413731741
 40
0.6664202023839481
 40
0.6809933537630268
 40
0.6955580811527767
 40
0.7101149695879136
 40
0.7246646041356433
 40
0.7392075707660565
 40
0.7537444573464402
 40
0.7682758546763858
 40
0.7828023574987542
 40
0.797324565436376
 40
0.811843083817088
 40
0.8263585243602797
 40
0.8408715057060984
 40
0.855382653775422
 40
0.8698926019544839
 40
0.8844019911026498
 40
0.8989114693853499
 40
0.9134216919380224
 40
0.9279333203690999
 40
0.9424470221132301
 40
0.9569634696469975
 40
0.9714833395827318
 40
0.986007085339947
 40
1.0
 40
1.0
 40
1.0
 40
1.0
 10
360.5292887007467
 20
116.4103497299935
 30
0.0
 10
360.5220087523431
 20
116.4228702969337
 30
0.0
 10
360.5094827194449
 20
116.4444134487118
 30
0.0
 10
360.4880729396536
 20
116.4802120384122
 30
0.0
 10
360.4641931816392
 20
116.5192766900975
 30
0.0
 10
360.4343999553175
 20
116.5665535148157
 30
0.0
 10
360.4011535176886
 20
116.6176187998035
 30
0.0
 10
360.3646881171523
 20
116.6716983001126
 30
0.0
 10
360.32554354193
 20
116.7276704542958
 30
0.0
 10
360.2840238592787
 20
116.784850588314
 30
0.0
 10
360.2403573693807
 20
116.8427277024794
 30
0.0
 10
360.1947099079846
 20
116.9009241105531
 30
0.0
 10
360.1472075968879
 20
116.9591500292571
 30
0.0
 10
360.0979505403474
 20
117.0171754994086
 30
0.0
 10
360.0470213391489
 20
117.0748127669058
 30
0.0
 10
359.9944910637882
 20
117.131904206278
 30
0.0
 10
359.9404226431204
 20
117.188314884065
 30
0.0
 10
359.8848740398067
 20
117.243926561351
 30
0.0
 10
359.8279000520606
 20
117.2986340136304
 30
0.0
 10
359.7695535030156
 20
117.3523425164898
 30
0.0
 10
359.7098859685086
 20
117.4049661425065
 30
0.0
 10
359.6489481751643
 20
117.4564265989946
 30
0.0
 10
359.5867901690975
 20
117.5066524163868
 30
0.0
 10
359.5234613349858
 20
117.5555783525457
 30
0.0
 10
359.4590103292487
 20
117.6031449195627
 30
0.0
 10
359.3934849771077
 20
117.6492979712107
 30
0.0
 10
359.3269321704007
 20
117.6939883135324
 30
0.0
 10
359.2593977910752
 20
117.7371713193303
 30
0.0
 10
359.1909266746608
 20
117.7788065403354
 30
0.0
 10
359.1215626191271
 20
117.8188573192892
 30
0.0
 10
359.0513484376993
 20
117.8572904088495
 30
0.0
 10
358.9803260494882
 20
117.894075605977
 30
0.0
 10
358.9085365990611
 20
117.929185410144
 30
0.0
 10
358.8360205950261
 20
117.96259471212
 30
0.0
 10
358.7628180579066
 20
117.9942805178939
 30
0.0
 10
358.6889686686608
 20
118.0242217099798
 30
0.0
 10
358.6145119107475
 20
118.0523988462501
 30
0.0
 10
358.539487200387
 20
118.0787939947323
 30
0.0
 10
358.4639340013633
 20
118.1033906015523
 30
0.0
 10
358.3878919222493
 20
118.1261733884125
 30
0.0
 10
358.3114007952192
 20
118.1471282755877
 30
0.0
 10
358.2345007366161
 20
118.1662423263362
 30
0.0
 10
358.1572321901872
 20
118.1835037087741
 30
0.0
 10
358.0796359543981
 20
118.1989016715664
 30
0.0
 10
358.0017531955396
 20
118.2124265301921
 30
0.0
 10
357.9236254484832
 20
118.2240696609791
 30
0.0
 10
357.8452946069592
 20
118.2338235005589
 30
0.0
 10
357.7668029051711
 20
118.2416815488111
 30
0.0
 10
357.6881928924336
 20
118.2476383737631
 30
0.0
 10
357.609507402369
 20
118.2516896172518
 30
0.0
 10
357.530789518023
 20
118.2538320004525
 30
0.0
 10
357.4520825340844
 20
118.2540633286256
 30
0.0
 10
357.3734299172249
 20
118.2523824946411
 30
0.0
 10
357.2948752654122
 20
118.2487894810008
 30
0.0
 10
357.2164622669054
 20
118.2432853602126
 30
0.0
 10
357.1382346595105
 20
118.235872293468
 30
0.0
 10
357.0602361905595
 20
118.2265535276526
 30
0.0
 10
356.9825105779724
 20
118.215333390777
 30
0.0
 10
356.9051014726876
 20
118.2022172859395
 30
0.0
 10
356.8280524226335
 20
118.187211684023
 30
0.0
 10
356.7514068384935
 20
118.1703241150952
 30
0.0
 10
356.6752079609279
 20
118.1515631594264
 30
0.0
 10
356.5994988308845
 20
118.1309384355409
 30
0.0
 10
356.5243222570693
 20
118.108460595765
 30
0.0
 10
356.4497208026895
 20
118.084141291047
 30
0.0
 10
356.3757367088083
 20
118.0579932484572
 30
0.0
 10
356.3024120625274
 20
118.0300299268836
 30
0.0
 10
356.2297880592712
 20
118.0002667464411
 30
0.0
 10
356.1579076538645
 20
117.968716443802
 30
0.0
 10
356.0868055686187
 20
117.935406355144
 30
0.0
 10
356.0165458705932
 20
117.9003140238855
 30
0.0
 10
355.9479361025722
 20
117.8640591110801
 30
0.0
 10
355.9032327398089
 20
117.8386602326415
 30
0.0
 10
355.8812971298528
 20
117.8261971905724
 30
0.0
  0
SPLINE
  5
E6
330
1F
100
AcDbEntity
  8
0
  6
Continuous
 62
     7
370
    30
100
AcDbSpline
210
0.0
220
0.0
230
1.0
 70
     8
 71
     3
 72
    33
 73
    29
 74
     0
 42
0.000000001
 43
0.00000001
 40
0.0
 40
0.0
 40
0.0
 40
0.0
 40
0.0254704170704488
 40
0.0748394894311326
 40
0.124518325842281
 40
0.1745231790006326
 40
0.2196731787606282
 40
0.2648970449956435
 40
0.3101795617180082
 40
0.3555071066849436
 40
0.4008644666880392
 40
0.4462347287106645
 40
0.4915989547323465
 40
0.5369354523738902
 40
0.5822182995389805
 40
0.6274144620256819
 40
0.6724775716435072
 40
0.7173360688386775
 40
0.7618697598844933
 40
0.8058418587303654
 40
0.8487012031190163
 40
0.888785724278519
 40
0.9213662602420118
 40
0.9443998988850986
 40
0.9606856340140011
 40
0.9722008560368277
 40
0.9803431598127262
 40
0.9999999999999999
 40
0.9999999999999999
 40
0.9999999999999999
 40
0.9999999999999999
 10
361.0383693028441
 20
114.73901135895
 30
0.0
 10
361.037524228013
 20
114.7539138441418
 30
0.0
 10
361.0350411525018
 20
114.7977016776871
 30
0.0
 10
361.0286288813551
 20
114.870416496286
 30
0.0
 10
361.0192552455871
 20
114.9572936683208
 30
0.0
 10
361.0080080242566
 20
115.041478501203
 30
0.0
 10
360.9952697221134
 20
115.1228229460987
 30
0.0
 10
360.9812571073058
 20
115.2011663217155
 30
0.0
 10
360.9655426336536
 20
115.279314151769
 30
0.0
 10
360.9481392675424
 20
115.3572074302102
 30
0.0
 10
360.9290656949026
 20
115.4347869300845
 30
0.0
 10
360.9083432492034
 20
115.5119911018922
 30
0.0
 10
360.8859973181598
 20
115.5887555635218
 30
0.0
 10
360.862057819515
 20
115.6650118305391
 30
0.0
 10
360.836560666489
 20
115.7406847158079
 30
0.0
 10
360.809550586185
 20
115.8156868476686
 30
0.0
 10
360.7810868702718
 20
115.8899078131289
 30
0.0
 10
360.7512550868821
 20
115.9631927502788
 30
0.0
 10
360.7201958968781
 20
116.0352888884084
 30
0.0
 10
360.6881858683544
 20
116.1056957255251
 30
0.0
 10
360.6559331479284
 20
116.1731137843157
 30
0.0
 10
360.6254349618127
 20
116.2339319684909
 30
0.0
 10
360.5993525578265
 20
116.2838987756733
 30
0.0
 10
360.579289781018
 20
116.3211937835713
 30
0.0
 10
360.5648743463633
 20
116.3474372438594
 30
0.0
 10
360.5545644380788
 20
116.3659282702729
 30
0.0
 10
360.5432058705905
 20
116.3861079920906
 30
0.0
 10
360.5350533601122
 20
116.4003085101906
 30
0.0
 10
360.5292887007467
 20
116.4103497299935
 30
0.0
  0
SPLINE
  5
E7
330
1F
100
AcDbEntity
  8
0
  6
Continuous
 62
     7
370
    30
100
AcDbSpline
210
0.0
220
0.0
230
1.0
 70
     8
 71
     3
 72
   170
 73
   166
 74
     0
 42
0.000000001
 43
0.00000001
 40
0.0
 40
0.0
 40
0.0
 40
0.0
 40
0.006421516484939
 40
0.0090731903815782
 40
0.0134706708139017
 40
0.0180468081581292
 40
0.0229633101310187
 40
0.0281006923737099
 40
0.0334106824502904
 40
0.0388547859232312
 40
0.04440565140577
 40
0.0500430371625063
 40
0.0557516841488683
 40
0.0615198644833352
 40
0.0673384066183769
 40
0.0732000249802472
 40
0.079098850115036
 40
0.0850300931917047
 40
0.0909898022409283
 40
0.0969746821621881
 40
0.1029819598184957
 40
0.1090092815220247
 40
0.1150546341381688
 40
0.1211162836514321
 40
0.1271927268082098
 40
0.1332826526699445
 40
0.1393849117615566
 40
0.1454984911004493
 40
0.1516224938234376
 40
0.1577561224397936
 40
0.1638986649702355
 40
0.1700494833981478
 40
0.1762080039898035
 40
0.1823737091335909
 40
0.1885461304232942
 40
0.1947248427656239
 40
0.2009094593363256
 40
0.2070996272431921
 40
0.2132950237804296
 40
0.2194953531809467
 40
0.2257003437894234
 40
0.2319097455919348
 40
0.2381233280503362
 40
0.2443408781968114
 40
0.2505621989518253
 40
0.256787107635311
 40
0.2630154346439754
 40
0.2692470222733122
 40
0.2754817236656582
 40
0.281719401867566
 40
0.2879599289835206
 40
0.2942031854136605
 40
0.3004490591656983
 40
0.3066974452318378
 40
0.3129482450235447
 40
0.31920136585715
 40
0.3254567204845282
 40
0.3317142266640443
 40
0.3379738067669187
 40
0.3442353874154498
 40
0.3504988991494594
 40
0.3567642761178088
 40
0.3630314557926969
 40
0.3693003787037152
 40
0.3755709881899723
 40
0.3818432301684103
 40
0.3881170529161637
 40
0.394392406865917
 40
0.4006692444125334
 40
0.4069475197299855
 40
0.4132271885972791
 40
0.4195082082325186
 40
0.4257905371340202
 40
0.4320741349278927
 40
0.438358962221254
 40
0.444644980460388
 40
0.4509321517932221
 40
0.457220438935792
 40
0.4635098050421494
 40
0.4698002135770371
 40
0.4760916281914842
 40
0.482384012600616
 40
0.4886773304635719
 40
0.494971545265307
 40
0.5012666202003675
 40
0.5075625180579332
 40
0.5138592011088696
 40
0.5201566309942373
 40
0.5264547686154087
 40
0.53275357402617
 40
0.5390530063267558
 40
0.5453530161529093
 40
0.5516535535776514
 40
0.5579545733706588
 40
0.5642560288633068
 40
0.5705578719154987
 40
0.5768600528293524
 40
0.5831625202690387
 40
0.5894652211867213
 40
0.5957681007552222
 40
0.6020711023087639
 40
0.6083741672925548
 40
0.6146772352221404
 40
0.6209802436540431
 40
0.6272831281684976
 40
0.6335858223659808
 40
0.6398882578785628
 40
0.6461903643975175
 40
0.6524920697189668
 40
0.6587932998086864
 40
0.6650939788875445
 40
0.6713940295394877
 40
0.6776933728430182
 40
0.6839919285280743
 40
0.6902896151593233
 40
0.6965863503473094
 40
0.7028820509887652
 40
0.7091766335366566
 40
0.7154700143013365
 40
0.7217621097830288
 40
0.7280528370361674
 40
0.7343421140656196
 40
0.7406298602545761
 40
0.746915996823498
 40
0.7532004473192856
 40
0.7594831381329272
 40
0.7657639990442536
 40
0.7720429637913541
 40
0.7783199706616435
 40
0.7845949631019967
 40
0.7908678903435682
 40
0.7971387080377093
 40
0.8034073788982026
 40
0.8096738733445955
 40
0.8159381701416286
 40
0.8222002570286455
 40
0.8284601313334369
 40
0.8347178005635284
 40
0.8409732829694306
 40
0.8472266080723568
 40
0.8534778171508456
 40
0.8597269636790826
 40
0.8659741137111662
 40
0.8722193462049951
 40
0.8784627532804054
 40
0.8847044404059259
 40
0.8909445265095721
 40
0.8971831440097201
 40
0.9034204387619523
 40
0.9096565699196546
 40
0.915891709705706
 40
0.9221260430943746
 40
0.9283597674026078
 40
0.9345930917911768
 40
0.9408262366769934
 40
0.9470594330582925
 40
0.9532929217559154
 40
0.9595269525740251
 40
0.965761783385076
 40
0.9719976791439212
 40
0.9782349108373642
 40
0.9844737543752397
 40
0.9907144894309189
 40
0.9969573982382236
 40
1.0
 40
1.0
 40
1.0
 40
1.0
 10
380.1764499938085
 20
110.7275385974692
 30
0.0
 10
380.1438517504906
 20
110.7837995622092
 30
0.0
 10
380.0977925262526
 20
110.8632926921161
 30
0.0
 10
380.0287500784337
 20
110.9809205961217
 30
0.0
 10
379.9688680415526
 20
111.0822522425868
 30
0.0
 10
379.8968236419733
 20
111.2030147760058
 30
0.0
 10
379.8204062512654
 20
111.3298655839177
 30
0.0
 10
379.7395612267853
 20
111.4626857570606
 30
0.0
 10
379.655307542734
 20
111.5996357036943
 30
0.0
 10
379.5681994203762
 20
111.7396834896447
 30
0.0
 10
379.4786580952068
 20
111.8820475464119
 30
0.0
 10
379.3869922018995
 20
112.0261524520503
 30
0.0
 10
379.2934351877775
 20
112.1715616591662
 30
0.0
 10
379.1981673470921
 20
112.317937059127
 30
0.0
 10
379.1013308361319
 20
112.4650115063701
 30
0.0
 10
379.0030398964697
 20
112.6125700391189
 30
0.0
 10
378.9033879750115
 20
112.760436773447
 30
0.0
 10
378.8024527731177
 20
112.9084655820228
 30
0.0
 10
378.7002998918081
 20
113.0565333458272
 30
0.0
 10
378.5969855068748
 20
113.2045349869092
 30
0.0
 10
378.4925583622349
 20
113.3523797557556
 30
0.0
 10
378.3870612762318
 20
113.4999884169649
 30
0.0
 10
378.2805322946828
 20
113.6472910879996
 30
0.0
 10
378.1730055840646
 20
113.7942255595136
 30
0.0
 10
378.0645121310131
 20
113.9407359754927
 30
0.0
 10
377.9550802956923
 20
114.0867717855397
 30
0.0
 10
377.8447362536573
 20
114.2322869053399
 30
0.0
 10
377.7335043517285
 20
114.3772390380726
 30
0.0
 10
377.6214073969074
 20
114.5215891214657
 30
0.0
 10
377.5084668926683
 20
114.6653008738502
 30
0.0
 10
377.3947032335454
 20
114.8083404188717
 30
0.0
 10
377.2801358663946
 20
114.9506759732144
 30
0.0
 10
377.1647834248376
 20
115.0922775851658
 30
0.0
 10
377.0486638419626
 20
115.2331169145049
 30
0.0
 10
376.9317944452894
 20
115.3731670461864
 30
0.0
 10
376.8141920371697
 20
115.512402331845
 30
0.0
 10
376.6958729631641
 20
115.6507982543304
 30
0.0
 10
376.5768531704334
 20
115.788331311411
 30
0.0
 10
376.4571482577976
 20
115.9249789155198
 30
0.0
 10
376.336773518805
 20
116.0607193069873
 30
0.0
 10
376.2157439789137
 20
116.1955314786665
 30
0.0
 10
376.0940744276873
 20
116.3293951102257
 30
0.0
 10
375.9717794467589
 20
116.4622905106742
 30
0.0
 10
375.8488734341802
 20
116.5941985679322
 30
0.0
 10
375.7253706256769
 20
116.7251007044489
 30
0.0
 10
375.6012851132479
 20
116.8549788380272
 30
0.0
 10
375.4766308614713
 20
116.9838153471541
 30
0.0
 10
375.3514217218303
 20
117.1115930402351
 30
0.0
 10
375.2256714453204
 20
117.2382951282259
 30
0.0
 10
375.0993936935612
 20
117.3639052002279
 30
0.0
 10
374.9726020486073
 20
117.4884072016751
 30
0.0
 10
374.8453100216196
 20
117.6117854147963
 30
0.0
 10
374.7175310605402
 20
117.7340244410736
 30
0.0
 10
374.5892785568931
 20
117.8551091854656
 30
0.0
 10
374.4605658518155
 20
117.9750248421854
 30
0.0
 10
374.3314062414136
 20
118.0937568818566
 30
0.0
 10
374.2018129815212
 20
118.2112910398924
 30
0.0
 10
374.0717992919334
 20
118.3276133059595
 30
0.0
 10
373.9413783601759
 20
118.4427099144115
 30
0.0
 10
373.8105633448646
 20
118.5565673355839
 30
0.0
 10
373.6793673787032
 20
118.6691722678619
 30
0.0
 10
373.5478035711615
 20
118.7805116304394
 30
0.0
 10
373.415885010872
 20
118.890572556697
 30
0.0
 10
373.2836247677793
 20
118.9993423881376
 30
0.0
 10
373.1510358950704
 20
119.1068086688239
 30
0.0
 10
373.0181314309153
 20
119.2129591402673
 30
0.0
 10
372.8849244000393
 20
119.3177817367269
 30
0.0
 10
372.7514278151525
 20
119.421264580877
 30
0.0
 10
372.6176546782519
 20
119.5233959798117
 30
0.0
 10
372.4836179818183
 20
119.6241644213546
 30
0.0
 10
372.3493307099198
 20
119.7235585706474
 30
0.0
 10
372.2148058392411
 20
119.8215672669932
 30
0.0
 10
372.0800563400485
 20
119.9181795209336
 30
0.0
 10
371.9450951771046
 20
120.0133845115417
 30
0.0
 10
371.8099353105435
 20
120.1071715839145
 30
0.0
 10
371.6745896967169
 20
120.1995302468503
 30
0.0
 10
371.5390712890196
 20
120.2904501706982
 30
0.0
 10
371.4033930387041
 20
120.3799211853721
 30
0.0
 10
371.2675678956901
 20
120.4679332785162
 30
0.0
 10
371.1316088093778
 20
120.5544765938178
 30
0.0
 10
370.9955287294696
 20
120.6395414294598
 30
0.0
 10
370.8593406068054
 20
120.723118236708
 30
0.0
 10
370.7230573942185
 20
120.8051976186294
 30
0.0
 10
370.5866920474117
 20
120.8857703289408
 30
0.0
 10
370.450257525861
 20
120.9648272709824
 30
0.0
 10
370.3137667937468
 20
121.0423594968196
 30
0.0
 10
370.1772328209145
 20
121.1183582064698
 30
0.0
 10
370.040668583866
 20
121.192814747258
 30
0.0
 10
369.9040870667812
 20
121.2657206133004
 30
0.0
 10
369.7675012625688
 20
121.3370674451203
 30
0.0
 10
369.6309242274742
 20
121.4068470020488
 30
0.0
 10
369.494369077805
 20
121.475051167671
 30
0.0
 10
369.3578489478935
 20
121.5416719740287
 30
0.0
 10
369.221376938291
 20
121.6067016265035
 30
0.0
 10
369.0849661214681
 20
121.6701324991536
 30
0.0
 10
368.9486295861566
 20
121.7319571136796
 30
0.0
 10
368.8123804380353
 20
121.7921681403202
 30
0.0
 10
368.6762318008011
 20
121.8507583987115
 30
0.0
 10
368.5401968172002
 20
121.9077208589181
 30
0.0
 10
368.404288650008
 20
121.9630486426376
 30
0.0
 10
368.2685204829449
 20
122.0167350245804
 30
0.0
 10
368.1329055215101
 20
122.0687734340281
 30
0.0
 10
367.9974569937174
 20
122.1191574565721
 30
0.0
 10
367.8621881507144
 20
122.1678808360319
 30
0.0
 10
367.7271122672634
 20
122.2149374765519
 30
0.0
 10
367.5922426420655
 20
122.2603214448758
 30
0.0
 10
367.4575925979047
 20
122.304026972792
 30
0.0
 10
367.3231754815889
 20
122.346048459745
 30
0.0
 10
367.1890046636649
 20
122.386380475605
 30
0.0
 10
367.0550935378835
 20
122.4250177635834
 30
0.0
 10
366.9214555203904
 20
122.461955243282
 30
0.0
 10
366.7881040486209
 20
122.497188013859
 30
0.0
 10
366.6550525798716
 20
122.5307113572937
 30
0.0
 10
366.5223145895307
 20
122.562520741727
 30
0.0
 10
366.3899035689433
 20
122.592611824853
 30
0.0
 10
366.2578330228944
 20
122.6209804573333
 30
0.0
 10
366.1261164666909
 20
122.6476226862017
 30
0.0
 10
365.9947674228308
 20
122.6725347582255
 30
0.0
 10
365.8637994172475
 20
122.6957131231847
 30
0.0
 10
365.7332259751223
 20
122.7171544370292
 30
0.0
 10
365.6030606162645
 20
122.7368555648693
 30
0.0
 10
365.4733168500607
 20
122.7548135837552
 30
0.0
 10
365.3440081700017
 20
122.7710257851973
 30
0.0
 10
365.2151480478008
 20
122.7854896773776
 30
0.0
 10
365.0867499271262
 20
122.7982029870041
 30
0.0
 10
364.9588272169707
 20
122.8091636607565
 30
0.0
 10
364.831393284698
 20
122.8183698662746
 30
0.0
 10
364.704461448802
 20
122.8258199926425
 30
0.0
 10
364.5780449714301
 20
122.831512650321
 30
0.0
 10
364.4521570507264
 20
122.8354466704874
 30
0.0
 10
364.3268108130533
 20
122.8376211037442
 30
0.0
 10
364.2020193051643
 20
122.8380352181631
 30
0.0
 10
364.0777954863973
 20
122.8366884966381
 30
0.0
 10
363.9541522209716
 20
122.833580633528
 30
0.0
 10
363.8311022704699
 20
122.8287115305749
 30
0.0
 10
363.7086582865901
 20
122.8220812920977
 30
0.0
 10
363.586832804259
 20
122.8136902194649
 30
0.0
 10
363.4656382351923
 20
122.8035388048641
 30
0.0
 10
363.3450868619949
 20
122.7916277243949
 30
0.0
 10
363.2251908328824
 20
122.7779578305215
 30
0.0
 10
363.1059621571121
 20
122.7625301439347
 30
0.0
 10
362.9874127011973
 20
122.7453458448816
 30
0.0
 10
362.8695541859805
 20
122.7264062640323
 30
0.0
 10
362.7523981846263
 20
122.705712872964
 30
0.0
 10
362.6359561215922
 20
122.6832672743496
 30
0.0
 10
362.5202392726201
 20
122.6590711919502
 30
0.0
 10
362.4052587657834
 20
122.6331264605143
 30
0.0
 10
362.2910255836108
 20
122.6054350156966
 30
0.0
 10
362.1775505662964
 20
122.5759988841082
 30
0.0
 10
362.0648444159863
 20
122.5448201736303
 30
0.0
 10
361.9529177021468
 20
122.5119010640698
 30
0.0
 10
361.8417808678942
 20
122.4772437984318
 30
0.0
 10
361.7314442375664
 20
122.4408506743647
 30
0.0
 10
361.6219180242695
 20
122.4027240379977
 30
0.0
 10
361.5132123418308
 20
122.3628662724416
 30
0.0
 10
361.4053372042727
 20
122.3212798103251
 30
0.0
 10
361.2983025754214
 20
122.2779670612427
 30
0.0
 10
361.1921182345028
 20
122.2329306618605
 30
0.0
 10
361.0867943311754
 20
122.1861725271787
 30
0.0
 10
360.9823393691048
 20
122.1376973826737
 30
0.0
 10
360.878767790321
 20
122.087499575398
 30
0.0
 10
360.7760717182093
 20
122.0356123155378
 30
0.0
 10
360.6743265148285
 20
121.9819238398624
 30
0.0
 10
360.5905733634977
 20
121.9362794042736
 30
0.0
 10
360.541103789118
 20
121.9078975974585
 30
0.0
 10
360.5248939950477
 20
121.8985976742313
 30
0.0
  0
SPLINE
  5
E8
330
1F
100
AcDbEntity
  8
0
  6
Continuous
 62
     7
370
    30
100
AcDbSpline
210
0.0
220
0.0
230
1.0
 70
     8
 71
     3
 72
   164
 73
   160
 74
     0
 42
0.000000001
 43
0.00000001
 40
0.0
 40
0.0
 40
0.0
 40
0.0
 40
0.00552992799141
 40
0.0117809997631082
 40
0.018035281988989
 40
0.0242930511213776
 40
0.0305545789507019
 40
0.036820131341724
 40
0.0430899670002362
 40
0.049364336276066
 40
0.0556434800117753
 40
0.0619276284458027
 40
0.0682170001784904
 40
0.0745118012088038
 40
0.080812224048997
 40
0.0871184469243915
 40
0.0934306330634637
 40
0.0997489300838264
 40
0.1060734694780878
 40
0.1124043662029176
 40
0.1187417183735971
 40
0.1250856070649603
 40
0.1314360962195229
 40
0.13779323266132
 40
0.1441570462138327
 40
0.1505275499190873
 40
0.1569047403538996
 40
0.1632885980385446
 40
0.1696790879322106
 40
0.176076160008706
 40
0.1824797499055658
 40
0.1888897796386506
 40
0.195306158374559
 40
0.2017287832521495
 40
0.2081575402448878
 40
0.2145923050549984
 40
0.2210329440315784
 40
0.2274793151033661
 40
0.2339312687187044
 40
0.2403886487847215
 40
0.2468512935979969
 40
0.25331903676079
 40
0.2597917080756559
 40
0.2662691344135649
 40
0.2727511405500279
 40
0.2792375499655015
 40
0.2857281856061155
 40
0.2922228706018152
 40
0.2987214289401386
 40
0.3052236860933392
 40
0.3117294695983425
 40
0.3182386095889685
 40
0.3247509392804869
 40
0.331266295406927
 40
0.3377845186121358
 40
0.3443054537961915
 40
0.3508289504182266
 40
0.3573548627581337
 40
0.3638830501387276
 40
0.3704133771109167
 40
0.3769457136043447
 40
0.3834799350455455
 40
0.3900159224466197
 40
0.3965535624664287
 40
0.4030927474472565
 40
0.4096333754292782
 40
0.4161753501449152
 40
0.4227185809957919
 40
0.4292629830147097
 40
0.4358084768138818
 40
0.4423549885226294
 40
0.4489024497157348
 40
0.4554507973343324
 40
0.4619999736014187
 40
0.4685499259331602
 40
0.475100606847863
 40
0.481651964044612
 40
0.4882039555333752
 40
0.4947565494983666
 40
0.5013097188801717
 40
0.5078634412370732
 40
0.5144176986648031
 40
0.5209724777226095
 40
0.5275277693656716
 40
0.5340835688852612
 40
0.5406398758568218
 40
0.5471966940972676
 40
0.5537540316320967
 40
0.5603119006729895
 40
0.5668703176069579
 40
0.5734293029977959
 40
0.5799888816006433
 40
0.5865490823907945
 40
0.5931099386075609
 40
0.5996714878146888
 40
0.6062337719780863
 40
0.6127968375626601
 40
0.6193607356496995
 40
0.6259255220763482
 40
0.6324912575993038
 40
0.639058008085051
 40
0.6456258447287608
 40
0.6521948443051699
 40
0.6587650894543253
 40
0.665336669006195
 40
0.6719096783482531
 40
0.678484219841132
 40
0.6850604032879648
 40
0.6916383464640186
 40
0.698218175714295
 40
0.7048000266281353
 40
0.7113840448010543
 40
0.7179703866963159
 40
0.724559220620271
 40
0.7311507278288052
 40
0.73774510378474
 40
0.7443425595900716
 40
0.7509433236219983
 40
0.7575476434064801
 40
0.7641557877712185
 40
0.7707680493276888
 40
0.777384747343931
 40
0.7840062310823652
 40
0.7906328836956653
 40
0.7972651267951254
 40
0.8039034258349724
 40
0.8105482964940062
 40
0.8172003122835867
 40
0.8238601136767646
 40
0.83052841913917
 40
0.8372060385585983
 40
0.8438938897306164
 40
0.8505930187772394
 40
0.857304625687777
 40
0.864030096613124
 40
0.8700773978565769
 40
0.8761238669287037
 40
0.8821689285011961
 40
0.8882124060035328
 40
0.8942540820943156
 40
0.9002936868921098
 40
0.9063308812525793
 40
0.9123652331304009
 40
0.9183961834132457
 40
0.9244229952725846
 40
0.9304446768701782
 40
0.9364598593804545
 40
0.942466596787293
 40
0.9484620216117833
 40
0.9544417186384672
 40
0.9603985038861762
 40
0.9663198258913774
 40
0.9721815618368794
 40
0.9779306657384123
 40
0.9834234789331525
 40
0.9882781342455017
 40
0.991854578482938
 40
0.9958803141467777
 40
1.0
 40
1.0
 40
1.0
 40
1.0
 10
380.0230549744836
 20
88.12315914272126
 30
0.0
 10
380.0523275111073
 20
88.14038789916343
 30
0.0
 10
380.1146899410637
 20
88.17709217015557
 30
0.0
 10
380.208955166711
 20
88.23533131761694
 30
0.0
 10
380.3061168254949
 20
88.29742814202665
 30
0.0
 10
380.4022947872354
 20
88.36126066778621
 30
0.0
 10
380.4975103839591
 20
88.42677210980169
 30
0.0
 10
380.5917452964044
 20
88.49397368922598
 30
0.0
 10
380.6849917522416
 20
88.56285825094871
 30
0.0
 10
380.7772390567674
 20
88.63342341144886
 30
0.0
 10
380.868477200187
 20
88.70566533074866
 30
0.0
 10
380.958695886537
 20
88.77958036237254
 30
0.0
 10
381.0478847923918
 20
88.85516458963014
 30
0.0
 10
381.1360334975072
 20
88.93241392845594
 30
0.0
 10
381.2231315053126
 20
89.01132407806438
 30
0.0
 10
381.3091682411543
 20
89.09189051244272
 30
0.0
 10
381.3941330583551
 20
89.17410846111662
 30
0.0
 10
381.478015243991
 20
89.25797289323883
 30
0.0
 10
381.5608040265101
 20
89.34347850144665
 30
0.0
 10
381.6424885845533
 20
89.43061968664942
 30
0.0
 10
381.7230580570562
 20
89.51939054363348
 30
0.0
 10
381.8025015545064
 20
89.60978484770301
 30
0.0
 10
381.8808081712628
 20
89.7017960424705
 30
0.0
 10
381.9579669988233
 20
89.79541722892343
 30
0.0
 10
382.0339671399172
 20
89.89064115586953
 30
0.0
 10
382.1087977232905
 20
89.98746021184934
 30
0.0
 10
382.1824479190472
 20
90.08586641858551
 30
0.0
 10
382.2549069544019
 20
90.18585142601992
 30
0.0
 10
382.3261641296995
 20
90.2874065089693
 30
0.0
 10
382.3962088345558
 20
90.39052256541153
 30
0.0
 10
382.4650305639743
 20
90.4951901163938
 30
0.0
 10
382.5326189342978
 20
90.60139930753702
 30
0.0
 10
382.5989636988627
 20
90.70913991209032
 30
0.0
 10
382.664054763224
 20
90.81840133547541
 30
0.0
 10
382.7278821998346
 20
90.92917262124132
 30
0.0
 10
382.7904362620716
 20
91.04144245834173
 30
0.0
 10
382.8517073975093
 20
91.15519918962964
 30
0.0
 10
382.9116862603578
 20
91.27043082145981
 30
0.0
 10
382.9703637229946
 20
91.38712503427723
 30
0.0
 10
383.0277308865299
 20
91.50526919406643
 30
0.0
 10
383.0837790903643
 20
91.62485036453519
 30
0.0
 10
383.1384999207061
 20
91.74585531990049
 30
0.0
 10
383.1918852180312
 20
91.86827055815097
 30
0.0
 10
383.2439270834801
 20
91.99208231465636
 30
0.0
 10
383.2946178841992
 20
92.11727657600477
 30
0.0
 10
383.3439502576441
 20
92.24383909395067
 30
0.0
 10
383.3919171148711
 20
92.37175539936452
 30
0.0
 10
383.4385116428546
 20
92.50101081608406
 30
0.0
 10
383.4837273058724
 20
92.63159047457361
 30
0.0
 10
383.52755784601
 20
92.7634793253102
 30
0.0
 10
383.5699972828383
 20
92.8966621518216
 30
0.0
 10
383.6110399123233
 20
93.0311235833155
 30
0.0
 10
383.6506803050308
 20
93.16684810684538
 30
0.0
 10
383.6889133036873
 20
93.30382007896873
 30
0.0
 10
383.7257340201627
 20
93.442023736865
 30
0.0
 10
383.7611378319393
 20
93.58144320888695
 30
0.0
 10
383.7951203781273
 20
93.72206252453009
 30
0.0
 10
383.8276775550907
 20
93.86386562380828
 30
0.0
 10
383.858805511741
 20
94.00683636603578
 30
0.0
 10
383.888500644554
 20
94.15095853801904
 30
0.0
 10
383.9167595923654
 20
94.29621586166832
 30
0.0
 10
383.9435792309906
 20
94.44259200104524
 30
0.0
 10
383.9689566677178
 20
94.59007056886243
 30
0.0
 10
383.9928892357129
 20
94.73863513246118
 30
0.0
 10
384.0153744883777
 20
94.88826921929147
 30
0.0
 10
384.0364101936909
 20
95.0389563219225
 30
0.0
 10
384.0559943285659
 20
95.19067990261321
 30
0.0
 10
384.0741250732488
 20
95.34342339747533
 30
0.0
 10
384.0908008057801
 20
95.49717022025936
 30
0.0
 10
384.1060200965389
 20
95.65190376579805
 30
0.0
 10
384.1197817028859
 20
95.80760741313765
 30
0.0
 10
384.1320845639149
 20
95.96426452839246
 30
0.0
 10
384.1429277953274
 20
96.12185846735274
 30
0.0
 10
384.1523106844308
 20
96.28037257787777
 30
0.0
 10
384.1602326852694
 20
96.43979020210696
 30
0.0
 10
384.1666934106564
 20
96.60009459834104
 30
0.0
 10
384.1716926329624
 20
96.76126898485016
 30
0.0
 10
384.1752302824178
 20
96.92329658486318
 30
0.0
 10
384.1773064423295
 20
97.08616071087378
 30
0.0
 10
384.1779213408832
 20
97.24984472333011
 30
0.0
 10
384.1770753456756
 20
97.41433198816429
 30
0.0
 10
384.1747689597337
 20
97.57960587802799
 30
0.0
 10
384.1710028176392
 20
97.74564977401351
 30
0.0
 10
384.1657776817357
 20
97.91244706744405
 30
0.0
 10
384.1590944384049
 20
98.0799811617489
 30
0.0
 10
384.1509540944017
 20
98.24823547445038
 30
0.0
 10
384.1413577732304
 20
98.4171934392822
 30
0.0
 10
384.1303067115475
 20
98.58683850846403
 30
0.0
 10
384.1178022555744
 20
98.75715415515545
 30
0.0
 10
384.1038458575024
 20
98.92812387611288
 30
0.0
 10
384.0884390718704
 20
99.09973119457564
 30
0.0
 10
384.0715835518948
 20
99.27195966340715
 30
0.0
 10
384.0532810457317
 20
99.44479286851762
 30
0.0
 10
384.0335333926446
 20
99.61821443260153
 30
0.0
 10
384.0123425190564
 20
99.7922080192181
 30
0.0
 10
383.9897104344563
 20
99.9667573372535
 30
0.0
 10
383.9656392271314
 20
100.1418461458008
 30
0.0
 10
383.9401310596936
 20
100.3174582595022
 30
0.0
 10
383.9131881643644
 20
100.4935775543985
 30
0.0
 10
383.8848128379794
 20
100.6701879743415
 30
0.0
 10
383.8550074366705
 20
100.8472735380255
 30
0.0
 10
383.8237743701768
 20
101.0248183467082
 30
0.0
 10
383.7911160957332
 20
101.2028065926932
 30
0.0
 10
383.757035111475
 20
101.3812225686633
 30
0.0
 10
383.7215339492931
 20
101.5600506779603
 30
0.0
 10
383.6846151670636
 20
101.7392754459261
 30
0.0
 10
383.6462813401646
 20
101.918881532432
 30
0.0
 10
383.6065350521842
 20
102.0988537457468
 30
0.0
 10
383.5653788847044
 20
102.2791770579148
 30
0.0
 10
383.5228154060338
 20
102.4598366218426
 30
0.0
 10
383.4788471587373
 20
102.640817790328
 30
0.0
 10
383.4334766457907
 20
102.8221061373033
 30
0.0
 10
383.3867063151561
 20
103.0036874816065
 30
0.0
 10
383.3385385425433
 20
103.1855479136599
 30
0.0
 10
383.2889756120763
 20
103.3676738254928
 30
0.0
 10
383.2380196945389
 20
103.5500519446335
 30
0.0
 10
383.1856728228069
 20
103.7326693724952
 30
0.0
 10
383.1319368640053
 20
103.9155136279972
 30
0.0
 10
383.0768134878309
 20
104.0985726973225
 30
0.0
 10
383.0203041303745
 20
104.2818350908865
 30
0.0
 10
382.9624099526287
 20
104.465289908836
 30
0.0
 10
382.9031317926981
 20
104.648926916676
 30
0.0
 10
382.8424701105012
 20
104.8327366329967
 30
0.0
 10
382.7804249234767
 20
105.0167104317287
 30
0.0
 10
382.7169957314467
 20
105.200840661955
 30
0.0
 10
382.6521814283271
 20
105.3851207890682
 30
0.0
 10
382.5859801977766
 20
105.5695455620658
 30
0.0
 10
382.5183893890991
 20
105.7541112130539
 30
0.0
 10
382.4494053686285
 20
105.93881569688
 30
0.0
 10
382.379023340629
 20
106.1236589806851
 30
0.0
 10
382.3072371291307
 20
106.3086433980224
 30
0.0
 10
382.2340389122904
 20
106.4937740801174
 30
0.0
 10
382.1594188870486
 20
106.6790595067447
 30
0.0
 10
382.083364875127
 20
106.8645121383437
 30
0.0
 10
382.0085260077625
 20
107.043767900681
 30
0.0
 10
381.935104959154
 20
107.2167083483078
 30
0.0
 10
381.8633070600542
 20
107.3832027656277
 30
0.0
 10
381.7904997686602
 20
107.5494539814663
 30
0.0
 10
381.7166942093216
 20
107.71543858006
 30
0.0
 10
381.6419005318896
 20
107.8811359913527
 30
0.0
 10
381.5661297905702
 20
108.0465242471863
 30
0.0
 10
381.4893942109476
 20
108.2115795160283
 30
0.0
 10
381.4117075645819
 20
108.3762754529063
 30
0.0
 10
381.3330857157422
 20
108.5405822481513
 30
0.0
 10
381.2535474377436
 20
108.7044652056209
 30
0.0
 10
381.1731156709237
 20
108.8678825490696
 30
0.0
 10
381.0918195319849
 20
109.0307819140289
 30
0.0
 10
381.0096976641027
 20
109.1930944926065
 30
0.0
 10
380.9268041162639
 20
109.3547247429311
 30
0.0
 10
380.8432193435192
 20
109.515531120916
 30
0.0
 10
380.7590724859728
 20
109.6752869673022
 30
0.0
 10
380.6745916023803
 20
109.8335923281278
 30
0.0
 10
380.5902343424672
 20
109.9896436329975
 30
0.0
 10
380.5071141023159
 20
110.1414831693931
 30
0.0
 10
380.4281416333795
 20
110.2840080190419
 30
0.0
 10
380.359242197934
 20
110.4069907065765
 30
0.0
 10
380.2971688644093
 20
110.5167824974879
 30
0.0
 10
380.2384251688932
 20
110.6199147683374
 30
0.0
 10
380.1972666278859
 20
110.6913891898074
 30
0.0
 10
380.1764499938085
 20
110.7275385974692
 30
0.0
  0
SPLINE
  5
E9
330
1F
100
AcDbEntity
  8
0
  6
Continuous
 62
     7
370
    30
100
AcDbSpline
210
0.0
220
0.0
230
1.0
 70
     8
 71
     3
 72
   147
 73
   143
 74
     0
 42
0.000000001
 43
0.00000001
 40
0.0
 40
0.0
 40
0.0
 40
0.0
 40
0.0005425001150221
 40
0.007770368797425
 40
0.0149994416171581
 40
0.022229692280827
 40
0.0294610953235294
 40
0.0366936260483353
 40
0.0439272604680676
 40
0.0511619752497568
 40
0.0583977476608789
 40
0.0656345555173855
 40
0.072872377133654
 40
0.0801111912740149
 40
0.0873509771054107
 40
0.0945917141513142
 40
0.1018333822475928
 40
0.1090759614978891
 40
0.1163194322316215
 40
0.1235637749617377
 40
0.130808970343272
 40
0.1380549991333039
 40
0.1453018421504862
 40
0.1525494802360121
 40
0.1597978942144558
 40
0.1670470648552652
 40
0.1742969728345694
 40
0.1815475986971705
 40
0.1887989228191227
 40
0.1960509253701522
 40
0.2033035862766298
 40
0.2105568851845789
 40
0.2178108014226632
 40
0.2250653139660151
 40
0.2323204013993278
 40
0.2395760418808723
 40
0.2468322131062238
 40
0.2540888922725118
 40
0.2613460560427808
 40
0.2686036805103334
 40
0.2758617411638724
 40
0.2831202128525394
 40
0.2903790697516863
 40
0.2976382802231707
 40
0.3048978131415704
 40
0.3121576400640377
 40
0.3194177317075007
 40
0.3266780579416985
 40
0.3339385877587945
 40
0.3411992892443949
 40
0.3484601295493038
 40
0.3557210748631081
 40
0.362982090389063
 40
0.3702431403203068
 40
0.3775041878184642
 40
0.3847651949936342
 40
0.3920261228870897
 40
0.3992869314557289
 40
0.4065475795598566
 40
0.4138080249530492
 40
0.4210682242758091
 40
0.4283281330515046
 40
0.4355877056867128
 40
0.4428468954751235
 40
0.450105654605243
 40
0.4573639341724568
 40
0.4646216841958841
 40
0.4718788536398368
 40
0.4791353904405726
 40
0.4863912415384287
 40
0.4936463529153958
 40
0.5009006696389842
 40
0.5081541359121927
 40
0.5154066951297823
 40
0.5226582899413631
 40
0.5299088623216236
 40
0.5371583536473145
 40
0.5444067047819867
 40
0.5516538561681625
 40
0.5588997479269109
 40
0.5661443199658032
 40
0.5733875120941381
 40
0.580629264146627
 40
0.58786951611495
 40
0.5951082082871194
 40
0.6023452813945992
 40
0.6095806767679476
 40
0.6168143364991611
 40
0.6240462036120765
 40
0.6312762222395466
 40
0.6385043378077335
 40
0.6457304972264468
 40
0.6529546490859705
 40
0.6601767438587886
 40
0.6673967341067581
 40
0.6746145746921687
 40
0.6818302229926941
 40
0.6890436391190478
 40
0.6962547861345696
 40
0.7034636302763878
 40
0.7106701411764541
 40
0.7178742920821303
 40
0.7250760600750471
 40
0.7322754262872465
 40
0.7394723761137448
 40
0.7466668994197326
 40
0.7538589907424137
 40
0.7610486494851773
 40
0.7682358801038224
 40
0.7754206922831881
 40
0.7826031011034679
 40
0.7897831271949121
 40
0.7969607968791246
 40
0.8041361422977433
 40
0.811309201525397
 40
0.8184800186671284
 40
0.8256486439394696
 40
0.8328151337334397
 40
0.8399795506597927
 40
0.8471419635750368
 40
0.854302447587654
 40
0.8614610840444359
 40
0.86861796049619
 40
0.8757731706423741
 40
0.8829268142544395
 40
0.8900789970781715
 40
0.8972298307143505
 40
0.9043794324780324
 40
0.9115279252367683
 40
0.9186754372280683
 40
0.9258221018556319
 40
0.9329680574662935
 40
0.9401134471069535
 40
0.9472584182626045
 40
0.9544031225764479
 40
0.9615477155525893
 40
0.9686923562422857
 40
0.9758372069152631
 40
0.982982432716062
 40
0.9901282013080025
 40
0.9972746825048693
 40
0.9999999999999999
 40
0.9999999999999999
 40
0.9999999999999999
 40
0.9999999999999999
 10
374.3194981707724
 20
84.83034168833953
 30
0.0
 10
374.3240747947602
 20
84.82645169942406
 30
0.0
 10
374.3896269582499
 20
84.77073438682994
 30
0.0
 10
374.516472430664
 20
84.6644157850876
 30
0.0
 10
374.7000584600535
 20
84.51148847999777
 30
0.0
 10
374.8840199439844
 20
84.36001858222924
 30
0.0
 10
375.0683019376128
 20
84.20983299358909
 30
0.0
 10
375.2529072424941
 20
84.06098923289923
 30
0.0
 10
375.4378231853203
 20
83.9134828938109
 30
0.0
 10
375.623041241665
 20
83.76732605174023
 30
0.0
 10
375.8085517760638
 20
83.62252625139301
 30
0.0
 10
375.9943454512428
 20
83.47909213978735
 30
0.0
 10
376.1804128499714
 20
83.33703195791274
 30
0.0
 10
376.3667445759725
 20
83.19635394625979
 30
0.0
 10
376.5533312264564
 20
83.05706623734308
 30
0.0
 10
376.7401633990814
 20
82.91917688563824
 30
0.0
 10
376.9272316896962
 20
82.78269386062858
 30
0.0
 10
377.1145266925685
 20
82.64762504966939
 30
0.0
 10
377.3020389999503
 20
82.5139782581649
 30
0.0
 10
377.4897592018303
 20
82.38176121040578
 30
0.0
 10
377.6776778856376
 20
82.25098155017544
 30
0.0
 10
377.865785635958
 20
82.12164684136792
 30
0.0
 10
378.0540730342506
 20
81.99376456854884
 30
0.0
 10
378.2425306585571
 20
81.86734213748647
 30
0.0
 10
378.4311490832134
 20
81.74238687564151
 30
0.0
 10
378.6199188785521
 20
81.6189060326237
 30
0.0
 10
378.8088306106005
 20
81.4969067806128
 30
0.0
 10
378.9978748407731
 20
81.3763962147449
 30
0.0
 10
379.1870421255554
 20
81.25738135346548
 30
0.0
 10
379.37632301618
 20
81.13986913884821
 30
0.0
 10
379.5657080582938
 20
81.02386643688122
 30
0.0
 10
379.755187791614
 20
80.90938003772075
 30
0.0
 10
379.9447527495779
 20
80.79641665590907
 30
0.0
 10
380.1343934589781
 20
80.684982930562
 30
0.0
 10
380.3241004395922
 20
80.57508542551925
 30
0.0
 10
380.5138642037965
 20
80.46673062946398
 30
0.0
 10
380.7036752561743
 20
80.35992495600422
 30
0.0
 10
380.8935240931121
 20
80.25467474372047
 30
0.0
 10
381.0834012023849
 20
80.15098625617695
 30
0.0
 10
381.2732970627334
 20
80.04886568189542
 30
0.0
 10
381.4632021434309
 20
79.94831913429209
 30
0.0
 10
381.6531069038448
 20
79.84935265157326
 30
0.0
 10
381.843001748467
 20
79.75197221942467
 30
0.0
 10
382.0328770374296
 20
79.6561837632532
 30
0.0
 10
382.2227231162443
 20
79.56199313143576
 30
0.0
 10
382.4125303595715
 20
79.46940607386934
 30
0.0
 10
382.6022891597177
 20
79.37842824868304
 30
0.0
 10
382.7919898959572
 20
79.28906523710164
 30
0.0
 10
382.9816229342941
 20
79.2013225429183
 30
0.0
 10
383.1711786270177
 20
79.11520559202465
 30
0.0
 10
383.3606473122687
 20
79.03071973188929
 30
0.0
 10
383.5500193136166
 20
78.94787023098685
 30
0.0
 10
383.7392849396517
 20
78.8666622781746
 30
0.0
 10
383.9284344835937
 20
78.78710098201707
 30
0.0
 10
384.1174582229207
 20
78.70919137005757
 30
0.0
 10
384.3063464190246
 20
78.63293838803497
 30
0.0
 10
384.495089316891
 20
78.55834689904765
 30
0.0
 10
384.6836771448148
 20
78.4854216826607
 30
0.0
 10
384.8721001141486
 20
78.41416743396013
 30
0.0
 10
385.060348419098
 20
78.3445887625496
 30
0.0
 10
385.2484122365536
 20
78.27669019149552
 30
0.0
 10
385.4362817259796
 20
78.21047615621612
 30
0.0
 10
385.6239470293543
 20
78.14595100331786
 30
0.0
 10
385.8113982711741
 20
78.08311898937889
 30
0.0
 10
385.9986255585204
 20
78.02198427968233
 30
0.0
 10
386.1856189811966
 20
77.96255094690119
 30
0.0
 10
386.3723686119417
 20
77.90482296973606
 30
0.0
 10
386.5588645067268
 20
77.84880423150835
 30
0.0
 10
386.7450967051373
 20
77.79449851871303
 30
0.0
 10
386.9310552308458
 20
77.74190951953364
 30
0.0
 10
387.1167300921854
 20
77.69104082232376
 30
0.0
 10
387.3021112828227
 20
77.641895914059
 30
0.0
 10
387.4871887825416
 20
77.59447817876512
 30
0.0
 10
387.6719525581365
 20
77.54879089592679
 30
0.0
 10
387.8563925644239
 20
77.50483723888463
 30
0.0
 10
388.0404987453743
 20
77.46262027322473
 30
0.0
 10
388.2242610353705
 20
77.42214295516975
 30
0.0
 10
388.4076693605927
 20
77.38340812997765
 30
0.0
 10
388.590713640535
 20
77.3464185303573
 30
0.0
 10
388.7733837896563
 20
77.31117677490832
 30
0.0
 10
388.955669719164
 20
77.27768536659559
 30
0.0
 10
389.1375613389362
 20
77.24594669126628
 30
0.0
 10
389.3190485595784
 20
77.21596301622066
 30
0.0
 10
389.500121294618
 20
77.18773648884586
 30
0.0
 10
389.680769462828
 20
77.16126913532425
 30
0.0
 10
389.8609829906878
 20
77.1365628594264
 30
0.0
 10
390.0407518149674
 20
77.11361944139978
 30
0.0
 10
390.2200658854406
 20
77.09244053696432
 30
0.0
 10
390.3989151677106
 20
77.07302767642697
 30
0.0
 10
390.5772896461513
 20
77.0553822639247
 30
0.0
 10
390.7551793269499
 20
77.0395055768089
 30
0.0
 10
390.932574241247
 20
77.0253987651804
 30
0.0
 10
391.1094644483586
 20
77.01306285158681
 30
0.0
 10
391.2858400390745
 20
77.00249873089166
 30
0.0
 10
391.4616911390167
 20
76.99370717032514
 30
0.0
 10
391.6370079120473
 20
76.98668880972545
 30
0.0
 10
391.81178056371
 20
76.98144416197871
 30
0.0
 10
391.9859993446896
 20
76.97797361366513
 30
0.0
 10
392.1596545542754
 20
76.97627742591753
 30
0.0
 10
392.3327365438084
 20
76.97635573549769
 30
0.0
 10
392.5052357200984
 20
76.97820855609446
 30
0.0
 10
392.6771425487875
 20
76.98183577984685
 30
0.0
 10
392.8484475576466
 20
76.98723717909294
 30
0.0
 10
393.0191413397831
 20
76.9944124083456
 30
0.0
 10
393.1892145567389
 20
77.00336100649231
 30
0.0
 10
393.358657941463
 20
77.01408239921777
 30
0.0
 10
393.5274623011338
 20
77.0265759016423
 30
0.0
 10
393.6956185198184
 20
77.04084072117209
 30
0.0
 10
393.8631175609434
 20
77.05687596055152
 30
0.0
 10
394.0299504695646
 20
77.0746806211089
 30
0.0
 10
394.1961083744164
 20
77.0942536061838
 30
0.0
 10
394.3615824897199
 20
77.11559372472274
 30
0.0
 10
394.5263641167414
 20
77.13869969502957
 30
0.0
 10
394.6904446450807
 20
77.16357014865297
 30
0.0
 10
394.8538155536813
 20
77.19020363439472
 30
0.0
 10
395.0164684115455
 20
77.2185986224191
 30
0.0
 10
395.1783948781485
 20
77.24875350844242
 30
0.0
 10
395.3395867035423
 20
77.28066661798316
 30
0.0
 10
395.5000357281424
 20
77.31433621064771
 30
0.0
 10
395.6597338821944
 20
77.34976048443055
 30
0.0
 10
395.8186731849138
 20
77.38693758000278
 30
0.0
 10
395.9768457433049
 20
77.42586558496583
 30
0.0
 10
396.1342437506552
 20
77.466542538044
 30
0.0
 10
396.2908594847104
 20
77.5089664331911
 30
0.0
 10
396.4466853055373
 20
77.55313522358462
 30
0.0
 10
396.6017136530791
 20
77.59904682548569
 30
0.0
 10
396.7559370444219
 20
77.64669912192645
 30
0.0
 10
396.9093480707544
 20
77.69608996624882
 30
0.0
 10
397.061939394139
 20
77.74721718528879
 30
0.0
 10
397.21370374373
 20
77.80007858286362
 30
0.0
 10
397.3646339128621
 20
77.85467194099448
 30
0.0
 10
397.5147227517951
 20
77.91099502834875
 30
0.0
 10
397.6639631756507
 20
77.96904558040465
 30
0.0
 10
397.8123481147501
 20
78.0288213837132
 30
0.0
 10
397.9598706790831
 20
78.09031997018319
 30
0.0
 10
398.1065235229757
 20
78.15353976511025
 30
0.0
 10
398.2523011940107
 20
78.21847580821584
 30
0.0
 10
398.3971913439772
 20
78.28513572700649
 30
0.0
 10
398.541207508851
 20
78.35348012220277
 30
0.0
 10
398.6842667383595
 20
78.42364507204654
 30
0.0
 10
398.7972796874446
 20
78.48037122902656
 30
0.0
 10
398.8622768279601
 20
78.51430120151862
 30
0.0
 10
398.8802206545825
 20
78.52366828349902
 30
0.0
  0
SPLINE
  5
EA
330
1F
100
AcDbEntity
  8
0
  6
Continuous
 62
     7
370
    30
100
AcDbSpline
210
0.0
220
0.0
230
1.0
 70
     8
 71
     3
 72
   144
 73
   140
 74
     0
 42
0.000000001
 43
0.00000001
 40
0.0
 40
0.0
 40
0.0
 40
0.0
 40
0.0011655511830019
 40
0.0083261476527507
 40
0.015489129345654
 40
0.0226546638947359
 40
0.0298229163819239
 40
0.0369940489450572
 40
0.0441682203933037
 40
0.0513455858328383
 40
0.0585262963038001
 40
0.0657104984301511
 40
0.0728983340836283
 40
0.0800899400635162
 40
0.0872854477925982
 40
0.0944849830316232
 40
0.1016886656123649
 40
0.1088966091906236
 40
0.1161089210203364
 40
0.123325701749037
 40
0.1305470452359803
 40
0.1377730383928791
 40
0.1450037610483355
 40
0.1522392858359389
 40
0.1594796781062657
 40
0.1667249958631526
 40
0.1739752897240014
 40
0.1812306029042338
 40
0.188490971225543
 40
0.1957564231467536
 40
0.2030269798191499
 40
0.2103026551623441
 40
0.2175834559632461
 40
0.2248693819947294
 40
0.2321604261549335
 40
0.2394565746250418
 40
0.2467578070450559
 40
0.2540640967061837
 40
0.2613754107587137
 40
0.2686917104339355
 40
0.276012951279427
 40
0.2833390834049139
 40
0.2906700517393232
 40
0.2980057962958612
 40
0.3053462524448324
 40
0.3126913511922164
 40
0.3200410194629335
 40
0.3273951803873789
 40
0.3347537535896692
 40
0.342116655477112
 40
0.3494837995283221
 40
0.3568550965802906
 40
0.3642304551120778
 40
0.3716097815249542
 40
0.3789929804175244
 40
0.3863799548551211
 40
0.3937706066324382
 40
0.4011648365291572
 40
0.4085625445572225
 40
0.4159636301995868
 40
0.4233679926401641
 40
0.4307755309835998
 40
0.4381861444658778
 40
0.4455997326542301
 40
0.4530161956369393
 40
0.4604354342022702
 40
0.4678573500071452
 40
0.475281845735395
 40
0.482708825244542
 40
0.490138193702972
 40
0.4975698577164262
 40
0.505003725444236
 40
0.512439706705785
 40
0.5198777130770312
 40
0.5273176579780386
 40
0.53475945675086
 40
0.5422030267292146
 40
0.5496482872994163
 40
0.5570951599534324
 40
0.5645435683341403
 40
0.5719934382734413
 40
0.5794446978237483
 40
0.5868972772823378
 40
0.5943511092104299
 40
0.6018061284460727
 40
0.6092622721119165
 40
0.6167194796179517
 40
0.6241776926603249
 40
0.6316368552150597
 40
0.639096913528721
 40
0.6465578161054187
 40
0.6540195136907829
 40
0.6614819592529924
 40
0.668945107961492
 40
0.6764089171635743
 40
0.6838733463590838
 40
0.6913383571733644
 40
0.6988039133291768
 40
0.7062699806170407
 40
0.713736526865399
 40
0.7212035219094958
 40
0.7286709375602893
 40
0.7361387384314402
 40
0.7436069004931666
 40
0.7510754017253465
 40
0.7585442219471848
 40
0.766013342785471
 40
0.7734827476445465
 40
0.7809524216772838
 40
0.788422351756388
 40
0.7958925264477846
 40
0.8033629359838463
 40
0.8108335722390286
 40
0.8183044287063904
 40
0.8257755004752622
 40
0.8332467842113123
 40
0.8407182781377677
 40
0.8481899820180595
 40
0.8556618971414719
 40
0.8631340263095568
 40
0.8706063738252923
 40
0.8780789454843977
 40
0.8855517485685162
 40
0.8930247918413813
 40
0.9004980855468128
 40
0.9079716414097817
 40
0.9154454726402006
 40
0.9229195939391965
 40
0.9303940215087649
 40
0.9378687730646583
 40
0.945343867851797
 40
0.9528193266644799
 40
0.9602951718689068
 40
0.9677714274307037
 40
0.975248118945701
 40
0.982725273675868
 40
0.9902029205891825
 40
0.997681090404835
 40
1.0
 40
1.0
 40
1.0
 40
1.0
 10
361.6417489422454
 20
143.0291092092999
 30
0.0
 10
361.6344335221676
 20
143.0244813684225
 30
0.0
 10
361.5821756131222
 20
142.9914222569728
 30
0.0
 10
361.4859298873351
 20
142.9283208440074
 30
0.0
 10
361.3530693673034
 20
142.8397001482391
 30
0.0
 10
361.2212824455158
 20
142.7492430382227
 30
0.0
 10
361.09045714012
 20
142.6571489927808
 30
0.0
 10
360.9606322730716
 20
142.5633679918264
 30
0.0
 10
360.8318062781735
 20
142.4679169752706
 30
0.0
 10
360.7039884620297
 20
142.3707950076698
 30
0.0
 10
360.5771852626279
 20
142.2720060305965
 30
0.0
 10
360.4514039352543
 20
142.1715527698583
 30
0.0
 10
360.3266515653235
 20
142.0694383768302
 30
0.0
 10
360.2029353337016
 20
141.965665996198
 30
0.0
 10
360.0802624456881
 20
141.8602388898032
 30
0.0
 10
359.9586401496812
 20
141.7531604114322
 30
0.0
 10
359.8380757312868
 20
141.6444340215896
 30
0.0
 10
359.718576513506
 20
141.5340632915244
 30
0.0
 10
359.6001498547913
 20
141.4220519100689
 30
0.0
 10
359.4828031471769
 20
141.3084036896123
 30
0.0
 10
359.3665438139038
 20
141.1931225721537
 30
0.0
 10
359.2513793067063
 20
141.0762126351397
 30
0.0
 10
359.1373171027305
 20
140.9576780971261
 30
0.0
 10
359.0243647011106
 20
140.8375233232139
 30
0.0
 10
358.9125296192163
 20
140.7157528302367
 30
0.0
 10
358.8018193885911
 20
140.5923712916707
 30
0.0
 10
358.6922415506003
 20
140.4673835422396
 30
0.0
 10
358.5838036518091
 20
140.3407945821934
 30
0.0
 10
358.4765132391211
 20
140.2126095812409
 30
0.0
 10
358.37037785469
 20
140.0828338821098
 30
0.0
 10
358.2654050306442
 20
139.9514730037284
 30
0.0
 10
358.1616022836347
 20
139.8185326440001
 30
0.0
 10
358.0589771092509
 20
139.6840186821751
 30
0.0
 10
357.9575369763173
 20
139.5479371807959
 30
0.0
 10
357.8572893211095
 20
139.4102943872202
 30
0.0
 10
357.7582415415119
 20
139.2710967347115
 30
0.0
 10
357.6604009911484
 20
139.1303508431007
 30
0.0
 10
357.5637749735132
 20
138.9880635190171
 30
0.0
 10
357.4683707361285
 20
138.8442417556967
 30
0.0
 10
357.3741954647558
 20
138.6988927323698
 30
0.0
 10
357.2812562776887
 20
138.552023813245
 30
0.0
 10
357.1895602201486
 20
138.403642546092
 30
0.0
 10
357.0991142588109
 20
138.2537566604477
 30
0.0
 10
357.0099252764787
 20
138.1023740654497
 30
0.0
 10
356.9220000669301
 20
137.9495028473266
 30
0.0
 10
356.8353453299542
 20
137.7951512665565
 30
0.0
 10
356.7499676665954
 20
137.6393277547185
 30
0.0
 10
356.6658735746205
 20
137.4820409110585
 30
0.0
 10
356.5830694442221
 20
137.3232994987896
 30
0.0
 10
356.5015615539704
 20
137.1631124411566
 30
0.0
 10
356.4213560670235
 20
137.0014888172814
 30
0.0
 10
356.342459027605
 20
136.8384378578239
 30
0.0
 10
356.2648763577528
 20
136.6739689404727
 30
0.0
 10
356.1886138543454
 20
136.508091585299
 30
0.0
 10
356.1136771864073
 20
136.3408154499917
 30
0.0
 10
356.0400718926944
 20
136.1721503250031
 30
0.0
 10
355.9678033795586
 20
136.0021061286255
 30
0.0
 10
355.8968769190891
 20
135.8306929020224
 30
0.0
 10
355.8272976475267
 20
135.6579208042361
 30
0.0
 10
355.7590705639448
 20
135.4838001071927
 30
0.0
 10
355.6922005291927
 20
135.3083411907257
 30
0.0
 10
355.6266922650914
 20
135.131554537632
 30
0.0
 10
355.5625503538743
 20
134.9534507287853
 30
0.0
 10
355.4997792378629
 20
134.7740404383132
 30
0.0
 10
355.4383832193688
 20
134.5933344288641
 30
0.0
 10
355.3783664608094
 20
134.4113435469679
 30
0.0
 10
355.3197329850247
 20
134.2280787185049
 30
0.0
 10
355.2624866757877
 20
134.043550944296
 30
0.0
 10
355.2066312784918
 20
133.8577712958203
 30
0.0
 10
355.1521704010068
 20
133.6707509110726
 30
0.0
 10
355.0991075146871
 20
133.4825009905593
 30
0.0
 10
355.0474459555238
 20
133.2930327934453
 30
0.0
 10
354.997188925425
 20
133.1023576338546
 30
0.0
 10
354.9483394936156
 20
132.910486877324
 30
0.0
 10
354.9009005981413
 20
132.7174319374169
 30
0.0
 10
354.8548750474682
 20
132.5232042724929
 30
0.0
 10
354.8102655221647
 20
132.3278153826386
 30
0.0
 10
354.7670745766561
 20
132.131276806753
 30
0.0
 10
354.7253046410416
 20
131.9336001197914
 30
0.0
 10
354.6849580229631
 20
131.7347969301621
 30
0.0
 10
354.6460369095165
 20
131.534878877272
 30
0.0
 10
354.6085433691977
 20
131.3338576292214
 30
0.0
 10
354.5724793538736
 20
131.1317448806384
 30
0.0
 10
354.5378467007712
 20
130.9285523506555
 30
0.0
 10
354.5046471344771
 20
130.7242917810151
 30
0.0
 10
354.4728822689415
 20
130.5189749343071
 30
0.0
 10
354.4425536094789
 20
130.3126135923243
 30
0.0
 10
354.4136625547621
 20
130.1052195545378
 30
0.0
 10
354.3862103988026
 20
129.896804636681
 30
0.0
 10
354.360198332914
 20
129.6873806694412
 30
0.0
 10
354.3356274476527
 20
129.4769594972459
 30
0.0
 10
354.312498734735
 20
129.2655529771432
 30
0.0
 10
354.290813088925
 20
129.0531729777689
 30
0.0
 10
354.2705713098912
 20
128.8398313783943
 30
0.0
 10
354.2517741040304
 20
128.6255400680451
 30
0.0
 10
354.2344220862561
 20
128.410310944691
 30
0.0
 10
354.2185157817501
 20
128.1941559144952
 30
0.0
 10
354.2040556276764
 20
127.9770868911241
 30
0.0
 10
354.1910419748568
 20
127.759115795102
 30
0.0
 10
354.1794750894061
 20
127.5402545532162
 30
0.0
 10
354.1693551543287
 20
127.3205150979569
 30
0.0
 10
354.1606822746155
 20
127.0999094570144
 30
0.0
 10
354.1534564724666
 20
126.8784496613251
 30
0.0
 10
354.1476776888471
 20
126.6561477431983
 30
0.0
 10
354.1433457842035
 20
126.4330156443037
 30
0.0
 10
354.1404605435692
 20
126.2090653083356
 30
0.0
 10
354.1390216779677
 20
125.9843086819882
 30
0.0
 10
354.1390288257376
 20
125.7587577145573
 30
0.0
 10
354.1404815538229
 20
125.5324243575375
 30
0.0
 10
354.1433793590332
 20
125.3053205642067
 30
0.0
 10
354.1477216692739
 20
125.0774582892138
 30
0.0
 10
354.1535078447492
 20
124.8488494881452
 30
0.0
 10
354.1607371791403
 20
124.6195061170835
 30
0.0
 10
354.1694089007589
 20
124.3894401321442
 30
0.0
 10
354.1795221736817
 20
124.1586634889903
 30
0.0
 10
354.1910760988648
 20
123.9271881423211
 30
0.0
 10
354.2040697152431
 20
123.6950260453334
 30
0.0
 10
354.2185020008158
 20
123.4621891491455
 30
0.0
 10
354.2343718737215
 20
123.228689402191
 30
0.0
 10
354.2516781933044
 20
122.9945387495653
 30
0.0
 10
354.2704197611775
 20
122.7597491323353
 30
0.0
 10
354.2905953222806
 20
122.5243324867982
 30
0.0
 10
354.3122035659446
 20
122.2883007436881
 30
0.0
 10
354.3352431269482
 20
122.0516658273343
 30
0.0
 10
354.3597125866204
 20
121.814439654747
 30
0.0
 10
354.385610473818
 20
121.5766341346804
 30
0.0
 10
354.4129352664211
 20
121.3382611664841
 30
0.0
 10
354.4416853909757
 20
121.0993326394196
 30
0.0
 10
354.4718592293419
 20
120.8598604298937
 30
0.0
 10
354.5034550993087
 20
120.6198564060993
 30
0.0
 10
354.5364713325068
 20
120.3793324046242
 30
0.0
 10
354.5709059893305
 20
120.1383003112465
 30
0.0
 10
354.6067579288363
 20
119.8967717524502
 30
0.0
 10
354.6440228216098
 20
119.6547592393536
 30
0.0
 10
354.6827080375182
 20
119.4122718902332
 30
0.0
 10
354.7227770855003
 20
119.1693313872032
 30
0.0
 10
354.7643569935589
 20
118.9259124103848
 30
0.0
 10
354.7971648534051
 20
118.7382254667157
 30
0.0
 10
354.816577667746
 20
118.6315488125286
 30
0.0
 10
354.8211725637917
 20
118.6062990920148
 30
0.0
  0
LINE
  5
EB
330
1F
100
AcDbEntity
  8
0
  6
Continuous
 62
     7
370
    30
100
AcDbLine
 10
366.519128158
 20
146.1302269679
 30
0.0
 11
361.670521182
 21
143.0476114566
 31
0.0
  0
LINE
  5
EC
330
1F
100
AcDbEntity
  8
0
  6
Continuous
 62
     7
370
    30
100
AcDbLine
 10
398.9104693172
 20
78.5391395879
 30
0.0
 11
404.0046455203
 21
81.1963706298
 31
0.0
  0
LINE
  5
ED
330
1F
100
AcDbEntity
  8
0
  6
Continuous
 62
     7
370
    30
100
AcDbLine
 10
383.6281737036
 20
93.090798842
 30
0.0
 11
388.2879043588
 21
95.7808040909
 31
0.0
  0
LINE
  5
EE
330
1F
100
AcDbEntity
  8
0
  6
Continuous
 62
     7
370
    30
100
AcDbLine
 10
371.289285904
 20
125.2264654118
 30
0.0
 11
366.6296632624
 21
122.5365225179
 31
0.0
  0
LINE
  5
EF
330
1F
100
AcDbEntity
  8
0
  6
Continuous
 62
     7
370
    30
100
AcDbLine
 10
360.5232449321
 20
121.8979305792
 30
0.0
 11
360.4934459422
 21
121.880832813
 31
0.0
  0
LWPOLYLINE
  5
F0
330
1F
100
AcDbEntity
  8
0
  6
Continuous
 62
     7
370
    30
100
AcDbPolyline
 90
        3
 70
   128
 43
0.0
 10
379.9918612286
 20
88.1049271801
 10
379.9926535854
 20
88.1053846723
 10
380.0215811552
 20
88.1221890357
  0
LINE
  5
F1
330
1F
100
AcDbEntity
  8
0
  6
Continuous
 62
     7
370
    30
100
AcDbLine
 10
339.5148706992
 20
106.4372311086
 30
0.0
 11
339.5134969519
 21
106.4364588665
 31
0.0
  0
LWPOLYLINE
  5
F2
330
1F
100
AcDbEntity
  8
0
  6
Continuous
 62
     7
370
    30
100
AcDbPolyline
 90
        3
 70
   128
 43
0.0
 10
398.9366616081
 20
78.5528416522
 10
398.9329691914
 20
78.5509052237
 10
398.8818623814
 20
78.5242647161
  0
LINE
  5
F3
330
1F
100
AcDbEntity
  8
0
  6
Continuous
 62
     7
370
    30
100
AcDbLine
 10
361.6431461072
 20
143.030156921
 30
0.0
 11
361.6962693112
 21
143.0639371676
 31
0.0
  0
LWPOLYLINE
  5
F4
330
1F
100
AcDbEntity
  8
0
  6
Continuous
 62
     7
370
    30
100
AcDbPolyline
 90
       92
 70
   128
 43
0.0
 10
412.2414547486
 20
98.6229676373
 10
412.2323682049
 20
99.4297586857
 10
412.2051148011
 20
100.2464879
 10
412.1597132153
 20
101.0725955347
 10
412.0961945636
 20
101.9075154169
 10
412.0146023785
 20
102.7506753342
 10
411.9149925792
 20
103.601497427
 10
411.7974334331
 20
104.4593985843
 10
411.6620055097
 20
105.3237908434
 10
411.5088016242
 20
106.1940817932
 10
411.3379267751
 20
107.0696749796
 10
411.1494980714
 20
107.9499703148
 10
410.9436446528
 20
108.8343644884
 10
410.7205076009
 20
109.7222513808
 10
410.4802398426
 20
110.6130224786
 10
410.2230060456
 20
111.5060672919
 10
409.948982505
 20
112.4007737723
 10
409.6583570228
 20
113.2965287327
 10
409.3513287792
 20
114.1927182674
 10
409.0281081961
 20
115.0887281729
 10
408.6889167928
 20
115.9839443687
 10
408.3339870339
 20
116.8777533183
 10
407.9635621708
 20
117.7695424498
 10
407.577896074
 20
118.6587005754
 10
407.1772530598
 20
119.5446183106
 10
406.7619077091
 20
120.4266884916
 10
406.3321446786
 20
121.3043065916
 10
405.8882585066
 20
122.1768711349
 10
405.4305534104
 20
123.0437841094
 10
404.9593430783
 20
123.9044513763
 10
404.4749504542
 20
124.7582830771
 10
403.9777075167
 20
125.6046940384
 10
403.4679550513
 20
126.4431041723
 10
402.9460424168
 20
127.2729388743
 10
402.4123273061
 20
128.0936294173
 10
401.8671755008
 20
128.9046133408
 10
401.3109606209
 20
129.7053348372
 10
400.7440638681
 20
130.4952451317
 10
400.1668737651
 20
131.2738028595
 10
399.5797858894
 20
132.0404744358
 10
398.9832026015
 20
132.7947344224
 10
398.3775327698
 20
133.536065887
 10
397.7631914902
 20
134.2639607581
 10
397.1405998016
 20
134.9779201729
 10
396.5101843971
 20
135.6774548194
 10
395.872377332
 20
136.3620852714
 10
395.2276157274
 20
137.0313423174
 10
394.5763414707
 20
137.684767282
 10
393.9190009127
 20
138.3219123405
 10
393.2560445618
 20
138.9423408254
 10
392.5879267752
 20
139.545627526
 10
391.9151054475
 20
140.1313589797
 10
391.2380416967
 20
140.6991337555
 10
390.5571995486
 20
141.248562729
 10
389.8730456183
 20
141.7792693489
 10
389.1860487908
 20
142.2908898954
 10
388.4966798994
 20
142.7830737293
 10
387.8054114031
 20
143.2554835325
 10
387.1127170628
 20
143.7077955389
 10
386.4190716165
 20
144.1396997563
 10
385.7249504543
 20
144.5509001793
 10
385.0308292921
 20
144.9411149916
 10
384.3371838459
 20
145.3100767595
 10
383.6444895055
 20
145.6575326149
 10
382.9532210092
 20
145.9832444291
 10
382.2638521178
 20
146.2869889753
 10
381.5768552903
 20
146.5685580824
 10
380.89270136
 20
146.8277587767
 10
380.2118592119
 20
147.0644134152
 10
379.5347954611
 20
147.2783598066
 10
378.8619741334
 20
147.4694513227
 10
378.1938563468
 20
147.637556999
 10
377.530899996
 20
147.7825616241
 10
376.873559438
 20
147.9043658192
 10
376.2222851813
 20
148.0028861058
 10
375.5775235767
 20
148.0780549629
 10
374.9397165115
 20
148.1298208737
 10
374.3093011071
 20
148.1581483603
 10
373.6867094184
 20
148.1630180084
 10
373.0723681388
 20
148.1444264807
 10
372.4666983072
 20
148.1023865189
 10
371.8701150193
 20
148.0369269351
 10
371.2830271435
 20
147.9480925919
 10
370.7058370406
 20
147.8359443721
 10
370.1389402878
 20
147.7005591364
 10
369.5827254078
 20
147.542029671
 10
369.0375736026
 20
147.3604646242
 10
368.5038584918
 20
147.1559884316
 10
367.9819458574
 20
146.9287412309
 10
367.4721933919
 20
146.678878766
 10
366.9749504545
 20
146.4065722802
 10
366.519128158
 20
146.1302269679
  0
LWPOLYLINE
  5
F5
330
1F
100
AcDbEntity
  8
0
  6
Continuous
 62
     7
370
    30
100
AcDbPolyline
 90
       32
 70
   128
 43
0.0
 10
404.0046455203
 20
81.1963706298
 10
404.4749504542
 20
81.4546671874
 10
404.9593430783
 20
81.7492310689
 10
405.4305534104
 20
82.0658504667
 10
405.8882585066
 20
82.4043083856
 10
406.3321446786
 20
82.7643728636
 10
406.7619077091
 20
83.1457971303
 10
407.1772530598
 20
83.5483197768
 10
407.577896074
 20
83.971664934
 10
407.9635621708
 20
84.4155424624
 10
408.3339870339
 20
84.8796481504
 10
408.6889167928
 20
85.3636639231
 10
409.0281081961
 20
85.8672580605
 10
409.3513287792
 20
86.3900854242
 10
409.6583570228
 20
86.9317876943
 10
409.948982505
 20
87.4919936154
 10
410.2230060456
 20
88.0703192501
 10
410.4802398426
 20
88.6663682431
 10
410.7205076009
 20
89.279732092
 10
410.9436446528
 20
89.909990428
 10
411.1494980714
 20
90.5567113035
 10
411.3379267751
 20
91.2194514882
 10
411.5088016242
 20
91.8977567732
 10
411.6620055097
 20
92.591162282
 10
411.7974334331
 20
93.2991927889
 10
411.9149925792
 20
94.0213630453
 10
412.0146023785
 20
94.7571781117
 10
412.0961945636
 20
95.5061336973
 10
412.1597132153
 20
96.2677165053
 10
412.2051148011
 20
97.0414045849
 10
412.2323682049
 20
97.8266676889
 10
412.2414547486
 20
98.6229676373
  0
LWPOLYLINE
  5
F6
330
1F
100
AcDbEntity
  8
0
  6
Continuous
 62
     7
370
    30
100
AcDbPolyline
 90
      122
 70
   128
 43
0.0
 10
388.2879043588
 20
95.7808040909
 10
388.4985625296
 20
95.9085969222
 10
388.7124463428
 20
96.0516891637
 10
388.9202141941
 20
96.2046860469
 10
389.1217236899
 20
96.3674827153
 10
389.3168367255
 20
96.5399675961
 10
389.5054195803
 20
96.722022477
 10
389.6873430089
 20
96.9135225865
 10
389.8624823303
 20
97.11433668
 10
390.0307175125
 20
97.3243271296
 10
390.1919332557
 20
97.5433500183
 10
390.3460190706
 20
97.7712552388
 10
390.4928693544
 20
98.0078865962
 10
390.6323834634
 20
98.2530819152
 10
390.7644657816
 20
98.5066731512
 10
390.8890257862
 20
98.7684865055
 10
391.0059781102
 20
99.0383425441
 10
391.1152426002
 20
99.3160563214
 10
391.2167443718
 20
99.601437506
 10
391.3104138607
 20
99.8942905121
 10
391.3961868707
 20
100.1944146328
 10
391.474004617
 20
100.5016041779
 10
391.5438137674
 20
100.8156486153
 10
391.6055664781
 20
101.1363327143
 10
391.659220427
 20
101.4634366943
 10
391.7047388422
 20
101.7967363745
 10
391.7420905277
 20
102.1360033279
 10
391.7712498846
 20
102.4810050379
 10
391.7921969285
 20
102.8315050576
 10
391.8049173033
 20
103.1872631718
 10
391.8094022911
 20
103.5480355615
 10
391.8056488181
 20
103.9135749715
 10
391.7936594568
 20
104.2836308793
 10
391.773442424
 20
104.6579496671
 10
391.7450115756
 20
105.0362747954
 10
391.7083863966
 20
105.4183469791
 10
391.6635919881
 20
105.8039043651
 10
391.6106590499
 20
106.1926827115
 10
391.5496238596
 20
106.584415569
 10
391.4805282477
 20
106.9788344637
 10
391.4034195688
 20
107.3756690804
 10
391.3183506695
 20
107.7746474485
 10
391.2253798517
 20
108.1754961282
 10
391.1245708328
 20
108.5779403978
 10
391.0159927025
 20
108.9817044422
 10
390.8997198747
 20
109.3865115415
 10
390.775832037
 20
109.7920842613
 10
390.644414096
 20
110.1981446423
 10
390.5055561189
 20
110.6044143909
 10
390.3593532721
 20
111.0106150702
 10
390.2059057556
 20
111.4164682905
 10
390.0453187348
 20
111.8216959003
 10
389.877702268
 20
112.2260201769
 10
389.7031712312
 20
112.6291640164
 10
389.5218452391
 20
113.0308511244
 10
389.3338485635
 20
113.4308062046
 10
389.1393100481
 20
113.8287551476
 10
388.9383630197
 20
114.2244252192
 10
388.7311451975
 20
114.6175452469
 10
388.5177985982
 20
115.0078458058
 10
388.2984694388
 20
115.3950594035
 10
388.0733080366
 20
115.778920663
 10
387.8424687061
 20
116.1591665051
 10
387.6061096529
 20
116.5355363282
 10
387.3643928658
 20
116.9077721873
 10
387.1174840053
 20
117.2756189705
 10
386.8655522904
 20
117.6388245739
 10
386.6087703826
 20
117.9971400747
 10
386.3473142674
 20
118.3503199012
 10
386.0813631337
 20
118.6981220017
 10
385.8110992511
 20
119.0403080099
 10
385.5367078451
 20
119.3766434087
 10
385.2583769697
 20
119.7068976906
 10
384.9762973791
 20
120.0308445157
 10
384.6906623964
 20
120.3482618672
 10
384.4016677818
 20
120.6589322031
 10
384.1095115975
 20
120.9626426053
 10
383.814394073
 20
121.2591849259
 10
383.516517467
 20
121.5483559298
 10
383.2160859292
 20
121.8299574334
 10
382.9133053604
 20
122.1037964412
 10
382.6083832713
 20
122.3696852777
 10
382.3015286403
 20
122.6274417158
 10
381.9929517701
 20
122.8768891023
 10
381.6828641441
 20
123.1178564782
 10
381.3714782806
 20
123.3501786967
 10
381.0590075882
 20
123.5736965357
 10
380.7456662185
 20
123.7882568072
 10
380.43166892
 20
123.9937124623
 10
380.117230891
 20
124.189922692
 10
379.8025676314
 20
124.3767530236
 10
379.4878947957
 20
124.5540754129
 10
379.173428045
 20
124.721768332
 10
378.8593828991
 20
124.8797168525
 10
378.5459745889
 20
125.0278127245
 10
378.2334179087
 20
125.1659544504
 10
377.9219270693
 20
125.2940473548
 10
377.611715551
 20
125.4120036492
 10
377.3029959572
 20
125.5197424922
 10
376.9959798688
 20
125.6171900451
 10
376.6908776995
 20
125.7042795221
 10
376.387898551
 20
125.7809512364
 10
376.0872500701
 20
125.8471526412
 10
375.7891383062
 20
125.9028383652
 10
375.4937675702
 20
125.9479702443
 10
375.2013402945
 20
125.9825173473
 10
374.9120568941
 20
126.0064559973
 10
374.6261156294
 20
126.0197697881
 10
374.3437124703
 20
126.0224495949
 10
374.0650409619
 20
126.0144935812
 10
373.7902920915
 20
125.9959071997
 10
373.5196541584
 20
125.9667031885
 10
373.2533126443
 20
125.9269015626
 10
372.9914500864
 20
125.8765296
 10
372.7342459522
 20
125.8156218232
 10
372.4818765166
 20
125.7442199753
 10
372.2345147409
 20
125.6623729916
 10
371.9923301545
 20
125.5701369658
 10
371.7554887388
 20
125.4675751121
 10
371.5241528129
 20
125.3547577211
 10
371.298480923
 20
125.2317621122
 10
371.289285904
 20
125.2264654118
  0
ENDSEC
  0
SECTION
  2
OBJECTS
  0
DICTIONARY
  5
C
330
0
100
AcDbDictionary
281
     1
  3
ACAD_GROUP
350
D
  3
ACAD_LAYOUT
350
1A
  3
ACAD_MLINESTYLE
350
17
  3
ACAD_PLOTSETTINGS
350
19
  3
ACAD_PLOTSTYLENAME
350
E
  3
ACAD_SCALELIST
350
47
  0
DICTIONARY
  5
D
102
{ACAD_REACTORS
330
C
102
}
330
C
100
AcDbDictionary
281
     1
  0
DICTIONARY
  5
1A
102
{ACAD_REACTORS
330
C
102
}
330
C
100
AcDbDictionary
281
     1
  3
Layout1
350
1E
  3
Layout2
350
26
  3
Model
350
22
  0
DICTIONARY
  5
17
102
{ACAD_REACTORS
330
C
102
}
330
C
100
AcDbDictionary
281
     1
  3
Standard
350
18
  0
DICTIONARY
  5
19
102
{ACAD_REACTORS
330
C
102
}
330
C
100
AcDbDictionary
281
     1
  0
ACDBDICTIONARYWDFLT
  5
E
102
{ACAD_REACTORS
330
C
102
}
330
C
100
AcDbDictionary
281
     1
  3
Normal
350
F
100
AcDbDictionaryWithDefault
340
F
  0
DICTIONARY
  5
47
102
{ACAD_REACTORS
330
C
102
}
330
C
100
AcDbDictionary
281
     1
  3
A0
350
48
  3
A1
350
49
  3
A2
350
4A
  3
A3
350
4B
  3
A4
350
4C
  3
A5
350
4D
  3
A6
350
4E
  3
A7
350
4F
  3
A8
350
50
  3
A9
350
51
  3
B0
350
52
  3
B1
350
53
  3
B2
350
54
  3
B3
350
55
  3
B4
350
56
  3
B5
350
57
  3
B6
350
58
  3
B7
350
59
  3
B8
350
5A
  3
B9
350
5B
  3
C0
350
5C
  3
C1
350
5D
  3
C2
350
5E
  3
C3
350
5F
  3
C4
350
60
  3
C5
350
61
  3
C6
350
62
  3
C7
350
63
  3
C8
350
64
  3
C9
350
65
  3
D0
350
66
  3
D1
350
67
  3
D2
350
68
  0
LAYOUT
  5
1E
102
{ACAD_REACTORS
330
1A
102
}
330
1A
100
AcDbPlotSettings
  1

  2
none_device
  4

  6

 40
0.0
 41
0.0
 42
0.0
 43
0.0
 44
0.0
 45
0.0
 46
0.0
 47
0.0
 48
0.0
 49
0.0
140
0.0
141
0.0
142
1.0
143
1.0
 70
   688
 72
     1
 73
     0
 74
     5
  7

 75
    16
147
1.0
148
0.0
149
0.0
100
AcDbLayout
  1
Layout1
 70
     1
 71
     1
 10
0.0
 20
0.0
 11
420.0
 21
297.0
 12
0.0
 22
0.0
 32
0.0
 14
1.0000000000E+20
 24
1.0000000000E+20
 34
1.0000000000E+20
 15
-1.0000000000E+20
 25
-1.0000000000E+20
 35
-1.0000000000E+20
146
0.0
 13
0.0
 23
0.0
 33
0.0
 16
1.0
 26
0.0
 36
0.0
 17
0.0
 27
1.0
 37
0.0
 76
     0
330
1B
  0
LAYOUT
  5
26
102
{ACAD_REACTORS
330
1A
102
}
330
1A
100
AcDbPlotSettings
  1

  2
none_device
  4

  6

 40
0.0
 41
0.0
 42
0.0
 43
0.0
 44
0.0
 45
0.0
 46
0.0
 47
0.0
 48
0.0
 49
0.0
140
0.0
141
0.0
142
1.0
143
1.0
 70
   688
 72
     1
 73
     0
 74
     5
  7

 75
    16
147
1.0
148
0.0
149
0.0
100
AcDbLayout
  1
Layout2
 70
     1
 71
     2
 10
0.0
 20
0.0
 11
0.0
 21
0.0
 12
0.0
 22
0.0
 32
0.0
 14
0.0
 24
0.0
 34
0.0
 15
0.0
 25
0.0
 35
0.0
146
0.0
 13
0.0
 23
0.0
 33
0.0
 16
1.0
 26
0.0
 36
0.0
 17
0.0
 27
1.0
 37
0.0
 76
     0
330
23
  0
LAYOUT
  5
22
102
{ACAD_REACTORS
330
1A
102
}
330
1A
100
AcDbPlotSettings
  1

  2
none_device
  4
Letter_(8.50_x_11.00_Inches)
  6

 40
6.35
 41
6.35
 42
6.35000508
 43
6.35000508
 44
215.9
 45
279.4
 46
0.0
 47
0.0
 48
0.0
 49
0.0
140
0.0
141
0.0
142
1.0
143
1.0
 70
  1712
 72
     1
 73
     0
 74
     0
  7

 75
     0
147
1.0
148
0.0
149
0.0
100
AcDbLayout
  1
Model
 70
     1
 71
     0
 10
0.0
 20
0.0
 11
448.0
 21
341.0
 12
0.0
 22
0.0
 32
0.0
 14
0.0
 24
0.0
 34
0.0
 15
448.0
 25
341.0
 35
0.0
146
0.0
 13
0.0
 23
0.0
 33
0.0
 16
1.0
 26
0.0
 36
0.0
 17
0.0
 27
1.0
 37
0.0
 76
     0
330
1F
331
29
  0
MLINESTYLE
  5
18
102
{ACAD_REACTORS
330
17
102
}
330
17
100
AcDbMlineStyle
  2
Standard
 70
     0
  3

 62
   256
 51
90.0
 52
90.0
 71
     2
 49
0.5
 62
   256
  6
BYLAYER
 49
-0.5
 62
   256
  6
BYLAYER
  0
ACDBPLACEHOLDER
  5
F
102
{ACAD_REACTORS
330
E
102
}
330
E
  0
SCALE
  5
48
102
{ACAD_REACTORS
330
47
102
}
330
47
100
AcDbScale
 70
     0
300
1:1
140
1.0
141
1.0
290
     1
  0
SCALE
  5
49
102
{ACAD_REACTORS
330
47
102
}
330
47
100
AcDbScale
 70
     0
300
1:2
140
1.0
141
2.0
290
     0
  0
SCALE
  5
4A
102
{ACAD_REACTORS
330
47
102
}
330
47
100
AcDbScale
 70
     0
300
1:4
140
1.0
141
4.0
290
     0
  0
SCALE
  5
4B
102
{ACAD_REACTORS
330
47
102
}
330
47
100
AcDbScale
 70
     0
300
1:5
140
1.0
141
5.0
290
     0
  0
SCALE
  5
4C
102
{ACAD_REACTORS
330
47
102
}
330
47
100
AcDbScale
 70
     0
300
1:8
140
1.0
141
8.0
290
     0
  0
SCALE
  5
4D
102
{ACAD_REACTORS
330
47
102
}
330
47
100
AcDbScale
 70
     0
300
1:10
140
1.0
141
10.0
290
     0
  0
SCALE
  5
4E
102
{ACAD_REACTORS
330
47
102
}
330
47
100
AcDbScale
 70
     0
300
1:16
140
1.0
141
16.0
290
     0
  0
SCALE
  5
4F
102
{ACAD_REACTORS
330
47
102
}
330
47
100
AcDbScale
 70
     0
300
1:20
140
1.0
141
20.0
290
     0
  0
SCALE
  5
50
102
{ACAD_REACTORS
330
47
102
}
330
47
100
AcDbScale
 70
     0
300
1:30
140
1.0
141
30.0
290
     0
  0
SCALE
  5
51
102
{ACAD_REACTORS
330
47
102
}
330
47
100
AcDbScale
 70
     0
300
1:40
140
1.0
141
40.0
290
     0
  0
SCALE
  5
52
102
{ACAD_REACTORS
330
47
102
}
330
47
100
AcDbScale
 70
     0
300
1:50
140
1.0
141
50.0
290
     0
  0
SCALE
  5
53
102
{ACAD_REACTORS
330
47
102
}
330
47
100
AcDbScale
 70
     0
300
1:100
140
1.0
141
100.0
290
     0
  0
SCALE
  5
54
102
{ACAD_REACTORS
330
47
102
}
330
47
100
AcDbScale
 70
     0
300
2:1
140
2.0
141
1.0
290
     0
  0
SCALE
  5
55
102
{ACAD_REACTORS
330
47
102
}
330
47
100
AcDbScale
 70
     0
300
4:1
140
4.0
141
1.0
290
     0
  0
SCALE
  5
56
102
{ACAD_REACTORS
330
47
102
}
330
47
100
AcDbScale
 70
     0
300
8:1
140
8.0
141
1.0
290
     0
  0
SCALE
  5
57
102
{ACAD_REACTORS
330
47
102
}
330
47
100
AcDbScale
 70
     0
300
10:1
140
10.0
141
1.0
290
     0
  0
SCALE
  5
58
102
{ACAD_REACTORS
330
47
102
}
330
47
100
AcDbScale
 70
     0
300
100:1
140
100.0
141
1.0
290
     0
  0
SCALE
  5
59
102
{ACAD_REACTORS
330
47
102
}
330
47
100
AcDbScale
 70
     0
300
1/128" = 1'-0"
140
0.0078125
141
12.0
290
     0
  0
SCALE
  5
5A
102
{ACAD_REACTORS
330
47
102
}
330
47
100
AcDbScale
 70
     0
300
1/64" = 1'-0"
140
0.015625
141
12.0
290
     0
  0
SCALE
  5
5B
102
{ACAD_REACTORS
330
47
102
}
330
47
100
AcDbScale
 70
     0
300
1/32" = 1'-0"
140
0.03125
141
12.0
290
     0
  0
SCALE
  5
5C
102
{ACAD_REACTORS
330
47
102
}
330
47
100
AcDbScale
 70
     0
300
1/16" = 1'-0"
140
0.0625
141
12.0
290
     0
  0
SCALE
  5
5D
102
{ACAD_REACTORS
330
47
102
}
330
47
100
AcDbScale
 70
     0
300
3/32" = 1'-0"
140
0.09375
141
12.0
290
     0
  0
SCALE
  5
5E
102
{ACAD_REACTORS
330
47
102
}
330
47
100
AcDbScale
 70
     0
300
1/8" = 1'-0"
140
0.125
141
12.0
290
     0
  0
SCALE
  5
5F
102
{ACAD_REACTORS
330
47
102
}
330
47
100
AcDbScale
 70
     0
300
3/16" = 1'-0"
140
0.1875
141
12.0
290
     0
  0
SCALE
  5
60
102
{ACAD_REACTORS
330
47
102
}
330
47
100
AcDbScale
 70
     0
300
1/4" = 1'-0"
140
0.25
141
12.0
290
     0
  0
SCALE
  5
61
102
{ACAD_REACTORS
330
47
102
}
330
47
100
AcDbScale
 70
     0
300
3/8" = 1'-0"
140
0.375
141
12.0
290
     0
  0
SCALE
  5
62
102
{ACAD_REACTORS
330
47
102
}
330
47
100
AcDbScale
 70
     0
300
1/2" = 1'-0"
140
0.5
141
12.0
290
     0
  0
SCALE
  5
63
102
{ACAD_REACTORS
330
47
102
}
330
47
100
AcDbScale
 70
     0
300
3/4" = 1'-0"
140
0.75
141
12.0
290
     0
  0
SCALE
  5
64
102
{ACAD_REACTORS
330
47
102
}
330
47
100
AcDbScale
 70
     0
300
1" = 1'-0"
140
1.0
141
12.0
290
     0
  0
SCALE
  5
65
102
{ACAD_REACTORS
330
47
102
}
330
47
100
AcDbScale
 70
     0
300
1-1/2" = 1'-0"
140
1.5
141
12.0
290
     0
  0
SCALE
  5
66
102
{ACAD_REACTORS
330
47
102
}
330
47
100
AcDbScale
 70
     0
300
3" = 1'-0"
140
3.0
141
12.0
290
     0
  0
SCALE
  5
67
102
{ACAD_REACTORS
330
47
102
}
330
47
100
AcDbScale
 70
     0
300
6" = 1'-0"
140
6.0
141
12.0
290
     0
  0
SCALE
  5
68
102
{ACAD_REACTORS
330
47
102
}
330
47
100
AcDbScale
 70
     0
300
1'-0" = 1'-0"
140
12.0
141
12.0
290
     0
  0
ENDSEC
  0
EOF
